  0
SECTION
  2
HEADER
  9
$ACADVER
  1
AC1015
  9
$ACADMAINTVER
 70
     6
  9
$DWGCODEPAGE
  3
ANSI_1252
  9
$INSBASE
 10
0.0
 20
0.0
 30
0.0
  9
$EXTMIN
 10
0.0
 20
0.0
 30
0.0
  9
$EXTMAX
 10
3000.0
 20
4500.0
 30
0.0
  9
$LIMMIN
 10
0.0
 20
0.0
  9
$LIMMAX
 10
3000.0
 20
4500.0
  9
$ORTHOMODE
 70
     0
  9
$REGENMODE
 70
     1
  9
$FILLMODE
 70
     1
  9
$QTEXTMODE
 70
     0
  9
$MIRRTEXT
 70
     1
  9
$LTSCALE
 40
1.0
  9
$ATTMODE
 70
     1
  9
$TEXTSIZE
 40
10.0
  9
$TRACEWID
 40
1.0
  9
$TEXTSTYLE
  7
Standard
  9
$CLAYER
  8
0
  9
$CELTYPE
  6
ByLayer
  9
$CECOLOR
 62
   256
  9
$CELTSCALE
 40
1.0
  9
$DISPSILH
 70
     0
  9
$DIMSCALE
 40
1.0
  9
$DIMASZ
 40
2.5
  9
$DIMEXO
 40
0.625
  9
$DIMDLI
 40
3.75
  9
$DIMRND
 40
0.0
  9
$DIMDLE
 40
0.0
  9
$DIMEXE
 40
1.25
  9
$DIMTP
 40
0.0
  9
$DIMTM
 40
0.0
  9
$DIMTXT
 40
2.5
  9
$DIMCEN
 40
2.5
  9
$DIMTSZ
 40
0.0
  9
$DIMTOL
 70
     0
  9
$DIMLIM
 70
     0
  9
$DIMTIH
 70
     0
  9
$DIMTOH
 70
     0
  9
$DIMSE1
 70
     0
  9
$DIMSE2
 70
     0
  9
$DIMTAD
 70
     1
  9
$DIMZIN
 70
     8
  9
$DIMBLK
  1

  9
$DIMASO
 70
     1
  9
$DIMSHO
 70
     1
  9
$DIMPOST
  1

  9
$DIMAPOST
  1

  9
$DIMALT
 70
     0
  9
$DIMALTD
 70
     3
  9
$DIMALTF
 40
0.0393700787
  9
$DIMLFAC
 40
1.0
  9
$DIMTOFL
 70
     1
  9
$DIMTVP
 40
0.0
  9
$DIMTIX
 70
     0
  9
$DIMSOXD
 70
     0
  9
$DIMSAH
 70
     0
  9
$DIMBLK1
  1

  9
$DIMBLK2
  1

  9
$DIMSTYLE
  2
ISO-25
  9
$DIMCLRD
 70
     0
  9
$DIMCLRE
 70
     0
  9
$DIMCLRT
 70
     0
  9
$DIMTFAC
 40
1.0
  9
$DIMGAP
 40
0.625
  9
$DIMJUST
 70
     0
  9
$DIMSD1
 70
     0
  9
$DIMSD2
 70
     0
  9
$DIMTOLJ
 70
     0
  9
$DIMTZIN
 70
     8
  9
$DIMALTZ
 70
     0
  9
$DIMALTTZ
 70
     0
  9
$DIMUPT
 70
     0
  9
$DIMDEC
 70
     2
  9
$DIMTDEC
 70
     2
  9
$DIMALTU
 70
     2
  9
$DIMALTTD
 70
     3
  9
$DIMTXSTY
  7
Standard
  9
$DIMAUNIT
 70
     0
  9
$DIMADEC
 70
     0
  9
$DIMALTRND
 40
0.0
  9
$DIMAZIN
 70
     0
  9
$DIMDSEP
 70
    44
  9
$DIMATFIT
 70
     3
  9
$DIMFRAC
 70
     0
  9
$DIMLDRBLK
  1

  9
$DIMLUNIT
 70
     2
  9
$DIMLWD
 70
    -2
  9
$DIMLWE
 70
    -2
  9
$DIMTMOVE
 70
     0
  9
$LUNITS
 70
     2
  9
$LUPREC
 70
     4
  9
$SKETCHINC
 40
1.0
  9
$FILLETRAD
 40
10.0
  9
$AUNITS
 70
     0
  9
$AUPREC
 70
     0
  9
$MENU
  1
.
  9
$ELEVATION
 40
0.0
  9
$PELEVATION
 40
0.0
  9
$THICKNESS
 40
0.0
  9
$LIMCHECK
 70
     0
  9
$CHAMFERA
 40
0.0
  9
$CHAMFERB
 40
0.0
  9
$CHAMFERC
 40
0.0
  9
$CHAMFERD
 40
0.0
  9
$SKPOLY
 70
     0
  9
$TDCREATE
 40
2457294.358349838
  9
$TDUCREATE
 40
2457294.275016505
  9
$TDUPDATE
 40
2457294.358355324
  9
$TDUUPDATE
 40
2457294.275021991
  9
$TDINDWG
 40
0.0000000116
  9
$TDUSRTIMER
 40
0.0000000116
  9
$USRTIMER
 70
     1
  9
$ANGBASE
 50
0.0
  9
$ANGDIR
 70
     0
  9
$PDMODE
 70
     0
  9
$PDSIZE
 40
0.0
  9
$PLINEWID
 40
0.0
  9
$SPLFRAME
 70
     0
  9
$SPLINETYPE
 70
     6
  9
$SPLINESEGS
 70
     8
  9
$HANDSEED
  5
273
  9
$SURFTAB1
 70
     6
  9
$SURFTAB2
 70
     6
  9
$SURFTYPE
 70
     6
  9
$SURFU
 70
     6
  9
$SURFV
 70
     6
  9
$UCSBASE
  2

  9
$UCSNAME
  2

  9
$UCSORG
 10
0.0
 20
0.0
 30
0.0
  9
$UCSXDIR
 10
1.0
 20
0.0
 30
0.0
  9
$UCSYDIR
 10
0.0
 20
1.0
 30
0.0
  9
$UCSORTHOREF
  2

  9
$UCSORTHOVIEW
 70
     0
  9
$UCSORGTOP
 10
0.0
 20
0.0
 30
0.0
  9
$UCSORGBOTTOM
 10
0.0
 20
0.0
 30
0.0
  9
$UCSORGLEFT
 10
0.0
 20
0.0
 30
0.0
  9
$UCSORGRIGHT
 10
0.0
 20
0.0
 30
0.0
  9
$UCSORGFRONT
 10
0.0
 20
0.0
 30
0.0
  9
$UCSORGBACK
 10
0.0
 20
0.0
 30
0.0
  9
$PUCSBASE
  2

  9
$PUCSNAME
  2

  9
$PUCSORG
 10
0.0
 20
0.0
 30
0.0
  9
$PUCSXDIR
 10
1.0
 20
0.0
 30
0.0
  9
$PUCSYDIR
 10
0.0
 20
1.0
 30
0.0
  9
$PUCSORTHOREF
  2

  9
$PUCSORTHOVIEW
 70
     0
  9
$PUCSORGTOP
 10
0.0
 20
0.0
 30
0.0
  9
$PUCSORGBOTTOM
 10
0.0
 20
0.0
 30
0.0
  9
$PUCSORGLEFT
 10
0.0
 20
0.0
 30
0.0
  9
$PUCSORGRIGHT
 10
0.0
 20
0.0
 30
0.0
  9
$PUCSORGFRONT
 10
0.0
 20
0.0
 30
0.0
  9
$PUCSORGBACK
 10
0.0
 20
0.0
 30
0.0
  9
$USERI1
 70
     0
  9
$USERI2
 70
     0
  9
$USERI3
 70
     0
  9
$USERI4
 70
     0
  9
$USERI5
 70
     0
  9
$USERR1
 40
0.0
  9
$USERR2
 40
0.0
  9
$USERR3
 40
0.0
  9
$USERR4
 40
0.0
  9
$USERR5
 40
0.0
  9
$WORLDVIEW
 70
     1
  9
$SHADEDGE
 70
     3
  9
$SHADEDIF
 70
    70
  9
$TILEMODE
 70
     1
  9
$MAXACTVP
 70
    64
  9
$PINSBASE
 10
0.0
 20
0.0
 30
0.0
  9
$PLIMCHECK
 70
     0
  9
$PEXTMIN
 10
0.0
 20
0.0
 30
0.0
  9
$PEXTMAX
 10
3000.0
 20
4500.0
 30
0.0
  9
$PLIMMIN
 10
0.0
 20
0.0
  9
$PLIMMAX
 10
3000.0
 20
4500.0
  9
$UNITMODE
 70
     0
  9
$VISRETAIN
 70
     1
  9
$PLINEGEN
 70
     0
  9
$PSLTSCALE
 70
     1
  9
$TREEDEPTH
 70
  3020
  9
$CMLSTYLE
  2
Standard
  9
$CMLJUST
 70
     0
  9
$CMLSCALE
 40
20.0
  9
$PROXYGRAPHICS
 70
     1
  9
$MEASUREMENT
 70
     1
  9
$CELWEIGHT
370
    -1
  9
$ENDCAPS
280
     0
  9
$JOINSTYLE
280
     0
  9
$LWDISPLAY
290
     0
  9
$INSUNITS
 70
     4
  9
$HYPERLINKBASE
  1

  9
$STYLESHEET
  1

  9
$XEDIT
290
     1
  9
$CEPSNTYPE
380
     0
  9
$PSTYLEMODE
290
     1
  9
$FINGERPRINTGUID
  2
{458D5323-4A13-435D-8D1A-14C943FED4E4}
  9
$VERSIONGUID
  2
{FAEB1C32-E019-11D5-929B-00C0DF256EC4}
  9
$EXTNAMES
290
     1
  9
$PSVPSCALE
 40
0.0
  9
$OLESTARTUP
290
     0
  0
ENDSEC
  0
SECTION
  2
CLASSES
  0
CLASS
  1
ACDBDICTIONARYWDFLT
  2
AcDbDictionaryWithDefault
  3
ObjectDBX Classes
 90
        0
280
     0
281
     0
  0
CLASS
  1
VISUALSTYLE
  2
AcDbVisualStyle
  3
ObjectDBX Classes
 90
     4095
280
     0
281
     0
  0
CLASS
  1
MATERIAL
  2
AcDbMaterial
  3
ObjectDBX Classes
 90
     1153
280
     0
281
     0
  0
CLASS
  1
SCALE
  2
AcDbScale
  3
ObjectDBX Classes
 90
     1153
280
     0
281
     0
  0
CLASS
  1
SUN
  2
AcDbSun
  3
SCENEOE
 90
     1153
280
     0
281
     0
  0
CLASS
  1
DICTIONARYVAR
  2
AcDbDictionaryVar
  3
ObjectDBX Classes
 90
        0
280
     0
281
     0
  0
CLASS
  1
ACDBPLACEHOLDER
  2
AcDbPlaceHolder
  3
ObjectDBX Classes
 90
        0
280
     0
281
     0
  0
CLASS
  1
LAYOUT
  2
AcDbLayout
  3
ObjectDBX Classes
 90
        0
280
     0
281
     0
  0
ENDSEC
  0
SECTION
  2
TABLES
  0
TABLE
  2
VPORT
  5
8
330
0
100
AcDbSymbolTable
 70
     1
  0
VPORT
  5
29
330
8
100
AcDbSymbolTableRecord
100
AcDbViewportTableRecord
  2
*Active
 70
     0
 10
0.0
 20
0.0
 11
1.0
 21
1.0
 12
344.1869158879
 22
148.5
 13
0.0
 23
0.0
 14
10.0
 24
10.0
 15
10.0
 25
10.0
 16
0.0
 26
0.0
 36
1.0
 17
0.0
 27
0.0
 37
0.0
 40
297.0
 41
1.9729729729
 42
50.0
 43
0.0
 44
0.0
 50
0.0
 51
0.0
 71
     0
 72
   100
 73
     1
 74
     3
 75
     0
 76
     0
 77
     0
 78
     0
281
     0
 65
     1
110
0.0
120
0.0
130
0.0
111
1.0
121
0.0
131
0.0
112
0.0
122
1.0
132
0.0
 79
     0
146
0.0
  0
ENDTAB
  0
TABLE
  2
LTYPE
  5
5
330
0
100
AcDbSymbolTable
 70
     2
  0
LTYPE
  5
14
330
5
100
AcDbSymbolTableRecord
100
AcDbLinetypeTableRecord
  2
ByBlock
 70
     0
  3

 72
    65
 73
     0
 40
0.0
  0
LTYPE
  5
15
330
5
100
AcDbSymbolTableRecord
100
AcDbLinetypeTableRecord
  2
ByLayer
 70
     0
  3

 72
    65
 73
     0
 40
0.0
  0
LTYPE
  5
16
330
5
100
AcDbSymbolTableRecord
100
AcDbLinetypeTableRecord
  2
Continuous
 70
     0
  3
Solid line
 72
    65
 73
     0
 40
0.0
  0
LTYPE
  5
6D
330
5
100
AcDbSymbolTableRecord
100
AcDbLinetypeTableRecord
  2
CENTER2
 70
     0
  3
Center (.5x) ___ _ ___ _ ___ _ ___ _ ___ _ ___
 72
    65
 73
     4
 40
28.575
 49
19.05
 74
     4
 75
     0
340
0
 46
0.0
 50
0.0
 44
0.0
 45
0.0
 49
-3.175
 74
     4
 75
     0
340
0
 46
0.0
 50
0.0
 44
0.0
 45
0.0
 49
3.175
 74
     4
 75
     0
340
0
 46
0.0
 50
0.0
 44
0.0
 45
0.0
 49
-3.175
 74
     4
 75
     0
340
0
 46
0.0
 50
0.0
 44
0.0
 45
0.0
  0
ENDTAB
  0
TABLE
  2
LAYER
  5
2
330
0
100
AcDbSymbolTable
 70
    11
  0
LAYER
  5
10
330
2
100
AcDbSymbolTableRecord
100
AcDbLayerTableRecord
  2
0
 70
     0
 62
     7
  6
Continuous
370
    -3
390
F
  0
LAYER
  5
6A
330
2
100
AcDbSymbolTableRecord
100
AcDbLayerTableRecord
  2
Default
 70
     0
 62
     7
  6
Continuous
370
    -3
390
F
  0
LAYER
  5
84
330
2
100
AcDbSymbolTableRecord
100
AcDbLayerTableRecord
  2
(5_5) 401820138_
 70
     0
 62
     7
  6
Continuous
370
    -3
390
F
  0
LAYER
  5
96
330
2
100
AcDbSymbolTableRecord
100
AcDbLayerTableRecord
  2
(1_1) 403130038_
 70
     0
 62
     7
  6
Continuous
370
    -3
390
F
  0
LAYER
  5
A1
330
2
100
AcDbSymbolTableRecord
100
AcDbLayerTableRecord
  2
(1_1)_02636138_2
 70
     0
 62
     7
  6
Continuous
370
    -3
390
F
  0
LAYER
  5
B7
330
2
100
AcDbSymbolTableRecord
100
AcDbLayerTableRecord
  2
(1_1)_06828131_4
 70
     0
 62
     7
  6
Continuous
370
    -3
390
F
  0
LAYER
  5
175
330
2
100
AcDbSymbolTableRecord
100
AcDbLayerTableRecord
  2
(3_3) 407020038_
 70
     0
 62
     7
  6
Continuous
370
    -3
390
F
  0
LAYER
  5
193
330
2
100
AcDbSymbolTableRecord
100
AcDbLayerTableRecord
  2
DV2_Default
 70
     0
 62
     7
  6
Continuous
370
    -3
390
F
  0
LAYER
  5
204
330
2
100
AcDbSymbolTableRecord
100
AcDbLayerTableRecord
  2
(1_1)_11254031_7
 70
     0
 62
     7
  6
Continuous
370
    -3
390
F
  0
LAYER
  5
207
330
2
100
AcDbSymbolTableRecord
100
AcDbLayerTableRecord
  2
(4_4)_401665038_
 70
     0
 62
     7
  6
Continuous
370
    -3
390
F
  0
LAYER
  5
224
330
2
100
AcDbSymbolTableRecord
100
AcDbLayerTableRecord
  2
(1_1) 407223038_
 70
     0
 62
     7
  6
Continuous
370
    -3
390
F
  0
ENDTAB
  0
TABLE
  2
STYLE
  5
3
330
0
100
AcDbSymbolTable
 70
     2
  0
STYLE
  5
11
330
3
100
AcDbSymbolTableRecord
100
AcDbTextStyleTableRecord
  2
Standard
 70
     0
 40
0.0
 41
1.0
 50
0.0
 71
     0
 42
10.0
  3
txt
  4

  0
STYLE
  5
22E
330
3
100
AcDbSymbolTableRecord
100
AcDbTextStyleTableRecord
  2
SEACAD_Solid_Edge_ISO
 70
     0
 40
0.0
 41
0.9
 50
0.0
 71
     0
 42
10.0
  3

  4

1001
ACAD
1000
Solid Edge ISO
1071
        0
  0
ENDTAB
  0
TABLE
  2
VIEW
  5
6
330
0
100
AcDbSymbolTable
 70
     0
  0
ENDTAB
  0
TABLE
  2
UCS
  5
7
330
0
100
AcDbSymbolTable
 70
     0
  0
ENDTAB
  0
TABLE
  2
APPID
  5
9
330
0
100
AcDbSymbolTable
 70
     1
  0
APPID
  5
12
330
9
100
AcDbSymbolTableRecord
100
AcDbRegAppTableRecord
  2
ACAD
 70
     0
  0
ENDTAB
  0
TABLE
  2
DIMSTYLE
  5
A
330
0
100
AcDbSymbolTable
 70
     1
100
AcDbDimStyleTable
  0
DIMSTYLE
105
27
330
A
100
AcDbSymbolTableRecord
100
AcDbDimStyleTableRecord
  2
ISO-25
 70
     0
 41
2.5
 42
0.625
 43
3.75
 44
1.25
 73
     0
 74
     0
 77
     1
 78
     8
140
2.5
141
2.5
143
0.0393700787
147
0.625
171
     3
172
     1
178
     0
271
     2
272
     2
274
     3
278
    44
283
     0
284
     8
340
11
  0
ENDTAB
  0
TABLE
  2
BLOCK_RECORD
  5
1
330
0
100
AcDbSymbolTable
 70
     7
  0
BLOCK_RECORD
  5
1F
330
1
100
AcDbSymbolTableRecord
100
AcDbBlockTableRecord
  2
*Model_Space
340
22
  0
BLOCK_RECORD
  5
1B
330
1
100
AcDbSymbolTableRecord
100
AcDbBlockTableRecord
  2
*Paper_Space
340
1E
  0
BLOCK_RECORD
  5
6B
330
1
100
AcDbSymbolTableRecord
100
AcDbBlockTableRecord
  2
SEANNOT_GROUP
340
0
102
{BLKREFS
331
6C
102
}
  0
BLOCK_RECORD
  5
72
330
1
100
AcDbSymbolTableRecord
100
AcDbBlockTableRecord
  2
SEANNOT_GROUP1
340
0
102
{BLKREFS
331
73
102
}
  0
BLOCK_RECORD
  5
78
330
1
100
AcDbSymbolTableRecord
100
AcDbBlockTableRecord
  2
SEANNOT_GROUP2
340
0
102
{BLKREFS
331
79
102
}
  0
BLOCK_RECORD
  5
82
330
1
100
AcDbSymbolTableRecord
100
AcDbBlockTableRecord
  2
SE
340
0
102
{BLKREFS
331
83
102
}
  0
BLOCK_RECORD
  5
191
330
1
100
AcDbSymbolTableRecord
100
AcDbBlockTableRecord
  2
SE1
340
0
102
{BLKREFS
331
192
102
}
  0
BLOCK_RECORD
  5
1EE
330
1
100
AcDbSymbolTableRecord
100
AcDbBlockTableRecord
  2
SE2
340
0
102
{BLKREFS
331
1EF
102
}
  0
ENDTAB
  0
ENDSEC
  0
SECTION
  2
BLOCKS
  0
BLOCK
  5
20
330
1F
100
AcDbEntity
  8
0
100
AcDbBlockBegin
  2
*Model_Space
 70
     0
 10
0.0
 20
0.0
 30
0.0
  3
*Model_Space
  1
*Model_Space
  0
ENDBLK
  5
21
330
1F
100
AcDbEntity
  8
0
100
AcDbBlockEnd
  0
BLOCK
  5
1C
330
1B
100
AcDbEntity
 67
     1
  8
0
100
AcDbBlockBegin
  2
*Paper_Space
 70
     0
 10
0.0
 20
0.0
 30
0.0
  3
*Paper_Space
  1
*Paper_Space
  0
ENDBLK
  5
1D
330
1B
100
AcDbEntity
 67
     1
  8
0
100
AcDbBlockEnd
  0
BLOCK
  5
70
330
6B
100
AcDbEntity
  8
0
100
AcDbBlockBegin
  2
SEANNOT_GROUP
 70
     0
 10
0.0
 20
0.0
 30
0.0
  3
SEANNOT_GROUP
  1
SEANNOT_GROUP
  0
LINE
  5
6E
330
6B
100
AcDbEntity
  8
Default
  6
CENTER2
 62
     7
100
AcDbLine
 10
52.3325458174
 20
329.5971991605
 30
0.0
 11
12.3325467115
 21
329.5971991605
 31
0.0
  0
LINE
  5
6F
330
6B
100
AcDbEntity
  8
Default
  6
CENTER2
 62
     7
100
AcDbLine
 10
32.3325462644
 20
349.5971987135
 30
0.0
 11
32.3325462644
 21
309.5971996076
 31
0.0
  0
ENDBLK
  5
71
330
6B
100
AcDbEntity
  8
0
100
AcDbBlockEnd
  0
BLOCK
  5
76
330
72
100
AcDbEntity
  8
0
100
AcDbBlockBegin
  2
SEANNOT_GROUP1
 70
     0
 10
0.0
 20
0.0
 30
0.0
  3
SEANNOT_GROUP1
  1
SEANNOT_GROUP1
  0
LINE
  5
74
330
72
100
AcDbEntity
  8
Default
  6
CENTER2
 62
     7
100
AcDbLine
 10
178.0148746239
 20
329.5971991605
 30
0.0
 11
138.014875518
 21
329.5971991605
 31
0.0
  0
LINE
  5
75
330
72
100
AcDbEntity
  8
Default
  6
CENTER2
 62
     7
100
AcDbLine
 10
158.014875071
 20
349.5971987135
 30
0.0
 11
158.014875071
 21
309.5971996076
 31
0.0
  0
ENDBLK
  5
77
330
72
100
AcDbEntity
  8
0
100
AcDbBlockEnd
  0
BLOCK
  5
80
330
78
100
AcDbEntity
  8
0
100
AcDbBlockBegin
  2
SEANNOT_GROUP2
 70
     0
 10
0.0
 20
0.0
 30
0.0
  3
SEANNOT_GROUP2
  1
SEANNOT_GROUP2
  0
LINE
  5
7A
330
78
100
AcDbEntity
  8
Default
  6
CENTER2
 62
     7
100
AcDbLine
 10
52.3325458174
 20
216.35
 30
0.0
 11
12.3325467115
 21
216.35
 31
0.0
  0
LINE
  5
7B
330
78
100
AcDbEntity
  8
Default
  6
CENTER2
 62
     7
100
AcDbLine
 10
32.3325462644
 20
236.349999553
 30
0.0
 11
32.3325462644
 21
196.350000447
 31
0.0
  0
LINE
  5
7C
330
78
100
AcDbEntity
  8
Default
  6
CENTER2
 62
     7
100
AcDbLine
 10
57.3325447743
 20
216.35
 30
0.0
 11
47.3325462644
 21
216.35
 31
0.0
  0
LINE
  5
7D
330
78
100
AcDbEntity
  8
Default
  6
CENTER2
 62
     7
100
AcDbLine
 10
32.3325462644
 20
241.3499985099
 30
0.0
 11
32.3325462644
 21
231.35
 31
0.0
  0
LINE
  5
7E
330
78
100
AcDbEntity
  8
Default
  6
CENTER2
 62
     7
100
AcDbLine
 10
7.3325477545
 20
216.35
 30
0.0
 11
17.3325462644
 21
216.35
 31
0.0
  0
LINE
  5
7F
330
78
100
AcDbEntity
  8
Default
  6
CENTER2
 62
     7
100
AcDbLine
 10
32.3325462644
 20
191.3500014901
 30
0.0
 11
32.3325462644
 21
201.35
 31
0.0
  0
ENDBLK
  5
81
330
78
100
AcDbEntity
  8
0
100
AcDbBlockEnd
  0
BLOCK
  5
18F
330
82
100
AcDbEntity
  8
0
100
AcDbBlockBegin
  2
SE
 70
     0
 10
0.0
 20
0.0
 30
0.0
  3
SE
  1
SE
  0
LINE
  5
85
330
82
100
AcDbEntity
  8
(5_5) 401820138_
  6
Continuous
 62
     7
100
AcDbLine
 10
11.3325462644
 20
425.5971991605
 30
0.0
 11
20.3975462644
 21
425.5971991605
 31
0.0
  0
LINE
  5
86
330
82
100
AcDbEntity
  8
(5_5) 401820138_
  6
Continuous
 62
     7
100
AcDbLine
 10
44.2675462644
 20
425.5971991605
 30
0.0
 11
53.3325462644
 21
425.5971991605
 31
0.0
  0
LINE
  5
87
330
82
100
AcDbEntity
  8
(5_5) 401820138_
  6
Continuous
 62
     7
100
AcDbLine
 10
11.3325462644
 20
444.5971991605
 30
0.0
 11
53.3325462644
 21
444.5971991605
 31
0.0
  0
LINE
  5
88
330
82
100
AcDbEntity
  8
(5_5) 401820138_
  6
Continuous
 62
     7
100
AcDbLine
 10
10.8325462644
 20
420.5971991605
 30
0.0
 11
10.8325462644
 21
426.0971991606
 31
0.0
  0
LINE
  5
89
330
82
100
AcDbEntity
  8
(5_5) 401820138_
  6
Continuous
 62
     7
100
AcDbLine
 10
10.8325462644
 20
433.2708626545
 30
0.0
 11
10.8325462644
 21
426.0971991606
 31
0.0
  0
LINE
  5
8A
330
82
100
AcDbEntity
  8
(5_5) 401820138_
  6
Continuous
 62
     7
100
AcDbLine
 10
10.8325462644
 20
433.2708626545
 30
0.0
 11
10.8325462644
 21
444.0971991605
 31
0.0
  0
LINE
  5
8B
330
82
100
AcDbEntity
  8
(5_5) 401820138_
  6
Continuous
 62
     7
100
AcDbLine
 10
10.8325462644
 20
420.5971991605
 30
0.0
 11
10.8325462644
 21
337.5971991605
 31
0.0
  0
LINE
  5
8C
330
82
100
AcDbEntity
  8
(5_5) 401820138_
  6
Continuous
 62
     7
100
AcDbLine
 10
53.8325462644
 20
444.0971991605
 30
0.0
 11
53.8325462644
 21
433.2708626545
 31
0.0
  0
LINE
  5
8D
330
82
100
AcDbEntity
  8
(5_5) 401820138_
  6
Continuous
 62
     7
100
AcDbLine
 10
53.8325462644
 20
426.0971991605
 30
0.0
 11
53.8325462644
 21
433.2708626545
 31
0.0
  0
LINE
  5
8E
330
82
100
AcDbEntity
  8
(5_5) 401820138_
  6
Continuous
 62
     7
100
AcDbLine
 10
53.8325462644
 20
426.0971991605
 30
0.0
 11
53.8325462644
 21
420.5971991605
 31
0.0
  0
LINE
  5
8F
330
82
100
AcDbEntity
  8
(5_5) 401820138_
  6
Continuous
 62
     7
100
AcDbLine
 10
53.8325462644
 20
337.5971991605
 30
0.0
 11
53.8325462644
 21
420.5971991605
 31
0.0
  0
ARC
  5
90
330
82
100
AcDbEntity
  8
(5_5) 401820138_
  6
Continuous
 62
     7
100
AcDbCircle
 10
11.3325462644
 20
444.0971991605
 30
0.0
 40
0.5000000000000664
100
AcDbArc
 50
90.0
 51
180.0
  0
ARC
  5
91
330
82
100
AcDbEntity
  8
(5_5) 401820138_
  6
Continuous
 62
     7
100
AcDbCircle
 10
53.3325462644
 20
444.0971991605
 30
0.0
 40
0.4999999999998894
100
AcDbArc
 50
0.0
 51
90.0
  0
ARC
  5
92
330
82
100
AcDbEntity
  8
(5_5) 401820138_
  6
Continuous
 62
     7
100
AcDbCircle
 10
11.3325462644
 20
426.0971991606
 30
0.0
 40
0.5000000000126015
100
AcDbArc
 50
180.0
 51
269.9999999993
  0
ARC
  5
93
330
82
100
AcDbEntity
  8
(5_5) 401820138_
  6
Continuous
 62
     7
100
AcDbCircle
 10
53.3325462644
 20
426.0971991605
 30
0.0
 40
0.5000000000022868
100
AcDbArc
 50
270.0
 51
0.0
  0
ELLIPSE
  5
94
330
82
100
AcDbEntity
  8
(5_5) 401820138_
  6
Continuous
 62
     7
100
AcDbEllipse
 10
32.3325462644
 20
429.0903591038
 30
0.0
 11
12.24999999999937
 21
1.387778780781446E-14
 31
0.0
210
0.0
220
0.0
230
1.0
 40
0.260762731
 41
0.0
 42
3.368860125017782
  0
ELLIPSE
  5
95
330
82
100
AcDbEntity
  8
(5_5) 401820138_
  6
Continuous
 62
     7
100
AcDbEllipse
 10
32.3325462644
 20
429.0903591038
 30
0.0
 11
12.24999999999937
 21
1.387778780781446E-14
 31
0.0
210
0.0
220
0.0
230
1.0
 40
0.260762731
 41
6.055917835751599
 42
6.283185307179586
  0
LINE
  5
97
330
82
100
AcDbEntity
  8
(1_1) 403130038_
  6
Continuous
 62
     7
100
AcDbLine
 10
6.9154705476
 20
337.5971991605
 30
0.0
 11
7.9325462644
 21
337.5971991605
 31
0.0
  0
LINE
  5
98
330
82
100
AcDbEntity
  8
(1_1) 403130038_
  6
Continuous
 62
     7
100
AcDbLine
 10
7.9325462644
 20
337.5971991605
 30
0.0
 11
56.7325462644
 21
337.5971991605
 31
0.0
  0
LINE
  5
99
330
82
100
AcDbEntity
  8
(1_1) 403130038_
  6
Continuous
 62
     7
100
AcDbLine
 10
56.7325462644
 20
337.5971991605
 30
0.0
 11
57.7496219812
 21
337.5971991605
 31
0.0
  0
LINE
  5
9A
330
82
100
AcDbEntity
  8
(1_1) 403130038_
  6
Continuous
 62
     7
100
AcDbLine
 10
58.2496029427
 20
337.1015624283
 30
0.0
 11
58.3150925288
 21
329.5971991605
 31
0.0
  0
LINE
  5
9B
330
82
100
AcDbEntity
  8
(1_1) 403130038_
  6
Continuous
 62
     7
100
AcDbLine
 10
6.4154895861
 20
337.1015624283
 30
0.0
 11
6.35
 21
329.5971991605
 31
0.0
  0
ARC
  5
9C
330
82
100
AcDbEntity
  8
(1_1) 403130038_
  6
Continuous
 62
     7
100
AcDbCircle
 10
6.9154705476
 20
337.0971991605
 30
0.0
 40
0.5000000000000004
100
AcDbArc
 50
90.0
 51
179.5
  0
ARC
  5
9D
330
82
100
AcDbEntity
  8
(1_1) 403130038_
  6
Continuous
 62
     7
100
AcDbCircle
 10
57.7496219812
 20
337.0971991605
 30
0.0
 40
0.5000000000000004
100
AcDbArc
 50
0.5
 51
90.0
  0
LINE
  5
9E
330
82
100
AcDbEntity
  8
(1_1) 403130038_
  6
Continuous
 62
     7
100
AcDbLine
 10
58.3150925288
 20
329.5971991605
 30
0.0
 11
56.7325462644
 21
329.5971991605
 31
0.0
  0
LINE
  5
9F
330
82
100
AcDbEntity
  8
(1_1) 403130038_
  6
Continuous
 62
     7
100
AcDbLine
 10
56.7325462644
 20
329.5971991605
 30
0.0
 11
7.9325462644
 21
329.5971991605
 31
0.0
  0
LINE
  5
A0
330
82
100
AcDbEntity
  8
(1_1) 403130038_
  6
Continuous
 62
     7
100
AcDbLine
 10
7.9325462644
 20
329.5971991605
 30
0.0
 11
6.35
 21
329.5971991605
 31
0.0
  0
ELLIPSE
  5
A2
330
82
100
AcDbEntity
  8
(1_1)_02636138_2
  6
Continuous
 62
     7
100
AcDbEllipse
 10
32.3325462644
 20
424.7092980841
 30
0.0
 11
11.93499999999994
 21
0.0
 31
0.0
210
0.0
220
0.0
230
1.0
 40
0.3746065934
 41
3.024130036522045
 42
3.258672611232816
  0
ELLIPSE
  5
A3
330
82
100
AcDbEntity
  8
(1_1)_02636138_2
  6
Continuous
 62
     7
100
AcDbEllipse
 10
32.3325462644
 20
424.5888533683
 30
0.0
 11
11.85999999999213
 21
3.969047313034935E-12
 31
0.0
210
0.0
220
0.0
230
1.0
 40
0.3746065934
 41
3.595444028167858
 42
3.91670166430398
  0
ELLIPSE
  5
A4
330
82
100
AcDbEntity
  8
(1_1)_02636138_2
  6
Continuous
 62
     7
100
AcDbEllipse
 10
32.3325462644
 20
424.0132922993
 30
0.0
 11
-10.78480762113533
 21
0.0
 31
0.0
210
0.0
220
0.0
230
1.0
 40
0.3746065934
 41
0.4350628754978398
 42
2.700813447895251
  0
ELLIPSE
  5
A5
330
82
100
AcDbEntity
  8
(1_1)_02636138_2
  6
Continuous
 62
     7
100
AcDbEllipse
 10
32.3325462644
 20
423.994659437
 30
0.0
 11
-10.70980762113533
 21
0.0
 31
0.0
210
0.0
220
0.0
230
1.0
 40
0.3746065934
 41
4.347844440814036
 42
4.842322906419126
  0
ELLIPSE
  5
A6
330
82
100
AcDbEntity
  8
(1_1)_02636138_2
  6
Continuous
 62
     7
100
AcDbEllipse
 10
32.3325462644
 20
423.994659437
 30
0.0
 11
10.075
 21
0.0
 31
0.0
210
0.0
220
0.0
230
1.0
 40
0.3746065934
 41
0.0
 42
6.283185307179586
  0
ELLIPSE
  5
A7
330
82
100
AcDbEntity
  8
(1_1)_02636138_2
  6
Continuous
 62
     7
100
AcDbEllipse
 10
32.3325462644
 20
424.7092980841
 30
0.0
 11
-11.93500000000012
 21
2.775557561562891E-14
 31
0.0
210
0.0
220
0.0
230
1.0
 40
0.3746065934
 41
3.02413003652206
 42
3.258672611232885
  0
ELLIPSE
  5
A8
330
82
100
AcDbEntity
  8
(1_1)_02636138_2
  6
Continuous
 62
     7
100
AcDbEllipse
 10
32.3325462644
 20
421.6429325023
 30
0.0
 11
11.93500000000002
 21
1.526556658859590E-13
 31
0.0
210
0.0
220
0.0
230
1.0
 40
0.9099164414
 41
1.166970237634099
 42
1.334225469033664
  0
ELLIPSE
  5
A9
330
82
100
AcDbEntity
  8
(1_1)_02636138_2
  6
Continuous
 62
     7
100
AcDbEllipse
 10
32.3325462644
 20
421.6429325023
 30
0.0
 11
11.93500000000002
 21
1.526556658859590E-13
 31
0.0
210
0.0
220
0.0
230
1.0
 40
0.9099164414
 41
1.807367184556107
 42
1.974622415955667
  0
LINE
  5
AA
330
82
100
AcDbEntity
  8
(1_1)_02636138_2
  6
Continuous
 62
     7
100
AcDbLine
 10
27.6428127965
 20
431.629265447
 30
0.0
 11
27.6428127965
 21
428.8206054468
 31
0.0
  0
LINE
  5
AB
330
82
100
AcDbEntity
  8
(1_1)_02636138_2
  6
Continuous
 62
     7
100
AcDbLine
 10
37.0222797323
 20
428.8206054468
 30
0.0
 11
37.0222797323
 21
431.629265447
 31
0.0
  0
ELLIPSE
  5
AC
330
82
100
AcDbEntity
  8
(1_1)_02636138_2
  6
Continuous
 62
     7
100
AcDbEllipse
 10
32.3325462644
 20
424.5888533683
 30
0.0
 11
-11.85999999999998
 21
2.775557561562892E-14
 31
0.0
210
0.0
220
0.0
230
1.0
 40
0.3746065934
 41
-3.916701664304778
 42
-3.592851206837206
  0
SPLINE
  5
AD
330
82
100
AcDbEntity
  8
(1_1)_02636138_2
  6
Continuous
 62
     7
100
AcDbSpline
210
0.0
220
0.0
230
1.0
 70
     8
 71
     3
 72
    12
 73
     8
 74
     0
 42
0.000000001
 43
0.0000000001
 40
0.0
 40
0.0
 40
0.0
 40
0.0
 40
0.5
 40
0.5
 40
0.75
 40
0.75
 40
1.0
 40
1.0
 40
1.0
 40
1.0
 10
36.82798562003212
 20
428.7001607309964
 30
0.0
 10
36.86814946887417
 20
428.7083101755884
 30
0.0
 10
36.90829804970694
 20
428.7194634403836
 30
0.0
 10
36.96324211539797
 20
428.7456693298737
 30
0.0
 10
36.98101953756422
 20
428.7561257151964
 30
0.0
 10
37.01055182062918
 20
428.7833846505234
 30
0.0
 10
37.02227973232473
 20
428.8011679390643
 30
0.0
 10
37.02227973232473
 20
428.8206054468015
 30
0.0
  0
SPLINE
  5
AE
330
82
100
AcDbEntity
  8
(1_1)_02636138_2
  6
Continuous
 62
     7
100
AcDbSpline
210
0.0
220
0.0
230
1.0
 70
     8
 71
     3
 72
    12
 73
     8
 74
     0
 42
0.000000001
 43
0.0000000001
 40
0.0
 40
0.0
 40
0.0
 40
0.0
 40
0.25
 40
0.25
 40
0.5
 40
0.5
 40
1.0
 40
1.0
 40
1.0
 40
1.0
 10
27.64281279651223
 20
428.8206054468014
 30
0.0
 10
27.64281279651223
 20
428.8013237680424
 30
0.0
 10
27.65442537427234
 20
428.7835717619121
 30
0.0
 10
27.68363165739888
 20
428.7564539391585
 30
0.0
 10
27.70146610764129
 20
428.7458772869705
 30
0.0
 10
27.75664829169902
 20
428.719484452511
 30
0.0
 10
27.7968387332435
 20
428.708331343997
 30
0.0
 10
27.83710690882556
 20
428.7001607309874
 30
0.0
  0
ARC
  5
AF
330
82
100
AcDbEntity
  8
(1_1)_02636138_2
  6
Continuous
 62
     7
100
AcDbCircle
 10
32.3325462644
 20
449.9074045208
 30
0.0
 40
21.6784723668743
100
AcDbArc
 50
258.0317968912
 51
281.9682031089
  0
LINE
  5
B0
330
82
100
AcDbEntity
  8
(1_1)_02636138_2
  6
Continuous
 62
     7
100
AcDbLine
 10
37.0222797323
 20
431.629265447
 30
0.0
 11
27.6428127965
 21
431.629265447
 31
0.0
  0
LINE
  5
B1
330
82
100
AcDbEntity
  8
(1_1)_02636138_2
  6
Continuous
 62
     7
100
AcDbLine
 10
20.3975462644
 20
429.8100961273
 30
0.0
 11
20.3975462644
 21
424.7092980841
 31
0.0
  0
LINE
  5
B2
330
82
100
AcDbEntity
  8
(1_1)_02636138_2
  6
Continuous
 62
     7
100
AcDbLine
 10
44.2675462644
 20
424.7092980841
 30
0.0
 11
44.2675462644
 21
429.8100961273
 31
0.0
  0
ARC
  5
B3
330
82
100
AcDbEntity
  8
(1_1)_02636138_2
  6
Continuous
 62
     7
100
AcDbCircle
 10
23.443886093
 20
425.2515025981
 30
0.0
 40
3.156128549625595
100
AcDbArc
 50
200.4478539583
 51
235.344719954
  0
LINE
  5
B4
330
82
100
AcDbEntity
  8
(1_1)_02636138_2
  6
Continuous
 62
     7
100
AcDbLine
 10
23.8604174907
 20
421.4797848724
 30
0.0
 11
24.6284755253
 21
421.1860827202
 31
0.0
  0
LINE
  5
B5
330
82
100
AcDbEntity
  8
(1_1)_02636138_2
  6
Continuous
 62
     7
100
AcDbLine
 10
40.0366170035
 20
421.1860827202
 30
0.0
 11
40.8046750381
 21
421.4797848724
 31
0.0
  0
ARC
  5
B6
330
82
100
AcDbEntity
  8
(1_1)_02636138_2
  6
Continuous
 62
     7
100
AcDbCircle
 10
41.2876968304
 20
425.2009573899
 30
0.0
 40
3.073402842339633
100
AcDbArc
 50
304.4480623087
 51
339.9476708649
  0
ELLIPSE
  5
B8
330
82
100
AcDbEntity
  8
(1_1)_06828131_4
  6
Continuous
 62
     7
100
AcDbEllipse
 10
32.3325462644
 20
423.6701450879
 30
0.0
 11
9.000000000000002
 21
0.0
 31
0.0
210
0.0
220
0.0
230
1.0
 40
0.3746065934
 41
0.0
 42
6.283185307179586
  0
ELLIPSE
  5
B9
330
82
100
AcDbEntity
  8
(1_1)_06828131_4
  6
Continuous
 62
     7
100
AcDbEllipse
 10
32.3325462644
 20
426.5318740444
 30
0.0
 11
9.386474103794209
 21
-1.110223024625157E-13
 31
0.0
210
0.0
220
0.0
230
1.0
 40
0.3746065934
 41
-0.2879555481429321
 42
-0.2582613766036603
  0
ELLIPSE
  5
BA
330
82
100
AcDbEntity
  8
(1_1)_06828131_4
  6
Continuous
 62
     7
100
AcDbEllipse
 10
32.3325462644
 20
426.5318740444
 30
0.0
 11
-9.386474103794363
 21
1.526556658859590E-13
 31
0.0
210
0.0
220
0.0
230
1.0
 40
0.3746065934
 41
0.2582613766036692
 42
0.2879555481429392
  0
ELLIPSE
  5
BB
330
82
100
AcDbEntity
  8
(1_1)_06828131_4
  6
Continuous
 62
     7
100
AcDbEllipse
 10
32.3325462644
 20
423.6701450879
 30
0.0
 11
5.250000000000004
 21
0.0
 31
0.0
210
0.0
220
0.0
230
1.0
 40
0.3746065934
 41
0.0
 42
6.283185307179586
  0
ELLIPSE
  5
BC
330
82
100
AcDbEntity
  8
(1_1)_06828131_4
  6
Continuous
 62
     7
100
AcDbEllipse
 10
32.3325462644
 20
423.6701450879
 30
0.0
 11
6.250000000000003
 21
0.0
 31
0.0
210
0.0
220
0.0
230
1.0
 40
0.3746065934
 41
0.0
 42
6.283185307179586
  0
ELLIPSE
  5
BD
330
82
100
AcDbEntity
  8
(1_1)_06828131_4
  6
Continuous
 62
     7
100
AcDbEllipse
 10
32.3325462644
 20
423.6701450879
 30
0.0
 11
2.750000000000002
 21
0.0
 31
0.0
210
0.0
220
0.0
230
1.0
 40
0.3746065934
 41
0.0
 42
6.283185307179586
  0
ELLIPSE
  5
BE
330
82
100
AcDbEntity
  8
(1_1)_06828131_4
  6
Continuous
 62
     7
100
AcDbEllipse
 10
32.3325462644
 20
423.6701450879
 30
0.0
 11
2.15
 21
0.0
 31
0.0
210
0.0
220
0.0
230
1.0
 40
0.3746065934
 41
0.0
 42
6.283185307179586
  0
ELLIPSE
  5
BF
330
82
100
AcDbEntity
  8
(1_1)_06828131_4
  6
Continuous
 62
     7
100
AcDbEllipse
 10
32.3325462644
 20
423.8555818588
 30
0.0
 11
0.5196299438963559
 21
0.0
 31
0.0
210
0.0
220
0.0
230
1.0
 40
0.3746065934
 41
0.0
 42
6.283185307179586
  0
ELLIPSE
  5
C0
330
82
100
AcDbEntity
  8
(1_1)_06828131_4
  6
Continuous
 62
     7
100
AcDbEllipse
 10
32.3325462644
 20
423.6701450879
 30
0.0
 11
8.699999999999999
 21
0.0
 31
0.0
210
0.0
220
0.0
230
1.0
 40
0.3746065934
 41
0.0
 42
6.283185307179586
  0
ARC
  5
C1
330
82
100
AcDbEntity
  8
(1_1)_06828131_4
  6
Continuous
 62
     7
100
AcDbCircle
 10
25.0258578187
 20
423.8555818588
 30
0.0
 40
1.193311429588834
100
AcDbArc
 50
178.2010644444
 51
181.7989355556
  0
ARC
  5
C2
330
82
100
AcDbEntity
  8
(1_1)_06828131_4
  6
Continuous
 62
     7
100
AcDbCircle
 10
26.9602971683
 20
423.8555818588
 30
0.0
 40
0.8777505904340768
100
AcDbArc
 50
177.5539865225
 51
180.0
  0
ELLIPSE
  5
C3
330
82
100
AcDbEntity
  8
(1_1)_06828131_4
  6
Continuous
 62
     7
100
AcDbEllipse
 10
32.3325462644
 20
423.8555818588
 30
0.0
 11
-8.499999999966555
 21
1.984523656517467E-12
 31
0.0
210
0.0
220
0.0
230
1.0
 40
0.3746065934
 41
0.0117649772881965
 42
0.2500344105116437
  0
LINE
  5
C4
330
82
100
AcDbEntity
  8
(1_1)_06828131_4
  6
Continuous
 62
     7
100
AcDbLine
 10
26.0833463156
 20
423.8930425181
 30
0.0
 11
26.0833463156
 21
424.4440665135
 31
0.0
  0
LINE
  5
C5
330
82
100
AcDbEntity
  8
(1_1)_06828131_4
  6
Continuous
 62
     7
100
AcDbLine
 10
26.0833463156
 20
423.8930425181
 30
0.0
 11
23.8331345201
 21
423.8930425181
 31
0.0
  0
LINE
  5
C6
330
82
100
AcDbEntity
  8
(1_1)_06828131_4
  6
Continuous
 62
     7
100
AcDbLine
 10
26.0825462644
 20
423.8181211994
 30
0.0
 11
23.8331345201
 21
423.8181211994
 31
0.0
  0
LINE
  5
C7
330
82
100
AcDbEntity
  8
(1_1)_06828131_4
  6
Continuous
 62
     7
100
AcDbLine
 10
31.8770078153
 20
424.1785242508
 30
0.0
 11
31.8770078153
 21
424.457263406
 31
0.0
  0
ELLIPSE
  5
C8
330
82
100
AcDbEntity
  8
(1_1)_06828131_4
  6
Continuous
 62
     7
100
AcDbEllipse
 10
32.3325462644
 20
424.0848726024
 30
0.0
 11
0.5196299438963503
 21
0.0
 31
0.0
210
0.0
220
0.0
230
1.0
 40
0.3746065934
 41
2.639670372565557
 42
3.141592653589793
  0
LINE
  5
C9
330
82
100
AcDbEntity
  8
(1_1)_06828131_4
  6
Continuous
 62
     7
100
AcDbLine
 10
30.3607762346
 20
423.9912209541
 30
0.0
 11
31.8129163205
 21
423.9912209541
 31
0.0
  0
LINE
  5
CA
330
82
100
AcDbEntity
  8
(1_1)_06828131_4
  6
Continuous
 62
     7
100
AcDbLine
 10
30.664980503
 20
424.1785242508
 30
0.0
 11
31.8770078153
 21
424.1785242508
 31
0.0
  0
ELLIPSE
  5
CB
330
82
100
AcDbEntity
  8
(1_1)_06828131_4
  6
Continuous
 62
     7
100
AcDbEllipse
 10
32.3325462644
 20
424.0848726024
 30
0.0
 11
0.5196299438963417
 21
1.387778780781446E-14
 31
0.0
210
0.0
220
0.0
230
1.0
 40
0.3746065934
 41
0.5452752701722146
 42
1.549119832220887
  0
LINE
  5
CC
330
82
100
AcDbEntity
  8
(1_1)_06828131_4
  6
Continuous
 62
     7
100
AcDbLine
 10
32.343809138
 20
424.2794836756
 30
0.0
 11
32.343809138
 21
424.4755382125
 31
0.0
  0
LINE
  5
CD
330
82
100
AcDbEntity
  8
(1_1)_06828131_4
  6
Continuous
 62
     7
100
AcDbLine
 10
32.6337474706
 20
424.4676065827
 30
0.0
 11
32.343809138
 21
424.2794836756
 31
0.0
  0
LINE
  5
CE
330
82
100
AcDbEntity
  8
(1_1)_06828131_4
  6
Continuous
 62
     7
100
AcDbLine
 10
33.1338953706
 20
424.4175147787
 30
0.0
 11
32.7768218399
 21
424.1858320272
 31
0.0
  0
LINE
  5
CF
330
82
100
AcDbEntity
  8
(1_1)_06828131_4
  6
Continuous
 62
     7
100
AcDbLine
 10
33.6167604406
 20
423.4389293876
 30
0.0
 11
32.8521762083
 21
423.9350204261
 31
0.0
  0
LINE
  5
D0
330
82
100
AcDbEntity
  8
(1_1)_06828131_4
  6
Continuous
 62
     7
100
AcDbLine
 10
33.6167604406
 20
424.3160883027
 30
0.0
 11
33.6167604406
 21
423.4389293876
 31
0.0
  0
LINE
  5
D1
330
82
100
AcDbEntity
  8
(1_1)_06828131_4
  6
Continuous
 62
     7
100
AcDbLine
 10
33.1837477387
 20
423.3452777392
 30
0.0
 11
32.6393796274
 21
423.6984842667
 31
0.0
  0
ELLIPSE
  5
D2
330
82
100
AcDbEntity
  8
(1_1)_06828131_4
  6
Continuous
 62
     7
100
AcDbEllipse
 10
32.3325462644
 20
424.0848726024
 30
0.0
 11
2.150000000005158
 21
-1.637578961322106E-12
 31
0.0
210
0.0
220
0.0
230
1.0
 40
0.3746065934
 41
-1.163740259644589
 42
-0.9306548427463452
  0
ELLIPSE
  5
D3
330
82
100
AcDbEntity
  8
(1_1)_06828131_4
  6
Continuous
 62
     7
100
AcDbEllipse
 10
32.3325458414
 20
423.8555819013
 30
0.0
 11
-8.499999576714041
 21
-4.774922124362035E-8
 31
0.0
210
0.0
220
0.0
230
1.0
 40
0.3746066018
 41
-0.2735643739360363
 42
-0.2500344187537218
  0
ELLIPSE
  5
D4
330
82
100
AcDbEntity
  8
(1_1)_06828131_4
  6
Continuous
 62
     7
100
AcDbEllipse
 10
32.3325462645
 20
423.8555818588
 30
0.0
 11
-8.500000000054554
 21
3.635980405647388E-12
 31
0.0
210
0.0
220
0.0
230
1.0
 40
0.3746065934
 41
6.033150896669492
 42
6.271420329891644
  0
ELLIPSE
  5
D5
330
82
100
AcDbEntity
  8
(1_1)_06828131_4
  6
Continuous
 62
     7
100
AcDbEllipse
 10
32.3325463335
 20
423.8555818518
 30
0.0
 11
-6.250000069081082
 21
7.784231592644630E-9
 31
0.0
210
0.0
220
0.0
230
1.0
 40
0.3746065916
 41
-0.2778000685564193
 42
-0.2457987032487159
  0
LINE
  5
D6
330
82
100
AcDbEntity
  8
(1_1)_06828131_4
  6
Continuous
 62
     7
100
AcDbLine
 10
26.3221645447
 20
424.4976592629
 30
0.0
 11
26.3221645447
 21
425.1122466708
 31
0.0
  0
LINE
  5
D7
330
82
100
AcDbEntity
  8
(1_1)_06828131_4
  6
Continuous
 62
     7
100
AcDbLine
 10
26.3221645447
 20
424.4976592629
 30
0.0
 11
24.1486268568
 21
424.7158292694
 31
0.0
  0
LINE
  5
D8
330
82
100
AcDbEntity
  8
(1_1)_06828131_4
  6
Continuous
 62
     7
100
AcDbLine
 10
26.2704007357
 20
424.4252908262
 30
0.0
 11
24.0968630478
 21
424.6434608327
 31
0.0
  0
ELLIPSE
  5
D9
330
82
100
AcDbEntity
  8
(1_1)_06828131_4
  6
Continuous
 62
     7
100
AcDbEllipse
 10
32.3325462644
 20
423.8555818588
 30
0.0
 11
-8.499999999992376
 21
-9.575673587391975E-13
 31
0.0
210
0.0
220
0.0
230
1.0
 40
0.3746065934
 41
-0.3894296236040873
 42
-0.27356436508739
  0
ELLIPSE
  5
DA
330
82
100
AcDbEntity
  8
(1_1)_06828131_4
  6
Continuous
 62
     7
100
AcDbEllipse
 10
32.3325463144
 20
423.855581848
 30
0.0
 11
-6.250000050458207
 21
1.088593104547897E-8
 31
0.0
210
0.0
220
0.0
230
1.0
 40
0.3746065926
 41
-0.5395994556193484
 42
-0.5075980902763266
  0
LINE
  5
DB
330
82
100
AcDbEntity
  8
(1_1)_06828131_4
  6
Continuous
 62
     7
100
AcDbLine
 10
26.9705803554
 20
425.0585194936
 30
0.0
 11
26.9705803554
 21
425.8112322694
 31
0.0
  0
LINE
  5
DC
330
82
100
AcDbEntity
  8
(1_1)_06828131_4
  6
Continuous
 62
     7
100
AcDbLine
 10
26.9705803554
 20
425.0585194936
 30
0.0
 11
25.0763991377
 21
425.4681915253
 31
0.0
  0
LINE
  5
DD
330
82
100
AcDbEntity
  8
(1_1)_06828131_4
  6
Continuous
 62
     7
100
AcDbLine
 10
26.8705803554
 20
424.9936357283
 30
0.0
 11
24.9678534077
 21
425.4051560238
 31
0.0
  0
ELLIPSE
  5
DE
330
82
100
AcDbEntity
  8
(1_1)_06828131_4
  6
Continuous
 62
     7
100
AcDbEllipse
 10
32.3325463154
 20
423.8555818397
 30
0.0
 11
-6.250000054103994
 21
1.569772090093124E-8
 31
0.0
210
0.0
220
0.0
230
1.0
 40
0.3746065934
 41
-0.8013988422202205
 42
-0.7693974769141576
  0
LINE
  5
DF
330
82
100
AcDbEntity
  8
(1_1)_06828131_4
  6
Continuous
 62
     7
100
AcDbLine
 10
27.9844052818
 20
425.5374015125
 30
0.0
 11
27.9844052818
 21
426.4929908291
 31
0.0
  0
LINE
  5
E0
330
82
100
AcDbEntity
  8
(1_1)_06828131_4
  6
Continuous
 62
     7
100
AcDbLine
 10
27.9844052818
 20
425.5374015125
 30
0.0
 11
26.5071725069
 21
426.09078265
 31
0.0
  0
LINE
  5
E1
330
82
100
AcDbEntity
  8
(1_1)_06828131_4
  6
Continuous
 62
     7
100
AcDbLine
 10
27.8429839255
 20
425.48442414
 30
0.0
 11
26.3600563076
 21
426.0399386032
 31
0.0
  0
ELLIPSE
  5
E2
330
82
100
AcDbEntity
  8
(1_1)_06828131_4
  6
Continuous
 62
     7
100
AcDbEllipse
 10
32.3325462933
 20
423.85558184
 30
0.0
 11
-6.250000036064554
 21
1.090834367278859E-8
 31
0.0
210
0.0
220
0.0
230
1.0
 40
0.3746065943
 41
-1.063198231214719
 42
-1.031196865871784
  0
LINE
  5
E3
330
82
100
AcDbEntity
  8
(1_1)_06828131_4
  6
Continuous
 62
     7
100
AcDbLine
 10
29.2945488304
 20
425.9016703013
 30
0.0
 11
29.2945488304
 21
426.7240636601
 31
0.0
  0
LINE
  5
E4
330
82
100
AcDbEntity
  8
(1_1)_06828131_4
  6
Continuous
 62
     7
100
AcDbLine
 10
29.2945488304
 20
425.9016703013
 30
0.0
 11
28.2869691799
 21
426.5554259166
 31
0.0
  0
LINE
  5
E5
330
82
100
AcDbEntity
  8
(1_1)_06828131_4
  6
Continuous
 62
     7
100
AcDbLine
 10
29.1213437496
 20
425.8642096419
 30
0.0
 11
28.1109178314
 21
426.5198120229
 31
0.0
  0
ELLIPSE
  5
E6
330
82
100
AcDbEntity
  8
(1_1)_06828131_4
  6
Continuous
 62
     7
100
AcDbEllipse
 10
32.3325462794
 20
423.8555818379
 30
0.0
 11
-6.250000030789707
 21
6.294464949263557E-9
 31
0.0
210
0.0
220
0.0
230
1.0
 40
0.3746065949
 41
-1.324997620134838
 42
-1.292996254791995
  0
LINE
  5
E7
330
82
100
AcDbEntity
  8
(1_1)_06828131_4
  6
Continuous
 62
     7
100
AcDbLine
 10
30.8117268836
 20
426.1265015441
 30
0.0
 11
30.8117268836
 21
426.8790416192
 31
0.0
  0
LINE
  5
E8
330
82
100
AcDbEntity
  8
(1_1)_06828131_4
  6
Continuous
 62
     7
100
AcDbLine
 10
30.8117268836
 20
426.1265015441
 30
0.0
 11
30.3019416883
 21
426.8392071644
 31
0.0
  0
LINE
  5
E9
330
82
100
AcDbEntity
  8
(1_1)_06828131_4
  6
Continuous
 62
     7
100
AcDbLine
 10
30.6185417184
 20
426.1071104799
 30
0.0
 11
30.1079940939
 21
426.8208820149
 31
0.0
  0
ARC
  5
EA
330
82
100
AcDbEntity
  8
(1_1)_06828131_4
  6
Continuous
 62
     7
100
AcDbCircle
 10
32.3325462644
 20
409.5145393077
 30
0.0
 40
16.68233377644242
100
AcDbArc
 50
89.6565461199
 51
90.3434538801
  0
LINE
  5
EB
330
82
100
AcDbEntity
  8
(1_1)_06828131_4
  6
Continuous
 62
     7
100
AcDbLine
 10
32.4325462644
 20
426.1965733632
 30
0.0
 11
32.4325462644
 21
426.9290071523
 31
0.0
  0
LINE
  5
EC
330
82
100
AcDbEntity
  8
(1_1)_06828131_4
  6
Continuous
 62
     7
100
AcDbLine
 10
32.2325462644
 20
426.1965733632
 30
0.0
 11
32.2325462644
 21
426.9290071523
 31
0.0
  0
ELLIPSE
  5
ED
330
82
100
AcDbEntity
  8
(1_1)_06828131_4
  6
Continuous
 62
     7
100
AcDbEllipse
 10
32.3325462493
 20
423.8555818376
 30
0.0
 11
6.250000031242092
 21
6.364131444058786E-9
 31
0.0
210
0.0
220
0.0
230
1.0
 40
0.3746065949
 41
1.292996254773534
 42
1.324997620114225
  0
LINE
  5
EE
330
82
100
AcDbEntity
  8
(1_1)_06828131_4
  6
Continuous
 62
     7
100
AcDbLine
 10
34.0465508104
 20
426.1071104799
 30
0.0
 11
34.5570984349
 21
426.8208820149
 31
0.0
  0
LINE
  5
EF
330
82
100
AcDbEntity
  8
(1_1)_06828131_4
  6
Continuous
 62
     7
100
AcDbLine
 10
33.8533656452
 20
426.1265015441
 30
0.0
 11
34.3631508406
 21
426.8392071644
 31
0.0
  0
LINE
  5
F0
330
82
100
AcDbEntity
  8
(1_1)_06828131_4
  6
Continuous
 62
     7
100
AcDbLine
 10
33.8533656452
 20
426.1265015441
 30
0.0
 11
33.8533656452
 21
426.8790416192
 31
0.0
  0
ELLIPSE
  5
F1
330
82
100
AcDbEntity
  8
(1_1)_06828131_4
  6
Continuous
 62
     7
100
AcDbEllipse
 10
32.3325462389
 20
423.8555818423
 30
0.0
 11
6.25000003184508
 21
9.605413686664122E-9
 31
0.0
210
0.0
220
0.0
230
1.0
 40
0.3746065942
 41
1.031196866173355
 42
1.0631982315336
  0
LINE
  5
F2
330
82
100
AcDbEntity
  8
(1_1)_06828131_4
  6
Continuous
 62
     7
100
AcDbLine
 10
35.5437487792
 20
425.8642096419
 30
0.0
 11
36.5541746975
 21
426.5198120229
 31
0.0
  0
LINE
  5
F3
330
82
100
AcDbEntity
  8
(1_1)_06828131_4
  6
Continuous
 62
     7
100
AcDbLine
 10
35.3705436984
 20
425.9016703013
 30
0.0
 11
36.378123349
 21
426.5554259166
 31
0.0
  0
LINE
  5
F4
330
82
100
AcDbEntity
  8
(1_1)_06828131_4
  6
Continuous
 62
     7
100
AcDbLine
 10
35.3705436984
 20
425.9016703013
 30
0.0
 11
35.3705436984
 21
426.7240636601
 31
0.0
  0
ELLIPSE
  5
F5
330
82
100
AcDbEntity
  8
(1_1)_06828131_4
  6
Continuous
 62
     7
100
AcDbEllipse
 10
32.3325462984
 20
423.8555818715
 30
0.0
 11
6.249999963936963
 21
-1.050555475945458E-8
 31
0.0
210
0.0
220
0.0
230
1.0
 40
0.3746065934
 41
0.7693974831440826
 42
0.8013988487578079
  0
LINE
  5
F6
330
82
100
AcDbEntity
  8
(1_1)_06828131_4
  6
Continuous
 62
     7
100
AcDbLine
 10
36.8221086033
 20
425.48442414
 30
0.0
 11
38.3050362212
 21
426.0399386032
 31
0.0
  0
LINE
  5
F7
330
82
100
AcDbEntity
  8
(1_1)_06828131_4
  6
Continuous
 62
     7
100
AcDbLine
 10
36.6806872471
 20
425.5374015125
 30
0.0
 11
38.157920022
 21
426.09078265
 31
0.0
  0
LINE
  5
F8
330
82
100
AcDbEntity
  8
(1_1)_06828131_4
  6
Continuous
 62
     7
100
AcDbLine
 10
36.6806872471
 20
425.5374015125
 30
0.0
 11
36.6806872471
 21
426.4929908291
 31
0.0
  0
ELLIPSE
  5
F9
330
82
100
AcDbEntity
  8
(1_1)_06828131_4
  6
Continuous
 62
     7
100
AcDbEllipse
 10
32.3325462027
 20
423.8555818454
 30
0.0
 11
6.250000062323873
 21
1.344419020554710E-8
 31
0.0
210
0.0
220
0.0
230
1.0
 40
0.3746065923
 41
0.5075980896719603
 42
0.5395994549801817
  0
LINE
  5
FA
330
82
100
AcDbEntity
  8
(1_1)_06828131_4
  6
Continuous
 62
     7
100
AcDbLine
 10
37.7945121734
 20
424.9936357283
 30
0.0
 11
39.6972391212
 21
425.4051560238
 31
0.0
  0
LINE
  5
FB
330
82
100
AcDbEntity
  8
(1_1)_06828131_4
  6
Continuous
 62
     7
100
AcDbLine
 10
37.6945121734
 20
425.0585194936
 30
0.0
 11
39.5886933911
 21
425.4681915253
 31
0.0
  0
LINE
  5
FC
330
82
100
AcDbEntity
  8
(1_1)_06828131_4
  6
Continuous
 62
     7
100
AcDbLine
 10
37.6945121734
 20
425.0585194936
 30
0.0
 11
37.6945121734
 21
425.8112322694
 31
0.0
  0
ELLIPSE
  5
FD
330
82
100
AcDbEntity
  8
(1_1)_06828131_4
  6
Continuous
 62
     7
100
AcDbEllipse
 10
32.3325467201
 20
423.8555819045
 30
0.0
 11
8.499999544072578
 21
-5.137242020669675E-8
 31
0.0
210
0.0
220
0.0
230
1.0
 40
0.3746066024
 41
0.2500344193863082
 42
0.2735643746153988
  0
ELLIPSE
  5
FE
330
82
100
AcDbEntity
  8
(1_1)_06828131_4
  6
Continuous
 62
     7
100
AcDbEllipse
 10
32.3325462644
 20
423.8555818588
 30
0.0
 11
8.500000000007001
 21
1.471045507628332E-12
 31
0.0
210
0.0
220
0.0
230
1.0
 40
0.3746065934
 41
0.2735643650870685
 42
0.389429623603653
  0
ELLIPSE
  5
FF
330
82
100
AcDbEntity
  8
(1_1)_06828131_4
  6
Continuous
 62
     7
100
AcDbEllipse
 10
32.3325463236
 20
423.8555818647
 30
0.0
 11
6.249999940778113
 21
-6.710035305168561E-9
 31
0.0
210
0.0
220
0.0
230
1.0
 40
0.374606595
 41
0.2457987066029341
 42
0.2778000722504615
  0
LINE
  5
100
330
82
100
AcDbEntity
  8
(1_1)_06828131_4
  6
Continuous
 62
     7
100
AcDbLine
 10
38.3946917931
 20
424.4252908262
 30
0.0
 11
40.5682294811
 21
424.6434608327
 31
0.0
  0
LINE
  5
101
330
82
100
AcDbEntity
  8
(1_1)_06828131_4
  6
Continuous
 62
     7
100
AcDbLine
 10
38.3429279841
 20
424.4976592629
 30
0.0
 11
40.516465672
 21
424.7158292694
 31
0.0
  0
LINE
  5
102
330
82
100
AcDbEntity
  8
(1_1)_06828131_4
  6
Continuous
 62
     7
100
AcDbLine
 10
38.3429279841
 20
424.4976592629
 30
0.0
 11
38.3429279841
 21
425.1122466708
 31
0.0
  0
ARC
  5
103
330
82
100
AcDbEntity
  8
(1_1)_06828131_4
  6
Continuous
 62
     7
100
AcDbCircle
 10
39.6392347102
 20
423.8555818588
 30
0.0
 40
1.193311429588834
100
AcDbArc
 50
358.2010644444
 51
1.7989355556
  0
ELLIPSE
  5
104
330
82
100
AcDbEntity
  8
(1_1)_06828131_4
  6
Continuous
 62
     7
100
AcDbEllipse
 10
32.3325462644
 20
423.8555818588
 30
0.0
 11
8.499999999993202
 21
-4.440892098500627E-13
 31
0.0
210
0.0
220
0.0
230
1.0
 40
0.3746065934
 41
0.011764977288065
 42
0.2500344105111699
  0
ARC
  5
105
330
82
100
AcDbEntity
  8
(1_1)_06828131_4
  6
Continuous
 62
     7
100
AcDbCircle
 10
37.7047953605
 20
423.8555818588
 30
0.0
 40
0.8777505904338387
100
AcDbArc
 50
0.0
 51
2.4460134775
  0
LINE
  5
106
330
82
100
AcDbEntity
  8
(1_1)_06828131_4
  6
Continuous
 62
     7
100
AcDbLine
 10
38.5825462644
 20
423.8181211994
 30
0.0
 11
40.8319580088
 21
423.8181211994
 31
0.0
  0
LINE
  5
107
330
82
100
AcDbEntity
  8
(1_1)_06828131_4
  6
Continuous
 62
     7
100
AcDbLine
 10
38.5817462132
 20
423.8930425181
 30
0.0
 11
40.8319580088
 21
423.8930425181
 31
0.0
  0
LINE
  5
108
330
82
100
AcDbEntity
  8
(1_1)_06828131_4
  6
Continuous
 62
     7
100
AcDbLine
 10
38.5817462132
 20
423.8930425181
 30
0.0
 11
38.5817462132
 21
424.4440665135
 31
0.0
  0
ELLIPSE
  5
109
330
82
100
AcDbEntity
  8
(1_1)_06828131_4
  6
Continuous
 62
     7
100
AcDbEllipse
 10
32.3325466868
 20
423.8555818163
 30
0.0
 11
8.499999577406838
 21
4.767117256498921E-8
 31
0.0
210
0.0
220
0.0
230
1.0
 40
0.3746066018
 41
-0.2735643739216913
 42
-0.2500344187403618
  0
ELLIPSE
  5
10A
330
82
100
AcDbEntity
  8
(1_1)_06828131_4
  6
Continuous
 62
     7
100
AcDbEllipse
 10
32.3325462644
 20
423.8555818588
 30
0.0
 11
8.500000000030875
 21
-1.706967900361178E-12
 31
0.0
210
0.0
220
0.0
230
1.0
 40
0.3746065934
 41
6.033150896669062
 42
6.271420329891644
  0
LINE
  5
10B
330
82
100
AcDbEntity
  8
(1_1)_06828131_4
  6
Continuous
 62
     7
100
AcDbLine
 10
40.5682294811
 20
423.0677028848
 30
0.0
 11
40.5682294811
 21
423.8181211994
 31
0.0
  0
LINE
  5
10C
330
82
100
AcDbEntity
  8
(1_1)_06828131_4
  6
Continuous
 62
     7
100
AcDbLine
 10
38.4563949896
 20
423.2021151434
 30
0.0
 11
40.516465672
 21
422.9953344482
 31
0.0
  0
LINE
  5
10D
330
82
100
AcDbEntity
  8
(1_1)_06828131_4
  6
Continuous
 62
     7
100
AcDbLine
 10
38.4933339969
 20
423.2759716274
 30
0.0
 11
40.5682294811
 21
423.0677028848
 31
0.0
  0
ELLIPSE
  5
10E
330
82
100
AcDbEntity
  8
(1_1)_06828131_4
  6
Continuous
 62
     7
100
AcDbEllipse
 10
32.3325466725
 20
423.8555817705
 30
0.0
 11
8.499999587708745
 21
8.890010949613725E-8
 31
0.0
210
0.0
220
0.0
230
1.0
 40
0.3746065986
 41
-0.5353637691330784
 42
-0.5118338139047252
  0
ELLIPSE
  5
10F
330
82
100
AcDbEntity
  8
(1_1)_06828131_4
  6
Continuous
 62
     7
100
AcDbEllipse
 10
32.3325462644
 20
423.8555818588
 30
0.0
 11
8.499999999997311
 21
6.383782391594650E-13
 31
0.0
210
0.0
220
0.0
230
1.0
 40
0.3746065934
 41
-0.5118337983103212
 42
-0.2735643650873039
  0
LINE
  5
110
330
82
100
AcDbEntity
  8
(1_1)_06828131_4
  6
Continuous
 62
     7
100
AcDbLine
 10
39.7432527522
 20
422.2960559016
 30
0.0
 11
39.7432527522
 21
423.072946108
 31
0.0
  0
LINE
  5
111
330
82
100
AcDbEntity
  8
(1_1)_06828131_4
  6
Continuous
 62
     7
100
AcDbLine
 10
37.9020632862
 20
422.6077552317
 30
0.0
 11
39.6432527522
 21
422.2311721363
 31
0.0
  0
LINE
  5
112
330
82
100
AcDbEntity
  8
(1_1)_06828131_4
  6
Continuous
 62
     7
100
AcDbLine
 10
37.9901532837
 20
422.6752148829
 30
0.0
 11
39.7432527522
 21
422.2960559016
 31
0.0
  0
ELLIPSE
  5
113
330
82
100
AcDbEntity
  8
(1_1)_06828131_4
  6
Continuous
 62
     7
100
AcDbEllipse
 10
32.3325465736
 20
423.855581743
 30
0.0
 11
8.499999672113089
 21
9.526381072877399E-8
 31
0.0
210
0.0
220
0.0
230
1.0
 40
0.3746065934
 41
-0.7971631580496323
 42
-0.7736332028684414
  0
ELLIPSE
  5
114
330
82
100
AcDbEntity
  8
(1_1)_06828131_4
  6
Continuous
 62
     7
100
AcDbEllipse
 10
32.3325462644
 20
423.8555818588
 30
0.0
 11
8.499999999990033
 21
2.539635168830046E-12
 31
0.0
210
0.0
220
0.0
230
1.0
 40
0.3746065934
 41
-0.7736331861099037
 42
-0.5353637528867612
  0
LINE
  5
115
330
82
100
AcDbEntity
  8
(1_1)_06828131_4
  6
Continuous
 62
     7
100
AcDbLine
 10
38.4132486231
 20
421.6306880351
 30
0.0
 11
38.4132486231
 21
422.497196467
 31
0.0
  0
LINE
  5
116
330
82
100
AcDbEntity
  8
(1_1)_06828131_4
  6
Continuous
 62
     7
100
AcDbLine
 10
36.9252238516
 20
422.0821571807
 30
0.0
 11
38.2718272668
 21
421.5777106626
 31
0.0
  0
LINE
  5
117
330
82
100
AcDbEntity
  8
(1_1)_06828131_4
  6
Continuous
 62
     7
100
AcDbLine
 10
37.0587114575
 20
422.1381065884
 30
0.0
 11
38.4132486231
 21
421.6306880351
 31
0.0
  0
ELLIPSE
  5
118
330
82
100
AcDbEntity
  8
(1_1)_06828131_4
  6
Continuous
 62
     7
100
AcDbEllipse
 10
32.332546483
 20
423.8555817171
 30
0.0
 11
8.499999726874918
 21
8.245627791669818E-8
 31
0.0
210
0.0
220
0.0
230
1.0
 40
0.3746065886
 41
-1.058962543559335
 42
-1.035432588378361
  0
ELLIPSE
  5
119
330
82
100
AcDbEntity
  8
(1_1)_06828131_4
  6
Continuous
 62
     7
100
AcDbEllipse
 10
32.3325462644
 20
423.8555818588
 30
0.0
 11
8.500000000018353
 21
-5.620504062164855E-12
 31
0.0
210
0.0
220
0.0
230
1.0
 40
0.3746065934
 41
-1.035432573907302
 42
-0.7971631406847068
  0
LINE
  5
11A
330
82
100
AcDbEntity
  8
(1_1)_06828131_4
  6
Continuous
 62
     7
100
AcDbLine
 10
36.668854677
 20
421.1169430059
 30
0.0
 11
36.668854677
 21
421.9840437925
 31
0.0
  0
LINE
  5
11B
330
82
100
AcDbEntity
  8
(1_1)_06828131_4
  6
Continuous
 62
     7
100
AcDbLine
 10
35.5844220595
 20
421.6707210825
 30
0.0
 11
36.4956495962
 21
421.0794823466
 31
0.0
  0
LINE
  5
11C
330
82
100
AcDbEntity
  8
(1_1)_06828131_4
  6
Continuous
 62
     7
100
AcDbLine
 10
35.7536633833
 20
421.7107535766
 30
0.0
 11
36.668854677
 21
421.1169430059
 31
0.0
  0
ELLIPSE
  5
11D
330
82
100
AcDbEntity
  8
(1_1)_06828131_4
  6
Continuous
 62
     7
100
AcDbEllipse
 10
32.3325463824
 20
423.8555816939
 30
0.0
 11
8.499999756954166
 21
4.963636446309039E-8
 31
0.0
210
0.0
220
0.0
230
1.0
 40
0.3746065847
 41
-1.320761925490928
 42
-1.297231970284169
  0
ELLIPSE
  5
11E
330
82
100
AcDbEntity
  8
(1_1)_06828131_4
  6
Continuous
 62
     7
100
AcDbEllipse
 10
32.3325462644
 20
423.8555818588
 30
0.0
 11
8.500000000004173
 21
-1.110223024625157E-12
 31
0.0
210
0.0
220
0.0
230
1.0
 40
0.3746065934
 41
-1.297231961707396
 42
-1.058962528484527
  0
LINE
  5
11F
330
82
100
AcDbEntity
  8
(1_1)_06828131_4
  6
Continuous
 62
     7
100
AcDbLine
 10
34.6289484787
 20
420.7898316887
 30
0.0
 11
34.6289484787
 21
421.4926192172
 31
0.0
  0
LINE
  5
120
330
82
100
AcDbEntity
  8
(1_1)_06828131_4
  6
Continuous
 62
     7
100
AcDbLine
 10
33.9773106838
 20
421.4113807082
 30
0.0
 11
34.4357633134
 21
420.7704406245
 31
0.0
  0
LINE
  5
121
330
82
100
AcDbEntity
  8
(1_1)_06828131_4
  6
Continuous
 62
     7
100
AcDbLine
 10
34.169434374
 20
421.4322557685
 30
0.0
 11
34.6289484787
 21
420.7898316887
 31
0.0
  0
ARC
  5
122
330
82
100
AcDbEntity
  8
(1_1)_06828131_4
  6
Continuous
 62
     7
100
AcDbCircle
 10
32.3325462644
 20
443.3605467315
 30
0.0
 40
22.68912092336236
100
AcDbArc
 50
269.7474738435
 51
270.2525261565
  0
ELLIPSE
  5
123
330
82
100
AcDbEntity
  8
(1_1)_06828131_4
  6
Continuous
 62
     7
100
AcDbEllipse
 10
32.3325462644
 20
423.8555818588
 30
0.0
 11
8.499999999996046
 21
4.579669976578771E-13
 31
0.0
210
0.0
220
0.0
230
1.0
 40
0.3746065934
 41
4.724153957672646
 42
4.962423390895716
  0
LINE
  5
124
330
82
100
AcDbEntity
  8
(1_1)_06828131_4
  6
Continuous
 62
     7
100
AcDbLine
 10
32.2325462644
 20
421.3291535835
 30
0.0
 11
32.2325462644
 21
420.6716461792
 31
0.0
  0
LINE
  5
125
330
82
100
AcDbEntity
  8
(1_1)_06828131_4
  6
Continuous
 62
     7
100
AcDbLine
 10
32.4325462644
 20
421.3291535835
 30
0.0
 11
32.4325462644
 21
420.6716461792
 31
0.0
  0
ELLIPSE
  5
126
330
82
100
AcDbEntity
  8
(1_1)_06828131_4
  6
Continuous
 62
     7
100
AcDbEllipse
 10
32.3325461509
 20
423.8555817
 30
0.0
 11
-8.499999765971337
 21
4.775180251215261E-8
 31
0.0
210
0.0
220
0.0
230
1.0
 40
0.374606585
 41
1.297231969951827
 42
1.320761925135306
  0
ELLIPSE
  5
127
330
82
100
AcDbEntity
  8
(1_1)_06828131_4
  6
Continuous
 62
     7
100
AcDbEllipse
 10
32.3325462644
 20
423.8555818588
 30
0.0
 11
-8.500000000007679
 21
-1.026956297778270E-12
 31
0.0
210
0.0
220
0.0
230
1.0
 40
0.3746065934
 41
1.320761916283766
 42
1.559031349506524
  0
LINE
  5
128
330
82
100
AcDbEntity
  8
(1_1)_06828131_4
  6
Continuous
 62
     7
100
AcDbLine
 10
30.0361440502
 20
420.7898316887
 30
0.0
 11
30.0361440502
 21
421.4926192172
 31
0.0
  0
LINE
  5
129
330
82
100
AcDbEntity
  8
(1_1)_06828131_4
  6
Continuous
 62
     7
100
AcDbLine
 10
30.4956581548
 20
421.4322557685
 30
0.0
 11
30.0361440502
 21
420.7898316887
 31
0.0
  0
LINE
  5
12A
330
82
100
AcDbEntity
  8
(1_1)_06828131_4
  6
Continuous
 62
     7
100
AcDbLine
 10
30.687781845
 20
421.4113807082
 30
0.0
 11
30.2293292154
 21
420.7704406245
 31
0.0
  0
ELLIPSE
  5
12B
330
82
100
AcDbEntity
  8
(1_1)_06828131_4
  6
Continuous
 62
     7
100
AcDbEllipse
 10
32.3325460459
 20
423.8555817169
 30
0.0
 11
-8.499999726796501
 21
8.249947947014391E-8
 31
0.0
210
0.0
220
0.0
230
1.0
 40
0.3746065886
 41
1.035432588369983
 42
1.058962543551326
  0
ELLIPSE
  5
12C
330
82
100
AcDbEntity
  8
(1_1)_06828131_4
  6
Continuous
 62
     7
100
AcDbEllipse
 10
32.3325462644
 20
423.8555818588
 30
0.0
 11
-8.499999999997801
 21
6.106226635438361E-13
 31
0.0
210
0.0
220
0.0
230
1.0
 40
0.3746065934
 41
1.058962528484759
 42
1.297231961707787
  0
LINE
  5
12D
330
82
100
AcDbEntity
  8
(1_1)_06828131_4
  6
Continuous
 62
     7
100
AcDbLine
 10
27.9962378519
 20
421.1169430059
 30
0.0
 11
27.9962378519
 21
421.9840437925
 31
0.0
  0
LINE
  5
12E
330
82
100
AcDbEntity
  8
(1_1)_06828131_4
  6
Continuous
 62
     7
100
AcDbLine
 10
28.9114291455
 20
421.7107535766
 30
0.0
 11
27.9962378519
 21
421.1169430059
 31
0.0
  0
LINE
  5
12F
330
82
100
AcDbEntity
  8
(1_1)_06828131_4
  6
Continuous
 62
     7
100
AcDbLine
 10
29.0806704694
 20
421.6707210825
 30
0.0
 11
28.1694429326
 21
421.0794823466
 31
0.0
  0
ELLIPSE
  5
130
330
82
100
AcDbEntity
  8
(1_1)_06828131_4
  6
Continuous
 62
     7
100
AcDbEllipse
 10
32.3325459553
 20
423.855581743
 30
0.0
 11
-8.499999672137967
 21
9.524159239049368E-8
 31
0.0
210
0.0
220
0.0
230
1.0
 40
0.3746065934
 41
0.7736332028588571
 42
0.797163158040196
  0
ELLIPSE
  5
131
330
82
100
AcDbEntity
  8
(1_1)_06828131_4
  6
Continuous
 62
     7
100
AcDbEllipse
 10
32.3325462644
 20
423.8555818588
 30
0.0
 11
-8.499999999999861
 21
-2.775557561562891E-13
 31
0.0
210
0.0
220
0.0
230
1.0
 40
0.3746065934
 41
0.7971631406855177
 42
1.03543257390849
  0
LINE
  5
132
330
82
100
AcDbEntity
  8
(1_1)_06828131_4
  6
Continuous
 62
     7
100
AcDbLine
 10
26.2518439058
 20
421.6306880351
 30
0.0
 11
26.2518439058
 21
422.497196467
 31
0.0
  0
LINE
  5
133
330
82
100
AcDbEntity
  8
(1_1)_06828131_4
  6
Continuous
 62
     7
100
AcDbLine
 10
27.6063810714
 20
422.1381065884
 30
0.0
 11
26.2518439058
 21
421.6306880351
 31
0.0
  0
LINE
  5
134
330
82
100
AcDbEntity
  8
(1_1)_06828131_4
  6
Continuous
 62
     7
100
AcDbLine
 10
27.7398686772
 20
422.0821571807
 30
0.0
 11
26.393265262
 21
421.5777106626
 31
0.0
  0
ELLIPSE
  5
135
330
82
100
AcDbEntity
  8
(1_1)_06828131_4
  6
Continuous
 62
     7
100
AcDbEllipse
 10
32.3325458856
 20
423.8555817767
 30
0.0
 11
-8.499999617217577
 21
8.263595363544596E-8
 31
0.0
210
0.0
220
0.0
230
1.0
 40
0.3746065982
 41
0.5118338127914805
 42
0.5353637679732072
  0
ELLIPSE
  5
136
330
82
100
AcDbEntity
  8
(1_1)_06828131_4
  6
Continuous
 62
     7
100
AcDbEllipse
 10
32.3325462644
 20
423.8555818588
 30
0.0
 11
-8.500000000024334
 21
-6.397660179402465E-12
 31
0.0
210
0.0
220
0.0
230
1.0
 40
0.3746065934
 41
0.5353637528854547
 42
0.7736331861080122
  0
LINE
  5
137
330
82
100
AcDbEntity
  8
(1_1)_06828131_4
  6
Continuous
 62
     7
100
AcDbLine
 10
24.9218397766
 20
422.2960559016
 30
0.0
 11
24.9218397766
 21
423.072946108
 31
0.0
  0
LINE
  5
138
330
82
100
AcDbEntity
  8
(1_1)_06828131_4
  6
Continuous
 62
     7
100
AcDbLine
 10
26.6749392451
 20
422.6752148829
 30
0.0
 11
24.9218397766
 21
422.2960559016
 31
0.0
  0
LINE
  5
139
330
82
100
AcDbEntity
  8
(1_1)_06828131_4
  6
Continuous
 62
     7
100
AcDbLine
 10
26.7630292426
 20
422.6077552317
 30
0.0
 11
25.0218397766
 21
422.2311721363
 31
0.0
  0
ELLIPSE
  5
13A
330
82
100
AcDbEntity
  8
(1_1)_06828131_4
  6
Continuous
 62
     7
100
AcDbEllipse
 10
32.3325458084
 20
423.855581813
 30
0.0
 11
-8.499999543671255
 21
5.141778669504049E-8
 31
0.0
210
0.0
220
0.0
230
1.0
 40
0.3746066024
 41
0.2500344193942592
 42
0.2735643746239135
  0
ELLIPSE
  5
13B
330
82
100
AcDbEntity
  8
(1_1)_06828131_4
  6
Continuous
 62
     7
100
AcDbEllipse
 10
32.3325462644
 20
423.8555818588
 30
0.0
 11
-8.499999999993546
 21
1.276756478318930E-12
 31
0.0
210
0.0
220
0.0
230
1.0
 40
0.3746065934
 41
0.273564365087398
 42
0.511833798310463
  0
LINE
  5
13C
330
82
100
AcDbEntity
  8
(1_1)_06828131_4
  6
Continuous
 62
     7
100
AcDbLine
 10
24.0968630478
 20
423.0677028848
 30
0.0
 11
24.0968630478
 21
423.8181211994
 31
0.0
  0
LINE
  5
13D
330
82
100
AcDbEntity
  8
(1_1)_06828131_4
  6
Continuous
 62
     7
100
AcDbLine
 10
26.171758532
 20
423.2759716274
 30
0.0
 11
24.0968630478
 21
423.0677028848
 31
0.0
  0
LINE
  5
13E
330
82
100
AcDbEntity
  8
(1_1)_06828131_4
  6
Continuous
 62
     7
100
AcDbLine
 10
26.2086975392
 20
423.2021151434
 30
0.0
 11
24.1486268568
 21
422.9953344482
 31
0.0
  0
LINE
  5
13F
330
82
100
AcDbEntity
  8
(1_1)_06828131_4
  6
Continuous
 62
     7
100
AcDbLine
 10
29.5881200949
 20
424.3734464772
 30
0.0
 11
29.5881200949
 21
423.9211380126
 31
0.0
  0
ELLIPSE
  5
140
330
82
100
AcDbEntity
  8
(1_1)_06828131_4
  6
Continuous
 62
     7
100
AcDbEllipse
 10
32.3325462644
 20
423.8555818588
 30
0.0
 11
2.750000000001982
 21
0.0
 31
0.0
210
0.0
220
0.0
230
1.0
 40
0.3746065934
 41
3.077913261332827
 42
3.141592653589793
  0
LINE
  5
141
330
82
100
AcDbEntity
  8
(1_1)_06828131_4
  6
Continuous
 62
     7
100
AcDbLine
 10
29.5881200949
 20
423.9211380126
 30
0.0
 11
27.1254763856
 21
423.9211380126
 31
0.0
  0
LINE
  5
142
330
82
100
AcDbEntity
  8
(1_1)_06828131_4
  6
Continuous
 62
     7
100
AcDbLine
 10
29.5825462644
 20
423.7900257049
 30
0.0
 11
27.092308781
 21
423.7900257049
 31
0.0
  0
LINE
  5
143
330
82
100
AcDbEntity
  8
(1_1)_06828131_4
  6
Continuous
 62
     7
100
AcDbLine
 10
30.0433034828
 20
425.2098164638
 30
0.0
 11
30.0433034828
 21
424.4263952225
 31
0.0
  0
ELLIPSE
  5
144
330
82
100
AcDbEntity
  8
(1_1)_06828131_4
  6
Continuous
 62
     7
100
AcDbEllipse
 10
32.3325462644
 20
423.8555818588
 30
0.0
 11
-2.749999999995926
 21
-4.996003610813204E-13
 31
0.0
210
0.0
220
0.0
230
1.0
 40
0.3746065934
 41
-0.5872781678557901
 42
-0.4599193833416244
  0
LINE
  5
145
330
82
100
AcDbEntity
  8
(1_1)_06828131_4
  6
Continuous
 62
     7
100
AcDbLine
 10
30.0433034828
 20
424.4263952225
 30
0.0
 11
28.1179211293
 21
424.8428154114
 31
0.0
  0
LINE
  5
146
330
82
100
AcDbEntity
  8
(1_1)_06828131_4
  6
Continuous
 62
     7
100
AcDbLine
 10
29.8683034828
 20
424.3128486333
 30
0.0
 11
27.9180733344
 21
424.7346428838
 31
0.0
  0
LINE
  5
147
330
82
100
AcDbEntity
  8
(1_1)_06828131_4
  6
Continuous
 62
     7
100
AcDbLine
 10
31.1118876253
 20
425.582932445
 30
0.0
 11
31.1118876253
 21
424.7787034525
 31
0.0
  0
ELLIPSE
  5
148
330
82
100
AcDbEntity
  8
(1_1)_06828131_4
  6
Continuous
 62
     7
100
AcDbEllipse
 10
32.3325462644
 20
423.8555818588
 30
0.0
 11
-2.749999999929922
 21
-2.159383782895929E-11
 31
0.0
210
0.0
220
0.0
230
1.0
 40
0.3746065934
 41
-1.110876943466672
 42
-0.9835181589500399
  0
LINE
  5
149
330
82
100
AcDbEntity
  8
(1_1)_06828131_4
  6
Continuous
 62
     7
100
AcDbLine
 10
31.1118876253
 20
424.7787034525
 30
0.0
 11
30.0819639751
 21
425.4469566962
 31
0.0
  0
LINE
  5
14A
330
82
100
AcDbEntity
  8
(1_1)_06828131_4
  6
Continuous
 62
     7
100
AcDbLine
 10
30.808778734
 20
424.7131472987
 30
0.0
 11
29.7705909975
 21
425.3867625927
 31
0.0
  0
ARC
  5
14B
330
82
100
AcDbEntity
  8
(1_1)_06828131_4
  6
Continuous
 62
     7
100
AcDbCircle
 10
32.3325462644
 20
417.5575064574
 30
0.0
 40
7.328245355509035
100
AcDbArc
 50
88.6316349744
 51
91.3683650256
  0
LINE
  5
14C
330
82
100
AcDbEntity
  8
(1_1)_06828131_4
  6
Continuous
 62
     7
100
AcDbLine
 10
32.5075462644
 20
424.883661997
 30
0.0
 11
32.5075462644
 21
425.6357367971
 31
0.0
  0
LINE
  5
14D
330
82
100
AcDbEntity
  8
(1_1)_06828131_4
  6
Continuous
 62
     7
100
AcDbLine
 10
32.1575462644
 20
424.883661997
 30
0.0
 11
32.1575462644
 21
425.6357367971
 31
0.0
  0
ELLIPSE
  5
14E
330
82
100
AcDbEntity
  8
(1_1)_06828131_4
  6
Continuous
 62
     7
100
AcDbEllipse
 10
32.3325462644
 20
423.8555818587
 30
0.0
 11
2.750000000046052
 21
1.364186541508161E-11
 31
0.0
210
0.0
220
0.0
230
1.0
 40
0.3746065934
 41
0.9835181589326849
 42
1.110876943445028
  0
LINE
  5
14F
330
82
100
AcDbEntity
  8
(1_1)_06828131_4
  6
Continuous
 62
     7
100
AcDbLine
 10
33.5532049035
 20
425.582932445
 30
0.0
 11
33.5532049035
 21
424.7787034525
 31
0.0
  0
LINE
  5
150
330
82
100
AcDbEntity
  8
(1_1)_06828131_4
  6
Continuous
 62
     7
100
AcDbLine
 10
33.8563137948
 20
424.7131472987
 30
0.0
 11
34.8945015314
 21
425.3867625927
 31
0.0
  0
LINE
  5
151
330
82
100
AcDbEntity
  8
(1_1)_06828131_4
  6
Continuous
 62
     7
100
AcDbLine
 10
33.5532049035
 20
424.7787034525
 30
0.0
 11
34.5831285537
 21
425.4469566962
 31
0.0
  0
ELLIPSE
  5
152
330
82
100
AcDbEntity
  8
(1_1)_06828131_4
  6
Continuous
 62
     7
100
AcDbEllipse
 10
32.3325462644
 20
423.8555818588
 30
0.0
 11
2.749999999994453
 21
9.992007221626409E-13
 31
0.0
210
0.0
220
0.0
230
1.0
 40
0.3746065934
 41
0.4599193833416049
 42
0.5872781678557724
  0
LINE
  5
153
330
82
100
AcDbEntity
  8
(1_1)_06828131_4
  6
Continuous
 62
     7
100
AcDbLine
 10
34.621789046
 20
425.2098164638
 30
0.0
 11
34.621789046
 21
424.4263952225
 31
0.0
  0
LINE
  5
154
330
82
100
AcDbEntity
  8
(1_1)_06828131_4
  6
Continuous
 62
     7
100
AcDbLine
 10
34.796789046
 20
424.3128486333
 30
0.0
 11
36.7470191944
 21
424.7346428838
 31
0.0
  0
LINE
  5
155
330
82
100
AcDbEntity
  8
(1_1)_06828131_4
  6
Continuous
 62
     7
100
AcDbLine
 10
34.621789046
 20
424.4263952225
 30
0.0
 11
36.5471713995
 21
424.8428154114
 31
0.0
  0
ELLIPSE
  5
156
330
82
100
AcDbEntity
  8
(1_1)_06828131_4
  6
Continuous
 62
     7
100
AcDbEllipse
 10
32.3325462644
 20
423.8555818588
 30
0.0
 11
-2.750000000001982
 21
0.0
 31
0.0
210
0.0
220
0.0
230
1.0
 40
0.3746065934
 41
3.141592653589793
 42
3.205272045846801
  0
LINE
  5
157
330
82
100
AcDbEntity
  8
(1_1)_06828131_4
  6
Continuous
 62
     7
100
AcDbLine
 10
35.0769724339
 20
424.3734464772
 30
0.0
 11
35.0769724339
 21
423.9211380126
 31
0.0
  0
LINE
  5
158
330
82
100
AcDbEntity
  8
(1_1)_06828131_4
  6
Continuous
 62
     7
100
AcDbLine
 10
35.0825462644
 20
423.7900257049
 30
0.0
 11
37.5727837478
 21
423.7900257049
 31
0.0
  0
LINE
  5
159
330
82
100
AcDbEntity
  8
(1_1)_06828131_4
  6
Continuous
 62
     7
100
AcDbLine
 10
35.0769724339
 20
423.9211380126
 30
0.0
 11
37.5396161432
 21
423.9211380126
 31
0.0
  0
ELLIPSE
  5
15A
330
82
100
AcDbEntity
  8
(1_1)_06828131_4
  6
Continuous
 62
     7
100
AcDbEllipse
 10
32.3325462664
 20
423.8555818583
 30
0.0
 11
5.249999998007455
 21
4.246603069191223E-10
 31
0.0
210
0.0
220
0.0
230
1.0
 40
0.3746065935
 41
-0.5569382849910403
 42
-0.4902592664539611
  0
LINE
  5
15B
330
82
100
AcDbEntity
  8
(1_1)_06828131_4
  6
Continuous
 62
     7
100
AcDbLine
 10
34.8308088162
 20
423.2395618627
 30
0.0
 11
36.7891530248
 21
422.8160127096
 31
0.0
  0
LINE
  5
15C
330
82
100
AcDbEntity
  8
(1_1)_06828131_4
  6
Continuous
 62
     7
100
AcDbLine
 10
34.9578702487
 20
423.3634765678
 30
0.0
 11
36.9641530248
 21
422.9295592988
 31
0.0
  0
LINE
  5
15D
330
82
100
AcDbEntity
  8
(1_1)_06828131_4
  6
Continuous
 62
     7
100
AcDbLine
 10
36.9641530248
 20
423.7900257049
 30
0.0
 11
36.9641530248
 21
422.9295592988
 31
0.0
  0
ELLIPSE
  5
15E
330
82
100
AcDbEntity
  8
(1_1)_06828131_4
  6
Continuous
 62
     7
100
AcDbEllipse
 10
32.3325462652
 20
423.8555818583
 30
0.0
 11
5.249999999041665
 21
2.868399961997170E-10
 31
0.0
210
0.0
220
0.0
230
1.0
 40
0.3746065934
 41
-1.080537060546963
 42
-1.013858042014641
  0
LINE
  5
15F
330
82
100
AcDbEntity
  8
(1_1)_06828131_4
  6
Continuous
 62
     7
100
AcDbLine
 10
33.7698625894
 20
422.7918846006
 30
0.0
 11
34.8045330801
 21
422.1205514282
 31
0.0
  0
LINE
  5
160
330
82
100
AcDbEntity
  8
(1_1)_06828131_4
  6
Continuous
 62
     7
100
AcDbLine
 10
34.057124095
 20
422.8677231351
 30
0.0
 11
35.1076419714
 21
422.1861075821
 31
0.0
  0
LINE
  5
161
330
82
100
AcDbEntity
  8
(1_1)_06828131_4
  6
Continuous
 62
     7
100
AcDbLine
 10
35.1076419714
 20
423.1796886045
 30
0.0
 11
35.1076419714
 21
422.1861075821
 31
0.0
  0
ARC
  5
162
330
82
100
AcDbEntity
  8
(1_1)_06828131_4
  6
Continuous
 62
     7
100
AcDbCircle
 10
32.3325462644
 20
435.8969046431
 30
0.0
 40
14.00800766098237
100
AcDbArc
 50
269.2841935491
 51
270.7158064509
  0
LINE
  5
163
330
82
100
AcDbEntity
  8
(1_1)_06828131_4
  6
Continuous
 62
     7
100
AcDbLine
 10
32.1575462644
 20
422.6420649496
 30
0.0
 11
32.1575462644
 21
421.8899901496
 31
0.0
  0
LINE
  5
164
330
82
100
AcDbEntity
  8
(1_1)_06828131_4
  6
Continuous
 62
     7
100
AcDbLine
 10
32.5075462644
 20
422.6420649496
 30
0.0
 11
32.5075462644
 21
421.8899901496
 31
0.0
  0
ELLIPSE
  5
165
330
82
100
AcDbEntity
  8
(1_1)_06828131_4
  6
Continuous
 62
     7
100
AcDbEllipse
 10
32.3325462633
 20
423.855581858
 30
0.0
 11
-5.249999998575221
 21
4.272970866026071E-10
 31
0.0
210
0.0
220
0.0
230
1.0
 40
0.3746065934
 41
1.013858042053032
 42
1.080537060590103
  0
LINE
  5
166
330
82
100
AcDbEntity
  8
(1_1)_06828131_4
  6
Continuous
 62
     7
100
AcDbLine
 10
30.6079684339
 20
422.8677231351
 30
0.0
 11
29.5574505574
 21
422.1861075821
 31
0.0
  0
LINE
  5
167
330
82
100
AcDbEntity
  8
(1_1)_06828131_4
  6
Continuous
 62
     7
100
AcDbLine
 10
30.8952299394
 20
422.7918846006
 30
0.0
 11
29.8605594487
 21
422.1205514282
 31
0.0
  0
LINE
  5
168
330
82
100
AcDbEntity
  8
(1_1)_06828131_4
  6
Continuous
 62
     7
100
AcDbLine
 10
29.5574505574
 20
423.1796886045
 30
0.0
 11
29.5574505574
 21
422.1861075821
 31
0.0
  0
ELLIPSE
  5
169
330
82
100
AcDbEntity
  8
(1_1)_06828131_4
  6
Continuous
 62
     7
100
AcDbEllipse
 10
32.3325462649
 20
423.8555818589
 30
0.0
 11
-5.250000000529226
 21
-1.132843818751894E-10
 31
0.0
210
0.0
220
0.0
230
1.0
 40
0.3746065934
 41
0.4902592663059382
 42
0.556938284824689
  0
LINE
  5
16A
330
82
100
AcDbEntity
  8
(1_1)_06828131_4
  6
Continuous
 62
     7
100
AcDbLine
 10
29.7072222802
 20
423.3634765678
 30
0.0
 11
27.700939504
 21
422.9295592988
 31
0.0
  0
LINE
  5
16B
330
82
100
AcDbEntity
  8
(1_1)_06828131_4
  6
Continuous
 62
     7
100
AcDbLine
 10
29.8342837126
 20
423.2395618627
 30
0.0
 11
27.875939504
 21
422.8160127096
 31
0.0
  0
LINE
  5
16C
330
82
100
AcDbEntity
  8
(1_1)_06828131_4
  6
Continuous
 62
     7
100
AcDbLine
 10
27.700939504
 20
423.7900257049
 30
0.0
 11
27.700939504
 21
422.9295592988
 31
0.0
  0
LINE
  5
16D
330
82
100
AcDbEntity
  8
(1_1)_06828131_4
  6
Continuous
 62
     7
100
AcDbLine
 10
23.3325462644
 20
425.6909956075
 30
0.0
 11
23.3325462644
 21
423.6701450879
 31
0.0
  0
LINE
  5
16E
330
82
100
AcDbEntity
  8
(1_1)_06828131_4
  6
Continuous
 62
     7
100
AcDbLine
 10
41.3325462644
 20
423.6701450879
 30
0.0
 11
41.3325462644
 21
425.6909956075
 31
0.0
  0
LINE
  5
16F
330
82
100
AcDbEntity
  8
(1_1)_06828131_4
  6
Continuous
 62
     7
100
AcDbLine
 10
26.0825462644
 20
423.8555818588
 30
0.0
 11
26.0825462644
 21
423.6701450879
 31
0.0
  0
LINE
  5
170
330
82
100
AcDbEntity
  8
(1_1)_06828131_4
  6
Continuous
 62
     7
100
AcDbLine
 10
38.5825462644
 20
423.6701450879
 30
0.0
 11
38.5825462644
 21
423.8555818588
 31
0.0
  0
LINE
  5
171
330
82
100
AcDbEntity
  8
(1_1)_06828131_4
  6
Continuous
 62
     7
100
AcDbLine
 10
29.5825462644
 20
423.8555818588
 30
0.0
 11
29.5825462644
 21
423.6701450879
 31
0.0
  0
LINE
  5
172
330
82
100
AcDbEntity
  8
(1_1)_06828131_4
  6
Continuous
 62
     7
100
AcDbLine
 10
35.0825462644
 20
423.6701450879
 30
0.0
 11
35.0825462644
 21
423.8555818588
 31
0.0
  0
LINE
  5
173
330
82
100
AcDbEntity
  8
(1_1)_06828131_4
  6
Continuous
 62
     7
100
AcDbLine
 10
31.8129163205
 20
424.0848726024
 30
0.0
 11
31.8129163205
 21
423.8555818588
 31
0.0
  0
LINE
  5
174
330
82
100
AcDbEntity
  8
(1_1)_06828131_4
  6
Continuous
 62
     7
100
AcDbLine
 10
32.8521762083
 20
423.8555818588
 30
0.0
 11
32.8521762083
 21
424.2347247788
 31
0.0
  0
SPLINE
  5
176
330
82
100
AcDbEntity
  8
(3_3) 407020038_
  6
Continuous
 62
     7
100
AcDbSpline
210
0.0
220
0.0
230
1.0
 70
     8
 71
     5
 72
    12
 73
     6
 74
     0
 42
0.000000001
 43
0.0000000001
 40
0.0
 40
0.0
 40
0.0
 40
0.0
 40
0.0
 40
0.0
 40
0.7500053173589832
 40
0.7500053173589832
 40
0.7500053173589832
 40
0.7500053173589832
 40
0.7500053173589832
 40
0.7500053173589832
 10
30.65985784090439
 20
446.5588594242168
 30
0.0
 10
30.65904060719882
 20
446.6739163007817
 30
0.0
 10
30.64190276721434
 20
446.7839259385633
 30
0.0
 10
30.60839061838479
 20
446.8755495941149
 30
0.0
 10
30.56285699289816
 20
446.9377994028609
 30
0.0
 10
30.51111815991534
 20
446.9672078197737
 30
0.0
  0
ELLIPSE
  5
177
330
82
100
AcDbEntity
  8
(3_3) 407020038_
  6
Continuous
 62
     7
100
AcDbEllipse
 10
35.9086014116
 20
448.0021183009
 30
0.0
 11
-0.5000438487776436
 21
0.005763329916516624
 31
0.0
210
0.0
220
0.0
230
1.0
 40
0.9855816377
 41
3.039142158859188
 42
3.15264728591058
  0
ELLIPSE
  5
178
330
82
100
AcDbEntity
  8
(3_3) 407020038_
  6
Continuous
 62
     7
100
AcDbEllipse
 10
28.7687541805
 20
448.0044722192
 30
0.0
 11
0.5000545197894235
 21
0.00472491258457497
 31
0.0
210
0.0
220
0.0
230
1.0
 40
0.9855825012
 41
3.131976008756674
 42
3.243900035247943
  0
LINE
  5
179
330
82
100
AcDbEntity
  8
(3_3) 407020038_
  6
Continuous
 62
     7
100
AcDbLine
 10
36.4333219537
 20
527.8093792518
 30
0.0
 11
36.4086774984
 21
448.0018033112
 31
0.0
  0
LINE
  5
17A
330
82
100
AcDbEntity
  8
(3_3) 407020038_
  6
Continuous
 62
     7
100
AcDbLine
 10
28.268678001
 20
448.0044869672
 30
0.0
 11
28.2933224565
 21
527.8120629078
 31
0.0
  0
ELLIPSE
  5
17B
330
82
100
AcDbEntity
  8
(3_3) 407020038_
  6
Continuous
 62
     7
100
AcDbEllipse
 10
35.9332457743
 20
527.8093939994
 30
0.0
 11
-0.5000545197894266
 21
-0.004724912583964347
 31
0.0
210
0.0
220
0.0
230
1.0
 40
0.9855825012
 41
3.131976008366881
 42
4.70246774905873
  0
ELLIPSE
  5
17C
330
82
100
AcDbEntity
  8
(3_3) 407020038_
  6
Continuous
 62
     7
100
AcDbEllipse
 10
28.7933985432
 20
527.8117479177
 30
0.0
 11
0.5000438487776405
 21
-0.005763329916280702
 31
0.0
210
0.0
220
0.0
230
1.0
 40
0.9855816377
 41
1.582155545609492
 42
3.152647286300299
  0
LINE
  5
17D
330
82
100
AcDbEntity
  8
(3_3) 407020038_
  6
Continuous
 62
     7
100
AcDbLine
 10
28.7933984236
 20
528.3046156236
 30
0.0
 11
35.9335502875
 21
528.3022616048
 31
0.0
  0
SPLINE
  5
17E
330
82
100
AcDbEntity
  8
(3_3) 407020038_
  6
Continuous
 62
     7
100
AcDbSpline
210
0.0
220
0.0
230
1.0
 70
     8
 71
     3
 72
    12
 73
     8
 74
     0
 42
0.000000001
 43
0.0000000001
 40
0.5564566366123124
 40
0.5564566366123124
 40
0.5564566366123124
 40
0.5564566366123124
 40
0.6513644588120108
 40
0.7501464874494513
 40
0.8489509645597173
 40
0.9594014315238119
 40
1.0
 40
1.0
 40
1.0
 40
1.0
 10
35.93978527339633
 20
445.191931387017
 30
0.0
 10
35.93978517239848
 20
445.1919205157798
 30
0.0
 10
35.93303354483995
 20
445.1968180716221
 30
0.0
 10
35.90321450562222
 20
445.2283753811103
 30
0.0
 10
35.86444534696338
 20
445.2945698920411
 30
0.0
 10
35.83683642072871
 20
445.3789532926203
 30
0.0
 10
35.84073560710317
 20
445.4279608878923
 30
0.0
 10
35.84199115966715
 20
445.4435687550782
 30
0.0
  0
SPLINE
  5
17F
330
82
100
AcDbEntity
  8
(3_3) 407020038_
  6
Continuous
 62
     7
100
AcDbSpline
210
0.0
220
0.0
230
1.0
 70
     8
 71
     3
 72
    12
 73
     8
 74
     0
 42
0.000000001
 43
0.0000000001
 40
0.0
 40
0.0
 40
0.0
 40
0.0
 40
0.053127338068107
 40
0.1688719771953062
 40
0.2750100420486317
 40
0.3774929322750846
 40
0.4572961426598853
 40
0.4572961426598853
 40
0.4572961426598853
 40
0.4572961426598853
 10
28.83348378688199
 20
445.4455485950493
 30
0.0
 10
28.8345628068325
 20
445.4255804923607
 30
0.0
 10
28.83740687017593
 20
445.3722645289708
 30
0.0
 10
28.80623936533864
 20
445.2852593097151
 30
0.0
 10
28.76644345065387
 20
445.2231400483577
 30
0.0
 10
28.74082006973964
 20
445.1978268229944
 30
0.0
 10
28.73583742807797
 20
445.194133479531
 30
0.0
 10
28.73583387356966
 20
445.1941448562381
 30
0.0
  0
LINE
  5
180
330
82
100
AcDbEntity
  8
(3_3) 407020038_
  6
Continuous
 62
     7
100
AcDbLine
 10
35.8378873687
 20
445.4430680504
 30
0.0
 11
35.8383589523
 21
446.9702246167
 31
0.0
  0
LINE
  5
181
330
82
100
AcDbEntity
  8
(3_3) 407020038_
  6
Continuous
 62
     7
100
AcDbLine
 10
28.8383593312
 20
446.972532429
 30
0.0
 11
28.8378877025
 21
445.4452296394
 31
0.0
  0
LINE
  5
182
330
82
100
AcDbEntity
  8
(3_3) 407020038_
  6
Continuous
 62
     7
100
AcDbLine
 10
36.343583013
 20
447.4126181587
 30
0.0
 11
36.4054423737
 21
447.9459823803
 31
0.0
  0
LINE
  5
183
330
82
100
AcDbEntity
  8
(3_3) 407020038_
  6
Continuous
 62
     7
100
AcDbLine
 10
33.8996179776
 20
446.9708637953
 30
0.0
 11
35.8467474355
 21
446.9702218511
 31
0.0
  0
LINE
  5
184
330
82
100
AcDbEntity
  8
(3_3) 407020038_
  6
Continuous
 62
     7
100
AcDbLine
 10
28.8290856514
 20
446.9725354864
 30
0.0
 11
30.7762147901
 21
446.9718935423
 31
0.0
  0
LINE
  5
185
330
82
100
AcDbEntity
  8
(3_3) 407020038_
  6
Continuous
 62
     7
100
AcDbLine
 10
28.2717899577
 20
447.9494382454
 30
0.0
 11
28.3324529992
 21
447.4160354767
 31
0.0
  0
ARC
  5
186
330
82
100
AcDbEntity
  8
(3_3) 407020038_
  6
Continuous
 62
     7
100
AcDbCircle
 10
35.8469122793
 20
447.4702218239
 30
0.0
 40
0.5000000000000002
100
AcDbArc
 50
269.9811102991
 51
353.3844163061
  0
ARC
  5
187
330
82
100
AcDbEntity
  8
(3_3) 407020038_
  6
Continuous
 62
     7
100
AcDbCircle
 10
28.8292504952
 20
447.4725354592
 30
0.0
 40
0.5000000000000014
100
AcDbArc
 50
186.4882794981
 51
269.9811102991
  0
LINE
  5
188
330
82
100
AcDbEntity
  8
(3_3) 407020038_
  6
Continuous
 62
     7
100
AcDbLine
 10
36.4302099972
 20
527.864427973
 30
0.0
 11
36.3695469556
 21
528.3978307429
 31
0.0
  0
LINE
  5
189
330
82
100
AcDbEntity
  8
(3_3) 407020038_
  6
Continuous
 62
     7
100
AcDbLine
 10
28.3584169418
 20
528.401248061
 30
0.0
 11
28.2965575809
 21
527.8678838381
 31
0.0
  0
LINE
  5
18A
330
82
100
AcDbEntity
  8
(3_3) 407020038_
  6
Continuous
 62
     7
100
AcDbLine
 10
35.8729143034
 20
528.8413307331
 30
0.0
 11
28.8552525193
 21
528.8436443684
 31
0.0
  0
ARC
  5
18B
330
82
100
AcDbEntity
  8
(3_3) 407020038_
  6
Continuous
 62
     7
100
AcDbCircle
 10
35.8727494596
 20
528.3413307603
 30
0.0
 40
0.4999999999999983
100
AcDbArc
 50
6.4882794981
 51
89.9811102991
  0
ARC
  5
18C
330
82
100
AcDbEntity
  8
(3_3) 407020038_
  6
Continuous
 62
     7
100
AcDbCircle
 10
28.8550876755
 20
528.3436443956
 30
0.0
 40
0.500000000000028
100
AcDbArc
 50
89.9811102991
 51
173.3844163061
  0
ARC
  5
18D
330
82
100
AcDbEntity
  8
(3_3) 407020038_
  6
Continuous
 62
     7
100
AcDbCircle
 10
32.3325462644
 20
428.1471991605
 30
0.0
 40
17.50000000001842
100
AcDbArc
 50
101.6896350105
 51
109.9484435888
  0
ARC
  5
18E
330
82
100
AcDbEntity
  8
(3_3) 407020038_
  6
Continuous
 62
     7
100
AcDbCircle
 10
32.3325462644
 20
428.1471991605
 30
0.0
 40
17.5
100
AcDbArc
 50
70.0515564112
 51
78.2995276851
  0
ENDBLK
  5
190
330
82
100
AcDbEntity
  8
0
100
AcDbBlockEnd
  0
BLOCK
  5
1EC
330
191
100
AcDbEntity
  8
0
100
AcDbBlockBegin
  2
SE1
 70
     0
 10
0.0
 20
0.0
 30
0.0
  3
SE1
  1
SE1
  0
LINE
  5
194
330
191
100
AcDbEntity
  8
DV2_Default
  6
Continuous
 62
     7
100
AcDbLine
 10
179.514875071
 20
420.5971991605
 30
0.0
 11
179.514875071
 21
337.5971991605
 31
0.0
  0
SPLINE
  5
195
330
191
100
AcDbEntity
  8
DV2_Default
  6
Continuous
 62
     7
100
AcDbSpline
210
0.0
220
0.0
230
1.0
 70
    12
 71
     3
 72
     8
 73
     4
 74
     0
 42
0.000000001
 43
0.0000000001
 40
0.0
 40
0.0
 40
0.0
 40
0.0
 40
1.0
 40
1.0
 40
1.0
 40
1.0
 10
179.5148750709692
 20
420.5971991605443
 30
0.0
 41
1.0
 10
179.5146374556776
 20
423.5262705368623
 30
0.0
 41
0.8047110762465908
 10
181.5858036946513
 20
425.5974367758413
 30
0.0
 41
0.8047110762465908
 10
184.5148750709692
 20
425.5971991605443
 30
0.0
 41
1.0
  0
LINE
  5
196
330
191
100
AcDbEntity
  8
DV2_Default
  6
Continuous
 62
     7
100
AcDbLine
 10
184.514875071
 20
425.5971991605
 30
0.0
 11
240.7423984351
 21
425.5971991605
 31
0.0
  0
LINE
  5
197
330
191
100
AcDbEntity
  8
DV2_Default
  6
Continuous
 62
     7
100
AcDbLine
 10
267.514875071
 20
444.5971991605
 30
0.0
 11
137.014875071
 21
444.5971991605
 31
0.0
  0
LINE
  5
198
330
191
100
AcDbEntity
  8
DV2_Default
  6
Continuous
 62
     7
100
AcDbLine
 10
136.514875071
 20
337.5971991605
 30
0.0
 11
136.514875071
 21
444.0971991605
 31
0.0
  0
ARC
  5
199
330
191
100
AcDbEntity
  8
DV2_Default
  6
Continuous
 62
     7
100
AcDbCircle
 10
240.742398435
 20
426.0971991605
 30
0.0
 40
0.5000000000047189
100
AcDbArc
 50
270.0000000068
 51
285.0000000068
  0
ARC
  5
19A
330
191
100
AcDbEntity
  8
DV2_Default
  6
Continuous
 62
     7
100
AcDbCircle
 10
267.514875071
 20
444.0971991605
 30
0.0
 40
0.4999999999999727
100
AcDbArc
 50
0.0
 51
90.0
  0
ARC
  5
19B
330
191
100
AcDbEntity
  8
DV2_Default
  6
Continuous
 62
     7
100
AcDbCircle
 10
137.014875071
 20
444.0971991605
 30
0.0
 40
0.5000000000000386
100
AcDbArc
 50
90.0
 51
180.0
  0
LINE
  5
19C
330
191
100
AcDbEntity
  8
DV2_Default
  6
Continuous
 62
     7
100
AcDbLine
 10
268.014875071
 20
433.2708626545
 30
0.0
 11
268.014875071
 21
444.0971991605
 31
0.0
  0
LINE
  5
19D
330
191
100
AcDbEntity
  8
DV2_Default
  6
Continuous
 62
     7
100
AcDbLine
 10
267.6442845935
 20
432.7878997414
 30
0.0
 11
240.8718079576
 21
425.6142362474
 31
0.0
  0
ARC
  5
19E
330
191
100
AcDbEntity
  8
DV2_Default
  6
Continuous
 62
     7
100
AcDbCircle
 10
267.514875071
 20
433.2708626545
 30
0.0
 40
0.5000000000000022
100
AcDbArc
 50
285.0
 51
0.0
  0
LINE
  5
19F
330
191
100
AcDbEntity
  8
DV2_Default
  6
Continuous
 62
     7
100
AcDbLine
 10
133.614875071
 20
337.5971991605
 30
0.0
 11
182.414875071
 21
337.5971991605
 31
0.0
  0
LINE
  5
1A0
330
191
100
AcDbEntity
  8
DV2_Default
  6
Continuous
 62
     7
100
AcDbLine
 10
132.5977993542
 20
337.5971991605
 30
0.0
 11
133.614875071
 21
337.5971991605
 31
0.0
  0
LINE
  5
1A1
330
191
100
AcDbEntity
  8
DV2_Default
  6
Continuous
 62
     7
100
AcDbLine
 10
182.414875071
 20
337.5971991605
 30
0.0
 11
183.4319507878
 21
337.5971991605
 31
0.0
  0
LINE
  5
1A2
330
191
100
AcDbEntity
  8
DV2_Default
  6
Continuous
 62
     7
100
AcDbLine
 10
183.9319317493
 20
337.1015624283
 30
0.0
 11
183.9974213354
 21
329.5971991605
 31
0.0
  0
LINE
  5
1A3
330
191
100
AcDbEntity
  8
DV2_Default
  6
Continuous
 62
     7
100
AcDbLine
 10
132.0978183926
 20
337.1015624283
 30
0.0
 11
132.0323288066
 21
329.5971991605
 31
0.0
  0
ARC
  5
1A4
330
191
100
AcDbEntity
  8
DV2_Default
  6
Continuous
 62
     7
100
AcDbCircle
 10
183.4319507878
 20
337.0971991605
 30
0.0
 40
0.5000000000000004
100
AcDbArc
 50
0.5
 51
90.0
  0
ARC
  5
1A5
330
191
100
AcDbEntity
  8
DV2_Default
  6
Continuous
 62
     7
100
AcDbCircle
 10
132.5977993542
 20
337.0971991605
 30
0.0
 40
0.5000000000000014
100
AcDbArc
 50
90.0
 51
179.5
  0
LINE
  5
1A6
330
191
100
AcDbEntity
  8
DV2_Default
  6
Continuous
 62
     7
100
AcDbLine
 10
182.414875071
 20
329.5971991605
 30
0.0
 11
133.614875071
 21
329.5971991605
 31
0.0
  0
LINE
  5
1A7
330
191
100
AcDbEntity
  8
DV2_Default
  6
Continuous
 62
     7
100
AcDbLine
 10
183.9974213354
 20
329.5971991605
 30
0.0
 11
182.414875071
 21
329.5971991605
 31
0.0
  0
LINE
  5
1A8
330
191
100
AcDbEntity
  8
DV2_Default
  6
Continuous
 62
     7
100
AcDbLine
 10
133.614875071
 20
329.5971991605
 30
0.0
 11
132.0323288066
 21
329.5971991605
 31
0.0
  0
ELLIPSE
  5
1A9
330
191
100
AcDbEntity
  8
DV2_Default
  6
Continuous
 62
     7
100
AcDbEllipse
 10
160.9014916028
 20
444.9636780204
 30
0.0
 11
-3.832831427278433
 21
0.6579209984480527
 31
0.0
210
0.0
220
0.0
230
1.0
 40
0.0003043472
 41
4.119816968457922
 42
6.28184997296143
  0
LINE
  5
1AA
330
191
100
AcDbEntity
  8
DV2_Default
  6
Continuous
 62
     7
100
AcDbLine
 10
164.7998877834
 20
446.9788994325
 30
0.0
 11
164.8069296671
 21
446.9778127533
 31
0.0
  0
ARC
  5
1AB
330
191
100
AcDbEntity
  8
DV2_Default
  6
Continuous
 62
     7
100
AcDbCircle
 10
164.7605116725
 20
446.5088992856
 30
0.0
 40
0.4716809500378275
100
AcDbArc
 50
85.210719903
 51
173.919863307
  0
ARC
  5
1AC
330
191
100
AcDbEntity
  8
DV2_Default
  6
Continuous
 62
     7
100
AcDbCircle
 10
252.8731543371
 20
431.630092021
 30
0.0
 40
92.902598449863
100
AcDbArc
 50
170.1270459781
 51
170.4056089364
  0
LINE
  5
1AD
330
191
100
AcDbEntity
  8
DV2_Default
  6
Continuous
 62
     7
100
AcDbLine
 10
157.8980958692
 20
448.1624351505
 30
0.0
 11
157.8910960739
 21
448.1637668681
 31
0.0
  0
ARC
  5
1AE
330
191
100
AcDbEntity
  8
DV2_Default
  6
Continuous
 62
     7
100
AcDbCircle
 10
164.8835650697
 20
447.4702218548
 30
0.0
 40
0.5000000189359157
100
AcDbArc
 50
261.2598753691
 51
350.2598723367
  0
LINE
  5
1AF
330
191
100
AcDbEntity
  8
DV2_Default
  6
Continuous
 62
     7
100
AcDbLine
 10
163.1750355739
 20
447.2292051915
 30
0.0
 11
164.8067345549
 21
446.9783416288
 31
0.0
  0
ELLIPSE
  5
1B0
330
191
100
AcDbEntity
  8
DV2_Default
  6
Continuous
 62
     7
100
AcDbEllipse
 10
161.4228197479
 20
448.0044722192
 30
0.0
 11
-0.0846027202408982
 21
-0.4928676325207659
 31
0.0
210
0.0
220
0.0
230
1.0
 40
0.0001757149
 41
4.712389219694177
 42
5.838475180575163
  0
LINE
  5
1B1
330
191
100
AcDbEntity
  8
DV2_Default
  6
Continuous
 62
     7
100
AcDbLine
 10
157.8904371952
 20
448.1655516304
 30
0.0
 11
159.512380486
 21
447.8579145323
 31
0.0
  0
ARC
  5
1B2
330
191
100
AcDbEntity
  8
DV2_Default
  6
Continuous
 62
     7
100
AcDbCircle
 10
157.9836145356
 20
448.6567928475
 30
0.0
 40
0.4999999645485196
100
AcDbArc
 50
170.2598723367
 51
259.2598754306
  0
ARC
  5
1B3
330
191
100
AcDbEntity
  8
DV2_Default
  6
Continuous
 62
     7
100
AcDbCircle
 10
157.9844685337
 20
448.6544792122
 30
0.0
 40
0.4999999645485098
100
AcDbArc
 50
200.2598728041
 51
259.2598754306
  0
LINE
  5
1B4
330
191
100
AcDbEntity
  8
DV2_Default
  6
Continuous
 62
     7
100
AcDbLine
 10
165.3763577005
 20
447.3856320089
 30
0.0
 11
177.0046425167
 21
515.1281962287
 31
0.0
  0
LINE
  5
1B5
330
191
100
AcDbEntity
  8
DV2_Default
  6
Continuous
 62
     7
100
AcDbLine
 10
161.4227331235
 20
448.0044869672
 30
0.0
 11
175.122025946
 21
527.8120629078
 31
0.0
  0
LINE
  5
1B6
330
191
100
AcDbEntity
  8
DV2_Default
  6
Continuous
 62
     7
100
AcDbLine
 10
157.4908219584
 20
448.7413826842
 30
0.0
 11
171.1693919436
 21
528.4282342106
 31
0.0
  0
LINE
  5
1B7
330
191
100
AcDbEntity
  8
DV2_Default
  6
Continuous
 62
     7
100
AcDbLine
 10
177.0225006576
 20
515.488163861
 30
0.0
 11
176.1526171762
 21
527.7440886675
 31
0.0
  0
ARC
  5
1B8
330
191
100
AcDbEntity
  8
DV2_Default
  6
Continuous
 62
     7
100
AcDbCircle
 10
175.5262646669
 20
515.3819655071
 30
0.0
 40
1.499999971928488
100
AcDbArc
 50
350.2598818225
 51
4.0598746115
  0
LINE
  5
1B9
330
191
100
AcDbEntity
  8
DV2_Default
  6
Continuous
 62
     7
100
AcDbLine
 10
175.7461826745
 20
528.2022781547
 30
0.0
 11
175.2066637383
 21
528.3046156236
 31
0.0
  0
ELLIPSE
  5
1BA
330
191
100
AcDbEntity
  8
DV2_Default
  6
Continuous
 62
     7
100
AcDbEllipse
 10
175.1220610366
 20
527.8117479177
 30
0.0
 11
-0.08460268316930891
 21
-0.4928677329543996
 31
0.0
210
0.0
220
0.0
230
1.0
 40
0.0001757149
 41
3.141288306609365
 42
4.711780047131682
  0
ARC
  5
1BB
330
191
100
AcDbEntity
  8
DV2_Default
  6
Continuous
 62
     7
100
AcDbCircle
 10
171.6621845743
 20
528.3436443647
 30
0.0
 40
0.5000000189358834
100
AcDbArc
 50
81.2598753703
 51
170.2598723367
  0
ARC
  5
1BC
330
191
100
AcDbEntity
  8
DV2_Default
  6
Continuous
 62
     7
100
AcDbCircle
 10
175.6538719053
 20
527.708689235
 30
0.0
 40
0.4999999650769297
100
AcDbArc
 50
4.0598729444
 51
20.2598730894
  0
ARC
  5
1BD
330
191
100
AcDbEntity
  8
DV2_Default
  6
Continuous
 62
     7
100
AcDbCircle
 10
175.6530053336
 20
527.7110369344
 30
0.0
 40
0.4999999650770424
100
AcDbArc
 50
20.2598730873
 51
79.2598754317
  0
ARC
  5
1BE
330
191
100
AcDbEntity
  8
DV2_Default
  6
Continuous
 62
     7
100
AcDbCircle
 10
157.0626436748
 20
446.0959556111
 30
0.0
 40
0.4682962266561866
100
AcDbArc
 50
285.8468867643
 51
353.2384401272
  0
ARC
  5
1BF
330
191
100
AcDbEntity
  8
DV2_Default
  6
Continuous
 62
     7
100
AcDbCircle
 10
164.9261915045
 20
444.7672886483
 30
0.0
 40
0.4998279991116197
100
AcDbArc
 50
170.5376064222
 51
200.1884975843
  0
LINE
  5
1C0
330
191
100
AcDbEntity
  8
DV2_Default
  6
Continuous
 62
     7
100
AcDbLine
 10
164.4335146454
 20
444.8520199463
 30
0.0
 11
164.7371267677
 21
446.6207643496
 31
0.0
  0
LINE
  5
1C1
330
191
100
AcDbEntity
  8
DV2_Default
  6
Continuous
 62
     7
100
AcDbLine
 10
157.8380301986
 20
447.8050221468
 30
0.0
 11
157.5344180763
 21
446.0362777435
 31
0.0
  0
SPLINE
  5
1C2
330
191
100
AcDbEntity
  8
DV2_Default
  6
Continuous
 62
     7
100
AcDbSpline
210
0.0
220
0.0
230
1.0
 70
     8
 71
     3
 72
    13
 73
     9
 74
     0
 42
0.000000001
 43
0.0000000001
 40
0.0
 40
0.0
 40
0.0
 40
0.0
 40
0.038795641073047
 40
0.0804093420451737
 40
0.1284718410058307
 40
0.1855764775880866
 40
0.5301423419106394
 40
1.0
 40
1.0
 40
1.0
 40
1.0
 10
164.7366133150572
 20
446.6178145628778
 30
0.0
 10
164.7394690927633
 20
446.6324027448666
 30
0.0
 10
164.74461835278
 20
446.6583237318999
 30
0.0
 10
164.756533820222
 20
446.6972863316284
 30
0.0
 10
164.76959701041
 20
446.7317905553263
 30
0.0
 10
164.8062350375025
 20
446.8135454818073
 30
0.0
 10
164.8418933734748
 20
446.871638161318
 30
0.0
 10
164.8422568623458
 20
446.9108049879845
 30
0.0
 10
164.8342553849466
 20
446.9286251422825
 30
0.0
  0
SPLINE
  5
1C3
330
191
100
AcDbEntity
  8
DV2_Default
  6
Continuous
 62
     7
100
AcDbSpline
210
0.0
220
0.0
230
1.0
 70
     8
 71
     3
 72
    13
 73
     9
 74
     0
 42
0.000000001
 43
0.0000000001
 40
0.0
 40
0.0
 40
0.0
 40
0.0
 40
0.4691035987678849
 40
0.8142804080562573
 40
0.8714420915995438
 40
0.9195359400257537
 40
0.9611704057343993
 40
1.0
 40
1.0
 40
1.0
 40
1.0
 10
157.8489788313595
 20
448.1276145368983
 30
0.0
 10
157.835539030212
 20
448.1134873265281
 30
0.0
 10
157.8228689820365
 20
448.0764518057251
 30
0.0
 10
157.8371703521627
 20
448.0098530914454
 30
0.0
 10
157.8444449862197
 20
447.9205180488245
 30
0.0
 10
157.8452529657123
 20
447.883634715603
 30
0.0
 10
157.8434918679942
 20
447.8429206108652
 30
0.0
 10
157.8397029397157
 20
447.8167727927759
 30
0.0
 10
157.83753059577
 20
447.8020702016884
 30
0.0
  0
LINE
  5
1C4
330
191
100
AcDbEntity
  8
DV2_Default
  6
Continuous
 62
     7
100
AcDbLine
 10
157.5145487299
 20
448.4836535032
 30
0.0
 11
157.515402728
 21
448.481339868
 31
0.0
  0
LINE
  5
1C5
330
191
100
AcDbEntity
  8
DV2_Default
  6
Continuous
 62
     7
100
AcDbLine
 10
175.2066637195
 20
528.3046156505
 30
0.0
 11
171.7381584177
 21
528.837838661
 31
0.0
  0
LINE
  5
1C6
330
191
100
AcDbEntity
  8
DV2_Default
  6
Continuous
 62
     7
100
AcDbLine
 10
176.1229377115
 20
527.8818285821
 30
0.0
 11
176.1220711398
 21
527.8841762815
 31
0.0
  0
ARC
  5
1C7
330
191
100
AcDbEntity
  8
DV2_Default
  6
Continuous
 62
     7
100
AcDbCircle
 10
158.014875071
 20
428.1471991605
 30
0.0
 40
17.50000000001842
100
AcDbArc
 50
93.0994491008
 51
109.9484435888
  0
LINE
  5
1C8
330
191
100
AcDbEntity
  8
DV2_Default
  6
Continuous
 62
     7
100
AcDbLine
 10
245.9737106635
 20
419.9826948879
 30
0.0
 11
265.8336320872
 21
428.006623986
 31
0.0
  0
LINE
  5
1C9
330
191
100
AcDbEntity
  8
DV2_Default
  6
Continuous
 62
     7
100
AcDbLine
 10
244.3043235165
 20
423.4066507216
 30
0.0
 11
243.2065989673
 21
423.560925846
 31
0.0
  0
LINE
  5
1CA
330
191
100
AcDbEntity
  8
DV2_Default
  6
Continuous
 62
     7
100
AcDbLine
 10
244.3043235165
 20
423.4066507216
 30
0.0
 11
245.4390958161
 21
420.5979907213
 31
0.0
  0
LINE
  5
1CB
330
191
100
AcDbEntity
  8
DV2_Default
  6
Continuous
 62
     7
100
AcDbLine
 10
245.4390958161
 20
420.5979907213
 30
0.0
 11
245.48775864
 21
420.4775460055
 31
0.0
  0
LINE
  5
1CC
330
191
100
AcDbEntity
  8
DV2_Default
  6
Continuous
 62
     7
100
AcDbLine
 10
245.6791656825
 20
420.0037969509
 30
0.0
 11
245.48775864
 21
420.4775460055
 31
0.0
  0
LINE
  5
1CD
330
191
100
AcDbEntity
  8
DV2_Default
  6
Continuous
 62
     7
100
AcDbLine
 10
264.6560091242
 20
431.629265447
 30
0.0
 11
265.009695853
 21
432.081963816
 31
0.0
  0
LINE
  5
1CE
330
191
100
AcDbEntity
  8
DV2_Default
  6
Continuous
 62
     7
100
AcDbLine
 10
264.6560091242
 20
431.629265447
 30
0.0
 11
265.7907814238
 21
428.8206054468
 31
0.0
  0
LINE
  5
1CF
330
191
100
AcDbEntity
  8
DV2_Default
  6
Continuous
 62
     7
100
AcDbLine
 10
265.7907814238
 20
428.8206054468
 30
0.0
 11
265.8394442477
 21
428.700160731
 31
0.0
  0
LINE
  5
1D0
330
191
100
AcDbEntity
  8
DV2_Default
  6
Continuous
 62
     7
100
AcDbLine
 10
266.0308512903
 20
428.2264116764
 30
0.0
 11
265.8394442477
 21
428.700160731
 31
0.0
  0
LINE
  5
1D1
330
191
100
AcDbEntity
  8
DV2_Default
  6
Continuous
 62
     7
100
AcDbLine
 10
242.2299746276
 20
425.9781559098
 30
0.0
 11
243.2065989673
 21
423.560925846
 31
0.0
  0
LINE
  5
1D2
330
191
100
AcDbEntity
  8
DV2_Default
  6
Continuous
 62
     7
100
AcDbLine
 10
245.6791657475
 20
420.00379679
 30
0.0
 11
245.8966437094
 21
419.9732322557
 31
0.0
  0
LINE
  5
1D3
330
191
100
AcDbEntity
  8
DV2_Default
  6
Continuous
 62
     7
100
AcDbLine
 10
265.8956427112
 20
428.0533523429
 30
0.0
 11
266.0308513553
 21
428.2264115155
 31
0.0
  0
ARC
  5
1D4
330
191
100
AcDbEntity
  8
DV2_Default
  6
Continuous
 62
     7
100
AcDbCircle
 10
245.9175196745
 20
420.121772466
 30
0.0
 40
0.1499999999999938
100
AcDbArc
 50
262.0
 51
292.0
  0
ARC
  5
1D5
330
191
100
AcDbEntity
  8
DV2_Default
  6
Continuous
 62
     7
100
AcDbCircle
 10
265.7774410982
 20
428.1457015642
 30
0.0
 40
0.149999999999996
100
AcDbArc
 50
292.0
 51
322.0
  0
LINE
  5
1D6
330
191
100
AcDbEntity
  8
DV2_Default
  6
Continuous
 62
     7
100
AcDbLine
 10
247.6901289919
 20
420.2986857471
 30
0.0
 11
264.3794383741
 21
427.0416044286
 31
0.0
  0
LINE
  5
1D7
330
191
100
AcDbEntity
  8
DV2_Default
  6
Continuous
 62
     7
100
AcDbLine
 10
247.5590166843
 20
420.6232000962
 30
0.0
 11
247.6901289919
 21
420.2986857471
 31
0.0
  0
LINE
  5
1D8
330
191
100
AcDbEntity
  8
DV2_Default
  6
Continuous
 62
     7
100
AcDbLine
 10
264.3794383741
 20
427.0416044286
 30
0.0
 11
264.2483260665
 21
427.3661187777
 31
0.0
  0
LINE
  5
1D9
330
191
100
AcDbEntity
  8
DV2_Default
  6
Continuous
 62
     7
100
AcDbLine
 10
136.514875071
 20
372.783568463
 30
0.0
 11
133.2026484692
 21
382.9775537467
 31
0.0
  0
LINE
  5
1DA
330
191
100
AcDbEntity
  8
DV2_Default
  6
Continuous
 62
     7
100
AcDbLine
 10
129.921503488
 20
381.9114451161
 30
0.0
 11
136.514875071
 21
361.6191339406
 31
0.0
  0
LINE
  5
1DB
330
191
100
AcDbEntity
  8
DV2_Default
  6
Continuous
 62
     7
100
AcDbLine
 10
131.5620759786
 20
382.4444994314
 30
0.0
 11
128.9942233846
 21
381.6101535466
 31
0.0
  0
LINE
  5
1DC
330
191
100
AcDbEntity
  8
DV2_Default
  6
Continuous
 62
     7
100
AcDbLine
 10
136.014875071
 20
390.7977112238
 30
0.0
 11
136.014875071
 21
385.7977569702
 31
0.0
  0
LINE
  5
1DD
330
191
100
AcDbEntity
  8
DV2_Default
  6
Continuous
 62
     7
100
AcDbLine
 10
136.014875071
 20
385.7977569702
 30
0.0
 11
136.014875071
 21
384.9977569702
 31
0.0
  0
LINE
  5
1DE
330
191
100
AcDbEntity
  8
DV2_Default
  6
Continuous
 62
     7
100
AcDbLine
 10
136.014875071
 20
384.9977569702
 30
0.0
 11
136.014875071
 21
384.2545728239
 31
0.0
  0
LINE
  5
1DF
330
191
100
AcDbEntity
  8
DV2_Default
  6
Continuous
 62
     7
100
AcDbLine
 10
135.6075801693
 20
383.7589634242
 30
0.0
 11
131.5620759786
 21
382.4444994314
 31
0.0
  0
LINE
  5
1E0
330
191
100
AcDbEntity
  8
DV2_Default
  6
Continuous
 62
     7
100
AcDbLine
 10
135.6693835682
 20
383.7790445658
 30
0.0
 11
135.6075801693
 21
383.7589634242
 31
0.0
  0
LINE
  5
1E1
330
191
100
AcDbEntity
  8
DV2_Default
  6
Continuous
 62
     7
100
AcDbLine
 10
121.0150925288
 20
385.7977569702
 30
0.0
 11
121.0150925288
 21
390.7977112238
 31
0.0
  0
LINE
  5
1E2
330
191
100
AcDbEntity
  8
DV2_Default
  6
Continuous
 62
     7
100
AcDbLine
 10
135.514875071
 20
385.2977569702
 30
0.0
 11
121.5150925288
 21
385.2977569702
 31
0.0
  0
LINE
  5
1E3
330
191
100
AcDbEntity
  8
DV2_Default
  6
Continuous
 62
     7
100
AcDbLine
 10
121.5150925288
 20
391.2977112238
 30
0.0
 11
135.514875071
 21
391.2977112238
 31
0.0
  0
ARC
  5
1E4
330
191
100
AcDbEntity
  8
DV2_Default
  6
Continuous
 62
     7
100
AcDbCircle
 10
121.5150925288
 20
390.7977112238
 30
0.0
 40
0.5000000000000004
100
AcDbArc
 50
90.0
 51
180.0
  0
ARC
  5
1E5
330
191
100
AcDbEntity
  8
DV2_Default
  6
Continuous
 62
     7
100
AcDbCircle
 10
121.5150925288
 20
385.7977569702
 30
0.0
 40
0.5000000000000004
100
AcDbArc
 50
180.0
 51
270.0
  0
ARC
  5
1E6
330
191
100
AcDbEntity
  8
DV2_Default
  6
Continuous
 62
     7
100
AcDbCircle
 10
135.514875071
 20
390.7977112238
 30
0.0
 40
0.499999999999997
100
AcDbArc
 50
0.0
 51
90.0
  0
ARC
  5
1E7
330
191
100
AcDbEntity
  8
DV2_Default
  6
Continuous
 62
     7
100
AcDbCircle
 10
135.514875071
 20
385.7977569702
 30
0.0
 40
0.5000000000000004
100
AcDbArc
 50
270.0
 51
0.0
  0
ARC
  5
1E8
330
191
100
AcDbEntity
  8
DV2_Default
  6
Continuous
 62
     7
100
AcDbCircle
 10
135.514875071
 20
384.2545728239
 30
0.0
 40
0.5000000000000004
100
AcDbArc
 50
288.0
 51
0.0
  0
LINE
  5
1E9
330
191
100
AcDbEntity
  8
DV2_Default
  6
Continuous
 62
     7
100
AcDbLine
 10
127.5479639296
 20
385.0904620685
 30
0.0
 11
128.6162013314
 21
381.8027654032
 31
0.0
  0
ARC
  5
1EA
330
191
100
AcDbEntity
  8
DV2_Default
  6
Continuous
 62
     7
100
AcDbCircle
 10
128.9015182863
 20
381.8954705015
 30
0.0
 40
0.2999999999999992
100
AcDbArc
 50
198.0
 51
288.0
  0
ARC
  5
1EB
330
191
100
AcDbEntity
  8
DV2_Default
  6
Continuous
 62
     7
100
AcDbCircle
 10
127.2626469747
 20
384.9977569702
 30
0.0
 40
0.300000000000001
100
AcDbArc
 50
17.1720846096
 51
90.0
  0
ENDBLK
  5
1ED
330
191
100
AcDbEntity
  8
0
100
AcDbBlockEnd
  0
BLOCK
  5
228
330
1EE
100
AcDbEntity
  8
0
100
AcDbBlockBegin
  2
SE2
 70
     0
 10
0.0
 20
0.0
 30
0.0
  3
SE2
  1
SE2
  0
LINE
  5
1F0
330
1EE
100
AcDbEntity
  8
(5_5) 401820138_
  6
Continuous
 62
     7
100
AcDbLine
 10
11.3325462644
 20
106.35
 30
0.0
 11
53.3325462644
 21
106.35
 31
0.0
  0
LINE
  5
1F1
330
1EE
100
AcDbEntity
  8
(5_5) 401820138_
  6
Continuous
 62
     7
100
AcDbLine
 10
10.8325462644
 20
106.85
 30
0.0
 11
10.8325462644
 21
237.35
 31
0.0
  0
LINE
  5
1F2
330
1EE
100
AcDbEntity
  8
(5_5) 401820138_
  6
Continuous
 62
     7
100
AcDbLine
 10
11.3325462644
 20
237.85
 30
0.0
 11
53.3325462644
 21
237.85
 31
0.0
  0
LINE
  5
1F3
330
1EE
100
AcDbEntity
  8
(5_5) 401820138_
  6
Continuous
 62
     7
100
AcDbLine
 10
53.8325462644
 20
237.35
 30
0.0
 11
53.8325462644
 21
106.85
 31
0.0
  0
ARC
  5
1F4
330
1EE
100
AcDbEntity
  8
(5_5) 401820138_
  6
Continuous
 62
     7
100
AcDbCircle
 10
11.3325462644
 20
106.85
 30
0.0
 40
0.5000000000000282
100
AcDbArc
 50
180.0
 51
270.0
  0
ARC
  5
1F5
330
1EE
100
AcDbEntity
  8
(5_5) 401820138_
  6
Continuous
 62
     7
100
AcDbCircle
 10
53.3325462644
 20
106.85
 30
0.0
 40
0.5000000000000525
100
AcDbArc
 50
270.0
 51
0.0
  0
ARC
  5
1F6
330
1EE
100
AcDbEntity
  8
(5_5) 401820138_
  6
Continuous
 62
     7
100
AcDbCircle
 10
11.3325462644
 20
237.35
 30
0.0
 40
0.4999999999999935
100
AcDbArc
 50
90.0
 51
180.0
  0
ARC
  5
1F7
330
1EE
100
AcDbEntity
  8
(5_5) 401820138_
  6
Continuous
 62
     7
100
AcDbCircle
 10
53.3325462644
 20
237.35
 30
0.0
 40
0.4999999999998686
100
AcDbArc
 50
0.0
 51
90.0
  0
CIRCLE
  5
1F8
330
1EE
100
AcDbEntity
  8
(5_5) 401820138_
  6
Continuous
 62
     7
100
AcDbCircle
 10
32.3325462644
 20
216.35
 30
0.0
 40
19.78867513459481
  0
CIRCLE
  5
1F9
330
1EE
100
AcDbEntity
  8
(5_5) 401820138_
  6
Continuous
 62
     7
100
AcDbCircle
 10
32.3325462644
 20
216.35
 30
0.0
 40
19.5
  0
LINE
  5
1FA
330
1EE
100
AcDbEntity
  8
(1_1) 403130038_
  6
Continuous
 62
     7
100
AcDbLine
 10
6.35
 20
191.95
 30
0.0
 11
6.35
 21
240.75
 31
0.0
  0
ARC
  5
1FB
330
1EE
100
AcDbEntity
  8
(1_1) 403130038_
  6
Continuous
 62
     7
100
AcDbCircle
 10
56.7325462644
 20
191.95
 30
0.0
 40
1.582546264418481
100
AcDbArc
 50
270.0
 51
0.0
  0
LINE
  5
1FC
330
1EE
100
AcDbEntity
  8
(1_1) 403130038_
  6
Continuous
 62
     7
100
AcDbLine
 10
56.7325462644
 20
190.3674537356
 30
0.0
 11
53.8325462644
 21
190.3674537356
 31
0.0
  0
LINE
  5
1FD
330
1EE
100
AcDbEntity
  8
(1_1) 403130038_
  6
Continuous
 62
     7
100
AcDbLine
 10
10.8325462644
 20
190.3674537356
 30
0.0
 11
7.9325462644
 21
190.3674537356
 31
0.0
  0
ARC
  5
1FE
330
1EE
100
AcDbEntity
  8
(1_1) 403130038_
  6
Continuous
 62
     7
100
AcDbCircle
 10
7.9325462644
 20
191.95
 30
0.0
 40
1.582546264418481
100
AcDbArc
 50
180.0
 51
270.0
  0
ARC
  5
1FF
330
1EE
100
AcDbEntity
  8
(1_1) 403130038_
  6
Continuous
 62
     7
100
AcDbCircle
 10
7.9325462644
 20
240.75
 30
0.0
 40
1.582546264418481
100
AcDbArc
 50
90.0
 51
180.0
  0
LINE
  5
200
330
1EE
100
AcDbEntity
  8
(1_1) 403130038_
  6
Continuous
 62
     7
100
AcDbLine
 10
7.9325462644
 20
242.3325462644
 30
0.0
 11
22.3325462644
 21
242.3325462644
 31
0.0
  0
LINE
  5
201
330
1EE
100
AcDbEntity
  8
(1_1) 403130038_
  6
Continuous
 62
     7
100
AcDbLine
 10
42.3325462644
 20
242.3325462644
 30
0.0
 11
56.7325462644
 21
242.3325462644
 31
0.0
  0
ARC
  5
202
330
1EE
100
AcDbEntity
  8
(1_1) 403130038_
  6
Continuous
 62
     7
100
AcDbCircle
 10
56.7325462644
 20
240.75
 30
0.0
 40
1.582546264418488
100
AcDbArc
 50
0.0
 51
90.0
  0
LINE
  5
203
330
1EE
100
AcDbEntity
  8
(1_1) 403130038_
  6
Continuous
 62
     7
100
AcDbLine
 10
58.3150925288
 20
240.75
 30
0.0
 11
58.3150925288
 21
191.95
 31
0.0
  0
LINE
  5
205
330
1EE
100
AcDbEntity
  8
(1_1)_11254031_7
  6
Continuous
 62
     7
100
AcDbLine
 10
34.0575462644
 20
237.85
 30
0.0
 11
34.0575462644
 21
238.35
 31
0.0
  0
LINE
  5
206
330
1EE
100
AcDbEntity
  8
(1_1)_11254031_7
  6
Continuous
 62
     7
100
AcDbLine
 10
30.6075462644
 20
238.35
 30
0.0
 11
30.6075462644
 21
237.85
 31
0.0
  0
LINE
  5
208
330
1EE
100
AcDbEntity
  8
(4_4)_401665038_
  6
Continuous
 62
     7
100
AcDbLine
 10
41.8325462644
 20
238.35
 30
0.0
 11
22.8325462644
 21
238.35
 31
0.0
  0
LINE
  5
209
330
1EE
100
AcDbEntity
  8
(4_4)_401665038_
  6
Continuous
 62
     7
100
AcDbLine
 10
22.8325462644
 20
253.3497825421
 30
0.0
 11
41.8325462644
 21
253.3497825421
 31
0.0
  0
LINE
  5
20A
330
1EE
100
AcDbEntity
  8
(4_4)_401665038_
  6
Continuous
 62
     7
100
AcDbLine
 10
22.3325462644
 20
238.85
 30
0.0
 11
22.3325462644
 21
252.8497825421
 31
0.0
  0
LINE
  5
20B
330
1EE
100
AcDbEntity
  8
(4_4)_401665038_
  6
Continuous
 62
     7
100
AcDbLine
 10
42.3325462644
 20
252.8497825421
 30
0.0
 11
42.3325462644
 21
238.85
 31
0.0
  0
ARC
  5
20C
330
1EE
100
AcDbEntity
  8
(4_4)_401665038_
  6
Continuous
 62
     7
100
AcDbCircle
 10
22.8325462644
 20
252.8497825421
 30
0.0
 40
0.5000000000000004
100
AcDbArc
 50
90.0
 51
180.0
  0
ARC
  5
20D
330
1EE
100
AcDbEntity
  8
(4_4)_401665038_
  6
Continuous
 62
     7
100
AcDbCircle
 10
41.8325462644
 20
252.8497825421
 30
0.0
 40
0.5000000000000004
100
AcDbArc
 50
0.0
 51
90.0
  0
ARC
  5
20E
330
1EE
100
AcDbEntity
  8
(4_4)_401665038_
  6
Continuous
 62
     7
100
AcDbCircle
 10
22.8325462644
 20
238.85
 30
0.0
 40
0.499999999999997
100
AcDbArc
 50
180.0
 51
270.0
  0
ARC
  5
20F
330
1EE
100
AcDbEntity
  8
(4_4)_401665038_
  6
Continuous
 62
     7
100
AcDbCircle
 10
41.8325462644
 20
238.85
 30
0.0
 40
0.5000000000000004
100
AcDbArc
 50
270.0
 51
0.0
  0
LINE
  5
210
330
1EE
100
AcDbEntity
  8
(3_3) 407020038_
  6
Continuous
 62
     7
100
AcDbLine
 10
36.4086774984
 20
212.9411513691
 30
0.0
 11
36.3480676337
 21
216.3889460853
 31
0.0
  0
LINE
  5
211
330
1EE
100
AcDbEntity
  8
(3_3) 407020038_
  6
Continuous
 62
     7
100
AcDbLine
 10
28.3305582162
 20
216.3899217578
 30
0.0
 11
28.268678001
 21
212.9421419475
 31
0.0
  0
LINE
  5
212
330
1EE
100
AcDbEntity
  8
(3_3) 407020038_
  6
Continuous
 62
     7
100
AcDbLine
 10
36.4333219537
 20
199.2418585465
 30
0.0
 11
36.4086774984
 21
212.9411513691
 31
0.0
  0
LINE
  5
213
330
1EE
100
AcDbEntity
  8
(3_3) 407020038_
  6
Continuous
 62
     7
100
AcDbLine
 10
36.4236387937
 20
198.702341943
 30
0.0
 11
36.4333219537
 21
199.2418585465
 31
0.0
  0
LINE
  5
214
330
1EE
100
AcDbEntity
  8
(3_3) 407020038_
  6
Continuous
 62
     7
100
AcDbLine
 10
28.268678001
 20
212.9421419475
 30
0.0
 11
28.2933224565
 21
199.242849125
 31
0.0
  0
ELLIPSE
  5
215
330
1EE
100
AcDbEntity
  8
(3_3) 407020038_
  6
Continuous
 62
     7
100
AcDbEllipse
 10
35.9332457743
 20
199.2419451671
 30
0.0
 11
-0.5000762022759376
 21
0.0001156841272741127
 31
0.0
210
0.0
220
0.0
230
1.0
 40
0.1691795872
 41
1.57144439724866
 42
3.141936137938392
  0
ARC
  5
216
330
1EE
100
AcDbEntity
  8
(3_3) 407020038_
  6
Continuous
 62
     7
100
AcDbCircle
 10
35.869213856
 20
197.8415780225
 30
0.0
 40
0.4992043332782821
100
AcDbArc
 50
269.9024098727
 51
356.3701122789
  0
ELLIPSE
  5
217
330
1EE
100
AcDbEntity
  8
(3_3) 407020038_
  6
Continuous
 62
     7
100
AcDbEllipse
 10
28.7933985432
 20
199.2428140343
 30
0.0
 11
-0.5000761098325219
 21
6.262788045108270E-5
 31
0.0
210
0.0
220
0.0
230
1.0
 40
0.1691796562
 41
0.0003255342922479
 42
1.570817274997483
  0
ELLIPSE
  5
218
330
1EE
100
AcDbEntity
  8
(3_3) 407020038_
  6
Continuous
 62
     7
100
AcDbEllipse
 10
28.8027321791
 20
198.7118697687
 30
0.0
 11
0.4992714605660253
 21
0.02698163658394759
 31
0.0
210
0.0
220
0.0
230
1.0
 40
0.9974832814
 41
3.104590164214113
 42
3.14160671540751
  0
LINE
  5
219
330
1EE
100
AcDbEntity
  8
(3_3) 407020038_
  6
Continuous
 62
     7
100
AcDbLine
 10
28.7933984236
 20
199.1582113327
 30
0.0
 11
35.9335502875
 21
199.1573424284
 31
0.0
  0
LINE
  5
21A
330
1EE
100
AcDbEntity
  8
(3_3) 407020038_
  6
Continuous
 62
     7
100
AcDbLine
 10
35.8482031301
 20
216.8804065017
 30
0.0
 11
28.830541346
 21
216.8812604999
 31
0.0
  0
ARC
  5
21B
330
1EE
100
AcDbEntity
  8
(3_3) 407020038_
  6
Continuous
 62
     7
100
AcDbCircle
 10
35.8481422837
 20
216.3804065054
 30
0.0
 40
0.4999999999999996
100
AcDbArc
 50
1.0071167417
 51
89.9930275226
  0
ARC
  5
21C
330
1EE
100
AcDbEntity
  8
(3_3) 407020038_
  6
Continuous
 62
     7
100
AcDbCircle
 10
28.8304804996
 20
216.3812605036
 30
0.0
 40
0.5000000000000003
100
AcDbArc
 50
89.9930275226
 51
178.9717746664
  0
LINE
  5
21D
330
1EE
100
AcDbEntity
  8
(3_3) 407020038_
  6
Continuous
 62
     7
100
AcDbLine
 10
36.3673680019
 20
197.808811048
 30
0.0
 11
36.4227090791
 21
198.6792791318
 31
0.0
  0
ARC
  5
21E
330
1EE
100
AcDbEntity
  8
(3_3) 407020038_
  6
Continuous
 62
     7
100
AcDbCircle
 10
35.8675559054
 20
197.8393563064
 30
0.0
 40
0.5007462180431171
100
AcDbArc
 50
270.0594941683
 51
356.5708497698
  0
LINE
  5
21F
330
1EE
100
AcDbEntity
  8
(3_3) 407020038_
  6
Continuous
 62
     7
100
AcDbLine
 10
28.8471586167
 20
197.3394647561
 30
0.0
 11
35.8680758648
 21
197.3386103618
 31
0.0
  0
LINE
  5
220
330
1EE
100
AcDbEntity
  8
(3_3) 407020038_
  6
Continuous
 62
     7
100
AcDbLine
 10
28.293324645
 20
199.2426232563
 30
0.0
 11
28.3028094193
 21
198.7030814697
 31
0.0
  0
LINE
  5
221
330
1EE
100
AcDbEntity
  8
(3_3) 407020038_
  6
Continuous
 62
     7
100
AcDbLine
 10
28.3034607186
 20
198.684888132
 30
0.0
 11
28.3504988848
 21
197.8144882308
 31
0.0
  0
ARC
  5
222
330
1EE
100
AcDbEntity
  8
(3_3) 407020038_
  6
Continuous
 62
     7
100
AcDbCircle
 10
28.8503113536
 20
197.8398623695
 30
0.0
 40
0.5003981083085721
100
AcDbArc
 50
184.4114117537
 51
269.9541431627
  0
ARC
  5
223
330
1EE
100
AcDbEntity
  8
(3_3) 407020038_
  6
Continuous
 62
     7
100
AcDbCircle
 10
35.9237165103
 20
198.711003197
 30
0.0
 40
0.5000000000000007
100
AcDbArc
 50
356.3622463863
 51
358.9717746664
  0
CIRCLE
  5
225
330
1EE
100
AcDbEntity
  8
(1_1) 407223038_
  6
Continuous
 62
     7
100
AcDbCircle
 10
32.3325462644
 20
216.35
 30
0.0
 40
19.4
  0
ARC
  5
226
330
1EE
100
AcDbEntity
  8
(1_1) 407223038_
  6
Continuous
 62
     7
100
AcDbCircle
 10
32.3325462644
 20
216.35
 30
0.0
 40
11.5
100
AcDbArc
 50
0.0
 51
249.37627174
  0
ARC
  5
227
330
1EE
100
AcDbEntity
  8
(1_1) 407223038_
  6
Continuous
 62
     7
100
AcDbCircle
 10
32.3325462644
 20
216.35
 30
0.0
 40
11.5
100
AcDbArc
 50
290.8298734648
 51
0.0
  0
ENDBLK
  5
229
330
1EE
100
AcDbEntity
  8
0
100
AcDbBlockEnd
  0
ENDSEC
  0
SECTION
  2
ENTITIES
  0
INSERT
  5
6C
330
1F
100
AcDbEntity
  8
Default
100
AcDbBlockReference
  2
SEANNOT_GROUP
 10
0.0
 20
0.0
 30
0.0
  0
INSERT
  5
73
330
1F
100
AcDbEntity
  8
Default
100
AcDbBlockReference
  2
SEANNOT_GROUP1
 10
0.0
 20
0.0
 30
0.0
  0
INSERT
  5
79
330
1F
100
AcDbEntity
  8
Default
100
AcDbBlockReference
  2
SEANNOT_GROUP2
 10
0.0
 20
0.0
 30
0.0
  0
INSERT
  5
83
330
1F
100
AcDbEntity
  8
Default
100
AcDbBlockReference
  2
SE
 10
0.0
 20
0.0
 30
0.0
  0
INSERT
  5
192
330
1F
100
AcDbEntity
  8
Default
100
AcDbBlockReference
  2
SE1
 10
0.0
 20
0.0
 30
0.0
  0
INSERT
  5
1EF
330
1F
100
AcDbEntity
  8
Default
100
AcDbBlockReference
  2
SE2
 10
0.0
 20
0.0
 30
0.0
  0
MTEXT
  5
22A
330
1F
100
AcDbEntity
  8
Default
100
AcDbMText
 10
5.9362635081
 20
63.4225120485
 30
0.0
 40
10.0
 41
113.8626497168
 71
     1
 72
     1
  1
{\fSolid Edge ISO|b0||i0||c0|p34;\C7;\H10.;\W1.;Grohe AG\P}{\fSolid Edge ISO|b0||i0||c0|p34;\C7;\H10.;\W1.;\P}{\fSolid Edge ISO|b0||i0||c0|p34;\C7;\H10.;\W1.;ecn:\P}{\fSolid Edge ISO|b0||i0||c0|p34;\C7;\H10.;\W1.;unit: mm}
 73
     1
 44
1.0
1001
ACAD
1000
ACAD_MTEXT_DEFINED_HEIGHT_BEGIN
1070
    46
1040
65.4545454545
1000
ACAD_MTEXT_DEFINED_HEIGHT_END
  0
LINE
  5
22B
330
1F
100
AcDbEntity
  8
Default
  6
Continuous
 62
     7
100
AcDbLine
 10
0.0
 20
0.0
 30
0.0
 11
100.0
 21
0.0
 31
0.0
  0
LINE
  5
22C
330
1F
100
AcDbEntity
  8
Default
  6
Continuous
 62
     7
100
AcDbLine
 10
0.0
 20
0.0
 30
0.0
 11
0.0
 21
100.0
 31
0.0
  0
MTEXT
  5
22D
330
1F
100
AcDbEntity
  8
Default
100
AcDbMText
 10
24.2173665744
 20
-5.1079887535
 30
0.0
 40
10.0
 41
35.00001
 71
     1
 72
     1
  1
{\fSolid Edge ISO|b0||i0||c0|p34;\C7;\H10.;\W1.;100 mm}
 73
     1
 44
1.0
1001
ACAD
1000
ACAD_MTEXT_DEFINED_HEIGHT_BEGIN
1070
    46
1040
16.3636363636
1000
ACAD_MTEXT_DEFINED_HEIGHT_END
  0
MTEXT
  5
22F
330
1F
100
AcDbEntity
  8
Default
100
AcDbMText
 10
-20.5695763349
 20
24.6231930421
 30
0.0
 40
10.0
 41
35.00001
 71
     1
 72
     1
  1
{\fSolid Edge ISO|b0||i0||c0|p34;\C7;\H10.;\W0.9;100 mm}
  7
SEACAD_Solid_Edge_ISO
 11
6.123233995736766E-17
 21
1.0
 31
0.0
 73
     1
 44
1.0
1001
ACAD
1000
ACAD_MTEXT_DEFINED_HEIGHT_BEGIN
1070
    46
1040
16.3636363636
1000
ACAD_MTEXT_DEFINED_HEIGHT_END
  0
MTEXT
  5
230
330
1F
100
AcDbEntity
  8
Default
100
AcDbMText
 10
28.4878128572
 20
24.8634936442
 30
0.0
 40
10.0
 41
86.691737001
 71
     4
 72
     1
  1
{\fSolid Edge ISO|b0||i0||c0|p34;\C7;\H10.;\W1.;233690}
 73
     1
 44
1.0
1001
ACAD
1000
ACAD_MTEXT_DEFINED_HEIGHT_BEGIN
1070
    46
1040
16.3636363636
1000
ACAD_MTEXT_DEFINED_HEIGHT_END
  0
MTEXT
  5
231
330
1F
100
AcDbEntity
  8
Default
100
AcDbMText
 10
5.9012241913
 20
41.4970052916
 30
0.0
 40
10.0
 41
109.9146987306
 71
     4
 72
     1
  1
{\fSolid Edge ISO|b0||i0||c0|p34;\C7;\H10.;\W1.;23654000}
 73
     1
 44
1.0
1001
ACAD
1000
ACAD_MTEXT_DEFINED_HEIGHT_BEGIN
1070
    46
1040
16.3636363636
1000
ACAD_MTEXT_DEFINED_HEIGHT_END
  0
ENDSEC
  0
SECTION
  2
OBJECTS
  0
DICTIONARY
  5
C
330
0
100
AcDbDictionary
281
     1
  3
ACAD_GROUP
350
D
  3
ACAD_LAYOUT
350
1A
  3
ACAD_MATERIAL
350
43
  3
ACAD_MLEADERSTYLE
350
234
  3
ACAD_MLINESTYLE
350
17
  3
ACAD_PLOTSETTINGS
350
19
  3
ACAD_PLOTSTYLENAME
350
E
  3
ACAD_SCALELIST
350
47
  3
ACAD_VISUALSTYLE
350
2A
  3
AcDbVariableDictionary
350
232
  0
DICTIONARY
  5
D
102
{ACAD_REACTORS
330
C
102
}
330
C
100
AcDbDictionary
281
     1
  0
DICTIONARY
  5
1A
102
{ACAD_REACTORS
330
C
102
}
330
C
100
AcDbDictionary
281
     1
  3
Layout1
350
1E
  3
Model
350
22
  0
DICTIONARY
  5
43
102
{ACAD_REACTORS
330
C
102
}
330
C
100
AcDbDictionary
281
     1
  3
ByBlock
350
45
  3
ByLayer
350
44
  3
Global
350
46
  0
DICTIONARY
  5
234
102
{ACAD_REACTORS
330
C
102
}
330
C
100
AcDbDictionary
281
     1
  0
DICTIONARY
  5
17
102
{ACAD_REACTORS
330
C
102
}
330
C
100
AcDbDictionary
281
     1
  3
Standard
350
18
  0
DICTIONARY
  5
19
102
{ACAD_REACTORS
330
C
102
}
330
C
100
AcDbDictionary
281
     1
  0
ACDBDICTIONARYWDFLT
  5
E
102
{ACAD_REACTORS
330
C
102
}
330
C
100
AcDbDictionary
281
     1
  3
Normal
350
F
100
AcDbDictionaryWithDefault
340
F
  0
DICTIONARY
  5
47
102
{ACAD_REACTORS
330
C
102
}
330
C
100
AcDbDictionary
281
     1
  3
A0
350
48
  3
A1
350
49
  3
A2
350
4A
  3
A3
350
4B
  3
A4
350
4C
  3
A5
350
4D
  3
A6
350
4E
  3
A7
350
4F
  3
A8
350
50
  3
A9
350
51
  3
B0
350
52
  3
B1
350
53
  3
B2
350
54
  3
B3
350
55
  3
B4
350
56
  3
B5
350
57
  3
B6
350
58
  3
B7
350
59
  3
B8
350
5A
  3
B9
350
5B
  3
C0
350
5C
  3
C1
350
5D
  3
C2
350
5E
  3
C3
350
5F
  3
C4
350
60
  3
C5
350
61
  3
C6
350
62
  3
C7
350
63
  3
C8
350
64
  3
C9
350
65
  3
D0
350
66
  3
D1
350
67
  3
D2
350
68
  0
DICTIONARY
  5
2A
102
{ACAD_REACTORS
330
C
102
}
330
C
100
AcDbDictionary
281
     1
  3
2dWireframe
350
2F
  3
Basic
350
32
  3
Brighten
350
36
  3
ColorChange
350
3A
  3
Conceptual
350
34
  3
Dim
350
35
  3
EdgeColorOff
350
3D
  3
Facepattern
350
39
  3
Flat
350
2B
  3
FlatWithEdges
350
2C
  3
Gouraud
350
2D
  3
GouraudWithEdges
350
2E
  3
Hidden
350
31
  3
JitterOff
350
3B
  3
Linepattern
350
38
  3
OverhangOff
350
3C
  3
Realistic
350
33
  3
Shaded
350
42
  3
Shaded with edges
350
41
  3
Shades of Gray
350
3E
  3
Sketchy
350
3F
  3
Thicken
350
37
  3
Wireframe
350
30
  3
X-Ray
350
40
  0
DICTIONARY
  5
232
102
{ACAD_REACTORS
330
C
102
}
330
C
100
AcDbDictionary
281
     1
  3
CANNOSCALE
350
23B
  3
DIMASSOC
350
239
  3
HIDETEXT
350
23A
  3
MSLTSCALE
350
23C
  3
PSOLHEIGHT
350
236
  3
PSOLWIDTH
350
235
  0
LAYOUT
  5
1E
102
{ACAD_REACTORS
330
1A
102
}
330
1A
100
AcDbPlotSettings
  1

  2
none_device
  4

  6

 40
0.0
 41
0.0
 42
0.0
 43
0.0
 44
0.0
 45
0.0
 46
0.0
 47
0.0
 48
0.0
 49
0.0
140
0.0
141
0.0
142
1.0
143
1.0
 70
   688
 72
     1
 73
     0
 74
     5
  7

 75
    16
147
1.0
148
0.0
149
0.0
100
AcDbLayout
  1
Layout1
 70
     1
 71
     1
 10
0.0
 20
0.0
 11
3000.0
 21
4500.0
 12
0.0
 22
0.0
 32
0.0
 14
0.0
 24
0.0
 34
0.0
 15
3000.0
 25
4500.0
 35
0.0
146
0.0
 13
0.0
 23
0.0
 33
0.0
 16
1.0
 26
0.0
 36
0.0
 17
0.0
 27
1.0
 37
0.0
 76
     0
330
1B
  0
LAYOUT
  5
22
102
{ACAD_REACTORS
330
1A
102
}
330
1A
100
AcDbPlotSettings
  1

  2
none_device
  4
Letter_(8.50_x_11.00_Inches)
  6

 40
6.35
 41
6.35
 42
6.35000508
 43
6.35000508
 44
215.9
 45
279.4
 46
0.0
 47
0.0
 48
0.0
 49
0.0
140
0.0
141
0.0
142
1.0
143
1.0
 70
  1712
 72
     1
 73
     0
 74
     0
  7

 75
     0
147
1.0
148
0.0
149
0.0
100
AcDbLayout
  1
Model
 70
     1
 71
     0
 10
0.0
 20
0.0
 11
3000.0
 21
4500.0
 12
0.0
 22
0.0
 32
0.0
 14
0.0
 24
0.0
 34
0.0
 15
3000.0
 25
4500.0
 35
0.0
146
0.0
 13
0.0
 23
0.0
 33
0.0
 16
1.0
 26
0.0
 36
0.0
 17
0.0
 27
1.0
 37
0.0
 76
     0
330
1F
331
29
  0
MATERIAL
  5
45
102
{ACAD_REACTORS
330
43
102
}
102
{ACAD_XDICTIONARY
360
26F
102
}
330
43
100
AcDbMaterial
  1
ByBlock
  0
MATERIAL
  5
44
102
{ACAD_REACTORS
330
43
102
}
102
{ACAD_XDICTIONARY
360
26D
102
}
330
43
100
AcDbMaterial
  1
ByLayer
  0
MATERIAL
  5
46
102
{ACAD_REACTORS
330
43
102
}
102
{ACAD_XDICTIONARY
360
271
102
}
330
43
100
AcDbMaterial
  1
Global
  0
MLINESTYLE
  5
18
102
{ACAD_REACTORS
330
17
102
}
330
17
100
AcDbMlineStyle
  2
Standard
 70
     0
  3

 62
   256
 51
90.0
 52
90.0
 71
     2
 49
0.5
 62
   256
  6
BYLAYER
 49
-0.5
 62
   256
  6
BYLAYER
  0
ACDBPLACEHOLDER
  5
F
102
{ACAD_REACTORS
330
E
102
}
330
E
  0
SCALE
  5
48
102
{ACAD_REACTORS
330
47
102
}
330
47
100
AcDbScale
 70
     0
300
1:1
140
1.0
141
1.0
290
     1
  0
SCALE
  5
49
102
{ACAD_REACTORS
330
47
102
}
330
47
100
AcDbScale
 70
     0
300
1:2
140
1.0
141
2.0
290
     0
  0
SCALE
  5
4A
102
{ACAD_REACTORS
330
47
102
}
330
47
100
AcDbScale
 70
     0
300
1:4
140
1.0
141
4.0
290
     0
  0
SCALE
  5
4B
102
{ACAD_REACTORS
330
47
102
}
330
47
100
AcDbScale
 70
     0
300
1:5
140
1.0
141
5.0
290
     0
  0
SCALE
  5
4C
102
{ACAD_REACTORS
330
47
102
}
330
47
100
AcDbScale
 70
     0
300
1:8
140
1.0
141
8.0
290
     0
  0
SCALE
  5
4D
102
{ACAD_REACTORS
330
47
102
}
330
47
100
AcDbScale
 70
     0
300
1:10
140
1.0
141
10.0
290
     0
  0
SCALE
  5
4E
102
{ACAD_REACTORS
330
47
102
}
330
47
100
AcDbScale
 70
     0
300
1:16
140
1.0
141
16.0
290
     0
  0
SCALE
  5
4F
102
{ACAD_REACTORS
330
47
102
}
330
47
100
AcDbScale
 70
     0
300
1:20
140
1.0
141
20.0
290
     0
  0
SCALE
  5
50
102
{ACAD_REACTORS
330
47
102
}
330
47
100
AcDbScale
 70
     0
300
1:30
140
1.0
141
30.0
290
     0
  0
SCALE
  5
51
102
{ACAD_REACTORS
330
47
102
}
330
47
100
AcDbScale
 70
     0
300
1:40
140
1.0
141
40.0
290
     0
  0
SCALE
  5
52
102
{ACAD_REACTORS
330
47
102
}
330
47
100
AcDbScale
 70
     0
300
1:50
140
1.0
141
50.0
290
     0
  0
SCALE
  5
53
102
{ACAD_REACTORS
330
47
102
}
330
47
100
AcDbScale
 70
     0
300
1:100
140
1.0
141
100.0
290
     0
  0
SCALE
  5
54
102
{ACAD_REACTORS
330
47
102
}
330
47
100
AcDbScale
 70
     0
300
2:1
140
2.0
141
1.0
290
     0
  0
SCALE
  5
55
102
{ACAD_REACTORS
330
47
102
}
330
47
100
AcDbScale
 70
     0
300
4:1
140
4.0
141
1.0
290
     0
  0
SCALE
  5
56
102
{ACAD_REACTORS
330
47
102
}
330
47
100
AcDbScale
 70
     0
300
8:1
140
8.0
141
1.0
290
     0
  0
SCALE
  5
57
102
{ACAD_REACTORS
330
47
102
}
330
47
100
AcDbScale
 70
     0
300
10:1
140
10.0
141
1.0
290
     0
  0
SCALE
  5
58
102
{ACAD_REACTORS
330
47
102
}
330
47
100
AcDbScale
 70
     0
300
100:1
140
100.0
141
1.0
290
     0
  0
SCALE
  5
59
102
{ACAD_REACTORS
330
47
102
}
330
47
100
AcDbScale
 70
     0
300
1/128" = 1'-0"
140
0.0078125
141
12.0
290
     0
  0
SCALE
  5
5A
102
{ACAD_REACTORS
330
47
102
}
330
47
100
AcDbScale
 70
     0
300
1/64" = 1'-0"
140
0.015625
141
12.0
290
     0
  0
SCALE
  5
5B
102
{ACAD_REACTORS
330
47
102
}
330
47
100
AcDbScale
 70
     0
300
1/32" = 1'-0"
140
0.03125
141
12.0
290
     0
  0
SCALE
  5
5C
102
{ACAD_REACTORS
330
47
102
}
330
47
100
AcDbScale
 70
     0
300
1/16" = 1'-0"
140
0.0625
141
12.0
290
     0
  0
SCALE
  5
5D
102
{ACAD_REACTORS
330
47
102
}
330
47
100
AcDbScale
 70
     0
300
3/32" = 1'-0"
140
0.09375
141
12.0
290
     0
  0
SCALE
  5
5E
102
{ACAD_REACTORS
330
47
102
}
330
47
100
AcDbScale
 70
     0
300
1/8" = 1'-0"
140
0.125
141
12.0
290
     0
  0
SCALE
  5
5F
102
{ACAD_REACTORS
330
47
102
}
330
47
100
AcDbScale
 70
     0
300
3/16" = 1'-0"
140
0.1875
141
12.0
290
     0
  0
SCALE
  5
60
102
{ACAD_REACTORS
330
47
102
}
330
47
100
AcDbScale
 70
     0
300
1/4" = 1'-0"
140
0.25
141
12.0
290
     0
  0
SCALE
  5
61
102
{ACAD_REACTORS
330
47
102
}
330
47
100
AcDbScale
 70
     0
300
3/8" = 1'-0"
140
0.375
141
12.0
290
     0
  0
SCALE
  5
62
102
{ACAD_REACTORS
330
47
102
}
330
47
100
AcDbScale
 70
     0
300
1/2" = 1'-0"
140
0.5
141
12.0
290
     0
  0
SCALE
  5
63
102
{ACAD_REACTORS
330
47
102
}
330
47
100
AcDbScale
 70
     0
300
3/4" = 1'-0"
140
0.75
141
12.0
290
     0
  0
SCALE
  5
64
102
{ACAD_REACTORS
330
47
102
}
330
47
100
AcDbScale
 70
     0
300
1" = 1'-0"
140
1.0
141
12.0
290
     0
  0
SCALE
  5
65
102
{ACAD_REACTORS
330
47
102
}
330
47
100
AcDbScale
 70
     0
300
1-1/2" = 1'-0"
140
1.5
141
12.0
290
     0
  0
SCALE
  5
66
102
{ACAD_REACTORS
330
47
102
}
330
47
100
AcDbScale
 70
     0
300
3" = 1'-0"
140
3.0
141
12.0
290
     0
  0
SCALE
  5
67
102
{ACAD_REACTORS
330
47
102
}
330
47
100
AcDbScale
 70
     0
300
6" = 1'-0"
140
6.0
141
12.0
290
     0
  0
SCALE
  5
68
102
{ACAD_REACTORS
330
47
102
}
330
47
100
AcDbScale
 70
     0
300
1'-0" = 1'-0"
140
12.0
141
12.0
290
     0
  0
VISUALSTYLE
  5
2F
102
{ACAD_REACTORS
330
2A
102
}
102
{ACAD_XDICTIONARY
360
245
102
}
330
2A
100
AcDbVisualStyle
  2
2dWireframe
 70
     4
 71
     0
 72
     2
 73
     0
 90
        0
 40
0.6
 41
30.0
 62
     5
 63
     7
 74
     1
 91
        4
 64
     7
 65
   257
 75
     1
175
     1
 42
1.0
 92
        0
 66
   257
 43
1.0
 76
     1
 77
     6
 78
     2
 67
     7
 79
     5
170
     0
171
     0
290
     0
174
     0
 93
        1
 44
0.0
173
     0
291
     0
 45
0.0
1001
ACAD
1000
AcDbSavedByObjectVersion
1070
     0
  0
VISUALSTYLE
  5
32
102
{ACAD_REACTORS
330
2A
102
}
102
{ACAD_XDICTIONARY
360
24B
102
}
330
2A
100
AcDbVisualStyle
  2
Basic
 70
     7
 71
     1
 72
     0
 73
     1
 90
        0
 40
0.6
 41
30.0
 62
     5
 63
     7
 74
     0
 91
        4
 64
     7
 65
   257
 75
     1
175
     1
 42
1.0
 92
        8
 66
     7
 43
1.0
 76
     1
 77
     6
 78
     2
 67
     7
 79
     5
170
     0
171
     0
290
     0
174
     0
 93
        1
 44
0.0
173
     0
291
     1
 45
0.0
1001
ACAD
1000
AcDbSavedByObjectVersion
1070
     0
  0
VISUALSTYLE
  5
36
102
{ACAD_REACTORS
330
2A
102
}
102
{ACAD_XDICTIONARY
360
253
102
}
330
2A
100
AcDbVisualStyle
  2
Brighten
 70
    12
 71
     2
 72
     2
 73
     0
 90
        0
 40
0.6
 41
30.0
 62
     5
 63
     7
 74
     1
 91
        4
 64
     7
 65
   257
 75
     1
175
     1
 42
1.0
 92
        8
 66
     7
 43
1.0
 76
     1
 77
     6
 78
     2
 67
     7
 79
     5
170
     0
171
     0
290
     0
174
     0
 93
        1
 44
50.0
173
     0
291
     1
 45
0.0
1001
ACAD
1000
AcDbSavedByObjectVersion
1070
     0
  0
VISUALSTYLE
  5
3A
102
{ACAD_REACTORS
330
2A
102
}
102
{ACAD_XDICTIONARY
360
25B
102
}
330
2A
100
AcDbVisualStyle
  2
ColorChange
 70
    16
 71
     2
 72
     2
 73
     3
 90
        0
 40
0.6
 41
30.0
 62
     5
 63
     8
 74
     1
 91
        4
 64
     7
 65
   257
 75
     1
175
     1
 42
1.0
 92
        8
 66
     8
 43
1.0
 76
     1
 77
     6
 78
     2
 67
     7
 79
     5
170
     0
171
     0
290
     0
174
     0
 93
        1
 44
0.0
173
     0
291
     1
 45
0.0
1001
ACAD
1000
AcDbSavedByObjectVersion
1070
     0
  0
VISUALSTYLE
  5
34
102
{ACAD_REACTORS
330
2A
102
}
102
{ACAD_XDICTIONARY
360
24F
102
}
330
2A
100
AcDbVisualStyle
  2
Conceptual
 70
     9
 71
     3
 72
     2
 73
     0
 90
        0
 40
0.6
 41
30.0
 62
     5
 63
     7
 74
     2
 91
        2
 64
     7
 65
   257
 75
     1
175
     1
 42
179.0
 92
        8
 66
     7
 43
1.0
 76
     1
 77
     6
 78
     2
 67
     7
 79
     3
170
     0
171
     0
290
     0
174
     0
 93
        1
 44
0.0
173
     0
291
     0
 45
0.0
1001
ACAD
1000
AcDbSavedByObjectVersion
1070
     0
  0
VISUALSTYLE
  5
35
102
{ACAD_REACTORS
330
2A
102
}
102
{ACAD_XDICTIONARY
360
251
102
}
330
2A
100
AcDbVisualStyle
  2
Dim
 70
    11
 71
     2
 72
     2
 73
     0
 90
        0
 40
0.6
 41
30.0
 62
     5
 63
     7
 74
     1
 91
        4
 64
     7
 65
   257
 75
     1
175
     1
 42
1.0
 92
        8
 66
     7
 43
1.0
 76
     1
 77
     6
 78
     2
 67
     7
 79
     5
170
     0
171
     0
290
     0
174
     0
 93
        1
 44
-50.0
173
     0
291
     1
 45
0.0
1001
ACAD
1000
AcDbSavedByObjectVersion
1070
     0
  0
VISUALSTYLE
  5
3D
102
{ACAD_REACTORS
330
2A
102
}
102
{ACAD_XDICTIONARY
360
261
102
}
330
2A
100
AcDbVisualStyle
  2
EdgeColorOff
 70
    22
 71
     2
 72
     2
 73
     0
 90
        0
 40
0.6
 41
30.0
 62
     5
 63
     7
 74
     1
 91
        4
 64
     7
 65
   257
 75
     1
175
     1
 42
1.0
 92
        8
 66
     7
 43
1.0
 76
     1
 77
     6
 78
     2
 67
     7
 79
     5
170
     0
171
     0
290
     0
174
     0
 93
        1
 44
0.0
173
     0
291
     1
 45
0.0
1001
ACAD
1000
AcDbSavedByObjectVersion
1070
     0
  0
VISUALSTYLE
  5
39
102
{ACAD_REACTORS
330
2A
102
}
102
{ACAD_XDICTIONARY
360
259
102
}
330
2A
100
AcDbVisualStyle
  2
Facepattern
 70
    15
 71
     2
 72
     2
 73
     0
 90
        0
 40
0.6
 41
30.0
 62
     5
 63
     7
 74
     1
 91
        4
 64
     7
 65
   257
 75
     1
175
     1
 42
1.0
 92
        8
 66
     7
 43
1.0
 76
     1
 77
     6
 78
     2
 67
     7
 79
     5
170
     0
171
     0
290
     0
174
     0
 93
        1
 44
0.0
173
     0
291
     1
 45
0.0
1001
ACAD
1000
AcDbSavedByObjectVersion
1070
     0
  0
VISUALSTYLE
  5
2B
102
{ACAD_REACTORS
330
2A
102
}
102
{ACAD_XDICTIONARY
360
23D
102
}
330
2A
100
AcDbVisualStyle
  2
Flat
 70
     0
 71
     2
 72
     1
 73
     1
 90
        2
 40
0.6
 41
30.0
 62
     5
 63
     7
 74
     0
 91
        0
 64
     7
 65
   257
 75
     1
175
     1
 42
1.0
 92
        8
 66
     7
 43
1.0
 76
     1
 77
     6
 78
     2
 67
     7
 79
     5
170
     0
171
     0
290
     0
174
     0
 93
       13
 44
0.0
173
     0
291
     1
 45
0.0
1001
ACAD
1000
AcDbSavedByObjectVersion
1070
     0
  0
VISUALSTYLE
  5
2C
102
{ACAD_REACTORS
330
2A
102
}
102
{ACAD_XDICTIONARY
360
23F
102
}
330
2A
100
AcDbVisualStyle
  2
FlatWithEdges
 70
     1
 71
     2
 72
     1
 73
     1
 90
        2
 40
0.6
 41
30.0
 62
     5
 63
     7
 74
     1
 91
        0
 64
     7
 65
   257
 75
     1
175
     1
 42
1.0
 92
        0
 66
   257
 43
1.0
 76
     1
 77
     6
 78
     2
 67
     7
 79
     5
170
     0
171
     0
290
     0
174
     0
 93
       13
 44
0.0
173
     0
291
     1
 45
0.0
1001
ACAD
1000
AcDbSavedByObjectVersion
1070
     0
  0
VISUALSTYLE
  5
2D
102
{ACAD_REACTORS
330
2A
102
}
102
{ACAD_XDICTIONARY
360
241
102
}
330
2A
100
AcDbVisualStyle
  2
Gouraud
 70
     2
 71
     2
 72
     2
 73
     1
 90
        2
 40
0.6
 41
30.0
 62
     5
 63
     7
 74
     0
 91
        0
 64
     7
 65
   257
 75
     1
175
     1
 42
1.0
 92
        0
 66
     7
 43
1.0
 76
     1
 77
     6
 78
     2
 67
     7
 79
     5
170
     0
171
     0
290
     0
174
     0
 93
       13
 44
0.0
173
     0
291
     1
 45
0.0
1001
ACAD
1000
AcDbSavedByObjectVersion
1070
     0
  0
VISUALSTYLE
  5
2E
102
{ACAD_REACTORS
330
2A
102
}
102
{ACAD_XDICTIONARY
360
243
102
}
330
2A
100
AcDbVisualStyle
  2
GouraudWithEdges
 70
     3
 71
     2
 72
     2
 73
     1
 90
        2
 40
0.6
 41
30.0
 62
     5
 63
     7
 74
     1
 91
        0
 64
     7
 65
   257
 75
     1
175
     1
 42
1.0
 92
        0
 66
   257
 43
1.0
 76
     1
 77
     6
 78
     2
 67
     7
 79
     5
170
     0
171
     0
290
     0
174
     0
 93
       13
 44
0.0
173
     0
291
     1
 45
0.0
1001
ACAD
1000
AcDbSavedByObjectVersion
1070
     0
  0
VISUALSTYLE
  5
31
102
{ACAD_REACTORS
330
2A
102
}
102
{ACAD_XDICTIONARY
360
249
102
}
330
2A
100
AcDbVisualStyle
  2
Hidden
 70
     6
 71
     1
 72
     2
 73
     2
 90
        0
 40
0.6
 41
30.0
 62
     5
 63
     7
 74
     2
 91
        2
 64
     7
 65
   257
 75
     2
175
     1
 42
40.0
 92
        0
 66
   257
 43
1.0
 76
     1
 77
     6
 78
     2
 67
     7
 79
     3
170
     0
171
     0
290
     0
174
     0
 93
        1
 44
0.0
173
     0
291
     0
 45
0.0
1001
ACAD
1000
AcDbSavedByObjectVersion
1070
     0
  0
VISUALSTYLE
  5
3B
102
{ACAD_REACTORS
330
2A
102
}
102
{ACAD_XDICTIONARY
360
25D
102
}
330
2A
100
AcDbVisualStyle
  2
JitterOff
 70
    20
 71
     2
 72
     2
 73
     0
 90
        0
 40
0.6
 41
30.0
 62
     5
 63
     7
 74
     1
 91
        4
 64
     7
 65
   257
 75
     1
175
     1
 42
1.0
 92
       10
 66
     7
 43
1.0
 76
     1
 77
     6
 78
     2
 67
     7
 79
     5
170
     0
171
     0
290
     0
174
     0
 93
        1
 44
0.0
173
     0
291
     1
 45
0.0
1001
ACAD
1000
AcDbSavedByObjectVersion
1070
     0
  0
VISUALSTYLE
  5
38
102
{ACAD_REACTORS
330
2A
102
}
102
{ACAD_XDICTIONARY
360
257
102
}
330
2A
100
AcDbVisualStyle
  2
Linepattern
 70
    14
 71
     2
 72
     2
 73
     0
 90
        0
 40
0.6
 41
30.0
 62
     5
 63
     7
 74
     1
 91
        4
 64
     7
 65
   257
 75
     7
175
     7
 42
1.0
 92
        8
 66
     7
 43
1.0
 76
     1
 77
     6
 78
     2
 67
     7
 79
     5
170
     0
171
     0
290
     0
174
     0
 93
        1
 44
0.0
173
     0
291
     1
 45
0.0
1001
ACAD
1000
AcDbSavedByObjectVersion
1070
     0
  0
VISUALSTYLE
  5
3C
102
{ACAD_REACTORS
330
2A
102
}
102
{ACAD_XDICTIONARY
360
25F
102
}
330
2A
100
AcDbVisualStyle
  2
OverhangOff
 70
    21
 71
     2
 72
     2
 73
     0
 90
        0
 40
0.6
 41
30.0
 62
     5
 63
     7
 74
     1
 91
        4
 64
     7
 65
   257
 75
     1
175
     1
 42
1.0
 92
        9
 66
     7
 43
1.0
 76
     1
 77
     6
 78
     2
 67
     7
 79
     5
170
     0
171
     0
290
     0
174
     0
 93
        1
 44
0.0
173
     0
291
     1
 45
0.0
1001
ACAD
1000
AcDbSavedByObjectVersion
1070
     0
  0
VISUALSTYLE
  5
33
102
{ACAD_REACTORS
330
2A
102
}
102
{ACAD_XDICTIONARY
360
24D
102
}
330
2A
100
AcDbVisualStyle
  2
Realistic
 70
     8
 71
     2
 72
     3
 73
     0
 90
        2
 40
0.6
 41
30.0
 62
     5
 63
     7
 74
     0
 91
        0
 64
     7
 65
   257
 75
     1
175
     1
 42
1.0
 92
        8
 66
   257
 43
1.0
 76
     1
 77
     6
 78
     2
 67
     7
 79
     3
170
     0
171
     0
290
     0
174
     0
 93
       13
 44
0.0
173
     0
291
     0
 45
0.0
1001
ACAD
1000
AcDbSavedByObjectVersion
1070
     0
  0
VISUALSTYLE
  5
42
102
{ACAD_REACTORS
330
2A
102
}
102
{ACAD_XDICTIONARY
360
26B
102
}
330
2A
100
AcDbVisualStyle
  2
Shaded
 70
    27
 71
     2
 72
     2
 73
     1
 90
        2
 40
0.6
 41
30.0
 62
     5
 63
     7
 74
     0
 91
        4
 64
     7
 65
   257
 75
     1
175
     1
 42
1.0
 92
        8
 66
   257
 43
1.0
 76
     1
 77
     6
 78
     2
 67
     8
 79
     3
170
     0
171
     0
290
     0
174
     0
 93
        5
 44
0.0
173
     0
291
     0
 45
0.0
1001
ACAD
1000
AcDbSavedByObjectVersion
1070
     0
  0
VISUALSTYLE
  5
41
102
{ACAD_REACTORS
330
2A
102
}
102
{ACAD_XDICTIONARY
360
269
102
}
330
2A
100
AcDbVisualStyle
  2
Shaded with edges
 70
    26
 71
     2
 72
     2
 73
     1
 90
        2
 40
0.6
 41
30.0
 62
     5
 63
     7
 74
     1
 91
       10
 64
     7
 65
   257
 75
     2
175
     1
 42
1.0
 92
        8
 66
   257
 43
1.0
 76
     1
 77
     6
 78
     2
 67
     7
 79
     3
170
     0
171
     0
290
     0
174
     0
 93
        5
 44
0.0
173
     0
291
     0
 45
0.0
1001
ACAD
1000
AcDbSavedByObjectVersion
1070
     0
  0
VISUALSTYLE
  5
3E
102
{ACAD_REACTORS
330
2A
102
}
102
{ACAD_XDICTIONARY
360
263
102
}
330
2A
100
AcDbVisualStyle
  2
Shades of Gray
 70
    23
 71
     2
 72
     2
 73
     3
 90
        0
 40
0.6
 41
30.0
 62
     5
 63
     7
 74
     2
 91
        2
 64
     7
 65
     7
 75
     1
175
     1
 42
40.0
 92
        8
 66
     7
 43
1.0
 76
     1
 77
     6
 78
     2
 67
     7
 79
     3
170
     0
171
     0
290
     0
174
     0
 93
        1
 44
0.0
173
     0
291
     0
 45
0.0
1001
ACAD
1000
AcDbSavedByObjectVersion
1070
     0
  0
VISUALSTYLE
  5
3F
102
{ACAD_REACTORS
330
2A
102
}
102
{ACAD_XDICTIONARY
360
265
102
}
330
2A
100
AcDbVisualStyle
  2
Sketchy
 70
    24
 71
     1
 72
     2
 73
     2
 90
        0
 40
0.6
 41
30.0
 62
     5
 63
     7
 74
     2
 91
        2
 64
     7
 65
     7
 75
     1
175
     1
 42
40.0
 92
       11
 66
     7
 43
1.0
 76
     1
 77
     6
 78
     2
 67
     7
 79
     6
170
     0
171
     0
290
     0
174
     0
 93
        1
 44
0.0
173
     0
291
     0
 45
0.0
1001
ACAD
1000
AcDbSavedByObjectVersion
1070
     0
  0
VISUALSTYLE
  5
37
102
{ACAD_REACTORS
330
2A
102
}
102
{ACAD_XDICTIONARY
360
255
102
}
330
2A
100
AcDbVisualStyle
  2
Thicken
 70
    13
 71
     2
 72
     2
 73
     0
 90
        0
 40
0.6
 41
30.0
 62
     5
 63
     7
 74
     1
 91
        4
 64
     7
 65
   257
 75
     1
175
     1
 42
1.0
 92
       12
 66
     7
 43
1.0
 76
     1
 77
     6
 78
     2
 67
     7
 79
     5
170
     0
171
     0
290
     0
174
     0
 93
        1
 44
0.0
173
     0
291
     1
 45
0.0
1001
ACAD
1000
AcDbSavedByObjectVersion
1070
     0
  0
VISUALSTYLE
  5
30
102
{ACAD_REACTORS
330
2A
102
}
102
{ACAD_XDICTIONARY
360
247
102
}
330
2A
100
AcDbVisualStyle
  2
Wireframe
 70
     5
 71
     0
 72
     2
 73
     0
 90
        0
 40
0.6
 41
30.0
 62
     5
 63
     7
 74
     1
 91
        4
 64
     7
 65
   257
 75
     1
175
     1
 42
1.0
 92
        0
 66
   257
 43
1.0
 76
     1
 77
     6
 78
     2
 67
     7
 79
     3
170
     0
171
     0
290
     0
174
     0
 93
        1
 44
0.0
173
     0
291
     0
 45
0.0
1001
ACAD
1000
AcDbSavedByObjectVersion
1070
     0
  0
VISUALSTYLE
  5
40
102
{ACAD_REACTORS
330
2A
102
}
102
{ACAD_XDICTIONARY
360
267
102
}
330
2A
100
AcDbVisualStyle
  2
X-Ray
 70
    25
 71
     2
 72
     2
 73
     1
 90
        1
 40
0.5
 41
30.0
 62
     5
 63
     7
 74
     1
 91
        0
 64
     7
 65
   257
 75
     1
175
     1
 42
1.0
 92
        8
 66
     7
 43
1.0
 76
     1
 77
     6
 78
     2
 67
     7
 79
     3
170
     0
171
     0
290
     0
174
     0
 93
       13
 44
0.0
173
     0
291
     0
 45
0.0
1001
ACAD
1000
AcDbSavedByObjectVersion
1070
     0
  0
DICTIONARYVAR
  5
23B
102
{ACAD_REACTORS
330
232
102
}
330
232
100
DictionaryVariables
280
     0
  1
1:1
  0
DICTIONARYVAR
  5
239
102
{ACAD_REACTORS
330
232
102
}
330
232
100
DictionaryVariables
280
     0
  1
2
  0
DICTIONARYVAR
  5
23A
102
{ACAD_REACTORS
330
232
102
}
330
232
100
DictionaryVariables
280
     0
  1
1
  0
DICTIONARYVAR
  5
23C
102
{ACAD_REACTORS
330
232
102
}
330
232
100
DictionaryVariables
280
     0
  1
1
  0
DICTIONARYVAR
  5
236
102
{ACAD_REACTORS
330
232
102
}
330
232
100
DictionaryVariables
280
     0
  1
80.000000
  0
DICTIONARYVAR
  5
235
102
{ACAD_REACTORS
330
232
102
}
330
232
100
DictionaryVariables
280
     0
  1
5.000000
  0
DICTIONARY
  5
26F
330
45
100
AcDbDictionary
280
     1
281
     1
  3
ACAD_XREC_ROUNDTRIP
360
270
  0
DICTIONARY
  5
26D
330
44
100
AcDbDictionary
280
     1
281
     1
  3
ACAD_XREC_ROUNDTRIP
360
26E
  0
DICTIONARY
  5
271
330
46
100
AcDbDictionary
280
     1
281
     1
  3
ACAD_XREC_ROUNDTRIP
360
272
  0
DICTIONARY
  5
245
330
2F
100
AcDbDictionary
280
     1
281
     1
  3
ACAD_XREC_ROUNDTRIP
360
246
  0
DICTIONARY
  5
24B
330
32
100
AcDbDictionary
280
     1
281
     1
  3
ACAD_XREC_ROUNDTRIP
360
24C
  0
DICTIONARY
  5
253
330
36
100
AcDbDictionary
280
     1
281
     1
  3
ACAD_XREC_ROUNDTRIP
360
254
  0
DICTIONARY
  5
25B
330
3A
100
AcDbDictionary
280
     1
281
     1
  3
ACAD_XREC_ROUNDTRIP
360
25C
  0
DICTIONARY
  5
24F
330
34
100
AcDbDictionary
280
     1
281
     1
  3
ACAD_XREC_ROUNDTRIP
360
250
  0
DICTIONARY
  5
251
330
35
100
AcDbDictionary
280
     1
281
     1
  3
ACAD_XREC_ROUNDTRIP
360
252
  0
DICTIONARY
  5
261
330
3D
100
AcDbDictionary
280
     1
281
     1
  3
ACAD_XREC_ROUNDTRIP
360
262
  0
DICTIONARY
  5
259
330
39
100
AcDbDictionary
280
     1
281
     1
  3
ACAD_XREC_ROUNDTRIP
360
25A
  0
DICTIONARY
  5
23D
330
2B
100
AcDbDictionary
280
     1
281
     1
  3
ACAD_XREC_ROUNDTRIP
360
23E
  0
DICTIONARY
  5
23F
330
2C
100
AcDbDictionary
280
     1
281
     1
  3
ACAD_XREC_ROUNDTRIP
360
240
  0
DICTIONARY
  5
241
330
2D
100
AcDbDictionary
280
     1
281
     1
  3
ACAD_XREC_ROUNDTRIP
360
242
  0
DICTIONARY
  5
243
330
2E
100
AcDbDictionary
280
     1
281
     1
  3
ACAD_XREC_ROUNDTRIP
360
244
  0
DICTIONARY
  5
249
330
31
100
AcDbDictionary
280
     1
281
     1
  3
ACAD_XREC_ROUNDTRIP
360
24A
  0
DICTIONARY
  5
25D
330
3B
100
AcDbDictionary
280
     1
281
     1
  3
ACAD_XREC_ROUNDTRIP
360
25E
  0
DICTIONARY
  5
257
330
38
100
AcDbDictionary
280
     1
281
     1
  3
ACAD_XREC_ROUNDTRIP
360
258
  0
DICTIONARY
  5
25F
330
3C
100
AcDbDictionary
280
     1
281
     1
  3
ACAD_XREC_ROUNDTRIP
360
260
  0
DICTIONARY
  5
24D
330
33
100
AcDbDictionary
280
     1
281
     1
  3
ACAD_XREC_ROUNDTRIP
360
24E
  0
DICTIONARY
  5
26B
330
42
100
AcDbDictionary
280
     1
281
     1
  3
ACAD_XREC_ROUNDTRIP
360
26C
  0
DICTIONARY
  5
269
330
41
100
AcDbDictionary
280
     1
281
     1
  3
ACAD_XREC_ROUNDTRIP
360
26A
  0
DICTIONARY
  5
263
330
3E
100
AcDbDictionary
280
     1
281
     1
  3
ACAD_XREC_ROUNDTRIP
360
264
  0
DICTIONARY
  5
265
330
3F
100
AcDbDictionary
280
     1
281
     1
  3
ACAD_XREC_ROUNDTRIP
360
266
  0
DICTIONARY
  5
255
330
37
100
AcDbDictionary
280
     1
281
     1
  3
ACAD_XREC_ROUNDTRIP
360
256
  0
DICTIONARY
  5
247
330
30
100
AcDbDictionary
280
     1
281
     1
  3
ACAD_XREC_ROUNDTRIP
360
248
  0
DICTIONARY
  5
267
330
40
100
AcDbDictionary
280
     1
281
     1
  3
ACAD_XREC_ROUNDTRIP
360
268
  0
XRECORD
  5
270
102
{ACAD_REACTORS
330
26F
102
}
330
26F
100
AcDbXrecord
280
     1
102
MATERIAL
148
0.0
149
0.0
149
0.0
 93
        0
 94
      127
282
     0
 72
     1
 77
     1
171
     1
175
     1
179
     1
273
     0
  0
XRECORD
  5
26E
102
{ACAD_REACTORS
330
26D
102
}
330
26D
100
AcDbXrecord
280
     1
102
MATERIAL
148
0.0
149
0.0
149
0.0
 93
        0
 94
      127
282
     0
 72
     1
 77
     1
171
     1
175
     1
179
     1
273
     0
  0
XRECORD
  5
272
102
{ACAD_REACTORS
330
271
102
}
330
271
100
AcDbXrecord
280
     1
102
MATERIAL
148
0.0
149
0.0
149
0.0
 93
        0
 94
      127
282
     0
 72
     1
 77
     1
171
     1
175
     1
179
     1
273
     0
  0
XRECORD
  5
246
102
{ACAD_REACTORS
330
245
102
}
330
245
100
AcDbXrecord
280
     1
102
RTVSPropertyOp0
 70
     1
102
RTVSPropertyOp1
 70
     1
102
RTVSPropertyOp2
 70
     1
102
RTVSPropertyOp3
 70
     1
102
RTVSPropertyOp4
 70
     1
102
RTVSPropertyOp5
 70
     1
102
RTVSPropertyOp6
 70
     1
102
RTVSPropertyOp7
 70
     1
102
RTVSPropertyOp8
 70
     1
102
RTVSPropertyOp9
 70
     1
102
RTVSPropertyOp10
 70
     1
102
RTVSPropertyOp11
 70
     1
102
RTVSPropertyOp12
 70
     1
102
RTVSPropertyOp13
 70
     1
102
RTVSPropertyOp14
 70
     1
102
RTVSPropertyOp15
 70
     1
102
RTVSPropertyOp16
 70
     1
102
RTVSPropertyOp17
 70
     1
102
RTVSPropertyOp18
 70
     1
102
RTVSPropertyOp19
 70
     1
102
RTVSPropertyOp20
 70
     1
102
RTVSPropertyOp21
 70
     1
102
RTVSPropertyOp22
 70
     1
102
RTVSPropertyOp23
 70
     1
102
RTVSPropertyOp24
 70
     1
102
RTVSPropertyOp25
 70
     1
102
RTVSPropertyOp26
 70
     1
102
RTVSPropertyOp27
 70
     1
102
RTVSPropertyOp28
 70
     1
102
RTVSPropertyOp29
 70
     1
102
RTVSPropertyOp30
 70
     1
102
RTVSPropertyOp31
 70
     1
102
RTVSPropertyOp32
 70
     1
102
RTVSPropertyOp33
 70
     1
102
RTVSPropertyOp34
 70
     1
102
RTVSPropertyOp35
 70
     1
102
RTVSPropertyOp36
 70
     1
102
RTVSPropertyOp37
 70
     1
102
RTVSPropertyOp38
 70
     1
102
RTVSPropertyOp39
 70
     1
102
RTVSPropertyOp40
 70
     1
102
RTVSPropertyOp41
 70
     1
102
RTVSPropertyOp42
 70
     1
102
RTVSPropertyOp43
 70
     1
102
RTVSPropertyOp44
 70
     1
102
RTVSPropertyOp45
 70
     1
102
RTVSPropertyOp46
 70
     1
102
RTVSPropertyOp47
 70
     1
102
RTVSPropertyOp48
 70
     1
102
RTVSPropertyOp49
 70
     1
102
RTVSPropertyOp50
 70
     1
102
RTVSPropertyOp51
 70
     0
102
RTVSPropertyOp52
 70
     0
102
RTVSPropertyOp53
 70
     1
102
RTVSPropertyOp54
 70
     1
102
RTVSPropertyOp55
 70
     1
102
RTVSPropertyOp56
 70
     1
102
RTVSPropertyOp57
 70
     1
102
RTVSPost2010Prop28
280
     1
102
RTVSPost2010PropOp28
 70
     1
102
RTVSPost2010Prop29
280
     1
102
RTVSPost2010PropOp29
 70
     1
102
RTVSPost2010Prop30
280
     0
102
RTVSPost2010PropOp30
 70
     1
102
RTVSPost2010Prop31
280
     0
102
RTVSPost2010PropOp31
 70
     1
102
RTVSPost2010Prop32
280
     0
102
RTVSPost2010PropOp32
 70
     1
102
RTVSPost2010Prop33
280
     0
102
RTVSPost2010PropOp33
 70
     1
102
RTVSPost2010Prop34
280
     0
102
RTVSPost2010PropOp34
 70
     1
102
RTVSPost2010Prop35
280
     0
102
RTVSPost2010PropOp35
 70
     1
102
RTVSPost2010Prop36
280
     0
102
RTVSPost2010PropOp36
 70
     1
102
RTVSPost2010Prop37
 90
       50
102
RTVSPost2010PropOp37
 70
     1
102
RTVSPost2010Prop38
140
0.0
102
RTVSPost2010PropOp38
 70
     1
102
RTVSPost2010Prop39
140
1.0
102
RTVSPost2010PropOp39
 70
     1
102
RTVSPost2010Prop40
 90
        0
102
RTVSPost2010PropOp40
 70
     1
102
RTVSPost2010Prop41ColorIndex
 90
       18
102
RTVSPost2010Prop41ColorRGB
 90
        0
102
RTVSPost2010PropOp41
 70
     1
102
RTVSPost2010Prop42
 90
       50
102
RTVSPost2010PropOp42
 70
     1
102
RTVSPost2010Prop43
 90
        3
102
RTVSPost2010PropOp43
 70
     1
102
RTVSPost2010Prop44ColorIndex
 90
        5
102
RTVSPost2010Prop44ColorRGB
 90
      255
102
RTVSPost2010PropOp44
 70
     1
102
RTVSPost2010Prop45
280
     0
102
RTVSPost2010PropOp45
 70
     1
102
RTVSPost2010Prop46
 90
       50
102
RTVSPost2010PropOp46
 70
     1
102
RTVSPost2010Prop47
 90
       50
102
RTVSPost2010PropOp47
 70
     1
102
RTVSPost2010Prop48
 90
       50
102
RTVSPost2010PropOp48
 70
     1
102
RTVSPost2010Prop49
280
     0
102
RTVSPost2010PropOp49
 70
     1
102
RTVSPost2010Prop50
 90
       50
102
RTVSPost2010PropOp50
 70
     1
102
RTVSPost2010Prop51ColorIndex
 90
      256
102
RTVSPost2010Prop51ColorRGB
 90
-16777216
102
RTVSPost2010PropOp51
 70
     0
102
RTVSPost2010Prop52
140
1.0
102
RTVSPost2010PropOp52
 70
     0
102
RTVSPost2010Prop53
 90
        2
102
RTVSPost2010PropOp53
 70
     1
102
RTVSPost2010Prop54
  1
strokes_ogs.tif
102
RTVSPost2010PropOp54
 70
     1
102
RTVSPost2010Prop55
280
     0
102
RTVSPost2010PropOp55
 70
     1
102
RTVSPost2010Prop56
140
1.0
102
RTVSPost2010PropOp56
 70
     1
102
RTVSPost2010Prop57
140
1.0
102
RTVSPost2010PropOp57
 70
     1
  0
XRECORD
  5
24C
102
{ACAD_REACTORS
330
24B
102
}
330
24B
100
AcDbXrecord
280
     1
102
RTVSPropertyOp0
 70
     1
102
RTVSPropertyOp1
 70
     1
102
RTVSPropertyOp2
 70
     1
102
RTVSPropertyOp3
 70
     1
102
RTVSPropertyOp4
 70
     1
102
RTVSPropertyOp5
 70
     1
102
RTVSPropertyOp6
 70
     1
102
RTVSPropertyOp7
 70
     1
102
RTVSPropertyOp8
 70
     1
102
RTVSPropertyOp9
 70
     1
102
RTVSPropertyOp10
 70
     1
102
RTVSPropertyOp11
 70
     1
102
RTVSPropertyOp12
 70
     1
102
RTVSPropertyOp13
 70
     1
102
RTVSPropertyOp14
 70
     1
102
RTVSPropertyOp15
 70
     1
102
RTVSPropertyOp16
 70
     1
102
RTVSPropertyOp17
 70
     1
102
RTVSPropertyOp18
 70
     1
102
RTVSPropertyOp19
 70
     1
102
RTVSPropertyOp20
 70
     1
102
RTVSPropertyOp21
 70
     1
102
RTVSPropertyOp22
 70
     1
102
RTVSPropertyOp23
 70
     1
102
RTVSPropertyOp24
 70
     1
102
RTVSPropertyOp25
 70
     1
102
RTVSPropertyOp26
 70
     1
102
RTVSPropertyOp27
 70
     1
102
RTVSPropertyOp28
 70
     1
102
RTVSPropertyOp29
 70
     1
102
RTVSPropertyOp30
 70
     1
102
RTVSPropertyOp31
 70
     1
102
RTVSPropertyOp32
 70
     1
102
RTVSPropertyOp33
 70
     1
102
RTVSPropertyOp34
 70
     1
102
RTVSPropertyOp35
 70
     1
102
RTVSPropertyOp36
 70
     1
102
RTVSPropertyOp37
 70
     1
102
RTVSPropertyOp38
 70
     1
102
RTVSPropertyOp39
 70
     1
102
RTVSPropertyOp40
 70
     1
102
RTVSPropertyOp41
 70
     1
102
RTVSPropertyOp42
 70
     1
102
RTVSPropertyOp43
 70
     1
102
RTVSPropertyOp44
 70
     1
102
RTVSPropertyOp45
 70
     1
102
RTVSPropertyOp46
 70
     1
102
RTVSPropertyOp47
 70
     1
102
RTVSPropertyOp48
 70
     1
102
RTVSPropertyOp49
 70
     1
102
RTVSPropertyOp50
 70
     1
102
RTVSPropertyOp51
 70
     0
102
RTVSPropertyOp52
 70
     0
102
RTVSPropertyOp53
 70
     1
102
RTVSPropertyOp54
 70
     1
102
RTVSPropertyOp55
 70
     1
102
RTVSPropertyOp56
 70
     1
102
RTVSPropertyOp57
 70
     1
102
RTVSPost2010Prop28
280
     0
102
RTVSPost2010PropOp28
 70
     1
102
RTVSPost2010Prop29
280
     1
102
RTVSPost2010PropOp29
 70
     1
102
RTVSPost2010Prop30
280
     1
102
RTVSPost2010PropOp30
 70
     1
102
RTVSPost2010Prop31
280
     0
102
RTVSPost2010PropOp31
 70
     1
102
RTVSPost2010Prop32
280
     0
102
RTVSPost2010PropOp32
 70
     1
102
RTVSPost2010Prop33
280
     0
102
RTVSPost2010PropOp33
 70
     1
102
RTVSPost2010Prop34
280
     0
102
RTVSPost2010PropOp34
 70
     1
102
RTVSPost2010Prop35
280
     0
102
RTVSPost2010PropOp35
 70
     1
102
RTVSPost2010Prop36
280
     0
102
RTVSPost2010PropOp36
 70
     1
102
RTVSPost2010Prop37
 90
       50
102
RTVSPost2010PropOp37
 70
     1
102
RTVSPost2010Prop38
140
0.0
102
RTVSPost2010PropOp38
 70
     1
102
RTVSPost2010Prop39
140
1.0
102
RTVSPost2010PropOp39
 70
     1
102
RTVSPost2010Prop40
 90
        0
102
RTVSPost2010PropOp40
 70
     1
102
RTVSPost2010Prop41ColorIndex
 90
       18
102
RTVSPost2010Prop41ColorRGB
 90
        0
102
RTVSPost2010PropOp41
 70
     1
102
RTVSPost2010Prop42
 90
       50
102
RTVSPost2010PropOp42
 70
     1
102
RTVSPost2010Prop43
 90
        3
102
RTVSPost2010PropOp43
 70
     1
102
RTVSPost2010Prop44ColorIndex
 90
        5
102
RTVSPost2010Prop44ColorRGB
 90
      255
102
RTVSPost2010PropOp44
 70
     1
102
RTVSPost2010Prop45
280
     0
102
RTVSPost2010PropOp45
 70
     1
102
RTVSPost2010Prop46
 90
       50
102
RTVSPost2010PropOp46
 70
     1
102
RTVSPost2010Prop47
 90
       50
102
RTVSPost2010PropOp47
 70
     1
102
RTVSPost2010Prop48
 90
       50
102
RTVSPost2010PropOp48
 70
     1
102
RTVSPost2010Prop49
280
     0
102
RTVSPost2010PropOp49
 70
     1
102
RTVSPost2010Prop50
 90
       50
102
RTVSPost2010PropOp50
 70
     1
102
RTVSPost2010Prop51ColorIndex
 90
      256
102
RTVSPost2010Prop51ColorRGB
 90
-16777216
102
RTVSPost2010PropOp51
 70
     0
102
RTVSPost2010Prop52
140
1.0
102
RTVSPost2010PropOp52
 70
     0
102
RTVSPost2010Prop53
 90
        2
102
RTVSPost2010PropOp53
 70
     1
102
RTVSPost2010Prop54
  1
strokes_ogs.tif
102
RTVSPost2010PropOp54
 70
     1
102
RTVSPost2010Prop55
280
     0
102
RTVSPost2010PropOp55
 70
     1
102
RTVSPost2010Prop56
140
1.0
102
RTVSPost2010PropOp56
 70
     1
102
RTVSPost2010Prop57
140
1.0
102
RTVSPost2010PropOp57
 70
     1
  0
XRECORD
  5
254
102
{ACAD_REACTORS
330
253
102
}
330
253
100
AcDbXrecord
280
     1
102
RTVSPropertyOp0
 70
     1
102
RTVSPropertyOp1
 70
     1
102
RTVSPropertyOp2
 70
     1
102
RTVSPropertyOp3
 70
     1
102
RTVSPropertyOp4
 70
     1
102
RTVSPropertyOp5
 70
     1
102
RTVSPropertyOp6
 70
     1
102
RTVSPropertyOp7
 70
     1
102
RTVSPropertyOp8
 70
     1
102
RTVSPropertyOp9
 70
     1
102
RTVSPropertyOp10
 70
     1
102
RTVSPropertyOp11
 70
     1
102
RTVSPropertyOp12
 70
     1
102
RTVSPropertyOp13
 70
     1
102
RTVSPropertyOp14
 70
     1
102
RTVSPropertyOp15
 70
     1
102
RTVSPropertyOp16
 70
     1
102
RTVSPropertyOp17
 70
     1
102
RTVSPropertyOp18
 70
     1
102
RTVSPropertyOp19
 70
     1
102
RTVSPropertyOp20
 70
     1
102
RTVSPropertyOp21
 70
     1
102
RTVSPropertyOp22
 70
     1
102
RTVSPropertyOp23
 70
     1
102
RTVSPropertyOp24
 70
     1
102
RTVSPropertyOp25
 70
     1
102
RTVSPropertyOp26
 70
     1
102
RTVSPropertyOp27
 70
     1
102
RTVSPropertyOp28
 70
     1
102
RTVSPropertyOp29
 70
     1
102
RTVSPropertyOp30
 70
     1
102
RTVSPropertyOp31
 70
     1
102
RTVSPropertyOp32
 70
     1
102
RTVSPropertyOp33
 70
     1
102
RTVSPropertyOp34
 70
     1
102
RTVSPropertyOp35
 70
     1
102
RTVSPropertyOp36
 70
     1
102
RTVSPropertyOp37
 70
     1
102
RTVSPropertyOp38
 70
     1
102
RTVSPropertyOp39
 70
     1
102
RTVSPropertyOp40
 70
     1
102
RTVSPropertyOp41
 70
     1
102
RTVSPropertyOp42
 70
     1
102
RTVSPropertyOp43
 70
     1
102
RTVSPropertyOp44
 70
     1
102
RTVSPropertyOp45
 70
     1
102
RTVSPropertyOp46
 70
     1
102
RTVSPropertyOp47
 70
     1
102
RTVSPropertyOp48
 70
     1
102
RTVSPropertyOp49
 70
     1
102
RTVSPropertyOp50
 70
     1
102
RTVSPropertyOp51
 70
     0
102
RTVSPropertyOp52
 70
     0
102
RTVSPropertyOp53
 70
     1
102
RTVSPropertyOp54
 70
     1
102
RTVSPropertyOp55
 70
     1
102
RTVSPropertyOp56
 70
     1
102
RTVSPropertyOp57
 70
     1
102
RTVSPost2010Prop28
280
     0
102
RTVSPost2010PropOp28
 70
     1
102
RTVSPost2010Prop29
280
     1
102
RTVSPost2010PropOp29
 70
     1
102
RTVSPost2010Prop30
280
     1
102
RTVSPost2010PropOp30
 70
     1
102
RTVSPost2010Prop31
280
     0
102
RTVSPost2010PropOp31
 70
     1
102
RTVSPost2010Prop32
280
     0
102
RTVSPost2010PropOp32
 70
     1
102
RTVSPost2010Prop33
280
     0
102
RTVSPost2010PropOp33
 70
     1
102
RTVSPost2010Prop34
280
     0
102
RTVSPost2010PropOp34
 70
     1
102
RTVSPost2010Prop35
280
     0
102
RTVSPost2010PropOp35
 70
     1
102
RTVSPost2010Prop36
280
     0
102
RTVSPost2010PropOp36
 70
     1
102
RTVSPost2010Prop37
 90
       50
102
RTVSPost2010PropOp37
 70
     1
102
RTVSPost2010Prop38
140
0.0
102
RTVSPost2010PropOp38
 70
     1
102
RTVSPost2010Prop39
140
1.0
102
RTVSPost2010PropOp39
 70
     1
102
RTVSPost2010Prop40
 90
        0
102
RTVSPost2010PropOp40
 70
     1
102
RTVSPost2010Prop41ColorIndex
 90
       18
102
RTVSPost2010Prop41ColorRGB
 90
        0
102
RTVSPost2010PropOp41
 70
     1
102
RTVSPost2010Prop42
 90
       50
102
RTVSPost2010PropOp42
 70
     1
102
RTVSPost2010Prop43
 90
        3
102
RTVSPost2010PropOp43
 70
     1
102
RTVSPost2010Prop44ColorIndex
 90
        5
102
RTVSPost2010Prop44ColorRGB
 90
      255
102
RTVSPost2010PropOp44
 70
     1
102
RTVSPost2010Prop45
280
     0
102
RTVSPost2010PropOp45
 70
     1
102
RTVSPost2010Prop46
 90
       50
102
RTVSPost2010PropOp46
 70
     1
102
RTVSPost2010Prop47
 90
       50
102
RTVSPost2010PropOp47
 70
     1
102
RTVSPost2010Prop48
 90
       50
102
RTVSPost2010PropOp48
 70
     1
102
RTVSPost2010Prop49
280
     0
102
RTVSPost2010PropOp49
 70
     1
102
RTVSPost2010Prop50
 90
       50
102
RTVSPost2010PropOp50
 70
     1
102
RTVSPost2010Prop51ColorIndex
 90
      256
102
RTVSPost2010Prop51ColorRGB
 90
-16777216
102
RTVSPost2010PropOp51
 70
     0
102
RTVSPost2010Prop52
140
1.0
102
RTVSPost2010PropOp52
 70
     0
102
RTVSPost2010Prop53
 90
        2
102
RTVSPost2010PropOp53
 70
     1
102
RTVSPost2010Prop54
  1
strokes_ogs.tif
102
RTVSPost2010PropOp54
 70
     1
102
RTVSPost2010Prop55
280
     0
102
RTVSPost2010PropOp55
 70
     1
102
RTVSPost2010Prop56
140
1.0
102
RTVSPost2010PropOp56
 70
     1
102
RTVSPost2010Prop57
140
1.0
102
RTVSPost2010PropOp57
 70
     1
  0
XRECORD
  5
25C
102
{ACAD_REACTORS
330
25B
102
}
330
25B
100
AcDbXrecord
280
     1
102
RTVSPropertyOp0
 70
     1
102
RTVSPropertyOp1
 70
     1
102
RTVSPropertyOp2
 70
     1
102
RTVSPropertyOp3
 70
     1
102
RTVSPropertyOp4
 70
     1
102
RTVSPropertyOp5
 70
     1
102
RTVSPropertyOp6
 70
     1
102
RTVSPropertyOp7
 70
     1
102
RTVSPropertyOp8
 70
     1
102
RTVSPropertyOp9
 70
     1
102
RTVSPropertyOp10
 70
     1
102
RTVSPropertyOp11
 70
     1
102
RTVSPropertyOp12
 70
     1
102
RTVSPropertyOp13
 70
     1
102
RTVSPropertyOp14
 70
     1
102
RTVSPropertyOp15
 70
     1
102
RTVSPropertyOp16
 70
     1
102
RTVSPropertyOp17
 70
     1
102
RTVSPropertyOp18
 70
     1
102
RTVSPropertyOp19
 70
     1
102
RTVSPropertyOp20
 70
     1
102
RTVSPropertyOp21
 70
     1
102
RTVSPropertyOp22
 70
     1
102
RTVSPropertyOp23
 70
     1
102
RTVSPropertyOp24
 70
     1
102
RTVSPropertyOp25
 70
     1
102
RTVSPropertyOp26
 70
     1
102
RTVSPropertyOp27
 70
     1
102
RTVSPropertyOp28
 70
     1
102
RTVSPropertyOp29
 70
     1
102
RTVSPropertyOp30
 70
     1
102
RTVSPropertyOp31
 70
     1
102
RTVSPropertyOp32
 70
     1
102
RTVSPropertyOp33
 70
     1
102
RTVSPropertyOp34
 70
     1
102
RTVSPropertyOp35
 70
     1
102
RTVSPropertyOp36
 70
     1
102
RTVSPropertyOp37
 70
     1
102
RTVSPropertyOp38
 70
     1
102
RTVSPropertyOp39
 70
     1
102
RTVSPropertyOp40
 70
     1
102
RTVSPropertyOp41
 70
     1
102
RTVSPropertyOp42
 70
     1
102
RTVSPropertyOp43
 70
     1
102
RTVSPropertyOp44
 70
     1
102
RTVSPropertyOp45
 70
     1
102
RTVSPropertyOp46
 70
     1
102
RTVSPropertyOp47
 70
     1
102
RTVSPropertyOp48
 70
     1
102
RTVSPropertyOp49
 70
     1
102
RTVSPropertyOp50
 70
     1
102
RTVSPropertyOp51
 70
     0
102
RTVSPropertyOp52
 70
     0
102
RTVSPropertyOp53
 70
     1
102
RTVSPropertyOp54
 70
     1
102
RTVSPropertyOp55
 70
     1
102
RTVSPropertyOp56
 70
     1
102
RTVSPropertyOp57
 70
     1
102
RTVSPost2010Prop28
280
     0
102
RTVSPost2010PropOp28
 70
     1
102
RTVSPost2010Prop29
280
     1
102
RTVSPost2010PropOp29
 70
     1
102
RTVSPost2010Prop30
280
     1
102
RTVSPost2010PropOp30
 70
     1
102
RTVSPost2010Prop31
280
     0
102
RTVSPost2010PropOp31
 70
     1
102
RTVSPost2010Prop32
280
     0
102
RTVSPost2010PropOp32
 70
     1
102
RTVSPost2010Prop33
280
     0
102
RTVSPost2010PropOp33
 70
     1
102
RTVSPost2010Prop34
280
     0
102
RTVSPost2010PropOp34
 70
     1
102
RTVSPost2010Prop35
280
     0
102
RTVSPost2010PropOp35
 70
     1
102
RTVSPost2010Prop36
280
     0
102
RTVSPost2010PropOp36
 70
     1
102
RTVSPost2010Prop37
 90
       50
102
RTVSPost2010PropOp37
 70
     1
102
RTVSPost2010Prop38
140
0.0
102
RTVSPost2010PropOp38
 70
     1
102
RTVSPost2010Prop39
140
1.0
102
RTVSPost2010PropOp39
 70
     1
102
RTVSPost2010Prop40
 90
        0
102
RTVSPost2010PropOp40
 70
     1
102
RTVSPost2010Prop41ColorIndex
 90
       18
102
RTVSPost2010Prop41ColorRGB
 90
        0
102
RTVSPost2010PropOp41
 70
     1
102
RTVSPost2010Prop42
 90
       50
102
RTVSPost2010PropOp42
 70
     1
102
RTVSPost2010Prop43
 90
        3
102
RTVSPost2010PropOp43
 70
     1
102
RTVSPost2010Prop44ColorIndex
 90
        5
102
RTVSPost2010Prop44ColorRGB
 90
      255
102
RTVSPost2010PropOp44
 70
     1
102
RTVSPost2010Prop45
280
     0
102
RTVSPost2010PropOp45
 70
     1
102
RTVSPost2010Prop46
 90
       50
102
RTVSPost2010PropOp46
 70
     1
102
RTVSPost2010Prop47
 90
       50
102
RTVSPost2010PropOp47
 70
     1
102
RTVSPost2010Prop48
 90
       50
102
RTVSPost2010PropOp48
 70
     1
102
RTVSPost2010Prop49
280
     0
102
RTVSPost2010PropOp49
 70
     1
102
RTVSPost2010Prop50
 90
       50
102
RTVSPost2010PropOp50
 70
     1
102
RTVSPost2010Prop51ColorIndex
 90
      256
102
RTVSPost2010Prop51ColorRGB
 90
-16777216
102
RTVSPost2010PropOp51
 70
     0
102
RTVSPost2010Prop52
140
1.0
102
RTVSPost2010PropOp52
 70
     0
102
RTVSPost2010Prop53
 90
        2
102
RTVSPost2010PropOp53
 70
     1
102
RTVSPost2010Prop54
  1
strokes_ogs.tif
102
RTVSPost2010PropOp54
 70
     1
102
RTVSPost2010Prop55
280
     0
102
RTVSPost2010PropOp55
 70
     1
102
RTVSPost2010Prop56
140
1.0
102
RTVSPost2010PropOp56
 70
     1
102
RTVSPost2010Prop57
140
1.0
102
RTVSPost2010PropOp57
 70
     1
  0
XRECORD
  5
250
102
{ACAD_REACTORS
330
24F
102
}
330
24F
100
AcDbXrecord
280
     1
102
RTVSPropertyOp0
 70
     1
102
RTVSPropertyOp1
 70
     1
102
RTVSPropertyOp2
 70
     1
102
RTVSPropertyOp3
 70
     1
102
RTVSPropertyOp4
 70
     1
102
RTVSPropertyOp5
 70
     1
102
RTVSPropertyOp6
 70
     1
102
RTVSPropertyOp7
 70
     1
102
RTVSPropertyOp8
 70
     1
102
RTVSPropertyOp9
 70
     1
102
RTVSPropertyOp10
 70
     1
102
RTVSPropertyOp11
 70
     1
102
RTVSPropertyOp12
 70
     1
102
RTVSPropertyOp13
 70
     1
102
RTVSPropertyOp14
 70
     1
102
RTVSPropertyOp15
 70
     1
102
RTVSPropertyOp16
 70
     1
102
RTVSPropertyOp17
 70
     1
102
RTVSPropertyOp18
 70
     1
102
RTVSPropertyOp19
 70
     1
102
RTVSPropertyOp20
 70
     1
102
RTVSPropertyOp21
 70
     1
102
RTVSPropertyOp22
 70
     1
102
RTVSPropertyOp23
 70
     1
102
RTVSPropertyOp24
 70
     1
102
RTVSPropertyOp25
 70
     1
102
RTVSPropertyOp26
 70
     1
102
RTVSPropertyOp27
 70
     1
102
RTVSPropertyOp28
 70
     1
102
RTVSPropertyOp29
 70
     1
102
RTVSPropertyOp30
 70
     1
102
RTVSPropertyOp31
 70
     1
102
RTVSPropertyOp32
 70
     1
102
RTVSPropertyOp33
 70
     1
102
RTVSPropertyOp34
 70
     1
102
RTVSPropertyOp35
 70
     1
102
RTVSPropertyOp36
 70
     1
102
RTVSPropertyOp37
 70
     1
102
RTVSPropertyOp38
 70
     1
102
RTVSPropertyOp39
 70
     1
102
RTVSPropertyOp40
 70
     1
102
RTVSPropertyOp41
 70
     1
102
RTVSPropertyOp42
 70
     1
102
RTVSPropertyOp43
 70
     1
102
RTVSPropertyOp44
 70
     1
102
RTVSPropertyOp45
 70
     1
102
RTVSPropertyOp46
 70
     1
102
RTVSPropertyOp47
 70
     1
102
RTVSPropertyOp48
 70
     1
102
RTVSPropertyOp49
 70
     1
102
RTVSPropertyOp50
 70
     1
102
RTVSPropertyOp51
 70
     0
102
RTVSPropertyOp52
 70
     0
102
RTVSPropertyOp53
 70
     1
102
RTVSPropertyOp54
 70
     1
102
RTVSPropertyOp55
 70
     1
102
RTVSPropertyOp56
 70
     1
102
RTVSPropertyOp57
 70
     1
102
RTVSPost2010Prop28
280
     0
102
RTVSPost2010PropOp28
 70
     1
102
RTVSPost2010Prop29
280
     1
102
RTVSPost2010PropOp29
 70
     1
102
RTVSPost2010Prop30
280
     1
102
RTVSPost2010PropOp30
 70
     1
102
RTVSPost2010Prop31
280
     0
102
RTVSPost2010PropOp31
 70
     1
102
RTVSPost2010Prop32
280
     0
102
RTVSPost2010PropOp32
 70
     1
102
RTVSPost2010Prop33
280
     0
102
RTVSPost2010PropOp33
 70
     1
102
RTVSPost2010Prop34
280
     0
102
RTVSPost2010PropOp34
 70
     1
102
RTVSPost2010Prop35
280
     0
102
RTVSPost2010PropOp35
 70
     1
102
RTVSPost2010Prop36
280
     0
102
RTVSPost2010PropOp36
 70
     1
102
RTVSPost2010Prop37
 90
       50
102
RTVSPost2010PropOp37
 70
     1
102
RTVSPost2010Prop38
140
0.0
102
RTVSPost2010PropOp38
 70
     1
102
RTVSPost2010Prop39
140
1.0
102
RTVSPost2010PropOp39
 70
     1
102
RTVSPost2010Prop40
 90
        0
102
RTVSPost2010PropOp40
 70
     1
102
RTVSPost2010Prop41ColorIndex
 90
       18
102
RTVSPost2010Prop41ColorRGB
 90
        0
102
RTVSPost2010PropOp41
 70
     1
102
RTVSPost2010Prop42
 90
       50
102
RTVSPost2010PropOp42
 70
     1
102
RTVSPost2010Prop43
 90
        3
102
RTVSPost2010PropOp43
 70
     1
102
RTVSPost2010Prop44ColorIndex
 90
        5
102
RTVSPost2010Prop44ColorRGB
 90
      255
102
RTVSPost2010PropOp44
 70
     1
102
RTVSPost2010Prop45
280
     0
102
RTVSPost2010PropOp45
 70
     1
102
RTVSPost2010Prop46
 90
       50
102
RTVSPost2010PropOp46
 70
     1
102
RTVSPost2010Prop47
 90
       50
102
RTVSPost2010PropOp47
 70
     1
102
RTVSPost2010Prop48
 90
       50
102
RTVSPost2010PropOp48
 70
     1
102
RTVSPost2010Prop49
280
     0
102
RTVSPost2010PropOp49
 70
     1
102
RTVSPost2010Prop50
 90
       50
102
RTVSPost2010PropOp50
 70
     1
102
RTVSPost2010Prop51ColorIndex
 90
      256
102
RTVSPost2010Prop51ColorRGB
 90
-16777216
102
RTVSPost2010PropOp51
 70
     0
102
RTVSPost2010Prop52
140
1.0
102
RTVSPost2010PropOp52
 70
     0
102
RTVSPost2010Prop53
 90
        2
102
RTVSPost2010PropOp53
 70
     1
102
RTVSPost2010Prop54
  1
strokes_ogs.tif
102
RTVSPost2010PropOp54
 70
     1
102
RTVSPost2010Prop55
280
     0
102
RTVSPost2010PropOp55
 70
     1
102
RTVSPost2010Prop56
140
1.0
102
RTVSPost2010PropOp56
 70
     1
102
RTVSPost2010Prop57
140
1.0
102
RTVSPost2010PropOp57
 70
     1
  0
XRECORD
  5
252
102
{ACAD_REACTORS
330
251
102
}
330
251
100
AcDbXrecord
280
     1
102
RTVSPropertyOp0
 70
     1
102
RTVSPropertyOp1
 70
     1
102
RTVSPropertyOp2
 70
     1
102
RTVSPropertyOp3
 70
     1
102
RTVSPropertyOp4
 70
     1
102
RTVSPropertyOp5
 70
     1
102
RTVSPropertyOp6
 70
     1
102
RTVSPropertyOp7
 70
     1
102
RTVSPropertyOp8
 70
     1
102
RTVSPropertyOp9
 70
     1
102
RTVSPropertyOp10
 70
     1
102
RTVSPropertyOp11
 70
     1
102
RTVSPropertyOp12
 70
     1
102
RTVSPropertyOp13
 70
     1
102
RTVSPropertyOp14
 70
     1
102
RTVSPropertyOp15
 70
     1
102
RTVSPropertyOp16
 70
     1
102
RTVSPropertyOp17
 70
     1
102
RTVSPropertyOp18
 70
     1
102
RTVSPropertyOp19
 70
     1
102
RTVSPropertyOp20
 70
     1
102
RTVSPropertyOp21
 70
     1
102
RTVSPropertyOp22
 70
     1
102
RTVSPropertyOp23
 70
     1
102
RTVSPropertyOp24
 70
     1
102
RTVSPropertyOp25
 70
     1
102
RTVSPropertyOp26
 70
     1
102
RTVSPropertyOp27
 70
     1
102
RTVSPropertyOp28
 70
     1
102
RTVSPropertyOp29
 70
     1
102
RTVSPropertyOp30
 70
     1
102
RTVSPropertyOp31
 70
     1
102
RTVSPropertyOp32
 70
     1
102
RTVSPropertyOp33
 70
     1
102
RTVSPropertyOp34
 70
     1
102
RTVSPropertyOp35
 70
     1
102
RTVSPropertyOp36
 70
     1
102
RTVSPropertyOp37
 70
     1
102
RTVSPropertyOp38
 70
     1
102
RTVSPropertyOp39
 70
     1
102
RTVSPropertyOp40
 70
     1
102
RTVSPropertyOp41
 70
     1
102
RTVSPropertyOp42
 70
     1
102
RTVSPropertyOp43
 70
     1
102
RTVSPropertyOp44
 70
     1
102
RTVSPropertyOp45
 70
     1
102
RTVSPropertyOp46
 70
     1
102
RTVSPropertyOp47
 70
     1
102
RTVSPropertyOp48
 70
     1
102
RTVSPropertyOp49
 70
     1
102
RTVSPropertyOp50
 70
     1
102
RTVSPropertyOp51
 70
     0
102
RTVSPropertyOp52
 70
     0
102
RTVSPropertyOp53
 70
     1
102
RTVSPropertyOp54
 70
     1
102
RTVSPropertyOp55
 70
     1
102
RTVSPropertyOp56
 70
     1
102
RTVSPropertyOp57
 70
     1
102
RTVSPost2010Prop28
280
     0
102
RTVSPost2010PropOp28
 70
     1
102
RTVSPost2010Prop29
280
     1
102
RTVSPost2010PropOp29
 70
     1
102
RTVSPost2010Prop30
280
     1
102
RTVSPost2010PropOp30
 70
     1
102
RTVSPost2010Prop31
280
     0
102
RTVSPost2010PropOp31
 70
     1
102
RTVSPost2010Prop32
280
     0
102
RTVSPost2010PropOp32
 70
     1
102
RTVSPost2010Prop33
280
     0
102
RTVSPost2010PropOp33
 70
     1
102
RTVSPost2010Prop34
280
     0
102
RTVSPost2010PropOp34
 70
     1
102
RTVSPost2010Prop35
280
     0
102
RTVSPost2010PropOp35
 70
     1
102
RTVSPost2010Prop36
280
     0
102
RTVSPost2010PropOp36
 70
     1
102
RTVSPost2010Prop37
 90
       50
102
RTVSPost2010PropOp37
 70
     1
102
RTVSPost2010Prop38
140
0.0
102
RTVSPost2010PropOp38
 70
     1
102
RTVSPost2010Prop39
140
1.0
102
RTVSPost2010PropOp39
 70
     1
102
RTVSPost2010Prop40
 90
        0
102
RTVSPost2010PropOp40
 70
     1
102
RTVSPost2010Prop41ColorIndex
 90
       18
102
RTVSPost2010Prop41ColorRGB
 90
        0
102
RTVSPost2010PropOp41
 70
     1
102
RTVSPost2010Prop42
 90
       50
102
RTVSPost2010PropOp42
 70
     1
102
RTVSPost2010Prop43
 90
        3
102
RTVSPost2010PropOp43
 70
     1
102
RTVSPost2010Prop44ColorIndex
 90
        5
102
RTVSPost2010Prop44ColorRGB
 90
      255
102
RTVSPost2010PropOp44
 70
     1
102
RTVSPost2010Prop45
280
     0
102
RTVSPost2010PropOp45
 70
     1
102
RTVSPost2010Prop46
 90
       50
102
RTVSPost2010PropOp46
 70
     1
102
RTVSPost2010Prop47
 90
       50
102
RTVSPost2010PropOp47
 70
     1
102
RTVSPost2010Prop48
 90
       50
102
RTVSPost2010PropOp48
 70
     1
102
RTVSPost2010Prop49
280
     0
102
RTVSPost2010PropOp49
 70
     1
102
RTVSPost2010Prop50
 90
       50
102
RTVSPost2010PropOp50
 70
     1
102
RTVSPost2010Prop51ColorIndex
 90
      256
102
RTVSPost2010Prop51ColorRGB
 90
-16777216
102
RTVSPost2010PropOp51
 70
     0
102
RTVSPost2010Prop52
140
1.0
102
RTVSPost2010PropOp52
 70
     0
102
RTVSPost2010Prop53
 90
        2
102
RTVSPost2010PropOp53
 70
     1
102
RTVSPost2010Prop54
  1
strokes_ogs.tif
102
RTVSPost2010PropOp54
 70
     1
102
RTVSPost2010Prop55
280
     0
102
RTVSPost2010PropOp55
 70
     1
102
RTVSPost2010Prop56
140
1.0
102
RTVSPost2010PropOp56
 70
     1
102
RTVSPost2010Prop57
140
1.0
102
RTVSPost2010PropOp57
 70
     1
  0
XRECORD
  5
262
102
{ACAD_REACTORS
330
261
102
}
330
261
100
AcDbXrecord
280
     1
102
RTVSPropertyOp0
 70
     0
102
RTVSPropertyOp1
 70
     0
102
RTVSPropertyOp2
 70
     0
102
RTVSPropertyOp3
 70
     0
102
RTVSPropertyOp4
 70
     0
102
RTVSPropertyOp5
 70
     0
102
RTVSPropertyOp6
 70
     0
102
RTVSPropertyOp7
 70
     0
102
RTVSPropertyOp8
 70
     0
102
RTVSPropertyOp9
 70
     0
102
RTVSPropertyOp10
 70
     0
102
RTVSPropertyOp11
 70
     0
102
RTVSPropertyOp12
 70
     0
102
RTVSPropertyOp13
 70
     0
102
RTVSPropertyOp14
 70
     2
102
RTVSPropertyOp15
 70
     0
102
RTVSPropertyOp16
 70
     0
102
RTVSPropertyOp17
 70
     0
102
RTVSPropertyOp18
 70
     0
102
RTVSPropertyOp19
 70
     0
102
RTVSPropertyOp20
 70
     0
102
RTVSPropertyOp21
 70
     0
102
RTVSPropertyOp22
 70
     0
102
RTVSPropertyOp23
 70
     0
102
RTVSPropertyOp24
 70
     0
102
RTVSPropertyOp25
 70
     0
102
RTVSPropertyOp26
 70
     0
102
RTVSPropertyOp27
 70
     0
102
RTVSPropertyOp28
 70
     0
102
RTVSPropertyOp29
 70
     0
102
RTVSPropertyOp30
 70
     0
102
RTVSPropertyOp31
 70
     0
102
RTVSPropertyOp32
 70
     0
102
RTVSPropertyOp33
 70
     0
102
RTVSPropertyOp34
 70
     0
102
RTVSPropertyOp35
 70
     0
102
RTVSPropertyOp36
 70
     0
102
RTVSPropertyOp37
 70
     0
102
RTVSPropertyOp38
 70
     0
102
RTVSPropertyOp39
 70
     0
102
RTVSPropertyOp40
 70
     0
102
RTVSPropertyOp41
 70
     0
102
RTVSPropertyOp42
 70
     0
102
RTVSPropertyOp43
 70
     0
102
RTVSPropertyOp44
 70
     0
102
RTVSPropertyOp45
 70
     0
102
RTVSPropertyOp46
 70
     0
102
RTVSPropertyOp47
 70
     0
102
RTVSPropertyOp48
 70
     0
102
RTVSPropertyOp49
 70
     0
102
RTVSPropertyOp50
 70
     0
102
RTVSPropertyOp51
 70
     0
102
RTVSPropertyOp52
 70
     0
102
RTVSPropertyOp53
 70
     0
102
RTVSPropertyOp54
 70
     0
102
RTVSPropertyOp55
 70
     0
102
RTVSPropertyOp56
 70
     0
102
RTVSPropertyOp57
 70
     0
102
RTVSPost2010Prop28
280
     0
102
RTVSPost2010PropOp28
 70
     0
102
RTVSPost2010Prop29
280
     1
102
RTVSPost2010PropOp29
 70
     0
102
RTVSPost2010Prop30
280
     1
102
RTVSPost2010PropOp30
 70
     0
102
RTVSPost2010Prop31
280
     0
102
RTVSPost2010PropOp31
 70
     0
102
RTVSPost2010Prop32
280
     0
102
RTVSPost2010PropOp32
 70
     0
102
RTVSPost2010Prop33
280
     0
102
RTVSPost2010PropOp33
 70
     0
102
RTVSPost2010Prop34
280
     0
102
RTVSPost2010PropOp34
 70
     0
102
RTVSPost2010Prop35
280
     0
102
RTVSPost2010PropOp35
 70
     0
102
RTVSPost2010Prop36
280
     0
102
RTVSPost2010PropOp36
 70
     0
102
RTVSPost2010Prop37
 90
       50
102
RTVSPost2010PropOp37
 70
     0
102
RTVSPost2010Prop38
140
0.0
102
RTVSPost2010PropOp38
 70
     0
102
RTVSPost2010Prop39
140
1.0
102
RTVSPost2010PropOp39
 70
     0
102
RTVSPost2010Prop40
 90
        0
102
RTVSPost2010PropOp40
 70
     0
102
RTVSPost2010Prop41ColorIndex
 90
       18
102
RTVSPost2010Prop41ColorRGB
 90
        0
102
RTVSPost2010PropOp41
 70
     0
102
RTVSPost2010Prop42
 90
       50
102
RTVSPost2010PropOp42
 70
     0
102
RTVSPost2010Prop43
 90
        3
102
RTVSPost2010PropOp43
 70
     0
102
RTVSPost2010Prop44ColorIndex
 90
        5
102
RTVSPost2010Prop44ColorRGB
 90
      255
102
RTVSPost2010PropOp44
 70
     0
102
RTVSPost2010Prop45
280
     0
102
RTVSPost2010PropOp45
 70
     0
102
RTVSPost2010Prop46
 90
       50
102
RTVSPost2010PropOp46
 70
     0
102
RTVSPost2010Prop47
 90
       50
102
RTVSPost2010PropOp47
 70
     0
102
RTVSPost2010Prop48
 90
       50
102
RTVSPost2010PropOp48
 70
     0
102
RTVSPost2010Prop49
280
     0
102
RTVSPost2010PropOp49
 70
     0
102
RTVSPost2010Prop50
 90
       50
102
RTVSPost2010PropOp50
 70
     0
102
RTVSPost2010Prop51ColorIndex
 90
      256
102
RTVSPost2010Prop51ColorRGB
 90
-16777216
102
RTVSPost2010PropOp51
 70
     0
102
RTVSPost2010Prop52
140
1.0
102
RTVSPost2010PropOp52
 70
     0
102
RTVSPost2010Prop53
 90
        2
102
RTVSPost2010PropOp53
 70
     0
102
RTVSPost2010Prop54
  1
strokes_ogs.tif
102
RTVSPost2010PropOp54
 70
     0
102
RTVSPost2010Prop55
280
     0
102
RTVSPost2010PropOp55
 70
     0
102
RTVSPost2010Prop56
140
1.0
102
RTVSPost2010PropOp56
 70
     0
102
RTVSPost2010Prop57
140
1.0
102
RTVSPost2010PropOp57
 70
     0
  0
XRECORD
  5
25A
102
{ACAD_REACTORS
330
259
102
}
330
259
100
AcDbXrecord
280
     1
102
RTVSPropertyOp0
 70
     1
102
RTVSPropertyOp1
 70
     1
102
RTVSPropertyOp2
 70
     1
102
RTVSPropertyOp3
 70
     1
102
RTVSPropertyOp4
 70
     1
102
RTVSPropertyOp5
 70
     1
102
RTVSPropertyOp6
 70
     1
102
RTVSPropertyOp7
 70
     1
102
RTVSPropertyOp8
 70
     1
102
RTVSPropertyOp9
 70
     1
102
RTVSPropertyOp10
 70
     1
102
RTVSPropertyOp11
 70
     1
102
RTVSPropertyOp12
 70
     1
102
RTVSPropertyOp13
 70
     1
102
RTVSPropertyOp14
 70
     1
102
RTVSPropertyOp15
 70
     1
102
RTVSPropertyOp16
 70
     1
102
RTVSPropertyOp17
 70
     1
102
RTVSPropertyOp18
 70
     1
102
RTVSPropertyOp19
 70
     1
102
RTVSPropertyOp20
 70
     1
102
RTVSPropertyOp21
 70
     1
102
RTVSPropertyOp22
 70
     1
102
RTVSPropertyOp23
 70
     1
102
RTVSPropertyOp24
 70
     1
102
RTVSPropertyOp25
 70
     1
102
RTVSPropertyOp26
 70
     1
102
RTVSPropertyOp27
 70
     1
102
RTVSPropertyOp28
 70
     1
102
RTVSPropertyOp29
 70
     1
102
RTVSPropertyOp30
 70
     1
102
RTVSPropertyOp31
 70
     1
102
RTVSPropertyOp32
 70
     1
102
RTVSPropertyOp33
 70
     1
102
RTVSPropertyOp34
 70
     1
102
RTVSPropertyOp35
 70
     1
102
RTVSPropertyOp36
 70
     1
102
RTVSPropertyOp37
 70
     1
102
RTVSPropertyOp38
 70
     1
102
RTVSPropertyOp39
 70
     1
102
RTVSPropertyOp40
 70
     1
102
RTVSPropertyOp41
 70
     1
102
RTVSPropertyOp42
 70
     1
102
RTVSPropertyOp43
 70
     1
102
RTVSPropertyOp44
 70
     1
102
RTVSPropertyOp45
 70
     1
102
RTVSPropertyOp46
 70
     1
102
RTVSPropertyOp47
 70
     1
102
RTVSPropertyOp48
 70
     1
102
RTVSPropertyOp49
 70
     1
102
RTVSPropertyOp50
 70
     1
102
RTVSPropertyOp51
 70
     0
102
RTVSPropertyOp52
 70
     0
102
RTVSPropertyOp53
 70
     1
102
RTVSPropertyOp54
 70
     1
102
RTVSPropertyOp55
 70
     1
102
RTVSPropertyOp56
 70
     1
102
RTVSPropertyOp57
 70
     1
102
RTVSPost2010Prop28
280
     0
102
RTVSPost2010PropOp28
 70
     1
102
RTVSPost2010Prop29
280
     1
102
RTVSPost2010PropOp29
 70
     1
102
RTVSPost2010Prop30
280
     1
102
RTVSPost2010PropOp30
 70
     1
102
RTVSPost2010Prop31
280
     0
102
RTVSPost2010PropOp31
 70
     1
102
RTVSPost2010Prop32
280
     0
102
RTVSPost2010PropOp32
 70
     1
102
RTVSPost2010Prop33
280
     0
102
RTVSPost2010PropOp33
 70
     1
102
RTVSPost2010Prop34
280
     0
102
RTVSPost2010PropOp34
 70
     1
102
RTVSPost2010Prop35
280
     0
102
RTVSPost2010PropOp35
 70
     1
102
RTVSPost2010Prop36
280
     0
102
RTVSPost2010PropOp36
 70
     1
102
RTVSPost2010Prop37
 90
       50
102
RTVSPost2010PropOp37
 70
     1
102
RTVSPost2010Prop38
140
0.0
102
RTVSPost2010PropOp38
 70
     1
102
RTVSPost2010Prop39
140
1.0
102
RTVSPost2010PropOp39
 70
     1
102
RTVSPost2010Prop40
 90
        0
102
RTVSPost2010PropOp40
 70
     1
102
RTVSPost2010Prop41ColorIndex
 90
       18
102
RTVSPost2010Prop41ColorRGB
 90
        0
102
RTVSPost2010PropOp41
 70
     1
102
RTVSPost2010Prop42
 90
       50
102
RTVSPost2010PropOp42
 70
     1
102
RTVSPost2010Prop43
 90
        3
102
RTVSPost2010PropOp43
 70
     1
102
RTVSPost2010Prop44ColorIndex
 90
        5
102
RTVSPost2010Prop44ColorRGB
 90
      255
102
RTVSPost2010PropOp44
 70
     1
102
RTVSPost2010Prop45
280
     0
102
RTVSPost2010PropOp45
 70
     1
102
RTVSPost2010Prop46
 90
       50
102
RTVSPost2010PropOp46
 70
     1
102
RTVSPost2010Prop47
 90
       50
102
RTVSPost2010PropOp47
 70
     1
102
RTVSPost2010Prop48
 90
       50
102
RTVSPost2010PropOp48
 70
     1
102
RTVSPost2010Prop49
280
     0
102
RTVSPost2010PropOp49
 70
     1
102
RTVSPost2010Prop50
 90
       50
102
RTVSPost2010PropOp50
 70
     1
102
RTVSPost2010Prop51ColorIndex
 90
      256
102
RTVSPost2010Prop51ColorRGB
 90
-16777216
102
RTVSPost2010PropOp51
 70
     0
102
RTVSPost2010Prop52
140
1.0
102
RTVSPost2010PropOp52
 70
     0
102
RTVSPost2010Prop53
 90
        2
102
RTVSPost2010PropOp53
 70
     1
102
RTVSPost2010Prop54
  1
strokes_ogs.tif
102
RTVSPost2010PropOp54
 70
     1
102
RTVSPost2010Prop55
280
     0
102
RTVSPost2010PropOp55
 70
     1
102
RTVSPost2010Prop56
140
1.0
102
RTVSPost2010PropOp56
 70
     1
102
RTVSPost2010Prop57
140
1.0
102
RTVSPost2010PropOp57
 70
     1
  0
XRECORD
  5
23E
102
{ACAD_REACTORS
330
23D
102
}
330
23D
100
AcDbXrecord
280
     1
102
RTVSPropertyOp0
 70
     1
102
RTVSPropertyOp1
 70
     1
102
RTVSPropertyOp2
 70
     1
102
RTVSPropertyOp3
 70
     1
102
RTVSPropertyOp4
 70
     1
102
RTVSPropertyOp5
 70
     1
102
RTVSPropertyOp6
 70
     1
102
RTVSPropertyOp7
 70
     1
102
RTVSPropertyOp8
 70
     1
102
RTVSPropertyOp9
 70
     1
102
RTVSPropertyOp10
 70
     1
102
RTVSPropertyOp11
 70
     1
102
RTVSPropertyOp12
 70
     1
102
RTVSPropertyOp13
 70
     1
102
RTVSPropertyOp14
 70
     1
102
RTVSPropertyOp15
 70
     1
102
RTVSPropertyOp16
 70
     1
102
RTVSPropertyOp17
 70
     1
102
RTVSPropertyOp18
 70
     1
102
RTVSPropertyOp19
 70
     1
102
RTVSPropertyOp20
 70
     1
102
RTVSPropertyOp21
 70
     1
102
RTVSPropertyOp22
 70
     1
102
RTVSPropertyOp23
 70
     1
102
RTVSPropertyOp24
 70
     1
102
RTVSPropertyOp25
 70
     1
102
RTVSPropertyOp26
 70
     1
102
RTVSPropertyOp27
 70
     1
102
RTVSPropertyOp28
 70
     1
102
RTVSPropertyOp29
 70
     1
102
RTVSPropertyOp30
 70
     1
102
RTVSPropertyOp31
 70
     1
102
RTVSPropertyOp32
 70
     1
102
RTVSPropertyOp33
 70
     1
102
RTVSPropertyOp34
 70
     1
102
RTVSPropertyOp35
 70
     1
102
RTVSPropertyOp36
 70
     1
102
RTVSPropertyOp37
 70
     1
102
RTVSPropertyOp38
 70
     1
102
RTVSPropertyOp39
 70
     1
102
RTVSPropertyOp40
 70
     1
102
RTVSPropertyOp41
 70
     1
102
RTVSPropertyOp42
 70
     1
102
RTVSPropertyOp43
 70
     1
102
RTVSPropertyOp44
 70
     1
102
RTVSPropertyOp45
 70
     1
102
RTVSPropertyOp46
 70
     1
102
RTVSPropertyOp47
 70
     1
102
RTVSPropertyOp48
 70
     1
102
RTVSPropertyOp49
 70
     1
102
RTVSPropertyOp50
 70
     1
102
RTVSPropertyOp51
 70
     0
102
RTVSPropertyOp52
 70
     0
102
RTVSPropertyOp53
 70
     1
102
RTVSPropertyOp54
 70
     1
102
RTVSPropertyOp55
 70
     1
102
RTVSPropertyOp56
 70
     1
102
RTVSPropertyOp57
 70
     1
102
RTVSPost2010Prop28
280
     0
102
RTVSPost2010PropOp28
 70
     1
102
RTVSPost2010Prop29
280
     1
102
RTVSPost2010PropOp29
 70
     1
102
RTVSPost2010Prop30
280
     1
102
RTVSPost2010PropOp30
 70
     1
102
RTVSPost2010Prop31
280
     0
102
RTVSPost2010PropOp31
 70
     1
102
RTVSPost2010Prop32
280
     0
102
RTVSPost2010PropOp32
 70
     1
102
RTVSPost2010Prop33
280
     0
102
RTVSPost2010PropOp33
 70
     1
102
RTVSPost2010Prop34
280
     0
102
RTVSPost2010PropOp34
 70
     1
102
RTVSPost2010Prop35
280
     0
102
RTVSPost2010PropOp35
 70
     1
102
RTVSPost2010Prop36
280
     0
102
RTVSPost2010PropOp36
 70
     1
102
RTVSPost2010Prop37
 90
       50
102
RTVSPost2010PropOp37
 70
     1
102
RTVSPost2010Prop38
140
0.0
102
RTVSPost2010PropOp38
 70
     1
102
RTVSPost2010Prop39
140
1.0
102
RTVSPost2010PropOp39
 70
     1
102
RTVSPost2010Prop40
 90
        0
102
RTVSPost2010PropOp40
 70
     1
102
RTVSPost2010Prop41ColorIndex
 90
       18
102
RTVSPost2010Prop41ColorRGB
 90
        0
102
RTVSPost2010PropOp41
 70
     1
102
RTVSPost2010Prop42
 90
       50
102
RTVSPost2010PropOp42
 70
     1
102
RTVSPost2010Prop43
 90
        3
102
RTVSPost2010PropOp43
 70
     1
102
RTVSPost2010Prop44ColorIndex
 90
        5
102
RTVSPost2010Prop44ColorRGB
 90
      255
102
RTVSPost2010PropOp44
 70
     1
102
RTVSPost2010Prop45
280
     0
102
RTVSPost2010PropOp45
 70
     1
102
RTVSPost2010Prop46
 90
       50
102
RTVSPost2010PropOp46
 70
     1
102
RTVSPost2010Prop47
 90
       50
102
RTVSPost2010PropOp47
 70
     1
102
RTVSPost2010Prop48
 90
       50
102
RTVSPost2010PropOp48
 70
     1
102
RTVSPost2010Prop49
280
     0
102
RTVSPost2010PropOp49
 70
     1
102
RTVSPost2010Prop50
 90
       50
102
RTVSPost2010PropOp50
 70
     1
102
RTVSPost2010Prop51ColorIndex
 90
      256
102
RTVSPost2010Prop51ColorRGB
 90
-16777216
102
RTVSPost2010PropOp51
 70
     0
102
RTVSPost2010Prop52
140
1.0
102
RTVSPost2010PropOp52
 70
     0
102
RTVSPost2010Prop53
 90
        2
102
RTVSPost2010PropOp53
 70
     1
102
RTVSPost2010Prop54
  1
strokes_ogs.tif
102
RTVSPost2010PropOp54
 70
     1
102
RTVSPost2010Prop55
280
     0
102
RTVSPost2010PropOp55
 70
     1
102
RTVSPost2010Prop56
140
1.0
102
RTVSPost2010PropOp56
 70
     1
102
RTVSPost2010Prop57
140
1.0
102
RTVSPost2010PropOp57
 70
     1
  0
XRECORD
  5
240
102
{ACAD_REACTORS
330
23F
102
}
330
23F
100
AcDbXrecord
280
     1
102
RTVSPropertyOp0
 70
     1
102
RTVSPropertyOp1
 70
     1
102
RTVSPropertyOp2
 70
     1
102
RTVSPropertyOp3
 70
     1
102
RTVSPropertyOp4
 70
     1
102
RTVSPropertyOp5
 70
     1
102
RTVSPropertyOp6
 70
     1
102
RTVSPropertyOp7
 70
     1
102
RTVSPropertyOp8
 70
     1
102
RTVSPropertyOp9
 70
     1
102
RTVSPropertyOp10
 70
     1
102
RTVSPropertyOp11
 70
     1
102
RTVSPropertyOp12
 70
     1
102
RTVSPropertyOp13
 70
     1
102
RTVSPropertyOp14
 70
     1
102
RTVSPropertyOp15
 70
     1
102
RTVSPropertyOp16
 70
     1
102
RTVSPropertyOp17
 70
     1
102
RTVSPropertyOp18
 70
     1
102
RTVSPropertyOp19
 70
     1
102
RTVSPropertyOp20
 70
     1
102
RTVSPropertyOp21
 70
     1
102
RTVSPropertyOp22
 70
     1
102
RTVSPropertyOp23
 70
     1
102
RTVSPropertyOp24
 70
     1
102
RTVSPropertyOp25
 70
     1
102
RTVSPropertyOp26
 70
     1
102
RTVSPropertyOp27
 70
     1
102
RTVSPropertyOp28
 70
     1
102
RTVSPropertyOp29
 70
     1
102
RTVSPropertyOp30
 70
     1
102
RTVSPropertyOp31
 70
     1
102
RTVSPropertyOp32
 70
     1
102
RTVSPropertyOp33
 70
     1
102
RTVSPropertyOp34
 70
     1
102
RTVSPropertyOp35
 70
     1
102
RTVSPropertyOp36
 70
     1
102
RTVSPropertyOp37
 70
     1
102
RTVSPropertyOp38
 70
     1
102
RTVSPropertyOp39
 70
     1
102
RTVSPropertyOp40
 70
     1
102
RTVSPropertyOp41
 70
     1
102
RTVSPropertyOp42
 70
     1
102
RTVSPropertyOp43
 70
     1
102
RTVSPropertyOp44
 70
     1
102
RTVSPropertyOp45
 70
     1
102
RTVSPropertyOp46
 70
     1
102
RTVSPropertyOp47
 70
     1
102
RTVSPropertyOp48
 70
     1
102
RTVSPropertyOp49
 70
     1
102
RTVSPropertyOp50
 70
     1
102
RTVSPropertyOp51
 70
     0
102
RTVSPropertyOp52
 70
     0
102
RTVSPropertyOp53
 70
     1
102
RTVSPropertyOp54
 70
     1
102
RTVSPropertyOp55
 70
     1
102
RTVSPropertyOp56
 70
     1
102
RTVSPropertyOp57
 70
     1
102
RTVSPost2010Prop28
280
     0
102
RTVSPost2010PropOp28
 70
     1
102
RTVSPost2010Prop29
280
     1
102
RTVSPost2010PropOp29
 70
     1
102
RTVSPost2010Prop30
280
     1
102
RTVSPost2010PropOp30
 70
     1
102
RTVSPost2010Prop31
280
     0
102
RTVSPost2010PropOp31
 70
     1
102
RTVSPost2010Prop32
280
     0
102
RTVSPost2010PropOp32
 70
     1
102
RTVSPost2010Prop33
280
     0
102
RTVSPost2010PropOp33
 70
     1
102
RTVSPost2010Prop34
280
     0
102
RTVSPost2010PropOp34
 70
     1
102
RTVSPost2010Prop35
280
     0
102
RTVSPost2010PropOp35
 70
     1
102
RTVSPost2010Prop36
280
     0
102
RTVSPost2010PropOp36
 70
     1
102
RTVSPost2010Prop37
 90
       50
102
RTVSPost2010PropOp37
 70
     1
102
RTVSPost2010Prop38
140
0.0
102
RTVSPost2010PropOp38
 70
     1
102
RTVSPost2010Prop39
140
1.0
102
RTVSPost2010PropOp39
 70
     1
102
RTVSPost2010Prop40
 90
        0
102
RTVSPost2010PropOp40
 70
     1
102
RTVSPost2010Prop41ColorIndex
 90
       18
102
RTVSPost2010Prop41ColorRGB
 90
        0
102
RTVSPost2010PropOp41
 70
     1
102
RTVSPost2010Prop42
 90
       50
102
RTVSPost2010PropOp42
 70
     1
102
RTVSPost2010Prop43
 90
        3
102
RTVSPost2010PropOp43
 70
     1
102
RTVSPost2010Prop44ColorIndex
 90
        5
102
RTVSPost2010Prop44ColorRGB
 90
      255
102
RTVSPost2010PropOp44
 70
     1
102
RTVSPost2010Prop45
280
     0
102
RTVSPost2010PropOp45
 70
     1
102
RTVSPost2010Prop46
 90
       50
102
RTVSPost2010PropOp46
 70
     1
102
RTVSPost2010Prop47
 90
       50
102
RTVSPost2010PropOp47
 70
     1
102
RTVSPost2010Prop48
 90
       50
102
RTVSPost2010PropOp48
 70
     1
102
RTVSPost2010Prop49
280
     0
102
RTVSPost2010PropOp49
 70
     1
102
RTVSPost2010Prop50
 90
       50
102
RTVSPost2010PropOp50
 70
     1
102
RTVSPost2010Prop51ColorIndex
 90
      256
102
RTVSPost2010Prop51ColorRGB
 90
-16777216
102
RTVSPost2010PropOp51
 70
     0
102
RTVSPost2010Prop52
140
1.0
102
RTVSPost2010PropOp52
 70
     0
102
RTVSPost2010Prop53
 90
        2
102
RTVSPost2010PropOp53
 70
     1
102
RTVSPost2010Prop54
  1
strokes_ogs.tif
102
RTVSPost2010PropOp54
 70
     1
102
RTVSPost2010Prop55
280
     0
102
RTVSPost2010PropOp55
 70
     1
102
RTVSPost2010Prop56
140
1.0
102
RTVSPost2010PropOp56
 70
     1
102
RTVSPost2010Prop57
140
1.0
102
RTVSPost2010PropOp57
 70
     1
  0
XRECORD
  5
242
102
{ACAD_REACTORS
330
241
102
}
330
241
100
AcDbXrecord
280
     1
102
RTVSPropertyOp0
 70
     1
102
RTVSPropertyOp1
 70
     1
102
RTVSPropertyOp2
 70
     1
102
RTVSPropertyOp3
 70
     1
102
RTVSPropertyOp4
 70
     1
102
RTVSPropertyOp5
 70
     1
102
RTVSPropertyOp6
 70
     1
102
RTVSPropertyOp7
 70
     1
102
RTVSPropertyOp8
 70
     1
102
RTVSPropertyOp9
 70
     1
102
RTVSPropertyOp10
 70
     1
102
RTVSPropertyOp11
 70
     1
102
RTVSPropertyOp12
 70
     1
102
RTVSPropertyOp13
 70
     1
102
RTVSPropertyOp14
 70
     1
102
RTVSPropertyOp15
 70
     1
102
RTVSPropertyOp16
 70
     1
102
RTVSPropertyOp17
 70
     1
102
RTVSPropertyOp18
 70
     1
102
RTVSPropertyOp19
 70
     1
102
RTVSPropertyOp20
 70
     1
102
RTVSPropertyOp21
 70
     1
102
RTVSPropertyOp22
 70
     1
102
RTVSPropertyOp23
 70
     1
102
RTVSPropertyOp24
 70
     1
102
RTVSPropertyOp25
 70
     1
102
RTVSPropertyOp26
 70
     1
102
RTVSPropertyOp27
 70
     1
102
RTVSPropertyOp28
 70
     1
102
RTVSPropertyOp29
 70
     1
102
RTVSPropertyOp30
 70
     1
102
RTVSPropertyOp31
 70
     1
102
RTVSPropertyOp32
 70
     1
102
RTVSPropertyOp33
 70
     1
102
RTVSPropertyOp34
 70
     1
102
RTVSPropertyOp35
 70
     1
102
RTVSPropertyOp36
 70
     1
102
RTVSPropertyOp37
 70
     1
102
RTVSPropertyOp38
 70
     1
102
RTVSPropertyOp39
 70
     1
102
RTVSPropertyOp40
 70
     1
102
RTVSPropertyOp41
 70
     1
102
RTVSPropertyOp42
 70
     1
102
RTVSPropertyOp43
 70
     1
102
RTVSPropertyOp44
 70
     1
102
RTVSPropertyOp45
 70
     1
102
RTVSPropertyOp46
 70
     1
102
RTVSPropertyOp47
 70
     1
102
RTVSPropertyOp48
 70
     1
102
RTVSPropertyOp49
 70
     1
102
RTVSPropertyOp50
 70
     1
102
RTVSPropertyOp51
 70
     0
102
RTVSPropertyOp52
 70
     0
102
RTVSPropertyOp53
 70
     1
102
RTVSPropertyOp54
 70
     1
102
RTVSPropertyOp55
 70
     1
102
RTVSPropertyOp56
 70
     1
102
RTVSPropertyOp57
 70
     1
102
RTVSPost2010Prop28
280
     0
102
RTVSPost2010PropOp28
 70
     1
102
RTVSPost2010Prop29
280
     1
102
RTVSPost2010PropOp29
 70
     1
102
RTVSPost2010Prop30
280
     1
102
RTVSPost2010PropOp30
 70
     1
102
RTVSPost2010Prop31
280
     0
102
RTVSPost2010PropOp31
 70
     1
102
RTVSPost2010Prop32
280
     0
102
RTVSPost2010PropOp32
 70
     1
102
RTVSPost2010Prop33
280
     0
102
RTVSPost2010PropOp33
 70
     1
102
RTVSPost2010Prop34
280
     0
102
RTVSPost2010PropOp34
 70
     1
102
RTVSPost2010Prop35
280
     0
102
RTVSPost2010PropOp35
 70
     1
102
RTVSPost2010Prop36
280
     0
102
RTVSPost2010PropOp36
 70
     1
102
RTVSPost2010Prop37
 90
       50
102
RTVSPost2010PropOp37
 70
     1
102
RTVSPost2010Prop38
140
0.0
102
RTVSPost2010PropOp38
 70
     1
102
RTVSPost2010Prop39
140
1.0
102
RTVSPost2010PropOp39
 70
     1
102
RTVSPost2010Prop40
 90
        0
102
RTVSPost2010PropOp40
 70
     1
102
RTVSPost2010Prop41ColorIndex
 90
       18
102
RTVSPost2010Prop41ColorRGB
 90
        0
102
RTVSPost2010PropOp41
 70
     1
102
RTVSPost2010Prop42
 90
       50
102
RTVSPost2010PropOp42
 70
     1
102
RTVSPost2010Prop43
 90
        3
102
RTVSPost2010PropOp43
 70
     1
102
RTVSPost2010Prop44ColorIndex
 90
        5
102
RTVSPost2010Prop44ColorRGB
 90
      255
102
RTVSPost2010PropOp44
 70
     1
102
RTVSPost2010Prop45
280
     0
102
RTVSPost2010PropOp45
 70
     1
102
RTVSPost2010Prop46
 90
       50
102
RTVSPost2010PropOp46
 70
     1
102
RTVSPost2010Prop47
 90
       50
102
RTVSPost2010PropOp47
 70
     1
102
RTVSPost2010Prop48
 90
       50
102
RTVSPost2010PropOp48
 70
     1
102
RTVSPost2010Prop49
280
     0
102
RTVSPost2010PropOp49
 70
     1
102
RTVSPost2010Prop50
 90
       50
102
RTVSPost2010PropOp50
 70
     1
102
RTVSPost2010Prop51ColorIndex
 90
      256
102
RTVSPost2010Prop51ColorRGB
 90
-16777216
102
RTVSPost2010PropOp51
 70
     0
102
RTVSPost2010Prop52
140
1.0
102
RTVSPost2010PropOp52
 70
     0
102
RTVSPost2010Prop53
 90
        2
102
RTVSPost2010PropOp53
 70
     1
102
RTVSPost2010Prop54
  1
strokes_ogs.tif
102
RTVSPost2010PropOp54
 70
     1
102
RTVSPost2010Prop55
280
     0
102
RTVSPost2010PropOp55
 70
     1
102
RTVSPost2010Prop56
140
1.0
102
RTVSPost2010PropOp56
 70
     1
102
RTVSPost2010Prop57
140
1.0
102
RTVSPost2010PropOp57
 70
     1
  0
XRECORD
  5
244
102
{ACAD_REACTORS
330
243
102
}
330
243
100
AcDbXrecord
280
     1
102
RTVSPropertyOp0
 70
     1
102
RTVSPropertyOp1
 70
     1
102
RTVSPropertyOp2
 70
     1
102
RTVSPropertyOp3
 70
     1
102
RTVSPropertyOp4
 70
     1
102
RTVSPropertyOp5
 70
     1
102
RTVSPropertyOp6
 70
     1
102
RTVSPropertyOp7
 70
     1
102
RTVSPropertyOp8
 70
     1
102
RTVSPropertyOp9
 70
     1
102
RTVSPropertyOp10
 70
     1
102
RTVSPropertyOp11
 70
     1
102
RTVSPropertyOp12
 70
     1
102
RTVSPropertyOp13
 70
     1
102
RTVSPropertyOp14
 70
     1
102
RTVSPropertyOp15
 70
     1
102
RTVSPropertyOp16
 70
     1
102
RTVSPropertyOp17
 70
     1
102
RTVSPropertyOp18
 70
     1
102
RTVSPropertyOp19
 70
     1
102
RTVSPropertyOp20
 70
     1
102
RTVSPropertyOp21
 70
     1
102
RTVSPropertyOp22
 70
     1
102
RTVSPropertyOp23
 70
     1
102
RTVSPropertyOp24
 70
     1
102
RTVSPropertyOp25
 70
     1
102
RTVSPropertyOp26
 70
     1
102
RTVSPropertyOp27
 70
     1
102
RTVSPropertyOp28
 70
     1
102
RTVSPropertyOp29
 70
     1
102
RTVSPropertyOp30
 70
     1
102
RTVSPropertyOp31
 70
     1
102
RTVSPropertyOp32
 70
     1
102
RTVSPropertyOp33
 70
     1
102
RTVSPropertyOp34
 70
     1
102
RTVSPropertyOp35
 70
     1
102
RTVSPropertyOp36
 70
     1
102
RTVSPropertyOp37
 70
     1
102
RTVSPropertyOp38
 70
     1
102
RTVSPropertyOp39
 70
     1
102
RTVSPropertyOp40
 70
     1
102
RTVSPropertyOp41
 70
     1
102
RTVSPropertyOp42
 70
     1
102
RTVSPropertyOp43
 70
     1
102
RTVSPropertyOp44
 70
     1
102
RTVSPropertyOp45
 70
     1
102
RTVSPropertyOp46
 70
     1
102
RTVSPropertyOp47
 70
     1
102
RTVSPropertyOp48
 70
     1
102
RTVSPropertyOp49
 70
     1
102
RTVSPropertyOp50
 70
     1
102
RTVSPropertyOp51
 70
     0
102
RTVSPropertyOp52
 70
     0
102
RTVSPropertyOp53
 70
     1
102
RTVSPropertyOp54
 70
     1
102
RTVSPropertyOp55
 70
     1
102
RTVSPropertyOp56
 70
     1
102
RTVSPropertyOp57
 70
     1
102
RTVSPost2010Prop28
280
     0
102
RTVSPost2010PropOp28
 70
     1
102
RTVSPost2010Prop29
280
     1
102
RTVSPost2010PropOp29
 70
     1
102
RTVSPost2010Prop30
280
     1
102
RTVSPost2010PropOp30
 70
     1
102
RTVSPost2010Prop31
280
     0
102
RTVSPost2010PropOp31
 70
     1
102
RTVSPost2010Prop32
280
     0
102
RTVSPost2010PropOp32
 70
     1
102
RTVSPost2010Prop33
280
     0
102
RTVSPost2010PropOp33
 70
     1
102
RTVSPost2010Prop34
280
     0
102
RTVSPost2010PropOp34
 70
     1
102
RTVSPost2010Prop35
280
     0
102
RTVSPost2010PropOp35
 70
     1
102
RTVSPost2010Prop36
280
     0
102
RTVSPost2010PropOp36
 70
     1
102
RTVSPost2010Prop37
 90
       50
102
RTVSPost2010PropOp37
 70
     1
102
RTVSPost2010Prop38
140
0.0
102
RTVSPost2010PropOp38
 70
     1
102
RTVSPost2010Prop39
140
1.0
102
RTVSPost2010PropOp39
 70
     1
102
RTVSPost2010Prop40
 90
        0
102
RTVSPost2010PropOp40
 70
     1
102
RTVSPost2010Prop41ColorIndex
 90
       18
102
RTVSPost2010Prop41ColorRGB
 90
        0
102
RTVSPost2010PropOp41
 70
     1
102
RTVSPost2010Prop42
 90
       50
102
RTVSPost2010PropOp42
 70
     1
102
RTVSPost2010Prop43
 90
        3
102
RTVSPost2010PropOp43
 70
     1
102
RTVSPost2010Prop44ColorIndex
 90
        5
102
RTVSPost2010Prop44ColorRGB
 90
      255
102
RTVSPost2010PropOp44
 70
     1
102
RTVSPost2010Prop45
280
     0
102
RTVSPost2010PropOp45
 70
     1
102
RTVSPost2010Prop46
 90
       50
102
RTVSPost2010PropOp46
 70
     1
102
RTVSPost2010Prop47
 90
       50
102
RTVSPost2010PropOp47
 70
     1
102
RTVSPost2010Prop48
 90
       50
102
RTVSPost2010PropOp48
 70
     1
102
RTVSPost2010Prop49
280
     0
102
RTVSPost2010PropOp49
 70
     1
102
RTVSPost2010Prop50
 90
       50
102
RTVSPost2010PropOp50
 70
     1
102
RTVSPost2010Prop51ColorIndex
 90
      256
102
RTVSPost2010Prop51ColorRGB
 90
-16777216
102
RTVSPost2010PropOp51
 70
     0
102
RTVSPost2010Prop52
140
1.0
102
RTVSPost2010PropOp52
 70
     0
102
RTVSPost2010Prop53
 90
        2
102
RTVSPost2010PropOp53
 70
     1
102
RTVSPost2010Prop54
  1
strokes_ogs.tif
102
RTVSPost2010PropOp54
 70
     1
102
RTVSPost2010Prop55
280
     0
102
RTVSPost2010PropOp55
 70
     1
102
RTVSPost2010Prop56
140
1.0
102
RTVSPost2010PropOp56
 70
     1
102
RTVSPost2010Prop57
140
1.0
102
RTVSPost2010PropOp57
 70
     1
  0
XRECORD
  5
24A
102
{ACAD_REACTORS
330
249
102
}
330
249
100
AcDbXrecord
280
     1
102
RTVSPropertyOp0
 70
     1
102
RTVSPropertyOp1
 70
     1
102
RTVSPropertyOp2
 70
     1
102
RTVSPropertyOp3
 70
     1
102
RTVSPropertyOp4
 70
     1
102
RTVSPropertyOp5
 70
     1
102
RTVSPropertyOp6
 70
     1
102
RTVSPropertyOp7
 70
     1
102
RTVSPropertyOp8
 70
     1
102
RTVSPropertyOp9
 70
     1
102
RTVSPropertyOp10
 70
     1
102
RTVSPropertyOp11
 70
     1
102
RTVSPropertyOp12
 70
     1
102
RTVSPropertyOp13
 70
     1
102
RTVSPropertyOp14
 70
     1
102
RTVSPropertyOp15
 70
     1
102
RTVSPropertyOp16
 70
     1
102
RTVSPropertyOp17
 70
     1
102
RTVSPropertyOp18
 70
     1
102
RTVSPropertyOp19
 70
     1
102
RTVSPropertyOp20
 70
     1
102
RTVSPropertyOp21
 70
     1
102
RTVSPropertyOp22
 70
     1
102
RTVSPropertyOp23
 70
     1
102
RTVSPropertyOp24
 70
     1
102
RTVSPropertyOp25
 70
     1
102
RTVSPropertyOp26
 70
     1
102
RTVSPropertyOp27
 70
     1
102
RTVSPropertyOp28
 70
     1
102
RTVSPropertyOp29
 70
     1
102
RTVSPropertyOp30
 70
     1
102
RTVSPropertyOp31
 70
     1
102
RTVSPropertyOp32
 70
     1
102
RTVSPropertyOp33
 70
     1
102
RTVSPropertyOp34
 70
     1
102
RTVSPropertyOp35
 70
     1
102
RTVSPropertyOp36
 70
     1
102
RTVSPropertyOp37
 70
     1
102
RTVSPropertyOp38
 70
     1
102
RTVSPropertyOp39
 70
     1
102
RTVSPropertyOp40
 70
     1
102
RTVSPropertyOp41
 70
     1
102
RTVSPropertyOp42
 70
     1
102
RTVSPropertyOp43
 70
     1
102
RTVSPropertyOp44
 70
     1
102
RTVSPropertyOp45
 70
     1
102
RTVSPropertyOp46
 70
     1
102
RTVSPropertyOp47
 70
     1
102
RTVSPropertyOp48
 70
     1
102
RTVSPropertyOp49
 70
     1
102
RTVSPropertyOp50
 70
     1
102
RTVSPropertyOp51
 70
     0
102
RTVSPropertyOp52
 70
     0
102
RTVSPropertyOp53
 70
     1
102
RTVSPropertyOp54
 70
     1
102
RTVSPropertyOp55
 70
     1
102
RTVSPropertyOp56
 70
     1
102
RTVSPropertyOp57
 70
     1
102
RTVSPost2010Prop28
280
     0
102
RTVSPost2010PropOp28
 70
     1
102
RTVSPost2010Prop29
280
     1
102
RTVSPost2010PropOp29
 70
     1
102
RTVSPost2010Prop30
280
     1
102
RTVSPost2010PropOp30
 70
     1
102
RTVSPost2010Prop31
280
     0
102
RTVSPost2010PropOp31
 70
     1
102
RTVSPost2010Prop32
280
     0
102
RTVSPost2010PropOp32
 70
     1
102
RTVSPost2010Prop33
280
     0
102
RTVSPost2010PropOp33
 70
     1
102
RTVSPost2010Prop34
280
     0
102
RTVSPost2010PropOp34
 70
     1
102
RTVSPost2010Prop35
280
     0
102
RTVSPost2010PropOp35
 70
     1
102
RTVSPost2010Prop36
280
     0
102
RTVSPost2010PropOp36
 70
     1
102
RTVSPost2010Prop37
 90
       50
102
RTVSPost2010PropOp37
 70
     1
102
RTVSPost2010Prop38
140
0.0
102
RTVSPost2010PropOp38
 70
     1
102
RTVSPost2010Prop39
140
1.0
102
RTVSPost2010PropOp39
 70
     1
102
RTVSPost2010Prop40
 90
        0
102
RTVSPost2010PropOp40
 70
     1
102
RTVSPost2010Prop41ColorIndex
 90
       18
102
RTVSPost2010Prop41ColorRGB
 90
        0
102
RTVSPost2010PropOp41
 70
     1
102
RTVSPost2010Prop42
 90
       50
102
RTVSPost2010PropOp42
 70
     1
102
RTVSPost2010Prop43
 90
        3
102
RTVSPost2010PropOp43
 70
     1
102
RTVSPost2010Prop44ColorIndex
 90
        5
102
RTVSPost2010Prop44ColorRGB
 90
      255
102
RTVSPost2010PropOp44
 70
     1
102
RTVSPost2010Prop45
280
     0
102
RTVSPost2010PropOp45
 70
     1
102
RTVSPost2010Prop46
 90
       50
102
RTVSPost2010PropOp46
 70
     1
102
RTVSPost2010Prop47
 90
       50
102
RTVSPost2010PropOp47
 70
     1
102
RTVSPost2010Prop48
 90
       50
102
RTVSPost2010PropOp48
 70
     1
102
RTVSPost2010Prop49
280
     0
102
RTVSPost2010PropOp49
 70
     1
102
RTVSPost2010Prop50
 90
       50
102
RTVSPost2010PropOp50
 70
     1
102
RTVSPost2010Prop51ColorIndex
 90
      256
102
RTVSPost2010Prop51ColorRGB
 90
-16777216
102
RTVSPost2010PropOp51
 70
     0
102
RTVSPost2010Prop52
140
1.0
102
RTVSPost2010PropOp52
 70
     0
102
RTVSPost2010Prop53
 90
        2
102
RTVSPost2010PropOp53
 70
     1
102
RTVSPost2010Prop54
  1
strokes_ogs.tif
102
RTVSPost2010PropOp54
 70
     1
102
RTVSPost2010Prop55
280
     0
102
RTVSPost2010PropOp55
 70
     1
102
RTVSPost2010Prop56
140
1.0
102
RTVSPost2010PropOp56
 70
     1
102
RTVSPost2010Prop57
140
1.0
102
RTVSPost2010PropOp57
 70
     1
  0
XRECORD
  5
25E
102
{ACAD_REACTORS
330
25D
102
}
330
25D
100
AcDbXrecord
280
     1
102
RTVSPropertyOp0
 70
     0
102
RTVSPropertyOp1
 70
     0
102
RTVSPropertyOp2
 70
     0
102
RTVSPropertyOp3
 70
     0
102
RTVSPropertyOp4
 70
     0
102
RTVSPropertyOp5
 70
     0
102
RTVSPropertyOp6
 70
     0
102
RTVSPropertyOp7
 70
     0
102
RTVSPropertyOp8
 70
     0
102
RTVSPropertyOp9
 70
     0
102
RTVSPropertyOp10
 70
     0
102
RTVSPropertyOp11
 70
     0
102
RTVSPropertyOp12
 70
     0
102
RTVSPropertyOp13
 70
     0
102
RTVSPropertyOp14
 70
     2
102
RTVSPropertyOp15
 70
     0
102
RTVSPropertyOp16
 70
     0
102
RTVSPropertyOp17
 70
     0
102
RTVSPropertyOp18
 70
     0
102
RTVSPropertyOp19
 70
     0
102
RTVSPropertyOp20
 70
     0
102
RTVSPropertyOp21
 70
     0
102
RTVSPropertyOp22
 70
     0
102
RTVSPropertyOp23
 70
     0
102
RTVSPropertyOp24
 70
     0
102
RTVSPropertyOp25
 70
     0
102
RTVSPropertyOp26
 70
     0
102
RTVSPropertyOp27
 70
     0
102
RTVSPropertyOp28
 70
     0
102
RTVSPropertyOp29
 70
     0
102
RTVSPropertyOp30
 70
     0
102
RTVSPropertyOp31
 70
     0
102
RTVSPropertyOp32
 70
     0
102
RTVSPropertyOp33
 70
     0
102
RTVSPropertyOp34
 70
     0
102
RTVSPropertyOp35
 70
     0
102
RTVSPropertyOp36
 70
     0
102
RTVSPropertyOp37
 70
     0
102
RTVSPropertyOp38
 70
     0
102
RTVSPropertyOp39
 70
     0
102
RTVSPropertyOp40
 70
     0
102
RTVSPropertyOp41
 70
     0
102
RTVSPropertyOp42
 70
     0
102
RTVSPropertyOp43
 70
     0
102
RTVSPropertyOp44
 70
     0
102
RTVSPropertyOp45
 70
     0
102
RTVSPropertyOp46
 70
     0
102
RTVSPropertyOp47
 70
     0
102
RTVSPropertyOp48
 70
     0
102
RTVSPropertyOp49
 70
     0
102
RTVSPropertyOp50
 70
     0
102
RTVSPropertyOp51
 70
     0
102
RTVSPropertyOp52
 70
     0
102
RTVSPropertyOp53
 70
     0
102
RTVSPropertyOp54
 70
     0
102
RTVSPropertyOp55
 70
     0
102
RTVSPropertyOp56
 70
     0
102
RTVSPropertyOp57
 70
     0
102
RTVSPost2010Prop28
280
     0
102
RTVSPost2010PropOp28
 70
     0
102
RTVSPost2010Prop29
280
     1
102
RTVSPost2010PropOp29
 70
     0
102
RTVSPost2010Prop30
280
     1
102
RTVSPost2010PropOp30
 70
     0
102
RTVSPost2010Prop31
280
     0
102
RTVSPost2010PropOp31
 70
     0
102
RTVSPost2010Prop32
280
     0
102
RTVSPost2010PropOp32
 70
     0
102
RTVSPost2010Prop33
280
     0
102
RTVSPost2010PropOp33
 70
     0
102
RTVSPost2010Prop34
280
     0
102
RTVSPost2010PropOp34
 70
     0
102
RTVSPost2010Prop35
280
     0
102
RTVSPost2010PropOp35
 70
     0
102
RTVSPost2010Prop36
280
     0
102
RTVSPost2010PropOp36
 70
     0
102
RTVSPost2010Prop37
 90
       50
102
RTVSPost2010PropOp37
 70
     0
102
RTVSPost2010Prop38
140
0.0
102
RTVSPost2010PropOp38
 70
     0
102
RTVSPost2010Prop39
140
1.0
102
RTVSPost2010PropOp39
 70
     0
102
RTVSPost2010Prop40
 90
        0
102
RTVSPost2010PropOp40
 70
     0
102
RTVSPost2010Prop41ColorIndex
 90
       18
102
RTVSPost2010Prop41ColorRGB
 90
        0
102
RTVSPost2010PropOp41
 70
     0
102
RTVSPost2010Prop42
 90
       50
102
RTVSPost2010PropOp42
 70
     0
102
RTVSPost2010Prop43
 90
        3
102
RTVSPost2010PropOp43
 70
     0
102
RTVSPost2010Prop44ColorIndex
 90
        5
102
RTVSPost2010Prop44ColorRGB
 90
      255
102
RTVSPost2010PropOp44
 70
     0
102
RTVSPost2010Prop45
280
     0
102
RTVSPost2010PropOp45
 70
     0
102
RTVSPost2010Prop46
 90
       50
102
RTVSPost2010PropOp46
 70
     0
102
RTVSPost2010Prop47
 90
       50
102
RTVSPost2010PropOp47
 70
     0
102
RTVSPost2010Prop48
 90
       50
102
RTVSPost2010PropOp48
 70
     0
102
RTVSPost2010Prop49
280
     0
102
RTVSPost2010PropOp49
 70
     0
102
RTVSPost2010Prop50
 90
       50
102
RTVSPost2010PropOp50
 70
     0
102
RTVSPost2010Prop51ColorIndex
 90
      256
102
RTVSPost2010Prop51ColorRGB
 90
-16777216
102
RTVSPost2010PropOp51
 70
     0
102
RTVSPost2010Prop52
140
1.0
102
RTVSPost2010PropOp52
 70
     0
102
RTVSPost2010Prop53
 90
        2
102
RTVSPost2010PropOp53
 70
     0
102
RTVSPost2010Prop54
  1
strokes_ogs.tif
102
RTVSPost2010PropOp54
 70
     0
102
RTVSPost2010Prop55
280
     0
102
RTVSPost2010PropOp55
 70
     0
102
RTVSPost2010Prop56
140
1.0
102
RTVSPost2010PropOp56
 70
     0
102
RTVSPost2010Prop57
140
1.0
102
RTVSPost2010PropOp57
 70
     0
  0
XRECORD
  5
258
102
{ACAD_REACTORS
330
257
102
}
330
257
100
AcDbXrecord
280
     1
102
RTVSPropertyOp0
 70
     1
102
RTVSPropertyOp1
 70
     1
102
RTVSPropertyOp2
 70
     1
102
RTVSPropertyOp3
 70
     1
102
RTVSPropertyOp4
 70
     1
102
RTVSPropertyOp5
 70
     1
102
RTVSPropertyOp6
 70
     1
102
RTVSPropertyOp7
 70
     1
102
RTVSPropertyOp8
 70
     1
102
RTVSPropertyOp9
 70
     1
102
RTVSPropertyOp10
 70
     1
102
RTVSPropertyOp11
 70
     1
102
RTVSPropertyOp12
 70
     1
102
RTVSPropertyOp13
 70
     1
102
RTVSPropertyOp14
 70
     1
102
RTVSPropertyOp15
 70
     1
102
RTVSPropertyOp16
 70
     1
102
RTVSPropertyOp17
 70
     1
102
RTVSPropertyOp18
 70
     1
102
RTVSPropertyOp19
 70
     1
102
RTVSPropertyOp20
 70
     1
102
RTVSPropertyOp21
 70
     1
102
RTVSPropertyOp22
 70
     1
102
RTVSPropertyOp23
 70
     1
102
RTVSPropertyOp24
 70
     1
102
RTVSPropertyOp25
 70
     1
102
RTVSPropertyOp26
 70
     1
102
RTVSPropertyOp27
 70
     1
102
RTVSPropertyOp28
 70
     1
102
RTVSPropertyOp29
 70
     1
102
RTVSPropertyOp30
 70
     1
102
RTVSPropertyOp31
 70
     1
102
RTVSPropertyOp32
 70
     1
102
RTVSPropertyOp33
 70
     1
102
RTVSPropertyOp34
 70
     1
102
RTVSPropertyOp35
 70
     1
102
RTVSPropertyOp36
 70
     1
102
RTVSPropertyOp37
 70
     1
102
RTVSPropertyOp38
 70
     1
102
RTVSPropertyOp39
 70
     1
102
RTVSPropertyOp40
 70
     1
102
RTVSPropertyOp41
 70
     1
102
RTVSPropertyOp42
 70
     1
102
RTVSPropertyOp43
 70
     1
102
RTVSPropertyOp44
 70
     1
102
RTVSPropertyOp45
 70
     1
102
RTVSPropertyOp46
 70
     1
102
RTVSPropertyOp47
 70
     1
102
RTVSPropertyOp48
 70
     1
102
RTVSPropertyOp49
 70
     1
102
RTVSPropertyOp50
 70
     1
102
RTVSPropertyOp51
 70
     0
102
RTVSPropertyOp52
 70
     0
102
RTVSPropertyOp53
 70
     1
102
RTVSPropertyOp54
 70
     1
102
RTVSPropertyOp55
 70
     1
102
RTVSPropertyOp56
 70
     1
102
RTVSPropertyOp57
 70
     1
102
RTVSPost2010Prop28
280
     0
102
RTVSPost2010PropOp28
 70
     1
102
RTVSPost2010Prop29
280
     1
102
RTVSPost2010PropOp29
 70
     1
102
RTVSPost2010Prop30
280
     1
102
RTVSPost2010PropOp30
 70
     1
102
RTVSPost2010Prop31
280
     0
102
RTVSPost2010PropOp31
 70
     1
102
RTVSPost2010Prop32
280
     0
102
RTVSPost2010PropOp32
 70
     1
102
RTVSPost2010Prop33
280
     0
102
RTVSPost2010PropOp33
 70
     1
102
RTVSPost2010Prop34
280
     0
102
RTVSPost2010PropOp34
 70
     1
102
RTVSPost2010Prop35
280
     0
102
RTVSPost2010PropOp35
 70
     1
102
RTVSPost2010Prop36
280
     0
102
RTVSPost2010PropOp36
 70
     1
102
RTVSPost2010Prop37
 90
       50
102
RTVSPost2010PropOp37
 70
     1
102
RTVSPost2010Prop38
140
0.0
102
RTVSPost2010PropOp38
 70
     1
102
RTVSPost2010Prop39
140
1.0
102
RTVSPost2010PropOp39
 70
     1
102
RTVSPost2010Prop40
 90
        0
102
RTVSPost2010PropOp40
 70
     1
102
RTVSPost2010Prop41ColorIndex
 90
       18
102
RTVSPost2010Prop41ColorRGB
 90
        0
102
RTVSPost2010PropOp41
 70
     1
102
RTVSPost2010Prop42
 90
       50
102
RTVSPost2010PropOp42
 70
     1
102
RTVSPost2010Prop43
 90
        3
102
RTVSPost2010PropOp43
 70
     1
102
RTVSPost2010Prop44ColorIndex
 90
        5
102
RTVSPost2010Prop44ColorRGB
 90
      255
102
RTVSPost2010PropOp44
 70
     1
102
RTVSPost2010Prop45
280
     0
102
RTVSPost2010PropOp45
 70
     1
102
RTVSPost2010Prop46
 90
       50
102
RTVSPost2010PropOp46
 70
     1
102
RTVSPost2010Prop47
 90
       50
102
RTVSPost2010PropOp47
 70
     1
102
RTVSPost2010Prop48
 90
       50
102
RTVSPost2010PropOp48
 70
     1
102
RTVSPost2010Prop49
280
     0
102
RTVSPost2010PropOp49
 70
     1
102
RTVSPost2010Prop50
 90
       50
102
RTVSPost2010PropOp50
 70
     1
102
RTVSPost2010Prop51ColorIndex
 90
      256
102
RTVSPost2010Prop51ColorRGB
 90
-16777216
102
RTVSPost2010PropOp51
 70
     0
102
RTVSPost2010Prop52
140
1.0
102
RTVSPost2010PropOp52
 70
     0
102
RTVSPost2010Prop53
 90
        2
102
RTVSPost2010PropOp53
 70
     1
102
RTVSPost2010Prop54
  1
strokes_ogs.tif
102
RTVSPost2010PropOp54
 70
     1
102
RTVSPost2010Prop55
280
     0
102
RTVSPost2010PropOp55
 70
     1
102
RTVSPost2010Prop56
140
1.0
102
RTVSPost2010PropOp56
 70
     1
102
RTVSPost2010Prop57
140
1.0
102
RTVSPost2010PropOp57
 70
     1
  0
XRECORD
  5
260
102
{ACAD_REACTORS
330
25F
102
}
330
25F
100
AcDbXrecord
280
     1
102
RTVSPropertyOp0
 70
     0
102
RTVSPropertyOp1
 70
     0
102
RTVSPropertyOp2
 70
     0
102
RTVSPropertyOp3
 70
     0
102
RTVSPropertyOp4
 70
     0
102
RTVSPropertyOp5
 70
     0
102
RTVSPropertyOp6
 70
     0
102
RTVSPropertyOp7
 70
     0
102
RTVSPropertyOp8
 70
     0
102
RTVSPropertyOp9
 70
     0
102
RTVSPropertyOp10
 70
     0
102
RTVSPropertyOp11
 70
     0
102
RTVSPropertyOp12
 70
     0
102
RTVSPropertyOp13
 70
     0
102
RTVSPropertyOp14
 70
     2
102
RTVSPropertyOp15
 70
     0
102
RTVSPropertyOp16
 70
     0
102
RTVSPropertyOp17
 70
     0
102
RTVSPropertyOp18
 70
     0
102
RTVSPropertyOp19
 70
     0
102
RTVSPropertyOp20
 70
     0
102
RTVSPropertyOp21
 70
     0
102
RTVSPropertyOp22
 70
     0
102
RTVSPropertyOp23
 70
     0
102
RTVSPropertyOp24
 70
     0
102
RTVSPropertyOp25
 70
     0
102
RTVSPropertyOp26
 70
     0
102
RTVSPropertyOp27
 70
     0
102
RTVSPropertyOp28
 70
     0
102
RTVSPropertyOp29
 70
     0
102
RTVSPropertyOp30
 70
     0
102
RTVSPropertyOp31
 70
     0
102
RTVSPropertyOp32
 70
     0
102
RTVSPropertyOp33
 70
     0
102
RTVSPropertyOp34
 70
     0
102
RTVSPropertyOp35
 70
     0
102
RTVSPropertyOp36
 70
     0
102
RTVSPropertyOp37
 70
     0
102
RTVSPropertyOp38
 70
     0
102
RTVSPropertyOp39
 70
     0
102
RTVSPropertyOp40
 70
     0
102
RTVSPropertyOp41
 70
     0
102
RTVSPropertyOp42
 70
     0
102
RTVSPropertyOp43
 70
     0
102
RTVSPropertyOp44
 70
     0
102
RTVSPropertyOp45
 70
     0
102
RTVSPropertyOp46
 70
     0
102
RTVSPropertyOp47
 70
     0
102
RTVSPropertyOp48
 70
     0
102
RTVSPropertyOp49
 70
     0
102
RTVSPropertyOp50
 70
     0
102
RTVSPropertyOp51
 70
     0
102
RTVSPropertyOp52
 70
     0
102
RTVSPropertyOp53
 70
     0
102
RTVSPropertyOp54
 70
     0
102
RTVSPropertyOp55
 70
     0
102
RTVSPropertyOp56
 70
     0
102
RTVSPropertyOp57
 70
     0
102
RTVSPost2010Prop28
280
     0
102
RTVSPost2010PropOp28
 70
     0
102
RTVSPost2010Prop29
280
     1
102
RTVSPost2010PropOp29
 70
     0
102
RTVSPost2010Prop30
280
     1
102
RTVSPost2010PropOp30
 70
     0
102
RTVSPost2010Prop31
280
     0
102
RTVSPost2010PropOp31
 70
     0
102
RTVSPost2010Prop32
280
     0
102
RTVSPost2010PropOp32
 70
     0
102
RTVSPost2010Prop33
280
     0
102
RTVSPost2010PropOp33
 70
     0
102
RTVSPost2010Prop34
280
     0
102
RTVSPost2010PropOp34
 70
     0
102
RTVSPost2010Prop35
280
     0
102
RTVSPost2010PropOp35
 70
     0
102
RTVSPost2010Prop36
280
     0
102
RTVSPost2010PropOp36
 70
     0
102
RTVSPost2010Prop37
 90
       50
102
RTVSPost2010PropOp37
 70
     0
102
RTVSPost2010Prop38
140
0.0
102
RTVSPost2010PropOp38
 70
     0
102
RTVSPost2010Prop39
140
1.0
102
RTVSPost2010PropOp39
 70
     0
102
RTVSPost2010Prop40
 90
        0
102
RTVSPost2010PropOp40
 70
     0
102
RTVSPost2010Prop41ColorIndex
 90
       18
102
RTVSPost2010Prop41ColorRGB
 90
        0
102
RTVSPost2010PropOp41
 70
     0
102
RTVSPost2010Prop42
 90
       50
102
RTVSPost2010PropOp42
 70
     0
102
RTVSPost2010Prop43
 90
        3
102
RTVSPost2010PropOp43
 70
     0
102
RTVSPost2010Prop44ColorIndex
 90
        5
102
RTVSPost2010Prop44ColorRGB
 90
      255
102
RTVSPost2010PropOp44
 70
     0
102
RTVSPost2010Prop45
280
     0
102
RTVSPost2010PropOp45
 70
     0
102
RTVSPost2010Prop46
 90
       50
102
RTVSPost2010PropOp46
 70
     0
102
RTVSPost2010Prop47
 90
       50
102
RTVSPost2010PropOp47
 70
     0
102
RTVSPost2010Prop48
 90
       50
102
RTVSPost2010PropOp48
 70
     0
102
RTVSPost2010Prop49
280
     0
102
RTVSPost2010PropOp49
 70
     0
102
RTVSPost2010Prop50
 90
       50
102
RTVSPost2010PropOp50
 70
     0
102
RTVSPost2010Prop51ColorIndex
 90
      256
102
RTVSPost2010Prop51ColorRGB
 90
-16777216
102
RTVSPost2010PropOp51
 70
     0
102
RTVSPost2010Prop52
140
1.0
102
RTVSPost2010PropOp52
 70
     0
102
RTVSPost2010Prop53
 90
        2
102
RTVSPost2010PropOp53
 70
     0
102
RTVSPost2010Prop54
  1
strokes_ogs.tif
102
RTVSPost2010PropOp54
 70
     0
102
RTVSPost2010Prop55
280
     0
102
RTVSPost2010PropOp55
 70
     0
102
RTVSPost2010Prop56
140
1.0
102
RTVSPost2010PropOp56
 70
     0
102
RTVSPost2010Prop57
140
1.0
102
RTVSPost2010PropOp57
 70
     0
  0
XRECORD
  5
24E
102
{ACAD_REACTORS
330
24D
102
}
330
24D
100
AcDbXrecord
280
     1
102
RTVSPropertyOp0
 70
     1
102
RTVSPropertyOp1
 70
     1
102
RTVSPropertyOp2
 70
     1
102
RTVSPropertyOp3
 70
     1
102
RTVSPropertyOp4
 70
     1
102
RTVSPropertyOp5
 70
     1
102
RTVSPropertyOp6
 70
     1
102
RTVSPropertyOp7
 70
     1
102
RTVSPropertyOp8
 70
     1
102
RTVSPropertyOp9
 70
     1
102
RTVSPropertyOp10
 70
     1
102
RTVSPropertyOp11
 70
     1
102
RTVSPropertyOp12
 70
     1
102
RTVSPropertyOp13
 70
     1
102
RTVSPropertyOp14
 70
     1
102
RTVSPropertyOp15
 70
     1
102
RTVSPropertyOp16
 70
     1
102
RTVSPropertyOp17
 70
     1
102
RTVSPropertyOp18
 70
     1
102
RTVSPropertyOp19
 70
     1
102
RTVSPropertyOp20
 70
     1
102
RTVSPropertyOp21
 70
     1
102
RTVSPropertyOp22
 70
     1
102
RTVSPropertyOp23
 70
     1
102
RTVSPropertyOp24
 70
     1
102
RTVSPropertyOp25
 70
     1
102
RTVSPropertyOp26
 70
     1
102
RTVSPropertyOp27
 70
     1
102
RTVSPropertyOp28
 70
     1
102
RTVSPropertyOp29
 70
     1
102
RTVSPropertyOp30
 70
     1
102
RTVSPropertyOp31
 70
     1
102
RTVSPropertyOp32
 70
     1
102
RTVSPropertyOp33
 70
     1
102
RTVSPropertyOp34
 70
     1
102
RTVSPropertyOp35
 70
     1
102
RTVSPropertyOp36
 70
     1
102
RTVSPropertyOp37
 70
     1
102
RTVSPropertyOp38
 70
     1
102
RTVSPropertyOp39
 70
     1
102
RTVSPropertyOp40
 70
     1
102
RTVSPropertyOp41
 70
     1
102
RTVSPropertyOp42
 70
     1
102
RTVSPropertyOp43
 70
     1
102
RTVSPropertyOp44
 70
     1
102
RTVSPropertyOp45
 70
     1
102
RTVSPropertyOp46
 70
     1
102
RTVSPropertyOp47
 70
     1
102
RTVSPropertyOp48
 70
     1
102
RTVSPropertyOp49
 70
     1
102
RTVSPropertyOp50
 70
     1
102
RTVSPropertyOp51
 70
     0
102
RTVSPropertyOp52
 70
     0
102
RTVSPropertyOp53
 70
     1
102
RTVSPropertyOp54
 70
     1
102
RTVSPropertyOp55
 70
     1
102
RTVSPropertyOp56
 70
     1
102
RTVSPropertyOp57
 70
     1
102
RTVSPost2010Prop28
280
     0
102
RTVSPost2010PropOp28
 70
     1
102
RTVSPost2010Prop29
280
     1
102
RTVSPost2010PropOp29
 70
     1
102
RTVSPost2010Prop30
280
     1
102
RTVSPost2010PropOp30
 70
     1
102
RTVSPost2010Prop31
280
     0
102
RTVSPost2010PropOp31
 70
     1
102
RTVSPost2010Prop32
280
     0
102
RTVSPost2010PropOp32
 70
     1
102
RTVSPost2010Prop33
280
     0
102
RTVSPost2010PropOp33
 70
     1
102
RTVSPost2010Prop34
280
     0
102
RTVSPost2010PropOp34
 70
     1
102
RTVSPost2010Prop35
280
     0
102
RTVSPost2010PropOp35
 70
     1
102
RTVSPost2010Prop36
280
     0
102
RTVSPost2010PropOp36
 70
     1
102
RTVSPost2010Prop37
 90
       50
102
RTVSPost2010PropOp37
 70
     1
102
RTVSPost2010Prop38
140
0.0
102
RTVSPost2010PropOp38
 70
     1
102
RTVSPost2010Prop39
140
1.0
102
RTVSPost2010PropOp39
 70
     1
102
RTVSPost2010Prop40
 90
        0
102
RTVSPost2010PropOp40
 70
     1
102
RTVSPost2010Prop41ColorIndex
 90
       18
102
RTVSPost2010Prop41ColorRGB
 90
        0
102
RTVSPost2010PropOp41
 70
     1
102
RTVSPost2010Prop42
 90
       50
102
RTVSPost2010PropOp42
 70
     1
102
RTVSPost2010Prop43
 90
        3
102
RTVSPost2010PropOp43
 70
     1
102
RTVSPost2010Prop44ColorIndex
 90
        5
102
RTVSPost2010Prop44ColorRGB
 90
      255
102
RTVSPost2010PropOp44
 70
     1
102
RTVSPost2010Prop45
280
     0
102
RTVSPost2010PropOp45
 70
     1
102
RTVSPost2010Prop46
 90
       50
102
RTVSPost2010PropOp46
 70
     1
102
RTVSPost2010Prop47
 90
       50
102
RTVSPost2010PropOp47
 70
     1
102
RTVSPost2010Prop48
 90
       50
102
RTVSPost2010PropOp48
 70
     1
102
RTVSPost2010Prop49
280
     0
102
RTVSPost2010PropOp49
 70
     1
102
RTVSPost2010Prop50
 90
       50
102
RTVSPost2010PropOp50
 70
     1
102
RTVSPost2010Prop51ColorIndex
 90
      256
102
RTVSPost2010Prop51ColorRGB
 90
-16777216
102
RTVSPost2010PropOp51
 70
     0
102
RTVSPost2010Prop52
140
1.0
102
RTVSPost2010PropOp52
 70
     0
102
RTVSPost2010Prop53
 90
        2
102
RTVSPost2010PropOp53
 70
     1
102
RTVSPost2010Prop54
  1
strokes_ogs.tif
102
RTVSPost2010PropOp54
 70
     1
102
RTVSPost2010Prop55
280
     0
102
RTVSPost2010PropOp55
 70
     1
102
RTVSPost2010Prop56
140
1.0
102
RTVSPost2010PropOp56
 70
     1
102
RTVSPost2010Prop57
140
1.0
102
RTVSPost2010PropOp57
 70
     1
  0
XRECORD
  5
26C
102
{ACAD_REACTORS
330
26B
102
}
330
26B
100
AcDbXrecord
280
     1
102
RTVSPropertyOp0
 70
     1
102
RTVSPropertyOp1
 70
     1
102
RTVSPropertyOp2
 70
     1
102
RTVSPropertyOp3
 70
     1
102
RTVSPropertyOp4
 70
     1
102
RTVSPropertyOp5
 70
     1
102
RTVSPropertyOp6
 70
     1
102
RTVSPropertyOp7
 70
     1
102
RTVSPropertyOp8
 70
     1
102
RTVSPropertyOp9
 70
     1
102
RTVSPropertyOp10
 70
     1
102
RTVSPropertyOp11
 70
     1
102
RTVSPropertyOp12
 70
     1
102
RTVSPropertyOp13
 70
     1
102
RTVSPropertyOp14
 70
     1
102
RTVSPropertyOp15
 70
     1
102
RTVSPropertyOp16
 70
     1
102
RTVSPropertyOp17
 70
     1
102
RTVSPropertyOp18
 70
     1
102
RTVSPropertyOp19
 70
     1
102
RTVSPropertyOp20
 70
     1
102
RTVSPropertyOp21
 70
     1
102
RTVSPropertyOp22
 70
     1
102
RTVSPropertyOp23
 70
     1
102
RTVSPropertyOp24
 70
     1
102
RTVSPropertyOp25
 70
     1
102
RTVSPropertyOp26
 70
     1
102
RTVSPropertyOp27
 70
     1
102
RTVSPropertyOp28
 70
     1
102
RTVSPropertyOp29
 70
     1
102
RTVSPropertyOp30
 70
     1
102
RTVSPropertyOp31
 70
     1
102
RTVSPropertyOp32
 70
     1
102
RTVSPropertyOp33
 70
     1
102
RTVSPropertyOp34
 70
     1
102
RTVSPropertyOp35
 70
     1
102
RTVSPropertyOp36
 70
     1
102
RTVSPropertyOp37
 70
     1
102
RTVSPropertyOp38
 70
     1
102
RTVSPropertyOp39
 70
     1
102
RTVSPropertyOp40
 70
     1
102
RTVSPropertyOp41
 70
     1
102
RTVSPropertyOp42
 70
     1
102
RTVSPropertyOp43
 70
     1
102
RTVSPropertyOp44
 70
     1
102
RTVSPropertyOp45
 70
     1
102
RTVSPropertyOp46
 70
     1
102
RTVSPropertyOp47
 70
     1
102
RTVSPropertyOp48
 70
     1
102
RTVSPropertyOp49
 70
     1
102
RTVSPropertyOp50
 70
     1
102
RTVSPropertyOp51
 70
     0
102
RTVSPropertyOp52
 70
     0
102
RTVSPropertyOp53
 70
     1
102
RTVSPropertyOp54
 70
     1
102
RTVSPropertyOp55
 70
     1
102
RTVSPropertyOp56
 70
     1
102
RTVSPropertyOp57
 70
     1
102
RTVSPost2010Prop28
280
     0
102
RTVSPost2010PropOp28
 70
     1
102
RTVSPost2010Prop29
280
     1
102
RTVSPost2010PropOp29
 70
     1
102
RTVSPost2010Prop30
280
     1
102
RTVSPost2010PropOp30
 70
     1
102
RTVSPost2010Prop31
280
     0
102
RTVSPost2010PropOp31
 70
     1
102
RTVSPost2010Prop32
280
     0
102
RTVSPost2010PropOp32
 70
     1
102
RTVSPost2010Prop33
280
     0
102
RTVSPost2010PropOp33
 70
     1
102
RTVSPost2010Prop34
280
     0
102
RTVSPost2010PropOp34
 70
     1
102
RTVSPost2010Prop35
280
     0
102
RTVSPost2010PropOp35
 70
     1
102
RTVSPost2010Prop36
280
     0
102
RTVSPost2010PropOp36
 70
     1
102
RTVSPost2010Prop37
 90
       50
102
RTVSPost2010PropOp37
 70
     1
102
RTVSPost2010Prop38
140
0.0
102
RTVSPost2010PropOp38
 70
     1
102
RTVSPost2010Prop39
140
1.0
102
RTVSPost2010PropOp39
 70
     1
102
RTVSPost2010Prop40
 90
        0
102
RTVSPost2010PropOp40
 70
     1
102
RTVSPost2010Prop41ColorIndex
 90
       18
102
RTVSPost2010Prop41ColorRGB
 90
        0
102
RTVSPost2010PropOp41
 70
     1
102
RTVSPost2010Prop42
 90
       50
102
RTVSPost2010PropOp42
 70
     1
102
RTVSPost2010Prop43
 90
        3
102
RTVSPost2010PropOp43
 70
     1
102
RTVSPost2010Prop44ColorIndex
 90
        5
102
RTVSPost2010Prop44ColorRGB
 90
      255
102
RTVSPost2010PropOp44
 70
     1
102
RTVSPost2010Prop45
280
     0
102
RTVSPost2010PropOp45
 70
     1
102
RTVSPost2010Prop46
 90
       50
102
RTVSPost2010PropOp46
 70
     1
102
RTVSPost2010Prop47
 90
       50
102
RTVSPost2010PropOp47
 70
     1
102
RTVSPost2010Prop48
 90
       50
102
RTVSPost2010PropOp48
 70
     1
102
RTVSPost2010Prop49
280
     0
102
RTVSPost2010PropOp49
 70
     1
102
RTVSPost2010Prop50
 90
       50
102
RTVSPost2010PropOp50
 70
     1
102
RTVSPost2010Prop51ColorIndex
 90
      256
102
RTVSPost2010Prop51ColorRGB
 90
-16777216
102
RTVSPost2010PropOp51
 70
     0
102
RTVSPost2010Prop52
140
1.0
102
RTVSPost2010PropOp52
 70
     0
102
RTVSPost2010Prop53
 90
        2
102
RTVSPost2010PropOp53
 70
     1
102
RTVSPost2010Prop54
  1
strokes_ogs.tif
102
RTVSPost2010PropOp54
 70
     1
102
RTVSPost2010Prop55
280
     0
102
RTVSPost2010PropOp55
 70
     1
102
RTVSPost2010Prop56
140
1.0
102
RTVSPost2010PropOp56
 70
     1
102
RTVSPost2010Prop57
140
1.0
102
RTVSPost2010PropOp57
 70
     1
  0
XRECORD
  5
26A
102
{ACAD_REACTORS
330
269
102
}
330
269
100
AcDbXrecord
280
     1
102
RTVSPropertyOp0
 70
     1
102
RTVSPropertyOp1
 70
     1
102
RTVSPropertyOp2
 70
     1
102
RTVSPropertyOp3
 70
     1
102
RTVSPropertyOp4
 70
     1
102
RTVSPropertyOp5
 70
     1
102
RTVSPropertyOp6
 70
     1
102
RTVSPropertyOp7
 70
     1
102
RTVSPropertyOp8
 70
     1
102
RTVSPropertyOp9
 70
     1
102
RTVSPropertyOp10
 70
     1
102
RTVSPropertyOp11
 70
     1
102
RTVSPropertyOp12
 70
     1
102
RTVSPropertyOp13
 70
     1
102
RTVSPropertyOp14
 70
     1
102
RTVSPropertyOp15
 70
     1
102
RTVSPropertyOp16
 70
     1
102
RTVSPropertyOp17
 70
     1
102
RTVSPropertyOp18
 70
     1
102
RTVSPropertyOp19
 70
     1
102
RTVSPropertyOp20
 70
     1
102
RTVSPropertyOp21
 70
     1
102
RTVSPropertyOp22
 70
     1
102
RTVSPropertyOp23
 70
     1
102
RTVSPropertyOp24
 70
     1
102
RTVSPropertyOp25
 70
     1
102
RTVSPropertyOp26
 70
     1
102
RTVSPropertyOp27
 70
     1
102
RTVSPropertyOp28
 70
     1
102
RTVSPropertyOp29
 70
     1
102
RTVSPropertyOp30
 70
     1
102
RTVSPropertyOp31
 70
     1
102
RTVSPropertyOp32
 70
     1
102
RTVSPropertyOp33
 70
     1
102
RTVSPropertyOp34
 70
     1
102
RTVSPropertyOp35
 70
     1
102
RTVSPropertyOp36
 70
     1
102
RTVSPropertyOp37
 70
     1
102
RTVSPropertyOp38
 70
     1
102
RTVSPropertyOp39
 70
     1
102
RTVSPropertyOp40
 70
     1
102
RTVSPropertyOp41
 70
     1
102
RTVSPropertyOp42
 70
     1
102
RTVSPropertyOp43
 70
     1
102
RTVSPropertyOp44
 70
     1
102
RTVSPropertyOp45
 70
     1
102
RTVSPropertyOp46
 70
     1
102
RTVSPropertyOp47
 70
     1
102
RTVSPropertyOp48
 70
     1
102
RTVSPropertyOp49
 70
     1
102
RTVSPropertyOp50
 70
     1
102
RTVSPropertyOp51
 70
     0
102
RTVSPropertyOp52
 70
     0
102
RTVSPropertyOp53
 70
     1
102
RTVSPropertyOp54
 70
     1
102
RTVSPropertyOp55
 70
     1
102
RTVSPropertyOp56
 70
     1
102
RTVSPropertyOp57
 70
     1
102
RTVSPost2010Prop28
280
     0
102
RTVSPost2010PropOp28
 70
     1
102
RTVSPost2010Prop29
280
     1
102
RTVSPost2010PropOp29
 70
     1
102
RTVSPost2010Prop30
280
     1
102
RTVSPost2010PropOp30
 70
     1
102
RTVSPost2010Prop31
280
     0
102
RTVSPost2010PropOp31
 70
     1
102
RTVSPost2010Prop32
280
     0
102
RTVSPost2010PropOp32
 70
     1
102
RTVSPost2010Prop33
280
     0
102
RTVSPost2010PropOp33
 70
     1
102
RTVSPost2010Prop34
280
     0
102
RTVSPost2010PropOp34
 70
     1
102
RTVSPost2010Prop35
280
     0
102
RTVSPost2010PropOp35
 70
     1
102
RTVSPost2010Prop36
280
     0
102
RTVSPost2010PropOp36
 70
     1
102
RTVSPost2010Prop37
 90
       50
102
RTVSPost2010PropOp37
 70
     1
102
RTVSPost2010Prop38
140
0.0
102
RTVSPost2010PropOp38
 70
     1
102
RTVSPost2010Prop39
140
1.0
102
RTVSPost2010PropOp39
 70
     1
102
RTVSPost2010Prop40
 90
        0
102
RTVSPost2010PropOp40
 70
     1
102
RTVSPost2010Prop41ColorIndex
 90
       18
102
RTVSPost2010Prop41ColorRGB
 90
        0
102
RTVSPost2010PropOp41
 70
     1
102
RTVSPost2010Prop42
 90
       50
102
RTVSPost2010PropOp42
 70
     1
102
RTVSPost2010Prop43
 90
        3
102
RTVSPost2010PropOp43
 70
     1
102
RTVSPost2010Prop44ColorIndex
 90
        5
102
RTVSPost2010Prop44ColorRGB
 90
      255
102
RTVSPost2010PropOp44
 70
     1
102
RTVSPost2010Prop45
280
     0
102
RTVSPost2010PropOp45
 70
     1
102
RTVSPost2010Prop46
 90
       50
102
RTVSPost2010PropOp46
 70
     1
102
RTVSPost2010Prop47
 90
       50
102
RTVSPost2010PropOp47
 70
     1
102
RTVSPost2010Prop48
 90
       50
102
RTVSPost2010PropOp48
 70
     1
102
RTVSPost2010Prop49
280
     0
102
RTVSPost2010PropOp49
 70
     1
102
RTVSPost2010Prop50
 90
       50
102
RTVSPost2010PropOp50
 70
     1
102
RTVSPost2010Prop51ColorIndex
 90
      256
102
RTVSPost2010Prop51ColorRGB
 90
-16777216
102
RTVSPost2010PropOp51
 70
     0
102
RTVSPost2010Prop52
140
1.0
102
RTVSPost2010PropOp52
 70
     0
102
RTVSPost2010Prop53
 90
        2
102
RTVSPost2010PropOp53
 70
     1
102
RTVSPost2010Prop54
  1
strokes_ogs.tif
102
RTVSPost2010PropOp54
 70
     1
102
RTVSPost2010Prop55
280
     0
102
RTVSPost2010PropOp55
 70
     1
102
RTVSPost2010Prop56
140
1.0
102
RTVSPost2010PropOp56
 70
     1
102
RTVSPost2010Prop57
140
1.0
102
RTVSPost2010PropOp57
 70
     1
  0
XRECORD
  5
264
102
{ACAD_REACTORS
330
263
102
}
330
263
100
AcDbXrecord
280
     1
102
RTVSPropertyOp0
 70
     1
102
RTVSPropertyOp1
 70
     1
102
RTVSPropertyOp2
 70
     1
102
RTVSPropertyOp3
 70
     1
102
RTVSPropertyOp4
 70
     1
102
RTVSPropertyOp5
 70
     1
102
RTVSPropertyOp6
 70
     1
102
RTVSPropertyOp7
 70
     1
102
RTVSPropertyOp8
 70
     1
102
RTVSPropertyOp9
 70
     1
102
RTVSPropertyOp10
 70
     1
102
RTVSPropertyOp11
 70
     1
102
RTVSPropertyOp12
 70
     1
102
RTVSPropertyOp13
 70
     1
102
RTVSPropertyOp14
 70
     1
102
RTVSPropertyOp15
 70
     1
102
RTVSPropertyOp16
 70
     1
102
RTVSPropertyOp17
 70
     1
102
RTVSPropertyOp18
 70
     1
102
RTVSPropertyOp19
 70
     1
102
RTVSPropertyOp20
 70
     1
102
RTVSPropertyOp21
 70
     1
102
RTVSPropertyOp22
 70
     1
102
RTVSPropertyOp23
 70
     1
102
RTVSPropertyOp24
 70
     1
102
RTVSPropertyOp25
 70
     1
102
RTVSPropertyOp26
 70
     1
102
RTVSPropertyOp27
 70
     1
102
RTVSPropertyOp28
 70
     1
102
RTVSPropertyOp29
 70
     1
102
RTVSPropertyOp30
 70
     1
102
RTVSPropertyOp31
 70
     1
102
RTVSPropertyOp32
 70
     1
102
RTVSPropertyOp33
 70
     1
102
RTVSPropertyOp34
 70
     1
102
RTVSPropertyOp35
 70
     1
102
RTVSPropertyOp36
 70
     1
102
RTVSPropertyOp37
 70
     1
102
RTVSPropertyOp38
 70
     1
102
RTVSPropertyOp39
 70
     1
102
RTVSPropertyOp40
 70
     1
102
RTVSPropertyOp41
 70
     1
102
RTVSPropertyOp42
 70
     1
102
RTVSPropertyOp43
 70
     1
102
RTVSPropertyOp44
 70
     1
102
RTVSPropertyOp45
 70
     1
102
RTVSPropertyOp46
 70
     1
102
RTVSPropertyOp47
 70
     1
102
RTVSPropertyOp48
 70
     1
102
RTVSPropertyOp49
 70
     1
102
RTVSPropertyOp50
 70
     1
102
RTVSPropertyOp51
 70
     0
102
RTVSPropertyOp52
 70
     0
102
RTVSPropertyOp53
 70
     1
102
RTVSPropertyOp54
 70
     1
102
RTVSPropertyOp55
 70
     1
102
RTVSPropertyOp56
 70
     1
102
RTVSPropertyOp57
 70
     1
102
RTVSPost2010Prop28
280
     0
102
RTVSPost2010PropOp28
 70
     1
102
RTVSPost2010Prop29
280
     1
102
RTVSPost2010PropOp29
 70
     1
102
RTVSPost2010Prop30
280
     1
102
RTVSPost2010PropOp30
 70
     1
102
RTVSPost2010Prop31
280
     0
102
RTVSPost2010PropOp31
 70
     1
102
RTVSPost2010Prop32
280
     0
102
RTVSPost2010PropOp32
 70
     1
102
RTVSPost2010Prop33
280
     0
102
RTVSPost2010PropOp33
 70
     1
102
RTVSPost2010Prop34
280
     0
102
RTVSPost2010PropOp34
 70
     1
102
RTVSPost2010Prop35
280
     0
102
RTVSPost2010PropOp35
 70
     1
102
RTVSPost2010Prop36
280
     0
102
RTVSPost2010PropOp36
 70
     1
102
RTVSPost2010Prop37
 90
       50
102
RTVSPost2010PropOp37
 70
     1
102
RTVSPost2010Prop38
140
0.0
102
RTVSPost2010PropOp38
 70
     1
102
RTVSPost2010Prop39
140
1.0
102
RTVSPost2010PropOp39
 70
     1
102
RTVSPost2010Prop40
 90
        0
102
RTVSPost2010PropOp40
 70
     1
102
RTVSPost2010Prop41ColorIndex
 90
       18
102
RTVSPost2010Prop41ColorRGB
 90
        0
102
RTVSPost2010PropOp41
 70
     1
102
RTVSPost2010Prop42
 90
       50
102
RTVSPost2010PropOp42
 70
     1
102
RTVSPost2010Prop43
 90
        3
102
RTVSPost2010PropOp43
 70
     1
102
RTVSPost2010Prop44ColorIndex
 90
        5
102
RTVSPost2010Prop44ColorRGB
 90
      255
102
RTVSPost2010PropOp44
 70
     1
102
RTVSPost2010Prop45
280
     0
102
RTVSPost2010PropOp45
 70
     1
102
RTVSPost2010Prop46
 90
       50
102
RTVSPost2010PropOp46
 70
     1
102
RTVSPost2010Prop47
 90
       50
102
RTVSPost2010PropOp47
 70
     1
102
RTVSPost2010Prop48
 90
       50
102
RTVSPost2010PropOp48
 70
     1
102
RTVSPost2010Prop49
280
     0
102
RTVSPost2010PropOp49
 70
     1
102
RTVSPost2010Prop50
 90
       50
102
RTVSPost2010PropOp50
 70
     1
102
RTVSPost2010Prop51ColorIndex
 90
      256
102
RTVSPost2010Prop51ColorRGB
 90
-16777216
102
RTVSPost2010PropOp51
 70
     0
102
RTVSPost2010Prop52
140
1.0
102
RTVSPost2010PropOp52
 70
     0
102
RTVSPost2010Prop53
 90
        2
102
RTVSPost2010PropOp53
 70
     1
102
RTVSPost2010Prop54
  1
strokes_ogs.tif
102
RTVSPost2010PropOp54
 70
     1
102
RTVSPost2010Prop55
280
     0
102
RTVSPost2010PropOp55
 70
     1
102
RTVSPost2010Prop56
140
1.0
102
RTVSPost2010PropOp56
 70
     1
102
RTVSPost2010Prop57
140
1.0
102
RTVSPost2010PropOp57
 70
     1
  0
XRECORD
  5
266
102
{ACAD_REACTORS
330
265
102
}
330
265
100
AcDbXrecord
280
     1
102
RTVSPropertyOp0
 70
     1
102
RTVSPropertyOp1
 70
     1
102
RTVSPropertyOp2
 70
     1
102
RTVSPropertyOp3
 70
     1
102
RTVSPropertyOp4
 70
     1
102
RTVSPropertyOp5
 70
     1
102
RTVSPropertyOp6
 70
     1
102
RTVSPropertyOp7
 70
     1
102
RTVSPropertyOp8
 70
     1
102
RTVSPropertyOp9
 70
     1
102
RTVSPropertyOp10
 70
     1
102
RTVSPropertyOp11
 70
     1
102
RTVSPropertyOp12
 70
     1
102
RTVSPropertyOp13
 70
     1
102
RTVSPropertyOp14
 70
     1
102
RTVSPropertyOp15
 70
     1
102
RTVSPropertyOp16
 70
     1
102
RTVSPropertyOp17
 70
     1
102
RTVSPropertyOp18
 70
     1
102
RTVSPropertyOp19
 70
     1
102
RTVSPropertyOp20
 70
     1
102
RTVSPropertyOp21
 70
     1
102
RTVSPropertyOp22
 70
     1
102
RTVSPropertyOp23
 70
     1
102
RTVSPropertyOp24
 70
     1
102
RTVSPropertyOp25
 70
     1
102
RTVSPropertyOp26
 70
     1
102
RTVSPropertyOp27
 70
     1
102
RTVSPropertyOp28
 70
     1
102
RTVSPropertyOp29
 70
     1
102
RTVSPropertyOp30
 70
     1
102
RTVSPropertyOp31
 70
     1
102
RTVSPropertyOp32
 70
     1
102
RTVSPropertyOp33
 70
     1
102
RTVSPropertyOp34
 70
     1
102
RTVSPropertyOp35
 70
     1
102
RTVSPropertyOp36
 70
     1
102
RTVSPropertyOp37
 70
     1
102
RTVSPropertyOp38
 70
     1
102
RTVSPropertyOp39
 70
     1
102
RTVSPropertyOp40
 70
     1
102
RTVSPropertyOp41
 70
     1
102
RTVSPropertyOp42
 70
     1
102
RTVSPropertyOp43
 70
     1
102
RTVSPropertyOp44
 70
     1
102
RTVSPropertyOp45
 70
     1
102
RTVSPropertyOp46
 70
     1
102
RTVSPropertyOp47
 70
     1
102
RTVSPropertyOp48
 70
     1
102
RTVSPropertyOp49
 70
     1
102
RTVSPropertyOp50
 70
     1
102
RTVSPropertyOp51
 70
     0
102
RTVSPropertyOp52
 70
     0
102
RTVSPropertyOp53
 70
     1
102
RTVSPropertyOp54
 70
     1
102
RTVSPropertyOp55
 70
     1
102
RTVSPropertyOp56
 70
     1
102
RTVSPropertyOp57
 70
     1
102
RTVSPost2010Prop28
280
     0
102
RTVSPost2010PropOp28
 70
     1
102
RTVSPost2010Prop29
280
     1
102
RTVSPost2010PropOp29
 70
     1
102
RTVSPost2010Prop30
280
     1
102
RTVSPost2010PropOp30
 70
     1
102
RTVSPost2010Prop31
280
     0
102
RTVSPost2010PropOp31
 70
     1
102
RTVSPost2010Prop32
280
     0
102
RTVSPost2010PropOp32
 70
     1
102
RTVSPost2010Prop33
280
     0
102
RTVSPost2010PropOp33
 70
     1
102
RTVSPost2010Prop34
280
     0
102
RTVSPost2010PropOp34
 70
     1
102
RTVSPost2010Prop35
280
     0
102
RTVSPost2010PropOp35
 70
     1
102
RTVSPost2010Prop36
280
     0
102
RTVSPost2010PropOp36
 70
     1
102
RTVSPost2010Prop37
 90
       50
102
RTVSPost2010PropOp37
 70
     1
102
RTVSPost2010Prop38
140
0.0
102
RTVSPost2010PropOp38
 70
     1
102
RTVSPost2010Prop39
140
1.0
102
RTVSPost2010PropOp39
 70
     1
102
RTVSPost2010Prop40
 90
        0
102
RTVSPost2010PropOp40
 70
     1
102
RTVSPost2010Prop41ColorIndex
 90
       18
102
RTVSPost2010Prop41ColorRGB
 90
        0
102
RTVSPost2010PropOp41
 70
     1
102
RTVSPost2010Prop42
 90
       50
102
RTVSPost2010PropOp42
 70
     1
102
RTVSPost2010Prop43
 90
        3
102
RTVSPost2010PropOp43
 70
     1
102
RTVSPost2010Prop44ColorIndex
 90
        5
102
RTVSPost2010Prop44ColorRGB
 90
      255
102
RTVSPost2010PropOp44
 70
     1
102
RTVSPost2010Prop45
280
     0
102
RTVSPost2010PropOp45
 70
     1
102
RTVSPost2010Prop46
 90
       50
102
RTVSPost2010PropOp46
 70
     1
102
RTVSPost2010Prop47
 90
       50
102
RTVSPost2010PropOp47
 70
     1
102
RTVSPost2010Prop48
 90
       50
102
RTVSPost2010PropOp48
 70
     1
102
RTVSPost2010Prop49
280
     0
102
RTVSPost2010PropOp49
 70
     1
102
RTVSPost2010Prop50
 90
       50
102
RTVSPost2010PropOp50
 70
     1
102
RTVSPost2010Prop51ColorIndex
 90
      256
102
RTVSPost2010Prop51ColorRGB
 90
-16777216
102
RTVSPost2010PropOp51
 70
     0
102
RTVSPost2010Prop52
140
1.0
102
RTVSPost2010PropOp52
 70
     0
102
RTVSPost2010Prop53
 90
        2
102
RTVSPost2010PropOp53
 70
     1
102
RTVSPost2010Prop54
  1
strokes_ogs.tif
102
RTVSPost2010PropOp54
 70
     1
102
RTVSPost2010Prop55
280
     0
102
RTVSPost2010PropOp55
 70
     1
102
RTVSPost2010Prop56
140
1.0
102
RTVSPost2010PropOp56
 70
     1
102
RTVSPost2010Prop57
140
1.0
102
RTVSPost2010PropOp57
 70
     1
  0
XRECORD
  5
256
102
{ACAD_REACTORS
330
255
102
}
330
255
100
AcDbXrecord
280
     1
102
RTVSPropertyOp0
 70
     1
102
RTVSPropertyOp1
 70
     1
102
RTVSPropertyOp2
 70
     1
102
RTVSPropertyOp3
 70
     1
102
RTVSPropertyOp4
 70
     1
102
RTVSPropertyOp5
 70
     1
102
RTVSPropertyOp6
 70
     1
102
RTVSPropertyOp7
 70
     1
102
RTVSPropertyOp8
 70
     1
102
RTVSPropertyOp9
 70
     1
102
RTVSPropertyOp10
 70
     1
102
RTVSPropertyOp11
 70
     1
102
RTVSPropertyOp12
 70
     1
102
RTVSPropertyOp13
 70
     1
102
RTVSPropertyOp14
 70
     1
102
RTVSPropertyOp15
 70
     1
102
RTVSPropertyOp16
 70
     1
102
RTVSPropertyOp17
 70
     1
102
RTVSPropertyOp18
 70
     1
102
RTVSPropertyOp19
 70
     1
102
RTVSPropertyOp20
 70
     1
102
RTVSPropertyOp21
 70
     1
102
RTVSPropertyOp22
 70
     1
102
RTVSPropertyOp23
 70
     1
102
RTVSPropertyOp24
 70
     1
102
RTVSPropertyOp25
 70
     1
102
RTVSPropertyOp26
 70
     1
102
RTVSPropertyOp27
 70
     1
102
RTVSPropertyOp28
 70
     1
102
RTVSPropertyOp29
 70
     1
102
RTVSPropertyOp30
 70
     1
102
RTVSPropertyOp31
 70
     1
102
RTVSPropertyOp32
 70
     1
102
RTVSPropertyOp33
 70
     1
102
RTVSPropertyOp34
 70
     1
102
RTVSPropertyOp35
 70
     1
102
RTVSPropertyOp36
 70
     1
102
RTVSPropertyOp37
 70
     1
102
RTVSPropertyOp38
 70
     1
102
RTVSPropertyOp39
 70
     1
102
RTVSPropertyOp40
 70
     1
102
RTVSPropertyOp41
 70
     1
102
RTVSPropertyOp42
 70
     1
102
RTVSPropertyOp43
 70
     1
102
RTVSPropertyOp44
 70
     1
102
RTVSPropertyOp45
 70
     1
102
RTVSPropertyOp46
 70
     1
102
RTVSPropertyOp47
 70
     1
102
RTVSPropertyOp48
 70
     1
102
RTVSPropertyOp49
 70
     1
102
RTVSPropertyOp50
 70
     1
102
RTVSPropertyOp51
 70
     0
102
RTVSPropertyOp52
 70
     0
102
RTVSPropertyOp53
 70
     1
102
RTVSPropertyOp54
 70
     1
102
RTVSPropertyOp55
 70
     1
102
RTVSPropertyOp56
 70
     1
102
RTVSPropertyOp57
 70
     1
102
RTVSPost2010Prop28
280
     0
102
RTVSPost2010PropOp28
 70
     1
102
RTVSPost2010Prop29
280
     1
102
RTVSPost2010PropOp29
 70
     1
102
RTVSPost2010Prop30
280
     1
102
RTVSPost2010PropOp30
 70
     1
102
RTVSPost2010Prop31
280
     0
102
RTVSPost2010PropOp31
 70
     1
102
RTVSPost2010Prop32
280
     0
102
RTVSPost2010PropOp32
 70
     1
102
RTVSPost2010Prop33
280
     0
102
RTVSPost2010PropOp33
 70
     1
102
RTVSPost2010Prop34
280
     0
102
RTVSPost2010PropOp34
 70
     1
102
RTVSPost2010Prop35
280
     0
102
RTVSPost2010PropOp35
 70
     1
102
RTVSPost2010Prop36
280
     0
102
RTVSPost2010PropOp36
 70
     1
102
RTVSPost2010Prop37
 90
       50
102
RTVSPost2010PropOp37
 70
     1
102
RTVSPost2010Prop38
140
0.0
102
RTVSPost2010PropOp38
 70
     1
102
RTVSPost2010Prop39
140
1.0
102
RTVSPost2010PropOp39
 70
     1
102
RTVSPost2010Prop40
 90
        0
102
RTVSPost2010PropOp40
 70
     1
102
RTVSPost2010Prop41ColorIndex
 90
       18
102
RTVSPost2010Prop41ColorRGB
 90
        0
102
RTVSPost2010PropOp41
 70
     1
102
RTVSPost2010Prop42
 90
       50
102
RTVSPost2010PropOp42
 70
     1
102
RTVSPost2010Prop43
 90
        3
102
RTVSPost2010PropOp43
 70
     1
102
RTVSPost2010Prop44ColorIndex
 90
        5
102
RTVSPost2010Prop44ColorRGB
 90
      255
102
RTVSPost2010PropOp44
 70
     1
102
RTVSPost2010Prop45
280
     0
102
RTVSPost2010PropOp45
 70
     1
102
RTVSPost2010Prop46
 90
       50
102
RTVSPost2010PropOp46
 70
     1
102
RTVSPost2010Prop47
 90
       50
102
RTVSPost2010PropOp47
 70
     1
102
RTVSPost2010Prop48
 90
       50
102
RTVSPost2010PropOp48
 70
     1
102
RTVSPost2010Prop49
280
     0
102
RTVSPost2010PropOp49
 70
     1
102
RTVSPost2010Prop50
 90
       50
102
RTVSPost2010PropOp50
 70
     1
102
RTVSPost2010Prop51ColorIndex
 90
      256
102
RTVSPost2010Prop51ColorRGB
 90
-16777216
102
RTVSPost2010PropOp51
 70
     0
102
RTVSPost2010Prop52
140
1.0
102
RTVSPost2010PropOp52
 70
     0
102
RTVSPost2010Prop53
 90
        2
102
RTVSPost2010PropOp53
 70
     1
102
RTVSPost2010Prop54
  1
strokes_ogs.tif
102
RTVSPost2010PropOp54
 70
     1
102
RTVSPost2010Prop55
280
     0
102
RTVSPost2010PropOp55
 70
     1
102
RTVSPost2010Prop56
140
1.0
102
RTVSPost2010PropOp56
 70
     1
102
RTVSPost2010Prop57
140
1.0
102
RTVSPost2010PropOp57
 70
     1
  0
XRECORD
  5
248
102
{ACAD_REACTORS
330
247
102
}
330
247
100
AcDbXrecord
280
     1
102
RTVSPropertyOp0
 70
     1
102
RTVSPropertyOp1
 70
     1
102
RTVSPropertyOp2
 70
     1
102
RTVSPropertyOp3
 70
     1
102
RTVSPropertyOp4
 70
     1
102
RTVSPropertyOp5
 70
     1
102
RTVSPropertyOp6
 70
     1
102
RTVSPropertyOp7
 70
     1
102
RTVSPropertyOp8
 70
     1
102
RTVSPropertyOp9
 70
     1
102
RTVSPropertyOp10
 70
     1
102
RTVSPropertyOp11
 70
     1
102
RTVSPropertyOp12
 70
     1
102
RTVSPropertyOp13
 70
     1
102
RTVSPropertyOp14
 70
     1
102
RTVSPropertyOp15
 70
     1
102
RTVSPropertyOp16
 70
     1
102
RTVSPropertyOp17
 70
     1
102
RTVSPropertyOp18
 70
     1
102
RTVSPropertyOp19
 70
     1
102
RTVSPropertyOp20
 70
     1
102
RTVSPropertyOp21
 70
     1
102
RTVSPropertyOp22
 70
     1
102
RTVSPropertyOp23
 70
     1
102
RTVSPropertyOp24
 70
     1
102
RTVSPropertyOp25
 70
     1
102
RTVSPropertyOp26
 70
     1
102
RTVSPropertyOp27
 70
     1
102
RTVSPropertyOp28
 70
     1
102
RTVSPropertyOp29
 70
     1
102
RTVSPropertyOp30
 70
     1
102
RTVSPropertyOp31
 70
     1
102
RTVSPropertyOp32
 70
     1
102
RTVSPropertyOp33
 70
     1
102
RTVSPropertyOp34
 70
     1
102
RTVSPropertyOp35
 70
     1
102
RTVSPropertyOp36
 70
     1
102
RTVSPropertyOp37
 70
     1
102
RTVSPropertyOp38
 70
     1
102
RTVSPropertyOp39
 70
     1
102
RTVSPropertyOp40
 70
     1
102
RTVSPropertyOp41
 70
     1
102
RTVSPropertyOp42
 70
     1
102
RTVSPropertyOp43
 70
     1
102
RTVSPropertyOp44
 70
     1
102
RTVSPropertyOp45
 70
     1
102
RTVSPropertyOp46
 70
     1
102
RTVSPropertyOp47
 70
     1
102
RTVSPropertyOp48
 70
     1
102
RTVSPropertyOp49
 70
     1
102
RTVSPropertyOp50
 70
     1
102
RTVSPropertyOp51
 70
     0
102
RTVSPropertyOp52
 70
     0
102
RTVSPropertyOp53
 70
     1
102
RTVSPropertyOp54
 70
     1
102
RTVSPropertyOp55
 70
     1
102
RTVSPropertyOp56
 70
     1
102
RTVSPropertyOp57
 70
     1
102
RTVSPost2010Prop28
280
     0
102
RTVSPost2010PropOp28
 70
     1
102
RTVSPost2010Prop29
280
     1
102
RTVSPost2010PropOp29
 70
     1
102
RTVSPost2010Prop30
280
     1
102
RTVSPost2010PropOp30
 70
     1
102
RTVSPost2010Prop31
280
     0
102
RTVSPost2010PropOp31
 70
     1
102
RTVSPost2010Prop32
280
     0
102
RTVSPost2010PropOp32
 70
     1
102
RTVSPost2010Prop33
280
     0
102
RTVSPost2010PropOp33
 70
     1
102
RTVSPost2010Prop34
280
     0
102
RTVSPost2010PropOp34
 70
     1
102
RTVSPost2010Prop35
280
     0
102
RTVSPost2010PropOp35
 70
     1
102
RTVSPost2010Prop36
280
     0
102
RTVSPost2010PropOp36
 70
     1
102
RTVSPost2010Prop37
 90
       50
102
RTVSPost2010PropOp37
 70
     1
102
RTVSPost2010Prop38
140
0.0
102
RTVSPost2010PropOp38
 70
     1
102
RTVSPost2010Prop39
140
1.0
102
RTVSPost2010PropOp39
 70
     1
102
RTVSPost2010Prop40
 90
        0
102
RTVSPost2010PropOp40
 70
     1
102
RTVSPost2010Prop41ColorIndex
 90
       18
102
RTVSPost2010Prop41ColorRGB
 90
        0
102
RTVSPost2010PropOp41
 70
     1
102
RTVSPost2010Prop42
 90
       50
102
RTVSPost2010PropOp42
 70
     1
102
RTVSPost2010Prop43
 90
        3
102
RTVSPost2010PropOp43
 70
     1
102
RTVSPost2010Prop44ColorIndex
 90
        5
102
RTVSPost2010Prop44ColorRGB
 90
      255
102
RTVSPost2010PropOp44
 70
     1
102
RTVSPost2010Prop45
280
     0
102
RTVSPost2010PropOp45
 70
     1
102
RTVSPost2010Prop46
 90
       50
102
RTVSPost2010PropOp46
 70
     1
102
RTVSPost2010Prop47
 90
       50
102
RTVSPost2010PropOp47
 70
     1
102
RTVSPost2010Prop48
 90
       50
102
RTVSPost2010PropOp48
 70
     1
102
RTVSPost2010Prop49
280
     0
102
RTVSPost2010PropOp49
 70
     1
102
RTVSPost2010Prop50
 90
       50
102
RTVSPost2010PropOp50
 70
     1
102
RTVSPost2010Prop51ColorIndex
 90
      256
102
RTVSPost2010Prop51ColorRGB
 90
-16777216
102
RTVSPost2010PropOp51
 70
     0
102
RTVSPost2010Prop52
140
1.0
102
RTVSPost2010PropOp52
 70
     0
102
RTVSPost2010Prop53
 90
        2
102
RTVSPost2010PropOp53
 70
     1
102
RTVSPost2010Prop54
  1
strokes_ogs.tif
102
RTVSPost2010PropOp54
 70
     1
102
RTVSPost2010Prop55
280
     0
102
RTVSPost2010PropOp55
 70
     1
102
RTVSPost2010Prop56
140
1.0
102
RTVSPost2010PropOp56
 70
     1
102
RTVSPost2010Prop57
140
1.0
102
RTVSPost2010PropOp57
 70
     1
  0
XRECORD
  5
268
102
{ACAD_REACTORS
330
267
102
}
330
267
100
AcDbXrecord
280
     1
102
RTVSPropertyOp0
 70
     1
102
RTVSPropertyOp1
 70
     1
102
RTVSPropertyOp2
 70
     1
102
RTVSPropertyOp3
 70
     1
102
RTVSPropertyOp4
 70
     1
102
RTVSPropertyOp5
 70
     1
102
RTVSPropertyOp6
 70
     1
102
RTVSPropertyOp7
 70
     1
102
RTVSPropertyOp8
 70
     1
102
RTVSPropertyOp9
 70
     1
102
RTVSPropertyOp10
 70
     1
102
RTVSPropertyOp11
 70
     1
102
RTVSPropertyOp12
 70
     1
102
RTVSPropertyOp13
 70
     1
102
RTVSPropertyOp14
 70
     1
102
RTVSPropertyOp15
 70
     1
102
RTVSPropertyOp16
 70
     1
102
RTVSPropertyOp17
 70
     1
102
RTVSPropertyOp18
 70
     1
102
RTVSPropertyOp19
 70
     1
102
RTVSPropertyOp20
 70
     1
102
RTVSPropertyOp21
 70
     1
102
RTVSPropertyOp22
 70
     1
102
RTVSPropertyOp23
 70
     1
102
RTVSPropertyOp24
 70
     1
102
RTVSPropertyOp25
 70
     1
102
RTVSPropertyOp26
 70
     1
102
RTVSPropertyOp27
 70
     1
102
RTVSPropertyOp28
 70
     1
102
RTVSPropertyOp29
 70
     1
102
RTVSPropertyOp30
 70
     1
102
RTVSPropertyOp31
 70
     1
102
RTVSPropertyOp32
 70
     1
102
RTVSPropertyOp33
 70
     1
102
RTVSPropertyOp34
 70
     1
102
RTVSPropertyOp35
 70
     1
102
RTVSPropertyOp36
 70
     1
102
RTVSPropertyOp37
 70
     1
102
RTVSPropertyOp38
 70
     1
102
RTVSPropertyOp39
 70
     1
102
RTVSPropertyOp40
 70
     1
102
RTVSPropertyOp41
 70
     1
102
RTVSPropertyOp42
 70
     1
102
RTVSPropertyOp43
 70
     1
102
RTVSPropertyOp44
 70
     1
102
RTVSPropertyOp45
 70
     1
102
RTVSPropertyOp46
 70
     1
102
RTVSPropertyOp47
 70
     1
102
RTVSPropertyOp48
 70
     1
102
RTVSPropertyOp49
 70
     1
102
RTVSPropertyOp50
 70
     1
102
RTVSPropertyOp51
 70
     0
102
RTVSPropertyOp52
 70
     0
102
RTVSPropertyOp53
 70
     1
102
RTVSPropertyOp54
 70
     1
102
RTVSPropertyOp55
 70
     1
102
RTVSPropertyOp56
 70
     1
102
RTVSPropertyOp57
 70
     1
102
RTVSPost2010Prop28
280
     0
102
RTVSPost2010PropOp28
 70
     1
102
RTVSPost2010Prop29
280
     1
102
RTVSPost2010PropOp29
 70
     1
102
RTVSPost2010Prop30
280
     1
102
RTVSPost2010PropOp30
 70
     1
102
RTVSPost2010Prop31
280
     0
102
RTVSPost2010PropOp31
 70
     1
102
RTVSPost2010Prop32
280
     0
102
RTVSPost2010PropOp32
 70
     1
102
RTVSPost2010Prop33
280
     0
102
RTVSPost2010PropOp33
 70
     1
102
RTVSPost2010Prop34
280
     0
102
RTVSPost2010PropOp34
 70
     1
102
RTVSPost2010Prop35
280
     0
102
RTVSPost2010PropOp35
 70
     1
102
RTVSPost2010Prop36
280
     0
102
RTVSPost2010PropOp36
 70
     1
102
RTVSPost2010Prop37
 90
       50
102
RTVSPost2010PropOp37
 70
     1
102
RTVSPost2010Prop38
140
0.0
102
RTVSPost2010PropOp38
 70
     1
102
RTVSPost2010Prop39
140
1.0
102
RTVSPost2010PropOp39
 70
     1
102
RTVSPost2010Prop40
 90
        0
102
RTVSPost2010PropOp40
 70
     1
102
RTVSPost2010Prop41ColorIndex
 90
       18
102
RTVSPost2010Prop41ColorRGB
 90
        0
102
RTVSPost2010PropOp41
 70
     1
102
RTVSPost2010Prop42
 90
       50
102
RTVSPost2010PropOp42
 70
     1
102
RTVSPost2010Prop43
 90
        3
102
RTVSPost2010PropOp43
 70
     1
102
RTVSPost2010Prop44ColorIndex
 90
        5
102
RTVSPost2010Prop44ColorRGB
 90
      255
102
RTVSPost2010PropOp44
 70
     1
102
RTVSPost2010Prop45
280
     0
102
RTVSPost2010PropOp45
 70
     1
102
RTVSPost2010Prop46
 90
       50
102
RTVSPost2010PropOp46
 70
     1
102
RTVSPost2010Prop47
 90
       50
102
RTVSPost2010PropOp47
 70
     1
102
RTVSPost2010Prop48
 90
       50
102
RTVSPost2010PropOp48
 70
     1
102
RTVSPost2010Prop49
280
     0
102
RTVSPost2010PropOp49
 70
     1
102
RTVSPost2010Prop50
 90
       50
102
RTVSPost2010PropOp50
 70
     1
102
RTVSPost2010Prop51ColorIndex
 90
      256
102
RTVSPost2010Prop51ColorRGB
 90
-16777216
102
RTVSPost2010PropOp51
 70
     0
102
RTVSPost2010Prop52
140
1.0
102
RTVSPost2010PropOp52
 70
     0
102
RTVSPost2010Prop53
 90
        2
102
RTVSPost2010PropOp53
 70
     1
102
RTVSPost2010Prop54
  1
strokes_ogs.tif
102
RTVSPost2010PropOp54
 70
     1
102
RTVSPost2010Prop55
280
     0
102
RTVSPost2010PropOp55
 70
     1
102
RTVSPost2010Prop56
140
1.0
102
RTVSPost2010PropOp56
 70
     1
102
RTVSPost2010Prop57
140
1.0
102
RTVSPost2010PropOp57
 70
     1
  0
ENDSEC
  0
EOF
