  0
SECTION
  2
HEADER
  9
$ACADVER
  1
AC1015
  9
$ACADMAINTVER
 70
     6
  9
$DWGCODEPAGE
  3
ANSI_1252
  9
$INSBASE
 10
0.0
 20
0.0
 30
0.0
  9
$EXTMIN
 10
0.0
 20
0.0
 30
0.0
  9
$EXTMAX
 10
3000.0
 20
4500.0
 30
0.0
  9
$LIMMIN
 10
0.0
 20
0.0
  9
$LIMMAX
 10
3000.0
 20
4500.0
  9
$ORTHOMODE
 70
     0
  9
$REGENMODE
 70
     1
  9
$FILLMODE
 70
     1
  9
$QTEXTMODE
 70
     0
  9
$MIRRTEXT
 70
     1
  9
$LTSCALE
 40
1.0
  9
$ATTMODE
 70
     1
  9
$TEXTSIZE
 40
10.0
  9
$TRACEWID
 40
1.0
  9
$TEXTSTYLE
  7
Standard
  9
$CLAYER
  8
0
  9
$CELTYPE
  6
ByLayer
  9
$CECOLOR
 62
   256
  9
$CELTSCALE
 40
1.0
  9
$DISPSILH
 70
     0
  9
$DIMSCALE
 40
1.0
  9
$DIMASZ
 40
2.5
  9
$DIMEXO
 40
0.625
  9
$DIMDLI
 40
3.75
  9
$DIMRND
 40
0.0
  9
$DIMDLE
 40
0.0
  9
$DIMEXE
 40
1.25
  9
$DIMTP
 40
0.0
  9
$DIMTM
 40
0.0
  9
$DIMTXT
 40
2.5
  9
$DIMCEN
 40
2.5
  9
$DIMTSZ
 40
0.0
  9
$DIMTOL
 70
     0
  9
$DIMLIM
 70
     0
  9
$DIMTIH
 70
     0
  9
$DIMTOH
 70
     0
  9
$DIMSE1
 70
     0
  9
$DIMSE2
 70
     0
  9
$DIMTAD
 70
     1
  9
$DIMZIN
 70
     8
  9
$DIMBLK
  1

  9
$DIMASO
 70
     1
  9
$DIMSHO
 70
     1
  9
$DIMPOST
  1

  9
$DIMAPOST
  1

  9
$DIMALT
 70
     0
  9
$DIMALTD
 70
     3
  9
$DIMALTF
 40
0.0393700787
  9
$DIMLFAC
 40
1.0
  9
$DIMTOFL
 70
     1
  9
$DIMTVP
 40
0.0
  9
$DIMTIX
 70
     0
  9
$DIMSOXD
 70
     0
  9
$DIMSAH
 70
     0
  9
$DIMBLK1
  1

  9
$DIMBLK2
  1

  9
$DIMSTYLE
  2
ISO-25
  9
$DIMCLRD
 70
     0
  9
$DIMCLRE
 70
     0
  9
$DIMCLRT
 70
     0
  9
$DIMTFAC
 40
1.0
  9
$DIMGAP
 40
0.625
  9
$DIMJUST
 70
     0
  9
$DIMSD1
 70
     0
  9
$DIMSD2
 70
     0
  9
$DIMTOLJ
 70
     0
  9
$DIMTZIN
 70
     8
  9
$DIMALTZ
 70
     0
  9
$DIMALTTZ
 70
     0
  9
$DIMUPT
 70
     0
  9
$DIMDEC
 70
     2
  9
$DIMTDEC
 70
     2
  9
$DIMALTU
 70
     2
  9
$DIMALTTD
 70
     3
  9
$DIMTXSTY
  7
Standard
  9
$DIMAUNIT
 70
     0
  9
$DIMADEC
 70
     0
  9
$DIMALTRND
 40
0.0
  9
$DIMAZIN
 70
     0
  9
$DIMDSEP
 70
    44
  9
$DIMATFIT
 70
     3
  9
$DIMFRAC
 70
     0
  9
$DIMLDRBLK
  1

  9
$DIMLUNIT
 70
     2
  9
$DIMLWD
 70
    -2
  9
$DIMLWE
 70
    -2
  9
$DIMTMOVE
 70
     0
  9
$LUNITS
 70
     2
  9
$LUPREC
 70
     4
  9
$SKETCHINC
 40
1.0
  9
$FILLETRAD
 40
10.0
  9
$AUNITS
 70
     0
  9
$AUPREC
 70
     0
  9
$MENU
  1
.
  9
$ELEVATION
 40
0.0
  9
$PELEVATION
 40
0.0
  9
$THICKNESS
 40
0.0
  9
$LIMCHECK
 70
     0
  9
$CHAMFERA
 40
0.0
  9
$CHAMFERB
 40
0.0
  9
$CHAMFERC
 40
0.0
  9
$CHAMFERD
 40
0.0
  9
$SKPOLY
 70
     0
  9
$TDCREATE
 40
2457182.410826516
  9
$TDUCREATE
 40
2457182.327493183
  9
$TDUPDATE
 40
2457182.410828507
  9
$TDUUPDATE
 40
2457182.327495174
  9
$TDINDWG
 40
0.0000000116
  9
$TDUSRTIMER
 40
0.0000000116
  9
$USRTIMER
 70
     1
  9
$ANGBASE
 50
0.0
  9
$ANGDIR
 70
     0
  9
$PDMODE
 70
     0
  9
$PDSIZE
 40
0.0
  9
$PLINEWID
 40
0.0
  9
$SPLFRAME
 70
     0
  9
$SPLINETYPE
 70
     6
  9
$SPLINESEGS
 70
     8
  9
$HANDSEED
  5
1BD
  9
$SURFTAB1
 70
     6
  9
$SURFTAB2
 70
     6
  9
$SURFTYPE
 70
     6
  9
$SURFU
 70
     6
  9
$SURFV
 70
     6
  9
$UCSBASE
  2

  9
$UCSNAME
  2

  9
$UCSORG
 10
0.0
 20
0.0
 30
0.0
  9
$UCSXDIR
 10
1.0
 20
0.0
 30
0.0
  9
$UCSYDIR
 10
0.0
 20
1.0
 30
0.0
  9
$UCSORTHOREF
  2

  9
$UCSORTHOVIEW
 70
     0
  9
$UCSORGTOP
 10
0.0
 20
0.0
 30
0.0
  9
$UCSORGBOTTOM
 10
0.0
 20
0.0
 30
0.0
  9
$UCSORGLEFT
 10
0.0
 20
0.0
 30
0.0
  9
$UCSORGRIGHT
 10
0.0
 20
0.0
 30
0.0
  9
$UCSORGFRONT
 10
0.0
 20
0.0
 30
0.0
  9
$UCSORGBACK
 10
0.0
 20
0.0
 30
0.0
  9
$PUCSBASE
  2

  9
$PUCSNAME
  2

  9
$PUCSORG
 10
0.0
 20
0.0
 30
0.0
  9
$PUCSXDIR
 10
1.0
 20
0.0
 30
0.0
  9
$PUCSYDIR
 10
0.0
 20
1.0
 30
0.0
  9
$PUCSORTHOREF
  2

  9
$PUCSORTHOVIEW
 70
     0
  9
$PUCSORGTOP
 10
0.0
 20
0.0
 30
0.0
  9
$PUCSORGBOTTOM
 10
0.0
 20
0.0
 30
0.0
  9
$PUCSORGLEFT
 10
0.0
 20
0.0
 30
0.0
  9
$PUCSORGRIGHT
 10
0.0
 20
0.0
 30
0.0
  9
$PUCSORGFRONT
 10
0.0
 20
0.0
 30
0.0
  9
$PUCSORGBACK
 10
0.0
 20
0.0
 30
0.0
  9
$USERI1
 70
     0
  9
$USERI2
 70
     0
  9
$USERI3
 70
     0
  9
$USERI4
 70
     0
  9
$USERI5
 70
     0
  9
$USERR1
 40
0.0
  9
$USERR2
 40
0.0
  9
$USERR3
 40
0.0
  9
$USERR4
 40
0.0
  9
$USERR5
 40
0.0
  9
$WORLDVIEW
 70
     1
  9
$SHADEDGE
 70
     3
  9
$SHADEDIF
 70
    70
  9
$TILEMODE
 70
     1
  9
$MAXACTVP
 70
    64
  9
$PINSBASE
 10
0.0
 20
0.0
 30
0.0
  9
$PLIMCHECK
 70
     0
  9
$PEXTMIN
 10
0.0
 20
0.0
 30
0.0
  9
$PEXTMAX
 10
3000.0
 20
4500.0
 30
0.0
  9
$PLIMMIN
 10
0.0
 20
0.0
  9
$PLIMMAX
 10
3000.0
 20
4500.0
  9
$UNITMODE
 70
     0
  9
$VISRETAIN
 70
     1
  9
$PLINEGEN
 70
     0
  9
$PSLTSCALE
 70
     1
  9
$TREEDEPTH
 70
  3020
  9
$CMLSTYLE
  2
Standard
  9
$CMLJUST
 70
     0
  9
$CMLSCALE
 40
20.0
  9
$PROXYGRAPHICS
 70
     1
  9
$MEASUREMENT
 70
     1
  9
$CELWEIGHT
370
    -1
  9
$ENDCAPS
280
     0
  9
$JOINSTYLE
280
     0
  9
$LWDISPLAY
290
     0
  9
$INSUNITS
 70
     4
  9
$HYPERLINKBASE
  1

  9
$STYLESHEET
  1

  9
$XEDIT
290
     1
  9
$CEPSNTYPE
380
     0
  9
$PSTYLEMODE
290
     1
  9
$FINGERPRINTGUID
  2
{D7141446-A1DC-4263-B5E7-550B83ACD93F}
  9
$VERSIONGUID
  2
{FAEB1C32-E019-11D5-929B-00C0DF256EC4}
  9
$EXTNAMES
290
     1
  9
$PSVPSCALE
 40
0.0
  9
$OLESTARTUP
290
     0
  0
ENDSEC
  0
SECTION
  2
CLASSES
  0
CLASS
  1
ACDBDICTIONARYWDFLT
  2
AcDbDictionaryWithDefault
  3
ObjectDBX Classes
 90
        0
280
     0
281
     0
  0
CLASS
  1
VISUALSTYLE
  2
AcDbVisualStyle
  3
ObjectDBX Classes
 90
     4095
280
     0
281
     0
  0
CLASS
  1
MATERIAL
  2
AcDbMaterial
  3
ObjectDBX Classes
 90
     1153
280
     0
281
     0
  0
CLASS
  1
SCALE
  2
AcDbScale
  3
ObjectDBX Classes
 90
     1153
280
     0
281
     0
  0
CLASS
  1
SUN
  2
AcDbSun
  3
SCENEOE
 90
     1153
280
     0
281
     0
  0
CLASS
  1
DICTIONARYVAR
  2
AcDbDictionaryVar
  3
ObjectDBX Classes
 90
        0
280
     0
281
     0
  0
CLASS
  1
ACDBPLACEHOLDER
  2
AcDbPlaceHolder
  3
ObjectDBX Classes
 90
        0
280
     0
281
     0
  0
CLASS
  1
LAYOUT
  2
AcDbLayout
  3
ObjectDBX Classes
 90
        0
280
     0
281
     0
  0
ENDSEC
  0
SECTION
  2
TABLES
  0
TABLE
  2
VPORT
  5
8
330
0
100
AcDbSymbolTable
 70
     1
  0
VPORT
  5
29
330
8
100
AcDbSymbolTableRecord
100
AcDbViewportTableRecord
  2
*Active
 70
     0
 10
0.0
 20
0.0
 11
1.0
 21
1.0
 12
344.1869158879
 22
148.5
 13
0.0
 23
0.0
 14
10.0
 24
10.0
 15
10.0
 25
10.0
 16
0.0
 26
0.0
 36
1.0
 17
0.0
 27
0.0
 37
0.0
 40
297.0
 41
1.9729729729
 42
50.0
 43
0.0
 44
0.0
 50
0.0
 51
0.0
 71
     0
 72
   100
 73
     1
 74
     3
 75
     0
 76
     0
 77
     0
 78
     0
281
     0
 65
     1
110
0.0
120
0.0
130
0.0
111
1.0
121
0.0
131
0.0
112
0.0
122
1.0
132
0.0
 79
     0
146
0.0
  0
ENDTAB
  0
TABLE
  2
LTYPE
  5
5
330
0
100
AcDbSymbolTable
 70
     2
  0
LTYPE
  5
14
330
5
100
AcDbSymbolTableRecord
100
AcDbLinetypeTableRecord
  2
ByBlock
 70
     0
  3

 72
    65
 73
     0
 40
0.0
  0
LTYPE
  5
15
330
5
100
AcDbSymbolTableRecord
100
AcDbLinetypeTableRecord
  2
ByLayer
 70
     0
  3

 72
    65
 73
     0
 40
0.0
  0
LTYPE
  5
16
330
5
100
AcDbSymbolTableRecord
100
AcDbLinetypeTableRecord
  2
Continuous
 70
     0
  3
Solid line
 72
    65
 73
     0
 40
0.0
  0
LTYPE
  5
6D
330
5
100
AcDbSymbolTableRecord
100
AcDbLinetypeTableRecord
  2
CENTER2
 70
     0
  3
Center (.5x) ___ _ ___ _ ___ _ ___ _ ___ _ ___
 72
    65
 73
     4
 40
28.575
 49
19.05
 74
     4
 75
     0
340
0
 46
0.0
 50
0.0
 44
0.0
 45
0.0
 49
-3.175
 74
     4
 75
     0
340
0
 46
0.0
 50
0.0
 44
0.0
 45
0.0
 49
3.175
 74
     4
 75
     0
340
0
 46
0.0
 50
0.0
 44
0.0
 45
0.0
 49
-3.175
 74
     4
 75
     0
340
0
 46
0.0
 50
0.0
 44
0.0
 45
0.0
  0
ENDTAB
  0
TABLE
  2
LAYER
  5
2
330
0
100
AcDbSymbolTable
 70
     5
  0
LAYER
  5
10
330
2
100
AcDbSymbolTableRecord
100
AcDbLayerTableRecord
  2
0
 70
     0
 62
     7
  6
Continuous
370
    -3
390
F
  0
LAYER
  5
6A
330
2
100
AcDbSymbolTableRecord
100
AcDbLayerTableRecord
  2
Default
 70
     0
 62
     7
  6
Continuous
370
    -3
390
F
  0
LAYER
  5
94
330
2
100
AcDbSymbolTableRecord
100
AcDbLayerTableRecord
  2
DV1_Default
 70
     0
 62
     7
  6
Continuous
370
    -3
390
F
  0
LAYER
  5
10C
330
2
100
AcDbSymbolTableRecord
100
AcDbLayerTableRecord
  2
DV2_Default
 70
     0
 62
     7
  6
Continuous
370
    -3
390
F
  0
LAYER
  5
155
330
2
100
AcDbSymbolTableRecord
100
AcDbLayerTableRecord
  2
DV3_Default
 70
     0
 62
     7
  6
Continuous
370
    -3
390
F
  0
ENDTAB
  0
TABLE
  2
STYLE
  5
3
330
0
100
AcDbSymbolTable
 70
     2
  0
STYLE
  5
11
330
3
100
AcDbSymbolTableRecord
100
AcDbTextStyleTableRecord
  2
Standard
 70
     0
 40
0.0
 41
1.0
 50
0.0
 71
     0
 42
10.0
  3
txt
  4

  0
STYLE
  5
178
330
3
100
AcDbSymbolTableRecord
100
AcDbTextStyleTableRecord
  2
SEACAD_Solid_Edge_ISO
 70
     0
 40
0.0
 41
0.9
 50
0.0
 71
     0
 42
10.0
  3

  4

1001
ACAD
1000
Solid Edge ISO
1071
        0
  0
ENDTAB
  0
TABLE
  2
VIEW
  5
6
330
0
100
AcDbSymbolTable
 70
     0
  0
ENDTAB
  0
TABLE
  2
UCS
  5
7
330
0
100
AcDbSymbolTable
 70
     0
  0
ENDTAB
  0
TABLE
  2
APPID
  5
9
330
0
100
AcDbSymbolTable
 70
     1
  0
APPID
  5
12
330
9
100
AcDbSymbolTableRecord
100
AcDbRegAppTableRecord
  2
ACAD
 70
     0
  0
ENDTAB
  0
TABLE
  2
DIMSTYLE
  5
A
330
0
100
AcDbSymbolTable
 70
     1
100
AcDbDimStyleTable
  0
DIMSTYLE
105
27
330
A
100
AcDbSymbolTableRecord
100
AcDbDimStyleTableRecord
  2
ISO-25
 70
     0
 41
2.5
 42
0.625
 43
3.75
 44
1.25
 73
     0
 74
     0
 77
     1
 78
     8
140
2.5
141
2.5
143
0.0393700787
147
0.625
171
     3
172
     1
178
     0
271
     2
272
     2
274
     3
278
    44
283
     0
284
     8
340
11
  0
ENDTAB
  0
TABLE
  2
BLOCK_RECORD
  5
1
330
0
100
AcDbSymbolTable
 70
     9
  0
BLOCK_RECORD
  5
1F
330
1
100
AcDbSymbolTableRecord
100
AcDbBlockTableRecord
  2
*Model_Space
340
22
  0
BLOCK_RECORD
  5
1B
330
1
100
AcDbSymbolTableRecord
100
AcDbBlockTableRecord
  2
*Paper_Space
340
1E
  0
BLOCK_RECORD
  5
6B
330
1
100
AcDbSymbolTableRecord
100
AcDbBlockTableRecord
  2
SEANNOT_GROUP
340
0
102
{BLKREFS
331
6C
102
}
  0
BLOCK_RECORD
  5
72
330
1
100
AcDbSymbolTableRecord
100
AcDbBlockTableRecord
  2
SEANNOT_GROUP1
340
0
102
{BLKREFS
331
73
102
}
  0
BLOCK_RECORD
  5
78
330
1
100
AcDbSymbolTableRecord
100
AcDbBlockTableRecord
  2
SEANNOT_GROUP2
340
0
102
{BLKREFS
331
79
102
}
  0
BLOCK_RECORD
  5
82
330
1
100
AcDbSymbolTableRecord
100
AcDbBlockTableRecord
  2
SEANNOT_GROUP3
340
0
102
{BLKREFS
331
83
102
}
  0
BLOCK_RECORD
  5
88
330
1
100
AcDbSymbolTableRecord
100
AcDbBlockTableRecord
  2
SEANNOT_GROUP4
340
0
102
{BLKREFS
331
89
102
}
  0
BLOCK_RECORD
  5
92
330
1
100
AcDbSymbolTableRecord
100
AcDbBlockTableRecord
  2
SE
340
0
102
{BLKREFS
331
93
102
}
  0
BLOCK_RECORD
  5
10A
330
1
100
AcDbSymbolTableRecord
100
AcDbBlockTableRecord
  2
SE1
340
0
102
{BLKREFS
331
10B
102
}
  0
BLOCK_RECORD
  5
153
330
1
100
AcDbSymbolTableRecord
100
AcDbBlockTableRecord
  2
SE2
340
0
102
{BLKREFS
331
154
102
}
  0
ENDTAB
  0
ENDSEC
  0
SECTION
  2
BLOCKS
  0
BLOCK
  5
20
330
1F
100
AcDbEntity
  8
0
100
AcDbBlockBegin
  2
*Model_Space
 70
     0
 10
0.0
 20
0.0
 30
0.0
  3
*Model_Space
  1
*Model_Space
  0
ENDBLK
  5
21
330
1F
100
AcDbEntity
  8
0
100
AcDbBlockEnd
  0
BLOCK
  5
1C
330
1B
100
AcDbEntity
 67
     1
  8
0
100
AcDbBlockBegin
  2
*Paper_Space
 70
     0
 10
0.0
 20
0.0
 30
0.0
  3
*Paper_Space
  1
*Paper_Space
  0
ENDBLK
  5
1D
330
1B
100
AcDbEntity
 67
     1
  8
0
100
AcDbBlockEnd
  0
BLOCK
  5
70
330
6B
100
AcDbEntity
  8
0
100
AcDbBlockBegin
  2
SEANNOT_GROUP
 70
     0
 10
0.0
 20
0.0
 30
0.0
  3
SEANNOT_GROUP
  1
SEANNOT_GROUP
  0
LINE
  5
6E
330
6B
100
AcDbEntity
  8
Default
  6
CENTER2
 62
     7
100
AcDbLine
 10
52.2350601825
 20
392.0997486054
 30
0.0
 11
12.2350610766
 21
392.0997486054
 31
0.0
  0
LINE
  5
6F
330
6B
100
AcDbEntity
  8
Default
  6
CENTER2
 62
     7
100
AcDbLine
 10
32.2350606296
 20
412.0997481584
 30
0.0
 11
32.2350606296
 21
372.0997490524
 31
0.0
  0
ENDBLK
  5
71
330
6B
100
AcDbEntity
  8
0
100
AcDbBlockEnd
  0
BLOCK
  5
76
330
72
100
AcDbEntity
  8
0
100
AcDbBlockBegin
  2
SEANNOT_GROUP1
 70
     0
 10
0.0
 20
0.0
 30
0.0
  3
SEANNOT_GROUP1
  1
SEANNOT_GROUP1
  0
LINE
  5
74
330
72
100
AcDbEntity
  8
Default
  6
CENTER2
 62
     7
100
AcDbLine
 10
164.9240485322
 20
392.0997486054
 30
0.0
 11
124.9240494262
 21
392.0997486054
 31
0.0
  0
LINE
  5
75
330
72
100
AcDbEntity
  8
Default
  6
CENTER2
 62
     7
100
AcDbLine
 10
144.9240489792
 20
412.0997481584
 30
0.0
 11
144.9240489792
 21
372.0997490524
 31
0.0
  0
ENDBLK
  5
77
330
72
100
AcDbEntity
  8
0
100
AcDbBlockEnd
  0
BLOCK
  5
80
330
78
100
AcDbEntity
  8
0
100
AcDbBlockBegin
  2
SEANNOT_GROUP2
 70
     0
 10
0.0
 20
0.0
 30
0.0
  3
SEANNOT_GROUP2
  1
SEANNOT_GROUP2
  0
LINE
  5
7A
330
78
100
AcDbEntity
  8
Default
  6
CENTER2
 62
     7
100
AcDbLine
 10
52.2350601825
 20
636.129538651
 30
0.0
 11
12.2350610766
 21
636.129538651
 31
0.0
  0
LINE
  5
7B
330
78
100
AcDbEntity
  8
Default
  6
CENTER2
 62
     7
100
AcDbLine
 10
32.2350606296
 20
656.129538204
 30
0.0
 11
32.2350606296
 21
616.1295390981
 31
0.0
  0
LINE
  5
7C
330
78
100
AcDbEntity
  8
Default
  6
CENTER2
 62
     7
100
AcDbLine
 10
57.2350591395
 20
636.129538651
 30
0.0
 11
38.0350606296
 21
636.129538651
 31
0.0
  0
LINE
  5
7D
330
78
100
AcDbEntity
  8
Default
  6
CENTER2
 62
     7
100
AcDbLine
 10
32.2350606296
 20
661.1295371609
 30
0.0
 11
32.2350606296
 21
640.1897025148
 31
0.0
  0
LINE
  5
7E
330
78
100
AcDbEntity
  8
Default
  6
CENTER2
 62
     7
100
AcDbLine
 10
7.2350621197
 20
636.129538651
 30
0.0
 11
26.4350606296
 21
636.129538651
 31
0.0
  0
LINE
  5
7F
330
78
100
AcDbEntity
  8
Default
  6
CENTER2
 62
     7
100
AcDbLine
 10
32.2350606296
 20
611.1295401412
 30
0.0
 11
32.2350606296
 21
632.0693747873
 31
0.0
  0
ENDBLK
  5
81
330
78
100
AcDbEntity
  8
0
100
AcDbBlockEnd
  0
BLOCK
  5
86
330
82
100
AcDbEntity
  8
0
100
AcDbBlockBegin
  2
SEANNOT_GROUP3
 70
     0
 10
0.0
 20
0.0
 30
0.0
  3
SEANNOT_GROUP3
  1
SEANNOT_GROUP3
  0
LINE
  5
84
330
82
100
AcDbEntity
  8
Default
  6
CENTER2
 62
     7
100
AcDbLine
 10
339.4481947465
 20
636.129538651
 30
0.0
 11
299.4481956406
 21
636.129538651
 31
0.0
  0
LINE
  5
85
330
82
100
AcDbEntity
  8
Default
  6
CENTER2
 62
     7
100
AcDbLine
 10
319.4481951936
 20
656.129538204
 30
0.0
 11
319.4481951936
 21
616.1295390981
 31
0.0
  0
ENDBLK
  5
87
330
82
100
AcDbEntity
  8
0
100
AcDbBlockEnd
  0
BLOCK
  5
90
330
88
100
AcDbEntity
  8
0
100
AcDbBlockBegin
  2
SEANNOT_GROUP4
 70
     0
 10
0.0
 20
0.0
 30
0.0
  3
SEANNOT_GROUP4
  1
SEANNOT_GROUP4
  0
LINE
  5
8A
330
88
100
AcDbEntity
  8
Default
  6
CENTER2
 62
     7
100
AcDbLine
 10
51.588652575
 20
305.7414124029
 30
0.0
 11
11.5886534691
 21
305.7414124029
 31
0.0
  0
LINE
  5
8B
330
88
100
AcDbEntity
  8
Default
  6
CENTER2
 62
     7
100
AcDbLine
 10
31.588653022
 20
325.7414119559
 30
0.0
 11
31.588653022
 21
285.7414128499
 31
0.0
  0
LINE
  5
8C
330
88
100
AcDbEntity
  8
Default
  6
CENTER2
 62
     7
100
AcDbLine
 10
56.5886515319
 20
305.7414124029
 30
0.0
 11
60.3273060441
 21
305.7414124029
 31
0.0
  0
LINE
  5
8D
330
88
100
AcDbEntity
  8
Default
  6
CENTER2
 62
     7
100
AcDbLine
 10
31.588653022
 20
330.7414109128
 30
0.0
 11
31.588653022
 21
334.4800654249
 31
0.0
  0
LINE
  5
8E
330
88
100
AcDbEntity
  8
Default
  6
CENTER2
 62
     7
100
AcDbLine
 10
6.5886545121
 20
305.7414124029
 30
0.0
 11
2.85
 21
305.7414124029
 31
0.0
  0
LINE
  5
8F
330
88
100
AcDbEntity
  8
Default
  6
CENTER2
 62
     7
100
AcDbLine
 10
31.588653022
 20
280.741413893
 30
0.0
 11
31.588653022
 21
277.0027593809
 31
0.0
  0
ENDBLK
  5
91
330
88
100
AcDbEntity
  8
0
100
AcDbBlockEnd
  0
BLOCK
  5
108
330
92
100
AcDbEntity
  8
0
100
AcDbBlockBegin
  2
SE
 70
     0
 10
0.0
 20
0.0
 30
0.0
  3
SE
  1
SE
  0
LINE
  5
95
330
92
100
AcDbEntity
  8
DV1_Default
  6
Continuous
 62
     7
100
AcDbLine
 10
7.2352760618
 20
392.0997486054
 30
0.0
 11
32.2350606296
 21
392.0997486054
 31
0.0
  0
LINE
  5
96
330
92
100
AcDbEntity
  8
DV1_Default
  6
Continuous
 62
     7
100
AcDbLine
 10
57.2348451974
 20
392.0997486054
 30
0.0
 11
57.2348451974
 21
662.4266301994
 31
0.0
  0
LINE
  5
97
330
92
100
AcDbEntity
  8
DV1_Default
  6
Continuous
 62
     7
100
AcDbLine
 10
57.2348451974
 20
392.0997486054
 30
0.0
 11
32.2350606296
 21
392.0997486054
 31
0.0
  0
SPLINE
  5
98
330
92
100
AcDbEntity
  8
DV1_Default
  6
Continuous
 62
     7
100
AcDbSpline
210
0.0
220
0.0
230
1.0
 70
     8
 71
     3
 72
    48
 73
    44
 74
     0
 42
0.000000001
 43
0.0000000001
 40
0.0
 40
0.0
 40
0.0
 40
0.0
 40
0.0158042112104251
 40
0.0158042112104251
 40
0.0316084224208503
 40
0.0316084224208503
 40
0.0474126336312754
 40
0.0474126336312754
 40
0.0632168448417006
 40
0.0632168448417006
 40
0.0948252672625509
 40
0.0948252672625509
 40
0.1264336896834011
 40
0.1264336896834011
 40
0.1896505345251017
 40
0.1896505345251017
 40
0.2528673793668023
 40
0.2528673793668023
 40
0.3793010690502031
 40
0.3793010690502031
 40
0.5057347587336039
 40
0.5057347587336039
 40
0.6321684484170046
 40
0.6321684484170046
 40
0.7586021381004054
 40
0.7586021381004054
 40
0.8218189829421059
 40
0.8218189829421059
 40
0.8850358277838062
 40
0.8850358277838062
 40
0.9166442502046562
 40
0.9166442502046562
 40
0.9324484614150815
 40
0.9324484614150815
 40
0.9482526726255066
 40
0.9482526726255066
 40
0.9640568838359317
 40
0.9640568838359317
 40
0.9798610950463568
 40
0.9798610950463568
 40
0.9956653062567821
 40
0.9956653062567821
 40
1.0
 40
1.0
 40
1.0
 40
1.0
 10
32.23506062957577
 20
660.1319139480034
 30
0.0
 10
33.3722448025293
 20
660.1319139079804
 30
0.0
 10
34.52148063446214
 20
660.1596782466517
 30
0.0
 10
36.76523356203593
 20
660.197733323245
 30
0.0
 10
37.8803892216791
 20
660.2061023971772
 30
0.0
 10
40.04500467113449
 20
660.2164026251043
 30
0.0
 10
41.0824677923503
 20
660.2279695633133
 30
0.0
 10
43.05774861361815
 20
660.2522616286058
 30
0.0
 10
43.99680057644631
 20
660.2602338215427
 30
0.0
 10
46.49797979743465
 20
660.2661423813043
 30
0.0
 10
47.79595522671817
 20
660.2542771947451
 30
0.0
 10
49.76364774206841
 20
660.2685598950504
 30
0.0
 10
50.48295271993765
 20
660.2916964047578
 30
0.0
 10
52.21696804541263
 20
660.3780440556249
 30
0.0
 10
52.85200051075461
 20
660.444519960419
 30
0.0
 10
53.84966404009356
 20
660.5161940789911
 30
0.0
 10
54.18095959659993
 20
660.52872666706
 30
0.0
 10
54.97820873140389
 20
660.5298626314085
 30
0.0
 10
55.24711483602061
 20
660.492516460501
 30
0.0
 10
55.6787183860494
 20
660.4544535080278
 30
0.0
 10
55.82195346220409
 20
660.4464351423052
 30
0.0
 10
56.06482283131393
 20
660.4583800312918
 30
0.0
 10
56.16193803487369
 20
660.476758407391
 30
0.0
 10
56.35428191779026
 20
660.5722113931156
 30
0.0
 10
56.4486329303098
 20
660.6412702413694
 30
0.0
 10
56.61540401655623
 20
660.909257603063
 30
0.0
 10
56.67521165291651
 20
661.0257511535591
 30
0.0
 10
56.80879179446423
 20
661.4100715065464
 30
0.0
 10
56.88311800112945
 20
661.6576220997497
 30
0.0
 10
57.00797248443938
 20
662.4409307661554
 30
0.0
 10
57.05177444678583
 20
662.772548651538
 30
0.0
 10
57.11466905433371
 20
663.529865065828
 30
0.0
 10
57.13508075438001
 20
663.8266320253725
 30
0.0
 10
57.17261382258295
 20
664.5670915089291
 30
0.0
 10
57.1898895240753
 20
665.0171744497478
 30
0.0
 10
57.21730844708107
 20
666.1355638922402
 30
0.0
 10
57.22740752280907
 20
666.8053421628263
 30
0.0
 10
57.2392246275248
 20
668.4278329796542
 30
0.0
 10
57.24071917219637
 20
669.3483164363528
 30
0.0
 10
57.24001554830308
 20
671.3957259829001
 30
0.0
 10
57.23818749642449
 20
672.4936917205424
 30
0.0
 10
57.2367251844998
 20
673.9109635703327
 30
0.0
 10
57.23645185341047
 20
674.2182326993874
 30
0.0
 10
57.23621578966584
 20
674.5271584117789
 30
0.0
  0
SPLINE
  5
99
330
92
100
AcDbEntity
  8
DV1_Default
  6
Continuous
 62
     7
100
AcDbSpline
210
0.0
220
0.0
230
1.0
 70
     8
 71
     3
 72
     8
 73
     4
 74
     0
 42
0.000000001
 43
0.0000000001
 40
0.0
 40
0.0
 40
0.0
 40
0.0
 40
1.0
 40
1.0
 40
1.0
 40
1.0
 10
57.23621578966584
 20
674.5271584117789
 30
0.0
 10
57.23559116947284
 20
675.3445699901374
 30
0.0
 10
57.2352274659977
 20
676.1735796657183
 30
0.0
 10
57.23504781343121
 20
677.0038273694574
 30
0.0
  0
SPLINE
  5
9A
330
92
100
AcDbEntity
  8
DV1_Default
  6
Continuous
 62
     7
100
AcDbSpline
210
0.0
220
0.0
230
1.0
 70
     8
 71
     3
 72
    34
 73
    30
 74
     0
 42
0.000000001
 43
0.0000000001
 40
0.0
 40
0.0
 40
0.0
 40
0.0
 40
0.01785926855492
 40
0.01785926855492
 40
0.03571853710984
 40
0.03571853710984
 40
0.0535778056647599
 40
0.0535778056647599
 40
0.0714370742196799
 40
0.0714370742196799
 40
0.1071556113295202
 40
0.1071556113295202
 40
0.1428741484393604
 40
0.1428741484393604
 40
0.2143112226590405
 40
0.2143112226590405
 40
0.2857482968787205
 40
0.2857482968787205
 40
0.4286224453180806
 40
0.4286224453180806
 40
0.5714965937574408
 40
0.5714965937574408
 40
0.714370742196801
 40
0.714370742196801
 40
0.8572448906361609
 40
0.8572448906361609
 40
0.9286819648558411
 40
0.9286819648558411
 40
1.0
 40
1.0
 40
1.0
 40
1.0
 10
32.23506062957711
 20
659.3171946112084
 30
0.0
 10
31.09566211647894
 20
659.31719533098
 30
0.0
 10
29.94330068900864
 20
659.3287848215962
 30
0.0
 10
27.6927061288979
 20
659.3233215758058
 30
0.0
 10
26.57493239805314
 20
659.3043340275391
 30
0.0
 10
24.40236006445503
 20
659.2602200526582
 30
0.0
 10
23.36177099008788
 20
659.2441689019311
 30
0.0
 10
21.38243985194971
 20
659.2301034785253
 30
0.0
 10
20.43959223252389
 20
659.2264009845392
 30
0.0
 10
17.92253598960333
 20
659.2202069529071
 30
0.0
 10
16.60847698864856
 20
659.2290247157391
 30
0.0
 10
14.60587390289208
 20
659.2869436761682
 30
0.0
 10
13.87118886754311
 20
659.333092516717
 30
0.0
 10
12.09598367585254
 20
659.4740207532413
 30
0.0
 10
11.44422280254372
 20
659.561236085475
 30
0.0
 10
10.42208466669764
 20
659.6635175075339
 30
0.0
 10
10.08345709072203
 20
659.6860293871923
 30
0.0
 10
9.274877971957563
 20
659.7165560789641
 30
0.0
 10
9.010756158747244
 20
659.6967105943978
 30
0.0
 10
8.59324909004027
 20
659.6999783342883
 30
0.0
 10
8.45934404314588
 20
659.7145496645765
 30
0.0
 10
8.23555153254744
 20
659.7768938740509
 30
0.0
 10
8.148375199332799
 20
659.8230411433559
 30
0.0
 10
7.976630080381905
 20
659.9818227476078
 30
0.0
 10
7.892828189641106
 20
660.0859882221081
 30
0.0
 10
7.744520674012594
 20
660.41911276126
 30
0.0
 10
7.691301909705898
 20
660.5593343547096
 30
0.0
 10
7.57363510946597
 20
661.0007236674338
 30
0.0
 10
7.508531688938461
 20
661.2804029961322
 30
0.0
 10
7.438894174512111
 20
661.8514957541902
 30
0.0
  0
SPLINE
  5
9B
330
92
100
AcDbEntity
  8
DV1_Default
  6
Continuous
 62
     7
100
AcDbSpline
210
0.0
220
0.0
230
1.0
 70
     8
 71
     3
 72
    22
 73
    18
 74
     0
 42
0.000000001
 43
0.0000000001
 40
0.0
 40
0.0
 40
0.0
 40
0.0
 40
0.0008324807467402
 40
0.0008324807467402
 40
0.250624360560056
 40
0.250624360560056
 40
0.3755203004667126
 40
0.3755203004667126
 40
0.5004162403733701
 40
0.5004162403733701
 40
0.6253121802800276
 40
0.6253121802800276
 40
0.750208120186685
 40
0.750208120186685
 40
0.8751040600933416
 40
0.8751040600933416
 40
1.0
 40
1.0
 40
1.0
 40
1.0
 10
7.438894174512111
 20
661.8514957541902
 30
0.0
 10
7.438777940444219
 20
661.8524489822737
 30
0.0
 10
7.438661693744363
 20
661.8534030222336
 30
0.0
 10
7.403660982040019
 20
662.140868411065
 30
0.0
 10
7.367720394129019
 20
662.5027689161917
 30
0.0
 10
7.317064747787292
 20
663.3136061950679
 30
0.0
 10
7.300779807831066
 20
663.6295270241335
 30
0.0
 10
7.271108355332772
 20
664.4098974150802
 30
0.0
 10
7.257600758533149
 20
664.881150187671
 30
0.0
 10
7.236602009081991
 20
666.0375707358834
 30
0.0
 10
7.229128197569271
 20
666.7254019865168
 30
0.0
 10
7.221325799768849
 20
668.3733099891338
 30
0.0
 10
7.221150229790113
 20
669.3031315464764
 30
0.0
 10
7.223987203964857
 20
671.3650185721202
 30
0.0
 10
7.226629573655566
 20
672.4682163458781
 30
0.0
 10
7.230581753845895
 20
674.7032615965757
 30
0.0
 10
7.232026844462585
 20
675.8502069168075
 30
0.0
 10
7.233108335025454
 20
676.9995060991304
 30
0.0
  0
LINE
  5
9C
330
92
100
AcDbEntity
  8
DV1_Default
  6
Continuous
 62
     7
100
AcDbLine
 10
7.7336459248
 20
677.4995229459
 30
0.0
 11
32.2350606296
 21
677.4995229459
 31
0.0
  0
LINE
  5
9D
330
92
100
AcDbEntity
  8
DV1_Default
  6
Continuous
 62
     7
100
AcDbLine
 10
32.2350606296
 20
677.4995229459
 30
0.0
 11
56.7364753344
 21
677.4995229459
 31
0.0
  0
SPLINE
  5
9E
330
92
100
AcDbEntity
  8
DV1_Default
  6
Continuous
 62
     7
100
AcDbSpline
210
0.0
220
0.0
230
1.0
 70
     8
 71
     3
 72
    20
 73
    16
 74
     0
 42
0.000000001
 43
0.0000000001
 40
0.0
 40
0.0
 40
0.0
 40
0.0
 40
0.1254400463509319
 40
0.1254400463509319
 40
0.2508800927018637
 40
0.2508800927018637
 40
0.3763201390527955
 40
0.3763201390527955
 40
0.5017601854037274
 40
0.5017601854037274
 40
0.6272002317546592
 40
0.6272002317546592
 40
0.752640278105591
 40
0.752640278105591
 40
1.0
 40
1.0
 40
1.0
 40
1.0
 10
57.23701292412876
 20
676.9995060991304
 30
0.0
 10
57.23809494901893
 20
675.8496390875781
 30
0.0
 10
57.23954104186591
 20
674.7021308787129
 30
0.0
 10
57.24349600746721
 20
672.466034325818
 30
0.0
 10
57.24614046288706
 20
671.3622755089946
 30
0.0
 10
57.24897302296188
 20
669.2997629469328
 30
0.0
 10
57.24879062305057
 20
668.3697446258045
 30
0.0
 10
57.2409631567134
 20
666.7216411523544
 30
0.0
 10
57.23347397278088
 20
666.0340178219359
 30
0.0
 10
57.21244121074372
 20
664.877849369932
 30
0.0
 10
57.19893037650723
 20
664.4072966908934
 30
0.0
 10
57.16925650650749
 20
663.627725604
 30
0.0
 10
57.1529719617078
 20
663.3120648508328
 30
0.0
 10
57.10279281624779
 20
662.5094148739902
 30
0.0
 10
57.0673900612382
 20
662.1503013488725
 30
0.0
 10
57.03296934304012
 20
661.8658382388908
 30
0.0
  0
SPLINE
  5
9F
330
92
100
AcDbEntity
  8
DV1_Default
  6
Continuous
 62
     7
100
AcDbSpline
210
0.0
220
0.0
230
1.0
 70
     8
 71
     3
 72
    36
 73
    32
 74
     0
 42
0.000000001
 43
0.0000000001
 40
0.0
 40
0.0
 40
0.0
 40
0.0
 40
0.0005008948745577
 40
0.0005008948745577
 40
0.0718936880978036
 40
0.0718936880978036
 40
0.1432864813210496
 40
0.1432864813210496
 40
0.2860720677675415
 40
0.2860720677675415
 40
0.4288576542140335
 40
0.4288576542140335
 40
0.5716432406605254
 40
0.5716432406605254
 40
0.7144288271070173
 40
0.7144288271070173
 40
0.7858216203302629
 40
0.7858216203302629
 40
0.8572144135535087
 40
0.8572144135535087
 40
0.8929108101651314
 40
0.8929108101651314
 40
0.928607206776754
 40
0.928607206776754
 40
0.9464554050825656
 40
0.9464554050825656
 40
0.9643036033883771
 40
0.9643036033883771
 40
0.9821518016941887
 40
0.9821518016941887
 40
1.0
 40
1.0
 40
1.0
 40
1.0
 10
57.03296934304012
 20
661.8658382388908
 30
0.0
 10
57.03247947471964
 20
661.8617898205772
 30
0.0
 10
57.03198980530459
 20
661.8577565222388
 30
0.0
 10
56.96173714036536
 20
661.2809845213469
 30
0.0
 10
56.89652022467543
 20
661.0008076555144
 30
0.0
 10
56.77876577290389
 20
660.5591772565904
 30
0.0
 10
56.72555144139511
 20
660.4189868146574
 30
0.0
 10
56.57725462280924
 20
660.0859330079983
 30
0.0
 10
56.49345656568109
 20
659.9817810026209
 30
0.0
 10
56.3217146925189
 20
659.8230218919674
 30
0.0
 10
56.2345377926851
 20
659.7768800050884
 30
0.0
 10
56.01074036406463
 20
659.7145443726731
 30
0.0
 10
55.87683103439019
 20
659.699975948399
 30
0.0
 10
55.45930998047536
 20
659.6967122273985
 30
0.0
 10
55.19517852586776
 20
659.7165575244148
 30
0.0
 10
54.38657224937247
 20
659.6860239712684
 30
0.0
 10
54.0479338225348
 20
659.6635087323366
 30
0.0
 10
53.0257654891044
 20
659.5612212709885
 30
0.0
 10
52.37398642211625
 20
659.4740035008414
 30
0.0
 10
50.5987349252129
 20
659.333079467138
 30
0.0
 10
49.86403382447958
 20
659.2869337087234
 30
0.0
 10
47.86139559699274
 20
659.2290213162331
 30
0.0
 10
46.5473215242288
 20
659.2202066950798
 30
0.0
 10
44.03027331993269
 20
659.2264020673222
 30
0.0
 10
43.08743542440255
 20
659.2301045857354
 30
0.0
 10
41.10813874506076
 20
659.2441710459805
 30
0.0
 10
40.0675706275473
 20
659.2602240054846
 30
0.0
 10
37.89504414874479
 20
659.3043368825338
 30
0.0
 10
36.77729991360327
 20
659.3233225014695
 30
0.0
 10
34.52676199730343
 20
659.3287843177516
 30
0.0
 10
33.38728456299656
 20
659.3171946112084
 30
0.0
 10
32.23506062957711
 20
659.3171946112084
 30
0.0
  0
LINE
  5
A0
330
92
100
AcDbEntity
  8
DV1_Default
  6
Continuous
 62
     7
100
AcDbLine
 10
57.2370129241
 20
676.9995060991
 30
0.0
 11
57.2350478134
 21
677.0038273695
 31
0.0
  0
ARC
  5
A1
330
92
100
AcDbEntity
  8
DV1_Default
  6
Continuous
 62
     7
100
AcDbCircle
 10
36.2084301196
 20
-1010.0794894072
 30
0.0
 40
1687.214342162223
100
AcDbArc
 50
89.2859427472
 51
90.1349309966
  0
SPLINE
  5
A2
330
92
100
AcDbEntity
  8
DV1_Default
  6
Continuous
 62
     7
100
AcDbSpline
210
0.0
220
0.0
230
1.0
 70
     8
 71
     3
 72
     8
 73
     4
 74
     0
 42
0.000000001
 43
0.0000000001
 40
0.0
 40
0.0
 40
0.0
 40
0.0
 40
1.0
 40
1.0
 40
1.0
 40
1.0
 10
7.235073445722856
 20
677.0038273694574
 30
0.0
 10
7.234892155995349
 20
676.1660136771775
 30
0.0
 10
7.234523354047617
 20
675.3294623267594
 30
0.0
 10
7.233888254498382
 20
674.5048155910721
 30
0.0
  0
SPLINE
  5
A3
330
92
100
AcDbEntity
  8
DV1_Default
  6
Continuous
 62
     7
100
AcDbSpline
210
0.0
220
0.0
230
1.0
 70
     8
 71
     3
 72
    48
 73
    44
 74
     0
 42
0.000000001
 43
0.0000000001
 40
0.0
 40
0.0
 40
0.0
 40
0.0
 40
0.0042378548561394
 40
0.0042378548561394
 40
0.0200436031917561
 40
0.0200436031917561
 40
0.0358493515273728
 40
0.0358493515273728
 40
0.0516550998629895
 40
0.0516550998629895
 40
0.0674608481986062
 40
0.0674608481986062
 40
0.0832665965342229
 40
0.0832665965342229
 40
0.1148780932054566
 40
0.1148780932054566
 40
0.1781010865479239
 40
0.1781010865479239
 40
0.2413240798903913
 40
0.2413240798903913
 40
0.3677700665753261
 40
0.3677700665753261
 40
0.494216053260261
 40
0.494216053260261
 40
0.6206620399451958
 40
0.6206620399451958
 40
0.7471080266301308
 40
0.7471080266301308
 40
0.8103310199725983
 40
0.8103310199725983
 40
0.8735540133150658
 40
0.8735540133150658
 40
0.9051655099862995
 40
0.9051655099862995
 40
0.9367770066575333
 40
0.9367770066575333
 40
0.9525827549931499
 40
0.9525827549931499
 40
0.9683885033287666
 40
0.9683885033287666
 40
0.9841942516643833
 40
0.9841942516643833
 40
1.0
 40
1.0
 40
1.0
 40
1.0
 10
7.233888254498382
 20
674.5048155910721
 30
0.0
 10
7.233655588134911
 20
674.2027093191193
 30
0.0
 10
7.233387182075799
 20
673.9022007607953
 30
0.0
 10
7.231930355673998
 20
672.4909295551336
 30
0.0
 10
7.230100276162988
 20
671.3922543816002
 30
0.0
 10
7.229404884560215
 20
669.3440680433196
 30
0.0
 10
7.230910311014576
 20
668.4233493976578
 30
0.0
 10
7.24276699278114
 20
666.8006502121272
 30
0.0
 10
7.252889743709061
 20
666.1311678552614
 30
0.0
 10
7.280361736694593
 20
665.0131394137497
 30
0.0
 10
7.297640552417516
 20
664.5639505233315
 30
0.0
 10
7.335176418257646
 20
663.8244692543947
 30
0.0
 10
7.355587071019975
 20
663.5280186746954
 30
0.0
 10
7.418475963802729
 20
662.7714405818801
 30
0.0
 10
7.462270986608631
 20
662.4400392585588
 30
0.0
 10
7.58710801853155
 20
661.6572149363308
 30
0.0
 10
7.661424038714597
 20
661.4097466787877
 30
0.0
 10
7.794987654010758
 20
661.0255794033127
 30
0.0
 10
7.854788781356603
 20
660.9091231039037
 30
0.0
 10
8.02154418766176
 20
660.6412196004205
 30
0.0
 10
8.115889732585146
 20
660.5721754998166
 30
0.0
 10
8.308228434134136
 20
660.4767468629087
 30
0.0
 10
8.405343980382076
 20
660.4583736466429
 30
0.0
 10
8.648218813786423
 20
660.4464367790922
 30
0.0
 10
8.791458958928505
 20
660.454457662696
 30
0.0
 10
9.22307903942313
 20
660.4925236562591
 30
0.0
 10
9.491996320825248
 20
660.529868581855
 30
0.0
 10
10.28927823440414
 20
660.5287234651371
 30
0.0
 10
10.62058703921087
 20
660.5161866624983
 30
0.0
 10
11.61828834252163
 20
660.444506009513
 30
0.0
 10
12.25334372342013
 20
660.378028201472
 30
0.0
 10
13.98741780527645
 20
660.2916871768964
 30
0.0
 10
14.70674388049061
 20
660.2685547525571
 30
0.0
 10
16.67448192307146
 20
660.2542780828003
 30
0.0
 10
17.97247907970882
 20
660.2661439243416
 30
0.0
 10
20.47364838629043
 20
660.2602318767592
 30
0.0
 10
21.41268899343933
 20
660.2522581235921
 30
0.0
 10
23.38792495369909
 20
660.2279658390013
 30
0.0
 10
24.42536084238737
 20
660.2164014489368
 30
0.0
 10
26.58991674836561
 20
660.206101532135
 30
0.0
 10
27.70503472634471
 20
660.1977312538627
 30
0.0
 10
29.94871516189417
 20
660.1596765581239
 30
0.0
 10
31.0831812208836
 20
660.1319139046991
 30
0.0
 10
32.23506062957577
 20
660.1319139480034
 30
0.0
  0
LINE
  5
A4
330
92
100
AcDbEntity
  8
DV1_Default
  6
Continuous
 62
     7
100
AcDbLine
 10
7.2350734457
 20
677.0038273695
 30
0.0
 11
7.233108335
 21
676.9995060991
 31
0.0
  0
ARC
  5
A5
330
92
100
AcDbEntity
  8
DV1_Default
  6
Continuous
 62
     7
100
AcDbCircle
 10
28.9253470803
 20
-1141.3957967337
 30
0.0
 40
1818.528982696967
100
AcDbArc
 50
89.8957219136
 51
90.6834043426
  0
ELLIPSE
  5
A6
330
92
100
AcDbEntity
  8
DV1_Default
  6
Continuous
 62
     7
100
AcDbEllipse
 10
7.7336459248
 20
676.9995229459
 30
0.0
 11
1.110223024625157E-13
 21
-0.500000000000056
 31
0.0
210
0.0
220
0.0
230
1.0
 40
0.9971819105
 41
3.141592653589793
 42
4.703780026836941
  0
ELLIPSE
  5
A7
330
92
100
AcDbEntity
  8
DV1_Default
  6
Continuous
 62
     7
100
AcDbEllipse
 10
7.733085626
 20
676.9995229459
 30
0.0
 11
8.167772014289199E-11
 21
-0.5000000000007221
 31
0.0
210
0.0
220
0.0
230
1.0
 40
0.9999545826
 41
3.141592653589793
 42
4.712422673668343
  0
ELLIPSE
  5
A8
330
92
100
AcDbEntity
  8
DV1_Default
  6
Continuous
 62
     7
100
AcDbEllipse
 10
56.7364753344
 20
676.9995229459
 30
0.0
 11
1.526556658859590E-13
 21
0.5000000000000004
 31
0.0
210
0.0
220
0.0
230
1.0
 40
0.9971819105
 41
4.720997933932523
 42
6.283185307179586
  0
ELLIPSE
  5
A9
330
92
100
AcDbEntity
  8
DV1_Default
  6
Continuous
 62
     7
100
AcDbEllipse
 10
56.7370356331
 20
676.9995229459
 30
0.0
 11
5.355785259730794E-11
 21
0.4999999999996119
 31
0.0
210
0.0
220
0.0
230
1.0
 40
0.9999545826
 41
4.7123552870448
 42
6.283185307179581
  0
SPLINE
  5
AA
330
92
100
AcDbEntity
  8
DV1_Default
  6
Continuous
 62
     7
100
AcDbSpline
210
0.0
220
0.0
230
1.0
 70
     8
 71
     3
 72
    27
 73
    23
 74
     0
 42
0.000000001
 43
0.0000000001
 40
0.0
 40
0.0
 40
0.0
 40
0.0
 40
0.033260646263415
 40
0.0752661565906913
 40
0.1171556162791511
 40
0.1591923138389414
 40
0.2014748767334338
 40
0.243377166939007
 40
0.3267407009438799
 40
0.4109741887338266
 40
0.4945956192978204
 40
0.5787540699220782
 40
0.6626942740729072
 40
0.7469769291415449
 40
0.7892367353742499
 40
0.8314300535820728
 40
0.8524611625306956
 40
0.8736075018322517
 40
0.9158715090867686
 40
0.9578018441196509
 40
0.9794277550049976
 40
1.0
 40
1.0
 40
1.0
 40
1.0
 10
16.88457190292767
 20
648.8611990942293
 30
0.0
 10
16.59863681003046
 20
649.1406736128672
 30
0.0
 10
15.99961573274401
 20
649.782051308827
 30
0.0
 10
15.21898210516235
 20
650.7959796280282
 30
0.0
 10
14.53680960917076
 20
651.8583540579241
 30
0.0
 10
13.99442326830267
 20
652.8575832601016
 30
0.0
 10
13.58351090718944
 20
653.761499890319
 30
0.0
 10
13.20470300944983
 20
654.8056358823769
 30
0.0
 10
13.03156089427511
 20
655.7840165192187
 30
0.0
 10
13.29369335878108
 20
656.3977864064091
 30
0.0
 10
14.03216752072255
 20
656.5273491220261
 30
0.0
 10
15.28875516111716
 20
656.3016547653503
 30
0.0
 10
17.17857613925715
 20
655.8542319411617
 30
0.0
 10
19.45149808011595
 20
655.3412986585055
 30
0.0
 10
21.7214600560588
 20
654.8127441462454
 30
0.0
 10
23.30453320997378
 20
654.4318476722647
 30
0.0
 10
24.64252772665909
 20
654.1143430706348
 30
0.0
 10
26.02241479376389
 20
653.7986183187638
 30
0.0
 10
27.80740996097808
 20
653.4297213499276
 30
0.0
 10
29.64999056812699
 20
653.1621222315678
 30
0.0
 10
31.12831781327946
 20
653.0414561518842
 30
0.0
 10
31.87233896385847
 20
653.0292303093281
 30
0.0
 10
32.23506062957711
 20
653.0232700244984
 30
0.0
  0
SPLINE
  5
AB
330
92
100
AcDbEntity
  8
DV1_Default
  6
Continuous
 62
     7
100
AcDbSpline
210
0.0
220
0.0
230
1.0
 70
     8
 71
     3
 72
    42
 73
    38
 74
     0
 42
0.000000001
 43
0.0000000001
 40
0.0
 40
0.0
 40
0.0
 40
0.0
 40
0.0330233419963447
 40
0.0330233419963447
 40
0.075065805387808
 40
0.075065805387808
 40
0.1591507321707345
 40
0.1591507321707345
 40
0.2011931955621978
 40
0.2011931955621978
 40
0.2432356589536611
 40
0.2432356589536611
 40
0.3273205857365876
 40
0.3273205857365876
 40
0.4114055125195142
 40
0.4114055125195142
 40
0.4954904393024407
 40
0.4954904393024407
 40
0.537532902693904
 40
0.537532902693904
 40
0.5795753660853673
 40
0.5795753660853673
 40
0.6636602928682938
 40
0.6636602928682938
 40
0.7057027562597572
 40
0.7057027562597572
 40
0.7477452196512204
 40
0.7477452196512204
 40
0.7897876830426837
 40
0.7897876830426837
 40
0.831830146434147
 40
0.831830146434147
 40
0.8738726098256102
 40
0.8738726098256102
 40
0.9159150732170735
 40
0.9159150732170735
 40
1.0
 40
1.0
 40
1.0
 40
1.0
 10
47.58556927638107
 20
648.8611343952819
 30
0.0
 10
47.87163652295866
 20
649.1407878234932
 30
0.0
 10
48.13731945877529
 20
649.4252329148405
 30
0.0
 10
48.69334211246331
 20
650.0712278045704
 30
0.0
 10
48.97272022740385
 20
650.4342837915253
 30
0.0
 10
49.7318844661236
 20
651.5084030319193
 30
0.0
 10
50.13402133351755
 20
652.2033313433369
 30
0.0
 10
50.61233255293775
 20
653.157923501484
 30
0.0
 10
50.7507622697772
 20
653.4625189095995
 30
0.0
 10
50.98289318352155
 20
654.0263070045029
 30
0.0
 10
51.07735471217541
 20
654.2869060460944
 30
0.0
 10
51.30034135162635
 20
655.0020631256015
 30
0.0
 10
51.36913700775571
 20
655.3895398573763
 30
0.0
 10
51.35172913724696
 20
655.985523491766
 30
0.0
 10
51.26325450934681
 20
656.1939487506064
 30
0.0
 10
50.9290984113288
 20
656.441340334446
 30
0.0
 10
50.68473110972936
 20
656.4840602818139
 30
0.0
 10
50.18827776544225
 20
656.4602167267064
 30
0.0
 10
50.0009265258326
 20
656.437603473788
 30
0.0
 10
49.57673023117551
 20
656.3680574013109
 30
0.0
 10
49.33873802386106
 20
656.3208808686074
 30
0.0
 10
48.54836866034341
 20
656.1514464734659
 30
0.0
 10
47.92144529704541
 20
656.0032870494514
 30
0.0
 10
46.77268700862913
 20
655.7386437697303
 30
0.0
 10
46.35197779344927
 20
655.642373949936
 30
0.0
 10
45.4358909659769
 20
655.4333734555688
 30
0.0
 10
44.94446801632674
 20
655.3214604532625
 30
0.0
 10
43.88748301057768
 20
655.0778877939805
 30
0.0
 10
43.32093610358886
 20
654.9457953798639
 30
0.0
 10
42.10905634246141
 20
654.6586984713484
 30
0.0
 10
41.4785583820053
 20
654.5070158491349
 30
0.0
 10
40.16967862605578
 20
654.1949570062544
 30
0.0
 10
39.49128559047871
 20
654.034559680873
 30
0.0
 10
38.08590648183291
 20
653.723662841255
 30
0.0
 10
37.36835998791659
 20
653.5757716714464
 30
0.0
 10
35.20478791510971
 20
653.1957384035899
 30
0.0
 10
33.73352210882996
 20
653.0232419981854
 30
0.0
 10
32.23506062957711
 20
653.0232700244984
 30
0.0
  0
SPLINE
  5
AC
330
92
100
AcDbEntity
  8
DV1_Default
  6
Continuous
 62
     7
100
AcDbSpline
210
0.0
220
0.0
230
1.0
 70
    12
 71
     3
 72
    10
 73
     6
 74
     0
 42
0.000000001
 43
0.0000000001
 40
0.0
 40
0.0
 40
0.0
 40
0.0
 40
0.2496856893416161
 40
0.2496856893416161
 40
1.0
 40
1.0
 40
1.0
 40
1.0
 10
20.42277389503447
 20
641.9181819130359
 30
0.0
 41
1.0
 10
20.12706283155861
 20
642.0438731896392
 30
0.0
 41
1.0
 10
19.86433389941513
 20
642.1742600157005
 30
0.0
 41
1.0
 10
18.95254719071486
 20
642.7106444854105
 30
0.0
 41
1.0
 10
18.58510050791685
 20
643.1450747918765
 30
0.0
 41
1.0
 10
18.58506183214799
 20
643.5792060778344
 30
0.0
 41
1.0
  0
SPLINE
  5
AD
330
92
100
AcDbEntity
  8
DV1_Default
  6
Continuous
 62
     7
100
AcDbSpline
210
0.0
220
0.0
230
1.0
 70
    12
 71
     3
 72
    18
 73
    14
 74
     0
 42
0.000000001
 43
0.0000000001
 40
0.0
 40
0.0
 40
0.0
 40
0.0
 40
0.25
 40
0.25
 40
0.5
 40
0.5
 40
0.625
 40
0.625
 40
0.75
 40
0.75
 40
0.875
 40
0.875
 40
1.0
 40
1.0
 40
1.0
 40
1.0
 10
18.58506183214799
 20
643.5792060778344
 30
0.0
 41
1.0
 10
18.58502315886908
 20
644.0133365222405
 30
0.0
 41
1.0
 10
18.95251386402754
 20
644.4477748541069
 30
0.0
 41
1.0
 10
20.32085875180122
 20
645.2527007418813
 30
0.0
 41
1.0
 10
21.32171293681202
 20
645.6231882998325
 30
0.0
 41
1.0
 10
23.21303350353351
 20
646.083929043567
 30
0.0
 41
1.0
 10
23.90848024316487
 20
646.2216775265103
 30
0.0
 41
1.0
 10
25.39722406225379
 20
646.4620606064949
 30
0.0
 41
1.0
 10
26.19052114599497
 20
646.5646952040869
 30
0.0
 41
1.0
 10
27.84280289894849
 20
646.7314001588034
 30
0.0
 41
1.0
 10
28.7017875727045
 20
646.7954705164004
 30
0.0
 41
1.0
 10
30.45228578460522
 20
646.8819326006154
 30
0.0
 41
1.0
 10
31.34379932716389
 20
646.9043243274743
 30
0.0
 41
1.0
 10
32.23499794178208
 20
646.904319543999
 30
0.0
 41
1.0
  0
SPLINE
  5
AE
330
92
100
AcDbEntity
  8
DV1_Default
  6
Continuous
 62
     7
100
AcDbSpline
210
0.0
220
0.0
230
1.0
 70
    12
 71
     3
 72
    18
 73
    14
 74
     0
 42
0.000000001
 43
0.0000000001
 40
0.0
 40
0.0
 40
0.0
 40
0.0
 40
0.125
 40
0.125
 40
0.25
 40
0.25
 40
0.375
 40
0.375
 40
0.5
 40
0.5
 40
0.75
 40
0.75
 40
1.0
 40
1.0
 40
1.0
 40
1.0
 10
32.23499794178208
 20
646.904319543999
 30
0.0
 41
1.0
 10
33.12626624362059
 20
646.9043243274955
 30
0.0
 41
1.0
 10
34.01781814428168
 20
646.8819322472924
 30
0.0
 41
1.0
 10
35.76836093276495
 20
646.7954688218134
 30
0.0
 41
1.0
 10
36.62735182499731
 20
646.7313974763459
 30
0.0
 41
1.0
 10
38.27964439388752
 20
646.5646899836395
 30
0.0
 41
1.0
 10
39.07294607508648
 20
646.4620538359594
 30
0.0
 41
1.0
 10
40.5616969097875
 20
646.2216672118689
 30
0.0
 41
1.0
 10
41.25714606757347
 20
646.0839167349354
 30
0.0
 41
1.0
 10
43.14846978238061
 20
645.6231695209353
 30
0.0
 41
1.0
 10
44.14932059093772
 20
645.2526769983284
 30
0.0
 41
1.0
 10
45.51764615985611
 20
644.4477417308939
 30
0.0
 41
1.0
 10
45.88512092260427
 20
644.013298984041
 30
0.0
 41
1.0
 10
45.88505942228556
 20
643.5791651620519
 30
0.0
 41
1.0
  0
SPLINE
  5
AF
330
92
100
AcDbEntity
  8
DV1_Default
  6
Continuous
 62
     7
100
AcDbSpline
210
0.0
220
0.0
230
1.0
 70
     8
 71
     3
 72
     8
 73
     4
 74
     0
 42
0.000000001
 43
0.0000000001
 40
0.0
 40
0.0
 40
0.0
 40
0.0
 40
1.0
 40
1.0
 40
1.0
 40
1.0
 10
45.88505942228556
 20
643.5791651620519
 30
0.0
 10
45.88497745427269
 20
643.0005708284341
 30
0.0
 10
45.22966850392984
 20
642.4218628852419
 30
0.0
 10
44.04620408446164
 20
641.9183337703384
 30
0.0
  0
SPLINE
  5
B0
330
92
100
AcDbEntity
  8
DV1_Default
  6
Continuous
 62
     7
100
AcDbSpline
210
0.0
220
0.0
230
1.0
 70
     8
 71
     3
 72
    22
 73
    18
 74
     0
 42
0.000000001
 43
0.0000000001
 40
0.0
 40
0.0
 40
0.0
 40
0.0
 40
0.0512047223930957
 40
0.1030491505981776
 40
0.1558029622725785
 40
0.2098799575937991
 40
0.2651075270253314
 40
0.3208969320252554
 40
0.3776510512556369
 40
0.4357826872824759
 40
0.4948290021789356
 40
0.6215445990700508
 40
0.7465647664187841
 40
0.7888717291176859
 40
0.873443442334296
 40
0.945680218711111
 40
1.0
 40
1.0
 40
1.0
 40
1.0
 10
17.82408366020218
 20
644.2481875180623
 30
0.0
 10
17.83204944337912
 20
644.3434953413915
 30
0.0
 10
17.84808052707354
 20
644.5353016783928
 30
0.0
 10
17.99374719463441
 20
644.8226983333933
 30
0.0
 10
18.22991026147945
 20
645.1109145006307
 30
0.0
 10
18.5698347079373
 20
645.3983976915754
 30
0.0
 10
19.01264143591004
 20
645.6819248064278
 30
0.0
 10
19.56009185576307
 20
645.9580638382125
 30
0.0
 10
20.21526365085037
 20
646.2236111629816
 30
0.0
 10
20.98180429694905
 20
646.4755079401432
 30
0.0
 10
22.1927848089157
 20
646.7969023035562
 30
0.0
 10
24.00440075134906
 20
647.1362686680304
 30
0.0
 10
25.9856227558377
 20
647.3634923060497
 30
0.0
 10
27.78067035206774
 20
647.5127574858501
 30
0.0
 10
29.25284701767891
 20
647.5988627311509
 30
0.0
 10
30.85264587954063
 20
647.6522696505751
 30
0.0
 10
31.81987382570949
 20
647.6584319701593
 30
0.0
 10
32.23506062957711
 20
647.6610769220583
 30
0.0
  0
SPLINE
  5
B1
330
92
100
AcDbEntity
  8
DV1_Default
  6
Continuous
 62
     7
100
AcDbSpline
210
0.0
220
0.0
230
1.0
 70
     8
 71
     3
 72
     8
 73
     4
 74
     0
 42
0.000000001
 43
0.0000000001
 40
0.0
 40
0.0
 40
0.0
 40
0.0
 40
0.9999999999999999
 40
0.9999999999999999
 40
0.9999999999999999
 40
0.9999999999999999
 10
17.87141163928973
 20
644.0375060305014
 30
0.0
 10
17.85307397461374
 20
644.1076678589317
 30
0.0
 10
17.83857881740796
 20
644.1779276884973
 30
0.0
 10
17.82408366020218
 20
644.2481875180623
 30
0.0
  0
SPLINE
  5
B2
330
92
100
AcDbEntity
  8
DV1_Default
  6
Continuous
 62
     7
100
AcDbSpline
210
0.0
220
0.0
230
1.0
 70
     8
 71
     3
 72
    19
 73
    15
 74
     0
 42
0.000000001
 43
0.0000000001
 40
0.0
 40
0.0
 40
0.0
 40
0.0
 40
0.0342371017426973
 40
0.0764166788608708
 40
0.1266300633595218
 40
0.2112055232977932
 40
0.2535467381551365
 40
0.378596588545358
 40
0.5053562668830739
 40
0.6109651848758477
 40
0.7127564260037454
 40
0.8119561229086152
 40
0.907404513465363
 40
1.0
 40
1.0
 40
1.0
 40
1.0
 10
32.23506062957711
 20
647.6610769220583
 30
0.0
 10
32.49663812917461
 20
647.659976079984
 30
0.0
 10
33.08038682196808
 20
647.657519031419
 30
0.0
 10
34.04465461621383
 20
647.6375068966198
 30
0.0
 10
35.37993595986045
 20
647.5898770263035
 30
0.0
 10
36.6894625519863
 20
647.5126786793093
 30
0.0
 10
38.48440260405361
 20
647.3635561579467
 30
0.0
 10
40.46596812111466
 20
647.136161355264
 30
0.0
 10
42.54811633974534
 20
646.7463420644774
 30
0.0
 10
44.13663323280401
 20
646.2861721262017
 30
0.0
 10
45.28239690529422
 20
645.8014828312
 30
0.0
 10
46.07478446512921
 20
645.2910519630072
 30
0.0
 10
46.56111398694633
 20
644.770441574059
 30
0.0
 10
46.61801713681091
 20
644.4204735755003
 30
0.0
 10
46.64603705922777
 20
644.248144342561
 30
0.0
  0
SPLINE
  5
B3
330
92
100
AcDbEntity
  8
DV1_Default
  6
Continuous
 62
     7
100
AcDbSpline
210
0.0
220
0.0
230
1.0
 70
     8
 71
     3
 72
     8
 73
     4
 74
     0
 42
0.000000001
 43
0.0000000001
 40
0.0
 40
0.0
 40
0.0
 40
0.0
 40
1.0
 40
1.0
 40
1.0
 40
1.0
 10
46.64603705922777
 20
644.248144342561
 30
0.0
 10
46.63882245238951
 20
644.1772409155324
 30
0.0
 10
46.63160784555128
 20
644.1063374885053
 30
0.0
 10
46.61570072902737
 20
644.0355277004868
 30
0.0
  0
ELLIPSE
  5
B4
330
92
100
AcDbEntity
  8
DV1_Default
  6
Continuous
 62
     7
100
AcDbEllipse
 10
45.8850594223
 20
644.3207385381
 30
0.0
 11
0.7645369498908549
 21
-0.009546581366093321
 31
0.0
210
0.0
220
0.0
230
1.0
 40
0.9698839819
 41
4.724499086660633
 42
6.198009948485121
  0
ELLIPSE
  5
B5
330
92
100
AcDbEntity
  8
DV1_Default
  6
Continuous
 62
     7
100
AcDbEllipse
 10
18.5850618321
 20
644.320779994
 30
0.0
 11
-0.7645379796883696
 21
-0.009508634849553221
 31
0.0
210
0.0
220
0.0
230
1.0
 40
0.9698840174
 41
0.0852241410041561
 42
1.558734367864279
  0
ARC
  5
B6
330
92
100
AcDbEntity
  8
DV1_Default
  6
Continuous
 62
     7
100
AcDbCircle
 10
73658.3482264887
 20
509.59356047
 30
0.0
 40
73601.27605399958
100
AcDbArc
 50
179.8779161782
 51
180.0914644794
  0
ARC
  5
B7
330
92
100
AcDbEntity
  8
DV1_Default
  6
Continuous
 62
     7
100
AcDbCircle
 10
-77179.5108826812
 20
511.5337173147
 30
0.0
 40
77186.89557386846
100
AcDbArc
 50
359.9113442118
 51
0.1154253208
  0
SPLINE
  5
B8
330
92
100
AcDbEntity
  8
DV1_Default
  6
Continuous
 62
     7
100
AcDbSpline
210
0.0
220
0.0
230
1.0
 70
     8
 71
     3
 72
    26
 73
    22
 74
     0
 42
0.000000001
 43
0.0000000001
 40
0.0
 40
0.0
 40
0.0
 40
0.0
 40
0.0474257069883444
 40
0.1147409503387018
 40
0.1829001028506541
 40
0.2500391494751664
 40
0.3049681396620311
 40
0.3448766252824401
 40
0.3834733107995638
 40
0.4353522381528879
 40
0.5011503439263492
 40
0.5407788945782879
 40
0.5763036852916407
 40
0.6076334529521851
 40
0.6351988944380859
 40
0.6687682107371793
 40
0.7126024518333052
 40
0.7675877430402102
 40
0.8348842788311306
 40
0.9159725026970931
 40
1.0
 40
1.0
 40
1.0
 40
1.0
 10
16.36745265178404
 20
650.1141384104205
 30
0.0
 10
16.36735542804766
 20
650.1141064137961
 30
0.0
 10
16.37395488713931
 20
650.1026382882008
 30
0.0
 10
16.39956555837956
 20
650.0563867428026
 30
0.0
 10
16.4601611060617
 20
649.9398122837441
 30
0.0
 10
16.54346919651223
 20
649.7651600194512
 30
0.0
 10
16.62434274306226
 20
649.5813201238905
 30
0.0
 10
16.70132009677012
 20
649.3950797947269
 30
0.0
 10
16.79256849265059
 20
649.1603153879644
 30
0.0
 10
16.90495023360233
 20
648.8475335655272
 30
0.0
 10
17.01663234192944
 20
648.5028803646957
 30
0.0
 10
17.11351604139349
 20
648.1738272573931
 30
0.0
 10
17.18531431715416
 20
647.9124925163231
 30
0.0
 10
17.24778261754354
 20
647.6701983977557
 30
0.0
 10
17.30840089729081
 20
647.4210090027487
 30
0.0
 10
17.37568952200227
 20
647.1264064205219
 30
0.0
 10
17.45568237175731
 20
646.7461678715538
 30
0.0
 10
17.54795928833578
 20
646.2576986460492
 30
0.0
 10
17.64756128718813
 20
645.6516493334287
 30
0.0
 10
17.74789534116364
 20
644.9296745834157
 30
0.0
 10
17.79771167924032
 20
644.4554001119524
 30
0.0
 10
17.8272813251501
 20
644.1684808246105
 30
0.0
  0
SPLINE
  5
B9
330
92
100
AcDbEntity
  8
DV1_Default
  6
Continuous
 62
     7
100
AcDbSpline
210
0.0
220
0.0
230
1.0
 70
     8
 71
     3
 72
    25
 73
    21
 74
     0
 42
0.000000001
 43
0.0000000001
 40
0.0
 40
0.0
 40
0.0
 40
0.0
 40
0.0840493174491253
 40
0.1651376093686137
 40
0.2324340483186544
 40
0.2874190968079163
 40
0.3312529567594779
 40
0.3716894597709773
 40
0.4075177509738543
 40
0.4499662911764477
 40
0.4988625722639438
 40
0.5646603092579925
 40
0.6165384610190856
 40
0.6551344123348839
 40
0.6950442396434336
 40
0.7499723880060477
 40
0.8171081602891681
 40
0.8852655230701515
 40
0.9525804570804783
 40
1.0
 40
1.0
 40
1.0
 40
1.0
 10
46.64283812744031
 20
644.1684836217091
 30
0.0
 10
46.67241657679188
 20
644.4554733989535
 30
0.0
 10
46.72224108029621
 20
644.9298012945188
 30
0.0
 10
46.82258833617018
 20
645.6518351637277
 30
0.0
 10
46.92218959241754
 20
646.2578613012233
 30
0.0
 10
47.01447815829648
 20
646.7463530001443
 30
0.0
 10
47.09859354841814
 20
647.1462104798875
 30
0.0
 10
47.17606222051185
 20
647.4828678222781
 30
0.0
 10
47.25410702570117
 20
647.7965993501386
 30
0.0
 10
47.33920256070488
 20
648.1137358077403
 30
0.0
 10
47.44696718732536
 20
648.4827619962659
 30
0.0
 10
47.56520545602032
 20
648.8476331998754
 30
0.0
 10
47.67758928111705
 20
649.1604133342926
 30
0.0
 10
47.76883248769703
 20
649.3951576246153
 30
0.0
 10
47.84580489265785
 20
649.5813817651059
 30
0.0
 10
47.92667342857763
 20
649.7652062405383
 30
0.0
 10
48.0099732720235
 20
649.9398382071003
 30
0.0
 10
48.07056021630537
 20
650.0563949945226
 30
0.0
 10
48.09616662945369
 20
650.1026387492229
 30
0.0
 10
48.10276495992124
 20
650.1141049782026
 30
0.0
 10
48.10266784228226
 20
650.1141371461702
 30
0.0
  0
SPLINE
  5
BA
330
92
100
AcDbEntity
  8
DV1_Default
  6
Continuous
 62
     7
100
AcDbSpline
210
0.0
220
0.0
230
1.0
 70
     8
 71
     3
 72
    18
 73
    14
 74
     0
 42
0.000000001
 43
0.0000000001
 40
0.0
 40
0.0
 40
0.0
 40
0.0
 40
0.1232873435482983
 40
0.2311338498564041
 40
0.3232178559478168
 40
0.3996034344851456
 40
0.4650094362195142
 40
0.5798232864306411
 40
0.6768925335792751
 40
0.7502994314547459
 40
0.8354801353939872
 40
0.9323992896174187
 40
1.0
 40
1.0
 40
1.0
 40
1.0
 10
17.85056808606383
 20
644.0445771226323
 30
0.0
 10
17.88529323136508
 20
643.9030547254603
 30
0.0
 10
17.94300486637822
 20
643.6810176278518
 30
0.0
 10
18.12483436182298
 20
643.3584137820571
 30
0.0
 10
18.31811701290263
 20
643.1136550215508
 30
0.0
 10
18.49986092352922
 20
642.9300045247244
 30
0.0
 10
18.70574030530653
 20
642.7503024746624
 30
0.0
 10
18.96002143836596
 20
642.5616287007715
 30
0.0
 10
19.24714584845336
 20
642.3820574419551
 30
0.0
 10
19.52112714708852
 20
642.2302503853679
 30
0.0
 10
19.81442092543199
 20
642.0840943878947
 30
0.0
 10
20.12305636507229
 20
641.9468339810211
 30
0.0
 10
20.33973472935718
 20
641.8594056118526
 30
0.0
 10
20.43100222294831
 20
641.8239841645823
 30
0.0
  0
SPLINE
  5
BB
330
92
100
AcDbEntity
  8
DV1_Default
  6
Continuous
 62
     7
100
AcDbSpline
210
0.0
220
0.0
230
1.0
 70
     8
 71
     3
 72
    16
 73
    12
 74
     0
 42
0.000000001
 43
0.0000000001
 40
0.0
 40
0.0
 40
0.0
 40
0.0
 40
0.1695164236417623
 40
0.2668738824205176
 40
0.3682474320667404
 40
0.4742787998394408
 40
0.5498472337284462
 40
0.6401417397903006
 40
0.7453515358006718
 40
0.8654210075961863
 40
0.9999999999999999
 40
0.9999999999999999
 40
0.9999999999999999
 40
0.9999999999999999
 10
44.03817640494706
 20
641.8235725475263
 30
0.0
 10
44.2688023082144
 20
641.9130798704539
 30
0.0
 10
44.61100169665871
 20
642.0596526238804
 30
0.0
 10
45.03652167635376
 20
642.2754790281342
 30
0.0
 10
45.35903389544673
 20
642.4638328235303
 30
0.0
 10
45.6225406245637
 20
642.6423880728254
 30
0.0
 10
45.86809773967632
 20
642.8369845216022
 30
0.0
 10
46.09631892419826
 20
643.0527104317704
 30
0.0
 10
46.32141654118221
 20
643.3255387275602
 30
0.0
 10
46.52122342516157
 20
643.6693442400581
 30
0.0
 10
46.58300732471234
 20
643.8994761522115
 30
0.0
 10
46.61954518218504
 20
644.044543052763
 30
0.0
  0
ARC
  5
BC
330
92
100
AcDbEntity
  8
DV1_Default
  6
Continuous
 62
     7
100
AcDbCircle
 10
32.2350606296
 20
671.0995229459
 30
0.0
 40
24.50000000000001
100
AcDbArc
 50
159.7288461543
 51
164.8572685595
  0
ARC
  5
BD
330
92
100
AcDbEntity
  8
DV1_Default
  6
Continuous
 62
     7
100
AcDbCircle
 10
32.2350606296
 20
671.0995229459
 30
0.0
 40
24.50000000000001
100
AcDbArc
 50
15.1427314405
 51
20.2650753681
  0
SPLINE
  5
BE
330
92
100
AcDbEntity
  8
DV1_Default
  6
Continuous
 62
     7
100
AcDbSpline
210
0.0
220
0.0
230
1.0
 70
     8
 71
     3
 72
    36
 73
    32
 74
     0
 42
0.000000001
 43
0.0000000001
 40
0.0
 40
0.0
 40
0.0
 40
0.0
 40
0.0348422732158067
 40
0.0348422732158067
 40
0.0696845464316134
 40
0.0696845464316134
 40
0.1045268196474201
 40
0.1045268196474201
 40
0.1393690928632268
 40
0.1393690928632268
 40
0.1742113660790335
 40
0.1742113660790335
 40
0.2090536392948402
 40
0.2090536392948402
 40
0.2787381857264535
 40
0.2787381857264535
 40
0.4181072785896802
 40
0.4181072785896802
 40
0.557476371452907
 40
0.557476371452907
 40
0.6968454643161337
 40
0.6968454643161337
 40
0.8362145571793604
 40
0.8362145571793604
 40
0.905899103610974
 40
0.905899103610974
 40
0.9407413768267807
 40
0.9407413768267807
 40
0.9755836500425874
 40
0.9755836500425874
 40
0.9999999999999999
 40
0.9999999999999999
 40
0.9999999999999999
 40
0.9999999999999999
 10
32.2350606295769
 20
724.9643624723434
 30
0.0
 10
33.56622250704432
 20
724.9643626049991
 30
0.0
 10
34.90057455555507
 20
724.9295961069907
 30
0.0
 10
37.52259396993786
 20
724.7942167616371
 30
0.0
 10
38.76570455720559
 20
724.6994974880703
 30
0.0
 10
41.13091754085215
 20
724.4506840075543
 30
0.0
 10
42.24739448388156
 20
724.2899578697883
 30
0.0
 10
44.28182013662129
 20
723.8771673130783
 30
0.0
 10
45.24607332768999
 20
723.628734120102
 30
0.0
 10
46.77714223381138
 20
723.1825853028953
 30
0.0
 10
47.36013542991008
 20
722.948111088604
 30
0.0
 10
48.3410297213597
 20
722.4269725429946
 30
0.0
 10
48.73086378437785
 20
722.1471703314547
 30
0.0
 10
49.72313392612266
 20
721.2789056614546
 30
0.0
 10
50.15573186414654
 20
720.659941377575
 30
0.0
 10
51.25465722788246
 20
718.76142327593
 30
0.0
 10
51.72098157671322
 20
717.4509837256066
 30
0.0
 10
52.54549782507524
 20
714.9107986672349
 30
0.0
 10
52.84903253064163
 20
713.6820939241906
 30
0.0
 10
53.41164923155258
 20
711.0417718354256
 30
0.0
 10
53.68563731431064
 20
709.5910896296793
 30
0.0
 10
54.17708811043613
 20
706.4748279076756
 30
0.0
 10
54.44603147445766
 20
704.823819572479
 30
0.0
 10
55.0735425380691
 20
701.7281556953074
 30
0.0
 10
55.31909251498507
 20
700.5832223956936
 30
0.0
 10
55.75531502021091
 20
698.5503083844726
 30
0.0
 10
55.91161789589484
 20
697.8205959339123
 30
0.0
 10
56.23927649109854
 20
696.2077126380354
 30
0.0
 10
56.41161369337382
 20
695.3148856991618
 30
0.0
 10
56.69760706144205
 20
693.6651638973258
 30
0.0
 10
56.81384483780665
 20
692.9455405526974
 30
0.0
 10
56.92717603669605
 20
692.1823895464196
 30
0.0
  0
SPLINE
  5
BF
330
92
100
AcDbEntity
  8
DV1_Default
  6
Continuous
 62
     7
100
AcDbSpline
210
0.0
220
0.0
230
1.0
 70
     8
 71
     3
 72
    14
 73
    10
 74
     0
 42
0.000000001
 43
0.0000000001
 40
0.0
 40
0.0
 40
0.0
 40
0.0
 40
0.1036145138521079
 40
0.1036145138521079
 40
0.4498826678835991
 40
0.4498826678835991
 40
0.7961508219150902
 40
0.7961508219150902
 40
0.9999999999999999
 40
0.9999999999999999
 40
0.9999999999999999
 40
0.9999999999999999
 10
56.92717603669605
 20
692.1823895464196
 30
0.0
 10
56.97556911692564
 20
691.8565196338449
 30
0.0
 10
57.02343222937227
 20
691.5227131503242
 30
0.0
 10
57.22850583484552
 20
690.0376724974182
 30
0.0
 10
57.37547589139029
 20
688.8307771282812
 30
0.0
 10
57.63986819107267
 20
686.3474251312638
 30
0.0
 10
57.75922039204718
 20
685.0517477642663
 30
0.0
 10
57.92001217418963
 20
682.9797880955373
 30
0.0
 10
57.97321509652184
 20
682.2102650308112
 30
0.0
 10
58.0202911513855
 20
681.4393323906995
 30
0.0
  0
SPLINE
  5
C0
330
92
100
AcDbEntity
  8
DV1_Default
  6
Continuous
 62
     7
100
AcDbSpline
210
0.0
220
0.0
230
1.0
 70
     8
 71
     3
 72
     8
 73
     4
 74
     0
 42
0.000000001
 43
0.0000000001
 40
0.0
 40
0.0
 40
0.0
 40
0.0
 40
1.0
 40
1.0
 40
1.0
 40
1.0
 10
58.0202911513855
 20
681.4393323906995
 30
0.0
 10
58.05318077884574
 20
680.9007212559379
 30
0.0
 10
58.08307982045648
 20
680.3614220932037
 30
0.0
 10
58.11007439697944
 20
679.8215497500695
 30
0.0
  0
SPLINE
  5
C1
330
92
100
AcDbEntity
  8
DV1_Default
  6
Continuous
 62
     7
100
AcDbSpline
210
0.0
220
0.0
230
1.0
 70
     8
 71
     3
 72
    36
 73
    32
 74
     0
 42
0.000000001
 43
0.0000000001
 40
0.0
 40
0.0
 40
0.0
 40
0.0
 40
0.0353627237696625
 40
0.0353627237696625
 40
0.0707254475393251
 40
0.0707254475393251
 40
0.1060881713089877
 40
0.1060881713089877
 40
0.1414508950786502
 40
0.1414508950786502
 40
0.1768136188483128
 40
0.1768136188483128
 40
0.2121763426179754
 40
0.2121763426179754
 40
0.2829017901573001
 40
0.2829017901573001
 40
0.4243526852359493
 40
0.4243526852359493
 40
0.5658035803145984
 40
0.5658035803145984
 40
0.7072544753932478
 40
0.7072544753932478
 40
0.8487053704718969
 40
0.8487053704718969
 40
0.9194308180112215
 40
0.9194308180112215
 40
0.9547935417808837
 40
0.9547935417808837
 40
0.9901562655505457
 40
0.9901562655505457
 40
0.9999999999999999
 40
0.9999999999999999
 40
0.9999999999999999
 40
0.9999999999999999
 10
32.2350606295769
 20
724.9643624723434
 30
0.0
 10
30.90389871767843
 20
724.9643617094133
 30
0.0
 10
29.56954663232587
 20
724.9295961049546
 30
0.0
 10
26.94752715703256
 20
724.7942167531683
 30
0.0
 10
25.70441654271343
 20
724.6994974754837
 30
0.0
 10
23.3392035104779
 20
724.4506839815275
 30
0.0
 10
22.22272655134434
 20
724.2899578340332
 30
0.0
 10
20.1883008728752
 20
723.8771672527417
 30
0.0
 10
19.22404767576461
 20
723.6287340577716
 30
0.0
 10
17.69297880582699
 20
723.1825852267496
 30
0.0
 10
17.10998562654089
 20
722.948111000063
 30
0.0
 10
16.12909135993332
 20
722.4269724293462
 30
0.0
 10
15.73925731074384
 20
722.1471702075862
 30
0.0
 10
14.74698719912285
 20
721.278905504952
 30
0.0
 10
14.31438927532385
 20
720.6599412011219
 30
0.0
 10
13.21546392955283
 20
718.7614230395728
 30
0.0
 10
12.74913958372847
 20
717.4509834603969
 30
0.0
 10
11.9246233408553
 20
714.9107983411258
 30
0.0
 10
11.62108864582997
 20
713.6820935705174
 30
0.0
 10
11.05847193565825
 20
711.0417713695929
 30
0.0
 10
10.78448385716183
 20
709.5910890962537
 30
0.0
 10
10.29303304572824
 20
706.4748272320655
 30
0.0
 10
10.02408964384733
 20
704.8238188058829
 30
0.0
 10
9.396578499358267
 20
701.7281546373524
 30
0.0
 10
9.151028486683702
 20
700.5832212072527
 30
0.0
 10
8.71480592765152
 20
698.5503069280151
 30
0.0
 10
8.55850303436171
 20
697.8205943745706
 30
0.0
 10
8.230844410484872
 20
696.2077108182707
 30
0.0
 10
8.058507200405362
 20
695.3148837336378
 30
0.0
 10
7.843543236606732
 20
694.0748871839411
 30
0.0
 10
7.796987190068834
 20
693.7985832397527
 30
0.0
 10
7.750765518237532
 20
693.5157572393017
 30
0.0
  0
SPLINE
  5
C2
330
92
100
AcDbEntity
  8
DV1_Default
  6
Continuous
 62
     7
100
AcDbSpline
210
0.0
220
0.0
230
1.0
 70
     8
 71
     3
 72
    14
 73
    10
 74
     0
 42
0.000000001
 43
0.0000000001
 40
0.0
 40
0.0
 40
0.0
 40
0.0
 40
0.2105506516232781
 40
0.2105506516232781
 40
0.5023194375830063
 40
0.5023194375830063
 40
0.7940882235427336
 40
0.7940882235427336
 40
1.0
 40
1.0
 40
1.0
 40
1.0
 10
7.750765518237532
 20
693.5157572393017
 30
0.0
 10
7.630940023565589
 20
692.7825564685935
 30
0.0
 10
7.51336172296178
 20
692.0055236559987
 30
0.0
 10
7.241615075341542
 20
690.0376697585436
 30
0.0
 10
7.094645042031822
 20
688.830774336266
 30
0.0
 10
6.830252778345979
 20
686.3474221423895
 30
0.0
 10
6.710900597168265
 20
685.0517446687942
 30
0.0
 10
6.538264022881123
 20
682.8271525936498
 30
0.0
 10
6.476004825403458
 20
681.9042338046104
 30
0.0
 10
6.42247849821476
 20
680.9793855089415
 30
0.0
  0
SPLINE
  5
C3
330
92
100
AcDbEntity
  8
DV1_Default
  6
Continuous
 62
     7
100
AcDbSpline
210
0.0
220
0.0
230
1.0
 70
     8
 71
     3
 72
     8
 73
     4
 74
     0
 42
0.000000001
 43
0.0000000001
 40
0.0
 40
0.0
 40
0.0
 40
0.0
 40
1.0
 40
1.0
 40
1.0
 40
1.0
 10
6.42247849821476
 20
680.9793855089415
 30
0.0
 10
6.400160151682377
 20
680.5937606055205
 30
0.0
 10
6.37936006516169
 20
680.2078002462114
 30
0.0
 10
6.360046699205233
 20
679.8215464907953
 30
0.0
  0
LINE
  5
C4
330
92
100
AcDbEntity
  8
DV1_Default
  6
Continuous
 62
     7
100
AcDbLine
 10
32.2350606296
 20
679.5784399804
 30
0.0
 11
6.599073467
 21
679.5784399804
 31
0.0
  0
LINE
  5
C5
330
92
100
AcDbEntity
  8
DV1_Default
  6
Continuous
 62
     7
100
AcDbLine
 10
6.3600466992
 20
679.8215464908
 30
0.0
 11
6.3630159896
 21
679.8168985575
 31
0.0
  0
LINE
  5
C6
330
92
100
AcDbEntity
  8
DV1_Default
  6
Continuous
 62
     7
100
AcDbLine
 10
6.3630159896
 20
679.8168985575
 30
0.0
 11
6.401001846
 21
679.7892183069
 31
0.0
  0
ARC
  5
C7
330
92
100
AcDbEntity
  8
DV1_Default
  6
Continuous
 62
     7
100
AcDbCircle
 10
19.043002641
 20
3749.8853741656
 30
0.0
 40
3070.122184279049
100
AcDbArc
 50
269.7640695407
 51
270.2461959253
  0
SPLINE
  5
C8
330
92
100
AcDbEntity
  8
DV1_Default
  6
Continuous
 62
     7
100
AcDbSpline
210
0.0
220
0.0
230
1.0
 70
     8
 71
     3
 72
     8
 73
     4
 74
     0
 42
0.000000001
 43
0.0000000001
 40
0.0
 40
0.0
 40
0.0
 40
0.0
 40
1.0
 40
1.0
 40
1.0
 40
1.0
 10
6.357210958435784
 20
679.828947152825
 30
0.0
 10
6.393916019933981
 20
680.5497497278504
 30
0.0
 10
6.435921036688153
 20
681.2696373086243
 30
0.0
 10
6.483350131295099
 20
681.9884000834129
 30
0.0
  0
SPLINE
  5
C9
330
92
100
AcDbEntity
  8
DV1_Default
  6
Continuous
 62
     7
100
AcDbSpline
210
0.0
220
0.0
230
1.0
 70
     8
 71
     3
 72
    12
 73
     8
 74
     0
 42
0.000000001
 43
0.0000000001
 40
0.0
 40
0.0
 40
0.0
 40
0.0
 40
0.361404270942602
 40
0.361404270942602
 40
0.8829476364929228
 40
0.8829476364929228
 40
1.0
 40
1.0
 40
1.0
 40
1.0
 10
17.21847580501559
 20
723.5402869678484
 30
0.0
 10
17.59160573083185
 20
723.721895990789
 30
0.0
 10
18.01838173581605
 20
723.8965970307873
 30
0.0
 10
19.26549864933668
 20
724.3140124721364
 30
0.0
 10
20.21948231329126
 20
724.561993576311
 30
0.0
 10
21.46164409636081
 20
724.7961892818075
 30
0.0
 10
21.69414531823274
 20
724.8366793566514
 30
0.0
 10
21.93115743083768
 20
724.8748213841653
 30
0.0
  0
SPLINE
  5
CA
330
92
100
AcDbEntity
  8
DV1_Default
  6
Continuous
 62
     7
100
AcDbSpline
210
0.0
220
0.0
230
1.0
 70
     8
 71
     3
 72
    12
 73
     8
 74
     0
 42
0.000000001
 43
0.0000000001
 40
0.0
 40
0.0
 40
0.0
 40
0.0
 40
0.2794261011218787
 40
0.2794261011218787
 40
0.6397130505609401
 40
0.6397130505609401
 40
1.0
 40
1.0
 40
1.0
 40
1.0
 10
21.93115743083768
 20
724.8748213841653
 30
0.0
 10
22.75018631715454
 20
725.0066265563707
 30
0.0
 10
23.62308181570876
 20
725.1103926200007
 30
0.0
 10
25.71584590639116
 20
725.2921809910818
 30
0.0
 10
26.95497633306397
 20
725.3590631222851
 30
0.0
 10
29.57120354951209
 20
725.460513539859
 30
0.0
 10
30.89978924975282
 20
725.4880746000474
 30
0.0
 10
32.23506062957692
 20
725.4880746000473
 30
0.0
  0
LINE
  5
CB
330
92
100
AcDbEntity
  8
DV1_Default
  6
Continuous
 62
     7
100
AcDbLine
 10
6.3572109584
 20
679.8289471528
 30
0.0
 11
6.3600466992
 21
679.8215464908
 31
0.0
  0
SPLINE
  5
CC
330
92
100
AcDbEntity
  8
DV1_Default
  6
Continuous
 62
     7
100
AcDbSpline
210
0.0
220
0.0
230
1.0
 70
     8
 71
     3
 72
     8
 73
     4
 74
     0
 42
0.000000001
 43
0.0000000001
 40
0.0
 40
0.0
 40
0.0
 40
0.0
 40
1.0
 40
1.0
 40
1.0
 40
1.0
 10
58.11291013448648
 20
679.8289504172337
 30
0.0
 10
58.05996639060783
 20
680.868642738016
 30
0.0
 10
57.99599585222635
 20
681.9064313715368
 30
0.0
 10
57.9206260294656
 20
682.9416866739182
 30
0.0
  0
SPLINE
  5
CD
330
92
100
AcDbEntity
  8
DV1_Default
  6
Continuous
 62
     7
100
AcDbSpline
210
0.0
220
0.0
230
1.0
 70
     8
 71
     3
 72
    12
 73
     8
 74
     0
 42
0.000000001
 43
0.0000000001
 40
0.0
 40
0.0
 40
0.0
 40
0.0
 40
0.3534819829084824
 40
0.3534819829084824
 40
0.8415096228297517
 40
0.8415096228297517
 40
1.0
 40
1.0
 40
1.0
 40
1.0
 10
47.30197045021175
 20
723.5155911441054
 30
0.0
 10
46.91696685147419
 20
723.706077901944
 30
0.0
 10
46.47483761669584
 20
723.8888660088211
 30
0.0
 10
45.20462236260317
 20
724.3140125409528
 30
0.0
 10
44.25063869600567
 20
724.5619936332638
 30
0.0
 10
42.90670208129333
 20
724.8153778314531
 30
0.0
 10
42.56715678724375
 20
724.8723905990857
 30
0.0
 10
42.21845333204466
 20
724.9245704214195
 30
0.0
  0
SPLINE
  5
CE
330
92
100
AcDbEntity
  8
DV1_Default
  6
Continuous
 62
     7
100
AcDbSpline
210
0.0
220
0.0
230
1.0
 70
     8
 71
     3
 72
    12
 73
     8
 74
     0
 42
0.000000001
 43
0.0000000001
 40
0.0
 40
0.0
 40
0.0
 40
0.0
 40
0.2524043696637494
 40
0.2524043696637494
 40
0.6262021848318741
 40
0.6262021848318741
 40
1.0
 40
1.0
 40
1.0
 40
1.0
 10
42.21845333204466
 20
724.9245704214195
 30
0.0
 10
41.49342015217724
 20
725.0330640481604
 30
0.0
 10
40.72879459830507
 20
725.1206639851434
 30
0.0
 10
38.75427519372478
 20
725.2921810004055
 30
0.0
 10
37.51514479399169
 20
725.3590631285742
 30
0.0
 10
34.89891763829991
 20
725.4605135414587
 30
0.0
 10
33.57033197479038
 20
725.4880746000474
 30
0.0
 10
32.23506062957692
 20
725.4880746000473
 30
0.0
  0
LINE
  5
CF
330
92
100
AcDbEntity
  8
DV1_Default
  6
Continuous
 62
     7
100
AcDbLine
 10
58.110074397
 20
679.8215497501
 30
0.0
 11
58.1129101345
 21
679.8289504172
 31
0.0
  0
ARC
  5
D0
330
92
100
AcDbEntity
  8
DV1_Default
  6
Continuous
 62
     7
100
AcDbCircle
 10
45.4264655403
 20
3742.5833495844
 30
0.0
 40
3062.82022445645
100
AcDbArc
 50
269.7532293414
 51
270.2365051088
  0
LINE
  5
D1
330
92
100
AcDbEntity
  8
DV1_Default
  6
Continuous
 62
     7
100
AcDbLine
 10
58.0691170499
 20
679.7892182882
 30
0.0
 11
58.1071030086
 21
679.8168985389
 31
0.0
  0
LINE
  5
D2
330
92
100
AcDbEntity
  8
DV1_Default
  6
Continuous
 62
     7
100
AcDbLine
 10
58.1071030086
 20
679.8168985389
 30
0.0
 11
58.110074397
 21
679.8215497501
 31
0.0
  0
LINE
  5
D3
330
92
100
AcDbEntity
  8
DV1_Default
  6
Continuous
 62
     7
100
AcDbLine
 10
57.8710454363
 20
679.5784399804
 30
0.0
 11
32.2350606296
 21
679.5784399804
 31
0.0
  0
ELLIPSE
  5
D4
330
92
100
AcDbEntity
  8
DV1_Default
  6
Continuous
 62
     7
100
AcDbEllipse
 10
6.599073467
 20
679.7784399804
 30
0.0
 11
-4.510281037539698E-14
 21
-0.2000000000000335
 31
0.0
210
0.0
220
0.0
230
1.0
 40
0.9917993976
 41
4.658471227529871
 42
6.283185307179586
  0
ELLIPSE
  5
D5
330
92
100
AcDbEntity
  8
DV1_Default
  6
Continuous
 62
     7
100
AcDbEllipse
 10
6.5612105132
 20
679.8057859069
 30
0.0
 11
0.1682876443967647
 21
0.1080706655081643
 31
0.0
210
0.0
220
0.0
230
1.0
 40
0.978741242
 41
3.153402151930349
 42
3.196159125609194
  0
ELLIPSE
  5
D6
330
92
100
AcDbEntity
  8
DV1_Default
  6
Continuous
 62
     7
100
AcDbEllipse
 10
6.5612105132
 20
679.8057859069
 30
0.0
 11
0.1682876443967647
 21
0.1080706655081643
 31
0.0
210
0.0
220
0.0
230
1.0
 40
0.978741242
 41
2.504482902933555
 42
3.153402151930349
  0
ELLIPSE
  5
D7
330
92
100
AcDbEntity
  8
DV1_Default
  6
Continuous
 62
     7
100
AcDbEllipse
 10
6.5582511518
 20
679.8104045678
 30
0.0
 11
0.1685075337016576
 21
0.1077274852845367
 31
0.0
210
0.0
220
0.0
230
1.0
 40
0.9787949367
 41
2.506414999277994
 42
3.132677824227555
  0
ELLIPSE
  5
D8
330
92
100
AcDbEntity
  8
DV1_Default
  6
Continuous
 62
     7
100
AcDbEllipse
 10
57.9118699441
 20
679.8104078251
 30
0.0
 11
-0.1685075470740337
 21
0.1077274643682125
 31
0.0
210
0.0
220
0.0
230
1.0
 40
0.9787949367
 41
3.151545938610793
 42
3.776770193124255
  0
ELLIPSE
  5
D9
330
92
100
AcDbEntity
  8
DV1_Default
  6
Continuous
 62
     7
100
AcDbEllipse
 10
57.9089084917
 20
679.8057859069
 30
0.0
 11
-0.1682875024477427
 21
0.1080708865507929
 31
0.0
210
0.0
220
0.0
230
1.0
 40
0.9787412039
 41
3.083357675016035
 42
3.139071324640964
  0
ELLIPSE
  5
DA
330
92
100
AcDbEntity
  8
DV1_Default
  6
Continuous
 62
     7
100
AcDbEllipse
 10
57.9089084917
 20
679.8057859069
 30
0.0
 11
-0.1682875024477427
 21
0.1080708865507929
 31
0.0
210
0.0
220
0.0
230
1.0
 40
0.9787412039
 41
3.139071324640964
 42
3.778703652491252
  0
ELLIPSE
  5
DB
330
92
100
AcDbEntity
  8
DV1_Default
  6
Continuous
 62
     7
100
AcDbEllipse
 10
57.8710454363
 20
679.7784399804
 30
0.0
 11
-1.595945597898663E-13
 21
-0.199999999999978
 31
0.0
210
0.0
220
0.0
230
1.0
 40
0.9917993555
 41
0.0
 42
1.624713986030008
  0
SPLINE
  5
DC
330
92
100
AcDbEntity
  8
DV1_Default
  6
Continuous
 62
     7
100
AcDbSpline
210
0.0
220
0.0
230
1.0
 70
     8
 71
     3
 72
    26
 73
    22
 74
     0
 42
0.000000001
 43
0.0000000001
 40
0.0
 40
0.0
 40
0.0
 40
0.0
 40
0.093232868416162
 40
0.17478171205979
 40
0.2459549537822165
 40
0.3072119787023123
 40
0.3585049570310999
 40
0.3995458704986518
 40
0.4233885206763687
 40
0.4411375803561374
 40
0.4566869569850032
 40
0.4704585237116145
 40
0.4876411670316405
 40
0.5085905244454602
 40
0.5421941965156364
 40
0.5806027125107766
 40
0.6479127994387025
 40
0.7273732523558765
 40
0.8174216066329061
 40
0.9056997881237988
 40
1.0
 40
1.0
 40
1.0
 40
1.0
 10
32.23506082439966
 20
721.501280850658
 30
0.0
 10
32.65482224057226
 20
721.5017658021375
 30
0.0
 10
33.31683304856352
 20
721.5007871686398
 30
0.0
 10
34.31418769409439
 20
721.4588401371722
 30
0.0
 10
35.13834823971317
 20
721.3967915073242
 30
0.0
 10
35.83060631096462
 20
721.3227696574622
 30
0.0
 10
36.39513587082544
 20
721.2464113968956
 30
0.0
 10
36.81446865555097
 20
721.1797401166523
 30
0.0
 10
37.11152044316009
 20
721.1273324332273
 30
0.0
 10
37.31462785997886
 20
721.0893519960317
 30
0.0
 10
37.49132919732065
 20
721.0542831710565
 30
0.0
 10
37.65092075009598
 20
721.0219755087603
 30
0.0
 10
37.80594561182465
 20
720.9898751164303
 30
0.0
 10
38.00011011969882
 20
720.9481337864875
 30
0.0
 10
38.22614611588564
 20
720.8966571438258
 30
0.0
 10
38.48525322660041
 20
720.8343876567703
 30
0.0
 10
38.73064236326655
 20
720.7722187091748
 30
0.0
 10
38.93693141120279
 20
720.7201709525319
 30
0.0
 10
39.07195695675975
 20
720.6914608973975
 30
0.0
 10
39.17277397600479
 20
720.6742790792282
 30
0.0
 10
39.20079956603319
 20
720.6758137353218
 30
0.0
 10
39.20372046684804
 20
720.6806226765007
 30
0.0
  0
ARC
  5
DD
330
92
100
AcDbEntity
  8
DV1_Default
  6
Continuous
 62
     7
100
AcDbCircle
 10
31.8559744504
 20
682.3242826608
 30
0.0
 40
44.04968600730832
100
AcDbArc
 50
71.9085502838
 51
89.5069134829
  0
SPLINE
  5
DE
330
92
100
AcDbEntity
  8
DV1_Default
  6
Continuous
 62
     7
100
AcDbSpline
210
0.0
220
0.0
230
1.0
 70
     8
 71
     3
 72
    52
 73
    48
 74
     0
 42
0.000000001
 43
0.0000000001
 40
0.0
 40
0.0
 40
0.0
 40
0.0
 40
0.0022725328256418
 40
0.0120637089640155
 40
0.0220565280338078
 40
0.0323110060430712
 40
0.0428568533351151
 40
0.0537217167827804
 40
0.0649299462048972
 40
0.0765015427159341
 40
0.0884528536190075
 40
0.1008960088067806
 40
0.114491717033024
 40
0.12871022514605
 40
0.1436860436399798
 40
0.1595692855800337
 40
0.1765699859214822
 40
0.1951767435746879
 40
0.2156286812624905
 40
0.2370951410478836
 40
0.2598632579921156
 40
0.2843023016121526
 40
0.3109949796500813
 40
0.3409720738189897
 40
0.3764729470887176
 40
0.4174561509275365
 40
0.460749373667676
 40
0.5035991124879122
 40
0.5460136028297434
 40
0.5897963308459891
 40
0.6437914228567795
 40
0.6872425480877977
 40
0.7341368405164455
 40
0.7696956091011595
 40
0.8013018378966049
 40
0.8299543015772677
 40
0.856431966804157
 40
0.8799146456631496
 40
0.898756096757656
 40
0.9157396710694231
 40
0.9314028669322968
 40
0.9461267396286395
 40
0.9601474303740385
 40
0.9729364917756825
 40
0.9846073684955948
 40
0.9953721385481122
 40
1.0
 40
1.0
 40
1.0
 40
1.0
 10
56.92967051153071
 20
692.1842185545306
 30
0.0
 10
56.9200431867711
 20
692.2504655304468
 30
0.0
 10
56.87627441730451
 20
692.551384785882
 30
0.0
 10
56.78605008241241
 20
693.1270530972685
 30
0.0
 10
56.66670603029534
 20
693.860400172736
 30
0.0
 10
56.5417658867889
 20
694.5885188037049
 30
0.0
 10
56.41334241565475
 20
695.3040902592671
 30
0.0
 10
56.28138440082034
 20
696.0088733049013
 30
0.0
 10
56.1466582808226
 20
696.7015258518461
 30
0.0
 10
56.00984843764001
 20
697.3815422028986
 30
0.0
 10
55.8717617714407
 20
698.0486283900633
 30
0.0
 10
55.73145894026727
 20
698.7194978215745
 30
0.0
 10
55.5888960706474
 20
699.3943008995534
 30
0.0
 10
55.4445959421918
 20
700.0738102124753
 30
0.0
 10
55.30071492728273
 20
700.75180762278
 30
0.0
 10
55.15716716105304
 20
701.4340258515515
 30
0.0
 10
55.01367089020783
 20
702.1308182238055
 30
0.0
 10
54.86874135064001
 20
702.8553710007704
 30
0.0
 10
54.72466129520645
 20
703.5994093029348
 30
0.0
 10
54.58363514608011
 20
704.3552404050846
 30
0.0
 10
54.44687085075281
 20
705.1186779226717
 30
0.0
 10
54.31273337298775
 20
705.9018412723466
 30
0.0
 10
54.17820294735046
 20
706.7248554409792
 30
0.0
 10
54.03937985267318
 20
707.6232310859244
 30
0.0
 10
53.88567203880587
 20
708.6422127912441
 30
0.0
 10
53.70531683067194
 20
709.750088639956
 30
0.0
 10
53.50993425801456
 20
710.8808627772619
 30
0.0
 10
53.30665851649688
 20
711.9770280051467
 30
0.0
 10
53.0985481969615
 20
713.0264557353523
 30
0.0
 10
52.85930894739373
 20
714.1333059706208
 30
0.0
 10
52.59083596435602
 20
715.225438320303
 30
0.0
 10
52.27078804159757
 20
716.3408170196205
 30
0.0
 10
51.95268036645385
 20
717.3156863077324
 30
0.0
 10
51.63274747961591
 20
718.2135998858782
 30
0.0
 10
51.32493279860823
 20
718.9719448241012
 30
0.0
 10
51.00664159359643
 20
719.6576463616935
 30
0.0
 10
50.67744354446408
 20
720.2759404675994
 30
0.0
 10
50.35409723999489
 20
720.80953496535
 30
0.0
 10
50.04057051819298
 20
721.2692374485113
 30
0.0
 10
49.72900581164054
 20
721.667215345846
 30
0.0
 10
49.4022296609621
 20
722.0287688571453
 30
0.0
 10
49.05517557411515
 20
722.361396643405
 30
0.0
 10
48.69051015357643
 20
722.6646164423997
 30
0.0
 10
48.31508374682684
 20
722.9385631103006
 30
0.0
 10
47.93495620904658
 20
723.1804875716281
 30
0.0
 10
47.60618760288347
 20
723.3679862641393
 30
0.0
 10
47.41248377363531
 20
723.4620152929033
 30
0.0
 10
47.34390568869635
 20
723.4951778890166
 30
0.0
  0
ARC
  5
DF
330
92
100
AcDbEntity
  8
DV1_Default
  6
Continuous
 62
     7
100
AcDbCircle
 10
32.6106621121
 20
682.3353330259
 30
0.0
 40
44.03860619298406
100
AcDbArc
 50
90.4886766976
 51
108.2167642577
  0
SPLINE
  5
E0
330
92
100
AcDbEntity
  8
DV1_Default
  6
Continuous
 62
     7
100
AcDbSpline
210
0.0
220
0.0
230
1.0
 70
     8
 71
     3
 72
    28
 73
    24
 74
     0
 42
0.000000001
 43
0.0000000001
 40
0.0
 40
0.0
 40
0.0
 40
0.0
 40
0.0250861951971662
 40
0.0944026597070338
 40
0.1726014250666902
 40
0.2534422093312351
 40
0.3270222777577011
 40
0.375959122227309
 40
0.4195024105238497
 40
0.4579052875920042
 40
0.4915040261578599
 40
0.5185735804018684
 40
0.5391367883627002
 40
0.5473648267506304
 40
0.5589271851103585
 40
0.5766736389644375
 40
0.6005127886887188
 40
0.6415476767457842
 40
0.6928331245119272
 40
0.7540811560025651
 40
0.8252439484508903
 40
0.9067808195314055
 40
1.0
 40
1.0
 40
1.0
 40
1.0
 10
25.2659908035107
 20
720.6804578096089
 30
0.0
 10
25.26661210553856
 20
720.6791102920449
 30
0.0
 10
25.27243600519566
 20
720.6752919253784
 30
0.0
 10
25.30490772534033
 20
720.6759182457872
 30
0.0
 10
25.38691895337429
 20
720.6895166212367
 30
0.0
 10
25.50086089007356
 20
720.712803311488
 30
0.0
 10
25.65779925603606
 20
720.7514946633924
 30
0.0
 10
25.83999376116922
 20
720.7977668164623
 30
0.0
 10
26.02902716925646
 20
720.8450109537426
 30
0.0
 10
26.24398397903966
 20
720.8966595739174
 30
0.0
 10
26.48489345642295
 20
720.9515148443139
 30
0.0
 10
26.7073302129226
 20
720.9990827374427
 30
0.0
 10
26.88254281721082
 20
721.0348037454496
 30
0.0
 10
27.03148051015687
 20
721.0648398544648
 30
0.0
 10
27.16875893155721
 20
721.0917839232064
 30
0.0
 10
27.3589856568025
 20
721.1274252091806
 30
0.0
 10
27.65544389582914
 20
721.1796898021701
 30
0.0
 10
28.07507158166251
 20
721.2464321760541
 30
0.0
 10
28.63948440902807
 20
721.322762295197
 30
0.0
 10
29.33178334899517
 20
721.3967939975363
 30
0.0
 10
30.1559301449851
 20
721.4588393126786
 30
0.0
 10
31.15328940264428
 20
721.5007874560189
 30
0.0
 10
31.81529901856691
 20
721.5017658021344
 30
0.0
 10
32.23506043475417
 20
721.501280850656
 30
0.0
  0
SPLINE
  5
E1
330
92
100
AcDbEntity
  8
DV1_Default
  6
Continuous
 62
     7
100
AcDbSpline
210
0.0
220
0.0
230
1.0
 70
     8
 71
     3
 72
    50
 73
    46
 74
     0
 42
0.000000001
 43
0.0000000001
 40
0.0
 40
0.0
 40
0.0
 40
0.0
 40
0.0004051282779694
 40
0.0109436066600833
 40
0.0221877643521707
 40
0.0342943776826773
 40
0.0474610795353204
 40
0.0621995735047155
 40
0.0776019418708118
 40
0.093909432520216
 40
0.111465370045348
 40
0.1308749883595826
 40
0.1534408217973778
 40
0.180812430571535
 40
0.2100283468044145
 40
0.2418890000092922
 40
0.2774292067187152
 40
0.3184365386171908
 40
0.3639181355706633
 40
0.4115976205743187
 40
0.4662346166171547
 40
0.5076359252608899
 40
0.5518004237442083
 40
0.5949915176346544
 40
0.6386239394189637
 40
0.682693074437506
 40
0.71241499233444
 40
0.7393681953635861
 40
0.7638449896151577
 40
0.7865125336024639
 40
0.8077967398913511
 40
0.8279858937450006
 40
0.8470288081789437
 40
0.8639445122640415
 40
0.8797005462177688
 40
0.8945027552629234
 40
0.9085218059400065
 40
0.9233680692426475
 40
0.9357294066919298
 40
0.9474102050928135
 40
0.9597947915634981
 40
0.9717425401187886
 40
0.9832684822285931
 40
0.9944081291317836
 40
1.0
 40
1.0
 40
1.0
 40
1.0
 10
17.15280528813554
 20
723.510891888217
 30
0.0
 10
17.14671981353266
 20
723.5080643279688
 30
0.0
 10
17.00501999262304
 20
723.442203579902
 30
0.0
 10
16.72825483873367
 20
723.2913863154135
 30
0.0
 10
16.34920456222372
 20
723.0667927148075
 30
0.0
 10
15.97962599774695
 20
722.814303633914
 30
0.0
 10
15.61390957888025
 20
722.5319584502225
 30
0.0
 10
15.25846341682441
 20
722.2173573987162
 30
0.0
 10
14.92085981458836
 20
721.8724368786765
 30
0.0
 10
14.60557487608996
 20
721.5006789977257
 30
0.0
 10
14.30629537357937
 20
721.0948251544809
 30
0.0
 10
14.01195603182363
 20
720.6426881034149
 30
0.0
 10
13.70111386580697
 20
720.1113072687309
 30
0.0
 10
13.38602823535676
 20
719.4988490410203
 30
0.0
 10
13.07686062335991
 20
718.8112792987203
 30
0.0
 10
12.7803560789349
 20
718.0604465202085
 30
0.0
 10
12.48781302973239
 20
717.2237441642463
 30
0.0
 10
12.18614432770403
 20
716.2958681406077
 30
0.0
 10
11.89407433708105
 20
715.2771227487931
 30
0.0
 10
11.61511111518358
 20
714.154255738001
 30
0.0
 10
11.37415878554849
 20
713.041434270414
 30
0.0
 10
11.15230152230004
 20
711.9184522024873
 30
0.0
 10
10.95248096847684
 20
710.8376206552498
 30
0.0
 10
10.75493195950737
 20
709.6913981718684
 30
0.0
 10
10.56135958443891
 20
708.4983173448649
 30
0.0
 10
10.39642180827862
 20
707.3915118060842
 30
0.0
 10
10.24189449300286
 20
706.4141245787297
 30
0.0
 10
10.10511716552118
 20
705.591960078106
 30
0.0
 10
9.967904506306605
 20
704.8056977046957
 30
0.0
 10
9.828868368792941
 20
704.0428792801541
 30
0.0
 10
9.68635596470923
 20
703.2910210788767
 30
0.0
 10
9.539793404936749
 20
702.5446806854477
 30
0.0
 10
9.392456166780875
 20
701.817338749043
 30
0.0
 10
9.245753027852993
 20
701.1134869567619
 30
0.0
 10
9.10152095235357
 20
700.4315488561728
 30
0.0
 10
8.957928179410349
 20
699.7557042112072
 30
0.0
 10
8.809815317697495
 20
699.0570462431668
 30
0.0
 10
8.663108788031446
 20
698.3592199832593
 30
0.0
 10
8.518755490706413
 20
697.6654613545556
 30
0.0
 10
8.37898034628994
 20
696.9804053354007
 30
0.0
 10
8.238213630783846
 20
696.2666928922004
 30
0.0
 10
8.095770752033202
 20
695.5162266057698
 30
0.0
 10
7.958787063807555
 20
694.7607585641763
 30
0.0
 10
7.843280852540134
 20
694.0977761106961
 30
0.0
 10
7.781682754711527
 20
693.7201657201651
 30
0.0
 10
7.757469899417662
 20
693.57148731475
 30
0.0
  0
SPLINE
  5
E2
330
92
100
AcDbEntity
  8
DV1_Default
  6
Continuous
 62
     7
100
AcDbSpline
210
0.0
220
0.0
230
1.0
 70
     8
 71
     3
 72
    10
 73
     6
 74
     0
 42
0.000000001
 43
0.0000000001
 40
0.0
 40
0.0
 40
0.0
 40
0.0
 40
0.2173494201150092
 40
0.7737091607887565
 40
1.0
 40
1.0
 40
1.0
 40
1.0
 10
6.396437253096042
 20
679.6972641675366
 30
0.0
 10
6.400791668189895
 20
679.6886529115487
 30
0.0
 10
6.414725946374402
 20
679.6625812235171
 30
0.0
 10
6.453965559900437
 20
679.6259660299479
 30
0.0
 10
6.496118639752684
 20
679.6017311497517
 30
0.0
 10
6.508798795200634
 20
679.5959426170946
 30
0.0
  0
ARC
  5
E3
330
92
100
AcDbEntity
  8
DV1_Default
  6
Continuous
 62
     7
100
AcDbCircle
 10
57.960257451
 20
679.803035135
 30
0.0
 40
0.1531264516918796
100
AcDbArc
 50
330.992817985
 51
11.1208214061
  0
ARC
  5
E4
330
92
100
AcDbEntity
  8
DV1_Default
  6
Continuous
 62
     7
100
AcDbCircle
 10
57.8837553292
 20
679.8029414735
 30
0.0
 40
0.2196918005561264
100
AcDbArc
 50
276.8102239025
 51
331.3380152569
  0
ELLIPSE
  5
E5
330
92
100
AcDbEntity
  8
DV1_Default
  6
Continuous
 62
     7
100
AcDbEllipse
 10
32.2350606296
 20
636.5174940378
 30
0.0
 11
10.75
 21
0.0
 31
0.0
210
0.0
220
0.0
230
1.0
 40
0.243549506
 41
0.0
 42
6.283185307179586
  0
ELLIPSE
  5
E6
330
92
100
AcDbEntity
  8
DV1_Default
  6
Continuous
 62
     7
100
AcDbEllipse
 10
32.2350606296
 20
644.761546006
 30
0.0
 11
11.8
 21
0.0
 31
0.0
210
0.0
220
0.0
230
1.0
 40
0.243549506
 41
0.0
 42
3.141592653589793
  0
ELLIPSE
  5
E7
330
92
100
AcDbEntity
  8
DV1_Default
  6
Continuous
 62
     7
100
AcDbEllipse
 10
32.2350606296
 20
646.3733844602
 30
0.0
 11
-12.0
 21
0.0
 31
0.0
210
0.0
220
0.0
230
1.0
 40
0.243549506
 41
3.141592653589793
 42
6.283185307179586
  0
ELLIPSE
  5
E8
330
92
100
AcDbEntity
  8
DV1_Default
  6
Continuous
 62
     7
100
AcDbEllipse
 10
32.2350606296
 20
636.8254749899
 30
0.0
 11
11.29999999999999
 21
0.0
 31
0.0
210
0.0
220
0.0
230
1.0
 40
0.243549506
 41
-0.4499680119193528
 42
-0.2309414791401521
  0
ELLIPSE
  5
E9
330
92
100
AcDbEntity
  8
DV1_Default
  6
Continuous
 62
     7
100
AcDbEllipse
 10
32.2350606296
 20
636.8254749899
 30
0.0
 11
11.29999999999999
 21
0.0
 31
0.0
210
0.0
220
0.0
230
1.0
 40
0.243549506
 41
3.372534132729943
 42
3.591560665509141
  0
LINE
  5
EA
330
92
100
AcDbEntity
  8
DV1_Default
  6
Continuous
 62
     7
100
AcDbLine
 10
43.2350606296
 20
636.1955333569
 30
0.0
 11
43.2350606296
 21
637.4554166228
 31
0.0
  0
ELLIPSE
  5
EB
330
92
100
AcDbEntity
  8
DV1_Default
  6
Continuous
 62
     7
100
AcDbEllipse
 10
32.2350606296
 20
639.4271594383
 30
0.0
 11
-11.80000000000033
 21
1.110223024625157E-13
 31
0.0
210
0.0
220
0.0
230
1.0
 40
0.243549506
 41
2.771250021498084
 42
3.511935285681506
  0
LINE
  5
EC
330
92
100
AcDbEntity
  8
DV1_Default
  6
Continuous
 62
     7
100
AcDbLine
 10
43.2350606296
 20
637.4554166228
 30
0.0
 11
43.2350606296
 21
638.7055818945
 31
0.0
  0
LINE
  5
ED
330
92
100
AcDbEntity
  8
DV1_Default
  6
Continuous
 62
     7
100
AcDbLine
 10
43.2350606296
 20
638.7055818945
 30
0.0
 11
43.2350606296
 21
640.4673182918
 31
0.0
  0
ELLIPSE
  5
EE
330
92
100
AcDbEntity
  8
DV1_Default
  6
Continuous
 62
     7
100
AcDbEllipse
 10
32.2350606296
 20
636.8254749899
 30
0.0
 11
-11.29999999999999
 21
0.0
 31
0.0
210
0.0
220
0.0
230
1.0
 40
0.243549506
 41
3.372534132729943
 42
6.052243828039433
  0
LINE
  5
EF
330
92
100
AcDbEntity
  8
DV1_Default
  6
Continuous
 62
     7
100
AcDbLine
 10
21.2350606296
 20
637.4554166228
 30
0.0
 11
21.2350606296
 21
636.1955333569
 31
0.0
  0
ELLIPSE
  5
F0
330
92
100
AcDbEntity
  8
DV1_Default
  6
Continuous
 62
     7
100
AcDbEllipse
 10
32.2350606296
 20
637.665423041
 30
0.0
 11
-11.80000000000001
 21
0.0
 31
0.0
210
0.0
220
0.0
230
1.0
 40
0.243549506
 41
3.511935285681524
 42
5.912842675087864
  0
ELLIPSE
  5
F1
330
92
100
AcDbEntity
  8
DV1_Default
  6
Continuous
 62
     7
100
AcDbEllipse
 10
32.2350606296
 20
639.4271594383
 30
0.0
 11
11.80000000000037
 21
-1.110223024625157E-13
 31
0.0
210
0.0
220
0.0
230
1.0
 40
0.243549506
 41
2.771250021498084
 42
3.511935285681505
  0
LINE
  5
F2
330
92
100
AcDbEntity
  8
DV1_Default
  6
Continuous
 62
     7
100
AcDbLine
 10
21.2350606296
 20
640.4673182918
 30
0.0
 11
21.2350606296
 21
638.7055818945
 31
0.0
  0
LINE
  5
F3
330
92
100
AcDbEntity
  8
DV1_Default
  6
Continuous
 62
     7
100
AcDbLine
 10
21.2350606296
 20
638.7055818945
 30
0.0
 11
21.2350606296
 21
637.4554166228
 31
0.0
  0
LINE
  5
F4
330
92
100
AcDbEntity
  8
DV1_Default
  6
Continuous
 62
     7
100
AcDbLine
 10
22.0598511532
 20
635.6284815182
 30
0.0
 11
22.5551047118
 21
635.3787613104
 31
0.0
  0
LINE
  5
F5
330
92
100
AcDbEntity
  8
DV1_Default
  6
Continuous
 62
     7
100
AcDbLine
 10
41.9150165473
 20
635.3787613104
 30
0.0
 11
42.4102701059
 21
635.6284815182
 31
0.0
  0
ARC
  5
F6
330
92
100
AcDbEntity
  8
DV1_Default
  6
Continuous
 62
     7
100
AcDbCircle
 10
40.6366855757
 20
639.3066547443
 30
0.0
 40
4.082669113952468
100
AcDbArc
 50
294.0125309377
 51
309.5399315541
  0
ARC
  5
F7
330
92
100
AcDbEntity
  8
DV1_Default
  6
Continuous
 62
     7
100
AcDbCircle
 10
23.7974509036
 20
639.2277205475
 30
0.0
 40
3.99693289202088
100
AcDbArc
 50
230.1905714567
 51
246.4592960488
  0
LINE
  5
F8
330
92
100
AcDbEntity
  8
DV1_Default
  6
Continuous
 62
     7
100
AcDbLine
 10
20.4350606296
 20
644.761546006
 30
0.0
 11
20.4350606296
 21
639.4271594383
 31
0.0
  0
LINE
  5
F9
330
92
100
AcDbEntity
  8
DV1_Default
  6
Continuous
 62
     7
100
AcDbLine
 10
44.0350606296
 20
639.4271594383
 30
0.0
 11
44.0350606296
 21
644.761546006
 31
0.0
  0
ELLIPSE
  5
FA
330
92
100
AcDbEntity
  8
DV1_Default
  6
Continuous
 62
     7
100
AcDbEllipse
 10
32.2350606296
 20
636.4205051911
 30
0.0
 11
9.000000000000005
 21
0.0
 31
0.0
210
0.0
220
0.0
230
1.0
 40
0.243549506
 41
0.0
 42
3.14257486299569
  0
ELLIPSE
  5
FB
330
92
100
AcDbEntity
  8
DV1_Default
  6
Continuous
 62
     7
100
AcDbEllipse
 10
32.2350606296
 20
636.129538651
 30
0.0
 11
8.700000000000003
 21
2.775557561562891E-14
 31
0.0
210
0.0
220
0.0
230
1.0
 40
0.243549506
 41
0.0
 42
1.179273154535655
  0
ELLIPSE
  5
FC
330
92
100
AcDbEntity
  8
DV1_Default
  6
Continuous
 62
     7
100
AcDbEllipse
 10
32.2350606296
 20
636.129538651
 30
0.0
 11
8.700000000000003
 21
2.775557561562891E-14
 31
0.0
210
0.0
220
0.0
230
1.0
 40
0.243549506
 41
1.179273154535655
 42
1.818225593371541
  0
ELLIPSE
  5
FD
330
92
100
AcDbEntity
  8
DV1_Default
  6
Continuous
 62
     7
100
AcDbEllipse
 10
32.2350606296
 20
636.129538651
 30
0.0
 11
8.700000000000003
 21
2.775557561562891E-14
 31
0.0
210
0.0
220
0.0
230
1.0
 40
0.243549506
 41
1.818225593371541
 42
6.283185307179573
  0
ELLIPSE
  5
FE
330
92
100
AcDbEntity
  8
DV1_Default
  6
Continuous
 62
     7
100
AcDbEllipse
 10
32.2350606296
 20
636.129538651
 30
0.0
 11
8.500000000000002
 21
0.0
 31
0.0
210
0.0
220
0.0
230
1.0
 40
0.243549506
 41
0.0
 42
6.283185307179586
  0
ELLIPSE
  5
FF
330
92
100
AcDbEntity
  8
DV1_Default
  6
Continuous
 62
     7
100
AcDbEllipse
 10
32.2350606296
 20
636.129538651
 30
0.0
 11
6.499999999999997
 21
0.0
 31
0.0
210
0.0
220
0.0
230
1.0
 40
0.243549506
 41
0.0
 42
6.283185307179586
  0
ELLIPSE
  5
100
330
92
100
AcDbEntity
  8
DV1_Default
  6
Continuous
 62
     7
100
AcDbEllipse
 10
32.2350606296
 20
636.129538651
 30
0.0
 11
-5.499999999999998
 21
0.0
 31
0.0
210
0.0
220
0.0
230
1.0
 40
0.243549506
 41
0.0
 42
6.283185307179586
  0
ELLIPSE
  5
101
330
92
100
AcDbEntity
  8
DV1_Default
  6
Continuous
 62
     7
100
AcDbEllipse
 10
32.2350606296
 20
636.129538651
 30
0.0
 11
2.800000000000002
 21
0.0
 31
0.0
210
0.0
220
0.0
230
1.0
 40
0.243549506
 41
0.0
 42
6.283185307179586
  0
ELLIPSE
  5
102
330
92
100
AcDbEntity
  8
DV1_Default
  6
Continuous
 62
     7
100
AcDbEllipse
 10
32.2350606296
 20
636.129538651
 30
0.0
 11
2.3
 21
0.0
 31
0.0
210
0.0
220
0.0
230
1.0
 40
0.243549506
 41
0.0
 42
6.283185307179586
  0
SPLINE
  5
103
330
92
100
AcDbEntity
  8
DV1_Default
  6
Continuous
 62
     7
100
AcDbSpline
210
0.0
220
0.0
230
1.0
 70
     8
 71
     3
 72
    51
 73
    47
 74
     0
 42
0.000000001
 43
0.0000000001
 40
0.0
 40
0.0
 40
0.0
 40
0.0
 40
0.0004243044956614
 40
0.0201278700909011
 40
0.0397841387109042
 40
0.0602921418980538
 40
0.0824027834387438
 40
0.1061967120753891
 40
0.1309849789892184
 40
0.1559231246975755
 40
0.1806479640569684
 40
0.2051483987532443
 40
0.2294689523731137
 40
0.2536547980673192
 40
0.2777411828995826
 40
0.3017539134389441
 40
0.3257116771007517
 40
0.3496281164210526
 40
0.3735133578348193
 40
0.3973750809994838
 40
0.4212192597815316
 40
0.4450506807066154
 40
0.4688733137357636
 40
0.492690586544817
 40
0.5165055975097229
 40
0.5403210989180208
 40
0.5641392536314033
 40
0.5879631175393374
 40
0.611796028932101
 40
0.6356418051686945
 40
0.6595049899054958
 40
0.6833911805027353
 40
0.7073074785075285
 40
0.7312631259171589
 40
0.7552704181131923
 40
0.7793460178413134
 40
0.8035128095082074
 40
0.8278023244325103
 40
0.8522571266408886
 40
0.8769298406292813
 40
0.9018652377388942
 40
0.9270182508183706
 40
0.9488349692311586
 40
0.9689650820732343
 40
0.9879412473491156
 40
1.0
 40
1.0
 40
1.0
 40
1.0
 10
23.2356111930558
 20
636.4172502167559
 30
0.0
 10
23.23541797608303
 20
636.4156716146672
 30
0.0
 10
23.22753000014087
 20
636.35106871821
 30
0.0
 10
23.25748431177994
 20
636.2096202357388
 30
0.0
 10
23.32696601005686
 20
636.0200449251722
 30
0.0
 10
23.44582547945761
 20
635.8372008299683
 30
0.0
 10
23.60909020633008
 20
635.6605813441421
 30
0.0
 10
23.82349823319027
 20
635.4874128794562
 30
0.0
 10
24.08931187050491
 20
635.3196674266025
 30
0.0
 10
24.40277446148469
 20
635.1599713124078
 30
0.0
 10
24.75847483353124
 20
635.0099661095115
 30
0.0
 10
25.15288698699579
 20
634.8698660076677
 30
0.0
 10
25.58391106916049
 20
634.7394764419554
 30
0.0
 10
26.04959331432124
 20
634.6187671820118
 30
0.0
 10
26.54780909127484
 20
634.5078827016146
 30
0.0
 10
27.07618840954398
 20
634.4070805225534
 30
0.0
 10
27.63211710626383
 20
634.3166761547367
 30
0.0
 10
28.21276073321827
 20
634.2370035620528
 30
0.0
 10
28.81509324315525
 20
634.1683884530885
 30
0.0
 10
29.43592575096785
 20
634.1111302637486
 30
0.0
 10
30.07193419057832
 20
634.0654899013481
 30
0.0
 10
30.71968585612641
 20
634.0316813324114
 30
0.0
 10
31.37566506504063
 20
634.009865824908
 30
0.0
 10
32.03629819875331
 20
634.0001481127343
 30
0.0
 10
32.6979765335155
 20
634.0025740342786
 30
0.0
 10
33.35707513555437
 20
634.0171291031147
 30
0.0
 10
34.0099842142312
 20
634.0437380266172
 30
0.0
 10
34.65313519482355
 20
634.0822658691486
 30
0.0
 10
35.28302981239419
 20
634.1325209255742
 30
0.0
 10
35.89625733286248
 20
634.1942580497166
 30
0.0
 10
36.48951932298029
 20
634.2671838626201
 30
0.0
 10
37.05965506944552
 20
634.3509642994815
 30
0.0
 10
37.60366802912012
 20
634.4452355385633
 30
0.0
 10
38.11875381255256
 20
634.5496200549985
 30
0.0
 10
38.60233026428445
 20
634.6637508566304
 30
0.0
 10
39.05206983787512
 20
634.7873089195464
 30
0.0
 10
39.46593322917909
 20
634.920083614143
 30
0.0
 10
39.84219701587719
 20
635.0620688471222
 30
0.0
 10
40.17945457333841
 20
635.213628693185
 30
0.0
 10
40.4765042154934
 20
635.3757156793777
 30
0.0
 10
40.73195049123129
 20
635.5502306622944
 30
0.0
 10
40.93405413324607
 20
635.7315708155393
 30
0.0
 10
41.08283366888044
 20
635.9180418449241
 30
0.0
 10
41.18006270573802
 20
636.1027901478275
 30
0.0
 10
41.22832387037949
 20
636.276432762612
 30
0.0
 10
41.23328111078642
 20
636.3751162676132
 30
0.0
 10
41.2350606295771
 20
636.4205051910974
 30
0.0
  0
LINE
  5
104
330
92
100
AcDbEntity
  8
DV1_Default
  6
Continuous
 62
     7
100
AcDbLine
 10
25.7174252359
 20
636.6123836464
 30
0.0
 11
25.7353105434
 21
636.1156567203
 31
0.0
  0
LINE
  5
105
330
92
100
AcDbEntity
  8
DV1_Default
  6
Continuous
 62
     7
100
AcDbLine
 10
38.7348107158
 20
636.1156567203
 30
0.0
 11
38.7526960232
 21
636.6123836464
 31
0.0
  0
LINE
  5
106
330
92
100
AcDbEntity
  8
DV1_Default
  6
Continuous
 62
     7
100
AcDbLine
 10
29.4350606296
 20
636.7593866358
 30
0.0
 11
29.4350606296
 21
636.129538651
 31
0.0
  0
LINE
  5
107
330
92
100
AcDbEntity
  8
DV1_Default
  6
Continuous
 62
     7
100
AcDbLine
 10
35.0350606296
 20
636.129538651
 30
0.0
 11
35.0350606296
 21
636.7593866358
 31
0.0
  0
ENDBLK
  5
109
330
92
100
AcDbEntity
  8
0
100
AcDbBlockEnd
  0
BLOCK
  5
151
330
10A
100
AcDbEntity
  8
0
100
AcDbBlockBegin
  2
SE1
 70
     0
 10
0.0
 20
0.0
 30
0.0
  3
SE1
  1
SE1
  0
LINE
  5
10D
330
10A
100
AcDbEntity
  8
DV2_Default
  6
Continuous
 62
     7
100
AcDbLine
 10
119.9244385475
 20
392.0997486054
 30
0.0
 11
119.9244385475
 21
676.9995229459
 31
0.0
  0
LINE
  5
10E
330
10A
100
AcDbEntity
  8
DV2_Default
  6
Continuous
 62
     7
100
AcDbLine
 10
144.9240489792
 20
392.0997486054
 30
0.0
 11
170.0163102187
 21
392.0997486054
 31
0.0
  0
SPLINE
  5
10F
330
10A
100
AcDbEntity
  8
DV2_Default
  6
Continuous
 62
     7
100
AcDbSpline
210
0.0
220
0.0
230
1.0
 70
     8
 71
     3
 72
    16
 73
    12
 74
     0
 42
0.000000001
 43
0.0000000001
 40
0.0
 40
0.0
 40
0.0
 40
0.0
 40
0.0045360973594403
 40
0.0045360973594403
 40
0.0045360973594403
 40
0.1406190181426504
 40
0.3407409604709004
 40
0.5408629027991506
 40
0.7409848451274008
 40
0.9411067874556502
 40
1.0
 40
1.0
 40
1.0
 40
1.0
 10
170.0163102187339
 20
392.0997486053984
 30
0.0
 10
170.0163102187339
 20
393.766415272065
 30
0.0
 10
170.0163102187339
 20
395.4330819387317
 30
0.0
 10
170.0163102187339
 20
397.0997486053984
 30
0.0
 10
170.0163102187339
 20
447.0997486053984
 30
0.0
 10
170.0163102187339
 20
497.0997486053984
 30
0.0
 10
170.0163102187339
 20
547.0997486053984
 30
0.0
 10
170.0163102187339
 20
608.1501009834694
 30
0.0
 10
170.2213478763317
 20
633.3966034292995
 30
0.0
 10
251.7559803266926
 20
639.7515386334684
 30
0.0
 10
285.913966368927
 20
643.1839543742204
 30
0.0
 10
292.9911757415318
 20
643.9722645527384
 30
0.0
  0
LINE
  5
110
330
10A
100
AcDbEntity
  8
DV2_Default
  6
Continuous
 62
     7
100
AcDbLine
 10
144.9240489792
 20
392.0997486054
 30
0.0
 11
119.9244385475
 21
392.0997486054
 31
0.0
  0
SPLINE
  5
111
330
10A
100
AcDbEntity
  8
DV2_Default
  6
Continuous
 62
     7
100
AcDbSpline
210
0.0
220
0.0
230
1.0
 70
     8
 71
     3
 72
    48
 73
    44
 74
     0
 42
0.000000001
 43
0.0000000001
 40
0.0
 40
0.0
 40
0.0
 40
0.0
 40
0.015625
 40
0.015625
 40
0.0312499999999999
 40
0.0312499999999999
 40
0.0468749999999999
 40
0.0468749999999999
 40
0.0624999999999998
 40
0.0624999999999998
 40
0.09375
 40
0.09375
 40
0.1250000000000002
 40
0.1250000000000002
 40
0.1875000000000002
 40
0.1875000000000002
 40
0.2500000000000002
 40
0.2500000000000002
 40
0.3750000000000001
 40
0.3750000000000001
 40
0.5000000000000001
 40
0.5000000000000001
 40
0.6250000000000001
 40
0.6250000000000001
 40
0.75
 40
0.75
 40
0.8125
 40
0.8125
 40
0.875
 40
0.875
 40
0.9062500000000001
 40
0.9062500000000001
 40
0.921875
 40
0.921875
 40
0.9375
 40
0.9375
 40
0.953125
 40
0.953125
 40
0.96875
 40
0.96875
 40
0.9843749999999999
 40
0.9843749999999999
 40
1.0
 40
1.0
 40
1.0
 40
1.0
 10
344.1864209404829
 20
659.3171946112084
 30
0.0
 10
344.1864197831199
 20
659.31719533098
 30
0.0
 10
344.1014502314624
 20
659.3287848215962
 30
0.0
 10
343.7435715695793
 20
659.3233215758058
 30
0.0
 10
343.4677277468977
 20
659.3043340275391
 30
0.0
 10
342.7115098770408
 20
659.2602200526582
 30
0.0
 10
342.2415886923717
 20
659.2441689019311
 30
0.0
 10
341.0970037584734
 20
659.2301034785253
 30
0.0
 10
340.4092719574141
 20
659.2264009845392
 30
0.0
 10
338.091751960087
 20
659.2202069529071
 30
0.0
 10
336.1533250551579
 20
659.2290247157391
 30
0.0
 10
332.0620552520066
 20
659.2869436761682
 30
0.0
 10
329.8762307941674
 20
659.333092516717
 30
0.0
 10
323.2696968269181
 20
659.4740207532413
 30
0.0
 10
318.7907040572171
 20
659.561236085475
 30
0.0
 10
309.7923679836294
 20
659.6635175075339
 30
0.0
 10
305.2684733309885
 20
659.6860293871923
 30
0.0
 10
291.6684249083171
 20
659.7165560789641
 30
0.0
 10
282.5943147387011
 20
659.6967105943978
 30
0.0
 10
264.4431654250466
 20
659.6999783342883
 30
0.0
 10
255.3655957579447
 20
659.7145496645765
 30
0.0
 10
237.2093074597335
 20
659.7768938740509
 30
0.0
 10
228.1306696267938
 20
659.8230411433559
 30
0.0
 10
209.9753155466588
 20
659.9818227476078
 30
0.0
 10
200.8983089303501
 20
660.0859882221081
 30
0.0
 10
187.2879971477431
 20
660.41911276126
 30
0.0
 10
182.7520847059793
 20
660.5593343547096
 30
0.0
 10
173.6848983305925
 20
661.0010917283457
 30
0.0
 10
169.1374659851546
 20
661.2813368033195
 30
0.0
 10
162.3832425324865
 20
662.140868411065
 30
0.0
 10
160.1493605085882
 20
662.5027689161917
 30
0.0
 10
156.8607307696542
 20
663.3136061950679
 30
0.0
 10
155.7751125300431
 20
663.6295270241335
 30
0.0
 10
153.6383296247772
 20
664.4098974150802
 30
0.0
 10
152.5736256666242
 20
664.881150187671
 30
0.0
 10
150.5794117263839
 20
666.0375707358834
 30
0.0
 10
149.6464602708291
 20
666.7254019865168
 30
0.0
 10
148.0168573335209
 20
668.3733099891338
 30
0.0
 10
147.3518906633928
 20
669.3031315464764
 30
0.0
 10
146.3081989568009
 20
671.3650185721202
 30
0.0
 10
145.943569344634
 20
672.4682163458781
 30
0.0
 10
145.4278459155734
 20
674.7032615965757
 30
0.0
 10
145.2735792071249
 20
675.8502069168075
 30
0.0
 10
145.1560459601459
 20
676.9995060991304
 30
0.0
  0
ARC
  5
112
330
10A
100
AcDbEntity
  8
DV2_Default
  6
Continuous
 62
     7
100
AcDbCircle
 10
343.5210404912
 20
659.5346086348
 30
0.0
 40
0.6999999999998094
100
AcDbArc
 50
341.9051216389
 51
58.571694805
  0
LINE
  5
113
330
10A
100
AcDbEntity
  8
DV2_Default
  6
Continuous
 62
     7
100
AcDbLine
 10
145.177897874
 20
677.4995229459
 30
0.0
 11
169.8389390441
 21
677.4995229459
 31
0.0
  0
LINE
  5
114
330
10A
100
AcDbEntity
  8
DV2_Default
  6
Continuous
 62
     7
100
AcDbLine
 10
120.4244385493
 20
677.4995229459
 30
0.0
 11
144.924092242
 21
677.4995229459
 31
0.0
  0
LINE
  5
115
330
10A
100
AcDbEntity
  8
DV2_Default
  6
Continuous
 62
     7
100
AcDbLine
 10
144.9240489807
 20
676.9995215626
 30
0.0
 11
119.9244385475
 21
676.9995229459
 31
0.0
  0
SPLINE
  5
116
330
10A
100
AcDbEntity
  8
DV2_Default
  6
Continuous
 62
     7
100
AcDbSpline
210
0.0
220
0.0
230
1.0
 70
     8
 71
     3
 72
    10
 73
     6
 74
     0
 42
0.000000001
 43
0.0000000001
 40
0.0
 40
0.0
 40
0.0
 40
0.0
 40
0.2574635510262679
 40
0.6325123122916148
 40
1.0
 40
1.0
 40
1.0
 40
1.0
 10
170.3215675432148
 20
677.1301741298089
 30
0.0
 10
172.4474654430692
 20
669.2770580572374
 30
0.0
 10
191.4088999547678
 20
667.5700999666011
 30
0.0
 10
308.0410841606241
 20
666.3601082734262
 30
0.0
 10
336.1288070220097
 20
664.8722122797657
 30
0.0
 10
343.8860423580619
 20
660.1319139480034
 30
0.0
  0
ARC
  5
117
330
10A
100
AcDbEntity
  8
DV2_Default
  6
Continuous
 62
     7
100
AcDbCircle
 10
150.3430350153
 20
2152.5666284183
 30
0.0
 40
1475.571710356777
100
AcDbArc
 50
269.8008961423
 51
270.7757810503
  0
ARC
  5
118
330
10A
100
AcDbEntity
  8
DV2_Default
  6
Continuous
 62
     7
100
AcDbCircle
 10
169.8389390441
 20
676.9995229459
 30
0.0
 40
0.5000000000000004
100
AcDbArc
 50
15.1473540835
 51
90.0
  0
ARC
  5
119
330
10A
100
AcDbEntity
  8
DV2_Default
  6
Continuous
 62
     7
100
AcDbCircle
 10
120.4244385492
 20
676.9995229436
 30
0.0
 40
0.5000000017060385
100
AcDbArc
 50
89.9999999947
 51
179.9999997393
  0
SPLINE
  5
11A
330
10A
100
AcDbEntity
  8
DV2_Default
  6
Continuous
 62
     7
100
AcDbSpline
210
0.0
220
0.0
230
1.0
 70
     8
 71
     3
 72
     8
 73
     4
 74
     0
 42
0.000000001
 43
0.0000000001
 40
0.0
 40
0.0
 40
0.0
 40
0.0
 40
1.0
 40
1.0
 40
1.0
 40
1.0
 10
338.8300000822289
 20
653.0232700244984
 30
0.0
 10
342.4015151928637
 20
655.0383202136003
 30
0.0
 10
343.487056696985
 20
657.176839141714
 30
0.0
 10
344.1864209404829
 20
659.3171946112084
 30
0.0
  0
SPLINE
  5
11B
330
10A
100
AcDbEntity
  8
DV2_Default
  6
Continuous
 62
     7
100
AcDbSpline
210
0.0
220
0.0
230
1.0
 70
     8
 71
     3
 72
    32
 73
    28
 74
     0
 42
0.000000001
 43
0.0000000001
 40
0.0
 40
0.0
 40
0.0
 40
0.0
 40
0.0336372322272734
 40
0.0672773556953571
 40
0.1007212757709421
 40
0.1342838295524982
 40
0.1674875843919037
 40
0.2007657843051688
 40
0.2342670306644596
 40
0.267630922860424
 40
0.3011559572490914
 40
0.3344157417220883
 40
0.3675836377927084
 40
0.4008681161838042
 40
0.4343472697015169
 40
0.4675253249210332
 40
0.533532216690873
 40
0.600227934168759
 40
0.6664390273375547
 40
0.7330753307067004
 40
0.7995388274461519
 40
0.8662734753662499
 40
0.8997346102559189
 40
0.9331431002101883
 40
0.9497954428530795
 40
0.9665390243994727
 40
0.9999999999999999
 40
0.9999999999999999
 40
0.9999999999999999
 40
0.9999999999999999
 10
292.9911757415318
 20
643.9722645527384
 30
0.0
 10
292.989414082571
 20
643.9800812345051
 30
0.0
 10
292.9858906132284
 20
643.9957152699105
 30
0.0
 10
293.0750149227811
 20
644.1695150411995
 30
0.0
 10
293.3642209938983
 20
644.5108721288722
 30
0.0
 10
293.9266981254671
 20
645.0489319864721
 30
0.0
 10
294.7962463963567
 20
645.768081345213
 30
0.0
 10
295.9480039802723
 20
646.6292518756123
 30
0.0
 10
297.3309706316637
 20
647.5928691061284
 30
0.0
 10
298.8837266431983
 20
648.6276796838744
 30
0.0
 10
300.5503676526357
 20
649.703469252963
 30
0.0
 10
302.3005298814526
 20
650.7959796280282
 30
0.0
 10
304.1294456018038
 20
651.8583540579241
 30
0.0
 10
306.0446781196673
 20
652.8575832601016
 30
0.0
 10
308.0389999680096
 20
653.761499890319
 30
0.0
 10
310.7790333916728
 20
654.8056358823769
 30
0.0
 10
314.3559194954744
 20
655.7840165192187
 30
0.0
 10
318.7530717741884
 20
656.3977864064091
 30
0.0
 10
323.1479481424376
 20
656.5273491220261
 30
0.0
 10
327.4147961149617
 20
656.3016547653503
 30
0.0
 10
331.4426123521317
 20
655.8542319411617
 30
0.0
 10
334.3920186375505
 20
655.3412986585055
 30
0.0
 10
336.2592361150147
 20
654.8127441462454
 30
0.0
 10
337.1760384211644
 20
654.4318476722647
 30
0.0
 10
337.7460904779796
 20
654.1143430706348
 30
0.0
 10
338.210843698045
 20
653.7986347784796
 30
0.0
 10
338.444728309591
 20
653.5765897884451
 30
0.0
 10
338.5569226779194
 20
653.4492384162548
 30
0.0
  0
SPLINE
  5
11C
330
10A
100
AcDbEntity
  8
DV2_Default
  6
Continuous
 62
     7
100
AcDbSpline
210
0.0
220
0.0
230
1.0
 70
     8
 71
     3
 72
    11
 73
     7
 74
     0
 42
0.000000001
 43
0.0000000001
 40
0.0
 40
0.0
 40
0.0
 40
0.0
 40
0.00005232431912
 40
0.4984345085412886
 40
0.7554791683175796
 40
1.0
 40
1.0
 40
1.0
 40
1.0
 10
338.5569226779194
 20
653.4492384162548
 30
0.0
 10
338.5569343652421
 20
653.4492251500222
 30
0.0
 10
338.6682617310117
 20
653.32285491636
 30
0.0
 10
338.7717982652927
 20
653.1621222315678
 30
0.0
 10
338.8253499736585
 20
653.0414561518842
 30
0.0
 10
338.8284760649943
 20
653.0292303093281
 30
0.0
 10
338.8300000822289
 20
653.0232700244984
 30
0.0
  0
SPLINE
  5
11D
330
10A
100
AcDbEntity
  8
DV2_Default
  6
Continuous
 62
     7
100
AcDbSpline
210
0.0
220
0.0
230
1.0
 70
     8
 71
     5
 72
    12
 73
     6
 74
     0
 42
0.000000001
 43
0.0000000001
 40
0.0
 40
0.0
 40
0.0
 40
0.0
 40
0.0
 40
0.0
 40
1.0
 40
1.0
 40
1.0
 40
1.0
 40
1.0
 40
1.0
 10
338.8300000822289
 20
653.0232700244984
 30
0.0
 10
337.2732303707946
 20
652.1449399589151
 30
0.0
 10
335.6130548734972
 20
651.4498883688435
 30
0.0
 10
334.0246685617116
 20
650.6577825012782
 30
0.0
 10
332.683266406812
 20
649.4882896032148
 30
0.0
 10
331.7640433803789
 20
647.6610769220583
 30
0.0
  0
LINE
  5
11E
330
10A
100
AcDbEntity
  8
DV2_Default
  6
Continuous
 62
     7
100
AcDbLine
 10
304.3360136309
 20
640.2540810957
 30
0.0
 11
317.5776761743
 21
643.5792060778
 31
0.0
  0
LINE
  5
11F
330
10A
100
AcDbEntity
  8
DV2_Default
  6
Continuous
 62
     7
100
AcDbLine
 10
317.5776761743
 20
643.5792060778
 30
0.0
 11
330.8192928576
 21
646.904319544
 31
0.0
  0
SPLINE
  5
120
330
10A
100
AcDbEntity
  8
DV2_Default
  6
Continuous
 62
     7
100
AcDbSpline
210
0.0
220
0.0
230
1.0
 70
     8
 71
     5
 72
    12
 73
     6
 74
     0
 42
0.000000001
 43
0.0000000001
 40
0.0
 40
0.0
 40
0.0
 40
0.0
 40
0.0
 40
0.0
 40
1.0
 40
1.0
 40
1.0
 40
1.0
 40
1.0
 40
1.0
 10
303.2950145824619
 20
640.6511059737024
 30
0.0
 10
301.7007754892322
 20
643.0012471454155
 30
0.0
 10
299.8689679553855
 20
644.1335025426456
 30
0.0
 10
297.873638654003
 20
644.430489612553
 30
0.0
 10
295.7888342581469
 20
644.2748258023257
 30
0.0
 10
293.6886014408782
 20
644.0491285591545
 30
0.0
  0
SPLINE
  5
121
330
10A
100
AcDbEntity
  8
DV2_Default
  6
Continuous
 62
     7
100
AcDbSpline
210
0.0
220
0.0
230
1.0
 70
     8
 71
     5
 72
    12
 73
     6
 74
     0
 42
0.000000001
 43
0.0000000001
 40
0.0
 40
0.0
 40
0.0
 40
0.0
 40
0.0
 40
0.0
 40
1.0
 40
1.0
 40
1.0
 40
1.0
 40
1.0
 40
1.0
 10
293.6886014408782
 20
644.0491285591545
 30
0.0
 10
293.5492089284289
 20
644.034149026638
 30
0.0
 10
293.4097484540807
 20
644.0188609981999
 30
0.0
 10
293.2702416660226
 20
644.0033763353786
 30
0.0
 10
293.1307102124434
 20
643.987806899712
 30
0.0
 10
292.9911757415318
 20
643.9722645527384
 30
0.0
  0
ARC
  5
122
330
10A
100
AcDbEntity
  8
DV2_Default
  6
Continuous
 62
     7
100
AcDbCircle
 10
402.8372532813
 20
316.7799076871
 30
0.0
 40
338.428351826356
100
AcDbArc
 50
102.1229160601
 51
104.6214366055
  0
ARC
  5
123
330
10A
100
AcDbEntity
  8
DV2_Default
  6
Continuous
 62
     7
100
AcDbCircle
 10
589.9416428919
 20
-454.4573051624
 30
0.0
 40
1132.002085537946
100
AcDbArc
 50
103.9310620474
 51
104.6681928262
  0
ARC
  5
124
330
10A
100
AcDbEntity
  8
DV2_Default
  6
Continuous
 62
     7
100
AcDbCircle
 10
304.0993101592
 20
641.1967066545
 30
0.0
 40
0.9718906716368424
100
AcDbArc
 50
214.1513373094
 51
284.0961289506
  0
ARC
  5
125
330
10A
100
AcDbEntity
  8
DV2_Default
  6
Continuous
 62
     7
100
AcDbCircle
 10
330.4651810888
 20
648.3145006862
 30
0.0
 40
1.453962172366354
100
AcDbArc
 50
284.0961302383
 51
333.294223333
  0
ELLIPSE
  5
126
330
10A
100
AcDbEntity
  8
DV2_Default
  6
Continuous
 62
     7
100
AcDbEllipse
 10
317.3914589265
 20
644.320779994
 30
0.0
 11
0.1862172477925805
 21
-0.741573916171967
 31
0.0
210
0.0
220
0.0
230
1.0
 40
0.0030290355
 41
4.809675080318727
 42
6.283185307147639
  0
ARC
  5
127
330
10A
100
AcDbEntity
  8
DV2_Default
  6
Continuous
 62
     7
100
AcDbCircle
 10
336.0800738673
 20
654.7277759126
 30
0.0
 40
2.787468149591092
100
AcDbArc
 50
294.7130163957
 51
332.6961596006
  0
LINE
  5
128
330
10A
100
AcDbEntity
  8
DV2_Default
  6
Continuous
 62
     7
100
AcDbLine
 10
168.5733618757
 20
677.4995229459
 30
0.0
 11
145.2550808927
 21
677.4995229459
 31
0.0
  0
ARC
  5
129
330
10A
100
AcDbEntity
  8
DV2_Default
  6
Continuous
 62
     7
100
AcDbCircle
 10
144.9240489893
 20
671.0995229459
 30
0.0
 40
24.50000000000001
100
AcDbArc
 50
149.7512491773
 51
164.8572685595
  0
ARC
  5
12A
330
10A
100
AcDbEntity
  8
DV2_Default
  6
Continuous
 62
     7
100
AcDbCircle
 10
144.9240489893
 20
671.0995229459
 30
0.0
 40
24.50000000000001
100
AcDbArc
 50
15.1427314405
 51
20.2587922727
  0
SPLINE
  5
12B
330
10A
100
AcDbEntity
  8
DV2_Default
  6
Continuous
 62
     7
100
AcDbSpline
210
0.0
220
0.0
230
1.0
 70
     8
 71
     4
 72
    13
 73
     8
 74
     0
 42
0.000000001
 43
0.0000000001
 40
0.0
 40
0.0
 40
0.0
 40
0.0
 40
0.0
 40
0.2618173093588186
 40
0.5358465996256837
 40
0.8098758898925498
 40
1.0
 40
1.0
 40
1.0
 40
1.0
 40
1.0
 10
243.9032228660274
 20
725.4880746000473
 30
0.0
 10
235.5961258310147
 20
727.8301438363218
 30
0.0
 10
211.8162796669325
 20
722.8399231428781
 30
0.0
 10
184.8146335346754
 20
717.8372765510193
 30
0.0
 10
160.6661221485981
 20
712.5286620086541
 30
0.0
 10
141.3055989315942
 20
708.3598899901465
 30
0.0
 10
122.2282474940631
 20
698.0048362578112
 30
0.0
 10
119.6015790161266
 20
684.3792966250521
 30
0.0
  0
ARC
  5
12C
330
10A
100
AcDbEntity
  8
DV2_Default
  6
Continuous
 62
     7
100
AcDbCircle
 10
243.7675441997
 20
725.006835263
 30
0.0
 40
0.4999999999999701
100
AcDbArc
 50
355.1271044079
 51
74.254947981
  0
SPLINE
  5
12D
330
10A
100
AcDbEntity
  8
DV2_Default
  6
Continuous
 62
     7
100
AcDbSpline
210
0.0
220
0.0
230
1.0
 70
     8
 71
     4
 72
    10
 73
     5
 74
     0
 42
0.000000001
 43
0.0000000001
 40
0.0
 40
0.0
 40
0.0
 40
0.0
 40
0.0
 40
0.9999999999999999
 40
0.9999999999999999
 40
0.9999999999999999
 40
0.9999999999999999
 40
0.9999999999999999
 10
171.4249229254026
 20
693.7666380443352
 30
0.0
 10
171.7932953747195
 20
695.9194752094409
 30
0.0
 10
172.300004407236
 20
697.9058579126801
 30
0.0
 10
172.9455230641967
 20
699.6599784719741
 30
0.0
 10
173.6969154870639
 20
701.2032577790442
 30
0.0
  0
SPLINE
  5
12E
330
10A
100
AcDbEntity
  8
DV2_Default
  6
Continuous
 62
     7
100
AcDbSpline
210
0.0
220
0.0
230
1.0
 70
     8
 71
     4
 72
    10
 73
     5
 74
     0
 42
0.000000001
 43
0.0000000001
 40
0.0
 40
0.0
 40
0.0
 40
0.0
 40
0.0
 40
1.0
 40
1.0
 40
1.0
 40
1.0
 40
1.0
 10
240.8904944767054
 20
721.6973470547091
 30
0.0
 10
242.1815320441667
 20
721.9683339126665
 30
0.0
 10
243.3271972213942
 20
722.4950550966254
 30
0.0
 10
244.1342322220478
 20
723.4218518461965
 30
0.0
 10
244.2657369957916
 20
724.9643624723434
 30
0.0
  0
LINE
  5
12F
330
10A
100
AcDbEntity
  8
DV2_Default
  6
Continuous
 62
     7
100
AcDbLine
 10
170.7162678784
 20
679.5784399804
 30
0.0
 11
145.8335415403
 21
679.5784399804
 31
0.0
  0
ARC
  5
130
330
10A
100
AcDbEntity
  8
DV2_Default
  6
Continuous
 62
     7
100
AcDbCircle
 10
242.7717118371
 20
684.7320797615
 30
0.0
 40
72.02551986152967
100
AcDbArc
 50
177.1268768449
 51
183.9332580684
  0
SPLINE
  5
131
330
10A
100
AcDbEntity
  8
DV2_Default
  6
Continuous
 62
     7
100
AcDbSpline
210
0.0
220
0.0
230
1.0
 70
     8
 71
     3
 72
    16
 73
    12
 74
     0
 42
0.000000001
 43
0.0000000001
 40
0.0
 40
0.0
 40
0.0
 40
0.0
 40
0.1250000000000001
 40
0.1250000000000001
 40
0.2500000000000001
 40
0.2500000000000001
 40
0.5000000000000001
 40
0.5000000000000001
 40
0.7500000000000001
 40
0.7500000000000001
 40
1.0
 40
1.0
 40
1.0
 40
1.0
 10
145.8590652673204
 20
679.7892183069092
 30
0.0
 10
147.4972876247029
 20
679.7875489165693
 30
0.0
 10
149.121709931218
 20
679.7858160769246
 30
0.0
 10
152.3188693340743
 20
679.7818824555455
 30
0.0
 10
153.8740884371391
 20
679.7795991022098
 30
0.0
 10
158.3113576720397
 20
679.7750452885267
 30
0.0
 10
161.0630500430411
 20
679.7732103671143
 30
0.0
 10
165.749887714681
 20
679.7781790596549
 30
0.0
 10
167.6532529586514
 20
679.7845992508644
 30
0.0
 10
170.2303565180406
 20
679.7916860477284
 30
0.0
 10
170.9178448738948
 20
679.7915915762507
 30
0.0
 10
170.9158386944998
 20
679.791532601724
 30
0.0
  0
LINE
  5
132
330
10A
100
AcDbEntity
  8
DV2_Default
  6
Continuous
 62
     7
100
AcDbLine
 10
145.4095206436
 20
679.6223530486
 30
0.0
 11
119.7632336918
 21
684.1444770169
 31
0.0
  0
SPLINE
  5
133
330
10A
100
AcDbEntity
  8
DV2_Default
  6
Continuous
 62
     7
100
AcDbSpline
210
0.0
220
0.0
230
1.0
 70
     8
 71
     3
 72
    40
 73
    36
 74
     0
 42
0.000000001
 43
0.0000000001
 40
0.0
 40
0.0
 40
0.0
 40
0.0
 40
0.03125
 40
0.03125
 40
0.0625000000000001
 40
0.0625000000000001
 40
0.1250000000000001
 40
0.1250000000000001
 40
0.1562500000000001
 40
0.1562500000000001
 40
0.1875000000000001
 40
0.1875000000000001
 40
0.2500000000000001
 40
0.2500000000000001
 40
0.3750000000000001
 40
0.3750000000000001
 40
0.5000000000000001
 40
0.5000000000000001
 40
0.625
 40
0.625
 40
0.7499999999999999
 40
0.7499999999999999
 40
0.8124999999999998
 40
0.8124999999999998
 40
0.8437499999999998
 40
0.8437499999999998
 40
0.8749999999999999
 40
0.8749999999999999
 40
0.9062499999999999
 40
0.9062499999999999
 40
0.9374999999999999
 40
0.9374999999999999
 40
0.96875
 40
0.96875
 40
1.0
 40
1.0
 40
1.0
 40
1.0
 10
145.4352253858561
 20
679.828947152825
 30
0.0
 10
145.3582187682832
 20
681.1408261624912
 30
0.0
 10
145.3521803763165
 20
682.4496742605329
 30
0.0
 10
145.5756412901447
 20
685.0587787987585
 30
0.0
 10
145.8062671362697
 20
686.3556719489618
 30
0.0
 10
146.8834018431553
 20
690.0872681154582
 30
0.0
 10
148.1561351401363
 20
692.4301853633186
 30
0.0
 10
150.6762925235502
 20
695.3772556522534
 30
0.0
 10
151.6265120519277
 20
696.285770461133
 30
0.0
 10
153.6296265947952
 20
697.9328863769878
 30
0.0
 10
154.6862591153669
 20
698.6801769212676
 30
0.0
 10
157.9721755688878
 20
700.765285515304
 30
0.0
 10
160.3149043932451
 20
701.9445614846129
 30
0.0
 10
167.445013160953
 20
705.1294126747114
 30
0.0
 10
172.3996407787608
 20
706.8258235177204
 30
0.0
 10
182.3559734461234
 20
710.0154377824898
 30
0.0
 10
187.3691755438274
 20
711.5024682205155
 30
0.0
 10
197.4629289044226
 20
714.2134066137395
 30
0.0
 10
202.5348019323858
 20
715.4678913138063
 30
0.0
 10
212.6443564198923
 20
718.0398068278217
 30
0.0
 10
217.6970236797562
 20
719.3592256064886
 30
0.0
 10
225.2199815671118
 20
721.2541205816492
 30
0.0
 10
227.7188854586397
 20
721.8665284770706
 30
0.0
 10
231.4122500448247
 20
722.7395145828092
 30
0.0
 10
232.6385552997335
 20
723.022755108194
 30
0.0
 10
235.038941517545
 20
723.5663198995521
 30
0.0
 10
236.193109771414
 20
723.8208909208323
 30
0.0
 10
238.2976487143981
 20
724.3140124721365
 30
0.0
 10
239.2274995370487
 20
724.561993576311
 30
0.0
 10
240.883191959196
 20
724.9445304799711
 30
0.0
 10
241.6252871300632
 20
725.0874142519856
 30
0.0
 10
242.8199887894564
 20
725.2921809910818
 30
0.0
 10
243.2678709853415
 20
725.3590631222851
 30
0.0
 10
243.8144196659725
 20
725.460513539859
 30
0.0
 10
243.9032228660275
 20
725.4880746000474
 30
0.0
 10
243.9032228660274
 20
725.4880746000473
 30
0.0
  0
SPLINE
  5
134
330
10A
100
AcDbEntity
  8
DV2_Default
  6
Continuous
 62
     7
100
AcDbSpline
210
0.0
220
0.0
230
1.0
 70
     8
 71
     3
 72
    24
 73
    20
 74
     0
 42
0.000000001
 43
0.0000000001
 40
0.0
 40
0.0
 40
0.0
 40
0.0
 40
0.0625
 40
0.0625
 40
0.125
 40
0.125
 40
0.2500000000000001
 40
0.2500000000000001
 40
0.3750000000000001
 40
0.3750000000000001
 40
0.5
 40
0.5
 40
0.6249999999999999
 40
0.6249999999999999
 40
0.7499999999999999
 40
0.7499999999999999
 40
0.875
 40
0.875
 40
1.0
 40
1.0
 40
1.0
 40
1.0
 10
119.6015790161266
 20
684.3792966250521
 30
0.0
 10
119.6015790098183
 20
684.3792965923285
 30
0.0
 10
119.6430067529383
 20
684.3722003889242
 30
0.0
 10
119.8144629436857
 20
684.3425287012841
 30
0.0
 10
119.9445318470107
 20
684.3199424735628
 30
0.0
 10
120.4652456722943
 20
684.2290055581722
 30
0.0
 10
120.9925245230282
 20
684.1362891166588
 30
0.0
 10
122.2793267654281
 20
683.9088778093643
 30
0.0
 10
123.0426038023591
 20
683.773769524469
 30
0.0
 10
124.8451929082167
 20
683.4559824637854
 30
0.0
 10
125.8845392765852
 20
683.2733181360603
 30
0.0
 10
128.2088308289255
 20
682.8668483392662
 30
0.0
 10
129.520957067973
 20
682.638589164483
 30
0.0
 10
132.3644271986867
 20
682.1439186159329
 30
0.0
 10
133.8827817812105
 20
681.8791289480587
 30
0.0
 10
137.0678173021235
 20
681.3198710505185
 30
0.0
 10
138.7301428853837
 20
681.0263175185843
 30
0.0
 10
142.0632692574327
 20
680.4340861450968
 30
0.0
 10
143.7435837352714
 20
680.1338002988991
 30
0.0
 10
145.4352253858561
 20
679.828947152825
 30
0.0
  0
ARC
  5
135
330
10A
100
AcDbEntity
  8
DV2_Default
  6
Continuous
 62
     7
100
AcDbCircle
 10
119.797963253
 20
684.3414385806
 30
0.0
 40
0.1999999999999701
100
AcDbArc
 50
169.0886347264
 51
260.000021647
  0
ARC
  5
136
330
10A
100
AcDbEntity
  8
DV2_Default
  6
Continuous
 62
     7
100
AcDbCircle
 10
170.7162682
 20
679.7784395088
 30
0.0
 40
0.1999995283663542
100
AcDbArc
 50
269.9999078687
 51
3.7535880903
  0
ARC
  5
137
330
10A
100
AcDbEntity
  8
DV2_Default
  6
Continuous
 62
     7
100
AcDbCircle
 10
218.0897645432
 20
685.9624220621
 30
0.0
 40
47.31292878603338
100
AcDbArc
 50
170.5057335009
 51
177.1167369378
  0
ARC
  5
138
330
10A
100
AcDbEntity
  8
DV2_Default
  6
Continuous
 62
     7
100
AcDbCircle
 10
212.8470695106
 20
684.2046035826
 30
0.0
 40
42.66744336929871
100
AcDbArc
 50
156.5878548204
 51
185.9328616435
  0
SPLINE
  5
139
330
10A
100
AcDbEntity
  8
DV2_Default
  6
Continuous
 62
     7
100
AcDbSpline
210
0.0
220
0.0
230
1.0
 70
     8
 71
     3
 72
    42
 73
    38
 74
     0
 42
0.000000001
 43
0.0000000001
 40
0.0
 40
0.0
 40
0.0
 40
0.0
 40
0.0035767808881633
 40
0.0080658275039371
 40
0.0192454654927758
 40
0.0334760969140468
 40
0.0476702981554476
 40
0.0786672072621494
 40
0.1064743583950113
 40
0.1348488602666299
 40
0.1572815467920238
 40
0.1825753930426073
 40
0.2138086820279337
 40
0.2526635725479572
 40
0.2967756992247539
 40
0.3444213987061104
 40
0.3848301273010404
 40
0.4167657383228196
 40
0.4711851606482329
 40
0.5348039507990121
 40
0.5989421963228418
 40
0.6669735351270033
 40
0.7031218002442268
 40
0.7403768050157039
 40
0.7773766128786075
 40
0.8126319117400899
 40
0.825688799064714
 40
0.8378567171914656
 40
0.8491132143600763
 40
0.8599031176373886
 40
0.8740210727958522
 40
0.8971649809351824
 40
0.9253200867226257
 40
0.941157856080917
 40
0.9584522764664021
 40
0.9777611864525397
 40
1.0
 40
1.0
 40
1.0
 40
1.0
 10
173.0501538054273
 20
700.7989128429684
 30
0.0
 10
173.0532098101219
 20
700.7946623724666
 30
0.0
 10
173.0722169283229
 20
700.7951319397778
 30
0.0
 10
173.238133479123
 20
700.8891879319614
 30
0.0
 10
173.6991324383737
 20
701.1686144461772
 30
0.0
 10
174.4465261478689
 20
701.5843814447485
 30
0.0
 10
175.807235089439
 20
702.2915614343767
 30
0.0
 10
177.5720286667764
 20
703.0930266727543
 30
0.0
 10
179.7097244163097
 20
703.9565364180888
 30
0.0
 10
181.6602307392393
 20
704.6844960975374
 30
0.0
 10
183.5550418325488
 20
705.3604801641666
 30
0.0
 10
185.5242413081248
 20
706.0445874749998
 30
0.0
 10
187.9087056666046
 20
706.8543312990039
 30
0.0
 10
190.7712259435656
 20
707.8015239951734
 30
0.0
 10
194.0549689916295
 20
708.8596226406967
 30
0.0
 10
197.3867436963056
 20
709.9089663498847
 30
0.0
 10
200.4173391458728
 20
710.8469945559413
 30
0.0
 10
203.623453663306
 20
711.8255204706534
 30
0.0
 10
207.4208022702286
 20
712.9626250327432
 30
0.0
 10
212.0435227616661
 20
714.2946637045688
 30
0.0
 10
217.0144796979575
 20
715.6408604296389
 30
0.0
 10
221.278279427416
 20
716.7279747044539
 30
0.0
 10
224.8505900176274
 20
717.5962535354961
 30
0.0
 10
227.6385748700234
 20
718.2495915485108
 30
0.0
 10
230.3478131963903
 20
718.8996952308025
 30
0.0
 10
232.3896620370321
 20
719.4142336341587
 30
0.0
 10
233.7850079715337
 20
719.7777472855938
 30
0.0
 10
234.6065545148127
 20
719.9951676250827
 30
0.0
 10
235.3522935644197
 20
720.1953165344195
 30
0.0
 10
236.1074408608219
 20
720.4004598338319
 30
0.0
 10
236.9969511047232
 20
720.6491418548327
 30
0.0
 10
238.0969660287248
 20
720.9656374830454
 30
0.0
 10
239.0731662833442
 20
721.2334642704296
 30
0.0
 10
239.7979785980414
 20
721.4244227941999
 30
0.0
 10
240.2906173137514
 20
721.551539715676
 30
0.0
 10
240.6908506243772
 20
721.652152878996
 30
0.0
 10
240.8171443979976
 20
721.6809054860278
 30
0.0
 10
240.8913360308063
 20
721.6975237412742
 30
0.0
  0
LINE
  5
13A
330
10A
100
AcDbEntity
  8
DV2_Default
  6
Continuous
 62
     7
100
AcDbLine
 10
308.9244743725
 20
633.8993368483
 30
0.0
 11
329.7770764098
 21
639.1356512272
 31
0.0
  0
LINE
  5
13B
330
10A
100
AcDbEntity
  8
DV2_Default
  6
Continuous
 62
     7
100
AcDbLine
 10
316.7648181886
 20
636.1955333569
 30
0.0
 11
308.3136983607
 21
634.0733655721
 31
0.0
  0
LINE
  5
13C
330
10A
100
AcDbEntity
  8
DV2_Default
  6
Continuous
 62
     7
100
AcDbLine
 10
314.9202879543
 20
636.6252641875
 30
0.0
 11
307.617834068
 21
634.7915388703
 31
0.0
  0
LINE
  5
13D
330
10A
100
AcDbEntity
  8
DV2_Default
  6
Continuous
 62
     7
100
AcDbLine
 10
321.7820578836
 20
637.4554166228
 30
0.0
 11
330.2331777115
 21
639.5775844076
 31
0.0
  0
SPLINE
  5
13E
330
10A
100
AcDbEntity
  8
DV2_Default
  6
Continuous
 62
     7
100
AcDbSpline
210
0.0
220
0.0
230
1.0
 70
     8
 71
     3
 72
    10
 73
     6
 74
     0
 42
0.000000001
 43
0.0000000001
 40
0.0
 40
0.0
 40
0.0
 40
0.0
 40
0.5
 40
0.5
 40
1.0
 40
1.0
 40
1.0
 40
1.0
 10
321.7820578835523
 20
637.4554166228046
 30
0.0
 10
320.9734627538253
 20
637.1348749811564
 30
0.0
 10
320.1516143562899
 20
636.8674016831375
 30
0.0
 10
318.4791962238033
 20
636.447460218326
 30
0.0
 10
317.62862687573
 20
636.294990502408
 30
0.0
 10
316.7648181886253
 20
636.1955333569223
 30
0.0
  0
LINE
  5
13F
330
10A
100
AcDbEntity
  8
DV2_Default
  6
Continuous
 62
     7
100
AcDbLine
 10
323.2047479993
 20
638.7055818945
 30
0.0
 11
330.5072018857
 21
640.5393072117
 31
0.0
  0
LINE
  5
140
330
10A
100
AcDbEntity
  8
DV2_Default
  6
Continuous
 62
     7
100
AcDbLine
 10
322.7623568957
 20
640.4673182918
 30
0.0
 11
314.4778968506
 21
638.3870005848
 31
0.0
  0
LINE
  5
141
330
10A
100
AcDbEntity
  8
DV2_Default
  6
Continuous
 62
     7
100
AcDbLine
 10
322.7623568957
 20
640.4673182918
 30
0.0
 11
323.2047479993
 21
638.7055818945
 31
0.0
  0
SPLINE
  5
142
330
10A
100
AcDbEntity
  8
DV2_Default
  6
Continuous
 62
     7
100
AcDbSpline
210
0.0
220
0.0
230
1.0
 70
     8
 71
     3
 72
    14
 73
    10
 74
     0
 42
0.000000001
 43
0.0000000001
 40
0.0
 40
0.0
 40
0.0
 40
0.0
 40
0.1249999999999997
 40
0.1249999999999997
 40
0.2499999999999993
 40
0.2499999999999993
 40
0.4999999999999993
 40
0.4999999999999993
 40
1.0
 40
1.0
 40
1.0
 40
1.0
 10
323.2047479993404
 20
638.7055818944938
 30
0.0
 10
323.2253097128935
 20
638.623698875465
 30
0.0
 10
323.2145719035019
 20
638.5343511683778
 30
0.0
 10
323.1555343134658
 20
638.3760256684634
 30
0.0
 10
323.1086638502117
 20
638.3034030877201
 30
0.0
 10
322.9492146994443
 20
638.1075598799501
 30
0.0
 10
322.8153108759712
 20
638.0003286225698
 30
0.0
 10
322.4004274767876
 20
637.719471792236
 30
0.0
 10
322.09260775122
 20
637.5785241716089
 30
0.0
 10
321.7820578835523
 20
637.4554166228046
 30
0.0
  0
SPLINE
  5
143
330
10A
100
AcDbEntity
  8
DV2_Default
  6
Continuous
 62
     7
100
AcDbSpline
210
0.0
220
0.0
230
1.0
 70
     8
 71
     3
 72
    14
 73
    10
 74
     0
 42
0.000000001
 43
0.0000000001
 40
0.0
 40
0.0
 40
0.0
 40
0.0
 40
0.4999999999999996
 40
0.4999999999999996
 40
0.7499999999999993
 40
0.7499999999999993
 40
0.8749999999999997
 40
0.8749999999999997
 40
1.0
 40
1.0
 40
1.0
 40
1.0
 10
316.7648181886253
 20
636.1955333569223
 30
0.0
 10
316.4315257622134
 20
636.1571587563449
 30
0.0
 10
316.0963014471747
 20
636.1359427095011
 30
0.0
 10
315.5954358007845
 20
636.1878183990033
 30
0.0
 10
315.4281929903319
 20
636.2190409617069
 30
0.0
 10
315.1965508175268
 20
636.3154339592758
 30
0.0
 10
315.1204649984121
 20
636.3572663771033
 30
0.0
 10
314.992823913473
 20
636.4692558956839
 30
0.0
 10
314.9409471612965
 20
636.5429929197905
 30
0.0
 10
314.9202879542958
 20
636.6252641874933
 30
0.0
  0
LINE
  5
144
330
10A
100
AcDbEntity
  8
DV2_Default
  6
Continuous
 62
     7
100
AcDbLine
 10
314.9202879543
 20
636.6252641875
 30
0.0
 11
314.4778968506
 21
638.3870005848
 31
0.0
  0
LINE
  5
145
330
10A
100
AcDbEntity
  8
DV2_Default
  6
Continuous
 62
     7
100
AcDbLine
 10
308.3136983607
 20
634.0733655721
 30
0.0
 11
308.9244743725
 21
633.8993368483
 31
0.0
  0
LINE
  5
146
330
10A
100
AcDbEntity
  8
DV2_Default
  6
Continuous
 62
     7
100
AcDbLine
 10
329.7770764098
 20
639.1356512272
 30
0.0
 11
330.2331777115
 21
639.5775844076
 31
0.0
  0
ARC
  5
147
330
10A
100
AcDbEntity
  8
DV2_Default
  6
Continuous
 62
     7
100
AcDbCircle
 10
329.5373134188
 20
640.2957577057
 30
0.0
 40
1.000000000000012
100
AcDbArc
 50
314.0961302383
 51
14.0961302383
  0
ARC
  5
148
330
10A
100
AcDbEntity
  8
DV2_Default
  6
Continuous
 62
     7
100
AcDbCircle
 10
308.5877225348
 20
635.0350883762
 30
0.0
 40
1.00000000000001
100
AcDbArc
 50
194.0961302383
 51
254.0961302383
  0
LINE
  5
149
330
10A
100
AcDbEntity
  8
DV2_Default
  6
Continuous
 62
     7
100
AcDbLine
 10
306.1328293263
 20
640.7052809913
 30
0.0
 11
307.617834068
 21
634.7915388703
 31
0.0
  0
LINE
  5
14A
330
10A
100
AcDbEntity
  8
DV2_Default
  6
Continuous
 62
     7
100
AcDbLine
 10
330.5072018857
 20
640.5393072117
 30
0.0
 11
329.022197144
 21
646.4530493328
 31
0.0
  0
LINE
  5
14B
330
10A
100
AcDbEntity
  8
DV2_Default
  6
Continuous
 62
     7
100
AcDbLine
 10
310.6461341401
 20
634.2285596371
 30
0.0
 11
328.1041265434
 21
638.6124507451
 31
0.0
  0
LINE
  5
14C
330
10A
100
AcDbEntity
  8
DV2_Default
  6
Continuous
 62
     7
100
AcDbLine
 10
327.8862248552
 20
638.2484193532
 30
0.0
 11
311.010165532
 21
634.0106579489
 31
0.0
  0
LINE
  5
14D
330
10A
100
AcDbEntity
  8
DV2_Default
  6
Continuous
 62
     7
100
AcDbLine
 10
310.6217791895
 20
634.3255484838
 30
0.0
 11
310.6461341401
 21
634.2285596371
 31
0.0
  0
LINE
  5
14E
330
10A
100
AcDbEntity
  8
DV2_Default
  6
Continuous
 62
     7
100
AcDbLine
 10
328.1041265434
 20
638.6124507451
 30
0.0
 11
328.0797715928
 21
638.7094395917
 31
0.0
  0
ARC
  5
14F
330
10A
100
AcDbEntity
  8
DV2_Default
  6
Continuous
 62
     7
100
AcDbCircle
 10
310.9371006802
 20
634.3016244889
 30
0.0
 40
0.3000000000000111
100
AcDbArc
 50
194.0961302383
 51
284.0961302383
  0
ARC
  5
150
330
10A
100
AcDbEntity
  8
DV2_Default
  6
Continuous
 62
     7
100
AcDbCircle
 10
327.8131600034
 20
638.5393858933
 30
0.0
 40
0.3000000000000111
100
AcDbArc
 50
284.0961302383
 51
14.0961302383
  0
ENDBLK
  5
152
330
10A
100
AcDbEntity
  8
0
100
AcDbBlockEnd
  0
BLOCK
  5
172
330
153
100
AcDbEntity
  8
0
100
AcDbBlockBegin
  2
SE2
 70
     0
 10
0.0
 20
0.0
 30
0.0
  3
SE2
  1
SE2
  0
SPLINE
  5
156
330
153
100
AcDbEntity
  8
DV3_Default
  6
Continuous
 62
     7
100
AcDbSpline
210
0.0
220
0.0
230
1.0
 70
     8
 71
     3
 72
    42
 73
    38
 74
     0
 42
0.000000001
 43
0.0000000001
 40
0.0
 40
0.0
 40
0.0
 40
0.0
 40
0.0165468907249713
 40
0.0165468907249713
 40
0.0330937814499426
 40
0.0330937814499426
 40
0.0496406721749139
 40
0.0496406721749139
 40
0.0661875628998852
 40
0.0661875628998852
 40
0.0992813443498278
 40
0.0992813443498278
 40
0.1323751257997704
 40
0.1323751257997704
 40
0.1985626886996557
 40
0.1985626886996557
 40
0.2647502515995409
 40
0.2647502515995409
 40
0.3971253773993109
 40
0.3971253773993109
 40
0.5295005031990809
 40
0.5295005031990809
 40
0.661875628998851
 40
0.661875628998851
 40
0.7942507547986211
 40
0.7942507547986211
 40
0.8604383176985061
 40
0.8604383176985061
 40
0.926625880598391
 40
0.926625880598391
 40
0.9597196620483335
 40
0.9597196620483335
 40
0.9762665527733049
 40
0.9762665527733049
 40
0.9928134434982762
 40
0.9928134434982762
 40
1.0
 40
1.0
 40
1.0
 40
1.0
 10
32.23506062957577
 20
106.6873228903625
 30
0.0
 10
33.3722448025293
 20
106.6873229030555
 30
0.0
 10
34.52148063446214
 20
106.7806952529058
 30
0.0
 10
36.76523356203593
 20
107.1517960028899
 30
0.0
 10
37.8803892216791
 20
107.4320658182973
 30
0.0
 10
40.04500467113449
 20
108.1910448611094
 30
0.0
 10
41.0824677923503
 20
108.6617055518722
 30
0.0
 10
43.05774861361815
 20
109.8058567008024
 30
0.0
 10
43.99680057644631
 20
110.4922425581938
 30
0.0
 10
46.49797979743465
 20
112.8091239994668
 30
0.0
 10
47.79595522671817
 20
114.7538542305169
 30
0.0
 10
49.76364774206841
 20
118.8458704501301
 30
0.0
 10
50.48295271993765
 20
121.0324737714679
 30
0.0
 10
52.21696804541263
 20
127.6248885649979
 30
0.0
 10
52.85200051075461
 20
132.0925709609859
 30
0.0
 10
53.84966404009356
 20
141.0665102897926
 30
0.0
 10
54.18095959659993
 20
145.5775614969426
 30
0.0
 10
54.97820873140389
 20
159.1355815483009
 30
0.0
 10
55.24711483602061
 20
168.1814634679131
 30
0.0
 10
55.6787183860494
 20
186.2762117977199
 30
0.0
 10
55.82195346220409
 20
195.3256058215867
 30
0.0
 10
56.06482283131393
 20
213.4256368750302
 30
0.0
 10
56.16193803487369
 20
222.4761639558795
 30
0.0
 10
56.35428191779026
 20
240.5758077516518
 30
0.0
 10
56.4486329303098
 20
249.6251559418322
 30
0.0
 10
56.61540401655623
 20
263.195037226515
 30
0.0
 10
56.67521165291651
 20
267.7176461769733
 30
0.0
 10
56.80879179446423
 20
276.7591679576462
 30
0.0
 10
56.88311800112945
 20
281.2922259566567
 30
0.0
 10
57.00797248443938
 20
288.0345356169355
 30
0.0
 10
57.05177444678583
 20
290.2664814331752
 30
0.0
 10
57.11466905433371
 20
293.5575073184006
 30
0.0
 10
57.13508075438001
 20
294.6448133648118
 30
0.0
 10
57.17261382258295
 20
296.7872930715707
 30
0.0
 10
57.1898895240753
 20
297.8560909212233
 30
0.0
 10
57.20955320509509
 20
299.2955448703836
 30
0.0
 10
57.21482640048133
 20
299.7193905133088
 30
0.0
 10
57.21937104430511
 20
300.1268431872401
 30
0.0
  0
SPLINE
  5
157
330
153
100
AcDbEntity
  8
DV3_Default
  6
Continuous
 62
     7
100
AcDbSpline
210
0.0
220
0.0
230
1.0
 70
     8
 71
     3
 72
    16
 73
    12
 74
     0
 42
0.000000001
 43
0.0000000001
 40
0.0
 40
0.0
 40
0.0
 40
0.0
 40
0.2739503468122562
 40
0.2739503468122562
 40
0.6042029691104256
 40
0.6042029691104256
 40
0.7693292802595085
 40
0.7693292802595085
 40
0.9344555914085926
 40
0.9344555914085926
 40
1.0
 40
1.0
 40
1.0
 40
1.0
 10
7.522883030178205
 20
280.3171132029449
 30
0.0
 10
7.495637897021411
 20
282.1958751127802
 30
0.0
 10
7.467482699964962
 20
284.0711325968599
 30
0.0
 10
7.403660982040019
 20
288.1901227159379
 30
0.0
 10
7.367720394129019
 20
290.4240047398362
 30
0.0
 10
7.317064747787292
 20
293.7126344787702
 30
0.0
 10
7.300779807831066
 20
294.7982527183813
 30
0.0
 10
7.271108355332772
 20
296.9350356236473
 30
0.0
 10
7.257600758533149
 20
297.9997395818003
 30
0.0
 10
7.242933814737694
 20
299.3926331846145
 30
0.0
 10
7.239242945469522
 20
299.7783116427573
 30
0.0
 10
7.236062988490898
 20
300.150505110234
 30
0.0
  0
SPLINE
  5
158
330
153
100
AcDbEntity
  8
DV3_Default
  6
Continuous
 62
     7
100
AcDbSpline
210
0.0
220
0.0
230
1.0
 70
     8
 71
     3
 72
    16
 73
    12
 74
     0
 42
0.000000001
 43
0.0000000001
 40
0.0
 40
0.0
 40
0.0
 40
0.0
 40
0.0674038945761905
 40
0.0674038945761905
 40
0.2309671820853803
 40
0.2309671820853803
 40
0.3945304695945701
 40
0.3945304695945701
 40
0.7216570446129511
 40
0.7216570446129511
 40
1.0
 40
1.0
 40
1.0
 40
1.0
 10
57.23437825181405
 20
300.1881090409144
 30
0.0
 10
57.23111103421235
 20
299.8024700019853
 30
0.0
 10
57.22729135790441
 20
299.402158470305
 30
0.0
 10
57.21244121074372
 20
297.99305087902
 30
0.0
 10
57.19893037650723
 20
296.9287593973964
 30
0.0
 10
57.16925650650749
 20
294.7924703629865
 30
0.0
 10
57.1529719617078
 20
293.707046941361
 30
0.0
 10
57.10231897153578
 20
290.4188857726201
 30
0.0
 10
57.06638194537034
 20
288.185165010896
 30
0.0
 10
57.00182055355823
 20
284.0182559612817
 30
0.0
 10
56.97296362300276
 20
282.0945722461773
 30
0.0
 10
56.94506764797968
 20
280.1673067478853
 30
0.0
  0
SPLINE
  5
159
330
153
100
AcDbEntity
  8
DV3_Default
  6
Continuous
 62
     7
100
AcDbSpline
210
0.0
220
0.0
230
1.0
 70
     8
 71
     3
 72
    42
 73
    38
 74
     0
 42
0.000000001
 43
0.0000000001
 40
0.0
 40
0.0
 40
0.0
 40
0.0
 40
0.0070390393602506
 40
0.0070390393602506
 40
0.0235883887042463
 40
0.0235883887042463
 40
0.040137738048242
 40
0.040137738048242
 40
0.0732364367362336
 40
0.0732364367362336
 40
0.1394338341122169
 40
0.1394338341122169
 40
0.2056312314882002
 40
0.2056312314882002
 40
0.3380260262401668
 40
0.3380260262401668
 40
0.4704208209921335
 40
0.4704208209921335
 40
0.6028156157441001
 40
0.6028156157441001
 40
0.7352104104960672
 40
0.7352104104960672
 40
0.8014078078720506
 40
0.8014078078720506
 40
0.8676052052480339
 40
0.8676052052480339
 40
0.9007039039360256
 40
0.9007039039360256
 40
0.9338026026240174
 40
0.9338026026240174
 40
0.9503519519680131
 40
0.9503519519680131
 40
0.9669013013120087
 40
0.9669013013120087
 40
0.9834506506560043
 40
0.9834506506560043
 40
1.0
 40
1.0
 40
1.0
 40
1.0
 10
7.25110423247529
 20
300.0951945970734
 30
0.0
 10
7.255594579599365
 20
299.6951053353642
 30
0.0
 10
7.260783321992204
 20
299.2793839090917
 30
0.0
 10
7.280361736694601
 20
297.8475328235339
 30
0.0
 10
7.297640552417509
 20
296.7793170361481
 30
0.0
 10
7.335176418257639
 20
294.6374352619363
 30
0.0
 10
7.355587071019982
 20
293.5503631049605
 30
0.0
 10
7.41847596380274
 20
290.2598986806796
 30
0.0
 10
7.462270986608635
 20
288.0281447284345
 30
0.0
 10
7.58710801853155
 20
281.286150436325
 30
0.0
 10
7.661424038714594
 20
276.7531775279047
 30
0.0
 10
7.794987654010751
 20
267.7119519752036
 30
0.0
 10
7.854788781356596
 20
263.1894920749219
 30
0.0
 10
8.021544187661757
 20
249.6200586379634
 30
0.0
 10
8.11588973258514
 20
240.5710100329888
 30
0.0
 10
8.308228434134126
 20
222.4719655992274
 30
0.0
 10
8.405343980382069
 20
213.4217384022993
 30
0.0
 10
8.648218813786427
 20
195.3223075856313
 30
0.0
 10
8.791458958928509
 20
186.2732137426551
 30
0.0
 10
9.223079039423144
 20
168.1790659484849
 30
0.0
 10
9.491996320825262
 20
159.1334843733196
 30
0.0
 10
10.28927823440413
 20
145.5759152710028
 30
0.0
 10
10.62058703921086
 20
141.0650190345297
 30
0.0
 10
11.61828834252163
 20
132.0913870844816
 30
0.0
 10
12.25334372342014
 20
127.6238589297215
 30
0.0
 10
13.98741780527645
 20
121.0316788280377
 30
0.0
 10
14.70674388049061
 20
118.8451672765337
 30
0.0
 10
16.67448192307146
 20
114.7533382713509
 30
0.0
 10
17.97247907970881
 20
112.8087185316929
 30
0.0
 10
20.47364838629043
 20
110.4919853785201
 30
0.0
 10
21.41268899343933
 20
109.8056465190954
 30
0.0
 10
23.38792495369908
 20
108.6615752472989
 30
0.0
 10
24.42536084238737
 20
108.1909446696151
 30
0.0
 10
26.58991674836561
 20
107.4320156046011
 30
0.0
 10
27.70503472634471
 20
107.1517653975004
 30
0.0
 10
29.94871516189417
 20
106.7806892134074
 30
0.0
 10
31.0831812208836
 20
106.6873229040961
 30
0.0
 10
32.23506062957577
 20
106.6873228903625
 30
0.0
  0
SPLINE
  5
15A
330
153
100
AcDbEntity
  8
DV3_Default
  6
Continuous
 62
     7
100
AcDbSpline
210
0.0
220
0.0
230
1.0
 70
     8
 71
     3
 72
    65
 73
    61
 74
     0
 42
0.000000001
 43
0.0000000001
 40
0.0
 40
0.0
 40
0.0
 40
0.0
 40
0.0073544582776027
 40
0.0236369229246198
 40
0.043192553629106
 40
0.0635764187551541
 40
0.0866113220267198
 40
0.1140936195008684
 40
0.1488540485500992
 40
0.1868870169012228
 40
0.2305147666474761
 40
0.2846751402690945
 40
0.3606736075325688
 40
0.4407584507763062
 40
0.4952030281972343
 40
0.543166540012356
 40
0.587910504761408
 40
0.6209110484291472
 40
0.6496572143174407
 40
0.6755087599625933
 40
0.6992732347862929
 40
0.7214644768478513
 40
0.7408627419865819
 40
0.7575193739187176
 40
0.7726059574366706
 40
0.7865515594399491
 40
0.7996297259927944
 40
0.8116903970403748
 40
0.8224044945804501
 40
0.8322587269912992
 40
0.8414821873425573
 40
0.8501738297630569
 40
0.8580230878154296
 40
0.8652557280204395
 40
0.8720127160187889
 40
0.8783851046015152
 40
0.8844397292514906
 40
0.8900030192921949
 40
0.895322360174198
 40
0.9009770025070177
 40
0.9064237828684826
 40
0.9116684773183232
 40
0.9167281976220103
 40
0.9216221362516376
 40
0.9263707528466789
 40
0.9309890072034475
 40
0.9355272373676146
 40
0.9401776333848548
 40
0.9449235734846436
 40
0.9497696931344836
 40
0.9547175281482151
 40
0.9597654209946272
 40
0.964908099000416
 40
0.9701362922032178
 40
0.9754347602870725
 40
0.9807659743617204
 40
0.9861648727962397
 40
0.9916743324912067
 40
0.9973068125215453
 40
1.0
 40
1.0
 40
1.0
 40
1.0
 10
7.519875824772495
 20
280.3110561754335
 30
0.0
 10
7.527084035263629
 20
279.8127925957119
 30
0.0
 10
7.546769731087262
 20
278.4499810811824
 30
0.0
 10
7.583926938288178
 20
275.7190483296829
 30
0.0
 10
7.628820738073857
 20
272.2771881287031
 30
0.0
 10
7.676858387266853
 20
268.3823034173752
 30
0.0
 10
7.727819677032312
 20
264.0073199066293
 30
0.0
 10
7.78534246840909
 20
258.740342191461
 30
0.0
 10
7.848443719547963
 20
252.5474775465834
 30
0.0
 10
7.917147135663328
 20
245.3563047164432
 30
0.0
 10
7.993688860929573
 20
236.9665115534219
 30
0.0
 10
8.089874539680988
 20
226.231269265794
 30
0.0
 10
8.212383607197394
 20
213.2438234441332
 30
0.0
 10
8.359824843961663
 20
200.2389735971499
 30
0.0
 10
8.522680619565566
 20
188.9663407851413
 30
0.0
 10
8.691499975559635
 20
179.8773235920453
 30
0.0
 10
8.87351355280493
 20
172.1136192470586
 30
0.0
 10
9.058251200311062
 20
165.5375642861019
 30
0.0
 10
9.247662472222821
 20
160.1293150685677
 30
0.0
 10
9.456534026942554
 20
155.2928186408267
 30
0.0
 10
9.688502020658865
 20
150.8628091928948
 30
0.0
 10
9.940267154669794
 20
146.8332546106941
 30
0.0
 10
10.20046755804994
 20
143.244370837383
 30
0.0
 10
10.46630903569005
 20
140.096175961041
 30
0.0
 10
10.74361760518896
 20
137.2872909660421
 30
0.0
 10
11.03979933285013
 20
134.7027520326439
 30
0.0
 10
11.35584452574716
 20
132.3090342803257
 30
0.0
 10
11.68458953405898
 20
130.1187433242325
 30
0.0
 10
12.02254106303782
 20
128.1316216833092
 30
0.0
 10
12.37157954518329
 20
126.3246221801335
 30
0.0
 10
12.73781233252034
 20
124.6486939736643
 30
0.0
 10
13.1176073275664
 20
123.1030368334804
 30
0.0
 10
13.50639763644494
 20
121.6867409014421
 30
0.0
 10
13.90306153331987
 20
120.3971288848418
 30
0.0
 10
14.31243991113677
 20
119.2075553420987
 30
0.0
 10
14.73757803622865
 20
118.101099564472
 30
0.0
 10
15.17514979381058
 20
117.0792482378022
 30
0.0
 10
15.6236540504583
 20
116.1336307998765
 30
0.0
 10
16.10168191661023
 20
115.2303888507795
 30
0.0
 10
16.61809098794416
 20
114.3567587450726
 30
0.0
 10
17.17620127612904
 20
113.5146503341007
 30
0.0
 10
17.75649324441995
 20
112.7329745958866
 30
0.0
 10
18.3571431968806
 20
112.0107030505695
 30
0.0
 10
18.97701811543864
 20
111.3461873097539
 30
0.0
 10
19.61486539821207
 20
110.737746240301
 30
0.0
 10
20.27159500250565
 20
110.1832597480597
 30
0.0
 10
20.95417568765801
 20
109.6710986782718
 30
0.0
 10
21.67040902413166
 20
109.1928247169166
 30
0.0
 10
22.42780013028233
 20
108.7442686419141
 30
0.0
 10
23.22412006135435
 20
108.3278697647732
 30
0.0
 10
24.05788989825818
 20
107.9455049074547
 30
0.0
 10
24.92701998894612
 20
107.5992118213561
 30
0.0
 10
25.82875908247318
 20
107.2911629167265
 30
0.0
 10
26.75939108318352
 20
107.0235564183693
 30
0.0
 10
27.71348340234033
 20
106.7990317008434
 30
0.0
 10
28.68710327173973
 20
106.6194230515717
 30
0.0
 10
29.68335508732755
 20
106.4844634021506
 30
0.0
 10
30.69444700941498
 20
106.3948052745296
 30
0.0
 10
31.57081503661838
 20
106.3564954843401
 30
0.0
 10
32.05190183205256
 20
106.3530120383735
 30
0.0
 10
32.23491268200225
 20
106.3520624315267
 30
0.0
  0
SPLINE
  5
15B
330
153
100
AcDbEntity
  8
DV3_Default
  6
Continuous
 62
     7
100
AcDbSpline
210
0.0
220
0.0
230
1.0
 70
     8
 71
     3
 72
    65
 73
    61
 74
     0
 42
0.000000001
 43
0.0000000001
 40
0.0
 40
0.0
 40
0.0
 40
0.0
 40
0.0006065997699408
 40
0.0061423374797672
 40
0.011501151691715
 40
0.0171548185738199
 40
0.0227386921076091
 40
0.0282209854946928
 40
0.0336177508620667
 40
0.0389824402436326
 40
0.0442635939780055
 40
0.0494479239796812
 40
0.0545279081361658
 40
0.0595005523675569
 40
0.0643668821339192
 40
0.0691313962788238
 40
0.0738004765895036
 40
0.0783381794233206
 40
0.0829340448045667
 40
0.0876559176806823
 40
0.0925179954369845
 40
0.0975338572082285
 40
0.1027150138360932
 40
0.1080702682846076
 40
0.1136020971767707
 40
0.1193418446348152
 40
0.1256475220626944
 40
0.1322652730334294
 40
0.1392674393806405
 40
0.1467374982860619
 40
0.1547980349194615
 40
0.163676860549468
 40
0.1731997691821756
 40
0.1833345934548091
 40
0.1943001818513495
 40
0.2064590570821643
 40
0.2199411209364708
 40
0.234236006142754
 40
0.2496163124632172
 40
0.2664778255310516
 40
0.2855456834795843
 40
0.3079656524395392
 40
0.3320362286272452
 40
0.3579836154522702
 40
0.3865227022838774
 40
0.4189617265644003
 40
0.4583104742017219
 40
0.5073003299494484
 40
0.5593302615067758
 40
0.6203012657930036
 40
0.6968263554182779
 40
0.7670738707830833
 40
0.8128148728673347
 40
0.8524359935137978
 40
0.8877346836251402
 40
0.9183529512161559
 40
0.9418580197686335
 40
0.9624912544127424
 40
0.9811492050683128
 40
1.0
 40
1.0
 40
1.0
 40
1.0
 10
32.23508883679879
 20
106.3499999999999
 30
0.0
 10
32.27627645811792
 20
106.3500173560308
 30
0.0
 10
32.63481983193108
 20
106.3503405228006
 30
0.0
 10
33.36849425744374
 20
106.3733186553893
 30
0.0
 10
34.37883723053847
 20
106.4423950631788
 30
0.0
 10
35.39923283482963
 20
106.5611390003453
 30
0.0
 10
36.41702183300581
 20
106.7302392001264
 30
0.0
 10
37.41042666443602
 20
106.9470422751989
 30
0.0
 10
38.37838382424788
 20
107.2100049580288
 30
0.0
 10
39.32008352201306
 20
107.5176755889525
 30
0.0
 10
40.23237243170512
 20
107.8689159098408
 30
0.0
 10
41.1088434754547
 20
108.2605923369288
 30
0.0
 10
41.94600687800283
 20
108.6902260690987
 30
0.0
 10
42.74130700014376
 20
109.1554059548507
 30
0.0
 10
43.49290765572113
 20
109.6539081408109
 30
0.0
 10
44.19965474616606
 20
110.1835236868212
 30
0.0
 10
44.85835025625689
 20
110.7409574073966
 30
0.0
 10
45.47516270130246
 20
111.3293484297585
 30
0.0
 10
46.06073207476532
 20
111.9532560465513
 30
0.0
 10
46.6249781916669
 20
112.6229049660839
 30
0.0
 10
47.16948391811984
 20
113.3414865484046
 30
0.0
 10
47.69338505754855
 20
114.1097789693512
 30
0.0
 10
48.19551704935765
 20
114.9283797049939
 30
0.0
 10
48.67463765165296
 20
115.7972105282732
 30
0.0
 10
49.12890014977744
 20
116.7178496918898
 30
0.0
 10
49.57008412218509
 20
117.7093168285706
 30
0.0
 10
49.9985420278474
 20
118.7789217189009
 30
0.0
 10
50.41395857464449
 20
119.9367602119185
 30
0.0
 10
50.81190126493551
 20
121.1763821743781
 30
0.0
 10
51.19558622442975
 20
122.5133462385391
 30
0.0
 10
51.57098249938474
 20
123.9725400370276
 30
0.0
 10
51.93778214284372
 20
125.5642318025672
 30
0.0
 10
52.29028431569276
 20
127.2900358853455
 30
0.0
 10
52.62588820100457
 20
129.150227699358
 30
0.0
 10
52.9488861807781
 20
131.1775756916453
 30
0.0
 10
53.2654648527022
 20
133.4148414530222
 30
0.0
 10
53.56834198697864
 20
135.8612722964868
 30
0.0
 10
53.8522163281484
 20
138.5100783606973
 30
0.0
 10
54.11610309568312
 20
141.3705256440503
 30
0.0
 10
54.36624021192657
 20
144.5278455890493
 30
0.0
 10
54.61437193400492
 20
148.1210372767636
 30
0.0
 10
54.85388704585705
 20
152.1607041971991
 30
0.0
 10
55.07522162981117
 20
156.6266296633895
 30
0.0
 10
55.27293737455116
 20
161.4717007569349
 30
0.0
 10
55.45100294317213
 20
166.8343887475143
 30
0.0
 10
55.61820929238315
 20
173.0249728025533
 30
0.0
 10
55.79068663844507
 20
180.4781786159793
 30
0.0
 10
55.94995307024811
 20
189.1412133116506
 30
0.0
 10
56.09418052230246
 20
199.139318028168
 30
0.0
 10
56.23185540478966
 20
210.837276719441
 30
0.0
 10
56.35739511553249
 20
223.6598979951952
 30
0.0
 10
56.46349778380584
 20
235.5423212050192
 30
0.0
 10
56.55098486414593
 20
245.1468390044301
 30
0.0
 10
56.6220845557383
 20
252.5934758083081
 30
0.0
 10
56.68856530551191
 20
259.1072365145164
 30
0.0
 10
56.74916367459762
 20
264.6221585419391
 30
0.0
 10
56.80358345632398
 20
269.2407357519419
 30
0.0
 10
56.85174379203406
 20
273.0922322843623
 30
0.0
 10
56.89975443631381
 20
276.7445493506324
 30
0.0
 10
56.92994528571328
 20
278.8847951473642
 30
0.0
 10
56.94801070836684
 20
280.1613683660452
 30
0.0
  0
SPLINE
  5
15C
330
153
100
AcDbEntity
  8
DV3_Default
  6
Continuous
 62
     7
100
AcDbSpline
210
0.0
220
0.0
230
1.0
 70
     8
 71
     3
 72
     8
 73
     4
 74
     0
 42
0.000000001
 43
0.0000000001
 40
0.0
 40
0.0
 40
0.0
 40
0.0
 40
1.0
 40
1.0
 40
1.0
 40
1.0
 10
32.2350606295769
 20
206.3076282526328
 30
0.0
 10
33.2853825114603
 20
206.3076291171611
 30
0.0
 10
34.33769047478162
 20
206.3617954235702
 30
0.0
 10
35.37895126128569
 20
206.5152761892182
 30
0.0
  0
SPLINE
  5
15D
330
153
100
AcDbEntity
  8
DV3_Default
  6
Continuous
 62
     7
100
AcDbSpline
210
0.0
220
0.0
230
1.0
 70
     8
 71
     3
 72
    16
 73
    12
 74
     0
 42
0.000000001
 43
0.0000000001
 40
0.0
 40
0.0
 40
0.0
 40
0.0
 40
0.0265943164558978
 40
0.0265943164558978
 40
0.4960576039214651
 40
0.4960576039214651
 40
0.7307892476542484
 40
0.7307892476542484
 40
0.9655208913870316
 40
0.9655208913870316
 40
1.0
 40
1.0
 40
1.0
 40
1.0
 10
54.82918142145683
 20
287.1283418731473
 30
0.0
 10
54.84079373164676
 20
287.2640967650625
 30
0.0
 10
54.85252302993407
 20
287.3997041199211
 30
0.0
 10
55.07354253806912
 20
289.9263330649819
 30
0.0
 10
55.31909251498507
 20
292.2864394375586
 30
0.0
 10
55.75531502021092
 20
295.6089853195236
 30
0.0
 10
55.91161789589484
 20
296.6790050986265
 30
0.0
 10
56.23927649109854
 20
298.7109954303339
 30
0.0
 10
56.41161369337382
 20
299.6778400449945
 30
0.0
 10
56.60446902478861
 20
300.6589054644375
 30
0.0
 10
56.62909862464993
 20
300.7823027752783
 30
0.0
 10
56.65364588845569
 20
300.9034068082455
 30
0.0
  0
SPLINE
  5
15E
330
153
100
AcDbEntity
  8
DV3_Default
  6
Continuous
 62
     7
100
AcDbSpline
210
0.0
220
0.0
230
1.0
 70
     8
 71
     3
 72
    14
 73
    10
 74
     0
 42
0.000000001
 43
0.0000000001
 40
0.0
 40
0.0
 40
0.0
 40
0.0
 40
0.2214086971076443
 40
0.2214086971076443
 40
0.4809391314050962
 40
0.4809391314050962
 40
0.7404695657025481
 40
0.7404695657025481
 40
1.0
 40
1.0
 40
1.0
 40
1.0
 10
56.65364588845569
 20
300.9034068082455
 30
0.0
 10
56.79621488182889
 20
301.6067715583947
 30
0.0
 10
56.9360065032572
 20
302.232779121787
 30
0.0
 10
57.22850583484552
 20
303.407162054976
 30
0.0
 10
57.37547589139029
 20
303.9072897402492
 30
0.0
 10
57.63986819107267
 20
304.6416034009118
 30
0.0
 10
57.75922039204718
 20
304.8793194753717
 30
0.0
 10
57.96163929556254
 20
305.1183464966088
 30
0.0
 10
58.04444155473114
 20
305.120769558042
 30
0.0
 10
58.11007439697944
 20
305.054276264985
 30
0.0
  0
SPLINE
  5
15F
330
153
100
AcDbEntity
  8
DV3_Default
  6
Continuous
 62
     7
100
AcDbSpline
210
0.0
220
0.0
230
1.0
 70
     8
 71
     3
 72
     8
 73
     4
 74
     0
 42
0.000000001
 43
0.0000000001
 40
0.0
 40
0.0
 40
0.0
 40
0.0
 40
1.0
 40
1.0
 40
1.0
 40
1.0
 10
32.2350606295769
 20
206.3076282526328
 30
0.0
 10
31.17706681946645
 20
206.3076283043281
 30
0.0
 10
30.11705780643058
 20
206.3625892780053
 30
0.0
 10
29.06835454209979
 20
206.5186552358369
 30
0.0
  0
SPLINE
  5
160
330
153
100
AcDbEntity
  8
DV3_Default
  6
Continuous
 62
     7
100
AcDbSpline
210
0.0
220
0.0
230
1.0
 70
     8
 71
     3
 72
    16
 73
    12
 74
     0
 42
0.000000001
 43
0.0000000001
 40
0.0
 40
0.0
 40
0.0
 40
0.0
 40
0.02599877119041
 40
0.02599877119041
 40
0.5028359095345031
 40
0.5028359095345031
 40
0.7412544787065491
 40
0.7412544787065491
 40
0.979673047878596
 40
0.979673047878596
 40
1.0
 40
1.0
 40
1.0
 40
1.0
 10
9.639632368024401
 20
287.1436205776068
 30
0.0
 10
9.628447200033731
 20
287.2742724439128
 30
0.0
 10
9.617153556478703
 20
287.4047875008931
 30
0.0
 10
9.396578499358256
 20
289.926335322301
 30
0.0
 10
9.151028486683705
 20
292.2864417178229
 30
0.0
 10
8.714805927651524
 20
295.6089875309705
 30
0.0
 10
8.558503034361703
 20
296.6790072778351
 30
0.0
 10
8.230844410484869
 20
298.7109975082907
 30
0.0
 10
8.058507200405359
 20
299.6778420316425
 30
0.0
 10
7.87601527582267
 20
300.6061881055584
 30
0.0
 10
7.861702463379999
 20
300.6783597943862
 30
0.0
 10
7.847415688991059
 20
300.7497646614091
 30
0.0
  0
SPLINE
  5
161
330
153
100
AcDbEntity
  8
DV3_Default
  6
Continuous
 62
     7
100
AcDbSpline
210
0.0
220
0.0
230
1.0
 70
     8
 71
     3
 72
    14
 73
    10
 74
     0
 42
0.000000001
 43
0.0000000001
 40
0.0
 40
0.0
 40
0.0
 40
0.0
 40
0.2336660869005763
 40
0.2336660869005763
 40
0.4891107246003845
 40
0.4891107246003845
 40
0.7445553623001917
 40
0.7445553623001917
 40
0.9999999999999999
 40
0.9999999999999999
 40
0.9999999999999999
 40
0.9999999999999999
 10
7.847415688991059
 20
300.7497646614091
 30
0.0
 10
7.694130252477407
 20
301.5158806448243
 30
0.0
 10
7.543842196864093
 20
302.1937236315147
 30
0.0
 10
7.241615075341542
 20
303.4071633220667
 30
0.0
 10
7.094645042031829
 20
303.9072907861187
 30
0.0
 10
6.830252778345979
 20
304.6416040644197
 30
0.0
 10
6.710900597168255
 20
304.8793199442316
 30
0.0
 10
6.508481746621313
 20
305.1183466027167
 30
0.0
 10
6.425679515565448
 20
305.120769503422
 30
0.0
 10
6.360046699205233
 20
305.0542760998789
 30
0.0
  0
LINE
  5
162
330
153
100
AcDbEntity
  8
DV3_Default
  6
Continuous
 62
     7
100
AcDbLine
 10
6.3600466992
 20
305.0542760999
 30
0.0
 11
6.3630159896
 21
305.0279881361
 31
0.0
  0
LINE
  5
163
330
153
100
AcDbEntity
  8
DV3_Default
  6
Continuous
 62
     7
100
AcDbLine
 10
6.3630159896
 20
305.0279881361
 30
0.0
 11
6.401001846
 21
304.7142999811
 31
0.0
  0
ARC
  5
164
330
153
100
AcDbEntity
  8
DV3_Default
  6
Continuous
 62
     7
100
AcDbCircle
 10
33.1103759433
 20
306.4061098512
 30
0.0
 40
26.76290128719515
100
AcDbArc
 50
183.6243544767
 51
204.1656454935
  0
SPLINE
  5
165
330
153
100
AcDbEntity
  8
DV3_Default
  6
Continuous
 62
     7
100
AcDbSpline
210
0.0
220
0.0
230
1.0
 70
     8
 71
     3
 72
    40
 73
    36
 74
     0
 42
0.000000001
 43
0.0000000001
 40
0.0
 40
0.0
 40
0.0
 40
0.0
 40
0.03125
 40
0.03125
 40
0.0625000000000001
 40
0.0625000000000001
 40
0.1250000000000001
 40
0.1250000000000001
 40
0.1562500000000001
 40
0.1562500000000001
 40
0.1875000000000001
 40
0.1875000000000001
 40
0.2500000000000001
 40
0.2500000000000001
 40
0.3750000000000001
 40
0.3750000000000001
 40
0.5000000000000001
 40
0.5000000000000001
 40
0.625
 40
0.625
 40
0.7499999999999999
 40
0.7499999999999999
 40
0.8124999999999998
 40
0.8124999999999998
 40
0.8437499999999998
 40
0.8437499999999998
 40
0.8749999999999999
 40
0.8749999999999999
 40
0.9062499999999999
 40
0.9062499999999999
 40
0.9374999999999999
 40
0.9374999999999999
 40
0.96875
 40
0.96875
 40
1.0
 40
1.0
 40
1.0
 40
1.0
 10
6.357210958435784
 20
305.1381398625683
 30
0.0
 10
6.424015103421377
 20
305.2151464801412
 30
0.0
 10
6.508375310607311
 20
305.221184872108
 30
0.0
 10
6.713704475119698
 20
304.9977239582797
 30
0.0
 10
6.834419693039724
 20
304.7670981121547
 30
0.0
 10
7.234915931855587
 20
303.6899634052691
 30
0.0
 10
7.564756626623693
 20
302.4172301082882
 30
0.0
 10
8.080613704235084
 20
299.8970727248742
 30
0.0
 10
8.258027070150654
 20
298.9468531964967
 30
0.0
 10
8.597229882087357
 20
296.9437386536292
 30
0.0
 10
8.75973349252434
 20
295.8871061330574
 30
0.0
 10
9.213838868358831
 20
292.6011896795366
 30
0.0
 10
9.470108953883942
 20
290.2584608551794
 30
0.0
 10
10.12160777221118
 20
283.1283520874715
 30
0.0
 10
10.39796553375326
 20
278.1737244696636
 30
0.0
 10
10.89476487502846
 20
268.2173918023011
 30
0.0
 10
11.16913872787021
 20
263.204189704597
 30
0.0
 10
11.72653247329072
 20
253.1104363440018
 30
0.0
 10
12.02278575817549
 20
248.0385633160386
 30
0.0
 10
12.85521848229502
 20
237.9290088285321
 30
0.0
 10
13.33441573530166
 20
232.8763415686682
 30
0.0
 10
14.46247925748905
 20
225.3533836813126
 30
0.0
 10
14.90423075328056
 20
222.8544797897847
 30
0.0
 10
15.8900164577236
 20
219.1611152035998
 30
0.0
 10
16.27308673434261
 20
217.934809948691
 30
0.0
 10
17.22982616505362
 20
215.5344237308794
 30
0.0
 10
17.79219372064175
 20
214.3802554770105
 30
0.0
 10
19.26549864933667
 20
212.2757165340263
 30
0.0
 10
20.21948231329126
 20
211.3458657113757
 30
0.0
 10
22.24843805922563
 20
209.6901732892284
 30
0.0
 10
23.35855277483343
 20
208.9480781183612
 30
0.0
 10
25.71584590639116
 20
207.7533764589681
 30
0.0
 10
26.95497633306397
 20
207.3054942630829
 30
0.0
 10
29.57120354951209
 20
206.758945582452
 30
0.0
 10
30.89978924975282
 20
206.6701423823969
 30
0.0
 10
32.23506062957692
 20
206.670142382397
 30
0.0
  0
LINE
  5
166
330
153
100
AcDbEntity
  8
DV3_Default
  6
Continuous
 62
     7
100
AcDbLine
 10
6.3572109584
 20
305.1381398626
 30
0.0
 11
6.3600466992
 21
305.0542760999
 31
0.0
  0
ARC
  5
167
330
153
100
AcDbEntity
  8
DV3_Default
  6
Continuous
 62
     7
100
AcDbCircle
 10
31.588653022
 20
305.7414124029
 30
0.0
 40
25.23865302203144
100
AcDbArc
 50
88.5323908522
 51
181.3696556098
  0
SPLINE
  5
168
330
153
100
AcDbEntity
  8
DV3_Default
  6
Continuous
 62
     7
100
AcDbSpline
210
0.0
220
0.0
230
1.0
 70
     8
 71
     3
 72
    40
 73
    36
 74
     0
 42
0.000000001
 43
0.0000000001
 40
0.0
 40
0.0
 40
0.0
 40
0.0
 40
0.03125
 40
0.03125
 40
0.0624999999999999
 40
0.0624999999999999
 40
0.1249999999999999
 40
0.1249999999999999
 40
0.1562499999999999
 40
0.1562499999999999
 40
0.1874999999999999
 40
0.1874999999999999
 40
0.2499999999999998
 40
0.2499999999999998
 40
0.3749999999999998
 40
0.3749999999999998
 40
0.4999999999999998
 40
0.4999999999999998
 40
0.6249999999999999
 40
0.6249999999999999
 40
0.75
 40
0.75
 40
0.8125
 40
0.8125
 40
0.84375
 40
0.84375
 40
0.875
 40
0.875
 40
0.90625
 40
0.90625
 40
0.9374999999999999
 40
0.9374999999999999
 40
0.9687499999999999
 40
0.9687499999999999
 40
1.0
 40
1.0
 40
1.0
 40
1.0
 10
58.11291013448648
 20
305.1381400541873
 30
0.0
 10
58.04610596286486
 20
305.2151465574709
 30
0.0
 10
57.96174572748257
 20
305.2211847857309
 30
0.0
 10
57.75641651013524
 20
304.9977235059845
 30
0.0
 10
57.63570127268918
 20
304.7670974646514
 30
0.0
 10
57.23520497986169
 20
303.6899621875085
 30
0.0
 10
56.90536426106424
 20
302.4172285322138
 30
0.0
 10
56.38950717906361
 20
299.8970707693384
 30
0.0
 10
56.2120938190624
 20
298.9468511461372
 30
0.0
 10
55.87289103483732
 20
296.9437364983655
 30
0.0
 10
55.71038744218757
 20
295.8871039434741
 30
0.0
 10
55.25628212157802
 20
292.6011874152992
 30
0.0
 10
55.00001207402757
 20
290.2584586088206
 30
0.0
 10
54.34851334149513
 20
283.1283499268723
 30
0.0
 10
54.07215561986844
 20
278.173722415597
 30
0.0
 10
53.57535629650032
 20
268.217389985305
 30
0.0
 10
53.30098243927151
 20
263.2041880099047
 30
0.0
 10
52.74358870450195
 20
253.1104348991002
 30
0.0
 10
52.44733540807329
 20
248.0385620043618
 30
0.0
 10
51.61490267557204
 20
237.9290077818274
 30
0.0
 10
51.13570541800484
 20
232.8763406545716
 30
0.0
 10
50.00764187915026
 20
225.3533829683782
 30
0.0
 10
49.56589037055599
 20
222.8544791456418
 30
0.0
 10
48.58010463912241
 20
219.1611146640741
 30
0.0
 10
48.19703434978999
 20
217.934809437981
 30
0.0
 10
47.24029489713728
 20
215.5344233083094
 30
0.0
 10
46.67792732746451
 20
214.3802551006455
 30
0.0
 10
45.20462236260316
 20
212.2757162557887
 30
0.0
 10
44.25063869600567
 20
211.3458654817624
 30
0.0
 10
42.22168297646537
 20
209.6901731325975
 30
0.0
 10
41.11156827674824
 20
208.9480779944919
 30
0.0
 10
38.75427519372478
 20
207.7533763970352
 30
0.0
 10
37.51514479399169
 20
207.3054942258529
 30
0.0
 10
34.89891763829991
 20
206.7589455771819
 30
0.0
 10
33.57033197479038
 20
206.670142382397
 30
0.0
 10
32.23506062957692
 20
206.670142382397
 30
0.0
  0
ARC
  5
169
330
153
100
AcDbEntity
  8
DV3_Default
  6
Continuous
 62
     7
100
AcDbCircle
 10
32.8857116174
 20
305.7456632108
 30
0.0
 40
25.23451266430146
100
AcDbArc
 50
358.6204656801
 51
91.4774879148
  0
LINE
  5
16A
330
153
100
AcDbEntity
  8
DV3_Default
  6
Continuous
 62
     7
100
AcDbLine
 10
58.110074397
 20
305.054276265
 30
0.0
 11
58.1129101345
 21
305.1381400542
 31
0.0
  0
ARC
  5
16B
330
153
100
AcDbEntity
  8
DV3_Default
  6
Continuous
 62
     7
100
AcDbCircle
 10
31.3592258731
 20
306.4066441275
 30
0.0
 40
26.7634522714856
100
AcDbArc
 50
335.8570687485
 51
356.3745347967
  0
LINE
  5
16C
330
153
100
AcDbEntity
  8
DV3_Default
  6
Continuous
 62
     7
100
AcDbLine
 10
58.0691170499
 20
304.7142816333
 30
0.0
 11
58.1071030086
 21
305.027969764
 31
0.0
  0
LINE
  5
16D
330
153
100
AcDbEntity
  8
DV3_Default
  6
Continuous
 62
     7
100
AcDbLine
 10
58.1071030086
 20
305.027969764
 30
0.0
 11
58.110074397
 21
305.054276265
 31
0.0
  0
SPLINE
  5
16E
330
153
100
AcDbEntity
  8
DV3_Default
  6
Continuous
 62
     7
100
AcDbSpline
210
0.0
220
0.0
230
1.0
 70
     8
 71
     3
 72
    26
 73
    22
 74
     0
 42
0.000000001
 43
0.0000000001
 40
0.0
 40
0.0
 40
0.0
 40
0.0
 40
0.0561714015034054
 40
0.0928442088756783
 40
0.1273092254899653
 40
0.1613701712409237
 40
0.1970403506894695
 40
0.2389632968388058
 40
0.2905788841577127
 40
0.3323659247039416
 40
0.3682531410764391
 40
0.4054198289086527
 40
0.4536444271957339
 40
0.5060953863540373
 40
0.5495903502623913
 40
0.5889124239567133
 40
0.6626329562734823
 40
0.7482223946694572
 40
0.8320882880353855
 40
0.9194743993961834
 40
0.9999999999999999
 40
0.9999999999999999
 40
0.9999999999999999
 40
0.9999999999999999
 10
55.44284134672498
 20
293.173234909148
 30
0.0
 10
55.45662256892518
 20
293.2849366335927
 30
0.0
 10
55.4755879614169
 20
293.4380037439564
 30
0.0
 10
55.5106299026612
 20
293.6949454336893
 30
0.0
 10
55.53764817922777
 20
293.8835040800432
 30
0.0
 10
55.56781346099376
 20
294.0848270242154
 30
0.0
 10
55.60135345626215
 20
294.2981345976458
 30
0.0
 10
55.64135898683475
 20
294.5400789662811
 30
0.0
 10
55.683643658788
 20
294.7812795163101
 30
0.0
 10
55.7242253685245
 20
295.0003956382152
 30
0.0
 10
55.75995556792092
 20
295.1849920888303
 30
0.0
 10
55.79731478048712
 20
295.3703471127159
 30
0.0
 10
55.83813921593085
 20
295.5637910184312
 30
0.0
 10
55.87894281398369
 20
295.7475049011627
 30
0.0
 10
55.91523425729687
 20
295.9034908147719
 30
0.0
 10
55.95458744446254
 20
296.0662101016691
 30
0.0
 10
55.99912928024376
 20
296.2409419768579
 30
0.0
 10
56.04452072393266
 20
296.4074607316618
 30
0.0
 10
56.08035683884111
 20
296.5305960204774
 30
0.0
 10
56.10131305284428
 20
296.5985594516681
 30
0.0
 10
56.10673357849851
 20
296.6154221830313
 30
0.0
 10
56.10663075713325
 20
296.6153982861709
 30
0.0
  0
SPLINE
  5
16F
330
153
100
AcDbEntity
  8
DV3_Default
  6
Continuous
 62
     7
100
AcDbSpline
210
0.0
220
0.0
230
1.0
 70
     8
 71
     3
 72
    55
 73
    51
 74
     0
 42
0.000000001
 43
0.0000000001
 40
0.0
 40
0.0
 40
0.0
 40
0.0
 40
0.0010004728827542
 40
0.0100833675054046
 40
0.0197835188982387
 40
0.0290070056661815
 40
0.0383905291058635
 40
0.0479235334235162
 40
0.0576202396593795
 40
0.0674898501022373
 40
0.0775361268531299
 40
0.0877566536045547
 40
0.0981421795575226
 40
0.1086761496225524
 40
0.1173250488656462
 40
0.1266532282263839
 40
0.1355044443565759
 40
0.1444020348795238
 40
0.1533302474029459
 40
0.1622621065927135
 40
0.17118781870727
 40
0.181568777225335
 40
0.1926328285781508
 40
0.2045743229195249
 40
0.2176428895993579
 40
0.232261476460453
 40
0.2478060096306402
 40
0.2643979675503191
 40
0.2824249397604138
 40
0.3025395952419074
 40
0.3261104482137818
 40
0.3543528698717457
 40
0.3845481939255816
 40
0.4175438038884082
 40
0.4545586599897399
 40
0.4980930920850076
 40
0.5484371147557953
 40
0.5979016049437309
 40
0.6476502917325868
 40
0.6893158968988891
 40
0.7336157024926689
 40
0.7771945196986716
 40
0.8212456771765728
 40
0.8657620967352113
 40
0.8966179429157028
 40
0.9239688433627695
 40
0.9488260024876354
 40
0.9718507286831566
 40
0.9934689222703958
 40
1.0
 40
1.0
 40
1.0
 40
1.0
 10
35.38125674944716
 20
206.5166397307438
 30
0.0
 10
35.4143603172462
 20
206.5207326048893
 30
0.0
 10
35.70118243427616
 20
206.5563428286236
 30
0.0
 10
36.31044212598997
 20
206.6708444162521
 30
0.0
 10
37.12945549519955
 20
206.8609305053808
 30
0.0
 10
37.95308498982044
 20
207.1077505287441
 30
0.0
 10
38.75435414517315
 20
207.396205180169
 30
0.0
 10
39.55207040293085
 20
207.7337407793497
 30
0.0
 10
40.34310795524928
 20
208.1193516407399
 30
0.0
 10
41.12581851399381
 20
208.5528402590376
 30
0.0
 10
41.89788267250837
 20
209.0334473952834
 30
0.0
 10
42.65660652444815
 20
209.5600640603897
 30
0.0
 10
43.39906137310642
 20
210.1308508664603
 30
0.0
 10
44.07529340900275
 20
210.7049136273016
 30
0.0
 10
44.70290461537709
 20
211.2828942880145
 30
0.0
 10
45.25687163111092
 20
211.8632349321165
 30
0.0
 10
45.77773017569481
 20
212.4816307556247
 30
0.0
 10
46.25219538524259
 20
213.1206245068083
 30
0.0
 10
46.6882348390474
 20
213.7886720593382
 30
0.0
 10
47.08106701717874
 20
214.4837127619108
 30
0.0
 10
47.45667168775545
 20
215.2356883109168
 30
0.0
 10
47.8239451687212
 20
216.060951819477
 30
0.0
 10
48.18731315878178
 20
216.9839524216842
 30
0.0
 10
48.5402699788834
 20
217.9946489220749
 30
0.0
 10
48.89005376853479
 20
219.1158033021364
 30
0.0
 10
49.23180994445971
 20
220.3492007742624
 30
0.0
 10
49.55878222360539
 20
221.692574239587
 30
0.0
 10
49.86762460238497
 20
223.1417805394916
 30
0.0
 10
50.16391628752043
 20
224.7294022907394
 30
0.0
 10
50.45947552522171
 20
226.5242670014909
 30
0.0
 10
50.77132737348047
 20
228.619319535085
 30
0.0
 10
51.08744011027093
 20
231.0115158313833
 30
0.0
 10
51.39746561387297
 20
233.6819575195489
 30
0.0
 10
51.69641763062582
 20
236.6117527269115
 30
0.0
 10
51.99509029304128
 20
239.9348748869054
 30
0.0
 10
52.31124229008825
 20
243.7698479826253
 30
0.0
 10
52.61086294449493
 20
247.9761506443803
 30
0.0
 10
52.88201955151918
 20
252.3652167201848
 30
0.0
 10
53.11186360279873
 20
256.4949088130672
 30
0.0
 10
53.32233223450515
 20
260.4639358052663
 30
0.0
 10
53.51947184502374
 20
264.2393621539774
 30
0.0
 10
53.71479940103546
 20
268.0710455583958
 30
0.0
 10
53.90673021944076
 20
271.8951654977445
 30
0.0
 10
54.07175549323361
 20
275.3387657978968
 30
0.0
 10
54.22689210265994
 20
278.2895056999863
 30
0.0
 10
54.36475161223787
 20
280.6611222650019
 30
0.0
 10
54.50210096238665
 20
282.8017851473538
 30
0.0
 10
54.64056599802166
 20
284.7437478783264
 30
0.0
 10
54.75390021158844
 20
286.216878810343
 30
0.0
 10
54.81746535358596
 20
286.9477364348791
 30
0.0
 10
54.83475947946595
 20
287.1461902649368
 30
0.0
  0
SPLINE
  5
170
330
153
100
AcDbEntity
  8
DV3_Default
  6
Continuous
 62
     7
100
AcDbSpline
210
0.0
220
0.0
230
1.0
 70
     8
 71
     3
 72
    29
 73
    25
 74
     0
 42
0.000000001
 43
0.0000000001
 40
0.0
 40
0.0
 40
0.0
 40
0.0
 40
0.0045138306854055
 40
0.0808200308054094
 40
0.1586079365466636
 40
0.2326347386011031
 40
0.2640211824913865
 40
0.2925497469264147
 40
0.3217174864655575
 40
0.3536805350080224
 40
0.3932293429089793
 40
0.4522213195508487
 40
0.5032355981188188
 40
0.54694049509801
 40
0.5936151005072812
 40
0.6487949165271027
 40
0.7003554087463904
 40
0.7450383368785528
 40
0.7894310810544517
 40
0.8418316031068953
 40
0.8973000837502806
 40
0.9450108095456223
 40
0.9896386445550831
 40
1.0
 40
1.0
 40
1.0
 40
1.0
 10
8.357878705305927
 20
296.6321901938654
 30
0.0
 10
8.357850134231255
 20
296.6322728146022
 30
0.0
 10
8.357529035150721
 20
296.6331875711824
 30
0.0
 10
8.363607371581612
 20
296.615002399766
 30
0.0
 10
8.383243382664205
 20
296.5521810956381
 30
0.0
 10
8.409456224207645
 20
296.4632894950202
 30
0.0
 10
8.432093311756965
 20
296.3828770852547
 30
0.0
 10
8.448086308401079
 20
296.324722597392
 30
0.0
 10
8.465572459774949
 20
296.2596617048724
 30
0.0
 10
8.486760631581085
 20
296.1788267003015
 30
0.0
 10
8.516719218058512
 20
296.0609902176499
 30
0.0
 10
8.553512583133104
 20
295.9099140307482
 30
0.0
 10
8.594443214679611
 20
295.7330991972105
 30
0.0
 10
8.634883347492659
 20
295.5500559683978
 30
0.0
 10
8.67799374357479
 20
295.3456716870475
 30
0.0
 10
8.725384361325794
 20
295.1088204575584
 30
0.0
 10
8.774804317963348
 20
294.8457930072913
 30
0.0
 10
8.817353133015564
 20
294.6060801654703
 30
0.0
 10
8.860979860979393
 20
294.3471365357321
 30
0.0
 10
8.906675385440773
 20
294.058408709713
 30
0.0
 10
8.950922886801726
 20
293.7578836340165
 30
0.0
 10
8.989047236109936
 20
293.4782890040911
 30
0.0
 10
9.014907493585929
 20
293.2777103242232
 30
0.0
 10
9.025298131816024
 20
293.1893444295955
 30
0.0
 10
9.027581017283172
 20
293.1698970785556
 30
0.0
  0
SPLINE
  5
171
330
153
100
AcDbEntity
  8
DV3_Default
  6
Continuous
 62
     7
100
AcDbSpline
210
0.0
220
0.0
230
1.0
 70
     8
 71
     3
 72
    54
 73
    50
 74
     0
 42
0.000000001
 43
0.0000000001
 40
0.0
 40
0.0
 40
0.0
 40
0.0
 40
0.0059010340836282
 40
0.0275847012083732
 40
0.0504853184756362
 40
0.0749228983300796
 40
0.1013744232177295
 40
0.1306314148001896
 40
0.1642294584559333
 40
0.2056436107094043
 40
0.2503601577719007
 40
0.294594330521033
 40
0.3383456310868884
 40
0.3818412055940034
 40
0.4325581073554531
 40
0.4816122999240831
 40
0.5279228857974558
 40
0.5764715135424411
 40
0.6111866604730395
 40
0.6423862748140453
 40
0.670992436192991
 40
0.6975320087615882
 40
0.7187807211488098
 40
0.7372609517514206
 40
0.7540195728506344
 40
0.7695440381240085
 40
0.7841528409369618
 40
0.7976669264148695
 40
0.8097376369099978
 40
0.8208026153411202
 40
0.8310698120787897
 40
0.8401935491878777
 40
0.8486879682206313
 40
0.8576835413043832
 40
0.8666829962981132
 40
0.8756649884905036
 40
0.8846154079811483
 40
0.8934264148519634
 40
0.9031481336509537
 40
0.9138052914932443
 40
0.9243279005102375
 40
0.9346910963138363
 40
0.9448828308708864
 40
0.9548992110164848
 40
0.9647438009780236
 40
0.9744267405093856
 40
0.9839654399365287
 40
0.9932531878585321
 40
1.0
 40
1.0
 40
1.0
 40
1.0
 10
9.634132346709254
 20
287.1614981386405
 30
0.0
 10
9.649801246729268
 20
286.9822661359814
 30
0.0
 10
9.712329178096436
 20
286.2657639360211
 30
0.0
 10
9.824430486166484
 20
284.8119408922062
 30
0.0
 10
9.962391919763329
 20
282.8843839006989
 30
0.0
 10
10.0976705508765
 20
280.7855022001805
 30
0.0
 10
10.23140387419931
 20
278.4982457667372
 30
0.0
 10
10.36794134462612
 20
275.9343197732574
 30
0.0
 10
10.51316112623614
 20
272.930425250414
 30
0.0
 10
10.68482159881843
 20
269.4704629300336
 30
0.0
 10
10.87614504738193
 20
265.6896587256941
 30
0.0
 10
11.07612003695629
 20
261.8274356251511
 30
0.0
 10
11.27864499784186
 20
257.9870071722651
 30
0.0
 10
11.49806427166029
 20
253.9459186148304
 30
0.0
 10
11.74621904647185
 20
249.7430829362474
 30
0.0
 10
12.03261259578704
 20
245.4558019793022
 30
0.0
 10
12.36414501277993
 20
241.2366603984657
 30
0.0
 10
12.69335256071837
 20
237.4436435279909
 30
0.0
 10
13.02751759344455
 20
234.0966372797076
 30
0.0
 10
13.34262495673054
 20
231.3358074388698
 30
0.0
 10
13.67051688135377
 20
228.8168860661559
 30
0.0
 10
13.99912956052694
 20
226.5916404550045
 30
0.0
 10
14.31699757435068
 20
224.6644418495571
 30
0.0
 10
14.62527588154375
 20
223.0264030542733
 30
0.0
 10
14.94144491951745
 20
221.5605998047154
 30
0.0
 10
15.2735355862874
 20
220.2142480381056
 30
0.0
 10
15.62297924101924
 20
218.970159130669
 30
0.0
 10
15.98260783111215
 20
217.8344033734537
 30
0.0
 10
16.34783725146185
 20
216.8097381495474
 30
0.0
 10
16.71879640902733
 20
215.889065899507
 30
0.0
 10
17.09494655521734
 20
215.064943696546
 30
0.0
 10
17.4732595920323
 20
214.3258495519008
 30
0.0
 10
17.87371447115817
 20
213.641129211039
 30
0.0
 10
18.31337172301699
 20
212.9850364296
 30
0.0
 10
18.80166545503113
 20
212.3451301946656
 30
0.0
 10
19.32815859195918
 20
211.7370087162798
 30
0.0
 10
19.88841789988219
 20
211.1661863096398
 30
0.0
 10
20.49869682743962
 20
210.6145764262988
 30
0.0
 10
21.16993374285679
 20
210.0518425544399
 30
0.0
 10
21.91000586290614
 20
209.4894547454205
 30
0.0
 10
22.69472550718312
 20
208.9529430602246
 30
0.0
 10
23.49546457969106
 20
208.4643522097303
 30
0.0
 10
24.30848746972891
 20
208.0256475016818
 30
0.0
 10
25.13090467436069
 20
207.6380712489204
 30
0.0
 10
25.9594640818629
 20
207.3025174497908
 30
0.0
 10
26.794330374791
 20
207.0185864538713
 30
0.0
 10
27.62181178036231
 20
206.789710603526
 30
0.0
 10
28.39655699466145
 20
206.6222358671036
 30
0.0
 10
28.84388502871803
 20
206.5547979874554
 30
0.0
 10
29.0663853835228
 20
206.5220288725265
 30
0.0
  0
ENDBLK
  5
173
330
153
100
AcDbEntity
  8
0
100
AcDbBlockEnd
  0
ENDSEC
  0
SECTION
  2
ENTITIES
  0
INSERT
  5
6C
330
1F
100
AcDbEntity
  8
Default
100
AcDbBlockReference
  2
SEANNOT_GROUP
 10
0.0
 20
0.0
 30
0.0
  0
INSERT
  5
73
330
1F
100
AcDbEntity
  8
Default
100
AcDbBlockReference
  2
SEANNOT_GROUP1
 10
0.0
 20
0.0
 30
0.0
  0
INSERT
  5
79
330
1F
100
AcDbEntity
  8
Default
100
AcDbBlockReference
  2
SEANNOT_GROUP2
 10
0.0
 20
0.0
 30
0.0
  0
INSERT
  5
83
330
1F
100
AcDbEntity
  8
Default
100
AcDbBlockReference
  2
SEANNOT_GROUP3
 10
0.0
 20
0.0
 30
0.0
  0
INSERT
  5
89
330
1F
100
AcDbEntity
  8
Default
100
AcDbBlockReference
  2
SEANNOT_GROUP4
 10
0.0
 20
0.0
 30
0.0
  0
INSERT
  5
93
330
1F
100
AcDbEntity
  8
Default
100
AcDbBlockReference
  2
SE
 10
0.0
 20
0.0
 30
0.0
  0
INSERT
  5
10B
330
1F
100
AcDbEntity
  8
Default
100
AcDbBlockReference
  2
SE1
 10
0.0
 20
0.0
 30
0.0
  0
INSERT
  5
154
330
1F
100
AcDbEntity
  8
Default
100
AcDbBlockReference
  2
SE2
 10
0.0
 20
0.0
 30
0.0
  0
MTEXT
  5
174
330
1F
100
AcDbEntity
  8
Default
100
AcDbMText
 10
5.9362635081
 20
63.4225120485
 30
0.0
 40
10.0
 41
113.8626497168
 71
     1
 72
     1
  1
{\fSolid Edge ISO|b0||i0||c0|p34;\C7;\H10.;\W1.;Grohe AG\P}{\fSolid Edge ISO|b0||i0||c0|p34;\C7;\H10.;\W1.;\P}{\fSolid Edge ISO|b0||i0||c0|p34;\C7;\H10.;\W1.;ecn:\P}{\fSolid Edge ISO|b0||i0||c0|p34;\C7;\H10.;\W1.;unit: mm}
 73
     1
 44
1.0
1001
ACAD
1000
ACAD_MTEXT_DEFINED_HEIGHT_BEGIN
1070
    46
1040
65.4545454545
1000
ACAD_MTEXT_DEFINED_HEIGHT_END
  0
LINE
  5
175
330
1F
100
AcDbEntity
  8
Default
  6
Continuous
 62
     7
100
AcDbLine
 10
0.0
 20
0.0
 30
0.0
 11
100.0
 21
0.0
 31
0.0
  0
LINE
  5
176
330
1F
100
AcDbEntity
  8
Default
  6
Continuous
 62
     7
100
AcDbLine
 10
0.0
 20
0.0
 30
0.0
 11
0.0
 21
100.0
 31
0.0
  0
MTEXT
  5
177
330
1F
100
AcDbEntity
  8
Default
100
AcDbMText
 10
24.2173665744
 20
-5.1079887535
 30
0.0
 40
10.0
 41
35.00001
 71
     1
 72
     1
  1
{\fSolid Edge ISO|b0||i0||c0|p34;\C7;\H10.;\W1.;100 mm}
 73
     1
 44
1.0
1001
ACAD
1000
ACAD_MTEXT_DEFINED_HEIGHT_BEGIN
1070
    46
1040
16.3636363636
1000
ACAD_MTEXT_DEFINED_HEIGHT_END
  0
MTEXT
  5
179
330
1F
100
AcDbEntity
  8
Default
100
AcDbMText
 10
-20.5695763349
 20
24.6231930421
 30
0.0
 40
10.0
 41
35.00001
 71
     1
 72
     1
  1
{\fSolid Edge ISO|b0||i0||c0|p34;\C7;\H10.;\W0.9;100 mm}
  7
SEACAD_Solid_Edge_ISO
 11
6.123233995736766E-17
 21
1.0
 31
0.0
 73
     1
 44
1.0
1001
ACAD
1000
ACAD_MTEXT_DEFINED_HEIGHT_BEGIN
1070
    46
1040
16.3636363636
1000
ACAD_MTEXT_DEFINED_HEIGHT_END
  0
MTEXT
  5
17A
330
1F
100
AcDbEntity
  8
Default
100
AcDbMText
 10
28.4878128572
 20
24.8634936442
 30
0.0
 40
10.0
 41
86.691737001
 71
     4
 72
     1
  1
{\fSolid Edge ISO|b0||i0||c0|p34;\C7;\H10.;\W1.;234270}
 73
     1
 44
1.0
1001
ACAD
1000
ACAD_MTEXT_DEFINED_HEIGHT_BEGIN
1070
    46
1040
16.3636363636
1000
ACAD_MTEXT_DEFINED_HEIGHT_END
  0
MTEXT
  5
17B
330
1F
100
AcDbEntity
  8
Default
100
AcDbMText
 10
5.9012241913
 20
41.4970052916
 30
0.0
 40
10.0
 41
109.9146987306
 71
     4
 72
     1
  1
{\fSolid Edge ISO|b0||i0||c0|p34;\C7;\H10.;\W1.;23585001}
 73
     1
 44
1.0
1001
ACAD
1000
ACAD_MTEXT_DEFINED_HEIGHT_BEGIN
1070
    46
1040
16.3636363636
1000
ACAD_MTEXT_DEFINED_HEIGHT_END
  0
ENDSEC
  0
SECTION
  2
OBJECTS
  0
DICTIONARY
  5
C
330
0
100
AcDbDictionary
281
     1
  3
ACAD_GROUP
350
D
  3
ACAD_LAYOUT
350
1A
  3
ACAD_MATERIAL
350
43
  3
ACAD_MLEADERSTYLE
350
17E
  3
ACAD_MLINESTYLE
350
17
  3
ACAD_PLOTSETTINGS
350
19
  3
ACAD_PLOTSTYLENAME
350
E
  3
ACAD_SCALELIST
350
47
  3
ACAD_VISUALSTYLE
350
2A
  3
AcDbVariableDictionary
350
17C
  0
DICTIONARY
  5
D
102
{ACAD_REACTORS
330
C
102
}
330
C
100
AcDbDictionary
281
     1
  0
DICTIONARY
  5
1A
102
{ACAD_REACTORS
330
C
102
}
330
C
100
AcDbDictionary
281
     1
  3
Layout1
350
1E
  3
Model
350
22
  0
DICTIONARY
  5
43
102
{ACAD_REACTORS
330
C
102
}
330
C
100
AcDbDictionary
281
     1
  3
ByBlock
350
45
  3
ByLayer
350
44
  3
Global
350
46
  0
DICTIONARY
  5
17E
102
{ACAD_REACTORS
330
C
102
}
330
C
100
AcDbDictionary
281
     1
  0
DICTIONARY
  5
17
102
{ACAD_REACTORS
330
C
102
}
330
C
100
AcDbDictionary
281
     1
  3
Standard
350
18
  0
DICTIONARY
  5
19
102
{ACAD_REACTORS
330
C
102
}
330
C
100
AcDbDictionary
281
     1
  0
ACDBDICTIONARYWDFLT
  5
E
102
{ACAD_REACTORS
330
C
102
}
330
C
100
AcDbDictionary
281
     1
  3
Normal
350
F
100
AcDbDictionaryWithDefault
340
F
  0
DICTIONARY
  5
47
102
{ACAD_REACTORS
330
C
102
}
330
C
100
AcDbDictionary
281
     1
  3
A0
350
48
  3
A1
350
49
  3
A2
350
4A
  3
A3
350
4B
  3
A4
350
4C
  3
A5
350
4D
  3
A6
350
4E
  3
A7
350
4F
  3
A8
350
50
  3
A9
350
51
  3
B0
350
52
  3
B1
350
53
  3
B2
350
54
  3
B3
350
55
  3
B4
350
56
  3
B5
350
57
  3
B6
350
58
  3
B7
350
59
  3
B8
350
5A
  3
B9
350
5B
  3
C0
350
5C
  3
C1
350
5D
  3
C2
350
5E
  3
C3
350
5F
  3
C4
350
60
  3
C5
350
61
  3
C6
350
62
  3
C7
350
63
  3
C8
350
64
  3
C9
350
65
  3
D0
350
66
  3
D1
350
67
  3
D2
350
68
  0
DICTIONARY
  5
2A
102
{ACAD_REACTORS
330
C
102
}
330
C
100
AcDbDictionary
281
     1
  3
2dWireframe
350
2F
  3
Basic
350
32
  3
Brighten
350
36
  3
ColorChange
350
3A
  3
Conceptual
350
34
  3
Dim
350
35
  3
EdgeColorOff
350
3D
  3
Facepattern
350
39
  3
Flat
350
2B
  3
FlatWithEdges
350
2C
  3
Gouraud
350
2D
  3
GouraudWithEdges
350
2E
  3
Hidden
350
31
  3
JitterOff
350
3B
  3
Linepattern
350
38
  3
OverhangOff
350
3C
  3
Realistic
350
33
  3
Shaded
350
42
  3
Shaded with edges
350
41
  3
Shades of Gray
350
3E
  3
Sketchy
350
3F
  3
Thicken
350
37
  3
Wireframe
350
30
  3
X-Ray
350
40
  0
DICTIONARY
  5
17C
102
{ACAD_REACTORS
330
C
102
}
330
C
100
AcDbDictionary
281
     1
  3
CANNOSCALE
350
185
  3
DIMASSOC
350
183
  3
HIDETEXT
350
184
  3
MSLTSCALE
350
186
  3
PSOLHEIGHT
350
180
  3
PSOLWIDTH
350
17F
  0
LAYOUT
  5
1E
102
{ACAD_REACTORS
330
1A
102
}
330
1A
100
AcDbPlotSettings
  1

  2
none_device
  4

  6

 40
0.0
 41
0.0
 42
0.0
 43
0.0
 44
0.0
 45
0.0
 46
0.0
 47
0.0
 48
0.0
 49
0.0
140
0.0
141
0.0
142
1.0
143
1.0
 70
   688
 72
     1
 73
     0
 74
     5
  7

 75
    16
147
1.0
148
0.0
149
0.0
100
AcDbLayout
  1
Layout1
 70
     1
 71
     1
 10
0.0
 20
0.0
 11
3000.0
 21
4500.0
 12
0.0
 22
0.0
 32
0.0
 14
0.0
 24
0.0
 34
0.0
 15
3000.0
 25
4500.0
 35
0.0
146
0.0
 13
0.0
 23
0.0
 33
0.0
 16
1.0
 26
0.0
 36
0.0
 17
0.0
 27
1.0
 37
0.0
 76
     0
330
1B
  0
LAYOUT
  5
22
102
{ACAD_REACTORS
330
1A
102
}
330
1A
100
AcDbPlotSettings
  1

  2
none_device
  4
Letter_(8.50_x_11.00_Inches)
  6

 40
6.35
 41
6.35
 42
6.35000508
 43
6.35000508
 44
215.9
 45
279.4
 46
0.0
 47
0.0
 48
0.0
 49
0.0
140
0.0
141
0.0
142
1.0
143
1.0
 70
  1712
 72
     1
 73
     0
 74
     0
  7

 75
     0
147
1.0
148
0.0
149
0.0
100
AcDbLayout
  1
Model
 70
     1
 71
     0
 10
0.0
 20
0.0
 11
3000.0
 21
4500.0
 12
0.0
 22
0.0
 32
0.0
 14
0.0
 24
0.0
 34
0.0
 15
3000.0
 25
4500.0
 35
0.0
146
0.0
 13
0.0
 23
0.0
 33
0.0
 16
1.0
 26
0.0
 36
0.0
 17
0.0
 27
1.0
 37
0.0
 76
     0
330
1F
331
29
  0
MATERIAL
  5
45
102
{ACAD_REACTORS
330
43
102
}
102
{ACAD_XDICTIONARY
360
1B9
102
}
330
43
100
AcDbMaterial
  1
ByBlock
  0
MATERIAL
  5
44
102
{ACAD_REACTORS
330
43
102
}
102
{ACAD_XDICTIONARY
360
1B7
102
}
330
43
100
AcDbMaterial
  1
ByLayer
  0
MATERIAL
  5
46
102
{ACAD_REACTORS
330
43
102
}
102
{ACAD_XDICTIONARY
360
1BB
102
}
330
43
100
AcDbMaterial
  1
Global
  0
MLINESTYLE
  5
18
102
{ACAD_REACTORS
330
17
102
}
330
17
100
AcDbMlineStyle
  2
Standard
 70
     0
  3

 62
   256
 51
90.0
 52
90.0
 71
     2
 49
0.5
 62
   256
  6
BYLAYER
 49
-0.5
 62
   256
  6
BYLAYER
  0
ACDBPLACEHOLDER
  5
F
102
{ACAD_REACTORS
330
E
102
}
330
E
  0
SCALE
  5
48
102
{ACAD_REACTORS
330
47
102
}
330
47
100
AcDbScale
 70
     0
300
1:1
140
1.0
141
1.0
290
     1
  0
SCALE
  5
49
102
{ACAD_REACTORS
330
47
102
}
330
47
100
AcDbScale
 70
     0
300
1:2
140
1.0
141
2.0
290
     0
  0
SCALE
  5
4A
102
{ACAD_REACTORS
330
47
102
}
330
47
100
AcDbScale
 70
     0
300
1:4
140
1.0
141
4.0
290
     0
  0
SCALE
  5
4B
102
{ACAD_REACTORS
330
47
102
}
330
47
100
AcDbScale
 70
     0
300
1:5
140
1.0
141
5.0
290
     0
  0
SCALE
  5
4C
102
{ACAD_REACTORS
330
47
102
}
330
47
100
AcDbScale
 70
     0
300
1:8
140
1.0
141
8.0
290
     0
  0
SCALE
  5
4D
102
{ACAD_REACTORS
330
47
102
}
330
47
100
AcDbScale
 70
     0
300
1:10
140
1.0
141
10.0
290
     0
  0
SCALE
  5
4E
102
{ACAD_REACTORS
330
47
102
}
330
47
100
AcDbScale
 70
     0
300
1:16
140
1.0
141
16.0
290
     0
  0
SCALE
  5
4F
102
{ACAD_REACTORS
330
47
102
}
330
47
100
AcDbScale
 70
     0
300
1:20
140
1.0
141
20.0
290
     0
  0
SCALE
  5
50
102
{ACAD_REACTORS
330
47
102
}
330
47
100
AcDbScale
 70
     0
300
1:30
140
1.0
141
30.0
290
     0
  0
SCALE
  5
51
102
{ACAD_REACTORS
330
47
102
}
330
47
100
AcDbScale
 70
     0
300
1:40
140
1.0
141
40.0
290
     0
  0
SCALE
  5
52
102
{ACAD_REACTORS
330
47
102
}
330
47
100
AcDbScale
 70
     0
300
1:50
140
1.0
141
50.0
290
     0
  0
SCALE
  5
53
102
{ACAD_REACTORS
330
47
102
}
330
47
100
AcDbScale
 70
     0
300
1:100
140
1.0
141
100.0
290
     0
  0
SCALE
  5
54
102
{ACAD_REACTORS
330
47
102
}
330
47
100
AcDbScale
 70
     0
300
2:1
140
2.0
141
1.0
290
     0
  0
SCALE
  5
55
102
{ACAD_REACTORS
330
47
102
}
330
47
100
AcDbScale
 70
     0
300
4:1
140
4.0
141
1.0
290
     0
  0
SCALE
  5
56
102
{ACAD_REACTORS
330
47
102
}
330
47
100
AcDbScale
 70
     0
300
8:1
140
8.0
141
1.0
290
     0
  0
SCALE
  5
57
102
{ACAD_REACTORS
330
47
102
}
330
47
100
AcDbScale
 70
     0
300
10:1
140
10.0
141
1.0
290
     0
  0
SCALE
  5
58
102
{ACAD_REACTORS
330
47
102
}
330
47
100
AcDbScale
 70
     0
300
100:1
140
100.0
141
1.0
290
     0
  0
SCALE
  5
59
102
{ACAD_REACTORS
330
47
102
}
330
47
100
AcDbScale
 70
     0
300
1/128" = 1'-0"
140
0.0078125
141
12.0
290
     0
  0
SCALE
  5
5A
102
{ACAD_REACTORS
330
47
102
}
330
47
100
AcDbScale
 70
     0
300
1/64" = 1'-0"
140
0.015625
141
12.0
290
     0
  0
SCALE
  5
5B
102
{ACAD_REACTORS
330
47
102
}
330
47
100
AcDbScale
 70
     0
300
1/32" = 1'-0"
140
0.03125
141
12.0
290
     0
  0
SCALE
  5
5C
102
{ACAD_REACTORS
330
47
102
}
330
47
100
AcDbScale
 70
     0
300
1/16" = 1'-0"
140
0.0625
141
12.0
290
     0
  0
SCALE
  5
5D
102
{ACAD_REACTORS
330
47
102
}
330
47
100
AcDbScale
 70
     0
300
3/32" = 1'-0"
140
0.09375
141
12.0
290
     0
  0
SCALE
  5
5E
102
{ACAD_REACTORS
330
47
102
}
330
47
100
AcDbScale
 70
     0
300
1/8" = 1'-0"
140
0.125
141
12.0
290
     0
  0
SCALE
  5
5F
102
{ACAD_REACTORS
330
47
102
}
330
47
100
AcDbScale
 70
     0
300
3/16" = 1'-0"
140
0.1875
141
12.0
290
     0
  0
SCALE
  5
60
102
{ACAD_REACTORS
330
47
102
}
330
47
100
AcDbScale
 70
     0
300
1/4" = 1'-0"
140
0.25
141
12.0
290
     0
  0
SCALE
  5
61
102
{ACAD_REACTORS
330
47
102
}
330
47
100
AcDbScale
 70
     0
300
3/8" = 1'-0"
140
0.375
141
12.0
290
     0
  0
SCALE
  5
62
102
{ACAD_REACTORS
330
47
102
}
330
47
100
AcDbScale
 70
     0
300
1/2" = 1'-0"
140
0.5
141
12.0
290
     0
  0
SCALE
  5
63
102
{ACAD_REACTORS
330
47
102
}
330
47
100
AcDbScale
 70
     0
300
3/4" = 1'-0"
140
0.75
141
12.0
290
     0
  0
SCALE
  5
64
102
{ACAD_REACTORS
330
47
102
}
330
47
100
AcDbScale
 70
     0
300
1" = 1'-0"
140
1.0
141
12.0
290
     0
  0
SCALE
  5
65
102
{ACAD_REACTORS
330
47
102
}
330
47
100
AcDbScale
 70
     0
300
1-1/2" = 1'-0"
140
1.5
141
12.0
290
     0
  0
SCALE
  5
66
102
{ACAD_REACTORS
330
47
102
}
330
47
100
AcDbScale
 70
     0
300
3" = 1'-0"
140
3.0
141
12.0
290
     0
  0
SCALE
  5
67
102
{ACAD_REACTORS
330
47
102
}
330
47
100
AcDbScale
 70
     0
300
6" = 1'-0"
140
6.0
141
12.0
290
     0
  0
SCALE
  5
68
102
{ACAD_REACTORS
330
47
102
}
330
47
100
AcDbScale
 70
     0
300
1'-0" = 1'-0"
140
12.0
141
12.0
290
     0
  0
VISUALSTYLE
  5
2F
102
{ACAD_REACTORS
330
2A
102
}
102
{ACAD_XDICTIONARY
360
18F
102
}
330
2A
100
AcDbVisualStyle
  2
2dWireframe
 70
     4
 71
     0
 72
     2
 73
     0
 90
        0
 40
0.6
 41
30.0
 62
     5
 63
     7
 74
     1
 91
        4
 64
     7
 65
   257
 75
     1
175
     1
 42
1.0
 92
        0
 66
   257
 43
1.0
 76
     1
 77
     6
 78
     2
 67
     7
 79
     5
170
     0
171
     0
290
     0
174
     0
 93
        1
 44
0.0
173
     0
291
     0
 45
0.0
1001
ACAD
1000
AcDbSavedByObjectVersion
1070
     0
  0
VISUALSTYLE
  5
32
102
{ACAD_REACTORS
330
2A
102
}
102
{ACAD_XDICTIONARY
360
195
102
}
330
2A
100
AcDbVisualStyle
  2
Basic
 70
     7
 71
     1
 72
     0
 73
     1
 90
        0
 40
0.6
 41
30.0
 62
     5
 63
     7
 74
     0
 91
        4
 64
     7
 65
   257
 75
     1
175
     1
 42
1.0
 92
        8
 66
     7
 43
1.0
 76
     1
 77
     6
 78
     2
 67
     7
 79
     5
170
     0
171
     0
290
     0
174
     0
 93
        1
 44
0.0
173
     0
291
     1
 45
0.0
1001
ACAD
1000
AcDbSavedByObjectVersion
1070
     0
  0
VISUALSTYLE
  5
36
102
{ACAD_REACTORS
330
2A
102
}
102
{ACAD_XDICTIONARY
360
19D
102
}
330
2A
100
AcDbVisualStyle
  2
Brighten
 70
    12
 71
     2
 72
     2
 73
     0
 90
        0
 40
0.6
 41
30.0
 62
     5
 63
     7
 74
     1
 91
        4
 64
     7
 65
   257
 75
     1
175
     1
 42
1.0
 92
        8
 66
     7
 43
1.0
 76
     1
 77
     6
 78
     2
 67
     7
 79
     5
170
     0
171
     0
290
     0
174
     0
 93
        1
 44
50.0
173
     0
291
     1
 45
0.0
1001
ACAD
1000
AcDbSavedByObjectVersion
1070
     0
  0
VISUALSTYLE
  5
3A
102
{ACAD_REACTORS
330
2A
102
}
102
{ACAD_XDICTIONARY
360
1A5
102
}
330
2A
100
AcDbVisualStyle
  2
ColorChange
 70
    16
 71
     2
 72
     2
 73
     3
 90
        0
 40
0.6
 41
30.0
 62
     5
 63
     8
 74
     1
 91
        4
 64
     7
 65
   257
 75
     1
175
     1
 42
1.0
 92
        8
 66
     8
 43
1.0
 76
     1
 77
     6
 78
     2
 67
     7
 79
     5
170
     0
171
     0
290
     0
174
     0
 93
        1
 44
0.0
173
     0
291
     1
 45
0.0
1001
ACAD
1000
AcDbSavedByObjectVersion
1070
     0
  0
VISUALSTYLE
  5
34
102
{ACAD_REACTORS
330
2A
102
}
102
{ACAD_XDICTIONARY
360
199
102
}
330
2A
100
AcDbVisualStyle
  2
Conceptual
 70
     9
 71
     3
 72
     2
 73
     0
 90
        0
 40
0.6
 41
30.0
 62
     5
 63
     7
 74
     2
 91
        2
 64
     7
 65
   257
 75
     1
175
     1
 42
179.0
 92
        8
 66
     7
 43
1.0
 76
     1
 77
     6
 78
     2
 67
     7
 79
     3
170
     0
171
     0
290
     0
174
     0
 93
        1
 44
0.0
173
     0
291
     0
 45
0.0
1001
ACAD
1000
AcDbSavedByObjectVersion
1070
     0
  0
VISUALSTYLE
  5
35
102
{ACAD_REACTORS
330
2A
102
}
102
{ACAD_XDICTIONARY
360
19B
102
}
330
2A
100
AcDbVisualStyle
  2
Dim
 70
    11
 71
     2
 72
     2
 73
     0
 90
        0
 40
0.6
 41
30.0
 62
     5
 63
     7
 74
     1
 91
        4
 64
     7
 65
   257
 75
     1
175
     1
 42
1.0
 92
        8
 66
     7
 43
1.0
 76
     1
 77
     6
 78
     2
 67
     7
 79
     5
170
     0
171
     0
290
     0
174
     0
 93
        1
 44
-50.0
173
     0
291
     1
 45
0.0
1001
ACAD
1000
AcDbSavedByObjectVersion
1070
     0
  0
VISUALSTYLE
  5
3D
102
{ACAD_REACTORS
330
2A
102
}
102
{ACAD_XDICTIONARY
360
1AB
102
}
330
2A
100
AcDbVisualStyle
  2
EdgeColorOff
 70
    22
 71
     2
 72
     2
 73
     0
 90
        0
 40
0.6
 41
30.0
 62
     5
 63
     7
 74
     1
 91
        4
 64
     7
 65
   257
 75
     1
175
     1
 42
1.0
 92
        8
 66
     7
 43
1.0
 76
     1
 77
     6
 78
     2
 67
     7
 79
     5
170
     0
171
     0
290
     0
174
     0
 93
        1
 44
0.0
173
     0
291
     1
 45
0.0
1001
ACAD
1000
AcDbSavedByObjectVersion
1070
     0
  0
VISUALSTYLE
  5
39
102
{ACAD_REACTORS
330
2A
102
}
102
{ACAD_XDICTIONARY
360
1A3
102
}
330
2A
100
AcDbVisualStyle
  2
Facepattern
 70
    15
 71
     2
 72
     2
 73
     0
 90
        0
 40
0.6
 41
30.0
 62
     5
 63
     7
 74
     1
 91
        4
 64
     7
 65
   257
 75
     1
175
     1
 42
1.0
 92
        8
 66
     7
 43
1.0
 76
     1
 77
     6
 78
     2
 67
     7
 79
     5
170
     0
171
     0
290
     0
174
     0
 93
        1
 44
0.0
173
     0
291
     1
 45
0.0
1001
ACAD
1000
AcDbSavedByObjectVersion
1070
     0
  0
VISUALSTYLE
  5
2B
102
{ACAD_REACTORS
330
2A
102
}
102
{ACAD_XDICTIONARY
360
187
102
}
330
2A
100
AcDbVisualStyle
  2
Flat
 70
     0
 71
     2
 72
     1
 73
     1
 90
        2
 40
0.6
 41
30.0
 62
     5
 63
     7
 74
     0
 91
        0
 64
     7
 65
   257
 75
     1
175
     1
 42
1.0
 92
        8
 66
     7
 43
1.0
 76
     1
 77
     6
 78
     2
 67
     7
 79
     5
170
     0
171
     0
290
     0
174
     0
 93
       13
 44
0.0
173
     0
291
     1
 45
0.0
1001
ACAD
1000
AcDbSavedByObjectVersion
1070
     0
  0
VISUALSTYLE
  5
2C
102
{ACAD_REACTORS
330
2A
102
}
102
{ACAD_XDICTIONARY
360
189
102
}
330
2A
100
AcDbVisualStyle
  2
FlatWithEdges
 70
     1
 71
     2
 72
     1
 73
     1
 90
        2
 40
0.6
 41
30.0
 62
     5
 63
     7
 74
     1
 91
        0
 64
     7
 65
   257
 75
     1
175
     1
 42
1.0
 92
        0
 66
   257
 43
1.0
 76
     1
 77
     6
 78
     2
 67
     7
 79
     5
170
     0
171
     0
290
     0
174
     0
 93
       13
 44
0.0
173
     0
291
     1
 45
0.0
1001
ACAD
1000
AcDbSavedByObjectVersion
1070
     0
  0
VISUALSTYLE
  5
2D
102
{ACAD_REACTORS
330
2A
102
}
102
{ACAD_XDICTIONARY
360
18B
102
}
330
2A
100
AcDbVisualStyle
  2
Gouraud
 70
     2
 71
     2
 72
     2
 73
     1
 90
        2
 40
0.6
 41
30.0
 62
     5
 63
     7
 74
     0
 91
        0
 64
     7
 65
   257
 75
     1
175
     1
 42
1.0
 92
        0
 66
     7
 43
1.0
 76
     1
 77
     6
 78
     2
 67
     7
 79
     5
170
     0
171
     0
290
     0
174
     0
 93
       13
 44
0.0
173
     0
291
     1
 45
0.0
1001
ACAD
1000
AcDbSavedByObjectVersion
1070
     0
  0
VISUALSTYLE
  5
2E
102
{ACAD_REACTORS
330
2A
102
}
102
{ACAD_XDICTIONARY
360
18D
102
}
330
2A
100
AcDbVisualStyle
  2
GouraudWithEdges
 70
     3
 71
     2
 72
     2
 73
     1
 90
        2
 40
0.6
 41
30.0
 62
     5
 63
     7
 74
     1
 91
        0
 64
     7
 65
   257
 75
     1
175
     1
 42
1.0
 92
        0
 66
   257
 43
1.0
 76
     1
 77
     6
 78
     2
 67
     7
 79
     5
170
     0
171
     0
290
     0
174
     0
 93
       13
 44
0.0
173
     0
291
     1
 45
0.0
1001
ACAD
1000
AcDbSavedByObjectVersion
1070
     0
  0
VISUALSTYLE
  5
31
102
{ACAD_REACTORS
330
2A
102
}
102
{ACAD_XDICTIONARY
360
193
102
}
330
2A
100
AcDbVisualStyle
  2
Hidden
 70
     6
 71
     1
 72
     2
 73
     2
 90
        0
 40
0.6
 41
30.0
 62
     5
 63
     7
 74
     2
 91
        2
 64
     7
 65
   257
 75
     2
175
     1
 42
40.0
 92
        0
 66
   257
 43
1.0
 76
     1
 77
     6
 78
     2
 67
     7
 79
     3
170
     0
171
     0
290
     0
174
     0
 93
        1
 44
0.0
173
     0
291
     0
 45
0.0
1001
ACAD
1000
AcDbSavedByObjectVersion
1070
     0
  0
VISUALSTYLE
  5
3B
102
{ACAD_REACTORS
330
2A
102
}
102
{ACAD_XDICTIONARY
360
1A7
102
}
330
2A
100
AcDbVisualStyle
  2
JitterOff
 70
    20
 71
     2
 72
     2
 73
     0
 90
        0
 40
0.6
 41
30.0
 62
     5
 63
     7
 74
     1
 91
        4
 64
     7
 65
   257
 75
     1
175
     1
 42
1.0
 92
       10
 66
     7
 43
1.0
 76
     1
 77
     6
 78
     2
 67
     7
 79
     5
170
     0
171
     0
290
     0
174
     0
 93
        1
 44
0.0
173
     0
291
     1
 45
0.0
1001
ACAD
1000
AcDbSavedByObjectVersion
1070
     0
  0
VISUALSTYLE
  5
38
102
{ACAD_REACTORS
330
2A
102
}
102
{ACAD_XDICTIONARY
360
1A1
102
}
330
2A
100
AcDbVisualStyle
  2
Linepattern
 70
    14
 71
     2
 72
     2
 73
     0
 90
        0
 40
0.6
 41
30.0
 62
     5
 63
     7
 74
     1
 91
        4
 64
     7
 65
   257
 75
     7
175
     7
 42
1.0
 92
        8
 66
     7
 43
1.0
 76
     1
 77
     6
 78
     2
 67
     7
 79
     5
170
     0
171
     0
290
     0
174
     0
 93
        1
 44
0.0
173
     0
291
     1
 45
0.0
1001
ACAD
1000
AcDbSavedByObjectVersion
1070
     0
  0
VISUALSTYLE
  5
3C
102
{ACAD_REACTORS
330
2A
102
}
102
{ACAD_XDICTIONARY
360
1A9
102
}
330
2A
100
AcDbVisualStyle
  2
OverhangOff
 70
    21
 71
     2
 72
     2
 73
     0
 90
        0
 40
0.6
 41
30.0
 62
     5
 63
     7
 74
     1
 91
        4
 64
     7
 65
   257
 75
     1
175
     1
 42
1.0
 92
        9
 66
     7
 43
1.0
 76
     1
 77
     6
 78
     2
 67
     7
 79
     5
170
     0
171
     0
290
     0
174
     0
 93
        1
 44
0.0
173
     0
291
     1
 45
0.0
1001
ACAD
1000
AcDbSavedByObjectVersion
1070
     0
  0
VISUALSTYLE
  5
33
102
{ACAD_REACTORS
330
2A
102
}
102
{ACAD_XDICTIONARY
360
197
102
}
330
2A
100
AcDbVisualStyle
  2
Realistic
 70
     8
 71
     2
 72
     3
 73
     0
 90
        2
 40
0.6
 41
30.0
 62
     5
 63
     7
 74
     0
 91
        0
 64
     7
 65
   257
 75
     1
175
     1
 42
1.0
 92
        8
 66
   257
 43
1.0
 76
     1
 77
     6
 78
     2
 67
     7
 79
     3
170
     0
171
     0
290
     0
174
     0
 93
       13
 44
0.0
173
     0
291
     0
 45
0.0
1001
ACAD
1000
AcDbSavedByObjectVersion
1070
     0
  0
VISUALSTYLE
  5
42
102
{ACAD_REACTORS
330
2A
102
}
102
{ACAD_XDICTIONARY
360
1B5
102
}
330
2A
100
AcDbVisualStyle
  2
Shaded
 70
    27
 71
     2
 72
     2
 73
     1
 90
        2
 40
0.6
 41
30.0
 62
     5
 63
     7
 74
     0
 91
        4
 64
     7
 65
   257
 75
     1
175
     1
 42
1.0
 92
        8
 66
   257
 43
1.0
 76
     1
 77
     6
 78
     2
 67
     8
 79
     3
170
     0
171
     0
290
     0
174
     0
 93
        5
 44
0.0
173
     0
291
     0
 45
0.0
1001
ACAD
1000
AcDbSavedByObjectVersion
1070
     0
  0
VISUALSTYLE
  5
41
102
{ACAD_REACTORS
330
2A
102
}
102
{ACAD_XDICTIONARY
360
1B3
102
}
330
2A
100
AcDbVisualStyle
  2
Shaded with edges
 70
    26
 71
     2
 72
     2
 73
     1
 90
        2
 40
0.6
 41
30.0
 62
     5
 63
     7
 74
     1
 91
       10
 64
     7
 65
   257
 75
     2
175
     1
 42
1.0
 92
        8
 66
   257
 43
1.0
 76
     1
 77
     6
 78
     2
 67
     7
 79
     3
170
     0
171
     0
290
     0
174
     0
 93
        5
 44
0.0
173
     0
291
     0
 45
0.0
1001
ACAD
1000
AcDbSavedByObjectVersion
1070
     0
  0
VISUALSTYLE
  5
3E
102
{ACAD_REACTORS
330
2A
102
}
102
{ACAD_XDICTIONARY
360
1AD
102
}
330
2A
100
AcDbVisualStyle
  2
Shades of Gray
 70
    23
 71
     2
 72
     2
 73
     3
 90
        0
 40
0.6
 41
30.0
 62
     5
 63
     7
 74
     2
 91
        2
 64
     7
 65
     7
 75
     1
175
     1
 42
40.0
 92
        8
 66
     7
 43
1.0
 76
     1
 77
     6
 78
     2
 67
     7
 79
     3
170
     0
171
     0
290
     0
174
     0
 93
        1
 44
0.0
173
     0
291
     0
 45
0.0
1001
ACAD
1000
AcDbSavedByObjectVersion
1070
     0
  0
VISUALSTYLE
  5
3F
102
{ACAD_REACTORS
330
2A
102
}
102
{ACAD_XDICTIONARY
360
1AF
102
}
330
2A
100
AcDbVisualStyle
  2
Sketchy
 70
    24
 71
     1
 72
     2
 73
     2
 90
        0
 40
0.6
 41
30.0
 62
     5
 63
     7
 74
     2
 91
        2
 64
     7
 65
     7
 75
     1
175
     1
 42
40.0
 92
       11
 66
     7
 43
1.0
 76
     1
 77
     6
 78
     2
 67
     7
 79
     6
170
     0
171
     0
290
     0
174
     0
 93
        1
 44
0.0
173
     0
291
     0
 45
0.0
1001
ACAD
1000
AcDbSavedByObjectVersion
1070
     0
  0
VISUALSTYLE
  5
37
102
{ACAD_REACTORS
330
2A
102
}
102
{ACAD_XDICTIONARY
360
19F
102
}
330
2A
100
AcDbVisualStyle
  2
Thicken
 70
    13
 71
     2
 72
     2
 73
     0
 90
        0
 40
0.6
 41
30.0
 62
     5
 63
     7
 74
     1
 91
        4
 64
     7
 65
   257
 75
     1
175
     1
 42
1.0
 92
       12
 66
     7
 43
1.0
 76
     1
 77
     6
 78
     2
 67
     7
 79
     5
170
     0
171
     0
290
     0
174
     0
 93
        1
 44
0.0
173
     0
291
     1
 45
0.0
1001
ACAD
1000
AcDbSavedByObjectVersion
1070
     0
  0
VISUALSTYLE
  5
30
102
{ACAD_REACTORS
330
2A
102
}
102
{ACAD_XDICTIONARY
360
191
102
}
330
2A
100
AcDbVisualStyle
  2
Wireframe
 70
     5
 71
     0
 72
     2
 73
     0
 90
        0
 40
0.6
 41
30.0
 62
     5
 63
     7
 74
     1
 91
        4
 64
     7
 65
   257
 75
     1
175
     1
 42
1.0
 92
        0
 66
   257
 43
1.0
 76
     1
 77
     6
 78
     2
 67
     7
 79
     3
170
     0
171
     0
290
     0
174
     0
 93
        1
 44
0.0
173
     0
291
     0
 45
0.0
1001
ACAD
1000
AcDbSavedByObjectVersion
1070
     0
  0
VISUALSTYLE
  5
40
102
{ACAD_REACTORS
330
2A
102
}
102
{ACAD_XDICTIONARY
360
1B1
102
}
330
2A
100
AcDbVisualStyle
  2
X-Ray
 70
    25
 71
     2
 72
     2
 73
     1
 90
        1
 40
0.5
 41
30.0
 62
     5
 63
     7
 74
     1
 91
        0
 64
     7
 65
   257
 75
     1
175
     1
 42
1.0
 92
        8
 66
     7
 43
1.0
 76
     1
 77
     6
 78
     2
 67
     7
 79
     3
170
     0
171
     0
290
     0
174
     0
 93
       13
 44
0.0
173
     0
291
     0
 45
0.0
1001
ACAD
1000
AcDbSavedByObjectVersion
1070
     0
  0
DICTIONARYVAR
  5
185
102
{ACAD_REACTORS
330
17C
102
}
330
17C
100
DictionaryVariables
280
     0
  1
1:1
  0
DICTIONARYVAR
  5
183
102
{ACAD_REACTORS
330
17C
102
}
330
17C
100
DictionaryVariables
280
     0
  1
2
  0
DICTIONARYVAR
  5
184
102
{ACAD_REACTORS
330
17C
102
}
330
17C
100
DictionaryVariables
280
     0
  1
1
  0
DICTIONARYVAR
  5
186
102
{ACAD_REACTORS
330
17C
102
}
330
17C
100
DictionaryVariables
280
     0
  1
1
  0
DICTIONARYVAR
  5
180
102
{ACAD_REACTORS
330
17C
102
}
330
17C
100
DictionaryVariables
280
     0
  1
80.000000
  0
DICTIONARYVAR
  5
17F
102
{ACAD_REACTORS
330
17C
102
}
330
17C
100
DictionaryVariables
280
     0
  1
5.000000
  0
DICTIONARY
  5
1B9
330
45
100
AcDbDictionary
280
     1
281
     1
  3
ACAD_XREC_ROUNDTRIP
360
1BA
  0
DICTIONARY
  5
1B7
330
44
100
AcDbDictionary
280
     1
281
     1
  3
ACAD_XREC_ROUNDTRIP
360
1B8
  0
DICTIONARY
  5
1BB
330
46
100
AcDbDictionary
280
     1
281
     1
  3
ACAD_XREC_ROUNDTRIP
360
1BC
  0
DICTIONARY
  5
18F
330
2F
100
AcDbDictionary
280
     1
281
     1
  3
ACAD_XREC_ROUNDTRIP
360
190
  0
DICTIONARY
  5
195
330
32
100
AcDbDictionary
280
     1
281
     1
  3
ACAD_XREC_ROUNDTRIP
360
196
  0
DICTIONARY
  5
19D
330
36
100
AcDbDictionary
280
     1
281
     1
  3
ACAD_XREC_ROUNDTRIP
360
19E
  0
DICTIONARY
  5
1A5
330
3A
100
AcDbDictionary
280
     1
281
     1
  3
ACAD_XREC_ROUNDTRIP
360
1A6
  0
DICTIONARY
  5
199
330
34
100
AcDbDictionary
280
     1
281
     1
  3
ACAD_XREC_ROUNDTRIP
360
19A
  0
DICTIONARY
  5
19B
330
35
100
AcDbDictionary
280
     1
281
     1
  3
ACAD_XREC_ROUNDTRIP
360
19C
  0
DICTIONARY
  5
1AB
330
3D
100
AcDbDictionary
280
     1
281
     1
  3
ACAD_XREC_ROUNDTRIP
360
1AC
  0
DICTIONARY
  5
1A3
330
39
100
AcDbDictionary
280
     1
281
     1
  3
ACAD_XREC_ROUNDTRIP
360
1A4
  0
DICTIONARY
  5
187
330
2B
100
AcDbDictionary
280
     1
281
     1
  3
ACAD_XREC_ROUNDTRIP
360
188
  0
DICTIONARY
  5
189
330
2C
100
AcDbDictionary
280
     1
281
     1
  3
ACAD_XREC_ROUNDTRIP
360
18A
  0
DICTIONARY
  5
18B
330
2D
100
AcDbDictionary
280
     1
281
     1
  3
ACAD_XREC_ROUNDTRIP
360
18C
  0
DICTIONARY
  5
18D
330
2E
100
AcDbDictionary
280
     1
281
     1
  3
ACAD_XREC_ROUNDTRIP
360
18E
  0
DICTIONARY
  5
193
330
31
100
AcDbDictionary
280
     1
281
     1
  3
ACAD_XREC_ROUNDTRIP
360
194
  0
DICTIONARY
  5
1A7
330
3B
100
AcDbDictionary
280
     1
281
     1
  3
ACAD_XREC_ROUNDTRIP
360
1A8
  0
DICTIONARY
  5
1A1
330
38
100
AcDbDictionary
280
     1
281
     1
  3
ACAD_XREC_ROUNDTRIP
360
1A2
  0
DICTIONARY
  5
1A9
330
3C
100
AcDbDictionary
280
     1
281
     1
  3
ACAD_XREC_ROUNDTRIP
360
1AA
  0
DICTIONARY
  5
197
330
33
100
AcDbDictionary
280
     1
281
     1
  3
ACAD_XREC_ROUNDTRIP
360
198
  0
DICTIONARY
  5
1B5
330
42
100
AcDbDictionary
280
     1
281
     1
  3
ACAD_XREC_ROUNDTRIP
360
1B6
  0
DICTIONARY
  5
1B3
330
41
100
AcDbDictionary
280
     1
281
     1
  3
ACAD_XREC_ROUNDTRIP
360
1B4
  0
DICTIONARY
  5
1AD
330
3E
100
AcDbDictionary
280
     1
281
     1
  3
ACAD_XREC_ROUNDTRIP
360
1AE
  0
DICTIONARY
  5
1AF
330
3F
100
AcDbDictionary
280
     1
281
     1
  3
ACAD_XREC_ROUNDTRIP
360
1B0
  0
DICTIONARY
  5
19F
330
37
100
AcDbDictionary
280
     1
281
     1
  3
ACAD_XREC_ROUNDTRIP
360
1A0
  0
DICTIONARY
  5
191
330
30
100
AcDbDictionary
280
     1
281
     1
  3
ACAD_XREC_ROUNDTRIP
360
192
  0
DICTIONARY
  5
1B1
330
40
100
AcDbDictionary
280
     1
281
     1
  3
ACAD_XREC_ROUNDTRIP
360
1B2
  0
XRECORD
  5
1BA
102
{ACAD_REACTORS
330
1B9
102
}
330
1B9
100
AcDbXrecord
280
     1
102
MATERIAL
148
0.0
149
0.0
149
0.0
 93
        0
 94
      127
282
     0
 72
     1
 77
     1
171
     1
175
     1
179
     1
273
     0
  0
XRECORD
  5
1B8
102
{ACAD_REACTORS
330
1B7
102
}
330
1B7
100
AcDbXrecord
280
     1
102
MATERIAL
148
0.0
149
0.0
149
0.0
 93
        0
 94
      127
282
     0
 72
     1
 77
     1
171
     1
175
     1
179
     1
273
     0
  0
XRECORD
  5
1BC
102
{ACAD_REACTORS
330
1BB
102
}
330
1BB
100
AcDbXrecord
280
     1
102
MATERIAL
148
0.0
149
0.0
149
0.0
 93
        0
 94
      127
282
     0
 72
     1
 77
     1
171
     1
175
     1
179
     1
273
     0
  0
XRECORD
  5
190
102
{ACAD_REACTORS
330
18F
102
}
330
18F
100
AcDbXrecord
280
     1
102
RTVSPropertyOp0
 70
     1
102
RTVSPropertyOp1
 70
     1
102
RTVSPropertyOp2
 70
     1
102
RTVSPropertyOp3
 70
     1
102
RTVSPropertyOp4
 70
     1
102
RTVSPropertyOp5
 70
     1
102
RTVSPropertyOp6
 70
     1
102
RTVSPropertyOp7
 70
     1
102
RTVSPropertyOp8
 70
     1
102
RTVSPropertyOp9
 70
     1
102
RTVSPropertyOp10
 70
     1
102
RTVSPropertyOp11
 70
     1
102
RTVSPropertyOp12
 70
     1
102
RTVSPropertyOp13
 70
     1
102
RTVSPropertyOp14
 70
     1
102
RTVSPropertyOp15
 70
     1
102
RTVSPropertyOp16
 70
     1
102
RTVSPropertyOp17
 70
     1
102
RTVSPropertyOp18
 70
     1
102
RTVSPropertyOp19
 70
     1
102
RTVSPropertyOp20
 70
     1
102
RTVSPropertyOp21
 70
     1
102
RTVSPropertyOp22
 70
     1
102
RTVSPropertyOp23
 70
     1
102
RTVSPropertyOp24
 70
     1
102
RTVSPropertyOp25
 70
     1
102
RTVSPropertyOp26
 70
     1
102
RTVSPropertyOp27
 70
     1
102
RTVSPropertyOp28
 70
     1
102
RTVSPropertyOp29
 70
     1
102
RTVSPropertyOp30
 70
     1
102
RTVSPropertyOp31
 70
     1
102
RTVSPropertyOp32
 70
     1
102
RTVSPropertyOp33
 70
     1
102
RTVSPropertyOp34
 70
     1
102
RTVSPropertyOp35
 70
     1
102
RTVSPropertyOp36
 70
     1
102
RTVSPropertyOp37
 70
     1
102
RTVSPropertyOp38
 70
     1
102
RTVSPropertyOp39
 70
     1
102
RTVSPropertyOp40
 70
     1
102
RTVSPropertyOp41
 70
     1
102
RTVSPropertyOp42
 70
     1
102
RTVSPropertyOp43
 70
     1
102
RTVSPropertyOp44
 70
     1
102
RTVSPropertyOp45
 70
     1
102
RTVSPropertyOp46
 70
     1
102
RTVSPropertyOp47
 70
     1
102
RTVSPropertyOp48
 70
     1
102
RTVSPropertyOp49
 70
     1
102
RTVSPropertyOp50
 70
     1
102
RTVSPropertyOp51
 70
     0
102
RTVSPropertyOp52
 70
     0
102
RTVSPropertyOp53
 70
     1
102
RTVSPropertyOp54
 70
     1
102
RTVSPropertyOp55
 70
     1
102
RTVSPropertyOp56
 70
     1
102
RTVSPropertyOp57
 70
     1
102
RTVSPost2010Prop28
280
     1
102
RTVSPost2010PropOp28
 70
     1
102
RTVSPost2010Prop29
280
     1
102
RTVSPost2010PropOp29
 70
     1
102
RTVSPost2010Prop30
280
     0
102
RTVSPost2010PropOp30
 70
     1
102
RTVSPost2010Prop31
280
     0
102
RTVSPost2010PropOp31
 70
     1
102
RTVSPost2010Prop32
280
     0
102
RTVSPost2010PropOp32
 70
     1
102
RTVSPost2010Prop33
280
     0
102
RTVSPost2010PropOp33
 70
     1
102
RTVSPost2010Prop34
280
     0
102
RTVSPost2010PropOp34
 70
     1
102
RTVSPost2010Prop35
280
     0
102
RTVSPost2010PropOp35
 70
     1
102
RTVSPost2010Prop36
280
     0
102
RTVSPost2010PropOp36
 70
     1
102
RTVSPost2010Prop37
 90
       50
102
RTVSPost2010PropOp37
 70
     1
102
RTVSPost2010Prop38
140
0.0
102
RTVSPost2010PropOp38
 70
     1
102
RTVSPost2010Prop39
140
1.0
102
RTVSPost2010PropOp39
 70
     1
102
RTVSPost2010Prop40
 90
        0
102
RTVSPost2010PropOp40
 70
     1
102
RTVSPost2010Prop41ColorIndex
 90
       18
102
RTVSPost2010Prop41ColorRGB
 90
        0
102
RTVSPost2010PropOp41
 70
     1
102
RTVSPost2010Prop42
 90
       50
102
RTVSPost2010PropOp42
 70
     1
102
RTVSPost2010Prop43
 90
        3
102
RTVSPost2010PropOp43
 70
     1
102
RTVSPost2010Prop44ColorIndex
 90
        5
102
RTVSPost2010Prop44ColorRGB
 90
      255
102
RTVSPost2010PropOp44
 70
     1
102
RTVSPost2010Prop45
280
     0
102
RTVSPost2010PropOp45
 70
     1
102
RTVSPost2010Prop46
 90
       50
102
RTVSPost2010PropOp46
 70
     1
102
RTVSPost2010Prop47
 90
       50
102
RTVSPost2010PropOp47
 70
     1
102
RTVSPost2010Prop48
 90
       50
102
RTVSPost2010PropOp48
 70
     1
102
RTVSPost2010Prop49
280
     0
102
RTVSPost2010PropOp49
 70
     1
102
RTVSPost2010Prop50
 90
       50
102
RTVSPost2010PropOp50
 70
     1
102
RTVSPost2010Prop51ColorIndex
 90
      256
102
RTVSPost2010Prop51ColorRGB
 90
-16777216
102
RTVSPost2010PropOp51
 70
     0
102
RTVSPost2010Prop52
140
1.0
102
RTVSPost2010PropOp52
 70
     0
102
RTVSPost2010Prop53
 90
        2
102
RTVSPost2010PropOp53
 70
     1
102
RTVSPost2010Prop54
  1
strokes_ogs.tif
102
RTVSPost2010PropOp54
 70
     1
102
RTVSPost2010Prop55
280
     0
102
RTVSPost2010PropOp55
 70
     1
102
RTVSPost2010Prop56
140
1.0
102
RTVSPost2010PropOp56
 70
     1
102
RTVSPost2010Prop57
140
1.0
102
RTVSPost2010PropOp57
 70
     1
  0
XRECORD
  5
196
102
{ACAD_REACTORS
330
195
102
}
330
195
100
AcDbXrecord
280
     1
102
RTVSPropertyOp0
 70
     1
102
RTVSPropertyOp1
 70
     1
102
RTVSPropertyOp2
 70
     1
102
RTVSPropertyOp3
 70
     1
102
RTVSPropertyOp4
 70
     1
102
RTVSPropertyOp5
 70
     1
102
RTVSPropertyOp6
 70
     1
102
RTVSPropertyOp7
 70
     1
102
RTVSPropertyOp8
 70
     1
102
RTVSPropertyOp9
 70
     1
102
RTVSPropertyOp10
 70
     1
102
RTVSPropertyOp11
 70
     1
102
RTVSPropertyOp12
 70
     1
102
RTVSPropertyOp13
 70
     1
102
RTVSPropertyOp14
 70
     1
102
RTVSPropertyOp15
 70
     1
102
RTVSPropertyOp16
 70
     1
102
RTVSPropertyOp17
 70
     1
102
RTVSPropertyOp18
 70
     1
102
RTVSPropertyOp19
 70
     1
102
RTVSPropertyOp20
 70
     1
102
RTVSPropertyOp21
 70
     1
102
RTVSPropertyOp22
 70
     1
102
RTVSPropertyOp23
 70
     1
102
RTVSPropertyOp24
 70
     1
102
RTVSPropertyOp25
 70
     1
102
RTVSPropertyOp26
 70
     1
102
RTVSPropertyOp27
 70
     1
102
RTVSPropertyOp28
 70
     1
102
RTVSPropertyOp29
 70
     1
102
RTVSPropertyOp30
 70
     1
102
RTVSPropertyOp31
 70
     1
102
RTVSPropertyOp32
 70
     1
102
RTVSPropertyOp33
 70
     1
102
RTVSPropertyOp34
 70
     1
102
RTVSPropertyOp35
 70
     1
102
RTVSPropertyOp36
 70
     1
102
RTVSPropertyOp37
 70
     1
102
RTVSPropertyOp38
 70
     1
102
RTVSPropertyOp39
 70
     1
102
RTVSPropertyOp40
 70
     1
102
RTVSPropertyOp41
 70
     1
102
RTVSPropertyOp42
 70
     1
102
RTVSPropertyOp43
 70
     1
102
RTVSPropertyOp44
 70
     1
102
RTVSPropertyOp45
 70
     1
102
RTVSPropertyOp46
 70
     1
102
RTVSPropertyOp47
 70
     1
102
RTVSPropertyOp48
 70
     1
102
RTVSPropertyOp49
 70
     1
102
RTVSPropertyOp50
 70
     1
102
RTVSPropertyOp51
 70
     0
102
RTVSPropertyOp52
 70
     0
102
RTVSPropertyOp53
 70
     1
102
RTVSPropertyOp54
 70
     1
102
RTVSPropertyOp55
 70
     1
102
RTVSPropertyOp56
 70
     1
102
RTVSPropertyOp57
 70
     1
102
RTVSPost2010Prop28
280
     0
102
RTVSPost2010PropOp28
 70
     1
102
RTVSPost2010Prop29
280
     1
102
RTVSPost2010PropOp29
 70
     1
102
RTVSPost2010Prop30
280
     1
102
RTVSPost2010PropOp30
 70
     1
102
RTVSPost2010Prop31
280
     0
102
RTVSPost2010PropOp31
 70
     1
102
RTVSPost2010Prop32
280
     0
102
RTVSPost2010PropOp32
 70
     1
102
RTVSPost2010Prop33
280
     0
102
RTVSPost2010PropOp33
 70
     1
102
RTVSPost2010Prop34
280
     0
102
RTVSPost2010PropOp34
 70
     1
102
RTVSPost2010Prop35
280
     0
102
RTVSPost2010PropOp35
 70
     1
102
RTVSPost2010Prop36
280
     0
102
RTVSPost2010PropOp36
 70
     1
102
RTVSPost2010Prop37
 90
       50
102
RTVSPost2010PropOp37
 70
     1
102
RTVSPost2010Prop38
140
0.0
102
RTVSPost2010PropOp38
 70
     1
102
RTVSPost2010Prop39
140
1.0
102
RTVSPost2010PropOp39
 70
     1
102
RTVSPost2010Prop40
 90
        0
102
RTVSPost2010PropOp40
 70
     1
102
RTVSPost2010Prop41ColorIndex
 90
       18
102
RTVSPost2010Prop41ColorRGB
 90
        0
102
RTVSPost2010PropOp41
 70
     1
102
RTVSPost2010Prop42
 90
       50
102
RTVSPost2010PropOp42
 70
     1
102
RTVSPost2010Prop43
 90
        3
102
RTVSPost2010PropOp43
 70
     1
102
RTVSPost2010Prop44ColorIndex
 90
        5
102
RTVSPost2010Prop44ColorRGB
 90
      255
102
RTVSPost2010PropOp44
 70
     1
102
RTVSPost2010Prop45
280
     0
102
RTVSPost2010PropOp45
 70
     1
102
RTVSPost2010Prop46
 90
       50
102
RTVSPost2010PropOp46
 70
     1
102
RTVSPost2010Prop47
 90
       50
102
RTVSPost2010PropOp47
 70
     1
102
RTVSPost2010Prop48
 90
       50
102
RTVSPost2010PropOp48
 70
     1
102
RTVSPost2010Prop49
280
     0
102
RTVSPost2010PropOp49
 70
     1
102
RTVSPost2010Prop50
 90
       50
102
RTVSPost2010PropOp50
 70
     1
102
RTVSPost2010Prop51ColorIndex
 90
      256
102
RTVSPost2010Prop51ColorRGB
 90
-16777216
102
RTVSPost2010PropOp51
 70
     0
102
RTVSPost2010Prop52
140
1.0
102
RTVSPost2010PropOp52
 70
     0
102
RTVSPost2010Prop53
 90
        2
102
RTVSPost2010PropOp53
 70
     1
102
RTVSPost2010Prop54
  1
strokes_ogs.tif
102
RTVSPost2010PropOp54
 70
     1
102
RTVSPost2010Prop55
280
     0
102
RTVSPost2010PropOp55
 70
     1
102
RTVSPost2010Prop56
140
1.0
102
RTVSPost2010PropOp56
 70
     1
102
RTVSPost2010Prop57
140
1.0
102
RTVSPost2010PropOp57
 70
     1
  0
XRECORD
  5
19E
102
{ACAD_REACTORS
330
19D
102
}
330
19D
100
AcDbXrecord
280
     1
102
RTVSPropertyOp0
 70
     1
102
RTVSPropertyOp1
 70
     1
102
RTVSPropertyOp2
 70
     1
102
RTVSPropertyOp3
 70
     1
102
RTVSPropertyOp4
 70
     1
102
RTVSPropertyOp5
 70
     1
102
RTVSPropertyOp6
 70
     1
102
RTVSPropertyOp7
 70
     1
102
RTVSPropertyOp8
 70
     1
102
RTVSPropertyOp9
 70
     1
102
RTVSPropertyOp10
 70
     1
102
RTVSPropertyOp11
 70
     1
102
RTVSPropertyOp12
 70
     1
102
RTVSPropertyOp13
 70
     1
102
RTVSPropertyOp14
 70
     1
102
RTVSPropertyOp15
 70
     1
102
RTVSPropertyOp16
 70
     1
102
RTVSPropertyOp17
 70
     1
102
RTVSPropertyOp18
 70
     1
102
RTVSPropertyOp19
 70
     1
102
RTVSPropertyOp20
 70
     1
102
RTVSPropertyOp21
 70
     1
102
RTVSPropertyOp22
 70
     1
102
RTVSPropertyOp23
 70
     1
102
RTVSPropertyOp24
 70
     1
102
RTVSPropertyOp25
 70
     1
102
RTVSPropertyOp26
 70
     1
102
RTVSPropertyOp27
 70
     1
102
RTVSPropertyOp28
 70
     1
102
RTVSPropertyOp29
 70
     1
102
RTVSPropertyOp30
 70
     1
102
RTVSPropertyOp31
 70
     1
102
RTVSPropertyOp32
 70
     1
102
RTVSPropertyOp33
 70
     1
102
RTVSPropertyOp34
 70
     1
102
RTVSPropertyOp35
 70
     1
102
RTVSPropertyOp36
 70
     1
102
RTVSPropertyOp37
 70
     1
102
RTVSPropertyOp38
 70
     1
102
RTVSPropertyOp39
 70
     1
102
RTVSPropertyOp40
 70
     1
102
RTVSPropertyOp41
 70
     1
102
RTVSPropertyOp42
 70
     1
102
RTVSPropertyOp43
 70
     1
102
RTVSPropertyOp44
 70
     1
102
RTVSPropertyOp45
 70
     1
102
RTVSPropertyOp46
 70
     1
102
RTVSPropertyOp47
 70
     1
102
RTVSPropertyOp48
 70
     1
102
RTVSPropertyOp49
 70
     1
102
RTVSPropertyOp50
 70
     1
102
RTVSPropertyOp51
 70
     0
102
RTVSPropertyOp52
 70
     0
102
RTVSPropertyOp53
 70
     1
102
RTVSPropertyOp54
 70
     1
102
RTVSPropertyOp55
 70
     1
102
RTVSPropertyOp56
 70
     1
102
RTVSPropertyOp57
 70
     1
102
RTVSPost2010Prop28
280
     0
102
RTVSPost2010PropOp28
 70
     1
102
RTVSPost2010Prop29
280
     1
102
RTVSPost2010PropOp29
 70
     1
102
RTVSPost2010Prop30
280
     1
102
RTVSPost2010PropOp30
 70
     1
102
RTVSPost2010Prop31
280
     0
102
RTVSPost2010PropOp31
 70
     1
102
RTVSPost2010Prop32
280
     0
102
RTVSPost2010PropOp32
 70
     1
102
RTVSPost2010Prop33
280
     0
102
RTVSPost2010PropOp33
 70
     1
102
RTVSPost2010Prop34
280
     0
102
RTVSPost2010PropOp34
 70
     1
102
RTVSPost2010Prop35
280
     0
102
RTVSPost2010PropOp35
 70
     1
102
RTVSPost2010Prop36
280
     0
102
RTVSPost2010PropOp36
 70
     1
102
RTVSPost2010Prop37
 90
       50
102
RTVSPost2010PropOp37
 70
     1
102
RTVSPost2010Prop38
140
0.0
102
RTVSPost2010PropOp38
 70
     1
102
RTVSPost2010Prop39
140
1.0
102
RTVSPost2010PropOp39
 70
     1
102
RTVSPost2010Prop40
 90
        0
102
RTVSPost2010PropOp40
 70
     1
102
RTVSPost2010Prop41ColorIndex
 90
       18
102
RTVSPost2010Prop41ColorRGB
 90
        0
102
RTVSPost2010PropOp41
 70
     1
102
RTVSPost2010Prop42
 90
       50
102
RTVSPost2010PropOp42
 70
     1
102
RTVSPost2010Prop43
 90
        3
102
RTVSPost2010PropOp43
 70
     1
102
RTVSPost2010Prop44ColorIndex
 90
        5
102
RTVSPost2010Prop44ColorRGB
 90
      255
102
RTVSPost2010PropOp44
 70
     1
102
RTVSPost2010Prop45
280
     0
102
RTVSPost2010PropOp45
 70
     1
102
RTVSPost2010Prop46
 90
       50
102
RTVSPost2010PropOp46
 70
     1
102
RTVSPost2010Prop47
 90
       50
102
RTVSPost2010PropOp47
 70
     1
102
RTVSPost2010Prop48
 90
       50
102
RTVSPost2010PropOp48
 70
     1
102
RTVSPost2010Prop49
280
     0
102
RTVSPost2010PropOp49
 70
     1
102
RTVSPost2010Prop50
 90
       50
102
RTVSPost2010PropOp50
 70
     1
102
RTVSPost2010Prop51ColorIndex
 90
      256
102
RTVSPost2010Prop51ColorRGB
 90
-16777216
102
RTVSPost2010PropOp51
 70
     0
102
RTVSPost2010Prop52
140
1.0
102
RTVSPost2010PropOp52
 70
     0
102
RTVSPost2010Prop53
 90
        2
102
RTVSPost2010PropOp53
 70
     1
102
RTVSPost2010Prop54
  1
strokes_ogs.tif
102
RTVSPost2010PropOp54
 70
     1
102
RTVSPost2010Prop55
280
     0
102
RTVSPost2010PropOp55
 70
     1
102
RTVSPost2010Prop56
140
1.0
102
RTVSPost2010PropOp56
 70
     1
102
RTVSPost2010Prop57
140
1.0
102
RTVSPost2010PropOp57
 70
     1
  0
XRECORD
  5
1A6
102
{ACAD_REACTORS
330
1A5
102
}
330
1A5
100
AcDbXrecord
280
     1
102
RTVSPropertyOp0
 70
     1
102
RTVSPropertyOp1
 70
     1
102
RTVSPropertyOp2
 70
     1
102
RTVSPropertyOp3
 70
     1
102
RTVSPropertyOp4
 70
     1
102
RTVSPropertyOp5
 70
     1
102
RTVSPropertyOp6
 70
     1
102
RTVSPropertyOp7
 70
     1
102
RTVSPropertyOp8
 70
     1
102
RTVSPropertyOp9
 70
     1
102
RTVSPropertyOp10
 70
     1
102
RTVSPropertyOp11
 70
     1
102
RTVSPropertyOp12
 70
     1
102
RTVSPropertyOp13
 70
     1
102
RTVSPropertyOp14
 70
     1
102
RTVSPropertyOp15
 70
     1
102
RTVSPropertyOp16
 70
     1
102
RTVSPropertyOp17
 70
     1
102
RTVSPropertyOp18
 70
     1
102
RTVSPropertyOp19
 70
     1
102
RTVSPropertyOp20
 70
     1
102
RTVSPropertyOp21
 70
     1
102
RTVSPropertyOp22
 70
     1
102
RTVSPropertyOp23
 70
     1
102
RTVSPropertyOp24
 70
     1
102
RTVSPropertyOp25
 70
     1
102
RTVSPropertyOp26
 70
     1
102
RTVSPropertyOp27
 70
     1
102
RTVSPropertyOp28
 70
     1
102
RTVSPropertyOp29
 70
     1
102
RTVSPropertyOp30
 70
     1
102
RTVSPropertyOp31
 70
     1
102
RTVSPropertyOp32
 70
     1
102
RTVSPropertyOp33
 70
     1
102
RTVSPropertyOp34
 70
     1
102
RTVSPropertyOp35
 70
     1
102
RTVSPropertyOp36
 70
     1
102
RTVSPropertyOp37
 70
     1
102
RTVSPropertyOp38
 70
     1
102
RTVSPropertyOp39
 70
     1
102
RTVSPropertyOp40
 70
     1
102
RTVSPropertyOp41
 70
     1
102
RTVSPropertyOp42
 70
     1
102
RTVSPropertyOp43
 70
     1
102
RTVSPropertyOp44
 70
     1
102
RTVSPropertyOp45
 70
     1
102
RTVSPropertyOp46
 70
     1
102
RTVSPropertyOp47
 70
     1
102
RTVSPropertyOp48
 70
     1
102
RTVSPropertyOp49
 70
     1
102
RTVSPropertyOp50
 70
     1
102
RTVSPropertyOp51
 70
     0
102
RTVSPropertyOp52
 70
     0
102
RTVSPropertyOp53
 70
     1
102
RTVSPropertyOp54
 70
     1
102
RTVSPropertyOp55
 70
     1
102
RTVSPropertyOp56
 70
     1
102
RTVSPropertyOp57
 70
     1
102
RTVSPost2010Prop28
280
     0
102
RTVSPost2010PropOp28
 70
     1
102
RTVSPost2010Prop29
280
     1
102
RTVSPost2010PropOp29
 70
     1
102
RTVSPost2010Prop30
280
     1
102
RTVSPost2010PropOp30
 70
     1
102
RTVSPost2010Prop31
280
     0
102
RTVSPost2010PropOp31
 70
     1
102
RTVSPost2010Prop32
280
     0
102
RTVSPost2010PropOp32
 70
     1
102
RTVSPost2010Prop33
280
     0
102
RTVSPost2010PropOp33
 70
     1
102
RTVSPost2010Prop34
280
     0
102
RTVSPost2010PropOp34
 70
     1
102
RTVSPost2010Prop35
280
     0
102
RTVSPost2010PropOp35
 70
     1
102
RTVSPost2010Prop36
280
     0
102
RTVSPost2010PropOp36
 70
     1
102
RTVSPost2010Prop37
 90
       50
102
RTVSPost2010PropOp37
 70
     1
102
RTVSPost2010Prop38
140
0.0
102
RTVSPost2010PropOp38
 70
     1
102
RTVSPost2010Prop39
140
1.0
102
RTVSPost2010PropOp39
 70
     1
102
RTVSPost2010Prop40
 90
        0
102
RTVSPost2010PropOp40
 70
     1
102
RTVSPost2010Prop41ColorIndex
 90
       18
102
RTVSPost2010Prop41ColorRGB
 90
        0
102
RTVSPost2010PropOp41
 70
     1
102
RTVSPost2010Prop42
 90
       50
102
RTVSPost2010PropOp42
 70
     1
102
RTVSPost2010Prop43
 90
        3
102
RTVSPost2010PropOp43
 70
     1
102
RTVSPost2010Prop44ColorIndex
 90
        5
102
RTVSPost2010Prop44ColorRGB
 90
      255
102
RTVSPost2010PropOp44
 70
     1
102
RTVSPost2010Prop45
280
     0
102
RTVSPost2010PropOp45
 70
     1
102
RTVSPost2010Prop46
 90
       50
102
RTVSPost2010PropOp46
 70
     1
102
RTVSPost2010Prop47
 90
       50
102
RTVSPost2010PropOp47
 70
     1
102
RTVSPost2010Prop48
 90
       50
102
RTVSPost2010PropOp48
 70
     1
102
RTVSPost2010Prop49
280
     0
102
RTVSPost2010PropOp49
 70
     1
102
RTVSPost2010Prop50
 90
       50
102
RTVSPost2010PropOp50
 70
     1
102
RTVSPost2010Prop51ColorIndex
 90
      256
102
RTVSPost2010Prop51ColorRGB
 90
-16777216
102
RTVSPost2010PropOp51
 70
     0
102
RTVSPost2010Prop52
140
1.0
102
RTVSPost2010PropOp52
 70
     0
102
RTVSPost2010Prop53
 90
        2
102
RTVSPost2010PropOp53
 70
     1
102
RTVSPost2010Prop54
  1
strokes_ogs.tif
102
RTVSPost2010PropOp54
 70
     1
102
RTVSPost2010Prop55
280
     0
102
RTVSPost2010PropOp55
 70
     1
102
RTVSPost2010Prop56
140
1.0
102
RTVSPost2010PropOp56
 70
     1
102
RTVSPost2010Prop57
140
1.0
102
RTVSPost2010PropOp57
 70
     1
  0
XRECORD
  5
19A
102
{ACAD_REACTORS
330
199
102
}
330
199
100
AcDbXrecord
280
     1
102
RTVSPropertyOp0
 70
     1
102
RTVSPropertyOp1
 70
     1
102
RTVSPropertyOp2
 70
     1
102
RTVSPropertyOp3
 70
     1
102
RTVSPropertyOp4
 70
     1
102
RTVSPropertyOp5
 70
     1
102
RTVSPropertyOp6
 70
     1
102
RTVSPropertyOp7
 70
     1
102
RTVSPropertyOp8
 70
     1
102
RTVSPropertyOp9
 70
     1
102
RTVSPropertyOp10
 70
     1
102
RTVSPropertyOp11
 70
     1
102
RTVSPropertyOp12
 70
     1
102
RTVSPropertyOp13
 70
     1
102
RTVSPropertyOp14
 70
     1
102
RTVSPropertyOp15
 70
     1
102
RTVSPropertyOp16
 70
     1
102
RTVSPropertyOp17
 70
     1
102
RTVSPropertyOp18
 70
     1
102
RTVSPropertyOp19
 70
     1
102
RTVSPropertyOp20
 70
     1
102
RTVSPropertyOp21
 70
     1
102
RTVSPropertyOp22
 70
     1
102
RTVSPropertyOp23
 70
     1
102
RTVSPropertyOp24
 70
     1
102
RTVSPropertyOp25
 70
     1
102
RTVSPropertyOp26
 70
     1
102
RTVSPropertyOp27
 70
     1
102
RTVSPropertyOp28
 70
     1
102
RTVSPropertyOp29
 70
     1
102
RTVSPropertyOp30
 70
     1
102
RTVSPropertyOp31
 70
     1
102
RTVSPropertyOp32
 70
     1
102
RTVSPropertyOp33
 70
     1
102
RTVSPropertyOp34
 70
     1
102
RTVSPropertyOp35
 70
     1
102
RTVSPropertyOp36
 70
     1
102
RTVSPropertyOp37
 70
     1
102
RTVSPropertyOp38
 70
     1
102
RTVSPropertyOp39
 70
     1
102
RTVSPropertyOp40
 70
     1
102
RTVSPropertyOp41
 70
     1
102
RTVSPropertyOp42
 70
     1
102
RTVSPropertyOp43
 70
     1
102
RTVSPropertyOp44
 70
     1
102
RTVSPropertyOp45
 70
     1
102
RTVSPropertyOp46
 70
     1
102
RTVSPropertyOp47
 70
     1
102
RTVSPropertyOp48
 70
     1
102
RTVSPropertyOp49
 70
     1
102
RTVSPropertyOp50
 70
     1
102
RTVSPropertyOp51
 70
     0
102
RTVSPropertyOp52
 70
     0
102
RTVSPropertyOp53
 70
     1
102
RTVSPropertyOp54
 70
     1
102
RTVSPropertyOp55
 70
     1
102
RTVSPropertyOp56
 70
     1
102
RTVSPropertyOp57
 70
     1
102
RTVSPost2010Prop28
280
     0
102
RTVSPost2010PropOp28
 70
     1
102
RTVSPost2010Prop29
280
     1
102
RTVSPost2010PropOp29
 70
     1
102
RTVSPost2010Prop30
280
     1
102
RTVSPost2010PropOp30
 70
     1
102
RTVSPost2010Prop31
280
     0
102
RTVSPost2010PropOp31
 70
     1
102
RTVSPost2010Prop32
280
     0
102
RTVSPost2010PropOp32
 70
     1
102
RTVSPost2010Prop33
280
     0
102
RTVSPost2010PropOp33
 70
     1
102
RTVSPost2010Prop34
280
     0
102
RTVSPost2010PropOp34
 70
     1
102
RTVSPost2010Prop35
280
     0
102
RTVSPost2010PropOp35
 70
     1
102
RTVSPost2010Prop36
280
     0
102
RTVSPost2010PropOp36
 70
     1
102
RTVSPost2010Prop37
 90
       50
102
RTVSPost2010PropOp37
 70
     1
102
RTVSPost2010Prop38
140
0.0
102
RTVSPost2010PropOp38
 70
     1
102
RTVSPost2010Prop39
140
1.0
102
RTVSPost2010PropOp39
 70
     1
102
RTVSPost2010Prop40
 90
        0
102
RTVSPost2010PropOp40
 70
     1
102
RTVSPost2010Prop41ColorIndex
 90
       18
102
RTVSPost2010Prop41ColorRGB
 90
        0
102
RTVSPost2010PropOp41
 70
     1
102
RTVSPost2010Prop42
 90
       50
102
RTVSPost2010PropOp42
 70
     1
102
RTVSPost2010Prop43
 90
        3
102
RTVSPost2010PropOp43
 70
     1
102
RTVSPost2010Prop44ColorIndex
 90
        5
102
RTVSPost2010Prop44ColorRGB
 90
      255
102
RTVSPost2010PropOp44
 70
     1
102
RTVSPost2010Prop45
280
     0
102
RTVSPost2010PropOp45
 70
     1
102
RTVSPost2010Prop46
 90
       50
102
RTVSPost2010PropOp46
 70
     1
102
RTVSPost2010Prop47
 90
       50
102
RTVSPost2010PropOp47
 70
     1
102
RTVSPost2010Prop48
 90
       50
102
RTVSPost2010PropOp48
 70
     1
102
RTVSPost2010Prop49
280
     0
102
RTVSPost2010PropOp49
 70
     1
102
RTVSPost2010Prop50
 90
       50
102
RTVSPost2010PropOp50
 70
     1
102
RTVSPost2010Prop51ColorIndex
 90
      256
102
RTVSPost2010Prop51ColorRGB
 90
-16777216
102
RTVSPost2010PropOp51
 70
     0
102
RTVSPost2010Prop52
140
1.0
102
RTVSPost2010PropOp52
 70
     0
102
RTVSPost2010Prop53
 90
        2
102
RTVSPost2010PropOp53
 70
     1
102
RTVSPost2010Prop54
  1
strokes_ogs.tif
102
RTVSPost2010PropOp54
 70
     1
102
RTVSPost2010Prop55
280
     0
102
RTVSPost2010PropOp55
 70
     1
102
RTVSPost2010Prop56
140
1.0
102
RTVSPost2010PropOp56
 70
     1
102
RTVSPost2010Prop57
140
1.0
102
RTVSPost2010PropOp57
 70
     1
  0
XRECORD
  5
19C
102
{ACAD_REACTORS
330
19B
102
}
330
19B
100
AcDbXrecord
280
     1
102
RTVSPropertyOp0
 70
     1
102
RTVSPropertyOp1
 70
     1
102
RTVSPropertyOp2
 70
     1
102
RTVSPropertyOp3
 70
     1
102
RTVSPropertyOp4
 70
     1
102
RTVSPropertyOp5
 70
     1
102
RTVSPropertyOp6
 70
     1
102
RTVSPropertyOp7
 70
     1
102
RTVSPropertyOp8
 70
     1
102
RTVSPropertyOp9
 70
     1
102
RTVSPropertyOp10
 70
     1
102
RTVSPropertyOp11
 70
     1
102
RTVSPropertyOp12
 70
     1
102
RTVSPropertyOp13
 70
     1
102
RTVSPropertyOp14
 70
     1
102
RTVSPropertyOp15
 70
     1
102
RTVSPropertyOp16
 70
     1
102
RTVSPropertyOp17
 70
     1
102
RTVSPropertyOp18
 70
     1
102
RTVSPropertyOp19
 70
     1
102
RTVSPropertyOp20
 70
     1
102
RTVSPropertyOp21
 70
     1
102
RTVSPropertyOp22
 70
     1
102
RTVSPropertyOp23
 70
     1
102
RTVSPropertyOp24
 70
     1
102
RTVSPropertyOp25
 70
     1
102
RTVSPropertyOp26
 70
     1
102
RTVSPropertyOp27
 70
     1
102
RTVSPropertyOp28
 70
     1
102
RTVSPropertyOp29
 70
     1
102
RTVSPropertyOp30
 70
     1
102
RTVSPropertyOp31
 70
     1
102
RTVSPropertyOp32
 70
     1
102
RTVSPropertyOp33
 70
     1
102
RTVSPropertyOp34
 70
     1
102
RTVSPropertyOp35
 70
     1
102
RTVSPropertyOp36
 70
     1
102
RTVSPropertyOp37
 70
     1
102
RTVSPropertyOp38
 70
     1
102
RTVSPropertyOp39
 70
     1
102
RTVSPropertyOp40
 70
     1
102
RTVSPropertyOp41
 70
     1
102
RTVSPropertyOp42
 70
     1
102
RTVSPropertyOp43
 70
     1
102
RTVSPropertyOp44
 70
     1
102
RTVSPropertyOp45
 70
     1
102
RTVSPropertyOp46
 70
     1
102
RTVSPropertyOp47
 70
     1
102
RTVSPropertyOp48
 70
     1
102
RTVSPropertyOp49
 70
     1
102
RTVSPropertyOp50
 70
     1
102
RTVSPropertyOp51
 70
     0
102
RTVSPropertyOp52
 70
     0
102
RTVSPropertyOp53
 70
     1
102
RTVSPropertyOp54
 70
     1
102
RTVSPropertyOp55
 70
     1
102
RTVSPropertyOp56
 70
     1
102
RTVSPropertyOp57
 70
     1
102
RTVSPost2010Prop28
280
     0
102
RTVSPost2010PropOp28
 70
     1
102
RTVSPost2010Prop29
280
     1
102
RTVSPost2010PropOp29
 70
     1
102
RTVSPost2010Prop30
280
     1
102
RTVSPost2010PropOp30
 70
     1
102
RTVSPost2010Prop31
280
     0
102
RTVSPost2010PropOp31
 70
     1
102
RTVSPost2010Prop32
280
     0
102
RTVSPost2010PropOp32
 70
     1
102
RTVSPost2010Prop33
280
     0
102
RTVSPost2010PropOp33
 70
     1
102
RTVSPost2010Prop34
280
     0
102
RTVSPost2010PropOp34
 70
     1
102
RTVSPost2010Prop35
280
     0
102
RTVSPost2010PropOp35
 70
     1
102
RTVSPost2010Prop36
280
     0
102
RTVSPost2010PropOp36
 70
     1
102
RTVSPost2010Prop37
 90
       50
102
RTVSPost2010PropOp37
 70
     1
102
RTVSPost2010Prop38
140
0.0
102
RTVSPost2010PropOp38
 70
     1
102
RTVSPost2010Prop39
140
1.0
102
RTVSPost2010PropOp39
 70
     1
102
RTVSPost2010Prop40
 90
        0
102
RTVSPost2010PropOp40
 70
     1
102
RTVSPost2010Prop41ColorIndex
 90
       18
102
RTVSPost2010Prop41ColorRGB
 90
        0
102
RTVSPost2010PropOp41
 70
     1
102
RTVSPost2010Prop42
 90
       50
102
RTVSPost2010PropOp42
 70
     1
102
RTVSPost2010Prop43
 90
        3
102
RTVSPost2010PropOp43
 70
     1
102
RTVSPost2010Prop44ColorIndex
 90
        5
102
RTVSPost2010Prop44ColorRGB
 90
      255
102
RTVSPost2010PropOp44
 70
     1
102
RTVSPost2010Prop45
280
     0
102
RTVSPost2010PropOp45
 70
     1
102
RTVSPost2010Prop46
 90
       50
102
RTVSPost2010PropOp46
 70
     1
102
RTVSPost2010Prop47
 90
       50
102
RTVSPost2010PropOp47
 70
     1
102
RTVSPost2010Prop48
 90
       50
102
RTVSPost2010PropOp48
 70
     1
102
RTVSPost2010Prop49
280
     0
102
RTVSPost2010PropOp49
 70
     1
102
RTVSPost2010Prop50
 90
       50
102
RTVSPost2010PropOp50
 70
     1
102
RTVSPost2010Prop51ColorIndex
 90
      256
102
RTVSPost2010Prop51ColorRGB
 90
-16777216
102
RTVSPost2010PropOp51
 70
     0
102
RTVSPost2010Prop52
140
1.0
102
RTVSPost2010PropOp52
 70
     0
102
RTVSPost2010Prop53
 90
        2
102
RTVSPost2010PropOp53
 70
     1
102
RTVSPost2010Prop54
  1
strokes_ogs.tif
102
RTVSPost2010PropOp54
 70
     1
102
RTVSPost2010Prop55
280
     0
102
RTVSPost2010PropOp55
 70
     1
102
RTVSPost2010Prop56
140
1.0
102
RTVSPost2010PropOp56
 70
     1
102
RTVSPost2010Prop57
140
1.0
102
RTVSPost2010PropOp57
 70
     1
  0
XRECORD
  5
1AC
102
{ACAD_REACTORS
330
1AB
102
}
330
1AB
100
AcDbXrecord
280
     1
102
RTVSPropertyOp0
 70
     0
102
RTVSPropertyOp1
 70
     0
102
RTVSPropertyOp2
 70
     0
102
RTVSPropertyOp3
 70
     0
102
RTVSPropertyOp4
 70
     0
102
RTVSPropertyOp5
 70
     0
102
RTVSPropertyOp6
 70
     0
102
RTVSPropertyOp7
 70
     0
102
RTVSPropertyOp8
 70
     0
102
RTVSPropertyOp9
 70
     0
102
RTVSPropertyOp10
 70
     0
102
RTVSPropertyOp11
 70
     0
102
RTVSPropertyOp12
 70
     0
102
RTVSPropertyOp13
 70
     0
102
RTVSPropertyOp14
 70
     2
102
RTVSPropertyOp15
 70
     0
102
RTVSPropertyOp16
 70
     0
102
RTVSPropertyOp17
 70
     0
102
RTVSPropertyOp18
 70
     0
102
RTVSPropertyOp19
 70
     0
102
RTVSPropertyOp20
 70
     0
102
RTVSPropertyOp21
 70
     0
102
RTVSPropertyOp22
 70
     0
102
RTVSPropertyOp23
 70
     0
102
RTVSPropertyOp24
 70
     0
102
RTVSPropertyOp25
 70
     0
102
RTVSPropertyOp26
 70
     0
102
RTVSPropertyOp27
 70
     0
102
RTVSPropertyOp28
 70
     0
102
RTVSPropertyOp29
 70
     0
102
RTVSPropertyOp30
 70
     0
102
RTVSPropertyOp31
 70
     0
102
RTVSPropertyOp32
 70
     0
102
RTVSPropertyOp33
 70
     0
102
RTVSPropertyOp34
 70
     0
102
RTVSPropertyOp35
 70
     0
102
RTVSPropertyOp36
 70
     0
102
RTVSPropertyOp37
 70
     0
102
RTVSPropertyOp38
 70
     0
102
RTVSPropertyOp39
 70
     0
102
RTVSPropertyOp40
 70
     0
102
RTVSPropertyOp41
 70
     0
102
RTVSPropertyOp42
 70
     0
102
RTVSPropertyOp43
 70
     0
102
RTVSPropertyOp44
 70
     0
102
RTVSPropertyOp45
 70
     0
102
RTVSPropertyOp46
 70
     0
102
RTVSPropertyOp47
 70
     0
102
RTVSPropertyOp48
 70
     0
102
RTVSPropertyOp49
 70
     0
102
RTVSPropertyOp50
 70
     0
102
RTVSPropertyOp51
 70
     0
102
RTVSPropertyOp52
 70
     0
102
RTVSPropertyOp53
 70
     0
102
RTVSPropertyOp54
 70
     0
102
RTVSPropertyOp55
 70
     0
102
RTVSPropertyOp56
 70
     0
102
RTVSPropertyOp57
 70
     0
102
RTVSPost2010Prop28
280
     0
102
RTVSPost2010PropOp28
 70
     0
102
RTVSPost2010Prop29
280
     1
102
RTVSPost2010PropOp29
 70
     0
102
RTVSPost2010Prop30
280
     1
102
RTVSPost2010PropOp30
 70
     0
102
RTVSPost2010Prop31
280
     0
102
RTVSPost2010PropOp31
 70
     0
102
RTVSPost2010Prop32
280
     0
102
RTVSPost2010PropOp32
 70
     0
102
RTVSPost2010Prop33
280
     0
102
RTVSPost2010PropOp33
 70
     0
102
RTVSPost2010Prop34
280
     0
102
RTVSPost2010PropOp34
 70
     0
102
RTVSPost2010Prop35
280
     0
102
RTVSPost2010PropOp35
 70
     0
102
RTVSPost2010Prop36
280
     0
102
RTVSPost2010PropOp36
 70
     0
102
RTVSPost2010Prop37
 90
       50
102
RTVSPost2010PropOp37
 70
     0
102
RTVSPost2010Prop38
140
0.0
102
RTVSPost2010PropOp38
 70
     0
102
RTVSPost2010Prop39
140
1.0
102
RTVSPost2010PropOp39
 70
     0
102
RTVSPost2010Prop40
 90
        0
102
RTVSPost2010PropOp40
 70
     0
102
RTVSPost2010Prop41ColorIndex
 90
       18
102
RTVSPost2010Prop41ColorRGB
 90
        0
102
RTVSPost2010PropOp41
 70
     0
102
RTVSPost2010Prop42
 90
       50
102
RTVSPost2010PropOp42
 70
     0
102
RTVSPost2010Prop43
 90
        3
102
RTVSPost2010PropOp43
 70
     0
102
RTVSPost2010Prop44ColorIndex
 90
        5
102
RTVSPost2010Prop44ColorRGB
 90
      255
102
RTVSPost2010PropOp44
 70
     0
102
RTVSPost2010Prop45
280
     0
102
RTVSPost2010PropOp45
 70
     0
102
RTVSPost2010Prop46
 90
       50
102
RTVSPost2010PropOp46
 70
     0
102
RTVSPost2010Prop47
 90
       50
102
RTVSPost2010PropOp47
 70
     0
102
RTVSPost2010Prop48
 90
       50
102
RTVSPost2010PropOp48
 70
     0
102
RTVSPost2010Prop49
280
     0
102
RTVSPost2010PropOp49
 70
     0
102
RTVSPost2010Prop50
 90
       50
102
RTVSPost2010PropOp50
 70
     0
102
RTVSPost2010Prop51ColorIndex
 90
      256
102
RTVSPost2010Prop51ColorRGB
 90
-16777216
102
RTVSPost2010PropOp51
 70
     0
102
RTVSPost2010Prop52
140
1.0
102
RTVSPost2010PropOp52
 70
     0
102
RTVSPost2010Prop53
 90
        2
102
RTVSPost2010PropOp53
 70
     0
102
RTVSPost2010Prop54
  1
strokes_ogs.tif
102
RTVSPost2010PropOp54
 70
     0
102
RTVSPost2010Prop55
280
     0
102
RTVSPost2010PropOp55
 70
     0
102
RTVSPost2010Prop56
140
1.0
102
RTVSPost2010PropOp56
 70
     0
102
RTVSPost2010Prop57
140
1.0
102
RTVSPost2010PropOp57
 70
     0
  0
XRECORD
  5
1A4
102
{ACAD_REACTORS
330
1A3
102
}
330
1A3
100
AcDbXrecord
280
     1
102
RTVSPropertyOp0
 70
     1
102
RTVSPropertyOp1
 70
     1
102
RTVSPropertyOp2
 70
     1
102
RTVSPropertyOp3
 70
     1
102
RTVSPropertyOp4
 70
     1
102
RTVSPropertyOp5
 70
     1
102
RTVSPropertyOp6
 70
     1
102
RTVSPropertyOp7
 70
     1
102
RTVSPropertyOp8
 70
     1
102
RTVSPropertyOp9
 70
     1
102
RTVSPropertyOp10
 70
     1
102
RTVSPropertyOp11
 70
     1
102
RTVSPropertyOp12
 70
     1
102
RTVSPropertyOp13
 70
     1
102
RTVSPropertyOp14
 70
     1
102
RTVSPropertyOp15
 70
     1
102
RTVSPropertyOp16
 70
     1
102
RTVSPropertyOp17
 70
     1
102
RTVSPropertyOp18
 70
     1
102
RTVSPropertyOp19
 70
     1
102
RTVSPropertyOp20
 70
     1
102
RTVSPropertyOp21
 70
     1
102
RTVSPropertyOp22
 70
     1
102
RTVSPropertyOp23
 70
     1
102
RTVSPropertyOp24
 70
     1
102
RTVSPropertyOp25
 70
     1
102
RTVSPropertyOp26
 70
     1
102
RTVSPropertyOp27
 70
     1
102
RTVSPropertyOp28
 70
     1
102
RTVSPropertyOp29
 70
     1
102
RTVSPropertyOp30
 70
     1
102
RTVSPropertyOp31
 70
     1
102
RTVSPropertyOp32
 70
     1
102
RTVSPropertyOp33
 70
     1
102
RTVSPropertyOp34
 70
     1
102
RTVSPropertyOp35
 70
     1
102
RTVSPropertyOp36
 70
     1
102
RTVSPropertyOp37
 70
     1
102
RTVSPropertyOp38
 70
     1
102
RTVSPropertyOp39
 70
     1
102
RTVSPropertyOp40
 70
     1
102
RTVSPropertyOp41
 70
     1
102
RTVSPropertyOp42
 70
     1
102
RTVSPropertyOp43
 70
     1
102
RTVSPropertyOp44
 70
     1
102
RTVSPropertyOp45
 70
     1
102
RTVSPropertyOp46
 70
     1
102
RTVSPropertyOp47
 70
     1
102
RTVSPropertyOp48
 70
     1
102
RTVSPropertyOp49
 70
     1
102
RTVSPropertyOp50
 70
     1
102
RTVSPropertyOp51
 70
     0
102
RTVSPropertyOp52
 70
     0
102
RTVSPropertyOp53
 70
     1
102
RTVSPropertyOp54
 70
     1
102
RTVSPropertyOp55
 70
     1
102
RTVSPropertyOp56
 70
     1
102
RTVSPropertyOp57
 70
     1
102
RTVSPost2010Prop28
280
     0
102
RTVSPost2010PropOp28
 70
     1
102
RTVSPost2010Prop29
280
     1
102
RTVSPost2010PropOp29
 70
     1
102
RTVSPost2010Prop30
280
     1
102
RTVSPost2010PropOp30
 70
     1
102
RTVSPost2010Prop31
280
     0
102
RTVSPost2010PropOp31
 70
     1
102
RTVSPost2010Prop32
280
     0
102
RTVSPost2010PropOp32
 70
     1
102
RTVSPost2010Prop33
280
     0
102
RTVSPost2010PropOp33
 70
     1
102
RTVSPost2010Prop34
280
     0
102
RTVSPost2010PropOp34
 70
     1
102
RTVSPost2010Prop35
280
     0
102
RTVSPost2010PropOp35
 70
     1
102
RTVSPost2010Prop36
280
     0
102
RTVSPost2010PropOp36
 70
     1
102
RTVSPost2010Prop37
 90
       50
102
RTVSPost2010PropOp37
 70
     1
102
RTVSPost2010Prop38
140
0.0
102
RTVSPost2010PropOp38
 70
     1
102
RTVSPost2010Prop39
140
1.0
102
RTVSPost2010PropOp39
 70
     1
102
RTVSPost2010Prop40
 90
        0
102
RTVSPost2010PropOp40
 70
     1
102
RTVSPost2010Prop41ColorIndex
 90
       18
102
RTVSPost2010Prop41ColorRGB
 90
        0
102
RTVSPost2010PropOp41
 70
     1
102
RTVSPost2010Prop42
 90
       50
102
RTVSPost2010PropOp42
 70
     1
102
RTVSPost2010Prop43
 90
        3
102
RTVSPost2010PropOp43
 70
     1
102
RTVSPost2010Prop44ColorIndex
 90
        5
102
RTVSPost2010Prop44ColorRGB
 90
      255
102
RTVSPost2010PropOp44
 70
     1
102
RTVSPost2010Prop45
280
     0
102
RTVSPost2010PropOp45
 70
     1
102
RTVSPost2010Prop46
 90
       50
102
RTVSPost2010PropOp46
 70
     1
102
RTVSPost2010Prop47
 90
       50
102
RTVSPost2010PropOp47
 70
     1
102
RTVSPost2010Prop48
 90
       50
102
RTVSPost2010PropOp48
 70
     1
102
RTVSPost2010Prop49
280
     0
102
RTVSPost2010PropOp49
 70
     1
102
RTVSPost2010Prop50
 90
       50
102
RTVSPost2010PropOp50
 70
     1
102
RTVSPost2010Prop51ColorIndex
 90
      256
102
RTVSPost2010Prop51ColorRGB
 90
-16777216
102
RTVSPost2010PropOp51
 70
     0
102
RTVSPost2010Prop52
140
1.0
102
RTVSPost2010PropOp52
 70
     0
102
RTVSPost2010Prop53
 90
        2
102
RTVSPost2010PropOp53
 70
     1
102
RTVSPost2010Prop54
  1
strokes_ogs.tif
102
RTVSPost2010PropOp54
 70
     1
102
RTVSPost2010Prop55
280
     0
102
RTVSPost2010PropOp55
 70
     1
102
RTVSPost2010Prop56
140
1.0
102
RTVSPost2010PropOp56
 70
     1
102
RTVSPost2010Prop57
140
1.0
102
RTVSPost2010PropOp57
 70
     1
  0
XRECORD
  5
188
102
{ACAD_REACTORS
330
187
102
}
330
187
100
AcDbXrecord
280
     1
102
RTVSPropertyOp0
 70
     1
102
RTVSPropertyOp1
 70
     1
102
RTVSPropertyOp2
 70
     1
102
RTVSPropertyOp3
 70
     1
102
RTVSPropertyOp4
 70
     1
102
RTVSPropertyOp5
 70
     1
102
RTVSPropertyOp6
 70
     1
102
RTVSPropertyOp7
 70
     1
102
RTVSPropertyOp8
 70
     1
102
RTVSPropertyOp9
 70
     1
102
RTVSPropertyOp10
 70
     1
102
RTVSPropertyOp11
 70
     1
102
RTVSPropertyOp12
 70
     1
102
RTVSPropertyOp13
 70
     1
102
RTVSPropertyOp14
 70
     1
102
RTVSPropertyOp15
 70
     1
102
RTVSPropertyOp16
 70
     1
102
RTVSPropertyOp17
 70
     1
102
RTVSPropertyOp18
 70
     1
102
RTVSPropertyOp19
 70
     1
102
RTVSPropertyOp20
 70
     1
102
RTVSPropertyOp21
 70
     1
102
RTVSPropertyOp22
 70
     1
102
RTVSPropertyOp23
 70
     1
102
RTVSPropertyOp24
 70
     1
102
RTVSPropertyOp25
 70
     1
102
RTVSPropertyOp26
 70
     1
102
RTVSPropertyOp27
 70
     1
102
RTVSPropertyOp28
 70
     1
102
RTVSPropertyOp29
 70
     1
102
RTVSPropertyOp30
 70
     1
102
RTVSPropertyOp31
 70
     1
102
RTVSPropertyOp32
 70
     1
102
RTVSPropertyOp33
 70
     1
102
RTVSPropertyOp34
 70
     1
102
RTVSPropertyOp35
 70
     1
102
RTVSPropertyOp36
 70
     1
102
RTVSPropertyOp37
 70
     1
102
RTVSPropertyOp38
 70
     1
102
RTVSPropertyOp39
 70
     1
102
RTVSPropertyOp40
 70
     1
102
RTVSPropertyOp41
 70
     1
102
RTVSPropertyOp42
 70
     1
102
RTVSPropertyOp43
 70
     1
102
RTVSPropertyOp44
 70
     1
102
RTVSPropertyOp45
 70
     1
102
RTVSPropertyOp46
 70
     1
102
RTVSPropertyOp47
 70
     1
102
RTVSPropertyOp48
 70
     1
102
RTVSPropertyOp49
 70
     1
102
RTVSPropertyOp50
 70
     1
102
RTVSPropertyOp51
 70
     0
102
RTVSPropertyOp52
 70
     0
102
RTVSPropertyOp53
 70
     1
102
RTVSPropertyOp54
 70
     1
102
RTVSPropertyOp55
 70
     1
102
RTVSPropertyOp56
 70
     1
102
RTVSPropertyOp57
 70
     1
102
RTVSPost2010Prop28
280
     0
102
RTVSPost2010PropOp28
 70
     1
102
RTVSPost2010Prop29
280
     1
102
RTVSPost2010PropOp29
 70
     1
102
RTVSPost2010Prop30
280
     1
102
RTVSPost2010PropOp30
 70
     1
102
RTVSPost2010Prop31
280
     0
102
RTVSPost2010PropOp31
 70
     1
102
RTVSPost2010Prop32
280
     0
102
RTVSPost2010PropOp32
 70
     1
102
RTVSPost2010Prop33
280
     0
102
RTVSPost2010PropOp33
 70
     1
102
RTVSPost2010Prop34
280
     0
102
RTVSPost2010PropOp34
 70
     1
102
RTVSPost2010Prop35
280
     0
102
RTVSPost2010PropOp35
 70
     1
102
RTVSPost2010Prop36
280
     0
102
RTVSPost2010PropOp36
 70
     1
102
RTVSPost2010Prop37
 90
       50
102
RTVSPost2010PropOp37
 70
     1
102
RTVSPost2010Prop38
140
0.0
102
RTVSPost2010PropOp38
 70
     1
102
RTVSPost2010Prop39
140
1.0
102
RTVSPost2010PropOp39
 70
     1
102
RTVSPost2010Prop40
 90
        0
102
RTVSPost2010PropOp40
 70
     1
102
RTVSPost2010Prop41ColorIndex
 90
       18
102
RTVSPost2010Prop41ColorRGB
 90
        0
102
RTVSPost2010PropOp41
 70
     1
102
RTVSPost2010Prop42
 90
       50
102
RTVSPost2010PropOp42
 70
     1
102
RTVSPost2010Prop43
 90
        3
102
RTVSPost2010PropOp43
 70
     1
102
RTVSPost2010Prop44ColorIndex
 90
        5
102
RTVSPost2010Prop44ColorRGB
 90
      255
102
RTVSPost2010PropOp44
 70
     1
102
RTVSPost2010Prop45
280
     0
102
RTVSPost2010PropOp45
 70
     1
102
RTVSPost2010Prop46
 90
       50
102
RTVSPost2010PropOp46
 70
     1
102
RTVSPost2010Prop47
 90
       50
102
RTVSPost2010PropOp47
 70
     1
102
RTVSPost2010Prop48
 90
       50
102
RTVSPost2010PropOp48
 70
     1
102
RTVSPost2010Prop49
280
     0
102
RTVSPost2010PropOp49
 70
     1
102
RTVSPost2010Prop50
 90
       50
102
RTVSPost2010PropOp50
 70
     1
102
RTVSPost2010Prop51ColorIndex
 90
      256
102
RTVSPost2010Prop51ColorRGB
 90
-16777216
102
RTVSPost2010PropOp51
 70
     0
102
RTVSPost2010Prop52
140
1.0
102
RTVSPost2010PropOp52
 70
     0
102
RTVSPost2010Prop53
 90
        2
102
RTVSPost2010PropOp53
 70
     1
102
RTVSPost2010Prop54
  1
strokes_ogs.tif
102
RTVSPost2010PropOp54
 70
     1
102
RTVSPost2010Prop55
280
     0
102
RTVSPost2010PropOp55
 70
     1
102
RTVSPost2010Prop56
140
1.0
102
RTVSPost2010PropOp56
 70
     1
102
RTVSPost2010Prop57
140
1.0
102
RTVSPost2010PropOp57
 70
     1
  0
XRECORD
  5
18A
102
{ACAD_REACTORS
330
189
102
}
330
189
100
AcDbXrecord
280
     1
102
RTVSPropertyOp0
 70
     1
102
RTVSPropertyOp1
 70
     1
102
RTVSPropertyOp2
 70
     1
102
RTVSPropertyOp3
 70
     1
102
RTVSPropertyOp4
 70
     1
102
RTVSPropertyOp5
 70
     1
102
RTVSPropertyOp6
 70
     1
102
RTVSPropertyOp7
 70
     1
102
RTVSPropertyOp8
 70
     1
102
RTVSPropertyOp9
 70
     1
102
RTVSPropertyOp10
 70
     1
102
RTVSPropertyOp11
 70
     1
102
RTVSPropertyOp12
 70
     1
102
RTVSPropertyOp13
 70
     1
102
RTVSPropertyOp14
 70
     1
102
RTVSPropertyOp15
 70
     1
102
RTVSPropertyOp16
 70
     1
102
RTVSPropertyOp17
 70
     1
102
RTVSPropertyOp18
 70
     1
102
RTVSPropertyOp19
 70
     1
102
RTVSPropertyOp20
 70
     1
102
RTVSPropertyOp21
 70
     1
102
RTVSPropertyOp22
 70
     1
102
RTVSPropertyOp23
 70
     1
102
RTVSPropertyOp24
 70
     1
102
RTVSPropertyOp25
 70
     1
102
RTVSPropertyOp26
 70
     1
102
RTVSPropertyOp27
 70
     1
102
RTVSPropertyOp28
 70
     1
102
RTVSPropertyOp29
 70
     1
102
RTVSPropertyOp30
 70
     1
102
RTVSPropertyOp31
 70
     1
102
RTVSPropertyOp32
 70
     1
102
RTVSPropertyOp33
 70
     1
102
RTVSPropertyOp34
 70
     1
102
RTVSPropertyOp35
 70
     1
102
RTVSPropertyOp36
 70
     1
102
RTVSPropertyOp37
 70
     1
102
RTVSPropertyOp38
 70
     1
102
RTVSPropertyOp39
 70
     1
102
RTVSPropertyOp40
 70
     1
102
RTVSPropertyOp41
 70
     1
102
RTVSPropertyOp42
 70
     1
102
RTVSPropertyOp43
 70
     1
102
RTVSPropertyOp44
 70
     1
102
RTVSPropertyOp45
 70
     1
102
RTVSPropertyOp46
 70
     1
102
RTVSPropertyOp47
 70
     1
102
RTVSPropertyOp48
 70
     1
102
RTVSPropertyOp49
 70
     1
102
RTVSPropertyOp50
 70
     1
102
RTVSPropertyOp51
 70
     0
102
RTVSPropertyOp52
 70
     0
102
RTVSPropertyOp53
 70
     1
102
RTVSPropertyOp54
 70
     1
102
RTVSPropertyOp55
 70
     1
102
RTVSPropertyOp56
 70
     1
102
RTVSPropertyOp57
 70
     1
102
RTVSPost2010Prop28
280
     0
102
RTVSPost2010PropOp28
 70
     1
102
RTVSPost2010Prop29
280
     1
102
RTVSPost2010PropOp29
 70
     1
102
RTVSPost2010Prop30
280
     1
102
RTVSPost2010PropOp30
 70
     1
102
RTVSPost2010Prop31
280
     0
102
RTVSPost2010PropOp31
 70
     1
102
RTVSPost2010Prop32
280
     0
102
RTVSPost2010PropOp32
 70
     1
102
RTVSPost2010Prop33
280
     0
102
RTVSPost2010PropOp33
 70
     1
102
RTVSPost2010Prop34
280
     0
102
RTVSPost2010PropOp34
 70
     1
102
RTVSPost2010Prop35
280
     0
102
RTVSPost2010PropOp35
 70
     1
102
RTVSPost2010Prop36
280
     0
102
RTVSPost2010PropOp36
 70
     1
102
RTVSPost2010Prop37
 90
       50
102
RTVSPost2010PropOp37
 70
     1
102
RTVSPost2010Prop38
140
0.0
102
RTVSPost2010PropOp38
 70
     1
102
RTVSPost2010Prop39
140
1.0
102
RTVSPost2010PropOp39
 70
     1
102
RTVSPost2010Prop40
 90
        0
102
RTVSPost2010PropOp40
 70
     1
102
RTVSPost2010Prop41ColorIndex
 90
       18
102
RTVSPost2010Prop41ColorRGB
 90
        0
102
RTVSPost2010PropOp41
 70
     1
102
RTVSPost2010Prop42
 90
       50
102
RTVSPost2010PropOp42
 70
     1
102
RTVSPost2010Prop43
 90
        3
102
RTVSPost2010PropOp43
 70
     1
102
RTVSPost2010Prop44ColorIndex
 90
        5
102
RTVSPost2010Prop44ColorRGB
 90
      255
102
RTVSPost2010PropOp44
 70
     1
102
RTVSPost2010Prop45
280
     0
102
RTVSPost2010PropOp45
 70
     1
102
RTVSPost2010Prop46
 90
       50
102
RTVSPost2010PropOp46
 70
     1
102
RTVSPost2010Prop47
 90
       50
102
RTVSPost2010PropOp47
 70
     1
102
RTVSPost2010Prop48
 90
       50
102
RTVSPost2010PropOp48
 70
     1
102
RTVSPost2010Prop49
280
     0
102
RTVSPost2010PropOp49
 70
     1
102
RTVSPost2010Prop50
 90
       50
102
RTVSPost2010PropOp50
 70
     1
102
RTVSPost2010Prop51ColorIndex
 90
      256
102
RTVSPost2010Prop51ColorRGB
 90
-16777216
102
RTVSPost2010PropOp51
 70
     0
102
RTVSPost2010Prop52
140
1.0
102
RTVSPost2010PropOp52
 70
     0
102
RTVSPost2010Prop53
 90
        2
102
RTVSPost2010PropOp53
 70
     1
102
RTVSPost2010Prop54
  1
strokes_ogs.tif
102
RTVSPost2010PropOp54
 70
     1
102
RTVSPost2010Prop55
280
     0
102
RTVSPost2010PropOp55
 70
     1
102
RTVSPost2010Prop56
140
1.0
102
RTVSPost2010PropOp56
 70
     1
102
RTVSPost2010Prop57
140
1.0
102
RTVSPost2010PropOp57
 70
     1
  0
XRECORD
  5
18C
102
{ACAD_REACTORS
330
18B
102
}
330
18B
100
AcDbXrecord
280
     1
102
RTVSPropertyOp0
 70
     1
102
RTVSPropertyOp1
 70
     1
102
RTVSPropertyOp2
 70
     1
102
RTVSPropertyOp3
 70
     1
102
RTVSPropertyOp4
 70
     1
102
RTVSPropertyOp5
 70
     1
102
RTVSPropertyOp6
 70
     1
102
RTVSPropertyOp7
 70
     1
102
RTVSPropertyOp8
 70
     1
102
RTVSPropertyOp9
 70
     1
102
RTVSPropertyOp10
 70
     1
102
RTVSPropertyOp11
 70
     1
102
RTVSPropertyOp12
 70
     1
102
RTVSPropertyOp13
 70
     1
102
RTVSPropertyOp14
 70
     1
102
RTVSPropertyOp15
 70
     1
102
RTVSPropertyOp16
 70
     1
102
RTVSPropertyOp17
 70
     1
102
RTVSPropertyOp18
 70
     1
102
RTVSPropertyOp19
 70
     1
102
RTVSPropertyOp20
 70
     1
102
RTVSPropertyOp21
 70
     1
102
RTVSPropertyOp22
 70
     1
102
RTVSPropertyOp23
 70
     1
102
RTVSPropertyOp24
 70
     1
102
RTVSPropertyOp25
 70
     1
102
RTVSPropertyOp26
 70
     1
102
RTVSPropertyOp27
 70
     1
102
RTVSPropertyOp28
 70
     1
102
RTVSPropertyOp29
 70
     1
102
RTVSPropertyOp30
 70
     1
102
RTVSPropertyOp31
 70
     1
102
RTVSPropertyOp32
 70
     1
102
RTVSPropertyOp33
 70
     1
102
RTVSPropertyOp34
 70
     1
102
RTVSPropertyOp35
 70
     1
102
RTVSPropertyOp36
 70
     1
102
RTVSPropertyOp37
 70
     1
102
RTVSPropertyOp38
 70
     1
102
RTVSPropertyOp39
 70
     1
102
RTVSPropertyOp40
 70
     1
102
RTVSPropertyOp41
 70
     1
102
RTVSPropertyOp42
 70
     1
102
RTVSPropertyOp43
 70
     1
102
RTVSPropertyOp44
 70
     1
102
RTVSPropertyOp45
 70
     1
102
RTVSPropertyOp46
 70
     1
102
RTVSPropertyOp47
 70
     1
102
RTVSPropertyOp48
 70
     1
102
RTVSPropertyOp49
 70
     1
102
RTVSPropertyOp50
 70
     1
102
RTVSPropertyOp51
 70
     0
102
RTVSPropertyOp52
 70
     0
102
RTVSPropertyOp53
 70
     1
102
RTVSPropertyOp54
 70
     1
102
RTVSPropertyOp55
 70
     1
102
RTVSPropertyOp56
 70
     1
102
RTVSPropertyOp57
 70
     1
102
RTVSPost2010Prop28
280
     0
102
RTVSPost2010PropOp28
 70
     1
102
RTVSPost2010Prop29
280
     1
102
RTVSPost2010PropOp29
 70
     1
102
RTVSPost2010Prop30
280
     1
102
RTVSPost2010PropOp30
 70
     1
102
RTVSPost2010Prop31
280
     0
102
RTVSPost2010PropOp31
 70
     1
102
RTVSPost2010Prop32
280
     0
102
RTVSPost2010PropOp32
 70
     1
102
RTVSPost2010Prop33
280
     0
102
RTVSPost2010PropOp33
 70
     1
102
RTVSPost2010Prop34
280
     0
102
RTVSPost2010PropOp34
 70
     1
102
RTVSPost2010Prop35
280
     0
102
RTVSPost2010PropOp35
 70
     1
102
RTVSPost2010Prop36
280
     0
102
RTVSPost2010PropOp36
 70
     1
102
RTVSPost2010Prop37
 90
       50
102
RTVSPost2010PropOp37
 70
     1
102
RTVSPost2010Prop38
140
0.0
102
RTVSPost2010PropOp38
 70
     1
102
RTVSPost2010Prop39
140
1.0
102
RTVSPost2010PropOp39
 70
     1
102
RTVSPost2010Prop40
 90
        0
102
RTVSPost2010PropOp40
 70
     1
102
RTVSPost2010Prop41ColorIndex
 90
       18
102
RTVSPost2010Prop41ColorRGB
 90
        0
102
RTVSPost2010PropOp41
 70
     1
102
RTVSPost2010Prop42
 90
       50
102
RTVSPost2010PropOp42
 70
     1
102
RTVSPost2010Prop43
 90
        3
102
RTVSPost2010PropOp43
 70
     1
102
RTVSPost2010Prop44ColorIndex
 90
        5
102
RTVSPost2010Prop44ColorRGB
 90
      255
102
RTVSPost2010PropOp44
 70
     1
102
RTVSPost2010Prop45
280
     0
102
RTVSPost2010PropOp45
 70
     1
102
RTVSPost2010Prop46
 90
       50
102
RTVSPost2010PropOp46
 70
     1
102
RTVSPost2010Prop47
 90
       50
102
RTVSPost2010PropOp47
 70
     1
102
RTVSPost2010Prop48
 90
       50
102
RTVSPost2010PropOp48
 70
     1
102
RTVSPost2010Prop49
280
     0
102
RTVSPost2010PropOp49
 70
     1
102
RTVSPost2010Prop50
 90
       50
102
RTVSPost2010PropOp50
 70
     1
102
RTVSPost2010Prop51ColorIndex
 90
      256
102
RTVSPost2010Prop51ColorRGB
 90
-16777216
102
RTVSPost2010PropOp51
 70
     0
102
RTVSPost2010Prop52
140
1.0
102
RTVSPost2010PropOp52
 70
     0
102
RTVSPost2010Prop53
 90
        2
102
RTVSPost2010PropOp53
 70
     1
102
RTVSPost2010Prop54
  1
strokes_ogs.tif
102
RTVSPost2010PropOp54
 70
     1
102
RTVSPost2010Prop55
280
     0
102
RTVSPost2010PropOp55
 70
     1
102
RTVSPost2010Prop56
140
1.0
102
RTVSPost2010PropOp56
 70
     1
102
RTVSPost2010Prop57
140
1.0
102
RTVSPost2010PropOp57
 70
     1
  0
XRECORD
  5
18E
102
{ACAD_REACTORS
330
18D
102
}
330
18D
100
AcDbXrecord
280
     1
102
RTVSPropertyOp0
 70
     1
102
RTVSPropertyOp1
 70
     1
102
RTVSPropertyOp2
 70
     1
102
RTVSPropertyOp3
 70
     1
102
RTVSPropertyOp4
 70
     1
102
RTVSPropertyOp5
 70
     1
102
RTVSPropertyOp6
 70
     1
102
RTVSPropertyOp7
 70
     1
102
RTVSPropertyOp8
 70
     1
102
RTVSPropertyOp9
 70
     1
102
RTVSPropertyOp10
 70
     1
102
RTVSPropertyOp11
 70
     1
102
RTVSPropertyOp12
 70
     1
102
RTVSPropertyOp13
 70
     1
102
RTVSPropertyOp14
 70
     1
102
RTVSPropertyOp15
 70
     1
102
RTVSPropertyOp16
 70
     1
102
RTVSPropertyOp17
 70
     1
102
RTVSPropertyOp18
 70
     1
102
RTVSPropertyOp19
 70
     1
102
RTVSPropertyOp20
 70
     1
102
RTVSPropertyOp21
 70
     1
102
RTVSPropertyOp22
 70
     1
102
RTVSPropertyOp23
 70
     1
102
RTVSPropertyOp24
 70
     1
102
RTVSPropertyOp25
 70
     1
102
RTVSPropertyOp26
 70
     1
102
RTVSPropertyOp27
 70
     1
102
RTVSPropertyOp28
 70
     1
102
RTVSPropertyOp29
 70
     1
102
RTVSPropertyOp30
 70
     1
102
RTVSPropertyOp31
 70
     1
102
RTVSPropertyOp32
 70
     1
102
RTVSPropertyOp33
 70
     1
102
RTVSPropertyOp34
 70
     1
102
RTVSPropertyOp35
 70
     1
102
RTVSPropertyOp36
 70
     1
102
RTVSPropertyOp37
 70
     1
102
RTVSPropertyOp38
 70
     1
102
RTVSPropertyOp39
 70
     1
102
RTVSPropertyOp40
 70
     1
102
RTVSPropertyOp41
 70
     1
102
RTVSPropertyOp42
 70
     1
102
RTVSPropertyOp43
 70
     1
102
RTVSPropertyOp44
 70
     1
102
RTVSPropertyOp45
 70
     1
102
RTVSPropertyOp46
 70
     1
102
RTVSPropertyOp47
 70
     1
102
RTVSPropertyOp48
 70
     1
102
RTVSPropertyOp49
 70
     1
102
RTVSPropertyOp50
 70
     1
102
RTVSPropertyOp51
 70
     0
102
RTVSPropertyOp52
 70
     0
102
RTVSPropertyOp53
 70
     1
102
RTVSPropertyOp54
 70
     1
102
RTVSPropertyOp55
 70
     1
102
RTVSPropertyOp56
 70
     1
102
RTVSPropertyOp57
 70
     1
102
RTVSPost2010Prop28
280
     0
102
RTVSPost2010PropOp28
 70
     1
102
RTVSPost2010Prop29
280
     1
102
RTVSPost2010PropOp29
 70
     1
102
RTVSPost2010Prop30
280
     1
102
RTVSPost2010PropOp30
 70
     1
102
RTVSPost2010Prop31
280
     0
102
RTVSPost2010PropOp31
 70
     1
102
RTVSPost2010Prop32
280
     0
102
RTVSPost2010PropOp32
 70
     1
102
RTVSPost2010Prop33
280
     0
102
RTVSPost2010PropOp33
 70
     1
102
RTVSPost2010Prop34
280
     0
102
RTVSPost2010PropOp34
 70
     1
102
RTVSPost2010Prop35
280
     0
102
RTVSPost2010PropOp35
 70
     1
102
RTVSPost2010Prop36
280
     0
102
RTVSPost2010PropOp36
 70
     1
102
RTVSPost2010Prop37
 90
       50
102
RTVSPost2010PropOp37
 70
     1
102
RTVSPost2010Prop38
140
0.0
102
RTVSPost2010PropOp38
 70
     1
102
RTVSPost2010Prop39
140
1.0
102
RTVSPost2010PropOp39
 70
     1
102
RTVSPost2010Prop40
 90
        0
102
RTVSPost2010PropOp40
 70
     1
102
RTVSPost2010Prop41ColorIndex
 90
       18
102
RTVSPost2010Prop41ColorRGB
 90
        0
102
RTVSPost2010PropOp41
 70
     1
102
RTVSPost2010Prop42
 90
       50
102
RTVSPost2010PropOp42
 70
     1
102
RTVSPost2010Prop43
 90
        3
102
RTVSPost2010PropOp43
 70
     1
102
RTVSPost2010Prop44ColorIndex
 90
        5
102
RTVSPost2010Prop44ColorRGB
 90
      255
102
RTVSPost2010PropOp44
 70
     1
102
RTVSPost2010Prop45
280
     0
102
RTVSPost2010PropOp45
 70
     1
102
RTVSPost2010Prop46
 90
       50
102
RTVSPost2010PropOp46
 70
     1
102
RTVSPost2010Prop47
 90
       50
102
RTVSPost2010PropOp47
 70
     1
102
RTVSPost2010Prop48
 90
       50
102
RTVSPost2010PropOp48
 70
     1
102
RTVSPost2010Prop49
280
     0
102
RTVSPost2010PropOp49
 70
     1
102
RTVSPost2010Prop50
 90
       50
102
RTVSPost2010PropOp50
 70
     1
102
RTVSPost2010Prop51ColorIndex
 90
      256
102
RTVSPost2010Prop51ColorRGB
 90
-16777216
102
RTVSPost2010PropOp51
 70
     0
102
RTVSPost2010Prop52
140
1.0
102
RTVSPost2010PropOp52
 70
     0
102
RTVSPost2010Prop53
 90
        2
102
RTVSPost2010PropOp53
 70
     1
102
RTVSPost2010Prop54
  1
strokes_ogs.tif
102
RTVSPost2010PropOp54
 70
     1
102
RTVSPost2010Prop55
280
     0
102
RTVSPost2010PropOp55
 70
     1
102
RTVSPost2010Prop56
140
1.0
102
RTVSPost2010PropOp56
 70
     1
102
RTVSPost2010Prop57
140
1.0
102
RTVSPost2010PropOp57
 70
     1
  0
XRECORD
  5
194
102
{ACAD_REACTORS
330
193
102
}
330
193
100
AcDbXrecord
280
     1
102
RTVSPropertyOp0
 70
     1
102
RTVSPropertyOp1
 70
     1
102
RTVSPropertyOp2
 70
     1
102
RTVSPropertyOp3
 70
     1
102
RTVSPropertyOp4
 70
     1
102
RTVSPropertyOp5
 70
     1
102
RTVSPropertyOp6
 70
     1
102
RTVSPropertyOp7
 70
     1
102
RTVSPropertyOp8
 70
     1
102
RTVSPropertyOp9
 70
     1
102
RTVSPropertyOp10
 70
     1
102
RTVSPropertyOp11
 70
     1
102
RTVSPropertyOp12
 70
     1
102
RTVSPropertyOp13
 70
     1
102
RTVSPropertyOp14
 70
     1
102
RTVSPropertyOp15
 70
     1
102
RTVSPropertyOp16
 70
     1
102
RTVSPropertyOp17
 70
     1
102
RTVSPropertyOp18
 70
     1
102
RTVSPropertyOp19
 70
     1
102
RTVSPropertyOp20
 70
     1
102
RTVSPropertyOp21
 70
     1
102
RTVSPropertyOp22
 70
     1
102
RTVSPropertyOp23
 70
     1
102
RTVSPropertyOp24
 70
     1
102
RTVSPropertyOp25
 70
     1
102
RTVSPropertyOp26
 70
     1
102
RTVSPropertyOp27
 70
     1
102
RTVSPropertyOp28
 70
     1
102
RTVSPropertyOp29
 70
     1
102
RTVSPropertyOp30
 70
     1
102
RTVSPropertyOp31
 70
     1
102
RTVSPropertyOp32
 70
     1
102
RTVSPropertyOp33
 70
     1
102
RTVSPropertyOp34
 70
     1
102
RTVSPropertyOp35
 70
     1
102
RTVSPropertyOp36
 70
     1
102
RTVSPropertyOp37
 70
     1
102
RTVSPropertyOp38
 70
     1
102
RTVSPropertyOp39
 70
     1
102
RTVSPropertyOp40
 70
     1
102
RTVSPropertyOp41
 70
     1
102
RTVSPropertyOp42
 70
     1
102
RTVSPropertyOp43
 70
     1
102
RTVSPropertyOp44
 70
     1
102
RTVSPropertyOp45
 70
     1
102
RTVSPropertyOp46
 70
     1
102
RTVSPropertyOp47
 70
     1
102
RTVSPropertyOp48
 70
     1
102
RTVSPropertyOp49
 70
     1
102
RTVSPropertyOp50
 70
     1
102
RTVSPropertyOp51
 70
     0
102
RTVSPropertyOp52
 70
     0
102
RTVSPropertyOp53
 70
     1
102
RTVSPropertyOp54
 70
     1
102
RTVSPropertyOp55
 70
     1
102
RTVSPropertyOp56
 70
     1
102
RTVSPropertyOp57
 70
     1
102
RTVSPost2010Prop28
280
     0
102
RTVSPost2010PropOp28
 70
     1
102
RTVSPost2010Prop29
280
     1
102
RTVSPost2010PropOp29
 70
     1
102
RTVSPost2010Prop30
280
     1
102
RTVSPost2010PropOp30
 70
     1
102
RTVSPost2010Prop31
280
     0
102
RTVSPost2010PropOp31
 70
     1
102
RTVSPost2010Prop32
280
     0
102
RTVSPost2010PropOp32
 70
     1
102
RTVSPost2010Prop33
280
     0
102
RTVSPost2010PropOp33
 70
     1
102
RTVSPost2010Prop34
280
     0
102
RTVSPost2010PropOp34
 70
     1
102
RTVSPost2010Prop35
280
     0
102
RTVSPost2010PropOp35
 70
     1
102
RTVSPost2010Prop36
280
     0
102
RTVSPost2010PropOp36
 70
     1
102
RTVSPost2010Prop37
 90
       50
102
RTVSPost2010PropOp37
 70
     1
102
RTVSPost2010Prop38
140
0.0
102
RTVSPost2010PropOp38
 70
     1
102
RTVSPost2010Prop39
140
1.0
102
RTVSPost2010PropOp39
 70
     1
102
RTVSPost2010Prop40
 90
        0
102
RTVSPost2010PropOp40
 70
     1
102
RTVSPost2010Prop41ColorIndex
 90
       18
102
RTVSPost2010Prop41ColorRGB
 90
        0
102
RTVSPost2010PropOp41
 70
     1
102
RTVSPost2010Prop42
 90
       50
102
RTVSPost2010PropOp42
 70
     1
102
RTVSPost2010Prop43
 90
        3
102
RTVSPost2010PropOp43
 70
     1
102
RTVSPost2010Prop44ColorIndex
 90
        5
102
RTVSPost2010Prop44ColorRGB
 90
      255
102
RTVSPost2010PropOp44
 70
     1
102
RTVSPost2010Prop45
280
     0
102
RTVSPost2010PropOp45
 70
     1
102
RTVSPost2010Prop46
 90
       50
102
RTVSPost2010PropOp46
 70
     1
102
RTVSPost2010Prop47
 90
       50
102
RTVSPost2010PropOp47
 70
     1
102
RTVSPost2010Prop48
 90
       50
102
RTVSPost2010PropOp48
 70
     1
102
RTVSPost2010Prop49
280
     0
102
RTVSPost2010PropOp49
 70
     1
102
RTVSPost2010Prop50
 90
       50
102
RTVSPost2010PropOp50
 70
     1
102
RTVSPost2010Prop51ColorIndex
 90
      256
102
RTVSPost2010Prop51ColorRGB
 90
-16777216
102
RTVSPost2010PropOp51
 70
     0
102
RTVSPost2010Prop52
140
1.0
102
RTVSPost2010PropOp52
 70
     0
102
RTVSPost2010Prop53
 90
        2
102
RTVSPost2010PropOp53
 70
     1
102
RTVSPost2010Prop54
  1
strokes_ogs.tif
102
RTVSPost2010PropOp54
 70
     1
102
RTVSPost2010Prop55
280
     0
102
RTVSPost2010PropOp55
 70
     1
102
RTVSPost2010Prop56
140
1.0
102
RTVSPost2010PropOp56
 70
     1
102
RTVSPost2010Prop57
140
1.0
102
RTVSPost2010PropOp57
 70
     1
  0
XRECORD
  5
1A8
102
{ACAD_REACTORS
330
1A7
102
}
330
1A7
100
AcDbXrecord
280
     1
102
RTVSPropertyOp0
 70
     0
102
RTVSPropertyOp1
 70
     0
102
RTVSPropertyOp2
 70
     0
102
RTVSPropertyOp3
 70
     0
102
RTVSPropertyOp4
 70
     0
102
RTVSPropertyOp5
 70
     0
102
RTVSPropertyOp6
 70
     0
102
RTVSPropertyOp7
 70
     0
102
RTVSPropertyOp8
 70
     0
102
RTVSPropertyOp9
 70
     0
102
RTVSPropertyOp10
 70
     0
102
RTVSPropertyOp11
 70
     0
102
RTVSPropertyOp12
 70
     0
102
RTVSPropertyOp13
 70
     0
102
RTVSPropertyOp14
 70
     2
102
RTVSPropertyOp15
 70
     0
102
RTVSPropertyOp16
 70
     0
102
RTVSPropertyOp17
 70
     0
102
RTVSPropertyOp18
 70
     0
102
RTVSPropertyOp19
 70
     0
102
RTVSPropertyOp20
 70
     0
102
RTVSPropertyOp21
 70
     0
102
RTVSPropertyOp22
 70
     0
102
RTVSPropertyOp23
 70
     0
102
RTVSPropertyOp24
 70
     0
102
RTVSPropertyOp25
 70
     0
102
RTVSPropertyOp26
 70
     0
102
RTVSPropertyOp27
 70
     0
102
RTVSPropertyOp28
 70
     0
102
RTVSPropertyOp29
 70
     0
102
RTVSPropertyOp30
 70
     0
102
RTVSPropertyOp31
 70
     0
102
RTVSPropertyOp32
 70
     0
102
RTVSPropertyOp33
 70
     0
102
RTVSPropertyOp34
 70
     0
102
RTVSPropertyOp35
 70
     0
102
RTVSPropertyOp36
 70
     0
102
RTVSPropertyOp37
 70
     0
102
RTVSPropertyOp38
 70
     0
102
RTVSPropertyOp39
 70
     0
102
RTVSPropertyOp40
 70
     0
102
RTVSPropertyOp41
 70
     0
102
RTVSPropertyOp42
 70
     0
102
RTVSPropertyOp43
 70
     0
102
RTVSPropertyOp44
 70
     0
102
RTVSPropertyOp45
 70
     0
102
RTVSPropertyOp46
 70
     0
102
RTVSPropertyOp47
 70
     0
102
RTVSPropertyOp48
 70
     0
102
RTVSPropertyOp49
 70
     0
102
RTVSPropertyOp50
 70
     0
102
RTVSPropertyOp51
 70
     0
102
RTVSPropertyOp52
 70
     0
102
RTVSPropertyOp53
 70
     0
102
RTVSPropertyOp54
 70
     0
102
RTVSPropertyOp55
 70
     0
102
RTVSPropertyOp56
 70
     0
102
RTVSPropertyOp57
 70
     0
102
RTVSPost2010Prop28
280
     0
102
RTVSPost2010PropOp28
 70
     0
102
RTVSPost2010Prop29
280
     1
102
RTVSPost2010PropOp29
 70
     0
102
RTVSPost2010Prop30
280
     1
102
RTVSPost2010PropOp30
 70
     0
102
RTVSPost2010Prop31
280
     0
102
RTVSPost2010PropOp31
 70
     0
102
RTVSPost2010Prop32
280
     0
102
RTVSPost2010PropOp32
 70
     0
102
RTVSPost2010Prop33
280
     0
102
RTVSPost2010PropOp33
 70
     0
102
RTVSPost2010Prop34
280
     0
102
RTVSPost2010PropOp34
 70
     0
102
RTVSPost2010Prop35
280
     0
102
RTVSPost2010PropOp35
 70
     0
102
RTVSPost2010Prop36
280
     0
102
RTVSPost2010PropOp36
 70
     0
102
RTVSPost2010Prop37
 90
       50
102
RTVSPost2010PropOp37
 70
     0
102
RTVSPost2010Prop38
140
0.0
102
RTVSPost2010PropOp38
 70
     0
102
RTVSPost2010Prop39
140
1.0
102
RTVSPost2010PropOp39
 70
     0
102
RTVSPost2010Prop40
 90
        0
102
RTVSPost2010PropOp40
 70
     0
102
RTVSPost2010Prop41ColorIndex
 90
       18
102
RTVSPost2010Prop41ColorRGB
 90
        0
102
RTVSPost2010PropOp41
 70
     0
102
RTVSPost2010Prop42
 90
       50
102
RTVSPost2010PropOp42
 70
     0
102
RTVSPost2010Prop43
 90
        3
102
RTVSPost2010PropOp43
 70
     0
102
RTVSPost2010Prop44ColorIndex
 90
        5
102
RTVSPost2010Prop44ColorRGB
 90
      255
102
RTVSPost2010PropOp44
 70
     0
102
RTVSPost2010Prop45
280
     0
102
RTVSPost2010PropOp45
 70
     0
102
RTVSPost2010Prop46
 90
       50
102
RTVSPost2010PropOp46
 70
     0
102
RTVSPost2010Prop47
 90
       50
102
RTVSPost2010PropOp47
 70
     0
102
RTVSPost2010Prop48
 90
       50
102
RTVSPost2010PropOp48
 70
     0
102
RTVSPost2010Prop49
280
     0
102
RTVSPost2010PropOp49
 70
     0
102
RTVSPost2010Prop50
 90
       50
102
RTVSPost2010PropOp50
 70
     0
102
RTVSPost2010Prop51ColorIndex
 90
      256
102
RTVSPost2010Prop51ColorRGB
 90
-16777216
102
RTVSPost2010PropOp51
 70
     0
102
RTVSPost2010Prop52
140
1.0
102
RTVSPost2010PropOp52
 70
     0
102
RTVSPost2010Prop53
 90
        2
102
RTVSPost2010PropOp53
 70
     0
102
RTVSPost2010Prop54
  1
strokes_ogs.tif
102
RTVSPost2010PropOp54
 70
     0
102
RTVSPost2010Prop55
280
     0
102
RTVSPost2010PropOp55
 70
     0
102
RTVSPost2010Prop56
140
1.0
102
RTVSPost2010PropOp56
 70
     0
102
RTVSPost2010Prop57
140
1.0
102
RTVSPost2010PropOp57
 70
     0
  0
XRECORD
  5
1A2
102
{ACAD_REACTORS
330
1A1
102
}
330
1A1
100
AcDbXrecord
280
     1
102
RTVSPropertyOp0
 70
     1
102
RTVSPropertyOp1
 70
     1
102
RTVSPropertyOp2
 70
     1
102
RTVSPropertyOp3
 70
     1
102
RTVSPropertyOp4
 70
     1
102
RTVSPropertyOp5
 70
     1
102
RTVSPropertyOp6
 70
     1
102
RTVSPropertyOp7
 70
     1
102
RTVSPropertyOp8
 70
     1
102
RTVSPropertyOp9
 70
     1
102
RTVSPropertyOp10
 70
     1
102
RTVSPropertyOp11
 70
     1
102
RTVSPropertyOp12
 70
     1
102
RTVSPropertyOp13
 70
     1
102
RTVSPropertyOp14
 70
     1
102
RTVSPropertyOp15
 70
     1
102
RTVSPropertyOp16
 70
     1
102
RTVSPropertyOp17
 70
     1
102
RTVSPropertyOp18
 70
     1
102
RTVSPropertyOp19
 70
     1
102
RTVSPropertyOp20
 70
     1
102
RTVSPropertyOp21
 70
     1
102
RTVSPropertyOp22
 70
     1
102
RTVSPropertyOp23
 70
     1
102
RTVSPropertyOp24
 70
     1
102
RTVSPropertyOp25
 70
     1
102
RTVSPropertyOp26
 70
     1
102
RTVSPropertyOp27
 70
     1
102
RTVSPropertyOp28
 70
     1
102
RTVSPropertyOp29
 70
     1
102
RTVSPropertyOp30
 70
     1
102
RTVSPropertyOp31
 70
     1
102
RTVSPropertyOp32
 70
     1
102
RTVSPropertyOp33
 70
     1
102
RTVSPropertyOp34
 70
     1
102
RTVSPropertyOp35
 70
     1
102
RTVSPropertyOp36
 70
     1
102
RTVSPropertyOp37
 70
     1
102
RTVSPropertyOp38
 70
     1
102
RTVSPropertyOp39
 70
     1
102
RTVSPropertyOp40
 70
     1
102
RTVSPropertyOp41
 70
     1
102
RTVSPropertyOp42
 70
     1
102
RTVSPropertyOp43
 70
     1
102
RTVSPropertyOp44
 70
     1
102
RTVSPropertyOp45
 70
     1
102
RTVSPropertyOp46
 70
     1
102
RTVSPropertyOp47
 70
     1
102
RTVSPropertyOp48
 70
     1
102
RTVSPropertyOp49
 70
     1
102
RTVSPropertyOp50
 70
     1
102
RTVSPropertyOp51
 70
     0
102
RTVSPropertyOp52
 70
     0
102
RTVSPropertyOp53
 70
     1
102
RTVSPropertyOp54
 70
     1
102
RTVSPropertyOp55
 70
     1
102
RTVSPropertyOp56
 70
     1
102
RTVSPropertyOp57
 70
     1
102
RTVSPost2010Prop28
280
     0
102
RTVSPost2010PropOp28
 70
     1
102
RTVSPost2010Prop29
280
     1
102
RTVSPost2010PropOp29
 70
     1
102
RTVSPost2010Prop30
280
     1
102
RTVSPost2010PropOp30
 70
     1
102
RTVSPost2010Prop31
280
     0
102
RTVSPost2010PropOp31
 70
     1
102
RTVSPost2010Prop32
280
     0
102
RTVSPost2010PropOp32
 70
     1
102
RTVSPost2010Prop33
280
     0
102
RTVSPost2010PropOp33
 70
     1
102
RTVSPost2010Prop34
280
     0
102
RTVSPost2010PropOp34
 70
     1
102
RTVSPost2010Prop35
280
     0
102
RTVSPost2010PropOp35
 70
     1
102
RTVSPost2010Prop36
280
     0
102
RTVSPost2010PropOp36
 70
     1
102
RTVSPost2010Prop37
 90
       50
102
RTVSPost2010PropOp37
 70
     1
102
RTVSPost2010Prop38
140
0.0
102
RTVSPost2010PropOp38
 70
     1
102
RTVSPost2010Prop39
140
1.0
102
RTVSPost2010PropOp39
 70
     1
102
RTVSPost2010Prop40
 90
        0
102
RTVSPost2010PropOp40
 70
     1
102
RTVSPost2010Prop41ColorIndex
 90
       18
102
RTVSPost2010Prop41ColorRGB
 90
        0
102
RTVSPost2010PropOp41
 70
     1
102
RTVSPost2010Prop42
 90
       50
102
RTVSPost2010PropOp42
 70
     1
102
RTVSPost2010Prop43
 90
        3
102
RTVSPost2010PropOp43
 70
     1
102
RTVSPost2010Prop44ColorIndex
 90
        5
102
RTVSPost2010Prop44ColorRGB
 90
      255
102
RTVSPost2010PropOp44
 70
     1
102
RTVSPost2010Prop45
280
     0
102
RTVSPost2010PropOp45
 70
     1
102
RTVSPost2010Prop46
 90
       50
102
RTVSPost2010PropOp46
 70
     1
102
RTVSPost2010Prop47
 90
       50
102
RTVSPost2010PropOp47
 70
     1
102
RTVSPost2010Prop48
 90
       50
102
RTVSPost2010PropOp48
 70
     1
102
RTVSPost2010Prop49
280
     0
102
RTVSPost2010PropOp49
 70
     1
102
RTVSPost2010Prop50
 90
       50
102
RTVSPost2010PropOp50
 70
     1
102
RTVSPost2010Prop51ColorIndex
 90
      256
102
RTVSPost2010Prop51ColorRGB
 90
-16777216
102
RTVSPost2010PropOp51
 70
     0
102
RTVSPost2010Prop52
140
1.0
102
RTVSPost2010PropOp52
 70
     0
102
RTVSPost2010Prop53
 90
        2
102
RTVSPost2010PropOp53
 70
     1
102
RTVSPost2010Prop54
  1
strokes_ogs.tif
102
RTVSPost2010PropOp54
 70
     1
102
RTVSPost2010Prop55
280
     0
102
RTVSPost2010PropOp55
 70
     1
102
RTVSPost2010Prop56
140
1.0
102
RTVSPost2010PropOp56
 70
     1
102
RTVSPost2010Prop57
140
1.0
102
RTVSPost2010PropOp57
 70
     1
  0
XRECORD
  5
1AA
102
{ACAD_REACTORS
330
1A9
102
}
330
1A9
100
AcDbXrecord
280
     1
102
RTVSPropertyOp0
 70
     0
102
RTVSPropertyOp1
 70
     0
102
RTVSPropertyOp2
 70
     0
102
RTVSPropertyOp3
 70
     0
102
RTVSPropertyOp4
 70
     0
102
RTVSPropertyOp5
 70
     0
102
RTVSPropertyOp6
 70
     0
102
RTVSPropertyOp7
 70
     0
102
RTVSPropertyOp8
 70
     0
102
RTVSPropertyOp9
 70
     0
102
RTVSPropertyOp10
 70
     0
102
RTVSPropertyOp11
 70
     0
102
RTVSPropertyOp12
 70
     0
102
RTVSPropertyOp13
 70
     0
102
RTVSPropertyOp14
 70
     2
102
RTVSPropertyOp15
 70
     0
102
RTVSPropertyOp16
 70
     0
102
RTVSPropertyOp17
 70
     0
102
RTVSPropertyOp18
 70
     0
102
RTVSPropertyOp19
 70
     0
102
RTVSPropertyOp20
 70
     0
102
RTVSPropertyOp21
 70
     0
102
RTVSPropertyOp22
 70
     0
102
RTVSPropertyOp23
 70
     0
102
RTVSPropertyOp24
 70
     0
102
RTVSPropertyOp25
 70
     0
102
RTVSPropertyOp26
 70
     0
102
RTVSPropertyOp27
 70
     0
102
RTVSPropertyOp28
 70
     0
102
RTVSPropertyOp29
 70
     0
102
RTVSPropertyOp30
 70
     0
102
RTVSPropertyOp31
 70
     0
102
RTVSPropertyOp32
 70
     0
102
RTVSPropertyOp33
 70
     0
102
RTVSPropertyOp34
 70
     0
102
RTVSPropertyOp35
 70
     0
102
RTVSPropertyOp36
 70
     0
102
RTVSPropertyOp37
 70
     0
102
RTVSPropertyOp38
 70
     0
102
RTVSPropertyOp39
 70
     0
102
RTVSPropertyOp40
 70
     0
102
RTVSPropertyOp41
 70
     0
102
RTVSPropertyOp42
 70
     0
102
RTVSPropertyOp43
 70
     0
102
RTVSPropertyOp44
 70
     0
102
RTVSPropertyOp45
 70
     0
102
RTVSPropertyOp46
 70
     0
102
RTVSPropertyOp47
 70
     0
102
RTVSPropertyOp48
 70
     0
102
RTVSPropertyOp49
 70
     0
102
RTVSPropertyOp50
 70
     0
102
RTVSPropertyOp51
 70
     0
102
RTVSPropertyOp52
 70
     0
102
RTVSPropertyOp53
 70
     0
102
RTVSPropertyOp54
 70
     0
102
RTVSPropertyOp55
 70
     0
102
RTVSPropertyOp56
 70
     0
102
RTVSPropertyOp57
 70
     0
102
RTVSPost2010Prop28
280
     0
102
RTVSPost2010PropOp28
 70
     0
102
RTVSPost2010Prop29
280
     1
102
RTVSPost2010PropOp29
 70
     0
102
RTVSPost2010Prop30
280
     1
102
RTVSPost2010PropOp30
 70
     0
102
RTVSPost2010Prop31
280
     0
102
RTVSPost2010PropOp31
 70
     0
102
RTVSPost2010Prop32
280
     0
102
RTVSPost2010PropOp32
 70
     0
102
RTVSPost2010Prop33
280
     0
102
RTVSPost2010PropOp33
 70
     0
102
RTVSPost2010Prop34
280
     0
102
RTVSPost2010PropOp34
 70
     0
102
RTVSPost2010Prop35
280
     0
102
RTVSPost2010PropOp35
 70
     0
102
RTVSPost2010Prop36
280
     0
102
RTVSPost2010PropOp36
 70
     0
102
RTVSPost2010Prop37
 90
       50
102
RTVSPost2010PropOp37
 70
     0
102
RTVSPost2010Prop38
140
0.0
102
RTVSPost2010PropOp38
 70
     0
102
RTVSPost2010Prop39
140
1.0
102
RTVSPost2010PropOp39
 70
     0
102
RTVSPost2010Prop40
 90
        0
102
RTVSPost2010PropOp40
 70
     0
102
RTVSPost2010Prop41ColorIndex
 90
       18
102
RTVSPost2010Prop41ColorRGB
 90
        0
102
RTVSPost2010PropOp41
 70
     0
102
RTVSPost2010Prop42
 90
       50
102
RTVSPost2010PropOp42
 70
     0
102
RTVSPost2010Prop43
 90
        3
102
RTVSPost2010PropOp43
 70
     0
102
RTVSPost2010Prop44ColorIndex
 90
        5
102
RTVSPost2010Prop44ColorRGB
 90
      255
102
RTVSPost2010PropOp44
 70
     0
102
RTVSPost2010Prop45
280
     0
102
RTVSPost2010PropOp45
 70
     0
102
RTVSPost2010Prop46
 90
       50
102
RTVSPost2010PropOp46
 70
     0
102
RTVSPost2010Prop47
 90
       50
102
RTVSPost2010PropOp47
 70
     0
102
RTVSPost2010Prop48
 90
       50
102
RTVSPost2010PropOp48
 70
     0
102
RTVSPost2010Prop49
280
     0
102
RTVSPost2010PropOp49
 70
     0
102
RTVSPost2010Prop50
 90
       50
102
RTVSPost2010PropOp50
 70
     0
102
RTVSPost2010Prop51ColorIndex
 90
      256
102
RTVSPost2010Prop51ColorRGB
 90
-16777216
102
RTVSPost2010PropOp51
 70
     0
102
RTVSPost2010Prop52
140
1.0
102
RTVSPost2010PropOp52
 70
     0
102
RTVSPost2010Prop53
 90
        2
102
RTVSPost2010PropOp53
 70
     0
102
RTVSPost2010Prop54
  1
strokes_ogs.tif
102
RTVSPost2010PropOp54
 70
     0
102
RTVSPost2010Prop55
280
     0
102
RTVSPost2010PropOp55
 70
     0
102
RTVSPost2010Prop56
140
1.0
102
RTVSPost2010PropOp56
 70
     0
102
RTVSPost2010Prop57
140
1.0
102
RTVSPost2010PropOp57
 70
     0
  0
XRECORD
  5
198
102
{ACAD_REACTORS
330
197
102
}
330
197
100
AcDbXrecord
280
     1
102
RTVSPropertyOp0
 70
     1
102
RTVSPropertyOp1
 70
     1
102
RTVSPropertyOp2
 70
     1
102
RTVSPropertyOp3
 70
     1
102
RTVSPropertyOp4
 70
     1
102
RTVSPropertyOp5
 70
     1
102
RTVSPropertyOp6
 70
     1
102
RTVSPropertyOp7
 70
     1
102
RTVSPropertyOp8
 70
     1
102
RTVSPropertyOp9
 70
     1
102
RTVSPropertyOp10
 70
     1
102
RTVSPropertyOp11
 70
     1
102
RTVSPropertyOp12
 70
     1
102
RTVSPropertyOp13
 70
     1
102
RTVSPropertyOp14
 70
     1
102
RTVSPropertyOp15
 70
     1
102
RTVSPropertyOp16
 70
     1
102
RTVSPropertyOp17
 70
     1
102
RTVSPropertyOp18
 70
     1
102
RTVSPropertyOp19
 70
     1
102
RTVSPropertyOp20
 70
     1
102
RTVSPropertyOp21
 70
     1
102
RTVSPropertyOp22
 70
     1
102
RTVSPropertyOp23
 70
     1
102
RTVSPropertyOp24
 70
     1
102
RTVSPropertyOp25
 70
     1
102
RTVSPropertyOp26
 70
     1
102
RTVSPropertyOp27
 70
     1
102
RTVSPropertyOp28
 70
     1
102
RTVSPropertyOp29
 70
     1
102
RTVSPropertyOp30
 70
     1
102
RTVSPropertyOp31
 70
     1
102
RTVSPropertyOp32
 70
     1
102
RTVSPropertyOp33
 70
     1
102
RTVSPropertyOp34
 70
     1
102
RTVSPropertyOp35
 70
     1
102
RTVSPropertyOp36
 70
     1
102
RTVSPropertyOp37
 70
     1
102
RTVSPropertyOp38
 70
     1
102
RTVSPropertyOp39
 70
     1
102
RTVSPropertyOp40
 70
     1
102
RTVSPropertyOp41
 70
     1
102
RTVSPropertyOp42
 70
     1
102
RTVSPropertyOp43
 70
     1
102
RTVSPropertyOp44
 70
     1
102
RTVSPropertyOp45
 70
     1
102
RTVSPropertyOp46
 70
     1
102
RTVSPropertyOp47
 70
     1
102
RTVSPropertyOp48
 70
     1
102
RTVSPropertyOp49
 70
     1
102
RTVSPropertyOp50
 70
     1
102
RTVSPropertyOp51
 70
     0
102
RTVSPropertyOp52
 70
     0
102
RTVSPropertyOp53
 70
     1
102
RTVSPropertyOp54
 70
     1
102
RTVSPropertyOp55
 70
     1
102
RTVSPropertyOp56
 70
     1
102
RTVSPropertyOp57
 70
     1
102
RTVSPost2010Prop28
280
     0
102
RTVSPost2010PropOp28
 70
     1
102
RTVSPost2010Prop29
280
     1
102
RTVSPost2010PropOp29
 70
     1
102
RTVSPost2010Prop30
280
     1
102
RTVSPost2010PropOp30
 70
     1
102
RTVSPost2010Prop31
280
     0
102
RTVSPost2010PropOp31
 70
     1
102
RTVSPost2010Prop32
280
     0
102
RTVSPost2010PropOp32
 70
     1
102
RTVSPost2010Prop33
280
     0
102
RTVSPost2010PropOp33
 70
     1
102
RTVSPost2010Prop34
280
     0
102
RTVSPost2010PropOp34
 70
     1
102
RTVSPost2010Prop35
280
     0
102
RTVSPost2010PropOp35
 70
     1
102
RTVSPost2010Prop36
280
     0
102
RTVSPost2010PropOp36
 70
     1
102
RTVSPost2010Prop37
 90
       50
102
RTVSPost2010PropOp37
 70
     1
102
RTVSPost2010Prop38
140
0.0
102
RTVSPost2010PropOp38
 70
     1
102
RTVSPost2010Prop39
140
1.0
102
RTVSPost2010PropOp39
 70
     1
102
RTVSPost2010Prop40
 90
        0
102
RTVSPost2010PropOp40
 70
     1
102
RTVSPost2010Prop41ColorIndex
 90
       18
102
RTVSPost2010Prop41ColorRGB
 90
        0
102
RTVSPost2010PropOp41
 70
     1
102
RTVSPost2010Prop42
 90
       50
102
RTVSPost2010PropOp42
 70
     1
102
RTVSPost2010Prop43
 90
        3
102
RTVSPost2010PropOp43
 70
     1
102
RTVSPost2010Prop44ColorIndex
 90
        5
102
RTVSPost2010Prop44ColorRGB
 90
      255
102
RTVSPost2010PropOp44
 70
     1
102
RTVSPost2010Prop45
280
     0
102
RTVSPost2010PropOp45
 70
     1
102
RTVSPost2010Prop46
 90
       50
102
RTVSPost2010PropOp46
 70
     1
102
RTVSPost2010Prop47
 90
       50
102
RTVSPost2010PropOp47
 70
     1
102
RTVSPost2010Prop48
 90
       50
102
RTVSPost2010PropOp48
 70
     1
102
RTVSPost2010Prop49
280
     0
102
RTVSPost2010PropOp49
 70
     1
102
RTVSPost2010Prop50
 90
       50
102
RTVSPost2010PropOp50
 70
     1
102
RTVSPost2010Prop51ColorIndex
 90
      256
102
RTVSPost2010Prop51ColorRGB
 90
-16777216
102
RTVSPost2010PropOp51
 70
     0
102
RTVSPost2010Prop52
140
1.0
102
RTVSPost2010PropOp52
 70
     0
102
RTVSPost2010Prop53
 90
        2
102
RTVSPost2010PropOp53
 70
     1
102
RTVSPost2010Prop54
  1
strokes_ogs.tif
102
RTVSPost2010PropOp54
 70
     1
102
RTVSPost2010Prop55
280
     0
102
RTVSPost2010PropOp55
 70
     1
102
RTVSPost2010Prop56
140
1.0
102
RTVSPost2010PropOp56
 70
     1
102
RTVSPost2010Prop57
140
1.0
102
RTVSPost2010PropOp57
 70
     1
  0
XRECORD
  5
1B6
102
{ACAD_REACTORS
330
1B5
102
}
330
1B5
100
AcDbXrecord
280
     1
102
RTVSPropertyOp0
 70
     1
102
RTVSPropertyOp1
 70
     1
102
RTVSPropertyOp2
 70
     1
102
RTVSPropertyOp3
 70
     1
102
RTVSPropertyOp4
 70
     1
102
RTVSPropertyOp5
 70
     1
102
RTVSPropertyOp6
 70
     1
102
RTVSPropertyOp7
 70
     1
102
RTVSPropertyOp8
 70
     1
102
RTVSPropertyOp9
 70
     1
102
RTVSPropertyOp10
 70
     1
102
RTVSPropertyOp11
 70
     1
102
RTVSPropertyOp12
 70
     1
102
RTVSPropertyOp13
 70
     1
102
RTVSPropertyOp14
 70
     1
102
RTVSPropertyOp15
 70
     1
102
RTVSPropertyOp16
 70
     1
102
RTVSPropertyOp17
 70
     1
102
RTVSPropertyOp18
 70
     1
102
RTVSPropertyOp19
 70
     1
102
RTVSPropertyOp20
 70
     1
102
RTVSPropertyOp21
 70
     1
102
RTVSPropertyOp22
 70
     1
102
RTVSPropertyOp23
 70
     1
102
RTVSPropertyOp24
 70
     1
102
RTVSPropertyOp25
 70
     1
102
RTVSPropertyOp26
 70
     1
102
RTVSPropertyOp27
 70
     1
102
RTVSPropertyOp28
 70
     1
102
RTVSPropertyOp29
 70
     1
102
RTVSPropertyOp30
 70
     1
102
RTVSPropertyOp31
 70
     1
102
RTVSPropertyOp32
 70
     1
102
RTVSPropertyOp33
 70
     1
102
RTVSPropertyOp34
 70
     1
102
RTVSPropertyOp35
 70
     1
102
RTVSPropertyOp36
 70
     1
102
RTVSPropertyOp37
 70
     1
102
RTVSPropertyOp38
 70
     1
102
RTVSPropertyOp39
 70
     1
102
RTVSPropertyOp40
 70
     1
102
RTVSPropertyOp41
 70
     1
102
RTVSPropertyOp42
 70
     1
102
RTVSPropertyOp43
 70
     1
102
RTVSPropertyOp44
 70
     1
102
RTVSPropertyOp45
 70
     1
102
RTVSPropertyOp46
 70
     1
102
RTVSPropertyOp47
 70
     1
102
RTVSPropertyOp48
 70
     1
102
RTVSPropertyOp49
 70
     1
102
RTVSPropertyOp50
 70
     1
102
RTVSPropertyOp51
 70
     0
102
RTVSPropertyOp52
 70
     0
102
RTVSPropertyOp53
 70
     1
102
RTVSPropertyOp54
 70
     1
102
RTVSPropertyOp55
 70
     1
102
RTVSPropertyOp56
 70
     1
102
RTVSPropertyOp57
 70
     1
102
RTVSPost2010Prop28
280
     0
102
RTVSPost2010PropOp28
 70
     1
102
RTVSPost2010Prop29
280
     1
102
RTVSPost2010PropOp29
 70
     1
102
RTVSPost2010Prop30
280
     1
102
RTVSPost2010PropOp30
 70
     1
102
RTVSPost2010Prop31
280
     0
102
RTVSPost2010PropOp31
 70
     1
102
RTVSPost2010Prop32
280
     0
102
RTVSPost2010PropOp32
 70
     1
102
RTVSPost2010Prop33
280
     0
102
RTVSPost2010PropOp33
 70
     1
102
RTVSPost2010Prop34
280
     0
102
RTVSPost2010PropOp34
 70
     1
102
RTVSPost2010Prop35
280
     0
102
RTVSPost2010PropOp35
 70
     1
102
RTVSPost2010Prop36
280
     0
102
RTVSPost2010PropOp36
 70
     1
102
RTVSPost2010Prop37
 90
       50
102
RTVSPost2010PropOp37
 70
     1
102
RTVSPost2010Prop38
140
0.0
102
RTVSPost2010PropOp38
 70
     1
102
RTVSPost2010Prop39
140
1.0
102
RTVSPost2010PropOp39
 70
     1
102
RTVSPost2010Prop40
 90
        0
102
RTVSPost2010PropOp40
 70
     1
102
RTVSPost2010Prop41ColorIndex
 90
       18
102
RTVSPost2010Prop41ColorRGB
 90
        0
102
RTVSPost2010PropOp41
 70
     1
102
RTVSPost2010Prop42
 90
       50
102
RTVSPost2010PropOp42
 70
     1
102
RTVSPost2010Prop43
 90
        3
102
RTVSPost2010PropOp43
 70
     1
102
RTVSPost2010Prop44ColorIndex
 90
        5
102
RTVSPost2010Prop44ColorRGB
 90
      255
102
RTVSPost2010PropOp44
 70
     1
102
RTVSPost2010Prop45
280
     0
102
RTVSPost2010PropOp45
 70
     1
102
RTVSPost2010Prop46
 90
       50
102
RTVSPost2010PropOp46
 70
     1
102
RTVSPost2010Prop47
 90
       50
102
RTVSPost2010PropOp47
 70
     1
102
RTVSPost2010Prop48
 90
       50
102
RTVSPost2010PropOp48
 70
     1
102
RTVSPost2010Prop49
280
     0
102
RTVSPost2010PropOp49
 70
     1
102
RTVSPost2010Prop50
 90
       50
102
RTVSPost2010PropOp50
 70
     1
102
RTVSPost2010Prop51ColorIndex
 90
      256
102
RTVSPost2010Prop51ColorRGB
 90
-16777216
102
RTVSPost2010PropOp51
 70
     0
102
RTVSPost2010Prop52
140
1.0
102
RTVSPost2010PropOp52
 70
     0
102
RTVSPost2010Prop53
 90
        2
102
RTVSPost2010PropOp53
 70
     1
102
RTVSPost2010Prop54
  1
strokes_ogs.tif
102
RTVSPost2010PropOp54
 70
     1
102
RTVSPost2010Prop55
280
     0
102
RTVSPost2010PropOp55
 70
     1
102
RTVSPost2010Prop56
140
1.0
102
RTVSPost2010PropOp56
 70
     1
102
RTVSPost2010Prop57
140
1.0
102
RTVSPost2010PropOp57
 70
     1
  0
XRECORD
  5
1B4
102
{ACAD_REACTORS
330
1B3
102
}
330
1B3
100
AcDbXrecord
280
     1
102
RTVSPropertyOp0
 70
     1
102
RTVSPropertyOp1
 70
     1
102
RTVSPropertyOp2
 70
     1
102
RTVSPropertyOp3
 70
     1
102
RTVSPropertyOp4
 70
     1
102
RTVSPropertyOp5
 70
     1
102
RTVSPropertyOp6
 70
     1
102
RTVSPropertyOp7
 70
     1
102
RTVSPropertyOp8
 70
     1
102
RTVSPropertyOp9
 70
     1
102
RTVSPropertyOp10
 70
     1
102
RTVSPropertyOp11
 70
     1
102
RTVSPropertyOp12
 70
     1
102
RTVSPropertyOp13
 70
     1
102
RTVSPropertyOp14
 70
     1
102
RTVSPropertyOp15
 70
     1
102
RTVSPropertyOp16
 70
     1
102
RTVSPropertyOp17
 70
     1
102
RTVSPropertyOp18
 70
     1
102
RTVSPropertyOp19
 70
     1
102
RTVSPropertyOp20
 70
     1
102
RTVSPropertyOp21
 70
     1
102
RTVSPropertyOp22
 70
     1
102
RTVSPropertyOp23
 70
     1
102
RTVSPropertyOp24
 70
     1
102
RTVSPropertyOp25
 70
     1
102
RTVSPropertyOp26
 70
     1
102
RTVSPropertyOp27
 70
     1
102
RTVSPropertyOp28
 70
     1
102
RTVSPropertyOp29
 70
     1
102
RTVSPropertyOp30
 70
     1
102
RTVSPropertyOp31
 70
     1
102
RTVSPropertyOp32
 70
     1
102
RTVSPropertyOp33
 70
     1
102
RTVSPropertyOp34
 70
     1
102
RTVSPropertyOp35
 70
     1
102
RTVSPropertyOp36
 70
     1
102
RTVSPropertyOp37
 70
     1
102
RTVSPropertyOp38
 70
     1
102
RTVSPropertyOp39
 70
     1
102
RTVSPropertyOp40
 70
     1
102
RTVSPropertyOp41
 70
     1
102
RTVSPropertyOp42
 70
     1
102
RTVSPropertyOp43
 70
     1
102
RTVSPropertyOp44
 70
     1
102
RTVSPropertyOp45
 70
     1
102
RTVSPropertyOp46
 70
     1
102
RTVSPropertyOp47
 70
     1
102
RTVSPropertyOp48
 70
     1
102
RTVSPropertyOp49
 70
     1
102
RTVSPropertyOp50
 70
     1
102
RTVSPropertyOp51
 70
     0
102
RTVSPropertyOp52
 70
     0
102
RTVSPropertyOp53
 70
     1
102
RTVSPropertyOp54
 70
     1
102
RTVSPropertyOp55
 70
     1
102
RTVSPropertyOp56
 70
     1
102
RTVSPropertyOp57
 70
     1
102
RTVSPost2010Prop28
280
     0
102
RTVSPost2010PropOp28
 70
     1
102
RTVSPost2010Prop29
280
     1
102
RTVSPost2010PropOp29
 70
     1
102
RTVSPost2010Prop30
280
     1
102
RTVSPost2010PropOp30
 70
     1
102
RTVSPost2010Prop31
280
     0
102
RTVSPost2010PropOp31
 70
     1
102
RTVSPost2010Prop32
280
     0
102
RTVSPost2010PropOp32
 70
     1
102
RTVSPost2010Prop33
280
     0
102
RTVSPost2010PropOp33
 70
     1
102
RTVSPost2010Prop34
280
     0
102
RTVSPost2010PropOp34
 70
     1
102
RTVSPost2010Prop35
280
     0
102
RTVSPost2010PropOp35
 70
     1
102
RTVSPost2010Prop36
280
     0
102
RTVSPost2010PropOp36
 70
     1
102
RTVSPost2010Prop37
 90
       50
102
RTVSPost2010PropOp37
 70
     1
102
RTVSPost2010Prop38
140
0.0
102
RTVSPost2010PropOp38
 70
     1
102
RTVSPost2010Prop39
140
1.0
102
RTVSPost2010PropOp39
 70
     1
102
RTVSPost2010Prop40
 90
        0
102
RTVSPost2010PropOp40
 70
     1
102
RTVSPost2010Prop41ColorIndex
 90
       18
102
RTVSPost2010Prop41ColorRGB
 90
        0
102
RTVSPost2010PropOp41
 70
     1
102
RTVSPost2010Prop42
 90
       50
102
RTVSPost2010PropOp42
 70
     1
102
RTVSPost2010Prop43
 90
        3
102
RTVSPost2010PropOp43
 70
     1
102
RTVSPost2010Prop44ColorIndex
 90
        5
102
RTVSPost2010Prop44ColorRGB
 90
      255
102
RTVSPost2010PropOp44
 70
     1
102
RTVSPost2010Prop45
280
     0
102
RTVSPost2010PropOp45
 70
     1
102
RTVSPost2010Prop46
 90
       50
102
RTVSPost2010PropOp46
 70
     1
102
RTVSPost2010Prop47
 90
       50
102
RTVSPost2010PropOp47
 70
     1
102
RTVSPost2010Prop48
 90
       50
102
RTVSPost2010PropOp48
 70
     1
102
RTVSPost2010Prop49
280
     0
102
RTVSPost2010PropOp49
 70
     1
102
RTVSPost2010Prop50
 90
       50
102
RTVSPost2010PropOp50
 70
     1
102
RTVSPost2010Prop51ColorIndex
 90
      256
102
RTVSPost2010Prop51ColorRGB
 90
-16777216
102
RTVSPost2010PropOp51
 70
     0
102
RTVSPost2010Prop52
140
1.0
102
RTVSPost2010PropOp52
 70
     0
102
RTVSPost2010Prop53
 90
        2
102
RTVSPost2010PropOp53
 70
     1
102
RTVSPost2010Prop54
  1
strokes_ogs.tif
102
RTVSPost2010PropOp54
 70
     1
102
RTVSPost2010Prop55
280
     0
102
RTVSPost2010PropOp55
 70
     1
102
RTVSPost2010Prop56
140
1.0
102
RTVSPost2010PropOp56
 70
     1
102
RTVSPost2010Prop57
140
1.0
102
RTVSPost2010PropOp57
 70
     1
  0
XRECORD
  5
1AE
102
{ACAD_REACTORS
330
1AD
102
}
330
1AD
100
AcDbXrecord
280
     1
102
RTVSPropertyOp0
 70
     1
102
RTVSPropertyOp1
 70
     1
102
RTVSPropertyOp2
 70
     1
102
RTVSPropertyOp3
 70
     1
102
RTVSPropertyOp4
 70
     1
102
RTVSPropertyOp5
 70
     1
102
RTVSPropertyOp6
 70
     1
102
RTVSPropertyOp7
 70
     1
102
RTVSPropertyOp8
 70
     1
102
RTVSPropertyOp9
 70
     1
102
RTVSPropertyOp10
 70
     1
102
RTVSPropertyOp11
 70
     1
102
RTVSPropertyOp12
 70
     1
102
RTVSPropertyOp13
 70
     1
102
RTVSPropertyOp14
 70
     1
102
RTVSPropertyOp15
 70
     1
102
RTVSPropertyOp16
 70
     1
102
RTVSPropertyOp17
 70
     1
102
RTVSPropertyOp18
 70
     1
102
RTVSPropertyOp19
 70
     1
102
RTVSPropertyOp20
 70
     1
102
RTVSPropertyOp21
 70
     1
102
RTVSPropertyOp22
 70
     1
102
RTVSPropertyOp23
 70
     1
102
RTVSPropertyOp24
 70
     1
102
RTVSPropertyOp25
 70
     1
102
RTVSPropertyOp26
 70
     1
102
RTVSPropertyOp27
 70
     1
102
RTVSPropertyOp28
 70
     1
102
RTVSPropertyOp29
 70
     1
102
RTVSPropertyOp30
 70
     1
102
RTVSPropertyOp31
 70
     1
102
RTVSPropertyOp32
 70
     1
102
RTVSPropertyOp33
 70
     1
102
RTVSPropertyOp34
 70
     1
102
RTVSPropertyOp35
 70
     1
102
RTVSPropertyOp36
 70
     1
102
RTVSPropertyOp37
 70
     1
102
RTVSPropertyOp38
 70
     1
102
RTVSPropertyOp39
 70
     1
102
RTVSPropertyOp40
 70
     1
102
RTVSPropertyOp41
 70
     1
102
RTVSPropertyOp42
 70
     1
102
RTVSPropertyOp43
 70
     1
102
RTVSPropertyOp44
 70
     1
102
RTVSPropertyOp45
 70
     1
102
RTVSPropertyOp46
 70
     1
102
RTVSPropertyOp47
 70
     1
102
RTVSPropertyOp48
 70
     1
102
RTVSPropertyOp49
 70
     1
102
RTVSPropertyOp50
 70
     1
102
RTVSPropertyOp51
 70
     0
102
RTVSPropertyOp52
 70
     0
102
RTVSPropertyOp53
 70
     1
102
RTVSPropertyOp54
 70
     1
102
RTVSPropertyOp55
 70
     1
102
RTVSPropertyOp56
 70
     1
102
RTVSPropertyOp57
 70
     1
102
RTVSPost2010Prop28
280
     0
102
RTVSPost2010PropOp28
 70
     1
102
RTVSPost2010Prop29
280
     1
102
RTVSPost2010PropOp29
 70
     1
102
RTVSPost2010Prop30
280
     1
102
RTVSPost2010PropOp30
 70
     1
102
RTVSPost2010Prop31
280
     0
102
RTVSPost2010PropOp31
 70
     1
102
RTVSPost2010Prop32
280
     0
102
RTVSPost2010PropOp32
 70
     1
102
RTVSPost2010Prop33
280
     0
102
RTVSPost2010PropOp33
 70
     1
102
RTVSPost2010Prop34
280
     0
102
RTVSPost2010PropOp34
 70
     1
102
RTVSPost2010Prop35
280
     0
102
RTVSPost2010PropOp35
 70
     1
102
RTVSPost2010Prop36
280
     0
102
RTVSPost2010PropOp36
 70
     1
102
RTVSPost2010Prop37
 90
       50
102
RTVSPost2010PropOp37
 70
     1
102
RTVSPost2010Prop38
140
0.0
102
RTVSPost2010PropOp38
 70
     1
102
RTVSPost2010Prop39
140
1.0
102
RTVSPost2010PropOp39
 70
     1
102
RTVSPost2010Prop40
 90
        0
102
RTVSPost2010PropOp40
 70
     1
102
RTVSPost2010Prop41ColorIndex
 90
       18
102
RTVSPost2010Prop41ColorRGB
 90
        0
102
RTVSPost2010PropOp41
 70
     1
102
RTVSPost2010Prop42
 90
       50
102
RTVSPost2010PropOp42
 70
     1
102
RTVSPost2010Prop43
 90
        3
102
RTVSPost2010PropOp43
 70
     1
102
RTVSPost2010Prop44ColorIndex
 90
        5
102
RTVSPost2010Prop44ColorRGB
 90
      255
102
RTVSPost2010PropOp44
 70
     1
102
RTVSPost2010Prop45
280
     0
102
RTVSPost2010PropOp45
 70
     1
102
RTVSPost2010Prop46
 90
       50
102
RTVSPost2010PropOp46
 70
     1
102
RTVSPost2010Prop47
 90
       50
102
RTVSPost2010PropOp47
 70
     1
102
RTVSPost2010Prop48
 90
       50
102
RTVSPost2010PropOp48
 70
     1
102
RTVSPost2010Prop49
280
     0
102
RTVSPost2010PropOp49
 70
     1
102
RTVSPost2010Prop50
 90
       50
102
RTVSPost2010PropOp50
 70
     1
102
RTVSPost2010Prop51ColorIndex
 90
      256
102
RTVSPost2010Prop51ColorRGB
 90
-16777216
102
RTVSPost2010PropOp51
 70
     0
102
RTVSPost2010Prop52
140
1.0
102
RTVSPost2010PropOp52
 70
     0
102
RTVSPost2010Prop53
 90
        2
102
RTVSPost2010PropOp53
 70
     1
102
RTVSPost2010Prop54
  1
strokes_ogs.tif
102
RTVSPost2010PropOp54
 70
     1
102
RTVSPost2010Prop55
280
     0
102
RTVSPost2010PropOp55
 70
     1
102
RTVSPost2010Prop56
140
1.0
102
RTVSPost2010PropOp56
 70
     1
102
RTVSPost2010Prop57
140
1.0
102
RTVSPost2010PropOp57
 70
     1
  0
XRECORD
  5
1B0
102
{ACAD_REACTORS
330
1AF
102
}
330
1AF
100
AcDbXrecord
280
     1
102
RTVSPropertyOp0
 70
     1
102
RTVSPropertyOp1
 70
     1
102
RTVSPropertyOp2
 70
     1
102
RTVSPropertyOp3
 70
     1
102
RTVSPropertyOp4
 70
     1
102
RTVSPropertyOp5
 70
     1
102
RTVSPropertyOp6
 70
     1
102
RTVSPropertyOp7
 70
     1
102
RTVSPropertyOp8
 70
     1
102
RTVSPropertyOp9
 70
     1
102
RTVSPropertyOp10
 70
     1
102
RTVSPropertyOp11
 70
     1
102
RTVSPropertyOp12
 70
     1
102
RTVSPropertyOp13
 70
     1
102
RTVSPropertyOp14
 70
     1
102
RTVSPropertyOp15
 70
     1
102
RTVSPropertyOp16
 70
     1
102
RTVSPropertyOp17
 70
     1
102
RTVSPropertyOp18
 70
     1
102
RTVSPropertyOp19
 70
     1
102
RTVSPropertyOp20
 70
     1
102
RTVSPropertyOp21
 70
     1
102
RTVSPropertyOp22
 70
     1
102
RTVSPropertyOp23
 70
     1
102
RTVSPropertyOp24
 70
     1
102
RTVSPropertyOp25
 70
     1
102
RTVSPropertyOp26
 70
     1
102
RTVSPropertyOp27
 70
     1
102
RTVSPropertyOp28
 70
     1
102
RTVSPropertyOp29
 70
     1
102
RTVSPropertyOp30
 70
     1
102
RTVSPropertyOp31
 70
     1
102
RTVSPropertyOp32
 70
     1
102
RTVSPropertyOp33
 70
     1
102
RTVSPropertyOp34
 70
     1
102
RTVSPropertyOp35
 70
     1
102
RTVSPropertyOp36
 70
     1
102
RTVSPropertyOp37
 70
     1
102
RTVSPropertyOp38
 70
     1
102
RTVSPropertyOp39
 70
     1
102
RTVSPropertyOp40
 70
     1
102
RTVSPropertyOp41
 70
     1
102
RTVSPropertyOp42
 70
     1
102
RTVSPropertyOp43
 70
     1
102
RTVSPropertyOp44
 70
     1
102
RTVSPropertyOp45
 70
     1
102
RTVSPropertyOp46
 70
     1
102
RTVSPropertyOp47
 70
     1
102
RTVSPropertyOp48
 70
     1
102
RTVSPropertyOp49
 70
     1
102
RTVSPropertyOp50
 70
     1
102
RTVSPropertyOp51
 70
     0
102
RTVSPropertyOp52
 70
     0
102
RTVSPropertyOp53
 70
     1
102
RTVSPropertyOp54
 70
     1
102
RTVSPropertyOp55
 70
     1
102
RTVSPropertyOp56
 70
     1
102
RTVSPropertyOp57
 70
     1
102
RTVSPost2010Prop28
280
     0
102
RTVSPost2010PropOp28
 70
     1
102
RTVSPost2010Prop29
280
     1
102
RTVSPost2010PropOp29
 70
     1
102
RTVSPost2010Prop30
280
     1
102
RTVSPost2010PropOp30
 70
     1
102
RTVSPost2010Prop31
280
     0
102
RTVSPost2010PropOp31
 70
     1
102
RTVSPost2010Prop32
280
     0
102
RTVSPost2010PropOp32
 70
     1
102
RTVSPost2010Prop33
280
     0
102
RTVSPost2010PropOp33
 70
     1
102
RTVSPost2010Prop34
280
     0
102
RTVSPost2010PropOp34
 70
     1
102
RTVSPost2010Prop35
280
     0
102
RTVSPost2010PropOp35
 70
     1
102
RTVSPost2010Prop36
280
     0
102
RTVSPost2010PropOp36
 70
     1
102
RTVSPost2010Prop37
 90
       50
102
RTVSPost2010PropOp37
 70
     1
102
RTVSPost2010Prop38
140
0.0
102
RTVSPost2010PropOp38
 70
     1
102
RTVSPost2010Prop39
140
1.0
102
RTVSPost2010PropOp39
 70
     1
102
RTVSPost2010Prop40
 90
        0
102
RTVSPost2010PropOp40
 70
     1
102
RTVSPost2010Prop41ColorIndex
 90
       18
102
RTVSPost2010Prop41ColorRGB
 90
        0
102
RTVSPost2010PropOp41
 70
     1
102
RTVSPost2010Prop42
 90
       50
102
RTVSPost2010PropOp42
 70
     1
102
RTVSPost2010Prop43
 90
        3
102
RTVSPost2010PropOp43
 70
     1
102
RTVSPost2010Prop44ColorIndex
 90
        5
102
RTVSPost2010Prop44ColorRGB
 90
      255
102
RTVSPost2010PropOp44
 70
     1
102
RTVSPost2010Prop45
280
     0
102
RTVSPost2010PropOp45
 70
     1
102
RTVSPost2010Prop46
 90
       50
102
RTVSPost2010PropOp46
 70
     1
102
RTVSPost2010Prop47
 90
       50
102
RTVSPost2010PropOp47
 70
     1
102
RTVSPost2010Prop48
 90
       50
102
RTVSPost2010PropOp48
 70
     1
102
RTVSPost2010Prop49
280
     0
102
RTVSPost2010PropOp49
 70
     1
102
RTVSPost2010Prop50
 90
       50
102
RTVSPost2010PropOp50
 70
     1
102
RTVSPost2010Prop51ColorIndex
 90
      256
102
RTVSPost2010Prop51ColorRGB
 90
-16777216
102
RTVSPost2010PropOp51
 70
     0
102
RTVSPost2010Prop52
140
1.0
102
RTVSPost2010PropOp52
 70
     0
102
RTVSPost2010Prop53
 90
        2
102
RTVSPost2010PropOp53
 70
     1
102
RTVSPost2010Prop54
  1
strokes_ogs.tif
102
RTVSPost2010PropOp54
 70
     1
102
RTVSPost2010Prop55
280
     0
102
RTVSPost2010PropOp55
 70
     1
102
RTVSPost2010Prop56
140
1.0
102
RTVSPost2010PropOp56
 70
     1
102
RTVSPost2010Prop57
140
1.0
102
RTVSPost2010PropOp57
 70
     1
  0
XRECORD
  5
1A0
102
{ACAD_REACTORS
330
19F
102
}
330
19F
100
AcDbXrecord
280
     1
102
RTVSPropertyOp0
 70
     1
102
RTVSPropertyOp1
 70
     1
102
RTVSPropertyOp2
 70
     1
102
RTVSPropertyOp3
 70
     1
102
RTVSPropertyOp4
 70
     1
102
RTVSPropertyOp5
 70
     1
102
RTVSPropertyOp6
 70
     1
102
RTVSPropertyOp7
 70
     1
102
RTVSPropertyOp8
 70
     1
102
RTVSPropertyOp9
 70
     1
102
RTVSPropertyOp10
 70
     1
102
RTVSPropertyOp11
 70
     1
102
RTVSPropertyOp12
 70
     1
102
RTVSPropertyOp13
 70
     1
102
RTVSPropertyOp14
 70
     1
102
RTVSPropertyOp15
 70
     1
102
RTVSPropertyOp16
 70
     1
102
RTVSPropertyOp17
 70
     1
102
RTVSPropertyOp18
 70
     1
102
RTVSPropertyOp19
 70
     1
102
RTVSPropertyOp20
 70
     1
102
RTVSPropertyOp21
 70
     1
102
RTVSPropertyOp22
 70
     1
102
RTVSPropertyOp23
 70
     1
102
RTVSPropertyOp24
 70
     1
102
RTVSPropertyOp25
 70
     1
102
RTVSPropertyOp26
 70
     1
102
RTVSPropertyOp27
 70
     1
102
RTVSPropertyOp28
 70
     1
102
RTVSPropertyOp29
 70
     1
102
RTVSPropertyOp30
 70
     1
102
RTVSPropertyOp31
 70
     1
102
RTVSPropertyOp32
 70
     1
102
RTVSPropertyOp33
 70
     1
102
RTVSPropertyOp34
 70
     1
102
RTVSPropertyOp35
 70
     1
102
RTVSPropertyOp36
 70
     1
102
RTVSPropertyOp37
 70
     1
102
RTVSPropertyOp38
 70
     1
102
RTVSPropertyOp39
 70
     1
102
RTVSPropertyOp40
 70
     1
102
RTVSPropertyOp41
 70
     1
102
RTVSPropertyOp42
 70
     1
102
RTVSPropertyOp43
 70
     1
102
RTVSPropertyOp44
 70
     1
102
RTVSPropertyOp45
 70
     1
102
RTVSPropertyOp46
 70
     1
102
RTVSPropertyOp47
 70
     1
102
RTVSPropertyOp48
 70
     1
102
RTVSPropertyOp49
 70
     1
102
RTVSPropertyOp50
 70
     1
102
RTVSPropertyOp51
 70
     0
102
RTVSPropertyOp52
 70
     0
102
RTVSPropertyOp53
 70
     1
102
RTVSPropertyOp54
 70
     1
102
RTVSPropertyOp55
 70
     1
102
RTVSPropertyOp56
 70
     1
102
RTVSPropertyOp57
 70
     1
102
RTVSPost2010Prop28
280
     0
102
RTVSPost2010PropOp28
 70
     1
102
RTVSPost2010Prop29
280
     1
102
RTVSPost2010PropOp29
 70
     1
102
RTVSPost2010Prop30
280
     1
102
RTVSPost2010PropOp30
 70
     1
102
RTVSPost2010Prop31
280
     0
102
RTVSPost2010PropOp31
 70
     1
102
RTVSPost2010Prop32
280
     0
102
RTVSPost2010PropOp32
 70
     1
102
RTVSPost2010Prop33
280
     0
102
RTVSPost2010PropOp33
 70
     1
102
RTVSPost2010Prop34
280
     0
102
RTVSPost2010PropOp34
 70
     1
102
RTVSPost2010Prop35
280
     0
102
RTVSPost2010PropOp35
 70
     1
102
RTVSPost2010Prop36
280
     0
102
RTVSPost2010PropOp36
 70
     1
102
RTVSPost2010Prop37
 90
       50
102
RTVSPost2010PropOp37
 70
     1
102
RTVSPost2010Prop38
140
0.0
102
RTVSPost2010PropOp38
 70
     1
102
RTVSPost2010Prop39
140
1.0
102
RTVSPost2010PropOp39
 70
     1
102
RTVSPost2010Prop40
 90
        0
102
RTVSPost2010PropOp40
 70
     1
102
RTVSPost2010Prop41ColorIndex
 90
       18
102
RTVSPost2010Prop41ColorRGB
 90
        0
102
RTVSPost2010PropOp41
 70
     1
102
RTVSPost2010Prop42
 90
       50
102
RTVSPost2010PropOp42
 70
     1
102
RTVSPost2010Prop43
 90
        3
102
RTVSPost2010PropOp43
 70
     1
102
RTVSPost2010Prop44ColorIndex
 90
        5
102
RTVSPost2010Prop44ColorRGB
 90
      255
102
RTVSPost2010PropOp44
 70
     1
102
RTVSPost2010Prop45
280
     0
102
RTVSPost2010PropOp45
 70
     1
102
RTVSPost2010Prop46
 90
       50
102
RTVSPost2010PropOp46
 70
     1
102
RTVSPost2010Prop47
 90
       50
102
RTVSPost2010PropOp47
 70
     1
102
RTVSPost2010Prop48
 90
       50
102
RTVSPost2010PropOp48
 70
     1
102
RTVSPost2010Prop49
280
     0
102
RTVSPost2010PropOp49
 70
     1
102
RTVSPost2010Prop50
 90
       50
102
RTVSPost2010PropOp50
 70
     1
102
RTVSPost2010Prop51ColorIndex
 90
      256
102
RTVSPost2010Prop51ColorRGB
 90
-16777216
102
RTVSPost2010PropOp51
 70
     0
102
RTVSPost2010Prop52
140
1.0
102
RTVSPost2010PropOp52
 70
     0
102
RTVSPost2010Prop53
 90
        2
102
RTVSPost2010PropOp53
 70
     1
102
RTVSPost2010Prop54
  1
strokes_ogs.tif
102
RTVSPost2010PropOp54
 70
     1
102
RTVSPost2010Prop55
280
     0
102
RTVSPost2010PropOp55
 70
     1
102
RTVSPost2010Prop56
140
1.0
102
RTVSPost2010PropOp56
 70
     1
102
RTVSPost2010Prop57
140
1.0
102
RTVSPost2010PropOp57
 70
     1
  0
XRECORD
  5
192
102
{ACAD_REACTORS
330
191
102
}
330
191
100
AcDbXrecord
280
     1
102
RTVSPropertyOp0
 70
     1
102
RTVSPropertyOp1
 70
     1
102
RTVSPropertyOp2
 70
     1
102
RTVSPropertyOp3
 70
     1
102
RTVSPropertyOp4
 70
     1
102
RTVSPropertyOp5
 70
     1
102
RTVSPropertyOp6
 70
     1
102
RTVSPropertyOp7
 70
     1
102
RTVSPropertyOp8
 70
     1
102
RTVSPropertyOp9
 70
     1
102
RTVSPropertyOp10
 70
     1
102
RTVSPropertyOp11
 70
     1
102
RTVSPropertyOp12
 70
     1
102
RTVSPropertyOp13
 70
     1
102
RTVSPropertyOp14
 70
     1
102
RTVSPropertyOp15
 70
     1
102
RTVSPropertyOp16
 70
     1
102
RTVSPropertyOp17
 70
     1
102
RTVSPropertyOp18
 70
     1
102
RTVSPropertyOp19
 70
     1
102
RTVSPropertyOp20
 70
     1
102
RTVSPropertyOp21
 70
     1
102
RTVSPropertyOp22
 70
     1
102
RTVSPropertyOp23
 70
     1
102
RTVSPropertyOp24
 70
     1
102
RTVSPropertyOp25
 70
     1
102
RTVSPropertyOp26
 70
     1
102
RTVSPropertyOp27
 70
     1
102
RTVSPropertyOp28
 70
     1
102
RTVSPropertyOp29
 70
     1
102
RTVSPropertyOp30
 70
     1
102
RTVSPropertyOp31
 70
     1
102
RTVSPropertyOp32
 70
     1
102
RTVSPropertyOp33
 70
     1
102
RTVSPropertyOp34
 70
     1
102
RTVSPropertyOp35
 70
     1
102
RTVSPropertyOp36
 70
     1
102
RTVSPropertyOp37
 70
     1
102
RTVSPropertyOp38
 70
     1
102
RTVSPropertyOp39
 70
     1
102
RTVSPropertyOp40
 70
     1
102
RTVSPropertyOp41
 70
     1
102
RTVSPropertyOp42
 70
     1
102
RTVSPropertyOp43
 70
     1
102
RTVSPropertyOp44
 70
     1
102
RTVSPropertyOp45
 70
     1
102
RTVSPropertyOp46
 70
     1
102
RTVSPropertyOp47
 70
     1
102
RTVSPropertyOp48
 70
     1
102
RTVSPropertyOp49
 70
     1
102
RTVSPropertyOp50
 70
     1
102
RTVSPropertyOp51
 70
     0
102
RTVSPropertyOp52
 70
     0
102
RTVSPropertyOp53
 70
     1
102
RTVSPropertyOp54
 70
     1
102
RTVSPropertyOp55
 70
     1
102
RTVSPropertyOp56
 70
     1
102
RTVSPropertyOp57
 70
     1
102
RTVSPost2010Prop28
280
     0
102
RTVSPost2010PropOp28
 70
     1
102
RTVSPost2010Prop29
280
     1
102
RTVSPost2010PropOp29
 70
     1
102
RTVSPost2010Prop30
280
     1
102
RTVSPost2010PropOp30
 70
     1
102
RTVSPost2010Prop31
280
     0
102
RTVSPost2010PropOp31
 70
     1
102
RTVSPost2010Prop32
280
     0
102
RTVSPost2010PropOp32
 70
     1
102
RTVSPost2010Prop33
280
     0
102
RTVSPost2010PropOp33
 70
     1
102
RTVSPost2010Prop34
280
     0
102
RTVSPost2010PropOp34
 70
     1
102
RTVSPost2010Prop35
280
     0
102
RTVSPost2010PropOp35
 70
     1
102
RTVSPost2010Prop36
280
     0
102
RTVSPost2010PropOp36
 70
     1
102
RTVSPost2010Prop37
 90
       50
102
RTVSPost2010PropOp37
 70
     1
102
RTVSPost2010Prop38
140
0.0
102
RTVSPost2010PropOp38
 70
     1
102
RTVSPost2010Prop39
140
1.0
102
RTVSPost2010PropOp39
 70
     1
102
RTVSPost2010Prop40
 90
        0
102
RTVSPost2010PropOp40
 70
     1
102
RTVSPost2010Prop41ColorIndex
 90
       18
102
RTVSPost2010Prop41ColorRGB
 90
        0
102
RTVSPost2010PropOp41
 70
     1
102
RTVSPost2010Prop42
 90
       50
102
RTVSPost2010PropOp42
 70
     1
102
RTVSPost2010Prop43
 90
        3
102
RTVSPost2010PropOp43
 70
     1
102
RTVSPost2010Prop44ColorIndex
 90
        5
102
RTVSPost2010Prop44ColorRGB
 90
      255
102
RTVSPost2010PropOp44
 70
     1
102
RTVSPost2010Prop45
280
     0
102
RTVSPost2010PropOp45
 70
     1
102
RTVSPost2010Prop46
 90
       50
102
RTVSPost2010PropOp46
 70
     1
102
RTVSPost2010Prop47
 90
       50
102
RTVSPost2010PropOp47
 70
     1
102
RTVSPost2010Prop48
 90
       50
102
RTVSPost2010PropOp48
 70
     1
102
RTVSPost2010Prop49
280
     0
102
RTVSPost2010PropOp49
 70
     1
102
RTVSPost2010Prop50
 90
       50
102
RTVSPost2010PropOp50
 70
     1
102
RTVSPost2010Prop51ColorIndex
 90
      256
102
RTVSPost2010Prop51ColorRGB
 90
-16777216
102
RTVSPost2010PropOp51
 70
     0
102
RTVSPost2010Prop52
140
1.0
102
RTVSPost2010PropOp52
 70
     0
102
RTVSPost2010Prop53
 90
        2
102
RTVSPost2010PropOp53
 70
     1
102
RTVSPost2010Prop54
  1
strokes_ogs.tif
102
RTVSPost2010PropOp54
 70
     1
102
RTVSPost2010Prop55
280
     0
102
RTVSPost2010PropOp55
 70
     1
102
RTVSPost2010Prop56
140
1.0
102
RTVSPost2010PropOp56
 70
     1
102
RTVSPost2010Prop57
140
1.0
102
RTVSPost2010PropOp57
 70
     1
  0
XRECORD
  5
1B2
102
{ACAD_REACTORS
330
1B1
102
}
330
1B1
100
AcDbXrecord
280
     1
102
RTVSPropertyOp0
 70
     1
102
RTVSPropertyOp1
 70
     1
102
RTVSPropertyOp2
 70
     1
102
RTVSPropertyOp3
 70
     1
102
RTVSPropertyOp4
 70
     1
102
RTVSPropertyOp5
 70
     1
102
RTVSPropertyOp6
 70
     1
102
RTVSPropertyOp7
 70
     1
102
RTVSPropertyOp8
 70
     1
102
RTVSPropertyOp9
 70
     1
102
RTVSPropertyOp10
 70
     1
102
RTVSPropertyOp11
 70
     1
102
RTVSPropertyOp12
 70
     1
102
RTVSPropertyOp13
 70
     1
102
RTVSPropertyOp14
 70
     1
102
RTVSPropertyOp15
 70
     1
102
RTVSPropertyOp16
 70
     1
102
RTVSPropertyOp17
 70
     1
102
RTVSPropertyOp18
 70
     1
102
RTVSPropertyOp19
 70
     1
102
RTVSPropertyOp20
 70
     1
102
RTVSPropertyOp21
 70
     1
102
RTVSPropertyOp22
 70
     1
102
RTVSPropertyOp23
 70
     1
102
RTVSPropertyOp24
 70
     1
102
RTVSPropertyOp25
 70
     1
102
RTVSPropertyOp26
 70
     1
102
RTVSPropertyOp27
 70
     1
102
RTVSPropertyOp28
 70
     1
102
RTVSPropertyOp29
 70
     1
102
RTVSPropertyOp30
 70
     1
102
RTVSPropertyOp31
 70
     1
102
RTVSPropertyOp32
 70
     1
102
RTVSPropertyOp33
 70
     1
102
RTVSPropertyOp34
 70
     1
102
RTVSPropertyOp35
 70
     1
102
RTVSPropertyOp36
 70
     1
102
RTVSPropertyOp37
 70
     1
102
RTVSPropertyOp38
 70
     1
102
RTVSPropertyOp39
 70
     1
102
RTVSPropertyOp40
 70
     1
102
RTVSPropertyOp41
 70
     1
102
RTVSPropertyOp42
 70
     1
102
RTVSPropertyOp43
 70
     1
102
RTVSPropertyOp44
 70
     1
102
RTVSPropertyOp45
 70
     1
102
RTVSPropertyOp46
 70
     1
102
RTVSPropertyOp47
 70
     1
102
RTVSPropertyOp48
 70
     1
102
RTVSPropertyOp49
 70
     1
102
RTVSPropertyOp50
 70
     1
102
RTVSPropertyOp51
 70
     0
102
RTVSPropertyOp52
 70
     0
102
RTVSPropertyOp53
 70
     1
102
RTVSPropertyOp54
 70
     1
102
RTVSPropertyOp55
 70
     1
102
RTVSPropertyOp56
 70
     1
102
RTVSPropertyOp57
 70
     1
102
RTVSPost2010Prop28
280
     0
102
RTVSPost2010PropOp28
 70
     1
102
RTVSPost2010Prop29
280
     1
102
RTVSPost2010PropOp29
 70
     1
102
RTVSPost2010Prop30
280
     1
102
RTVSPost2010PropOp30
 70
     1
102
RTVSPost2010Prop31
280
     0
102
RTVSPost2010PropOp31
 70
     1
102
RTVSPost2010Prop32
280
     0
102
RTVSPost2010PropOp32
 70
     1
102
RTVSPost2010Prop33
280
     0
102
RTVSPost2010PropOp33
 70
     1
102
RTVSPost2010Prop34
280
     0
102
RTVSPost2010PropOp34
 70
     1
102
RTVSPost2010Prop35
280
     0
102
RTVSPost2010PropOp35
 70
     1
102
RTVSPost2010Prop36
280
     0
102
RTVSPost2010PropOp36
 70
     1
102
RTVSPost2010Prop37
 90
       50
102
RTVSPost2010PropOp37
 70
     1
102
RTVSPost2010Prop38
140
0.0
102
RTVSPost2010PropOp38
 70
     1
102
RTVSPost2010Prop39
140
1.0
102
RTVSPost2010PropOp39
 70
     1
102
RTVSPost2010Prop40
 90
        0
102
RTVSPost2010PropOp40
 70
     1
102
RTVSPost2010Prop41ColorIndex
 90
       18
102
RTVSPost2010Prop41ColorRGB
 90
        0
102
RTVSPost2010PropOp41
 70
     1
102
RTVSPost2010Prop42
 90
       50
102
RTVSPost2010PropOp42
 70
     1
102
RTVSPost2010Prop43
 90
        3
102
RTVSPost2010PropOp43
 70
     1
102
RTVSPost2010Prop44ColorIndex
 90
        5
102
RTVSPost2010Prop44ColorRGB
 90
      255
102
RTVSPost2010PropOp44
 70
     1
102
RTVSPost2010Prop45
280
     0
102
RTVSPost2010PropOp45
 70
     1
102
RTVSPost2010Prop46
 90
       50
102
RTVSPost2010PropOp46
 70
     1
102
RTVSPost2010Prop47
 90
       50
102
RTVSPost2010PropOp47
 70
     1
102
RTVSPost2010Prop48
 90
       50
102
RTVSPost2010PropOp48
 70
     1
102
RTVSPost2010Prop49
280
     0
102
RTVSPost2010PropOp49
 70
     1
102
RTVSPost2010Prop50
 90
       50
102
RTVSPost2010PropOp50
 70
     1
102
RTVSPost2010Prop51ColorIndex
 90
      256
102
RTVSPost2010Prop51ColorRGB
 90
-16777216
102
RTVSPost2010PropOp51
 70
     0
102
RTVSPost2010Prop52
140
1.0
102
RTVSPost2010PropOp52
 70
     0
102
RTVSPost2010Prop53
 90
        2
102
RTVSPost2010PropOp53
 70
     1
102
RTVSPost2010Prop54
  1
strokes_ogs.tif
102
RTVSPost2010PropOp54
 70
     1
102
RTVSPost2010Prop55
280
     0
102
RTVSPost2010PropOp55
 70
     1
102
RTVSPost2010Prop56
140
1.0
102
RTVSPost2010PropOp56
 70
     1
102
RTVSPost2010Prop57
140
1.0
102
RTVSPost2010PropOp57
 70
     1
  0
ENDSEC
  0
EOF
