  0
SECTION
  2
HEADER
  9
$ACADVER
  1
AC1015
  9
$ACADMAINTVER
 70
     6
  9
$DWGCODEPAGE
  3
ANSI_1252
  9
$INSBASE
 10
0.0
 20
0.0
 30
0.0
  9
$EXTMIN
 10
0.0
 20
0.0
 30
0.0
  9
$EXTMAX
 10
3000.0
 20
4500.0
 30
0.0
  9
$LIMMIN
 10
0.0
 20
0.0
  9
$LIMMAX
 10
3000.0
 20
4500.0
  9
$ORTHOMODE
 70
     0
  9
$REGENMODE
 70
     1
  9
$FILLMODE
 70
     1
  9
$QTEXTMODE
 70
     0
  9
$MIRRTEXT
 70
     1
  9
$LTSCALE
 40
1.0
  9
$ATTMODE
 70
     1
  9
$TEXTSIZE
 40
2.5
  9
$TRACEWID
 40
1.0
  9
$TEXTSTYLE
  7
Standard
  9
$CLAYER
  8
0
  9
$CELTYPE
  6
ByLayer
  9
$CECOLOR
 62
   256
  9
$CELTSCALE
 40
1.0
  9
$DISPSILH
 70
     0
  9
$DIMSCALE
 40
1.0
  9
$DIMASZ
 40
2.5
  9
$DIMEXO
 40
0.625
  9
$DIMDLI
 40
3.75
  9
$DIMRND
 40
0.0
  9
$DIMDLE
 40
0.0
  9
$DIMEXE
 40
1.25
  9
$DIMTP
 40
0.0
  9
$DIMTM
 40
0.0
  9
$DIMTXT
 40
2.5
  9
$DIMCEN
 40
2.5
  9
$DIMTSZ
 40
0.0
  9
$DIMTOL
 70
     0
  9
$DIMLIM
 70
     0
  9
$DIMTIH
 70
     0
  9
$DIMTOH
 70
     0
  9
$DIMSE1
 70
     0
  9
$DIMSE2
 70
     0
  9
$DIMTAD
 70
     1
  9
$DIMZIN
 70
     8
  9
$DIMBLK
  1

  9
$DIMASO
 70
     1
  9
$DIMSHO
 70
     1
  9
$DIMPOST
  1

  9
$DIMAPOST
  1

  9
$DIMALT
 70
     0
  9
$DIMALTD
 70
     3
  9
$DIMALTF
 40
0.0393700787
  9
$DIMLFAC
 40
1.0
  9
$DIMTOFL
 70
     1
  9
$DIMTVP
 40
0.0
  9
$DIMTIX
 70
     0
  9
$DIMSOXD
 70
     0
  9
$DIMSAH
 70
     0
  9
$DIMBLK1
  1

  9
$DIMBLK2
  1

  9
$DIMSTYLE
  2
ISO-25
  9
$DIMCLRD
 70
     0
  9
$DIMCLRE
 70
     0
  9
$DIMCLRT
 70
     0
  9
$DIMTFAC
 40
1.0
  9
$DIMGAP
 40
0.625
  9
$DIMJUST
 70
     0
  9
$DIMSD1
 70
     0
  9
$DIMSD2
 70
     0
  9
$DIMTOLJ
 70
     0
  9
$DIMTZIN
 70
     8
  9
$DIMALTZ
 70
     0
  9
$DIMALTTZ
 70
     0
  9
$DIMUPT
 70
     0
  9
$DIMDEC
 70
     2
  9
$DIMTDEC
 70
     2
  9
$DIMALTU
 70
     2
  9
$DIMALTTD
 70
     3
  9
$DIMTXSTY
  7
Standard
  9
$DIMAUNIT
 70
     0
  9
$DIMADEC
 70
     0
  9
$DIMALTRND
 40
0.0
  9
$DIMAZIN
 70
     0
  9
$DIMDSEP
 70
    44
  9
$DIMATFIT
 70
     3
  9
$DIMFRAC
 70
     0
  9
$DIMLDRBLK
  1

  9
$DIMLUNIT
 70
     2
  9
$DIMLWD
 70
    -2
  9
$DIMLWE
 70
    -2
  9
$DIMTMOVE
 70
     0
  9
$LUNITS
 70
     2
  9
$LUPREC
 70
     4
  9
$SKETCHINC
 40
1.0
  9
$FILLETRAD
 40
10.0
  9
$AUNITS
 70
     0
  9
$AUPREC
 70
     0
  9
$MENU
  1
.
  9
$ELEVATION
 40
0.0
  9
$PELEVATION
 40
0.0
  9
$THICKNESS
 40
0.0
  9
$LIMCHECK
 70
     0
  9
$CHAMFERA
 40
10.0
  9
$CHAMFERB
 40
10.0
  9
$CHAMFERC
 40
20.0
  9
$CHAMFERD
 40
0.0
  9
$SKPOLY
 70
     0
  9
$TDCREATE
 40
2456917.630182361
  9
$TDUCREATE
 40
2456917.546849028
  9
$TDUPDATE
 40
2456917.630182373
  9
$TDUUPDATE
 40
2456917.546849039
  9
$TDINDWG
 40
0.0000000116
  9
$TDUSRTIMER
 40
0.0000000116
  9
$USRTIMER
 70
     1
  9
$ANGBASE
 50
0.0
  9
$ANGDIR
 70
     0
  9
$PDMODE
 70
     0
  9
$PDSIZE
 40
0.0
  9
$PLINEWID
 40
0.0
  9
$SPLFRAME
 70
     0
  9
$SPLINETYPE
 70
     6
  9
$SPLINESEGS
 70
     8
  9
$HANDSEED
  5
234
  9
$SURFTAB1
 70
     6
  9
$SURFTAB2
 70
     6
  9
$SURFTYPE
 70
     6
  9
$SURFU
 70
     6
  9
$SURFV
 70
     6
  9
$UCSBASE
  2

  9
$UCSNAME
  2

  9
$UCSORG
 10
0.0
 20
0.0
 30
0.0
  9
$UCSXDIR
 10
1.0
 20
0.0
 30
0.0
  9
$UCSYDIR
 10
0.0
 20
1.0
 30
0.0
  9
$UCSORTHOREF
  2

  9
$UCSORTHOVIEW
 70
     0
  9
$UCSORGTOP
 10
0.0
 20
0.0
 30
0.0
  9
$UCSORGBOTTOM
 10
0.0
 20
0.0
 30
0.0
  9
$UCSORGLEFT
 10
0.0
 20
0.0
 30
0.0
  9
$UCSORGRIGHT
 10
0.0
 20
0.0
 30
0.0
  9
$UCSORGFRONT
 10
0.0
 20
0.0
 30
0.0
  9
$UCSORGBACK
 10
0.0
 20
0.0
 30
0.0
  9
$PUCSBASE
  2

  9
$PUCSNAME
  2

  9
$PUCSORG
 10
0.0
 20
0.0
 30
0.0
  9
$PUCSXDIR
 10
1.0
 20
0.0
 30
0.0
  9
$PUCSYDIR
 10
0.0
 20
1.0
 30
0.0
  9
$PUCSORTHOREF
  2

  9
$PUCSORTHOVIEW
 70
     0
  9
$PUCSORGTOP
 10
0.0
 20
0.0
 30
0.0
  9
$PUCSORGBOTTOM
 10
0.0
 20
0.0
 30
0.0
  9
$PUCSORGLEFT
 10
0.0
 20
0.0
 30
0.0
  9
$PUCSORGRIGHT
 10
0.0
 20
0.0
 30
0.0
  9
$PUCSORGFRONT
 10
0.0
 20
0.0
 30
0.0
  9
$PUCSORGBACK
 10
0.0
 20
0.0
 30
0.0
  9
$USERI1
 70
     0
  9
$USERI2
 70
     0
  9
$USERI3
 70
     0
  9
$USERI4
 70
     0
  9
$USERI5
 70
     0
  9
$USERR1
 40
0.0
  9
$USERR2
 40
0.0
  9
$USERR3
 40
0.0
  9
$USERR4
 40
0.0
  9
$USERR5
 40
0.0
  9
$WORLDVIEW
 70
     1
  9
$SHADEDGE
 70
     3
  9
$SHADEDIF
 70
    70
  9
$TILEMODE
 70
     1
  9
$MAXACTVP
 70
    64
  9
$PINSBASE
 10
0.0
 20
0.0
 30
0.0
  9
$PLIMCHECK
 70
     0
  9
$PEXTMIN
 10
0.0
 20
0.0
 30
0.0
  9
$PEXTMAX
 10
3000.0
 20
4500.0
 30
0.0
  9
$PLIMMIN
 10
0.0
 20
0.0
  9
$PLIMMAX
 10
3000.0
 20
4500.0
  9
$UNITMODE
 70
     0
  9
$VISRETAIN
 70
     1
  9
$PLINEGEN
 70
     0
  9
$PSLTSCALE
 70
     1
  9
$TREEDEPTH
 70
  3020
  9
$CMLSTYLE
  2
Standard
  9
$CMLJUST
 70
     0
  9
$CMLSCALE
 40
20.0
  9
$PROXYGRAPHICS
 70
     1
  9
$MEASUREMENT
 70
     1
  9
$CELWEIGHT
370
    -1
  9
$ENDCAPS
280
     0
  9
$JOINSTYLE
280
     0
  9
$LWDISPLAY
290
     0
  9
$INSUNITS
 70
     4
  9
$HYPERLINKBASE
  1

  9
$STYLESHEET
  1

  9
$XEDIT
290
     1
  9
$CEPSNTYPE
380
     0
  9
$PSTYLEMODE
290
     1
  9
$FINGERPRINTGUID
  2
{C5FABB07-03D3-4C90-BA4F-23783B9A60F6}
  9
$VERSIONGUID
  2
{FAEB1C32-E019-11D5-929B-00C0DF256EC4}
  9
$EXTNAMES
290
     1
  9
$PSVPSCALE
 40
0.0
  9
$OLESTARTUP
290
     0
  0
ENDSEC
  0
SECTION
  2
CLASSES
  0
CLASS
  1
ACDBDICTIONARYWDFLT
  2
AcDbDictionaryWithDefault
  3
ObjectDBX Classes
 90
        0
280
     0
281
     0
  0
CLASS
  1
VISUALSTYLE
  2
AcDbVisualStyle
  3
ObjectDBX Classes
 90
     4095
280
     0
281
     0
  0
CLASS
  1
SCALE
  2
AcDbScale
  3
ObjectDBX Classes
 90
     1153
280
     0
281
     0
  0
CLASS
  1
DICTIONARYVAR
  2
AcDbDictionaryVar
  3
ObjectDBX Classes
 90
        0
280
     0
281
     0
  0
CLASS
  1
ACDBPLACEHOLDER
  2
AcDbPlaceHolder
  3
ObjectDBX Classes
 90
        0
280
     0
281
     0
  0
CLASS
  1
LAYOUT
  2
AcDbLayout
  3
ObjectDBX Classes
 90
        0
280
     0
281
     0
  0
ENDSEC
  0
SECTION
  2
TABLES
  0
TABLE
  2
VPORT
  5
8
330
0
100
AcDbSymbolTable
 70
     1
  0
VPORT
  5
29
330
8
100
AcDbSymbolTableRecord
100
AcDbViewportTableRecord
  2
*Active
 70
     0
 10
0.0
 20
0.0
 11
1.0
 21
1.0
 12
344.1869158879
 22
148.5
 13
0.0
 23
0.0
 14
10.0
 24
10.0
 15
10.0
 25
10.0
 16
0.0
 26
0.0
 36
1.0
 17
0.0
 27
0.0
 37
0.0
 40
297.0
 41
1.9729729729
 42
50.0
 43
0.0
 44
0.0
 50
0.0
 51
0.0
 71
     0
 72
   100
 73
     1
 74
     3
 75
     0
 76
     0
 77
     0
 78
     0
281
     0
 65
     1
110
0.0
120
0.0
130
0.0
111
1.0
121
0.0
131
0.0
112
0.0
122
1.0
132
0.0
 79
     0
146
0.0
  0
ENDTAB
  0
TABLE
  2
LTYPE
  5
5
330
0
100
AcDbSymbolTable
 70
     2
  0
LTYPE
  5
14
330
5
100
AcDbSymbolTableRecord
100
AcDbLinetypeTableRecord
  2
ByBlock
 70
     0
  3

 72
    65
 73
     0
 40
0.0
  0
LTYPE
  5
15
330
5
100
AcDbSymbolTableRecord
100
AcDbLinetypeTableRecord
  2
ByLayer
 70
     0
  3

 72
    65
 73
     0
 40
0.0
  0
LTYPE
  5
16
330
5
100
AcDbSymbolTableRecord
100
AcDbLinetypeTableRecord
  2
Continuous
 70
     0
  3
Solid line
 72
    65
 73
     0
 40
0.0
  0
LTYPE
  5
60
330
5
100
AcDbSymbolTableRecord
100
AcDbLinetypeTableRecord
  2
CENTER2
 70
     0
  3
Center (.5x) ___ _ ___ _ ___ _ ___ _ ___ _ ___
 72
    65
 73
     4
 40
28.575
 49
19.05
 74
     4
 75
     0
340
0
 46
0.0
 50
0.0
 44
0.0
 45
0.0
 49
-3.175
 74
     4
 75
     0
340
0
 46
0.0
 50
0.0
 44
0.0
 45
0.0
 49
3.175
 74
     4
 75
     0
340
0
 46
0.0
 50
0.0
 44
0.0
 45
0.0
 49
-3.175
 74
     4
 75
     0
340
0
 46
0.0
 50
0.0
 44
0.0
 45
0.0
  0
ENDTAB
  0
TABLE
  2
LAYER
  5
2
330
0
100
AcDbSymbolTable
 70
    14
  0
LAYER
  5
10
330
2
100
AcDbSymbolTableRecord
100
AcDbLayerTableRecord
  2
0
 70
     0
 62
     7
  6
Continuous
370
    -3
390
F
  0
LAYER
  5
5D
330
2
100
AcDbSymbolTableRecord
100
AcDbLayerTableRecord
  2
Default
 70
     0
 62
     7
  6
Continuous
370
    -3
390
F
  0
LAYER
  5
97
330
2
100
AcDbSymbolTableRecord
100
AcDbLayerTableRecord
  2
$DDT_AUDIT_GENERATED_(97)
 70
     0
 62
     7
  6
Continuous
370
    -3
390
F
  0
LAYER
  5
C7
330
2
100
AcDbSymbolTableRecord
100
AcDbLayerTableRecord
  2
$DDT_AUDIT_GENERATED_(C7)
 70
     0
 62
     7
  6
Continuous
370
    -3
390
F
  0
LAYER
  5
C9
330
2
100
AcDbSymbolTableRecord
100
AcDbLayerTableRecord
  2
$DDT_AUDIT_GENERATED_(C9)
 70
     0
 62
     7
  6
Continuous
370
    -3
390
F
  0
LAYER
  5
D1
330
2
100
AcDbSymbolTableRecord
100
AcDbLayerTableRecord
  2
$DDT_AUDIT_GENERATED_(D1)
 70
     0
 62
     7
  6
Continuous
370
    -3
390
F
  0
LAYER
  5
D6
330
2
100
AcDbSymbolTableRecord
100
AcDbLayerTableRecord
  2
$DDT_AUDIT_GENERATED_(D6)
 70
     0
 62
     7
  6
Continuous
370
    -3
390
F
  0
LAYER
  5
152
330
2
100
AcDbSymbolTableRecord
100
AcDbLayerTableRecord
  2
$DDT_AUDIT_GENERATED_(152)
 70
     0
 62
     7
  6
Continuous
370
    -3
390
F
  0
LAYER
  5
1C6
330
2
100
AcDbSymbolTableRecord
100
AcDbLayerTableRecord
  2
$DDT_AUDIT_GENERATED_(1C6)
 70
     0
 62
     7
  6
Continuous
370
    -3
390
F
  0
LAYER
  5
1CC
330
2
100
AcDbSymbolTableRecord
100
AcDbLayerTableRecord
  2
$DDT_AUDIT_GENERATED_(1CC)
 70
     0
 62
     7
  6
Continuous
370
    -3
390
F
  0
LAYER
  5
1D1
330
2
100
AcDbSymbolTableRecord
100
AcDbLayerTableRecord
  2
$DDT_AUDIT_GENERATED_(1D1)
 70
     0
 62
     7
  6
Continuous
370
    -3
390
F
  0
LAYER
  5
201
330
2
100
AcDbSymbolTableRecord
100
AcDbLayerTableRecord
  2
$DDT_AUDIT_GENERATED_(201)
 70
     0
 62
     7
  6
Continuous
370
    -3
390
F
  0
LAYER
  5
213
330
2
100
AcDbSymbolTableRecord
100
AcDbLayerTableRecord
  2
$DDT_AUDIT_GENERATED_(213)
 70
     0
 62
     7
  6
Continuous
370
    -3
390
F
  0
LAYER
  5
215
330
2
100
AcDbSymbolTableRecord
100
AcDbLayerTableRecord
  2
$DDT_AUDIT_GENERATED_(215)
 70
     0
 62
     7
  6
Continuous
370
    -3
390
F
  0
ENDTAB
  0
TABLE
  2
STYLE
  5
3
330
0
100
AcDbSymbolTable
 70
     2
  0
STYLE
  5
11
330
3
100
AcDbSymbolTableRecord
100
AcDbTextStyleTableRecord
  2
Standard
 70
     0
 40
0.0
 41
1.0
 50
0.0
 71
     0
 42
2.5
  3
txt
  4

  0
STYLE
  5
223
330
3
100
AcDbSymbolTableRecord
100
AcDbTextStyleTableRecord
  2
SEACAD_seiso_ttf
 70
     0
 40
0.0
 41
1.0
 50
0.0
 71
     0
 42
0.2
  3
seiso.ttf
  4

  0
ENDTAB
  0
TABLE
  2
VIEW
  5
6
330
0
100
AcDbSymbolTable
 70
     0
  0
ENDTAB
  0
TABLE
  2
UCS
  5
7
330
0
100
AcDbSymbolTable
 70
     0
  0
ENDTAB
  0
TABLE
  2
APPID
  5
9
330
0
100
AcDbSymbolTable
 70
     1
  0
APPID
  5
12
330
9
100
AcDbSymbolTableRecord
100
AcDbRegAppTableRecord
  2
ACAD
 70
     0
  0
ENDTAB
  0
TABLE
  2
DIMSTYLE
  5
A
330
0
100
AcDbSymbolTable
 70
     1
100
AcDbDimStyleTable
  0
DIMSTYLE
105
27
330
A
100
AcDbSymbolTableRecord
100
AcDbDimStyleTableRecord
  2
ISO-25
 70
     0
 41
2.5
 42
0.625
 43
3.75
 44
1.25
 73
     0
 74
     0
 77
     1
 78
     8
140
2.5
141
2.5
143
0.0393700787
147
0.625
171
     3
172
     1
271
     2
272
     2
274
     3
278
    44
283
     0
284
     8
340
11
  0
ENDTAB
  0
TABLE
  2
BLOCK_RECORD
  5
1
330
0
100
AcDbSymbolTable
 70
    11
  0
BLOCK_RECORD
  5
1F
330
1
100
AcDbSymbolTableRecord
100
AcDbBlockTableRecord
  2
*Model_Space
340
22
  0
BLOCK_RECORD
  5
1B
330
1
100
AcDbSymbolTableRecord
100
AcDbBlockTableRecord
  2
*Paper_Space
340
1E
  0
BLOCK_RECORD
  5
5E
330
1
100
AcDbSymbolTableRecord
100
AcDbBlockTableRecord
  2
SEANNOT_GROUP
340
0
102
{BLKREFS
331
5F
102
}
  0
BLOCK_RECORD
  5
69
330
1
100
AcDbSymbolTableRecord
100
AcDbBlockTableRecord
  2
SEANNOT_GROUP1
340
0
102
{BLKREFS
331
6A
102
}
  0
BLOCK_RECORD
  5
73
330
1
100
AcDbSymbolTableRecord
100
AcDbBlockTableRecord
  2
SEANNOT_GROUP2
340
0
102
{BLKREFS
331
74
102
}
  0
BLOCK_RECORD
  5
7D
330
1
100
AcDbSymbolTableRecord
100
AcDbBlockTableRecord
  2
SEANNOT_GROUP3
340
0
102
{BLKREFS
331
7E
102
}
  0
BLOCK_RECORD
  5
83
330
1
100
AcDbSymbolTableRecord
100
AcDbBlockTableRecord
  2
SEANNOT_GROUP4
340
0
102
{BLKREFS
331
84
102
}
  0
BLOCK_RECORD
  5
89
330
1
100
AcDbSymbolTableRecord
100
AcDbBlockTableRecord
  2
SEANNOT_GROUP5
340
0
102
{BLKREFS
331
8A
102
}
  0
BLOCK_RECORD
  5
8F
330
1
100
AcDbSymbolTableRecord
100
AcDbBlockTableRecord
  2
SEANNOT_GROUP6
340
0
102
{BLKREFS
331
90
102
}
  0
BLOCK_RECORD
  5
95
330
1
100
AcDbSymbolTableRecord
100
AcDbBlockTableRecord
  2
SE
340
0
102
{BLKREFS
331
96
102
}
  0
BLOCK_RECORD
  5
11B
330
1
100
AcDbSymbolTableRecord
100
AcDbBlockTableRecord
  2
SE1
340
0
102
{BLKREFS
331
11C
102
}
  0
BLOCK_RECORD
  5
199
330
1
100
AcDbSymbolTableRecord
100
AcDbBlockTableRecord
  2
SE2
340
0
102
{BLKREFS
331
19A
102
}
  0
ENDTAB
  0
ENDSEC
  0
SECTION
  2
BLOCKS
  0
BLOCK
  5
20
330
1F
100
AcDbEntity
  8
0
100
AcDbBlockBegin
  2
*Model_Space
 70
     0
 10
0.0
 20
0.0
 30
0.0
  3
*Model_Space
  1

  0
ENDBLK
  5
21
330
1F
100
AcDbEntity
  8
0
100
AcDbBlockEnd
  0
BLOCK
  5
1C
330
1B
100
AcDbEntity
 67
     1
  8
0
100
AcDbBlockBegin
  2
*Paper_Space
 70
     0
 10
0.0
 20
0.0
 30
0.0
  3
*Paper_Space
  1

  0
ENDBLK
  5
1D
330
1B
100
AcDbEntity
 67
     1
  8
0
100
AcDbBlockEnd
  0
BLOCK
  5
67
330
5E
100
AcDbEntity
  8
0
100
AcDbBlockBegin
  2
SEANNOT_GROUP
 70
     0
 10
0.0
 20
0.0
 30
0.0
  3
SEANNOT_GROUP
  1

  0
LINE
  5
61
330
5E
100
AcDbEntity
  8
Default
  6
CENTER2
 62
     7
100
AcDbLine
 10
131.3500248873
 20
505.4146169285
 30
0.0
 11
91.3500257814
 21
505.4146169285
 31
0.0
  0
LINE
  5
62
330
5E
100
AcDbEntity
  8
Default
  6
CENTER2
 62
     7
100
AcDbLine
 10
111.3500253343
 20
525.4146164815
 30
0.0
 11
111.3500253343
 21
485.4146173756
 31
0.0
  0
LINE
  5
63
330
5E
100
AcDbEntity
  8
Default
  6
CENTER2
 62
     7
100
AcDbLine
 10
136.3500238442
 20
505.4146169285
 30
0.0
 11
121.9525451313
 21
505.4146169285
 31
0.0
  0
LINE
  5
64
330
5E
100
AcDbEntity
  8
Default
  6
CENTER2
 62
     7
100
AcDbLine
 10
111.3500253343
 20
530.4146154384
 30
0.0
 11
111.3500253343
 21
516.0171367255
 31
0.0
  0
LINE
  5
65
330
5E
100
AcDbEntity
  8
Default
  6
CENTER2
 62
     7
100
AcDbLine
 10
86.3500268245
 20
505.4146169285
 30
0.0
 11
100.7475055374
 21
505.4146169285
 31
0.0
  0
LINE
  5
66
330
5E
100
AcDbEntity
  8
Default
  6
CENTER2
 62
     7
100
AcDbLine
 10
111.3500253343
 20
480.4146184187
 30
0.0
 11
111.3500253343
 21
494.8120971316
 31
0.0
  0
ENDBLK
  5
68
330
5E
100
AcDbEntity
  8
0
100
AcDbBlockEnd
  0
BLOCK
  5
71
330
69
100
AcDbEntity
  8
0
100
AcDbBlockBegin
  2
SEANNOT_GROUP1
 70
     0
 10
0.0
 20
0.0
 30
0.0
  3
SEANNOT_GROUP1
  1

  0
LINE
  5
6B
330
69
100
AcDbEntity
  8
Default
  6
CENTER2
 62
     7
100
AcDbLine
 10
131.3500164295
 20
420.4128808583
 30
0.0
 11
91.3500173236
 21
420.4128808583
 31
0.0
  0
LINE
  5
6C
330
69
100
AcDbEntity
  8
Default
  6
CENTER2
 62
     7
100
AcDbLine
 10
111.3500168765
 20
440.4128804113
 30
0.0
 11
111.3500168765
 21
400.4128813054
 31
0.0
  0
LINE
  5
6D
330
69
100
AcDbEntity
  8
Default
  6
CENTER2
 62
     7
100
AcDbLine
 10
136.3500153864
 20
420.4128808583
 30
0.0
 11
121.5974937868
 21
420.4128808583
 31
0.0
  0
LINE
  5
6E
330
69
100
AcDbEntity
  8
Default
  6
CENTER2
 62
     7
100
AcDbLine
 10
111.3500168765
 20
445.4128793682
 30
0.0
 11
111.3500168765
 21
430.6603577686
 31
0.0
  0
LINE
  5
6F
330
69
100
AcDbEntity
  8
Default
  6
CENTER2
 62
     7
100
AcDbLine
 10
86.3500183666
 20
420.4128808583
 30
0.0
 11
101.1025399663
 21
420.4128808583
 31
0.0
  0
LINE
  5
70
330
69
100
AcDbEntity
  8
Default
  6
CENTER2
 62
     7
100
AcDbLine
 10
111.3500168765
 20
395.4128823485
 30
0.0
 11
111.3500168765
 21
410.1654039481
 31
0.0
  0
ENDBLK
  5
72
330
69
100
AcDbEntity
  8
0
100
AcDbBlockEnd
  0
BLOCK
  5
7B
330
73
100
AcDbEntity
  8
0
100
AcDbBlockBegin
  2
SEANNOT_GROUP2
 70
     0
 10
0.0
 20
0.0
 30
0.0
  3
SEANNOT_GROUP2
  1

  0
LINE
  5
75
330
73
100
AcDbEntity
  8
Default
  6
CENTER2
 62
     7
100
AcDbLine
 10
131.349999553
 20
457.916362091
 30
0.0
 11
91.350000447
 21
457.916362091
 31
0.0
  0
LINE
  5
76
330
73
100
AcDbEntity
  8
Default
  6
CENTER2
 62
     7
100
AcDbLine
 10
111.35
 20
477.916361644
 30
0.0
 11
111.35
 21
437.9163625381
 31
0.0
  0
LINE
  5
77
330
73
100
AcDbEntity
  8
Default
  6
CENTER2
 62
     7
100
AcDbLine
 10
136.3499985099
 20
457.916362091
 30
0.0
 11
219.85
 21
457.916362091
 31
0.0
  0
LINE
  5
78
330
73
100
AcDbEntity
  8
Default
  6
CENTER2
 62
     7
100
AcDbLine
 10
111.35
 20
482.9163606009
 30
0.0
 11
111.35
 21
566.416362091
 31
0.0
  0
LINE
  5
79
330
73
100
AcDbEntity
  8
Default
  6
CENTER2
 62
     7
100
AcDbLine
 10
86.3500014901
 20
457.916362091
 30
0.0
 11
2.85
 21
457.916362091
 31
0.0
  0
LINE
  5
7A
330
73
100
AcDbEntity
  8
Default
  6
CENTER2
 62
     7
100
AcDbLine
 10
111.35
 20
432.9163635812
 30
0.0
 11
111.35
 21
349.416362091
 31
0.0
  0
ENDBLK
  5
7C
330
73
100
AcDbEntity
  8
0
100
AcDbBlockEnd
  0
BLOCK
  5
81
330
7D
100
AcDbEntity
  8
0
100
AcDbBlockBegin
  2
SEANNOT_GROUP3
 70
     0
 10
0.0
 20
0.0
 30
0.0
  3
SEANNOT_GROUP3
  1

  0
LINE
  5
7F
330
7D
100
AcDbEntity
  8
Default
  6
CENTER2
 62
     7
100
AcDbLine
 10
392.9077146754
 20
458.0021464621
 30
0.0
 11
352.9077155695
 21
458.0021464621
 31
0.0
  0
LINE
  5
80
330
7D
100
AcDbEntity
  8
Default
  6
CENTER2
 62
     7
100
AcDbLine
 10
372.9077151225
 20
478.002146015
 30
0.0
 11
372.9077151225
 21
438.0021469091
 31
0.0
  0
ENDBLK
  5
82
330
7D
100
AcDbEntity
  8
0
100
AcDbBlockEnd
  0
BLOCK
  5
87
330
83
100
AcDbEntity
  8
0
100
AcDbBlockBegin
  2
SEANNOT_GROUP4
 70
     0
 10
0.0
 20
0.0
 30
0.0
  3
SEANNOT_GROUP4
  1

  0
LINE
  5
85
330
83
100
AcDbEntity
  8
Default
  6
CENTER2
 62
     7
100
AcDbLine
 10
131.349999553
 20
188.4500796888
 30
0.0
 11
91.350000447
 21
188.4500796888
 31
0.0
  0
LINE
  5
86
330
83
100
AcDbEntity
  8
Default
  6
CENTER2
 62
     7
100
AcDbLine
 10
111.35
 20
208.4500792417
 30
0.0
 11
111.35
 21
168.4500801358
 31
0.0
  0
ENDBLK
  5
88
330
83
100
AcDbEntity
  8
0
100
AcDbBlockEnd
  0
BLOCK
  5
8D
330
89
100
AcDbEntity
  8
0
100
AcDbBlockBegin
  2
SEANNOT_GROUP5
 70
     0
 10
0.0
 20
0.0
 30
0.0
  3
SEANNOT_GROUP5
  1

  0
LINE
  5
8B
330
89
100
AcDbEntity
  8
Default
  6
CENTER2
 62
     7
100
AcDbLine
 10
406.3105181946
 20
505.4163415522
 30
0.0
 11
366.3105190887
 21
505.4163415522
 31
0.0
  0
LINE
  5
8C
330
89
100
AcDbEntity
  8
Default
  6
CENTER2
 62
     7
100
AcDbLine
 10
386.3105186416
 20
525.4163411052
 30
0.0
 11
386.3105186416
 21
485.4163419993
 31
0.0
  0
ENDBLK
  5
8E
330
89
100
AcDbEntity
  8
0
100
AcDbBlockEnd
  0
BLOCK
  5
93
330
8F
100
AcDbEntity
  8
0
100
AcDbBlockBegin
  2
SEANNOT_GROUP6
 70
     0
 10
0.0
 20
0.0
 30
0.0
  3
SEANNOT_GROUP6
  1

  0
LINE
  5
91
330
8F
100
AcDbEntity
  8
Default
  6
CENTER2
 62
     7
100
AcDbLine
 10
406.3955246102
 20
420.4163417199
 30
0.0
 11
366.3955255042
 21
420.4163417199
 31
0.0
  0
LINE
  5
92
330
8F
100
AcDbEntity
  8
Default
  6
CENTER2
 62
     7
100
AcDbLine
 10
386.3955250572
 20
440.4163412729
 30
0.0
 11
386.3955250572
 21
400.4163421669
 31
0.0
  0
ENDBLK
  5
94
330
8F
100
AcDbEntity
  8
0
100
AcDbBlockEnd
  0
BLOCK
  5
119
330
95
100
AcDbEntity
  8
0
100
AcDbBlockBegin
  2
SE
 70
     0
 10
0.0
 20
0.0
 30
0.0
  3
SE
  1

  0
SPLINE
  5
98
330
95
100
AcDbEntity
  8
$DDT_AUDIT_GENERATED_(97)
  6
Continuous
 62
     7
100
AcDbSpline
210
0.0
220
0.0
230
1.0
 70
     8
 71
     3
 72
     9
 73
     5
 74
     0
 42
0.0000001857134788
 43
0.0000000001
 40
0.9133620805524999
 40
0.9133620805524999
 40
0.9133620805524999
 40
0.9133620805524999
 40
0.9193510051142261
 40
1.0
 40
1.0
 40
1.0
 40
1.0
 10
99.44937481365963
 20
487.5274833373534
 30
0.0
 10
99.44937451223704
 20
487.5272489118067
 30
0.0
 10
99.4493678828722
 20
487.5240168666141
 30
0.0
 10
99.44933094282372
 20
487.5229848079418
 30
0.0
 10
99.44921497831072
 20
487.5228661113197
 30
0.0
  0
SPLINE
  5
99
330
95
100
AcDbEntity
  8
$DDT_AUDIT_GENERATED_(97)
  6
Continuous
 62
     7
100
AcDbSpline
210
0.0
220
0.0
230
1.0
 70
     8
 71
     3
 72
    12
 73
     8
 74
     0
 42
0.0000000913852094
 43
0.0000000001
 40
0.0
 40
0.0
 40
0.0
 40
0.0
 40
0.1182636914109173
 40
0.2500099030770413
 40
0.500012809526338
 40
0.7607804504222356
 40
1.0
 40
1.0
 40
1.0
 40
1.0
 10
123.2387694276302
 20
523.1350723950776
 30
0.0
 10
123.2501559347891
 20
523.1424869449679
 30
0.0
 10
123.2569511617927
 20
523.1313182987656
 30
0.0
 10
123.2603253151647
 20
523.1148721436947
 30
0.0
 10
123.2544069027421
 20
523.0991325911111
 30
0.0
 10
123.2474263539578
 20
523.0784910922761
 30
0.0
 10
123.2465015557348
 20
523.0599389500069
 30
0.0
 10
123.2462415287196
 20
523.0511463772424
 30
0.0
  0
SPLINE
  5
9A
330
95
100
AcDbEntity
  8
$DDT_AUDIT_GENERATED_(97)
  6
Continuous
 62
     7
100
AcDbSpline
210
0.0
220
0.0
230
1.0
 70
     8
 71
     3
 72
    23
 73
    19
 74
     0
 42
0.0000001127521714
 43
0.0000000001
 40
0.0
 40
0.0
 40
0.0
 40
0.0
 40
0.0234943674768762
 40
0.059446172548849
 40
0.0953979776207851
 40
0.131349782692758
 40
0.2032533928367405
 40
0.347060613124632
 40
0.418964223268541
 40
0.4908678334125235
 40
0.5627714435564325
 40
0.634675053700415
 40
0.6706268587723878
 40
0.7065786638443607
 40
0.7425304689162968
 40
0.7784822739883065
 40
0.922289494276198
 40
1.0
 40
1.0
 40
1.0
 40
1.0
 10
99.45654566453716
 20
523.135013887457
 30
0.0
 10
99.46403198606787
 20
523.1210645626485
 30
0.0
 10
99.46230037572549
 20
523.1181333096823
 30
0.0
 10
99.45991752925691
 20
523.113768419608
 30
0.0
 10
99.45769951519341
 20
523.1092929036296
 30
0.0
 10
99.45529611847945
 20
523.103915040726
 30
0.0
 10
99.4523324618689
 20
523.0959908580038
 30
0.0
 10
99.45081650510306
 20
523.0900578502593
 30
0.0
 10
99.45003208515213
 20
523.0865691659159
 30
0.0
 10
99.44969263369858
 20
523.0846612431596
 30
0.0
 10
99.44948514085691
 20
523.0829483397059
 30
0.0
 10
99.4493763104799
 20
523.0811293117326
 30
0.0
 10
99.44930016326161
 20
523.0791066495889
 30
0.0
 10
99.44924857145391
 20
523.0772920979119
 30
0.0
 10
99.44920255831656
 20
523.0751661559793
 30
0.0
 10
99.44912180951133
 20
523.0702638212298
 30
0.0
 10
99.44905943887682
 20
523.0623889698318
 30
0.0
 10
99.44902987617398
 20
523.0542580720414
 30
0.0
 10
99.44912785016345
 20
523.051183841152
 30
0.0
  0
SPLINE
  5
9B
330
95
100
AcDbEntity
  8
$DDT_AUDIT_GENERATED_(97)
  6
Continuous
 62
     7
100
AcDbSpline
210
0.0
220
0.0
230
1.0
 70
     8
 71
     3
 72
    14
 73
    10
 74
     0
 42
0.000000165181669
 43
0.0000000001
 40
0.0
 40
0.0
 40
0.0
 40
0.0
 40
0.1301678137601338
 40
0.2499852345023594
 40
0.3454734950519138
 40
0.500156225945735
 40
0.750116550049017
 40
0.8490898065826252
 40
1.0
 40
1.0
 40
1.0
 40
1.0
 10
122.1532456449753
 20
523.6524693367297
 30
0.0
 10
122.1510187846658
 20
523.653600360875
 30
0.0
 10
122.1469526130377
 20
523.6568215976
 30
0.0
 10
122.1470336573796
 20
523.6593769275196
 30
0.0
 10
122.1531942105241
 20
523.6601319309968
 30
0.0
 10
122.1638417469907
 20
523.6603829527197
 30
0.0
 10
122.1732444782166
 20
523.6611263006654
 30
0.0
 10
122.167348598884
 20
523.6669342364538
 30
0.0
 10
122.1626386030516
 20
523.6705436530499
 30
0.0
 10
122.1565482083046
 20
523.6628679748127
 30
0.0
  0
ARC
  5
9C
330
95
100
AcDbEntity
  8
$DDT_AUDIT_GENERATED_(97)
  6
Continuous
 62
     7
100
AcDbCircle
 10
111.2906404506
 20
505.4634052493
 30
0.0
 40
21.55907333694763
100
AcDbArc
 50
303.6789371229
 51
359.8749230061
  0
ARC
  5
9D
330
95
100
AcDbEntity
  8
$DDT_AUDIT_GENERATED_(97)
  6
Continuous
 62
     7
100
AcDbCircle
 10
110.5181917206
 20
504.3168510515
 30
0.0
 40
20.1136813212498
100
AcDbArc
 50
236.6109775744
 51
240.2175247812
  0
ARC
  5
9E
330
95
100
AcDbEntity
  8
$DDT_AUDIT_GENERATED_(97)
  6
Continuous
 62
     7
100
AcDbCircle
 10
112.0832396421
 20
504.457709083
 30
0.0
 40
20.28290420706111
100
AcDbArc
 50
299.8261560952
 51
303.3911689722
  0
ARC
  5
9F
330
95
100
AcDbEntity
  8
$DDT_AUDIT_GENERATED_(97)
  6
Continuous
 62
     7
100
AcDbCircle
 10
111.3480204498
 20
505.38571698
 30
0.0
 40
21.45438689759138
100
AcDbArc
 50
239.7119549835
 51
300.2968991572
  0
ARC
  5
A0
330
95
100
AcDbEntity
  8
$DDT_AUDIT_GENERATED_(97)
  6
Continuous
 62
     7
100
AcDbCircle
 10
111.4419133358
 20
505.4833777798
 30
0.0
 40
21.59640695317755
100
AcDbArc
 50
180.177848557
 51
236.2679381522
  0
ARC
  5
A1
330
95
100
AcDbEntity
  8
$DDT_AUDIT_GENERATED_(97)
  6
Continuous
 62
     7
100
AcDbCircle
 10
111.3790509088
 20
505.3850520732
 30
0.0
 40
21.53346321773105
100
AcDbArc
 50
94.8562265045
 51
179.9167451621
  0
ARC
  5
A2
330
95
100
AcDbEntity
  8
$DDT_AUDIT_GENERATED_(97)
  6
Continuous
 62
     7
100
AcDbCircle
 10
111.316216054
 20
505.3850461944
 30
0.0
 40
21.53346910511523
100
AcDbArc
 50
0.0832704574
 51
84.6547281326
  0
ARC
  5
A3
330
95
100
AcDbEntity
  8
$DDT_AUDIT_GENERATED_(97)
  6
Continuous
 62
     7
100
AcDbCircle
 10
111.1964089042
 20
508.4704130359
 30
0.0
 40
18.43894179084662
100
AcDbArc
 50
89.5300817319
 51
95.6841579972
  0
ARC
  5
A4
330
95
100
AcDbEntity
  8
$DDT_AUDIT_GENERATED_(97)
  6
Continuous
 62
     7
100
AcDbCircle
 10
111.4981122363
 20
508.4504107113
 30
0.0
 40
18.45893730031234
100
AcDbArc
 50
84.3146100788
 51
90.4670758939
  0
ARC
  5
A5
330
95
100
AcDbEntity
  8
$DDT_AUDIT_GENERATED_(97)
  6
Continuous
 62
     7
100
AcDbCircle
 10
104.235095396
 20
505.9089280506
 30
0.0
 40
0.4958082313492274
100
AcDbArc
 50
265.3547640695
 51
271.4342848972
  0
ARC
  5
A6
330
95
100
AcDbEntity
  8
$DDT_AUDIT_GENERATED_(97)
  6
Continuous
 62
     7
100
AcDbCircle
 10
118.4843613705
 20
505.6095094898
 30
0.0
 40
0.1958827181779368
100
AcDbArc
 50
260.6522691543
 51
276.124608567
  0
LINE
  5
A7
330
95
100
AcDbEntity
  8
$DDT_AUDIT_GENERATED_(97)
  6
Continuous
 62
     7
100
AcDbLine
 10
104.2967459681
 20
524.4412507845
 30
0.0
 11
104.2967459174
 21
524.4088707236
 31
0.0
  0
LINE
  5
A8
330
95
100
AcDbEntity
  8
$DDT_AUDIT_GENERATED_(97)
  6
Continuous
 62
     7
100
AcDbLine
 10
118.3985271114
 20
524.4088750456
 30
0.0
 11
118.3985270608
 21
524.4409925578
 31
0.0
  0
ARC
  5
A9
330
95
100
AcDbEntity
  8
$DDT_AUDIT_GENERATED_(97)
  6
Continuous
 62
     7
100
AcDbCircle
 10
111.3500253343
 20
505.4146169285
 30
0.0
 40
7.10251979694367
100
AcDbArc
 50
180.0108239966
 51
0.0129960344
  0
ARC
  5
AA
330
95
100
AcDbEntity
  8
$DDT_AUDIT_GENERATED_(97)
  6
Continuous
 62
     7
100
AcDbCircle
 10
111.3500248681
 20
505.4168596776
 30
0.0
 40
7.102520108527544
100
AcDbArc
 50
359.994903856
 51
180.0289161751
  0
ELLIPSE
  5
AB
330
95
100
AcDbEntity
  8
$DDT_AUDIT_GENERATED_(97)
  6
Continuous
 62
     7
100
AcDbEllipse
 10
111.9567872809
 20
510.0251946837
 30
0.0
 11
-1.213627122347659
 21
-9.218408159915494
 31
0.0
210
0.0
220
0.0
230
1.0
 40
0.8660473769
 41
1.054374590401717
 42
1.064937741905855
  0
ELLIPSE
  5
AC
330
95
100
AcDbEntity
  8
$DDT_AUDIT_GENERATED_(97)
  6
Continuous
 62
     7
100
AcDbEllipse
 10
115.6447873655
 20
503.6373911557
 30
0.0
 11
-8.590189210196023
 21
3.558172170322463
 31
0.0
210
0.0
220
0.0
230
1.0
 40
0.866047377
 41
-1.064937740980545
 42
-1.054374589479716
  0
ARC
  5
AD
330
95
100
AcDbEntity
  8
$DDT_AUDIT_GENERATED_(97)
  6
Continuous
 62
     7
100
AcDbCircle
 10
111.3500199378
 20
505.4163417129
 30
0.0
 40
7.05072184015812
100
AcDbArc
 50
356.3100088116
 51
63.6899911884
  0
ARC
  5
AE
330
95
100
AcDbEntity
  8
$DDT_AUDIT_GENERATED_(97)
  6
Continuous
 62
     7
100
AcDbCircle
 10
115.203767052
 20
505.1303992762
 30
0.0
 40
3.186779995235285
100
AcDbArc
 50
351.1280431629
 51
356.9811923899
  0
ARC
  5
AF
330
95
100
AcDbEntity
  8
$DDT_AUDIT_GENERATED_(97)
  6
Continuous
 62
     7
100
AcDbCircle
 10
113.0290721133
 20
508.8963347311
 30
0.0
 40
3.187240542005299
100
AcDbArc
 50
63.0192308595
 51
68.8715335877
  0
ELLIPSE
  5
B0
330
95
100
AcDbEntity
  8
$DDT_AUDIT_GENERATED_(97)
  6
Continuous
 62
     7
100
AcDbEllipse
 10
115.038011377
 20
502.5864362184
 30
0.0
 11
-7.376547904265489
 21
5.660244106506882
 31
0.0
210
0.0
220
0.0
230
1.0
 40
0.8660471291
 41
1.05437622463187
 42
1.064939381927864
  0
ARC
  5
B1
330
95
100
AcDbEntity
  8
$DDT_AUDIT_GENERATED_(97)
  6
Continuous
 62
     7
100
AcDbCircle
 10
111.3500199378
 20
505.4163417129
 30
0.0
 40
7.05072184015811
100
AcDbArc
 50
236.3100088116
 51
303.6899911884
  0
ELLIPSE
  5
B2
330
95
100
AcDbEntity
  8
$DDT_AUDIT_GENERATED_(97)
  6
Continuous
 62
     7
100
AcDbEllipse
 10
107.6620198966
 20
502.5864392771
 30
0.0
 11
7.376562019610124
 21
5.660236036884815
 31
0.0
210
0.0
220
0.0
230
1.0
 40
0.8660473755
 41
-1.06493774961602
 42
-1.054374598082926
  0
ARC
  5
B3
330
95
100
AcDbEntity
  8
$DDT_AUDIT_GENERATED_(97)
  6
Continuous
 62
     7
100
AcDbCircle
 10
109.1755129653
 20
502.2218700289
 30
0.0
 40
3.186779993178117
100
AcDbArc
 50
231.1280431604
 51
236.9811923911
  0
ARC
  5
B4
330
95
100
AcDbEntity
  8
$DDT_AUDIT_GENERATED_(97)
  6
Continuous
 62
     7
100
AcDbCircle
 10
113.52425621
 20
502.2222433638
 30
0.0
 40
3.187240539952763
100
AcDbArc
 50
303.0192308583
 51
308.8715335902
  0
ELLIPSE
  5
B5
330
95
100
AcDbEntity
  8
$DDT_AUDIT_GENERATED_(97)
  6
Continuous
 62
     7
100
AcDbEllipse
 10
107.0552525313
 20
503.6373912448
 30
0.0
 11
8.590189210660553
 21
3.558172000026741
 31
0.0
210
0.0
220
0.0
230
1.0
 40
0.866047375
 41
1.054374606838896
 42
1.064937758397303
  0
ARC
  5
B6
330
95
100
AcDbEntity
  8
$DDT_AUDIT_GENERATED_(97)
  6
Continuous
 62
     7
100
AcDbCircle
 10
111.3500199378
 20
505.4163417129
 30
0.0
 40
7.050721840158113
100
AcDbArc
 50
116.3100088116
 51
183.6899911884
  0
ELLIPSE
  5
B7
330
95
100
AcDbEntity
  8
$DDT_AUDIT_GENERATED_(97)
  6
Continuous
 62
     7
100
AcDbEllipse
 10
110.7432456244
 20
510.0251887471
 30
0.0
 11
1.213641209540548
 21
-9.218399947044389
 31
0.0
210
0.0
220
0.0
230
0.9999999999999997
 40
0.8660471298
 41
-1.064939378906455
 42
-1.054376221623263
  0
ARC
  5
B8
330
95
100
AcDbEntity
  8
$DDT_AUDIT_GENERATED_(97)
  6
Continuous
 62
     7
100
AcDbCircle
 10
109.670779794
 20
508.8967558338
 30
0.0
 40
3.186779993176772
100
AcDbArc
 50
111.1280431604
 51
116.9811923911
  0
ARC
  5
B9
330
95
100
AcDbEntity
  8
$DDT_AUDIT_GENERATED_(97)
  6
Continuous
 62
     7
100
AcDbCircle
 10
107.4967314923
 20
505.1304470421
 30
0.0
 40
3.187240543039875
100
AcDbArc
 50
183.0192308602
 51
188.8715335864
  0
ARC
  5
BA
330
95
100
AcDbEntity
  8
$DDT_AUDIT_GENERATED_(97)
  6
Continuous
 62
     7
100
AcDbCircle
 10
111.1465359081
 20
507.2083092307
 30
0.0
 40
5.243298082788618
100
AcDbArc
 50
94.8346614112
 51
101.758712914
  0
ARC
  5
BB
330
95
100
AcDbEntity
  8
$DDT_AUDIT_GENERATED_(97)
  6
Continuous
 62
     7
100
AcDbCircle
 10
111.5536627746
 20
507.2093982546
 30
0.0
 40
5.24219954959911
100
AcDbArc
 50
78.240560714
 51
85.1660649608
  0
ARC
  5
BC
330
95
100
AcDbEntity
  8
$DDT_AUDIT_GENERATED_(97)
  6
Continuous
 62
     7
100
AcDbCircle
 10
104.0520309229
 20
508.933236552
 30
0.0
 40
4.387646675455565
100
AcDbArc
 50
274.549425188
 51
278.4677375815
  0
ARC
  5
BD
330
95
100
AcDbEntity
  8
$DDT_AUDIT_GENERATED_(97)
  6
Continuous
 62
     7
100
AcDbCircle
 10
110.750227258
 20
497.335073388
 30
0.0
 40
4.391975688892876
100
AcDbArc
 50
141.5341942406
 51
145.4486429899
  0
ARC
  5
BE
330
95
100
AcDbEntity
  8
$DDT_AUDIT_GENERATED_(97)
  6
Continuous
 62
     7
100
AcDbCircle
 10
111.9532941725
 20
497.3376504101
 30
0.0
 40
4.387646675053294
100
AcDbArc
 50
34.5494251879
 51
38.4677375816
  0
ARC
  5
BF
330
95
100
AcDbEntity
  8
$DDT_AUDIT_GENERATED_(97)
  6
Continuous
 62
     7
100
AcDbCircle
 10
118.6484999419
 20
508.9375401779
 30
0.0
 40
4.391975689166967
100
AcDbArc
 50
261.5341942407
 51
265.4486429898
  0
ARC
  5
C0
330
95
100
AcDbEntity
  8
$DDT_AUDIT_GENERATED_(97)
  6
Continuous
 62
     7
100
AcDbCircle
 10
104.9150155686
 20
495.4434921646
 30
0.0
 40
9.618726914627608
100
AcDbArc
 50
235.3731731039
 51
238.234809017
  0
ARC
  5
C1
330
95
100
AcDbEntity
  8
$DDT_AUDIT_GENERATED_(97)
  6
Continuous
 62
     7
100
AcDbCircle
 10
117.6337671574
 20
495.6609141787
 30
0.0
 40
9.880753285163978
100
AcDbArc
 50
301.7499494321
 51
304.609535864
  0
ARC
  5
C2
330
95
100
AcDbEntity
  8
$DDT_AUDIT_GENERATED_(97)
  6
Continuous
 62
     7
100
AcDbCircle
 10
113.3053646961
 20
526.535823424
 30
0.0
 40
0.2831512549217094
100
AcDbArc
 50
86.2266533882
 51
138.515184031
  0
SPLINE
  5
C3
330
95
100
AcDbEntity
  8
$DDT_AUDIT_GENERATED_(97)
  6
Continuous
 62
     7
100
AcDbSpline
210
0.0
220
0.0
230
1.0
 70
     8
 71
     3
 72
    16
 73
    12
 74
     0
 42
0.0000000327265322
 43
0.0000000001
 40
0.0
 40
0.0
 40
0.0
 40
0.0
 40
0.2072240951954606
 40
0.4288169152203898
 40
0.5152015265128239
 40
0.580364828457071
 40
0.6076676287798425
 40
0.6433817382320911
 40
0.7448360888235758
 40
0.8879622734573039
 40
1.0
 40
1.0
 40
1.0
 40
1.0
 10
109.4168114482105
 20
526.8221800691094
 30
0.0
 10
109.4030107828682
 20
526.8210192315823
 30
0.0
 10
109.3792734098262
 20
526.8190010003894
 30
0.0
 10
109.3749607221755
 20
526.8187920552729
 30
0.0
 10
109.3767553447967
 20
526.8188629567121
 30
0.0
 10
109.3836902468433
 20
526.8192809603274
 30
0.0
 10
109.3996942075507
 20
526.8192754193185
 30
0.0
 10
109.4301829578276
 20
526.8177197700891
 30
0.0
 10
109.4870349545737
 20
526.8067251623352
 30
0.0
 10
109.5563949109003
 20
526.7758203499608
 30
0.0
 10
109.5904474753829
 20
526.7402429848496
 30
0.0
 10
109.6075530176022
 20
526.7217244096076
 30
0.0
  0
SPLINE
  5
C4
330
95
100
AcDbEntity
  8
$DDT_AUDIT_GENERATED_(97)
  6
Continuous
 62
     7
100
AcDbSpline
210
0.0
220
0.0
230
1.0
 70
     8
 71
     3
 72
    13
 73
     9
 74
     0
 42
0.0000000004267263
 43
0.0000000001
 40
0.0
 40
0.0
 40
0.0
 40
0.0
 40
0.0234054460120609
 40
0.0452826474079306
 40
0.0666880380226406
 40
0.0887678087287013
 40
0.1124506210166406
 40
0.1250982066988838
 40
0.1250982066988838
 40
0.1250982066988838
 40
0.1250982066988838
 10
115.8193825704412
 20
482.6122086301443
 30
0.0
 10
116.0855966231586
 20
482.9084879873866
 30
0.0
 10
116.5167156602339
 20
483.3876009369242
 30
0.0
 10
117.1296626649658
 20
483.9625679075376
 30
0.0
 10
117.5629023527548
 20
484.3322651805811
 30
0.0
 10
117.8234547564589
 20
484.5460551630011
 30
0.0
 10
117.9018831866707
 20
484.6255273590849
 30
0.0
 10
117.903790134086
 20
484.6485423113459
 30
0.0
 10
117.9001141669644
 20
484.6545109373178
 30
0.0
  0
SPLINE
  5
C5
330
95
100
AcDbEntity
  8
$DDT_AUDIT_GENERATED_(97)
  6
Continuous
 62
     7
100
AcDbSpline
210
0.0
220
0.0
230
1.0
 70
     8
 71
     3
 72
    31
 73
    27
 74
     0
 42
0.0000000002675878
 43
0.0000000001
 40
0.531985376198305
 40
0.531985376198305
 40
0.531985376198305
 40
0.531985376198305
 40
0.5439992815681501
 40
0.5681315944419515
 40
0.5960814278770502
 40
0.6411231125838913
 40
0.676252915221829
 40
0.7029766425718351
 40
0.7143070575338646
 40
0.726883097221238
 40
0.7474266846320421
 40
0.7724099987112473
 40
0.8006206496456811
 40
0.8200237628126658
 40
0.8357348177000409
 40
0.8479155100964105
 40
0.8570853170373409
 40
0.8647964037335654
 40
0.8688414449915313
 40
0.8731661674968775
 40
0.8830497814878411
 40
0.8955970455305594
 40
0.912771637527192
 40
0.9359609392976493
 40
0.9652500534662612
 40
1.0
 40
1.0
 40
1.0
 40
1.0
 10
104.2040391747381
 20
485.0502233887828
 30
0.0
 10
104.2021558628331
 20
485.0446930472544
 30
0.0
 10
104.2113363146374
 20
485.0220359620649
 30
0.0
 10
104.2675767686655
 20
484.9655299589951
 30
0.0
 10
104.3714828322255
 20
484.872237566362
 30
0.0
 10
104.5013359910678
 20
484.761214312663
 30
0.0
 10
104.8213914663153
 20
484.5176023643682
 30
0.0
 10
105.2885673178065
 20
484.1433192051655
 30
0.0
 10
105.8013515924469
 20
483.6817422288057
 30
0.0
 10
106.3259616793777
 20
483.1697360266718
 30
0.0
 10
107.0270496097397
 20
482.402594259719
 30
0.0
 10
107.8757241080631
 20
481.3351887372197
 30
0.0
 10
108.6624745225649
 20
480.2244767619364
 30
0.0
 10
109.3401514308386
 20
479.2476642690775
 30
0.0
 10
109.8698999833116
 20
478.5345834282021
 30
0.0
 10
110.3328743220872
 20
478.0122771643555
 30
0.0
 10
110.7581295838866
 20
477.6635742873401
 30
0.0
 10
111.1324419013927
 20
477.5075247063151
 30
0.0
 10
111.439426811208
 20
477.4956817555846
 30
0.0
 10
111.7791089164274
 20
477.573000584217
 30
0.0
 10
112.2117558923236
 20
477.8542739828837
 30
0.0
 10
112.7285487918178
 20
478.4009186337184
 30
0.0
 10
113.3081183742844
 20
479.1764736389749
 30
0.0
 10
113.9860688844913
 20
480.1701482323988
 30
0.0
 10
114.8314212067861
 20
481.3994831922561
 30
0.0
 10
115.4328617599436
 20
482.1380587645339
 30
0.0
 10
115.8193825704412
 20
482.6122086301443
 30
0.0
  0
ARC
  5
C6
330
95
100
AcDbEntity
  8
$DDT_AUDIT_GENERATED_(97)
  6
Continuous
 62
     7
100
AcDbCircle
 10
112.5671920224
 20
512.0476756992
 30
0.0
 40
0.2985429155894623
100
AcDbArc
 50
87.1927608605
 51
127.3675267493
  0
ARC
  5
C8
330
95
100
AcDbEntity
  8
$DDT_AUDIT_GENERATED_(C7)
  6
Continuous
 62
     7
100
AcDbCircle
 10
111.2052118219
 20
504.0808022071
 30
0.0
 40
21.84970807911868
100
AcDbArc
 50
107.9171353494
 51
108.0427930607
  0
ARC
  5
CA
330
95
100
AcDbEntity
  8
$DDT_AUDIT_GENERATED_(C9)
  6
Continuous
 62
     7
100
AcDbCircle
 10
111.3500168765
 20
420.4128808583
 30
0.0
 40
6.74747691025992
100
AcDbArc
 50
179.9702974375
 51
0.029702572
  0
ARC
  5
CB
330
95
100
AcDbEntity
  8
$DDT_AUDIT_GENERATED_(C9)
  6
Continuous
 62
     7
100
AcDbCircle
 10
111.350004314
 20
420.4174688374
 30
0.0
 40
6.936933925459089
100
AcDbArc
 50
359.9911785319
 51
180.008831851
  0
ARC
  5
CC
330
95
100
AcDbEntity
  8
$DDT_AUDIT_GENERATED_(C9)
  6
Continuous
 62
     7
100
AcDbCircle
 10
111.3491248476
 20
420.4137217546
 30
0.0
 40
6.937813826854933
100
AcDbArc
 50
285.0005559898
 51
0.02212485
  0
ARC
  5
CD
330
95
100
AcDbEntity
  8
$DDT_AUDIT_GENERATED_(C9)
  6
Continuous
 62
     7
100
AcDbCircle
 10
111.3506441075
 20
420.4135379461
 30
0.0
 40
6.937574226742035
100
AcDbArc
 50
179.9763667367
 51
254.992368045
  0
ELLIPSE
  5
CE
330
95
100
AcDbEntity
  8
$DDT_AUDIT_GENERATED_(C9)
  6
Continuous
 62
     7
100
AcDbEllipse
 10
116.2453059974
 20
425.2776142674
 30
0.0
 11
0.2128702796138438
 21
0.2113912109268515
 31
0.0
210
0.0
220
0.0
230
0.9999999999999998
 40
0.9998340168
 41
1.052659346027119
 42
1.277617175247928
  0
ARC
  5
CF
330
95
100
AcDbEntity
  8
$DDT_AUDIT_GENERATED_(C9)
  6
Continuous
 62
     7
100
AcDbCircle
 10
111.3509477561
 20
423.8009026217
 30
0.0
 40
10.21716748760868
100
AcDbArc
 50
265.0284171841
 51
273.7001027095
  0
ARC
  5
D0
330
95
100
AcDbEntity
  8
$DDT_AUDIT_GENERATED_(C9)
  6
Continuous
 62
     7
100
AcDbCircle
 10
111.3505613839
 20
427.8343235418
 30
0.0
 40
14.23552663695991
100
AcDbArc
 50
262.7504973159
 51
277.2409038926
  0
ARC
  5
D2
330
95
100
AcDbEntity
  8
$DDT_AUDIT_GENERATED_(D1)
  6
Continuous
 62
     7
100
AcDbCircle
 10
111.3500199378
 20
420.4163417129
 30
0.0
 40
26.25
100
AcDbArc
 50
274.3690207
 51
0.0
  0
ARC
  5
D3
330
95
100
AcDbEntity
  8
$DDT_AUDIT_GENERATED_(D1)
  6
Continuous
 62
     7
100
AcDbCircle
 10
111.3500199378
 20
420.4163417129
 30
0.0
 40
26.25
100
AcDbArc
 50
0.0
 51
265.5957983676
  0
ARC
  5
D4
330
95
100
AcDbEntity
  8
$DDT_AUDIT_GENERATED_(D1)
  6
Continuous
 62
     7
100
AcDbCircle
 10
111.3500199378
 20
505.4163417129
 30
0.0
 40
26.25
100
AcDbArc
 50
274.4591036316
 51
0.0
  0
ARC
  5
D5
330
95
100
AcDbEntity
  8
$DDT_AUDIT_GENERATED_(D1)
  6
Continuous
 62
     7
100
AcDbCircle
 10
111.3500199378
 20
505.4163417129
 30
0.0
 40
26.25
100
AcDbArc
 50
0.0
 51
265.480725286
  0
LINE
  5
D7
330
95
100
AcDbEntity
  8
$DDT_AUDIT_GENERATED_(D6)
  6
Continuous
 62
     7
100
AcDbLine
 10
105.35
 20
353.1491236069
 30
0.0
 11
105.35
 21
353.0879308331
 31
0.0
  0
ARC
  5
D8
330
95
100
AcDbEntity
  8
$DDT_AUDIT_GENERATED_(D6)
  6
Continuous
 62
     7
100
AcDbCircle
 10
105.383996052
 20
339.8207442569
 30
0.0
 40
13.32842270593993
100
AcDbArc
 50
85.8437302244
 51
90.1461412544
  0
ARC
  5
D9
330
95
100
AcDbEntity
  8
$DDT_AUDIT_GENERATED_(D6)
  6
Continuous
 62
     7
100
AcDbCircle
 10
111.35
 20
457.916362091
 30
0.0
 40
104.921452207823
100
AcDbArc
 50
267.2685524902
 51
272.7314475098
  0
LINE
  5
DA
330
95
100
AcDbEntity
  8
$DDT_AUDIT_GENERATED_(D6)
  6
Continuous
 62
     7
100
AcDbLine
 10
117.35
 20
353.1491236069
 30
0.0
 11
117.35
 21
353.0879308331
 31
0.0
  0
ARC
  5
DB
330
95
100
AcDbEntity
  8
$DDT_AUDIT_GENERATED_(D6)
  6
Continuous
 62
     7
100
AcDbCircle
 10
117.5226292186
 20
333.9187275396
 30
0.0
 40
19.23117088876671
100
AcDbArc
 50
90.514324299
 51
93.4958042222
  0
ARC
  5
DC
330
95
100
AcDbEntity
  8
$DDT_AUDIT_GENERATED_(D6)
  6
Continuous
 62
     7
100
AcDbCircle
 10
111.35
 20
457.916362091
 30
0.0
 40
105.0
100
AcDbArc
 50
273.2758289598
 51
266.7241710402
  0
ARC
  5
DD
330
95
100
AcDbEntity
  8
$DDT_AUDIT_GENERATED_(D6)
  6
Continuous
 62
     7
100
AcDbCircle
 10
111.3500199378
 20
505.4163417129
 30
0.0
 40
26.75002516890581
100
AcDbArc
 50
273.4993743522
 51
0.0
  0
ARC
  5
DE
330
95
100
AcDbEntity
  8
$DDT_AUDIT_GENERATED_(D6)
  6
Continuous
 62
     7
100
AcDbCircle
 10
111.3500199378
 20
505.4163417129
 30
0.0
 40
26.75002516890581
100
AcDbArc
 50
0.0
 51
266.4896614429
  0
ARC
  5
DF
330
95
100
AcDbEntity
  8
$DDT_AUDIT_GENERATED_(D6)
  6
Continuous
 62
     7
100
AcDbCircle
 10
111.3500199378
 20
420.4163417129
 30
0.0
 40
26.75002516890585
100
AcDbArc
 50
273.4993192718
 51
360.0
  0
ARC
  5
E0
330
95
100
AcDbEntity
  8
$DDT_AUDIT_GENERATED_(D6)
  6
Continuous
 62
     7
100
AcDbCircle
 10
111.3500199378
 20
420.4163417129
 30
0.0
 40
26.75002516890585
100
AcDbArc
 50
0.0
 51
266.4896337351
  0
SPLINE
  5
E1
330
95
100
AcDbEntity
  8
$DDT_AUDIT_GENERATED_(97)
  6
Continuous
 62
     7
100
AcDbSpline
210
0.0
220
0.0
230
1.0
 70
     8
 71
     3
 72
     9
 73
     5
 74
     0
 42
0.0000001857134788
 43
0.0000000001
 40
0.9133620805524996
 40
0.9133620805524996
 40
0.9133620805524996
 40
0.9133620805524996
 40
0.9193510051142261
 40
1.0
 40
1.0
 40
1.0
 40
1.0
 10
99.4493748136596
 20
402.5274833373533
 30
0.0
 10
99.44937451223701
 20
402.5272489118067
 30
0.0
 10
99.44936788287217
 20
402.5240168666141
 30
0.0
 10
99.44933094282369
 20
402.5229848079418
 30
0.0
 10
99.44921497831069
 20
402.5228661113197
 30
0.0
  0
SPLINE
  5
E2
330
95
100
AcDbEntity
  8
$DDT_AUDIT_GENERATED_(97)
  6
Continuous
 62
     7
100
AcDbSpline
210
0.0
220
0.0
230
1.0
 70
     8
 71
     3
 72
    12
 73
     8
 74
     0
 42
0.0000000913852094
 43
0.0000000001
 40
0.0
 40
0.0
 40
0.0
 40
0.0
 40
0.1182636914109173
 40
0.2500099030770413
 40
0.500012809526338
 40
0.7607804504222356
 40
1.0
 40
1.0
 40
1.0
 40
1.0
 10
123.2387694276302
 20
438.1350723950775
 30
0.0
 10
123.250155934789
 20
438.1424869449679
 30
0.0
 10
123.2569511617927
 20
438.1313182987655
 30
0.0
 10
123.2603253151647
 20
438.1148721436947
 30
0.0
 10
123.254406902742
 20
438.0991325911111
 30
0.0
 10
123.2474263539578
 20
438.0784910922761
 30
0.0
 10
123.2465015557348
 20
438.0599389500068
 30
0.0
 10
123.2462415287195
 20
438.0511463772423
 30
0.0
  0
SPLINE
  5
E3
330
95
100
AcDbEntity
  8
$DDT_AUDIT_GENERATED_(97)
  6
Continuous
 62
     7
100
AcDbSpline
210
0.0
220
0.0
230
1.0
 70
     8
 71
     3
 72
    23
 73
    19
 74
     0
 42
0.0000001127521714
 43
0.0000000001
 40
0.0
 40
0.0
 40
0.0
 40
0.0
 40
0.0234943674768762
 40
0.059446172548849
 40
0.0953979776207851
 40
0.131349782692758
 40
0.2032533928367405
 40
0.347060613124632
 40
0.418964223268541
 40
0.4908678334125235
 40
0.5627714435564325
 40
0.634675053700415
 40
0.6706268587723878
 40
0.7065786638443607
 40
0.7425304689162968
 40
0.7784822739883065
 40
0.922289494276198
 40
1.0
 40
1.0
 40
1.0
 40
1.0
 10
99.45654566453713
 20
438.1350138874571
 30
0.0
 10
99.46403198606784
 20
438.1210645626485
 30
0.0
 10
99.46230037572548
 20
438.1181333096824
 30
0.0
 10
99.45991752925688
 20
438.1137684196081
 30
0.0
 10
99.45769951519338
 20
438.1092929036296
 30
0.0
 10
99.45529611847944
 20
438.1039150407259
 30
0.0
 10
99.45233246186889
 20
438.0959908580037
 30
0.0
 10
99.45081650510305
 20
438.0900578502593
 30
0.0
 10
99.4500320851521
 20
438.0865691659159
 30
0.0
 10
99.44969263369855
 20
438.0846612431597
 30
0.0
 10
99.44948514085688
 20
438.0829483397059
 30
0.0
 10
99.44937631047988
 20
438.0811293117326
 30
0.0
 10
99.44930016326158
 20
438.0791066495889
 30
0.0
 10
99.44924857145388
 20
438.0772920979119
 30
0.0
 10
99.44920255831653
 20
438.0751661559793
 30
0.0
 10
99.4491218095113
 20
438.0702638212298
 30
0.0
 10
99.44905943887679
 20
438.0623889698317
 30
0.0
 10
99.44902987617395
 20
438.0542580720415
 30
0.0
 10
99.44912785016344
 20
438.051183841152
 30
0.0
  0
SPLINE
  5
E4
330
95
100
AcDbEntity
  8
$DDT_AUDIT_GENERATED_(97)
  6
Continuous
 62
     7
100
AcDbSpline
210
0.0
220
0.0
230
1.0
 70
     8
 71
     3
 72
    14
 73
    10
 74
     0
 42
0.000000165181669
 43
0.0000000001
 40
0.0
 40
0.0
 40
0.0
 40
0.0
 40
0.1301678137601338
 40
0.2499852345023594
 40
0.3454734950519138
 40
0.500156225945735
 40
0.750116550049017
 40
0.8490898065826252
 40
1.0
 40
1.0
 40
1.0
 40
1.0
 10
122.1532456449752
 20
438.6524693367296
 30
0.0
 10
122.1510187846657
 20
438.6536003608749
 30
0.0
 10
122.1469526130376
 20
438.6568215976
 30
0.0
 10
122.1470336573796
 20
438.6593769275196
 30
0.0
 10
122.153194210524
 20
438.6601319309967
 30
0.0
 10
122.1638417469906
 20
438.6603829527197
 30
0.0
 10
122.1732444782166
 20
438.6611263006653
 30
0.0
 10
122.167348598884
 20
438.6669342364539
 30
0.0
 10
122.1626386030515
 20
438.6705436530498
 30
0.0
 10
122.1565482083045
 20
438.6628679748126
 30
0.0
  0
ARC
  5
E5
330
95
100
AcDbEntity
  8
$DDT_AUDIT_GENERATED_(97)
  6
Continuous
 62
     7
100
AcDbCircle
 10
111.2906404506
 20
420.4634052493
 30
0.0
 40
21.55907333694758
100
AcDbArc
 50
303.6789371229
 51
359.8749230061
  0
ARC
  5
E6
330
95
100
AcDbEntity
  8
$DDT_AUDIT_GENERATED_(97)
  6
Continuous
 62
     7
100
AcDbCircle
 10
110.5181917206
 20
419.3168510515
 30
0.0
 40
20.11368132124949
100
AcDbArc
 50
236.6109775744
 51
240.2175247812
  0
ARC
  5
E7
330
95
100
AcDbEntity
  8
$DDT_AUDIT_GENERATED_(97)
  6
Continuous
 62
     7
100
AcDbCircle
 10
112.0832396421
 20
419.457709083
 30
0.0
 40
20.28290420705573
100
AcDbArc
 50
299.8261560952
 51
303.3911689722
  0
ARC
  5
E8
330
95
100
AcDbEntity
  8
$DDT_AUDIT_GENERATED_(97)
  6
Continuous
 62
     7
100
AcDbCircle
 10
111.3480204498
 20
420.38571698
 30
0.0
 40
21.45438689759141
100
AcDbArc
 50
239.7119549835
 51
300.2968991572
  0
ARC
  5
E9
330
95
100
AcDbEntity
  8
$DDT_AUDIT_GENERATED_(97)
  6
Continuous
 62
     7
100
AcDbCircle
 10
111.4419133358
 20
420.4833777798
 30
0.0
 40
21.59640695317753
100
AcDbArc
 50
180.177848557
 51
236.2679381522
  0
ARC
  5
EA
330
95
100
AcDbEntity
  8
$DDT_AUDIT_GENERATED_(97)
  6
Continuous
 62
     7
100
AcDbCircle
 10
111.3790509088
 20
420.3850520732
 30
0.0
 40
21.53346321773107
100
AcDbArc
 50
94.8562265045
 51
179.9167451621
  0
ARC
  5
EB
330
95
100
AcDbEntity
  8
$DDT_AUDIT_GENERATED_(97)
  6
Continuous
 62
     7
100
AcDbCircle
 10
111.316216054
 20
420.3850461944
 30
0.0
 40
21.53346910511524
100
AcDbArc
 50
0.0832704574
 51
84.6547281326
  0
ARC
  5
EC
330
95
100
AcDbEntity
  8
$DDT_AUDIT_GENERATED_(97)
  6
Continuous
 62
     7
100
AcDbCircle
 10
111.1964089042
 20
423.4704130359
 30
0.0
 40
18.43894179084029
100
AcDbArc
 50
89.5300817319
 51
95.6841579972
  0
ARC
  5
ED
330
95
100
AcDbEntity
  8
$DDT_AUDIT_GENERATED_(97)
  6
Continuous
 62
     7
100
AcDbCircle
 10
111.4981122363
 20
423.4504107113
 30
0.0
 40
18.4589373003064
100
AcDbArc
 50
84.3146100788
 51
90.4670758939
  0
ARC
  5
EE
330
95
100
AcDbEntity
  8
$DDT_AUDIT_GENERATED_(97)
  6
Continuous
 62
     7
100
AcDbCircle
 10
104.235095396
 20
420.9089280506
 30
0.0
 40
0.4958082313512803
100
AcDbArc
 50
265.3547640695
 51
271.4342848972
  0
ARC
  5
EF
330
95
100
AcDbEntity
  8
$DDT_AUDIT_GENERATED_(97)
  6
Continuous
 62
     7
100
AcDbCircle
 10
118.4843613705
 20
420.6095094898
 30
0.0
 40
0.1958827181779639
100
AcDbArc
 50
260.6522691543
 51
276.124608567
  0
LINE
  5
F0
330
95
100
AcDbEntity
  8
$DDT_AUDIT_GENERATED_(97)
  6
Continuous
 62
     7
100
AcDbLine
 10
104.2967459681
 20
439.4412507845
 30
0.0
 11
104.2967459174
 21
439.4088707236
 31
0.0
  0
ARC
  5
F1
330
95
100
AcDbEntity
  8
$DDT_AUDIT_GENERATED_(97)
  6
Continuous
 62
     7
100
AcDbCircle
 10
111.3500253343
 20
420.4146169285
 30
0.0
 40
7.10251979694367
100
AcDbArc
 50
180.0108239966
 51
0.0129960344
  0
ARC
  5
F2
330
95
100
AcDbEntity
  8
$DDT_AUDIT_GENERATED_(97)
  6
Continuous
 62
     7
100
AcDbCircle
 10
111.3500248681
 20
420.4168596776
 30
0.0
 40
7.102520108527544
100
AcDbArc
 50
359.994903856
 51
180.0289161751
  0
ELLIPSE
  5
F3
330
95
100
AcDbEntity
  8
$DDT_AUDIT_GENERATED_(97)
  6
Continuous
 62
     7
100
AcDbEllipse
 10
111.9567872809
 20
425.0251946838
 30
0.0
 11
-1.213627121054334
 21
-9.218408160206989
 31
0.0
210
0.0
220
0.0
230
0.9999999999999999
 40
0.8660473769
 41
1.05437459027402
 42
1.06493774177838
  0
ELLIPSE
  5
F4
330
95
100
AcDbEntity
  8
$DDT_AUDIT_GENERATED_(97)
  6
Continuous
 62
     7
100
AcDbEllipse
 10
115.6447873614
 20
418.6373911766
 30
0.0
 11
-8.590189209888798
 21
3.558172132911492
 31
0.0
210
0.0
220
0.0
230
0.9999999999999998
 40
0.8660473765
 41
-1.064937744765824
 42
-1.054374593251456
  0
ARC
  5
F5
330
95
100
AcDbEntity
  8
$DDT_AUDIT_GENERATED_(97)
  6
Continuous
 62
     7
100
AcDbCircle
 10
111.3500199378
 20
420.4163417129
 30
0.0
 40
7.050721840158113
100
AcDbArc
 50
356.3100088116
 51
63.6899911884
  0
ARC
  5
F6
330
95
100
AcDbEntity
  8
$DDT_AUDIT_GENERATED_(97)
  6
Continuous
 62
     7
100
AcDbCircle
 10
115.203767052
 20
420.1303992762
 30
0.0
 40
3.186779995235372
100
AcDbArc
 50
351.1280431629
 51
356.9811923899
  0
ARC
  5
F7
330
95
100
AcDbEntity
  8
$DDT_AUDIT_GENERATED_(97)
  6
Continuous
 62
     7
100
AcDbCircle
 10
113.0290721133
 20
423.8963347311
 30
0.0
 40
3.187240542010144
100
AcDbArc
 50
63.0192308595
 51
68.8715335877
  0
ELLIPSE
  5
F8
330
95
100
AcDbEntity
  8
$DDT_AUDIT_GENERATED_(97)
  6
Continuous
 62
     7
100
AcDbEllipse
 10
115.0380201141
 20
417.5864393283
 30
0.0
 11
-7.376562239202046
 21
5.660235912454727
 31
0.0
210
0.0
220
0.0
230
0.9999999999999997
 40
0.8660473797
 41
1.054374573047398
 42
1.064937724489074
  0
ARC
  5
F9
330
95
100
AcDbEntity
  8
$DDT_AUDIT_GENERATED_(97)
  6
Continuous
 62
     7
100
AcDbCircle
 10
111.3500199378
 20
420.4163417129
 30
0.0
 40
7.050721840158113
100
AcDbArc
 50
236.3100088116
 51
303.6899911884
  0
ELLIPSE
  5
FA
330
95
100
AcDbEntity
  8
$DDT_AUDIT_GENERATED_(97)
  6
Continuous
 62
     7
100
AcDbEllipse
 10
107.6620286087
 20
417.5864361796
 30
0.0
 11
7.37654772198213
 21
5.660244211585566
 31
0.0
210
0.0
220
0.0
230
1.0
 40
0.866047126
 41
-1.064939403067374
 42
-1.054376245698097
  0
ARC
  5
FB
330
95
100
AcDbEntity
  8
$DDT_AUDIT_GENERATED_(97)
  6
Continuous
 62
     7
100
AcDbCircle
 10
109.1755129653
 20
417.2218700289
 30
0.0
 40
3.186779993176844
100
AcDbArc
 50
231.1280431604
 51
236.9811923911
  0
ARC
  5
FC
330
95
100
AcDbEntity
  8
$DDT_AUDIT_GENERATED_(97)
  6
Continuous
 62
     7
100
AcDbCircle
 10
113.52425621
 20
417.2222433638
 30
0.0
 40
3.187240539950809
100
AcDbArc
 50
303.0192308583
 51
308.8715335902
  0
ELLIPSE
  5
FD
330
95
100
AcDbEntity
  8
$DDT_AUDIT_GENERATED_(97)
  6
Continuous
 62
     7
100
AcDbEllipse
 10
107.0552541643
 20
418.6374001503
 30
0.0
 11
8.59018914112348
 21
3.558155882822104
 31
0.0
210
0.0
220
0.0
230
1.0
 40
0.8660471302
 41
1.054376218819135
 42
1.0649393760927
  0
ARC
  5
FE
330
95
100
AcDbEntity
  8
$DDT_AUDIT_GENERATED_(97)
  6
Continuous
 62
     7
100
AcDbCircle
 10
111.3500199378
 20
420.4163417129
 30
0.0
 40
7.050721840158113
100
AcDbArc
 50
116.3100088116
 51
183.6899911884
  0
ELLIPSE
  5
FF
330
95
100
AcDbEntity
  8
$DDT_AUDIT_GENERATED_(97)
  6
Continuous
 62
     7
100
AcDbEllipse
 10
110.7432456245
 20
425.0251887473
 30
0.0
 11
1.213641208096674
 21
-9.218399947386022
 31
0.0
210
0.0
220
0.0
230
1.0
 40
0.8660471298
 41
-1.064939378756195
 42
-1.054376221472825
  0
ARC
  5
100
330
95
100
AcDbEntity
  8
$DDT_AUDIT_GENERATED_(97)
  6
Continuous
 62
     7
100
AcDbCircle
 10
109.670779794
 20
423.8967558338
 30
0.0
 40
3.186779993177394
100
AcDbArc
 50
111.1280431604
 51
116.9811923911
  0
ARC
  5
101
330
95
100
AcDbEntity
  8
$DDT_AUDIT_GENERATED_(97)
  6
Continuous
 62
     7
100
AcDbCircle
 10
107.4967314923
 20
420.1304470421
 30
0.0
 40
3.187240543040058
100
AcDbArc
 50
183.0192308602
 51
188.8715335864
  0
ARC
  5
102
330
95
100
AcDbEntity
  8
$DDT_AUDIT_GENERATED_(97)
  6
Continuous
 62
     7
100
AcDbCircle
 10
111.1465359081
 20
422.2083092307
 30
0.0
 40
5.243298082787654
100
AcDbArc
 50
94.8346614112
 51
101.758712914
  0
ARC
  5
103
330
95
100
AcDbEntity
  8
$DDT_AUDIT_GENERATED_(97)
  6
Continuous
 62
     7
100
AcDbCircle
 10
111.5536627746
 20
422.2093982546
 30
0.0
 40
5.242199549596238
100
AcDbArc
 50
78.240560714
 51
85.1660649608
  0
ARC
  5
104
330
95
100
AcDbEntity
  8
$DDT_AUDIT_GENERATED_(97)
  6
Continuous
 62
     7
100
AcDbCircle
 10
104.0520309229
 20
423.933236552
 30
0.0
 40
4.387646675452686
100
AcDbArc
 50
274.549425188
 51
278.4677375815
  0
ARC
  5
105
330
95
100
AcDbEntity
  8
$DDT_AUDIT_GENERATED_(97)
  6
Continuous
 62
     7
100
AcDbCircle
 10
110.750227258
 20
412.335073388
 30
0.0
 40
4.39197568889713
100
AcDbArc
 50
141.5341942406
 51
145.4486429899
  0
ARC
  5
106
330
95
100
AcDbEntity
  8
$DDT_AUDIT_GENERATED_(97)
  6
Continuous
 62
     7
100
AcDbCircle
 10
111.9532941725
 20
412.3376504101
 30
0.0
 40
4.387646675054122
100
AcDbArc
 50
34.5494251879
 51
38.4677375816
  0
ARC
  5
107
330
95
100
AcDbEntity
  8
$DDT_AUDIT_GENERATED_(97)
  6
Continuous
 62
     7
100
AcDbCircle
 10
118.6484999419
 20
423.9375401779
 30
0.0
 40
4.391975689157908
100
AcDbArc
 50
261.5341942407
 51
265.4486429898
  0
ARC
  5
108
330
95
100
AcDbEntity
  8
$DDT_AUDIT_GENERATED_(97)
  6
Continuous
 62
     7
100
AcDbCircle
 10
104.9150155686
 20
410.4434921646
 30
0.0
 40
9.618726914633694
100
AcDbArc
 50
235.3731731038
 51
238.234809017
  0
ARC
  5
109
330
95
100
AcDbEntity
  8
$DDT_AUDIT_GENERATED_(97)
  6
Continuous
 62
     7
100
AcDbCircle
 10
117.6337671574
 20
410.6609141786
 30
0.0
 40
9.880753285095869
100
AcDbArc
 50
301.7499494321
 51
304.609535864
  0
ARC
  5
10A
330
95
100
AcDbEntity
  8
$DDT_AUDIT_GENERATED_(97)
  6
Continuous
 62
     7
100
AcDbCircle
 10
113.3053646961
 20
441.535823424
 30
0.0
 40
0.2831512549215521
100
AcDbArc
 50
86.2266533882
 51
138.515184031
  0
SPLINE
  5
10B
330
95
100
AcDbEntity
  8
$DDT_AUDIT_GENERATED_(97)
  6
Continuous
 62
     7
100
AcDbSpline
210
0.0
220
0.0
230
1.0
 70
     8
 71
     3
 72
    16
 73
    12
 74
     0
 42
0.0000000327265322
 43
0.0000000001
 40
0.0
 40
0.0
 40
0.0
 40
0.0
 40
0.2072240951954429
 40
0.4288169152203992
 40
0.5152015265128125
 40
0.5803648284570607
 40
0.6076676287798327
 40
0.6433817382320816
 40
0.7448360888235714
 40
0.8879622734572978
 40
1.0
 40
1.0
 40
1.0
 40
1.0
 10
109.4168114482105
 20
441.8221800691094
 30
0.0
 10
109.4030107828682
 20
441.8210192315823
 30
0.0
 10
109.3792734098262
 20
441.8190010003895
 30
0.0
 10
109.3749607221755
 20
441.8187920552728
 30
0.0
 10
109.3767553447967
 20
441.8188629567121
 30
0.0
 10
109.3836902468433
 20
441.8192809603274
 30
0.0
 10
109.3996942075507
 20
441.8192754193185
 30
0.0
 10
109.4301829578276
 20
441.817719770089
 30
0.0
 10
109.4870349545737
 20
441.8067251623353
 30
0.0
 10
109.5563949109003
 20
441.7758203499607
 30
0.0
 10
109.5904474753828
 20
441.7402429848495
 30
0.0
 10
109.6075530176021
 20
441.7217244096075
 30
0.0
  0
SPLINE
  5
10C
330
95
100
AcDbEntity
  8
$DDT_AUDIT_GENERATED_(97)
  6
Continuous
 62
     7
100
AcDbSpline
210
0.0
220
0.0
230
1.0
 70
     8
 71
     3
 72
    13
 73
     9
 74
     0
 42
0.0000000004267263
 43
0.0000000001
 40
0.0
 40
0.0
 40
0.0
 40
0.0
 40
0.0234054460120608
 40
0.0452826474079306
 40
0.0666880380226405
 40
0.0887678087287012
 40
0.1124506210166405
 40
0.1250982066988835
 40
0.1250982066988835
 40
0.1250982066988835
 40
0.1250982066988835
 10
115.8193825704412
 20
397.6122086301443
 30
0.0
 10
116.0855966231586
 20
397.9084879873866
 30
0.0
 10
116.5167156602338
 20
398.3876009369242
 30
0.0
 10
117.1296626649658
 20
398.9625679075376
 30
0.0
 10
117.5629023527547
 20
399.3322651805811
 30
0.0
 10
117.8234547564589
 20
399.546055163001
 30
0.0
 10
117.9018831866707
 20
399.6255273590849
 30
0.0
 10
117.903790134086
 20
399.6485423113458
 30
0.0
 10
117.9001141669644
 20
399.6545109373178
 30
0.0
  0
SPLINE
  5
10D
330
95
100
AcDbEntity
  8
$DDT_AUDIT_GENERATED_(97)
  6
Continuous
 62
     7
100
AcDbSpline
210
0.0
220
0.0
230
1.0
 70
     8
 71
     3
 72
    31
 73
    27
 74
     0
 42
0.0000000002675878
 43
0.0000000001
 40
0.5319853761983044
 40
0.5319853761983044
 40
0.5319853761983044
 40
0.5319853761983044
 40
0.5439992815681497
 40
0.5681315944419512
 40
0.5960814278770498
 40
0.6411231125838911
 40
0.676252915221829
 40
0.7029766425718349
 40
0.7143070575338644
 40
0.7268830972212378
 40
0.7474266846320418
 40
0.772409998711247
 40
0.8006206496456808
 40
0.8200237628126655
 40
0.8357348177000407
 40
0.8479155100964104
 40
0.8570853170373408
 40
0.8647964037335653
 40
0.868841444991531
 40
0.8731661674968773
 40
0.8830497814878409
 40
0.8955970455305594
 40
0.912771637527192
 40
0.9359609392976495
 40
0.9652500534662611
 40
1.0
 40
1.0
 40
1.0
 40
1.0
 10
104.204039174738
 20
400.0502233887828
 30
0.0
 10
104.202155862833
 20
400.0446930472544
 30
0.0
 10
104.2113363146374
 20
400.0220359620649
 30
0.0
 10
104.2675767686655
 20
399.9655299589952
 30
0.0
 10
104.3714828322255
 20
399.872237566362
 30
0.0
 10
104.5013359910678
 20
399.761214312663
 30
0.0
 10
104.8213914663153
 20
399.5176023643681
 30
0.0
 10
105.2885673178064
 20
399.1433192051655
 30
0.0
 10
105.8013515924468
 20
398.6817422288057
 30
0.0
 10
106.3259616793776
 20
398.1697360266718
 30
0.0
 10
107.0270496097397
 20
397.4025942597189
 30
0.0
 10
107.8757241080631
 20
396.3351887372197
 30
0.0
 10
108.6624745225648
 20
395.2244767619364
 30
0.0
 10
109.3401514308386
 20
394.2476642690774
 30
0.0
 10
109.8698999833116
 20
393.5345834282022
 30
0.0
 10
110.3328743220872
 20
393.0122771643554
 30
0.0
 10
110.7581295838865
 20
392.6635742873401
 30
0.0
 10
111.1324419013926
 20
392.5075247063152
 30
0.0
 10
111.4394268112079
 20
392.4956817555846
 30
0.0
 10
111.7791089164273
 20
392.5730005842171
 30
0.0
 10
112.2117558923236
 20
392.8542739828836
 30
0.0
 10
112.7285487918178
 20
393.4009186337184
 30
0.0
 10
113.3081183742844
 20
394.1764736389749
 30
0.0
 10
113.9860688844913
 20
395.1701482323988
 30
0.0
 10
114.831421206786
 20
396.3994831922561
 30
0.0
 10
115.4328617599435
 20
397.1380587645339
 30
0.0
 10
115.8193825704412
 20
397.6122086301443
 30
0.0
  0
SPLINE
  5
10E
330
95
100
AcDbEntity
  8
$DDT_AUDIT_GENERATED_(97)
  6
Continuous
 62
     7
100
AcDbSpline
210
0.0
220
0.0
230
1.0
 70
     8
 71
     3
 72
    11
 73
     7
 74
     0
 42
0.0000000098252624
 43
0.0000000001
 40
0.0
 40
0.0
 40
0.0
 40
0.0
 40
0.1629110432155848
 40
0.4162977612652595
 40
0.6017129716872358
 40
0.700553034896706
 40
0.700553034896706
 40
0.700553034896706
 40
0.700553034896706
 10
104.8803386736679
 20
439.390597786178
 30
0.0
 10
104.7861522459106
 20
439.379126859476
 30
0.0
 10
104.584120747023
 20
439.3547458636292
 30
0.0
 10
104.3428373539562
 20
439.3314604693836
 30
0.0
 10
104.1987472055444
 20
439.3238089003498
 30
0.0
 10
104.171638504691
 20
439.3286358946364
 30
0.0
 10
104.171859074318
 20
439.3283025740099
 30
0.0
  0
ARC
  5
10F
330
95
100
AcDbEntity
  8
$DDT_AUDIT_GENERATED_(97)
  6
Continuous
 62
     7
100
AcDbCircle
 10
112.5671920224
 20
427.0476756992
 30
0.0
 40
0.2985429155894118
100
AcDbArc
 50
87.1927608605
 51
127.3675267493
  0
LINE
  5
110
330
95
100
AcDbEntity
  8
$DDT_AUDIT_GENERATED_(C7)
  6
Continuous
 62
     7
100
AcDbLine
 10
104.4287742875
 20
439.3414896582
 30
0.0
 11
104.4377621961
 21
439.8560607784
 31
0.0
  0
ARC
  5
111
330
95
100
AcDbEntity
  8
$DDT_AUDIT_GENERATED_(C7)
  6
Continuous
 62
     7
100
AcDbCircle
 10
111.2052118219
 20
419.0808022071
 30
0.0
 40
21.84970807911921
100
AcDbArc
 50
107.9171353494
 51
108.0427930607
  0
ARC
  5
112
330
95
100
AcDbEntity
  8
$DDT_AUDIT_GENERATED_(C9)
  6
Continuous
 62
     7
100
AcDbCircle
 10
111.3500168765
 20
505.4128808583
 30
0.0
 40
6.74747691025992
100
AcDbArc
 50
179.9702974375
 51
0.029702572
  0
ARC
  5
113
330
95
100
AcDbEntity
  8
$DDT_AUDIT_GENERATED_(C9)
  6
Continuous
 62
     7
100
AcDbCircle
 10
111.350004314
 20
505.4174688374
 30
0.0
 40
6.936933925459089
100
AcDbArc
 50
359.9911785319
 51
180.008831851
  0
ARC
  5
114
330
95
100
AcDbEntity
  8
$DDT_AUDIT_GENERATED_(C9)
  6
Continuous
 62
     7
100
AcDbCircle
 10
111.3491248476
 20
505.4137217546
 30
0.0
 40
6.937813826854962
100
AcDbArc
 50
285.0005559898
 51
0.02212485
  0
ARC
  5
115
330
95
100
AcDbEntity
  8
$DDT_AUDIT_GENERATED_(C9)
  6
Continuous
 62
     7
100
AcDbCircle
 10
111.3506441075
 20
505.4135379461
 30
0.0
 40
6.937574226742041
100
AcDbArc
 50
179.9763667367
 51
254.992368045
  0
ELLIPSE
  5
116
330
95
100
AcDbEntity
  8
$DDT_AUDIT_GENERATED_(C9)
  6
Continuous
 62
     7
100
AcDbEllipse
 10
116.2453059974
 20
510.2776142674
 30
0.0
 11
0.2128702796227369
 21
0.2113912109179828
 31
0.0
210
0.0
220
0.0
230
1.0
 40
0.9998340168
 41
1.052659346116263
 42
1.277617175289882
  0
ARC
  5
117
330
95
100
AcDbEntity
  8
$DDT_AUDIT_GENERATED_(C9)
  6
Continuous
 62
     7
100
AcDbCircle
 10
111.3509477561
 20
508.8009026217
 30
0.0
 40
10.21716748760871
100
AcDbArc
 50
265.0284171841
 51
273.7001027095
  0
ARC
  5
118
330
95
100
AcDbEntity
  8
$DDT_AUDIT_GENERATED_(C9)
  6
Continuous
 62
     7
100
AcDbCircle
 10
111.3505613839
 20
512.8343235418
 30
0.0
 40
14.23552663696114
100
AcDbArc
 50
262.7504973159
 51
277.2409038926
  0
ENDBLK
  5
11A
330
95
100
AcDbEntity
  8
0
100
AcDbBlockEnd
  0
BLOCK
  5
197
330
11B
100
AcDbEntity
  8
0
100
AcDbBlockBegin
  2
SE1
 70
     0
 10
0.0
 20
0.0
 30
0.0
  3
SE1
  1

  0
SPLINE
  5
11D
330
11B
100
AcDbEntity
  8
$DDT_AUDIT_GENERATED_(97)
  6
Continuous
 62
     7
100
AcDbSpline
210
0.0
220
0.0
230
1.0
 70
     8
 71
     3
 72
    23
 73
    19
 74
     0
 42
0.0000000026012106
 43
0.0000000001
 40
0.0
 40
0.0
 40
0.0
 40
0.0
 40
0.0234943674768762
 40
0.059446172548849
 40
0.0953979776207851
 40
0.131349782692758
 40
0.2032533928367405
 40
0.347060613124632
 40
0.418964223268541
 40
0.4908678334125235
 40
0.5627714435564325
 40
0.634675053700415
 40
0.6706268587723878
 40
0.7065786638443607
 40
0.7425304689162968
 40
0.7784822739883065
 40
0.922289494276198
 40
1.0
 40
1.0
 40
1.0
 40
1.0
 10
416.2661183427904
 20
523.135013887457
 30
0.0
 10
416.2959078362161
 20
523.1210645626485
 30
0.0
 10
416.3720625925249
 20
523.1181333096823
 30
0.0
 10
416.4942869271175
 20
523.113768419608
 30
0.0
 10
416.6324860320178
 20
523.1092929036296
 30
0.0
 10
416.816763173232
 20
523.103915040726
 30
0.0
 10
417.139259576703
 20
523.0959908580038
 30
0.0
 10
417.5077650937376
 20
523.0900578502593
 30
0.0
 10
417.8761913013042
 20
523.0865691659159
 30
0.0
 10
418.1524616993107
 20
523.0846612431596
 30
0.0
 10
418.428673236714
 20
523.0829483397059
 30
0.0
 10
418.658794546661
 20
523.0811293117326
 30
0.0
 10
418.842855059453
 20
523.0791066495889
 30
0.0
 10
418.980881095527
 20
523.0772920979119
 30
0.0
 10
419.1188867021436
 20
523.0751661559793
 30
0.0
 10
419.3948548945882
 20
523.0702638212298
 30
0.0
 10
419.7241119748311
 20
523.0623889698318
 30
0.0
 10
420.0072590494209
 20
523.0542580720414
 30
0.0
 10
420.1065706001572
 20
523.051183841152
 30
0.0
  0
SPLINE
  5
11E
330
11B
100
AcDbEntity
  8
$DDT_AUDIT_GENERATED_(97)
  6
Continuous
 62
     7
100
AcDbSpline
210
0.0
220
0.0
230
1.0
 70
     8
 71
     3
 72
    32
 73
    28
 74
     0
 42
0.0000000001394932
 43
0.0000000001
 40
0.0
 40
0.0
 40
0.0
 40
0.0
 40
0.0077917640137522
 40
0.0156072536969902
 40
0.0234222533189709
 40
0.0312369368106279
 40
0.0468649728254807
 40
0.0624915892780614
 40
0.0781271557443543
 40
0.0937619142951139
 40
0.1093868416777524
 40
0.1250057427240759
 40
0.1562358797774056
 40
0.1874602629411938
 40
0.2186807347803089
 40
0.2499074563384915
 40
0.3123006457960775
 40
0.3747874462560909
 40
0.4372984041175734
 40
0.4998225491503592
 40
0.5623428440919812
 40
0.5936034420238486
 40
0.6248647581733979
 40
0.7499088421362406
 40
0.8749542389673247
 40
0.9374772010030827
 40
1.0
 40
1.0
 40
1.0
 40
1.0
 10
452.47233010524
 20
505.4154966241964
 30
0.0
 10
452.4722409479895
 20
505.2286802585729
 30
0.0
 10
452.4714514799217
 20
504.8561731167527
 30
0.0
 10
452.4588812990066
 20
504.2972508457231
 30
0.0
 10
452.4365329878594
 20
503.7380982411211
 30
0.0
 10
452.3932674947145
 20
502.9932924979173
 30
0.0
 10
452.3141600561633
 20
502.0639093069742
 30
0.0
 10
452.1669260365031
 20
500.9539705064924
 30
0.0
 10
451.9538219107786
 20
499.8543499137007
 30
0.0
 10
451.6660423910738
 20
498.771749182293
 30
0.0
 10
451.3000314840229
 20
497.7133166774592
 30
0.0
 10
450.7104636142734
 20
496.3426301182131
 30
0.0
 10
449.7895683716181
 20
494.714103552907
 30
0.0
 10
448.3862459650965
 20
492.9592475911027
 30
0.0
 10
446.681802275105
 20
491.4919998514158
 30
0.0
 10
444.0978540827609
 20
489.9795059471405
 30
0.0
 10
440.506890844068
 20
488.8561925368211
 30
0.0
 10
436.0867314461642
 20
488.1620304878709
 30
0.0
 10
431.6308175269297
 20
487.723068207915
 30
0.0
 10
427.1638080095458
 20
487.4291403217435
 30
0.0
 10
423.4370247986033
 20
487.2563186061017
 30
0.0
 10
420.4543395074469
 20
487.1545394827863
 30
0.0
 10
415.979325549624
 20
487.0315502726342
 30
0.0
 10
409.2646759242378
 20
486.9355813084897
 30
0.0
 10
401.8036860507599
 20
486.8855280461848
 30
0.0
 10
395.8347393344574
 20
486.8649790613917
 30
0.0
 10
392.850251523869
 20
486.8612408129422
 30
0.0
 10
391.3647334550894
 20
486.8598366568745
 30
0.0
  0
ARC
  5
11F
330
11B
100
AcDbEntity
  8
$DDT_AUDIT_GENERATED_(97)
  6
Continuous
 62
     7
100
AcDbCircle
 10
417.4085422239
 20
478.6069631546
 30
0.0
 40
45.05909764941585
100
AcDbArc
 50
88.6044372285
 51
90.654798172
  0
SPLINE
  5
120
330
11B
100
AcDbEntity
  8
$DDT_AUDIT_GENERATED_(97)
  6
Continuous
 62
     7
100
AcDbSpline
210
0.0
220
0.0
230
1.0
 70
     8
 71
     3
 72
    26
 73
    22
 74
     0
 42
0.0000000002243362
 43
0.0000000001
 40
0.0
 40
0.0
 40
0.0
 40
0.0
 40
0.0080569210562611
 40
0.0161101456242893
 40
0.0322196710422493
 40
0.0644389606831225
 40
0.1288769539663393
 40
0.2577421416756586
 40
0.3221799271353364
 40
0.3866168641996609
 40
0.4323069054467842
 40
0.5154667447441489
 40
0.6331671270430763
 40
0.7190801576696852
 40
0.7725106697236338
 40
0.84867391756156
 40
0.8755069169531907
 40
0.9527722412480357
 40
0.97486423506604
 40
0.9969609663067589
 40
1.0
 40
1.0
 40
1.0
 40
1.0
 10
418.505945595521
 20
523.6526953255869
 30
0.0
 10
418.6248987238376
 20
523.6488236985191
 30
0.0
 10
418.8627494675673
 20
523.6412420148432
 30
0.0
 10
419.3392085498245
 20
523.6310151618545
 30
0.0
 10
420.173114163735
 20
523.6186248333167
 30
0.0
 10
421.8408095660171
 20
523.5861773521686
 30
0.0
 10
425.1754682117915
 20
523.4967373733997
 30
0.0
 10
428.9838140286953
 20
523.287419458262
 30
0.0
 10
432.7797811428172
 20
522.93199020582
 30
0.0
 10
435.3482346374315
 20
522.6667862462804
 30
0.0
 10
438.1831959088863
 20
522.2872908537119
 30
0.0
 10
441.7651857293964
 20
521.6175004127807
 30
0.0
 10
445.818091645157
 20
520.1101978585198
 30
0.0
 10
448.7200699685283
 20
517.5465470557341
 30
0.0
 10
450.5418785670713
 20
514.9158488197338
 30
0.0
 10
451.4618215048276
 20
512.7670301408168
 30
0.0
 10
452.1475393224763
 20
510.189399317875
 30
0.0
 10
452.3829620016887
 20
508.3261926570434
 30
0.0
 10
452.4600513706786
 20
506.5317548381844
 30
0.0
 10
452.4709858503254
 20
505.8330907408339
 30
0.0
 10
452.4718131817278
 20
505.4612937419217
 30
0.0
 10
452.47233010524
 20
505.4154966241964
 30
0.0
  0
LINE
  5
121
330
11B
100
AcDbEntity
  8
$DDT_AUDIT_GENERATED_(97)
  6
Continuous
 62
     7
100
AcDbLine
 10
391.0577151225
 20
505.416341714
 30
0.0
 11
391.0577151225
 21
526.6184923864
 31
0.0
  0
LINE
  5
122
330
11B
100
AcDbEntity
  8
$DDT_AUDIT_GENERATED_(97)
  6
Continuous
 62
     7
100
AcDbLine
 10
391.0577151225
 20
487.7733903069
 30
0.0
 11
391.0577151225
 21
505.416341714
 31
0.0
  0
LINE
  5
123
330
11B
100
AcDbEntity
  8
$DDT_AUDIT_GENERATED_(97)
  6
Continuous
 62
     7
100
AcDbLine
 10
391.0577151225
 20
487.1200842595
 30
0.0
 11
391.0577151225
 21
487.773266162
 31
0.0
  0
LINE
  5
124
330
11B
100
AcDbEntity
  8
$DDT_AUDIT_GENERATED_(97)
  6
Continuous
 62
     7
100
AcDbLine
 10
391.0577151225
 20
487.1197970832
 30
0.0
 11
391.0577151225
 21
484.2504264407
 31
0.0
  0
ARC
  5
125
330
11B
100
AcDbEntity
  8
$DDT_AUDIT_GENERATED_(97)
  6
Continuous
 62
     7
100
AcDbCircle
 10
520.2456923866
 20
485.5064228056
 30
0.0
 40
128.8948239037348
100
AcDbArc
 50
179.398343619
 51
180.6996293008
  0
LINE
  5
126
330
11B
100
AcDbEntity
  8
$DDT_AUDIT_GENERATED_(97)
  6
Continuous
 62
     7
100
AcDbLine
 10
391.3577935982
 20
526.9184923761
 30
0.0
 11
394.0047967572
 21
526.9168843992
 31
0.0
  0
ARC
  5
127
330
11B
100
AcDbEntity
  8
$DDT_AUDIT_GENERATED_(97)
  6
Continuous
 62
     7
100
AcDbCircle
 10
391.3577151225
 20
526.6184923864
 30
0.0
 40
0.2999999999999947
100
AcDbArc
 50
89.9850122312
 51
180.0
  0
SPLINE
  5
128
330
11B
100
AcDbEntity
  8
$DDT_AUDIT_GENERATED_(97)
  6
Continuous
 62
     7
100
AcDbSpline
210
0.0
220
0.0
230
1.0
 70
     8
 71
     5
 72
    12
 73
     6
 74
     0
 42
0.0000000012599331
 43
0.0000000001
 40
0.0
 40
0.0
 40
0.0
 40
0.0
 40
0.0
 40
0.0
 40
1.0
 40
1.0
 40
1.0
 40
1.0
 40
1.0
 40
1.0
 10
398.1064473395974
 20
526.9087346678721
 30
0.0
 10
399.7992507274702
 20
526.9035339514922
 30
0.0
 10
401.4251372410312
 20
526.8964577201784
 30
0.0
 10
403.0038176000222
 20
526.887503696893
 30
0.0
 10
404.5418821759426
 20
526.8771012092428
 30
0.0
 10
406.0431825788416
 20
526.8589138355213
 30
0.0
  0
ARC
  5
129
330
11B
100
AcDbEntity
  8
$DDT_AUDIT_GENERATED_(97)
  6
Continuous
 62
     7
100
AcDbCircle
 10
396.0995470705
 20
549.0196845835
 30
0.0
 40
22.2018412493118
100
AcDbArc
 50
264.5860733967
 51
275.186240414
  0
ARC
  5
12A
330
11B
100
AcDbEntity
  8
$DDT_AUDIT_GENERATED_(97)
  6
Continuous
 62
     7
100
AcDbCircle
 10
453.1901886117
 20
603.7410631979
 30
0.0
 40
98.32818702115087
100
AcDbArc
 50
269.5817005344
 51
270.3535746275
  0
ARC
  5
12B
330
11B
100
AcDbEntity
  8
$DDT_AUDIT_GENERATED_(97)
  6
Continuous
 62
     7
100
AcDbCircle
 10
602.2128496927
 20
505.9124845641
 30
0.0
 40
148.4155128266505
100
AcDbArc
 50
180.1927642719
 51
182.9555992484
  0
ARC
  5
12C
330
11B
100
AcDbEntity
  8
$DDT_AUDIT_GENERATED_(97)
  6
Continuous
 62
     7
100
AcDbCircle
 10
261.2589158236
 20
510.1443382252
 30
0.0
 40
192.5961373553679
100
AcDbArc
 50
358.5933180192
 51
0.7228673212
  0
SPLINE
  5
12D
330
11B
100
AcDbEntity
  8
$DDT_AUDIT_GENERATED_(97)
  6
Continuous
 62
     7
100
AcDbSpline
210
0.0
220
0.0
230
1.0
 70
     8
 71
     3
 72
     8
 73
     4
 74
     0
 42
0.0000012223439644
 43
0.0000000001
 40
0.0
 40
0.0
 40
0.0
 40
0.0
 40
1.0
 40
1.0
 40
1.0
 40
1.0
 10
453.8048149460519
 20
505.4132751604241
 30
0.0
 10
453.8046880040437
 20
505.4131050858322
 30
0.0
 10
453.8020767489119
 20
505.4131221594901
 30
0.0
 10
453.7969720735865
 20
505.4147484255786
 30
0.0
  0
ARC
  5
12E
330
11B
100
AcDbEntity
  8
$DDT_AUDIT_GENERATED_(97)
  6
Continuous
 62
     7
100
AcDbCircle
 10
429.1931076049
 20
537.2914605274
 30
0.0
 40
12.95175403152174
100
AcDbArc
 50
285.1218045701
 51
286.0219346999
  0
ARC
  5
12F
330
11B
100
AcDbEntity
  8
$DDT_AUDIT_GENERATED_(97)
  6
Continuous
 62
     7
100
AcDbCircle
 10
429.0938599872
 20
537.5129085366
 30
0.0
 40
13.18951697830385
100
AcDbArc
 50
266.0197256504
 51
282.7009384706
  0
ARC
  5
130
330
11B
100
AcDbEntity
  8
$DDT_AUDIT_GENERATED_(97)
  6
Continuous
 62
     7
100
AcDbCircle
 10
418.5971640799
 20
340.1831429963
 30
0.0
 40
184.4211135366126
100
AcDbArc
 50
87.0219898832
 51
90.025436333
  0
ARC
  5
131
330
11B
100
AcDbEntity
  8
$DDT_AUDIT_GENERATED_(97)
  6
Continuous
 62
     7
100
AcDbCircle
 10
415.8774722347
 20
534.718883814
 30
0.0
 40
10.08332814638959
100
AcDbArc
 50
247.1353301386
 51
269.1264631802
  0
ARC
  5
132
330
11B
100
AcDbEntity
  8
$DDT_AUDIT_GENERATED_(97)
  6
Continuous
 62
     7
100
AcDbCircle
 10
418.6853333231
 20
659.1587845602
 30
0.0
 40
134.5546536461762
100
AcDbArc
 50
268.7388016228
 51
269.9275928068
  0
ELLIPSE
  5
133
330
11B
100
AcDbEntity
  8
$DDT_AUDIT_GENERATED_(97)
  6
Continuous
 62
     7
100
AcDbEllipse
 10
411.9324586036
 20
525.2312272343
 30
0.0
 11
-0.07593921028983819
 21
-0.185022259040768
 31
0.0
210
0.0
220
0.0
230
1.0
 40
0.895810174
 41
3.09915204026568
 42
3.42214601801621
  0
ARC
  5
134
330
11B
100
AcDbEntity
  8
$DDT_AUDIT_GENERATED_(97)
  6
Continuous
 62
     7
100
AcDbCircle
 10
432.8641801019
 20
524.6765878638
 30
0.0
 40
0.2000000001205052
100
AcDbArc
 50
85.1537346215
 51
134.4245449634
  0
SPLINE
  5
135
330
11B
100
AcDbEntity
  8
$DDT_AUDIT_GENERATED_(97)
  6
Continuous
 62
     7
100
AcDbSpline
210
0.0
220
0.0
230
1.0
 70
     8
 71
     3
 72
    10
 73
     6
 74
     0
 42
0.0000000007035237
 43
0.0000000001
 40
0.5000512592006512
 40
0.5000512592006512
 40
0.5000512592006512
 40
0.5000512592006512
 40
0.75
 40
0.75
 40
0.9999924517134196
 40
0.9999924517134196
 40
0.9999924517134196
 40
0.9999924517134196
 10
454.0024594975434
 20
498.3121015596161
 30
0.0
 10
454.0018493487942
 20
498.3123354678586
 30
0.0
 10
453.9919925576781
 20
499.0753020809559
 30
0.0
 10
453.8963305985077
 20
501.7078316574858
 30
0.0
 10
453.7919329059004
 20
503.5372079745674
 30
0.0
 10
453.8048137789536
 20
505.4131052374448
 30
0.0
  0
ARC
  5
136
330
11B
100
AcDbEntity
  8
$DDT_AUDIT_GENERATED_(97)
  6
Continuous
 62
     7
100
AcDbCircle
 10
278.9994669013
 20
510.0448497992
 30
0.0
 40
174.8666954816454
100
AcDbArc
 50
358.4824360502
 51
0.8107708474
  0
ARC
  5
137
330
11B
100
AcDbEntity
  8
$DDT_AUDIT_GENERATED_(97)
  6
Continuous
 62
     7
100
AcDbCircle
 10
406.0947778856
 20
522.4256109418
 30
0.0
 40
4.426967993802329
100
AcDbArc
 50
76.646031168
 51
90.6682752971
  0
SPLINE
  5
138
330
11B
100
AcDbEntity
  8
$DDT_AUDIT_GENERATED_(97)
  6
Continuous
 62
     7
100
AcDbSpline
210
0.0
220
0.0
230
1.0
 70
     8
 71
     3
 72
    23
 73
    19
 74
     0
 42
0.000000000381279
 43
0.0000000001
 40
0.0
 40
0.0
 40
0.0
 40
0.0
 40
0.0140138293379052
 40
0.0853368547854949
 40
0.1534395812598823
 40
0.2186517906939142
 40
0.2810474329124542
 40
0.359449127880072
 40
0.4317406820309309
 40
0.4971992932881918
 40
0.5553996107907336
 40
0.6065113246795588
 40
0.6512148161443441
 40
0.7090275035382408
 40
0.7776798608569279
 40
0.8566624502027835
 40
0.9431002361944922
 40
1.0
 40
1.0
 40
1.0
 40
1.0
 10
453.8258332936914
 20
512.5474185526034
 30
0.0
 10
453.7935979371698
 20
512.6780833049702
 30
0.0
 10
453.6242934883467
 20
513.360186598476
 30
0.0
 10
453.0816478318539
 20
514.6389862552703
 30
0.0
 10
452.2785386088245
 20
516.2189605440138
 30
0.0
 10
451.329029165124
 20
517.6491013818605
 30
0.0
 10
450.1841755607018
 20
519.0385114339492
 30
0.0
 10
448.8285865536005
 20
520.3228312263795
 30
0.0
 10
447.2876072108466
 20
521.4213624285762
 30
0.0
 10
445.7815659820722
 20
522.2400854169862
 30
0.0
 10
444.3746874249745
 20
522.8355284350783
 30
0.0
 10
443.0996099638574
 20
523.2652229618136
 30
0.0
 10
441.8062431460386
 20
523.6225656957596
 30
0.0
 10
440.347987204449
 20
523.9495150516524
 30
0.0
 10
438.5778086266857
 20
524.2587761463609
 30
0.0
 10
436.5638872062833
 20
524.525940534845
 30
0.0
 10
434.5871802032252
 20
524.7285255028706
 30
0.0
 10
433.4253851137884
 20
524.827761346072
 30
0.0
 10
432.8808462721781
 20
524.8732903154391
 30
0.0
  0
ARC
  5
139
330
11B
100
AcDbEntity
  8
$DDT_AUDIT_GENERATED_(97)
  6
Continuous
 62
     7
100
AcDbCircle
 10
419.1778465964
 20
570.5771637448
 30
0.0
 40
45.46985206527984
100
AcDbArc
 50
254.5116256991
 51
259.7603686316
  0
ARC
  5
13A
330
11B
100
AcDbEntity
  8
$DDT_AUDIT_GENERATED_(97)
  6
Continuous
 62
     7
100
AcDbCircle
 10
391.3577151225
 20
484.2504259044
 30
0.0
 40
0.2999999999971929
100
AcDbArc
 50
179.9999981573
 51
270.3424957704
  0
SPLINE
  5
13B
330
11B
100
AcDbEntity
  8
$DDT_AUDIT_GENERATED_(97)
  6
Continuous
 62
     7
100
AcDbSpline
210
0.0
220
0.0
230
1.0
 70
     8
 71
     3
 72
    51
 73
    47
 74
     0
 42
0.0000000001379833
 43
0.0000000001
 40
0.0
 40
0.0
 40
0.0
 40
0.0
 40
0.0145739128809508
 40
0.0331908145441332
 40
0.05035260862774
 40
0.0665409460943275
 40
0.0869275947600847
 40
0.1059053439339924
 40
0.1231020089494894
 40
0.1407637752687488
 40
0.154692645627195
 40
0.1647115973297693
 40
0.1719605506050798
 40
0.1793236369479406
 40
0.1986446875633507
 40
0.2196510639542511
 40
0.2423362654252648
 40
0.2684141348310473
 40
0.298248511586916
 40
0.3319345416513925
 40
0.3680626389094938
 40
0.4022910276496344
 40
0.4397890709316275
 40
0.4741905714745091
 40
0.5054917155920081
 40
0.5338520886060403
 40
0.558277475671976
 40
0.5819548427543876
 40
0.6054971509924294
 40
0.6297495944923825
 40
0.6548443839459359
 40
0.6803924960804525
 40
0.7066736846571494
 40
0.733026539532786
 40
0.7504837169781641
 40
0.7679207388740354
 40
0.7875497260942429
 40
0.8107290615583284
 40
0.8374733805155474
 40
0.8676348742489733
 40
0.892350195465834
 40
0.9187378638477742
 40
0.9466536426822562
 40
0.9759165773862075
 40
0.993277260340389
 40
1.0
 40
1.0
 40
1.0
 40
1.0
 10
391.3602360337064
 20
483.9269543514145
 30
0.0
 10
391.7470843923825
 20
483.926685156441
 30
0.0
 10
392.4918239986577
 20
483.921594156777
 30
0.0
 10
393.7324369714432
 20
483.8431040152898
 30
0.0
 10
394.9667020208184
 20
483.6509031611749
 30
0.0
 10
396.2234397132842
 20
483.314493138699
 30
0.0
 10
397.4703223548922
 20
482.813792830733
 30
0.0
 10
398.6764403152696
 20
482.1709586600065
 30
0.0
 10
399.7775448893557
 20
481.4805625792527
 30
0.0
 10
400.7496511434844
 20
480.8163137746656
 30
0.0
 10
401.5745555808234
 20
480.2438882200557
 30
0.0
 10
402.1982960051387
 20
479.8223333818626
 30
0.0
 10
402.6969001651169
 20
479.4987260310934
 30
0.0
 10
403.3934059619069
 20
479.0681784058246
 30
0.0
 10
404.4041297780769
 20
478.5140136551836
 30
0.0
 10
405.8246238669052
 20
477.9553626104455
 30
0.0
 10
407.4786279177268
 20
477.6028313941979
 30
0.0
 10
409.3754848175438
 20
477.4832321564381
 30
0.0
 10
411.5376115394285
 20
477.5019020877506
 30
0.0
 10
413.9416188949177
 20
477.5562040021613
 30
0.0
 10
416.451389327238
 20
477.6221283198645
 30
0.0
 10
419.0527019845558
 20
477.7049632698066
 30
0.0
 10
421.6118617805082
 20
477.8013882630037
 30
0.0
 10
424.0995572250646
 20
477.916459002893
 30
0.0
 10
426.3658971660168
 20
478.0424513612379
 30
0.0
 10
428.3906658286472
 20
478.1760266970107
 30
0.0
 10
430.2270289422135
 20
478.3644432407166
 30
0.0
 10
431.927490859738
 20
478.7014421744203
 30
0.0
 10
433.5545097815267
 20
479.2981132787916
 30
0.0
 10
435.089193228572
 20
480.1704156982782
 30
0.0
 10
436.5461516017394
 20
481.2432108930969
 30
0.0
 10
437.9784761919362
 20
482.4240186112895
 30
0.0
 10
439.4302516808462
 20
483.6289251721395
 30
0.0
 10
440.7730183689178
 20
484.6586300491207
 30
0.0
 10
441.9868017064636
 20
485.5024289516681
 30
0.0
 10
443.0916948761172
 20
486.2170831829934
 30
0.0
 10
444.3309065153471
 20
486.9772988964775
 30
0.0
 10
445.7647266676952
 20
487.8496756327057
 30
0.0
 10
447.3829363766928
 20
488.9075339219613
 30
0.0
 10
448.9421438634571
 20
490.1173675245628
 30
0.0
 10
450.3465757287086
 20
491.4922426510952
 30
0.0
 10
451.541248576191
 20
492.9831440280338
 30
0.0
 10
452.6030839436997
 20
494.7094247728925
 30
0.0
 10
453.3471269415738
 20
496.3326382298965
 30
0.0
 10
453.8004864076378
 20
497.5741417861471
 30
0.0
 10
453.9414989205662
 20
498.1008034469048
 30
0.0
 10
453.9872627135191
 20
498.2732831837955
 30
0.0
  0
SPLINE
  5
13C
330
11B
100
AcDbEntity
  8
$DDT_AUDIT_GENERATED_(97)
  6
Continuous
 62
     7
100
AcDbSpline
210
0.0
220
0.0
230
1.0
 70
     8
 71
     3
 72
    17
 73
    13
 74
     0
 42
0.0000000098847804
 43
0.0000000001
 40
0.0
 40
0.0
 40
0.0
 40
0.0
 40
0.0900449178439749
 40
0.2956151078933424
 40
0.5126275994733891
 40
0.7333280340551297
 40
0.9594034087219951
 40
0.9776694665695677
 40
0.9851472694737505
 40
0.9898950973341608
 40
0.9941516841283026
 40
1.0
 40
1.0
 40
1.0
 40
1.0
 10
412.0152236212476
 20
525.4130601791094
 30
0.0
 10
411.9550228731196
 20
525.4382097602742
 30
0.0
 10
411.7879480380597
 20
525.508089888562
 30
0.0
 10
411.5468941668729
 20
525.6157822079331
 30
0.0
 10
411.3312674554081
 20
525.7190445748521
 30
0.0
 10
411.1909660809505
 20
525.7904081190599
 30
0.0
 10
411.1658153620721
 20
525.8040893389027
 30
0.0
 10
411.1473618163301
 20
525.8133629576165
 30
0.0
 10
411.1398758621325
 20
525.8168203681926
 30
0.0
 10
411.1310703586557
 20
525.8204241624286
 30
0.0
 10
411.1163484988912
 20
525.825712113073
 30
0.0
 10
411.1034332644401
 20
525.8284242592771
 30
0.0
 10
411.0946966957997
 20
525.8302641905642
 30
0.0
  0
ARC
  5
13D
330
11B
100
AcDbEntity
  8
$DDT_AUDIT_GENERATED_(C7)
  6
Continuous
 62
     7
100
AcDbCircle
 10
429.5022174736
 20
532.853551245
 30
0.0
 40
8.24502747991657
100
AcDbArc
 50
285.5351646453
 51
291.8077459234
  0
ARC
  5
13E
330
11B
100
AcDbEntity
  8
$DDT_AUDIT_GENERATED_(C7)
  6
Continuous
 62
     7
100
AcDbCircle
 10
428.4749591803
 20
534.4285537549
 30
0.0
 40
9.453618832380247
100
AcDbArc
 50
287.3898309636
 51
292.6699635848
  0
ARC
  5
13F
330
11B
100
AcDbEntity
  8
$DDT_AUDIT_GENERATED_(C7)
  6
Continuous
 62
     7
100
AcDbCircle
 10
426.9001000415
 20
540.3340365676
 30
0.0
 40
15.53164739798282
100
AcDbArc
 50
289.6302810846
 51
289.6328173158
  0
ARC
  5
140
330
11B
100
AcDbEntity
  8
$DDT_AUDIT_GENERATED_(C7)
  6
Continuous
 62
     7
100
AcDbCircle
 10
418.2373022114
 20
539.0162160897
 30
0.0
 40
14.05949429474122
100
AcDbArc
 50
243.553548975
 51
243.5579427588
  0
LINE
  5
141
330
11B
100
AcDbEntity
  8
$DDT_AUDIT_GENERATED_(C7)
  6
Continuous
 62
     7
100
AcDbLine
 10
411.4509615507
 20
525.6628819654
 30
0.0
 11
411.4667913571
 21
525.9551708497
 31
0.0
  0
ARC
  5
142
330
11B
100
AcDbEntity
  8
$DDT_AUDIT_GENERATED_(C7)
  6
Continuous
 62
     7
100
AcDbCircle
 10
415.0434737468
 20
532.5663592264
 30
0.0
 40
7.516679364470436
100
AcDbArc
 50
241.5864143141
 51
248.562650719
  0
ARC
  5
143
330
11B
100
AcDbEntity
  8
$DDT_AUDIT_GENERATED_(C7)
  6
Continuous
 62
     7
100
AcDbCircle
 10
432.0652670971
 20
525.2081558057
 30
0.0
 40
0.500015119015414
100
AcDbArc
 50
358.9019841631
 51
83.8775792648
  0
ARC
  5
144
330
11B
100
AcDbEntity
  8
$DDT_AUDIT_GENERATED_(C7)
  6
Continuous
 62
     7
100
AcDbCircle
 10
411.9660699639
 20
525.928116584
 30
0.0
 40
0.5000110604355967
100
AcDbArc
 50
88.8908358307
 51
176.8983634388
  0
ARC
  5
145
330
11B
100
AcDbEntity
  8
$DDT_AUDIT_GENERATED_(C7)
  6
Continuous
 62
     7
100
AcDbCircle
 10
412.9043934222
 20
272.2092423495
 30
0.0
 40
254.2207575212146
100
AcDbArc
 50
85.6472438236
 51
90.2097802897
  0
ARC
  5
146
330
11B
100
AcDbEntity
  8
$DDT_AUDIT_GENERATED_(C7)
  6
Continuous
 62
     7
100
AcDbCircle
 10
432.0778456564
 20
525.2426417453
 30
0.0
 40
0.4646325852130497
100
AcDbArc
 50
32.673576635
 51
85.0380513073
  0
SPLINE
  5
147
330
11B
100
AcDbEntity
  8
$DDT_AUDIT_GENERATED_(C7)
  6
Continuous
 62
     7
100
AcDbSpline
210
0.0
220
0.0
230
1.0
 70
     8
 71
     3
 72
    10
 73
     6
 74
     0
 42
0.0000000280855999
 43
0.0000000001
 40
0.0
 40
0.0
 40
0.0
 40
0.0
 40
0.4463186136037865
 40
0.920283578764309
 40
1.0
 40
1.0
 40
1.0
 40
1.0
 10
411.9763044788069
 20
526.428176480528
 30
0.0
 10
411.9197262702903
 20
526.4249845305035
 30
0.0
 10
411.8231549053675
 20
526.4152925047539
 30
0.0
 10
411.7029824638055
 20
526.3660208081491
 30
0.0
 10
411.6605296678781
 20
526.3207666860233
 30
0.0
 10
411.6534385668166
 20
526.3131607721427
 30
0.0
  0
SPLINE
  5
148
330
11B
100
AcDbEntity
  8
$DDT_AUDIT_GENERATED_(C9)
  6
Continuous
 62
     7
100
AcDbSpline
210
0.0
220
0.0
230
1.0
 70
     8
 71
     3
 72
    17
 73
    13
 74
     0
 42
0.0000000007405447
 43
0.0000000001
 40
0.0
 40
0.0
 40
0.0
 40
0.0
 40
0.0311150835403599
 40
0.0623588984384255
 40
0.0936674463120506
 40
0.1251948818759593
 40
0.1877214519432418
 40
0.2502402026101512
 40
0.3127340101383955
 40
0.375228377127771
 40
0.4377287285494896
 40
0.5001466639349242
 40
0.5001466639349242
 40
0.5001466639349242
 40
0.5001466639349242
 10
453.4744139331881
 20
420.4163788009017
 30
0.0
 10
453.475323354926
 20
420.1967850849193
 30
0.0
 10
453.4767187161425
 20
419.7566891677175
 30
0.0
 10
453.4868963864507
 20
419.1019200832194
 30
0.0
 10
453.5017300093503
 20
418.4569305809252
 30
0.0
 10
453.5265490019354
 20
417.6234538552191
 30
0.0
 10
453.5617372100747
 20
416.6426573984595
 30
0.0
 10
453.6001521949285
 20
415.6132804078158
 30
0.0
 10
453.6289399732164
 20
414.7686441255361
 30
0.0
 10
453.6470042960688
 20
414.1401462468967
 30
0.0
 10
453.6565444137751
 20
413.7529596981822
 30
0.0
 10
453.6585930761992
 20
413.6657749663461
 30
0.0
 10
453.6585481965311
 20
413.6654773314396
 30
0.0
  0
ARC
  5
149
330
11B
100
AcDbEntity
  8
$DDT_AUDIT_GENERATED_(C9)
  6
Continuous
 62
     7
100
AcDbCircle
 10
427.7868223074
 20
419.8645506557
 30
0.0
 40
26.6032567129847
100
AcDbArc
 50
346.4331026014
 51
1.1885646586
  0
ARC
  5
14A
330
11B
100
AcDbEntity
  8
$DDT_AUDIT_GENERATED_(C9)
  6
Continuous
 62
     7
100
AcDbCircle
 10
430.0134435616
 20
420.7420597558
 30
0.0
 40
24.37298077537618
100
AcDbArc
 50
359.2343694497
 51
15.3846981606
  0
ARC
  5
14B
330
11B
100
AcDbEntity
  8
$DDT_AUDIT_GENERATED_(C9)
  6
Continuous
 62
     7
100
AcDbCircle
 10
453.2758352198
 20
427.0949261163
 30
0.0
 40
0.2592522968628966
100
AcDbArc
 50
15.9480456367
 51
60.2579866617
  0
LINE
  5
14C
330
11B
100
AcDbEntity
  8
$DDT_AUDIT_GENERATED_(D1)
  6
Continuous
 62
     7
100
AcDbLine
 10
389.7077151225
 20
444.6663417129
 30
0.0
 11
389.7077151225
 21
396.1663417129
 31
0.0
  0
ARC
  5
14D
330
11B
100
AcDbEntity
  8
$DDT_AUDIT_GENERATED_(D1)
  6
Continuous
 62
     7
100
AcDbCircle
 10
387.7077151225
 20
444.6663417129
 30
0.0
 40
2.000000000000002
100
AcDbArc
 50
0.0
 51
90.0
  0
ARC
  5
14E
330
11B
100
AcDbEntity
  8
$DDT_AUDIT_GENERATED_(D1)
  6
Continuous
 62
     7
100
AcDbCircle
 10
387.7077151225
 20
396.1663417129
 30
0.0
 40
2.000000000000002
100
AcDbArc
 50
270.0
 51
0.0
  0
LINE
  5
14F
330
11B
100
AcDbEntity
  8
$DDT_AUDIT_GENERATED_(D1)
  6
Continuous
 62
     7
100
AcDbLine
 10
389.8077151225
 20
481.1663417129
 30
0.0
 11
389.8077151225
 21
529.6663417129
 31
0.0
  0
ARC
  5
150
330
11B
100
AcDbEntity
  8
$DDT_AUDIT_GENERATED_(D1)
  6
Continuous
 62
     7
100
AcDbCircle
 10
387.8077151225
 20
529.6663417129
 30
0.0
 40
2.000000000000002
100
AcDbArc
 50
0.0
 51
90.0
  0
ARC
  5
151
330
11B
100
AcDbEntity
  8
$DDT_AUDIT_GENERATED_(D1)
  6
Continuous
 62
     7
100
AcDbCircle
 10
387.8077151225
 20
481.1663417129
 30
0.0
 40
2.000000000000002
100
AcDbArc
 50
270.0
 51
0.0
  0
LINE
  5
153
330
11B
100
AcDbEntity
  8
$DDT_AUDIT_GENERATED_(152)
  6
Continuous
 62
     7
100
AcDbLine
 10
390.0577151225
 20
488.9163417129
 30
0.0
 11
390.0577151225
 21
521.9163417129
 31
0.0
  0
LINE
  5
154
330
11B
100
AcDbEntity
  8
$DDT_AUDIT_GENERATED_(152)
  6
Continuous
 62
     7
100
AcDbLine
 10
390.0577151225
 20
521.9163417129
 30
0.0
 11
389.8077151225
 21
521.9163417129
 31
0.0
  0
LINE
  5
155
330
11B
100
AcDbEntity
  8
$DDT_AUDIT_GENERATED_(152)
  6
Continuous
 62
     7
100
AcDbLine
 10
389.8077151225
 20
488.9163417129
 30
0.0
 11
390.0577151225
 21
488.9163417129
 31
0.0
  0
LINE
  5
156
330
11B
100
AcDbEntity
  8
$DDT_AUDIT_GENERATED_(152)
  6
Continuous
 62
     7
100
AcDbLine
 10
390.0577151225
 20
488.9163417129
 30
0.0
 11
391.0577151225
 21
489.9163417129
 31
0.0
  0
LINE
  5
157
330
11B
100
AcDbEntity
  8
$DDT_AUDIT_GENERATED_(152)
  6
Continuous
 62
     7
100
AcDbLine
 10
391.0577151225
 20
520.9163417129
 30
0.0
 11
390.0577151225
 21
521.9163417129
 31
0.0
  0
LINE
  5
158
330
11B
100
AcDbEntity
  8
$DDT_AUDIT_GENERATED_(D6)
  6
Continuous
 62
     7
100
AcDbLine
 10
376.4077151225
 20
353.1491236069
 30
0.0
 11
372.9077151225
 21
353.0879308331
 31
0.0
  0
ARC
  5
159
330
11B
100
AcDbEntity
  8
$DDT_AUDIT_GENERATED_(D6)
  6
Continuous
 62
     7
100
AcDbCircle
 10
376.7064585459
 20
347.3829529202
 30
0.0
 40
5.773904400019484
100
AcDbArc
 50
83.0240475879
 51
92.9658238909
  0
LINE
  5
15A
330
11B
100
AcDbEntity
  8
$DDT_AUDIT_GENERATED_(D6)
  6
Continuous
 62
     7
100
AcDbLine
 10
377.4077151225
 20
353.1141143413
 30
0.0
 11
377.4077151225
 21
352.9949098832
 31
0.0
  0
LINE
  5
15B
330
11B
100
AcDbEntity
  8
$DDT_AUDIT_GENERATED_(D6)
  6
Continuous
 62
     7
100
AcDbLine
 10
372.9077151225
 20
353.0879308331
 30
0.0
 11
372.9077151225
 21
562.916362091
 31
0.0
  0
LINE
  5
15C
330
11B
100
AcDbEntity
  8
$DDT_AUDIT_GENERATED_(D6)
  6
Continuous
 62
     7
100
AcDbLine
 10
386.5646588761
 20
478.6663165454
 30
0.0
 11
386.0563784072
 21
532.1663665591
 31
0.0
  0
LINE
  5
15D
330
11B
100
AcDbEntity
  8
$DDT_AUDIT_GENERATED_(D6)
  6
Continuous
 62
     7
100
AcDbLine
 10
386.5961588676
 20
447.1663666419
 30
0.0
 11
386.1948912468
 21
393.666316798
 31
0.0
  0
LINE
  5
15E
330
11B
100
AcDbEntity
  8
$DDT_AUDIT_GENERATED_(D6)
  6
Continuous
 62
     7
100
AcDbLine
 10
377.4077151225
 20
352.9949098832
 30
0.0
 11
384.0662577457
 21
353.111135177
 31
0.0
  0
LINE
  5
15F
330
11B
100
AcDbEntity
  8
$DDT_AUDIT_GENERATED_(D6)
  6
Continuous
 62
     7
100
AcDbLine
 10
384.0662577457
 20
562.7215890051
 30
0.0
 11
372.9077151225
 21
562.916362091
 31
0.0
  0
ARC
  5
160
330
11B
100
AcDbEntity
  8
$DDT_AUDIT_GENERATED_(D6)
  6
Continuous
 62
     7
100
AcDbCircle
 10
-4613.3922848775
 20
457.916362091
 30
0.0
 40
5000.0
100
AcDbArc
 50
359.8765398565
 51
0.0
  0
ARC
  5
161
330
11B
100
AcDbEntity
  8
$DDT_AUDIT_GENERATED_(D6)
  6
Continuous
 62
     7
100
AcDbCircle
 10
-4613.3922848775
 20
457.916362091
 30
0.0
 40
4999.999999999999
100
AcDbArc
 50
358.8157671216
 51
359.2639639716
  0
ARC
  5
162
330
11B
100
AcDbEntity
  8
$DDT_AUDIT_GENERATED_(D6)
  6
Continuous
 62
     7
100
AcDbCircle
 10
-4613.3922848775
 20
457.916362091
 30
0.0
 40
5000.000000000001
100
AcDbArc
 50
0.8505998226
 51
1.1842328784
  0
ARC
  5
163
330
11B
100
AcDbEntity
  8
$DDT_AUDIT_GENERATED_(D6)
  6
Continuous
 62
     7
100
AcDbCircle
 10
-4613.3922848775
 20
457.916362091
 30
0.0
 40
5000.0
100
AcDbArc
 50
0.0
 51
0.2380140137
  0
ARC
  5
164
330
11B
100
AcDbEntity
  8
$DDT_AUDIT_GENERATED_(D6)
  6
Continuous
 62
     7
100
AcDbCircle
 10
384.0400791361
 20
354.6109067198
 30
0.0
 40
1.500000000000006
100
AcDbArc
 50
271.0
 51
358.8157671211
  0
ARC
  5
165
330
11B
100
AcDbEntity
  8
$DDT_AUDIT_GENERATED_(D6)
  6
Continuous
 62
     7
100
AcDbCircle
 10
384.0400791361
 20
561.2218174623
 30
0.0
 40
1.499999999999748
100
AcDbArc
 50
1.1842328789
 51
89.0
  0
SPLINE
  5
166
330
11B
100
AcDbEntity
  8
$DDT_AUDIT_GENERATED_(97)
  6
Continuous
 62
     7
100
AcDbSpline
210
0.0
220
0.0
230
1.0
 70
     8
 71
     3
 72
    23
 73
    19
 74
     0
 42
0.0000000026012106
 43
0.0000000001
 40
0.0
 40
0.0
 40
0.0
 40
0.0
 40
0.0234943674768762
 40
0.059446172548849
 40
0.0953979776207851
 40
0.131349782692758
 40
0.2032533928367405
 40
0.347060613124632
 40
0.418964223268541
 40
0.4908678334125235
 40
0.5627714435564325
 40
0.634675053700415
 40
0.6706268587723878
 40
0.7065786638443607
 40
0.7425304689162968
 40
0.7784822739883065
 40
0.922289494276198
 40
1.0
 40
1.0
 40
1.0
 40
1.0
 10
415.8161183427904
 20
438.1350138874571
 30
0.0
 10
415.8459078362161
 20
438.1210645626485
 30
0.0
 10
415.9220625925249
 20
438.1181333096824
 30
0.0
 10
416.0442869271174
 20
438.1137684196081
 30
0.0
 10
416.1824860320178
 20
438.1092929036296
 30
0.0
 10
416.366763173232
 20
438.1039150407259
 30
0.0
 10
416.689259576703
 20
438.0959908580037
 30
0.0
 10
417.0577650937376
 20
438.0900578502593
 30
0.0
 10
417.4261913013042
 20
438.0865691659159
 30
0.0
 10
417.7024616993106
 20
438.0846612431597
 30
0.0
 10
417.978673236714
 20
438.0829483397059
 30
0.0
 10
418.2087945466611
 20
438.0811293117326
 30
0.0
 10
418.392855059453
 20
438.0791066495889
 30
0.0
 10
418.530881095527
 20
438.0772920979119
 30
0.0
 10
418.6688867021437
 20
438.0751661559793
 30
0.0
 10
418.9448548945882
 20
438.0702638212298
 30
0.0
 10
419.2741119748312
 20
438.0623889698317
 30
0.0
 10
419.5572590494208
 20
438.0542580720415
 30
0.0
 10
419.6565706001572
 20
438.051183841152
 30
0.0
  0
SPLINE
  5
167
330
11B
100
AcDbEntity
  8
$DDT_AUDIT_GENERATED_(97)
  6
Continuous
 62
     7
100
AcDbSpline
210
0.0
220
0.0
230
1.0
 70
     8
 71
     3
 72
    32
 73
    28
 74
     0
 42
0.0000000001394932
 43
0.0000000001
 40
0.0
 40
0.0
 40
0.0
 40
0.0
 40
0.0077917640137522
 40
0.0156072536969902
 40
0.0234222533189709
 40
0.0312369368106279
 40
0.0468649728254807
 40
0.0624915892780614
 40
0.0781271557443543
 40
0.0937619142951139
 40
0.1093868416777524
 40
0.1250057427240759
 40
0.1562358797774056
 40
0.1874602629411938
 40
0.2186807347803089
 40
0.2499074563384915
 40
0.3123006457960775
 40
0.3747874462560909
 40
0.4372984041175734
 40
0.4998225491503592
 40
0.5623428440919812
 40
0.5936034420238486
 40
0.6248647581733979
 40
0.7499088421362406
 40
0.8749542389673247
 40
0.9374772010030827
 40
1.0
 40
1.0
 40
1.0
 40
1.0
 10
452.02233010524
 20
420.4154966241963
 30
0.0
 10
452.0222409479895
 20
420.2286802585729
 30
0.0
 10
452.0214514799216
 20
419.8561731167526
 30
0.0
 10
452.0088812990065
 20
419.297250845723
 30
0.0
 10
451.9865329878594
 20
418.7380982411211
 30
0.0
 10
451.9432674947145
 20
417.9932924979172
 30
0.0
 10
451.8641600561633
 20
417.0639093069741
 30
0.0
 10
451.7169260365031
 20
415.9539705064923
 30
0.0
 10
451.5038219107786
 20
414.8543499137006
 30
0.0
 10
451.2160423910738
 20
413.771749182293
 30
0.0
 10
450.8500314840229
 20
412.7133166774592
 30
0.0
 10
450.2604636142733
 20
411.342630118213
 30
0.0
 10
449.3395683716181
 20
409.7141035529069
 30
0.0
 10
447.9362459650964
 20
407.9592475911026
 30
0.0
 10
446.231802275105
 20
406.4919998514157
 30
0.0
 10
443.6478540827609
 20
404.9795059471404
 30
0.0
 10
440.0568908440679
 20
403.8561925368211
 30
0.0
 10
435.6367314461642
 20
403.1620304878709
 30
0.0
 10
431.1808175269297
 20
402.723068207915
 30
0.0
 10
426.7138080095459
 20
402.4291403217435
 30
0.0
 10
422.9870247986033
 20
402.2563186061017
 30
0.0
 10
420.0043395074469
 20
402.1545394827863
 30
0.0
 10
415.529325549624
 20
402.0315502726342
 30
0.0
 10
408.8146759242379
 20
401.9355813084896
 30
0.0
 10
401.3536860507599
 20
401.8855280461848
 30
0.0
 10
395.3847393344574
 20
401.8649790613916
 30
0.0
 10
392.400251523869
 20
401.8612408129422
 30
0.0
 10
390.9147334550894
 20
401.8598366568744
 30
0.0
  0
ARC
  5
168
330
11B
100
AcDbEntity
  8
$DDT_AUDIT_GENERATED_(97)
  6
Continuous
 62
     7
100
AcDbCircle
 10
416.9585422239
 20
393.6069631546
 30
0.0
 40
45.05909764940571
100
AcDbArc
 50
88.6044372285
 51
90.654798172
  0
SPLINE
  5
169
330
11B
100
AcDbEntity
  8
$DDT_AUDIT_GENERATED_(97)
  6
Continuous
 62
     7
100
AcDbSpline
210
0.0
220
0.0
230
1.0
 70
     8
 71
     3
 72
    26
 73
    22
 74
     0
 42
0.0000000002243362
 43
0.0000000001
 40
0.0
 40
0.0
 40
0.0
 40
0.0
 40
0.0080569210562611
 40
0.0161101456242893
 40
0.0322196710422493
 40
0.0644389606831225
 40
0.1288769539663393
 40
0.2577421416756586
 40
0.3221799271353364
 40
0.3866168641996609
 40
0.4323069054467842
 40
0.5154667447441489
 40
0.6331671270430763
 40
0.7190801576696852
 40
0.7725106697236338
 40
0.84867391756156
 40
0.8755069169531907
 40
0.9527722412480357
 40
0.97486423506604
 40
0.9969609663067589
 40
1.0
 40
1.0
 40
1.0
 40
1.0
 10
418.055945595521
 20
438.6526953255869
 30
0.0
 10
418.1748987238376
 20
438.648823698519
 30
0.0
 10
418.4127494675672
 20
438.6412420148431
 30
0.0
 10
418.8892085498246
 20
438.6310151618545
 30
0.0
 10
419.723114163735
 20
438.6186248333167
 30
0.0
 10
421.3908095660171
 20
438.5861773521686
 30
0.0
 10
424.7254682117915
 20
438.4967373733998
 30
0.0
 10
428.5338140286954
 20
438.287419458262
 30
0.0
 10
432.3297811428172
 20
437.9319902058198
 30
0.0
 10
434.8982346374315
 20
437.6667862462803
 30
0.0
 10
437.7331959088863
 20
437.2872908537118
 30
0.0
 10
441.3151857293964
 20
436.6175004127807
 30
0.0
 10
445.3680916451569
 20
435.1101978585197
 30
0.0
 10
448.2700699685284
 20
432.5465470557341
 30
0.0
 10
450.0918785670713
 20
429.9158488197338
 30
0.0
 10
451.0118215048276
 20
427.7670301408168
 30
0.0
 10
451.6975393224764
 20
425.189399317875
 30
0.0
 10
451.9329620016886
 20
423.3261926570434
 30
0.0
 10
452.0100513706786
 20
421.5317548381844
 30
0.0
 10
452.0209858503255
 20
420.8330907408339
 30
0.0
 10
452.0218131817278
 20
420.4612937419217
 30
0.0
 10
452.02233010524
 20
420.4154966241963
 30
0.0
  0
LINE
  5
16A
330
11B
100
AcDbEntity
  8
$DDT_AUDIT_GENERATED_(97)
  6
Continuous
 62
     7
100
AcDbLine
 10
390.6077151225
 20
420.416341714
 30
0.0
 11
390.6077151225
 21
441.6184923864
 31
0.0
  0
LINE
  5
16B
330
11B
100
AcDbEntity
  8
$DDT_AUDIT_GENERATED_(97)
  6
Continuous
 62
     7
100
AcDbLine
 10
390.6077151225
 20
402.7733903069
 30
0.0
 11
390.6077151225
 21
420.416341714
 31
0.0
  0
LINE
  5
16C
330
11B
100
AcDbEntity
  8
$DDT_AUDIT_GENERATED_(97)
  6
Continuous
 62
     7
100
AcDbLine
 10
390.6077151225
 20
402.1200842595
 30
0.0
 11
390.6077151225
 21
402.773266162
 31
0.0
  0
LINE
  5
16D
330
11B
100
AcDbEntity
  8
$DDT_AUDIT_GENERATED_(97)
  6
Continuous
 62
     7
100
AcDbLine
 10
390.6077151225
 20
402.1197970832
 30
0.0
 11
390.6077151225
 21
399.2504264407
 31
0.0
  0
ARC
  5
16E
330
11B
100
AcDbEntity
  8
$DDT_AUDIT_GENERATED_(97)
  6
Continuous
 62
     7
100
AcDbCircle
 10
519.7956923863
 20
400.5064228056
 30
0.0
 40
128.894823903415
100
AcDbArc
 50
179.398343619
 51
180.6996293008
  0
LINE
  5
16F
330
11B
100
AcDbEntity
  8
$DDT_AUDIT_GENERATED_(97)
  6
Continuous
 62
     7
100
AcDbLine
 10
390.9077935982
 20
441.9184923761
 30
0.0
 11
393.5547967572
 21
441.9168843992
 31
0.0
  0
ARC
  5
170
330
11B
100
AcDbEntity
  8
$DDT_AUDIT_GENERATED_(97)
  6
Continuous
 62
     7
100
AcDbCircle
 10
390.9077151225
 20
441.6184923864
 30
0.0
 40
0.2999999999999947
100
AcDbArc
 50
89.9850122312
 51
180.0
  0
SPLINE
  5
171
330
11B
100
AcDbEntity
  8
$DDT_AUDIT_GENERATED_(97)
  6
Continuous
 62
     7
100
AcDbSpline
210
0.0
220
0.0
230
1.0
 70
     8
 71
     5
 72
    12
 73
     6
 74
     0
 42
0.0000000012599331
 43
0.0000000001
 40
0.0
 40
0.0
 40
0.0
 40
0.0
 40
0.0
 40
0.0
 40
1.0
 40
1.0
 40
1.0
 40
1.0
 40
1.0
 40
1.0
 10
397.6564473395974
 20
441.908734667872
 30
0.0
 10
399.3492507274702
 20
441.9035339514922
 30
0.0
 10
400.9751372410312
 20
441.8964577201784
 30
0.0
 10
402.5538176000222
 20
441.887503696893
 30
0.0
 10
404.0918821759427
 20
441.8771012092428
 30
0.0
 10
405.5931825788417
 20
441.8589138355212
 30
0.0
  0
ARC
  5
172
330
11B
100
AcDbEntity
  8
$DDT_AUDIT_GENERATED_(97)
  6
Continuous
 62
     7
100
AcDbCircle
 10
395.6495470705
 20
464.0196845835
 30
0.0
 40
22.20184124931094
100
AcDbArc
 50
264.5860733967
 51
275.186240414
  0
ARC
  5
173
330
11B
100
AcDbEntity
  8
$DDT_AUDIT_GENERATED_(97)
  6
Continuous
 62
     7
100
AcDbCircle
 10
395.6493158067
 20
463.903292622
 30
0.0
 40
22.08594930238496
100
AcDbArc
 50
264.8246010259
 51
265.0874354818
  0
ARC
  5
174
330
11B
100
AcDbEntity
  8
$DDT_AUDIT_GENERATED_(97)
  6
Continuous
 62
     7
100
AcDbCircle
 10
452.7401886117
 20
518.7410631977
 30
0.0
 40
98.32818702097575
100
AcDbArc
 50
269.5817005344
 51
270.3535746275
  0
ARC
  5
175
330
11B
100
AcDbEntity
  8
$DDT_AUDIT_GENERATED_(97)
  6
Continuous
 62
     7
100
AcDbCircle
 10
601.762849693
 20
420.9124845641
 30
0.0
 40
148.4155128269952
100
AcDbArc
 50
180.1927642719
 51
182.9555992484
  0
ARC
  5
176
330
11B
100
AcDbEntity
  8
$DDT_AUDIT_GENERATED_(97)
  6
Continuous
 62
     7
100
AcDbCircle
 10
260.8089158236
 20
425.1443382252
 30
0.0
 40
192.5961373552964
100
AcDbArc
 50
358.5933180192
 51
0.7228673212
  0
SPLINE
  5
177
330
11B
100
AcDbEntity
  8
$DDT_AUDIT_GENERATED_(97)
  6
Continuous
 62
     7
100
AcDbSpline
210
0.0
220
0.0
230
1.0
 70
     8
 71
     3
 72
     8
 73
     4
 74
     0
 42
0.0000012223439644
 43
0.0000000001
 40
0.0
 40
0.0
 40
0.0
 40
0.0
 40
1.0
 40
1.0
 40
1.0
 40
1.0
 10
453.3548149460519
 20
420.4132751604241
 30
0.0
 10
453.3546880040438
 20
420.4131050858322
 30
0.0
 10
453.352076748912
 20
420.41312215949
 30
0.0
 10
453.3469720735865
 20
420.4147484255787
 30
0.0
  0
ARC
  5
178
330
11B
100
AcDbEntity
  8
$DDT_AUDIT_GENERATED_(97)
  6
Continuous
 62
     7
100
AcDbCircle
 10
428.7431076049
 20
452.2914605274
 30
0.0
 40
12.95175403152725
100
AcDbArc
 50
285.1218045701
 51
286.0219346999
  0
ARC
  5
179
330
11B
100
AcDbEntity
  8
$DDT_AUDIT_GENERATED_(97)
  6
Continuous
 62
     7
100
AcDbCircle
 10
429.2589142592
 20
450.299155419
 30
0.0
 40
10.89529408812716
100
AcDbArc
 50
282.10519455
 51
286.9268034396
  0
ARC
  5
17A
330
11B
100
AcDbEntity
  8
$DDT_AUDIT_GENERATED_(97)
  6
Continuous
 62
     7
100
AcDbCircle
 10
428.6438599872
 20
452.5129085366
 30
0.0
 40
13.18951697830344
100
AcDbArc
 50
266.0197256504
 51
282.7009384706
  0
ARC
  5
17B
330
11B
100
AcDbEntity
  8
$DDT_AUDIT_GENERATED_(97)
  6
Continuous
 62
     7
100
AcDbCircle
 10
418.1471640799
 20
255.1831429963
 30
0.0
 40
184.4211135366227
100
AcDbArc
 50
87.0219898832
 51
90.025436333
  0
ARC
  5
17C
330
11B
100
AcDbEntity
  8
$DDT_AUDIT_GENERATED_(97)
  6
Continuous
 62
     7
100
AcDbCircle
 10
415.2410006777
 20
449.5836360021
 30
0.0
 40
9.88697219668603
100
AcDbArc
 50
242.2900953984
 51
247.8265158189
  0
ARC
  5
17D
330
11B
100
AcDbEntity
  8
$DDT_AUDIT_GENERATED_(97)
  6
Continuous
 62
     7
100
AcDbCircle
 10
415.4274722347
 20
449.718883814
 30
0.0
 40
10.08332814638973
100
AcDbArc
 50
247.1353301386
 51
269.1264631802
  0
ARC
  5
17E
330
11B
100
AcDbEntity
  8
$DDT_AUDIT_GENERATED_(97)
  6
Continuous
 62
     7
100
AcDbCircle
 10
418.2353333231
 20
574.15878456
 30
0.0
 40
134.554653645911
100
AcDbArc
 50
268.7388016228
 51
269.9275928068
  0
ARC
  5
17F
330
11B
100
AcDbEntity
  8
$DDT_AUDIT_GENERATED_(97)
  6
Continuous
 62
     7
100
AcDbCircle
 10
432.4141801019
 20
439.6765878638
 30
0.0
 40
0.2000000001205047
100
AcDbArc
 50
85.1537346215
 51
123.933924598
  0
SPLINE
  5
180
330
11B
100
AcDbEntity
  8
$DDT_AUDIT_GENERATED_(97)
  6
Continuous
 62
     7
100
AcDbSpline
210
0.0
220
0.0
230
1.0
 70
     8
 71
     3
 72
    12
 73
     8
 74
     0
 42
0.0000000007038854
 43
0.0000000001
 40
0.4997749428523385
 40
0.4997749428523385
 40
0.4997749428523385
 40
0.4997749428523385
 40
0.5
 40
0.5
 40
0.75
 40
0.75
 40
0.9999924517134196
 40
0.9999924517134196
 40
0.9999924517134196
 40
0.9999924517134196
 10
453.5524614863844
 20
413.312103595387
 30
0.0
 10
453.552460955949
 20
413.3121022775617
 30
0.0
 10
453.5524604177349
 20
413.3121015830242
 30
0.0
 10
453.5518533900359
 20
413.3120225544908
 30
0.0
 10
453.5420023659446
 20
414.0750321664863
 30
0.0
 10
453.4463305985096
 20
416.7078316574858
 30
0.0
 10
453.3419329059003
 20
418.5372079745674
 30
0.0
 10
453.3548137789536
 20
420.4131052374447
 30
0.0
  0
ARC
  5
181
330
11B
100
AcDbEntity
  8
$DDT_AUDIT_GENERATED_(97)
  6
Continuous
 62
     7
100
AcDbCircle
 10
278.5494670241
 20
425.0448497985
 30
0.0
 40
174.8666953588697
100
AcDbArc
 50
358.4824360494
 51
0.8107708483
  0
ARC
  5
182
330
11B
100
AcDbEntity
  8
$DDT_AUDIT_GENERATED_(97)
  6
Continuous
 62
     7
100
AcDbCircle
 10
405.6447778856
 20
437.4256109418
 30
0.0
 40
4.426967993802089
100
AcDbArc
 50
76.646031168
 51
90.6682752971
  0
SPLINE
  5
183
330
11B
100
AcDbEntity
  8
$DDT_AUDIT_GENERATED_(97)
  6
Continuous
 62
     7
100
AcDbSpline
210
0.0
220
0.0
230
1.0
 70
     8
 71
     3
 72
    25
 73
    21
 74
     0
 42
0.0000000003813721
 43
0.0000000001
 40
0.0
 40
0.0
 40
0.0
 40
0.0
 40
0.0140201469770386
 40
0.0853375996592283
 40
0.153435004983603
 40
0.2186421191157724
 40
0.281032886102591
 40
0.3403952067838082
 40
0.3964224482134567
 40
0.4487988920122193
 40
0.4972330419251872
 40
0.5554288119942234
 40
0.6065365323117029
 40
0.6512365309062822
 40
0.6986478694756172
 40
0.753631289452417
 40
0.815957178804531
 40
0.8849818430019695
 40
0.9576154133172451
 40
1.0
 40
1.0
 40
1.0
 40
1.0
 10
453.3817286069448
 20
427.5487855645008
 30
0.0
 10
453.3471518412213
 20
427.6789239932143
 30
0.0
 10
453.1655523779524
 20
428.357738902852
 30
0.0
 10
452.6350435347999
 20
429.6399079066618
 30
0.0
 10
451.8276775145733
 20
431.2187345021359
 30
0.0
 10
450.8792793454043
 20
432.6491405191686
 30
0.0
 10
449.839775480574
 20
433.9101851182868
 30
0.0
 10
448.7286884170792
 20
434.9987427109137
 30
0.0
 10
447.5782868617693
 20
435.9095785607942
 30
0.0
 10
446.4244085595656
 20
436.6507079992429
 30
0.0
 10
445.1946462497643
 20
437.2980214215071
 30
0.0
 10
443.9246731570166
 20
437.8355414434748
 30
0.0
 10
442.6495848852769
 20
438.2652213087883
 30
0.0
 10
441.4438780989898
 20
438.5983770882355
 30
0.0
 10
440.1915917409938
 20
438.8855917410933
 30
0.0
 10
438.7782307051992
 20
439.1504950941691
 30
0.0
 10
437.1663124474928
 20
439.3919363613615
 30
0.0
 10
435.408953842574
 20
439.6008544784455
 30
0.0
 10
433.77035589274
 20
439.7609593420349
 30
0.0
 10
432.8365718250762
 20
439.8401153551675
 30
0.0
 10
432.4309141302034
 20
439.8740388407889
 30
0.0
  0
ARC
  5
184
330
11B
100
AcDbEntity
  8
$DDT_AUDIT_GENERATED_(97)
  6
Continuous
 62
     7
100
AcDbCircle
 10
418.4446242832
 20
484.2700152875
 30
0.0
 40
44.13277773917654
100
AcDbArc
 50
254.5260317965
 51
259.8186538025
  0
ARC
  5
185
330
11B
100
AcDbEntity
  8
$DDT_AUDIT_GENERATED_(97)
  6
Continuous
 62
     7
100
AcDbCircle
 10
390.9077151225
 20
399.2504259044
 30
0.0
 40
0.2999999999972012
100
AcDbArc
 50
179.9999981573
 51
270.1931489858
  0
SPLINE
  5
186
330
11B
100
AcDbEntity
  8
$DDT_AUDIT_GENERATED_(97)
  6
Continuous
 62
     7
100
AcDbSpline
210
0.0
220
0.0
230
1.0
 70
     8
 71
     3
 72
    56
 73
    52
 74
     0
 42
0.0000000001380072
 43
0.0000000001
 40
0.0
 40
0.0
 40
0.0
 40
0.0
 40
0.0105839250986325
 40
0.025961198307728
 40
0.0401936293365616
 40
0.053659468484305
 40
0.0665432539359945
 40
0.0869288355534773
 40
0.1059055914216762
 40
0.1231013563543774
 40
0.140762198247186
 40
0.1546903395609852
 40
0.1647087668661807
 40
0.171957340727336
 40
0.1793200416822547
 40
0.1920767152465852
 40
0.2053251492118457
 40
0.2196600304113651
 40
0.2389124422293209
 40
0.2606060564055201
 40
0.2850081446805058
 40
0.3122268713589277
 40
0.3422831845668438
 40
0.3730985315592209
 40
0.4023008177025753
 40
0.4397968983165973
 40
0.4741965982662387
 40
0.5054961040648378
 40
0.5338549926815285
 40
0.5582791013094265
 40
0.5819552291055727
 40
0.6021133234737375
 40
0.6227289056007869
 40
0.644031574667326
 40
0.6657038120881158
 40
0.6878647328410179
 40
0.7104550191932314
 40
0.7330343126618402
 40
0.7480018525634103
 40
0.7629238591097176
 40
0.7787117050274552
 40
0.7970505072272426
 40
0.8180132805045226
 40
0.8415823418140223
 40
0.8676406618046388
 40
0.8923546894081508
 40
0.9187409766451823
 40
0.946655294352624
 40
0.9759166974186644
 40
0.991077479842147
 40
1.0
 40
1.0
 40
1.0
 40
1.0
 10
390.9103651400188
 20
398.9288545016761
 30
0.0
 10
391.1913182305528
 20
398.9284875378226
 30
0.0
 10
391.7747835738015
 20
398.9254857606625
 30
0.0
 10
392.7667368471162
 20
398.8813885593129
 30
0.0
 10
393.7950583422657
 20
398.7712147265971
 30
0.0
 10
394.760006579635
 20
398.5888460101448
 30
0.0
 10
395.8469440173662
 20
398.2847519232436
 30
0.0
 10
397.0205140961139
 20
397.8137819905134
 30
0.0
 10
398.2263957351472
 20
397.170961162203
 30
0.0
 10
399.3275566740836
 20
396.4805619788797
 30
0.0
 10
400.2996490360733
 20
395.8163136611554
 30
0.0
 10
401.1245549846356
 20
395.2438888431251
 30
0.0
 10
401.7482982909295
 20
394.8223318913806
 30
0.0
 10
402.2468939567563
 20
394.4987299824962
 30
0.0
 10
402.8087114989718
 20
394.1514397521803
 30
0.0
 10
403.510195989108
 20
393.7550765628121
 30
0.0
 10
404.3907444312933
 20
393.337411591792
 30
0.0
 10
405.4548101646133
 20
392.9504584884289
 30
0.0
 10
406.7599221308358
 20
392.6533802248546
 30
0.0
 10
408.3332705118444
 20
392.5067795608529
 30
0.0
 10
410.1030850880185
 20
392.4878388707427
 30
0.0
 10
412.0737900384347
 20
392.5237432877456
 30
0.0
 10
414.1990171576008
 20
392.573821309839
 30
0.0
 10
416.3718677201519
 20
392.6337508940624
 30
0.0
 10
418.7238643831252
 20
392.7095010632937
 30
0.0
 10
421.1618615349437
 20
392.8013949023727
 30
0.0
 10
423.6495578461747
 20
392.9164598496836
 30
0.0
 10
425.915895197585
 20
393.0424434150542
 30
0.0
 10
427.9406720389752
 20
393.176052985503
 30
0.0
 10
429.7770095046723
 20
393.3643607005403
 30
0.0
 10
431.3972592032221
 20
393.6858091647044
 30
0.0
 10
432.8687019921963
 20
394.2058887744166
 30
0.0
 10
434.1998917805327
 20
394.9025849445319
 30
0.0
 10
435.4701753332352
 20
395.7674411367932
 30
0.0
 10
436.7053856020952
 20
396.7403407517866
 30
0.0
 10
437.9370496387476
 20
397.7661576007287
 30
0.0
 10
439.1941779318943
 20
398.7957600646068
 30
0.0
 10
440.3500070329551
 20
399.6741758935668
 30
0.0
 10
441.3878246272832
 20
400.3998847375077
 30
0.0
 10
442.3093876863985
 20
401.0049065964201
 30
0.0
 10
443.3136169807832
 20
401.6315556706014
 30
0.0
 10
444.4498338613743
 20
402.3217309097449
 30
0.0
 10
445.739861574283
 20
403.1204755606753
 30
0.0
 10
447.153125954123
 20
404.0730301612053
 30
0.0
 10
448.5629922922057
 20
405.1867919702968
 30
0.0
 10
449.8965489557825
 20
406.4922285710489
 30
0.0
 10
451.091414241507
 20
407.9831740474257
 30
0.0
 10
452.1523977118509
 20
409.7093113470992
 30
0.0
 10
452.8773215344014
 20
411.2851013587757
 30
0.0
 10
453.3290454015558
 20
412.5219848520127
 30
0.0
 10
453.4760052390849
 20
413.0445560140136
 30
0.0
 10
453.5394617638296
 20
413.2727480278777
 30
0.0
  0
LINE
  5
187
330
11B
100
AcDbEntity
  8
$DDT_AUDIT_GENERATED_(C7)
  6
Continuous
 62
     7
100
AcDbLine
 10
432.1072323166
 20
439.7841112323
 30
0.0
 11
432.1151904015
 21
440.1985741067
 31
0.0
  0
ARC
  5
188
330
11B
100
AcDbEntity
  8
$DDT_AUDIT_GENERATED_(C7)
  6
Continuous
 62
     7
100
AcDbCircle
 10
429.0522174736
 20
447.853551245
 30
0.0
 40
8.245027479920092
100
AcDbArc
 50
285.5351646453
 51
291.8077459234
  0
ARC
  5
189
330
11B
100
AcDbEntity
  8
$DDT_AUDIT_GENERATED_(C7)
  6
Continuous
 62
     7
100
AcDbCircle
 10
428.0249591803
 20
449.4285537549
 30
0.0
 40
9.453618832376415
100
AcDbArc
 50
287.3898309636
 51
292.6699635848
  0
ARC
  5
18A
330
11B
100
AcDbEntity
  8
$DDT_AUDIT_GENERATED_(C7)
  6
Continuous
 62
     7
100
AcDbCircle
 10
426.4501000415
 20
455.3340365676
 30
0.0
 40
15.53164739801734
100
AcDbArc
 50
289.6302009116
 51
289.6328173158
  0
ARC
  5
18B
330
11B
100
AcDbEntity
  8
$DDT_AUDIT_GENERATED_(C7)
  6
Continuous
 62
     7
100
AcDbCircle
 10
417.7873022114
 20
454.0162160897
 30
0.0
 40
14.05949429473959
100
AcDbArc
 50
243.553548975
 51
243.5580919587
  0
LINE
  5
18C
330
11B
100
AcDbEntity
  8
$DDT_AUDIT_GENERATED_(C7)
  6
Continuous
 62
     7
100
AcDbLine
 10
411.000474887
 20
440.6538959813
 30
0.0
 11
411.0167913571
 21
440.9551708497
 31
0.0
  0
ARC
  5
18D
330
11B
100
AcDbEntity
  8
$DDT_AUDIT_GENERATED_(C7)
  6
Continuous
 62
     7
100
AcDbCircle
 10
414.5934737468
 20
447.5663592264
 30
0.0
 40
7.516679364474647
100
AcDbArc
 50
241.5864143141
 51
248.562650719
  0
ARC
  5
18E
330
11B
100
AcDbEntity
  8
$DDT_AUDIT_GENERATED_(C7)
  6
Continuous
 62
     7
100
AcDbCircle
 10
431.6152670971
 20
440.2081558057
 30
0.0
 40
0.5000151190154627
100
AcDbArc
 50
358.9019841631
 51
83.8775792648
  0
ARC
  5
18F
330
11B
100
AcDbEntity
  8
$DDT_AUDIT_GENERATED_(C7)
  6
Continuous
 62
     7
100
AcDbCircle
 10
411.5160699639
 20
440.928116584
 30
0.0
 40
0.500011060435614
100
AcDbArc
 50
88.8908358307
 51
176.8983634388
  0
ARC
  5
190
330
11B
100
AcDbEntity
  8
$DDT_AUDIT_GENERATED_(C7)
  6
Continuous
 62
     7
100
AcDbCircle
 10
412.2235928033
 20
180.2292121184
 30
0.0
 40
261.1999434557123
100
AcDbArc
 50
85.7313418583
 51
90.1524237103
  0
ARC
  5
191
330
11B
100
AcDbEntity
  8
$DDT_AUDIT_GENERATED_(C7)
  6
Continuous
 62
     7
100
AcDbCircle
 10
431.6278456564
 20
440.2426417453
 30
0.0
 40
0.4646325852129302
100
AcDbArc
 50
32.673576635
 51
85.0380513073
  0
ARC
  5
192
330
11B
100
AcDbEntity
  8
$DDT_AUDIT_GENERATED_(C7)
  6
Continuous
 62
     7
100
AcDbCircle
 10
411.5045718734
 20
440.9788461911
 30
0.0
 40
0.4498555492054692
100
AcDbArc
 50
87.2309524068
 51
139.097532891
  0
SPLINE
  5
193
330
11B
100
AcDbEntity
  8
$DDT_AUDIT_GENERATED_(C9)
  6
Continuous
 62
     7
100
AcDbSpline
210
0.0
220
0.0
230
1.0
 70
     8
 71
     3
 72
    17
 73
    13
 74
     0
 42
0.0000000007405447
 43
0.0000000001
 40
0.0
 40
0.0
 40
0.0
 40
0.0
 40
0.0311150835403599
 40
0.0623588984384255
 40
0.0936674463120506
 40
0.1251948818759593
 40
0.1877214519432418
 40
0.2502402026101512
 40
0.3127340101383955
 40
0.375228377127771
 40
0.4377287285494896
 40
0.5001466639349242
 40
0.5001466639349242
 40
0.5001466639349242
 40
0.5001466639349242
 10
453.9244139331882
 20
505.4163788009017
 30
0.0
 10
453.9253233549261
 20
505.1967850849193
 30
0.0
 10
453.9267187161427
 20
504.7566891677175
 30
0.0
 10
453.9368963864509
 20
504.1019200832194
 30
0.0
 10
453.9517300093505
 20
503.4569305809252
 30
0.0
 10
453.9765490019356
 20
502.623453855219
 30
0.0
 10
454.011737210075
 20
501.6426573984596
 30
0.0
 10
454.0501521949286
 20
500.6132804078158
 30
0.0
 10
454.0789399732166
 20
499.7686441255361
 30
0.0
 10
454.0970042960689
 20
499.1401462468968
 30
0.0
 10
454.1065444137753
 20
498.7529596981822
 30
0.0
 10
454.1085930761994
 20
498.6657749663462
 30
0.0
 10
454.1085481965312
 20
498.6654773314396
 30
0.0
  0
ARC
  5
194
330
11B
100
AcDbEntity
  8
$DDT_AUDIT_GENERATED_(C9)
  6
Continuous
 62
     7
100
AcDbCircle
 10
428.2368223075
 20
504.8645506557
 30
0.0
 40
26.60325671296989
100
AcDbArc
 50
346.4331026014
 51
1.1885646586
  0
ARC
  5
195
330
11B
100
AcDbEntity
  8
$DDT_AUDIT_GENERATED_(C9)
  6
Continuous
 62
     7
100
AcDbCircle
 10
430.4634435616
 20
505.7420597558
 30
0.0
 40
24.37298077537588
100
AcDbArc
 50
359.2343694497
 51
15.3846981606
  0
ARC
  5
196
330
11B
100
AcDbEntity
  8
$DDT_AUDIT_GENERATED_(C9)
  6
Continuous
 62
     7
100
AcDbCircle
 10
453.7258352198
 20
512.0949261163
 30
0.0
 40
0.2592522968629153
100
AcDbArc
 50
15.9480456367
 51
60.2791226631
  0
ENDBLK
  5
198
330
11B
100
AcDbEntity
  8
0
100
AcDbBlockEnd
  0
BLOCK
  5
221
330
199
100
AcDbEntity
  8
0
100
AcDbBlockBegin
  2
SE2
 70
     0
 10
0.0
 20
0.0
 30
0.0
  3
SE2
  1

  0
ARC
  5
19B
330
199
100
AcDbEntity
  8
$DDT_AUDIT_GENERATED_(97)
  6
Continuous
 62
     7
100
AcDbCircle
 10
-11764.0800347768
 20
125.4605261678
 30
0.0
 40
11887.33676420212
100
AcDbArc
 50
359.924201132
 51
0.0761096243
  0
SPLINE
  5
19C
330
199
100
AcDbEntity
  8
$DDT_AUDIT_GENERATED_(97)
  6
Continuous
 62
     7
100
AcDbSpline
210
0.0
220
0.0
230
1.0
 70
     8
 71
     3
 72
    46
 73
    42
 74
     0
 42
0.0000000003173109
 43
0.0000000001
 40
0.0
 40
0.0
 40
0.0
 40
0.0
 40
0.0061072416272195
 40
0.0160729273027004
 40
0.0193948225278607
 40
0.022716717753021
 40
0.0252081391718912
 40
0.0270767052360439
 40
0.0326824034285019
 40
0.0592575652297843
 40
0.0858327270310633
 40
0.1124078888323492
 40
0.1389830506336316
 40
0.165558212434914
 40
0.2187085360374789
 40
0.2718588596400437
 40
0.2984340214413262
 40
0.3250091832426086
 40
0.3515843450438876
 40
0.3781595068451735
 40
0.4313098304477384
 40
0.4844601540503032
 40
0.5110353158515856
 40
0.5376104776528681
 40
0.5641856394541505
 40
0.590760801255433
 40
0.6173359630567153
 40
0.6439111248579977
 40
0.6704862866592802
 40
0.6970614484605626
 40
0.7236366102618451
 40
0.7502117720631275
 40
0.7767869338644099
 40
0.8033620956656924
 40
0.8299372574669748
 40
0.8565124192682572
 40
0.8830875810695397
 40
0.909662742870822
 40
0.9628130664733869
 40
0.9893882282746693
 40
1.0
 40
1.0
 40
1.0
 40
1.0
 10
99.44912785016345
 20
141.251224211084
 30
0.0
 10
99.44901470081025
 20
141.1667488125845
 30
0.0
 10
99.44900047669472
 20
140.9444667051739
 30
0.0
 10
99.44899234553145
 20
140.6763373780018
 30
0.0
 10
99.44898915207345
 20
140.4467803060032
 30
0.0
 10
99.44898819178373
 20
140.320541855176
 30
0.0
 10
99.4489877929899
 20
140.2143999536054
 30
0.0
 10
99.44898754411066
 20
140.0767151261362
 30
0.0
 10
99.448987698708
 20
139.606366660138
 30
0.0
 10
99.44898278140398
 20
138.7952808651234
 30
0.0
 10
99.44899783058491
 20
137.6960819104244
 30
0.0
 10
99.44903227315915
 20
136.5982858444342
 30
0.0
 10
99.44908378109614
 20
135.5019399335796
 30
0.0
 10
99.4491518452013
 20
134.0421309192942
 30
0.0
 10
99.44919196263514
 20
132.2211900143018
 30
0.0
 10
99.44905529499943
 20
130.4056028931608
 30
0.0
 10
99.44895237127585
 20
128.95698921779
 30
0.0
 10
99.44890650403238
 20
127.8726179098402
 30
0.0
 10
99.44892008269477
 20
126.7904964882768
 30
0.0
 10
99.4489599816078
 20
125.3512689797574
 30
0.0
 10
99.44894296809636
 20
123.5601138290116
 30
0.0
 10
99.44882129506686
 20
121.7858692320596
 30
0.0
 10
99.44881003001264
 20
120.3846181077864
 30
0.0
 10
99.44881602125307
 20
119.3466585926628
 30
0.0
 10
99.44881218687317
 20
118.3260835009592
 30
0.0
 10
99.44880029820241
 20
117.331314492942
 30
0.0
 10
99.44877779556805
 20
116.3702741849742
 30
0.0
 10
99.44876500389624
 20
115.4541025943912
 30
0.0
 10
99.44876362942544
 20
114.5924906829712
 30
0.0
 10
99.4487603144642
 20
113.7952526903856
 30
0.0
 10
99.4487517890454
 20
113.0692494412602
 30
0.0
 10
99.44874136610322
 20
112.4174912761227
 30
0.0
 10
99.44873295578908
 20
111.8421318844367
 30
0.0
 10
99.44872760101657
 20
111.3417135371287
 30
0.0
 10
99.44872574748183
 20
110.9156351561922
 30
0.0
 10
99.44872127330886
 20
110.5631455691007
 30
0.0
 10
99.44871070422629
 20
110.2824910591727
 30
0.0
 10
99.44869658727383
 20
109.9946352618192
 30
0.0
 10
99.44869044752116
 20
109.8243449043777
 30
0.0
 10
99.44868233087735
 20
109.7558272995565
 30
0.0
 10
99.44867838417355
 20
109.7399237644464
 30
0.0
 10
99.44894654909636
 20
109.7364018742387
 30
0.0
  0
SPLINE
  5
19D
330
199
100
AcDbEntity
  8
$DDT_AUDIT_GENERATED_(97)
  6
Continuous
 62
     7
100
AcDbSpline
210
0.0
220
0.0
230
1.0
 70
     8
 71
     3
 72
     9
 73
     5
 74
     0
 42
0.0000011850536875
 43
0.0000000001
 40
0.2738621001679469
 40
0.2738621001679469
 40
0.2738621001679469
 40
0.2738621001679469
 40
0.7111146945082065
 40
1.0
 40
1.0
 40
1.0
 40
1.0
 10
99.44873772517452
 20
109.7309719341079
 30
0.0
 10
99.4486739657221
 20
109.7285785328335
 30
0.0
 10
99.44867199248422
 20
109.725892083715
 30
0.0
 10
99.4486698935
 20
109.7251216958103
 30
0.0
 10
99.4489418272786
 20
109.7251710565002
 30
0.0
  0
SPLINE
  5
19E
330
199
100
AcDbEntity
  8
$DDT_AUDIT_GENERATED_(97)
  6
Continuous
 62
     7
100
AcDbSpline
210
0.0
220
0.0
230
1.0
 70
     8
 71
     3
 72
    19
 73
    15
 74
     0
 42
0.0000000005657129
 43
0.0000000001
 40
0.0
 40
0.0
 40
0.0
 40
0.0
 40
0.0625706158342585
 40
0.1248512079983903
 40
0.2498656090603777
 40
0.3212758488594123
 40
0.3930881284225126
 40
0.50010871571254
 40
0.6251958208753939
 40
0.7497614832306341
 40
0.8126154708892928
 40
0.874998882220008
 40
0.9377568667174239
 40
1.0
 40
1.0
 40
1.0
 40
1.0
 10
99.45654566453716
 20
145.0916764684508
 30
0.0
 10
99.4619279052188
 20
145.4682857196908
 30
0.0
 10
99.48905394138119
 20
146.220371285908
 30
0.0
 10
99.65958245034554
 20
147.7130885262074
 30
0.0
 10
100.0945498869275
 20
149.2091509349047
 30
0.0
 10
100.8690495702854
 20
150.5609098854353
 30
0.0
 10
101.7778885098346
 20
151.6681102962351
 30
0.0
 10
103.0927965628077
 20
152.800565722662
 30
0.0
 10
104.8589630254274
 20
153.8554486323164
 30
0.0
 10
106.5638510731746
 20
154.5398247912247
 30
0.0
 10
107.9937427879314
 20
154.9354937124556
 30
0.0
 10
109.0978795179397
 20
155.1511533245045
 30
0.0
 10
110.2179772110073
 20
155.2888862646525
 30
0.0
 10
110.9721187288341
 20
155.3060351705652
 30
0.0
 10
111.3476364065397
 20
155.3146122323996
 30
0.0
  0
SPLINE
  5
19F
330
199
100
AcDbEntity
  8
$DDT_AUDIT_GENERATED_(97)
  6
Continuous
 62
     7
100
AcDbSpline
210
0.0
220
0.0
230
1.0
 70
     8
 71
     3
 72
    21
 73
    17
 74
     0
 42
0.0000000005661642
 43
0.0000000001
 40
0.0
 40
0.0
 40
0.0
 40
0.0
 40
0.061743212958125
 40
0.1237190429517578
 40
0.1862913202274074
 40
0.2497971942327553
 40
0.3123065909047955
 40
0.3744267709126146
 40
0.49949672168443
 40
0.5991622237054322
 40
0.6744392225143877
 40
0.7492014185674889
 40
0.8327811821789589
 40
0.8743770459260327
 40
0.9370318541545668
 40
1.0
 40
1.0
 40
1.0
 40
1.0
 10
111.3476364065397
 20
155.3146122323996
 30
0.0
 10
111.7202919031517
 20
155.306275754944
 30
0.0
 10
112.46700684044
 20
155.2896473855115
 30
0.0
 10
113.5813186764394
 20
155.1546418412712
 30
0.0
 10
114.6865407017224
 20
154.9395503960352
 30
0.0
 10
115.7668449661373
 20
154.6409109427697
 30
0.0
 10
116.8102096065307
 20
154.2679941435379
 30
0.0
 10
118.1395420984778
 20
153.6733976148145
 30
0.0
 10
119.5625707561697
 20
152.8255897097391
 30
0.0
 10
120.8662565315105
 20
151.7150190643042
 30
0.0
 10
121.787602660326
 20
150.622355196755
 30
0.0
 10
122.4682485280489
 20
149.4478300099726
 30
0.0
 10
122.8616249896501
 20
148.3271848717067
 30
0.0
 10
123.0890925580681
 20
147.2278433062509
 30
0.0
 10
123.2056677656586
 20
146.2276444757525
 30
0.0
 10
123.2331607619643
 20
145.4707570772926
 30
0.0
 10
123.2387694276302
 20
145.0916755480618
 30
0.0
  0
SPLINE
  5
1A0
330
199
100
AcDbEntity
  8
$DDT_AUDIT_GENERATED_(97)
  6
Continuous
 62
     7
100
AcDbSpline
210
0.0
220
0.0
230
1.0
 70
     8
 71
     3
 72
     9
 73
     5
 74
     0
 42
0.0000010764409406
 43
0.0000000001
 40
0.0
 40
0.0
 40
0.0
 40
0.0
 40
0.4855150493923575
 40
1.0
 40
1.0
 40
1.0
 40
1.0
 10
123.2463269982079
 20
109.7342996384967
 30
0.0
 10
123.2460011079602
 20
109.7317512239991
 30
0.0
 10
123.2461038152851
 20
109.7263735213216
 30
0.0
 10
123.2460893003647
 20
109.7256270835113
 30
0.0
 10
123.2463797780072
 20
109.7251072990142
 30
0.0
  0
SPLINE
  5
1A1
330
199
100
AcDbEntity
  8
$DDT_AUDIT_GENERATED_(97)
  6
Continuous
 62
     7
100
AcDbSpline
210
0.0
220
0.0
230
1.0
 70
     8
 71
     3
 72
     8
 73
     4
 74
     0
 42
0.000008281351397
 43
0.0000000001
 40
0.0
 40
0.0
 40
0.0
 40
0.0
 40
1.0
 40
1.0
 40
1.0
 40
1.0
 10
123.2463797780072
 20
109.7251072990142
 30
0.0
 10
123.2460383478681
 20
109.7254877028306
 30
0.0
 10
123.2460427337186
 20
109.7257866250258
 30
0.0
 10
123.2463768464249
 20
109.7260018274107
 30
0.0
  0
ARC
  5
1A2
330
199
100
AcDbEntity
  8
$DDT_AUDIT_GENERATED_(97)
  6
Continuous
 62
     7
100
AcDbCircle
 10
61.0995824345
 20
143.0505436263
 30
0.0
 40
62.17270124165422
100
AcDbArc
 50
358.3415922471
 51
1.8813604754
  0
ARC
  5
1A3
330
199
100
AcDbEntity
  8
$DDT_AUDIT_GENERATED_(97)
  6
Continuous
 62
     7
100
AcDbCircle
 10
296.4006128905
 20
142.7910466928
 30
0.0
 40
196.9575043324623
100
AcDbArc
 50
179.3307217486
 51
180.4479455021
  0
ARC
  5
1A4
330
199
100
AcDbEntity
  8
$DDT_AUDIT_GENERATED_(97)
  6
Continuous
 62
     7
100
AcDbCircle
 10
28559.7993025923
 20
139.2105313839
 30
0.0
 40
28459.28839544236
100
AcDbArc
 50
180.0610479031
 51
180.0610520769
  0
ARC
  5
1A5
330
199
100
AcDbEntity
  8
$DDT_AUDIT_GENERATED_(97)
  6
Continuous
 62
     7
100
AcDbCircle
 10
110.8553821594
 20
134.429565546
 30
0.0
 40
27.93768837271338
100
AcDbArc
 50
285.8916642673
 51
293.89506331
  0
SPLINE
  5
1A6
330
199
100
AcDbEntity
  8
$DDT_AUDIT_GENERATED_(97)
  6
Continuous
 62
     7
100
AcDbSpline
210
0.0
220
0.0
230
1.0
 70
     8
 71
     5
 72
    14
 73
     8
 74
     0
 42
0.0000000001596394
 43
0.0000000001
 40
0.0
 40
0.0
 40
0.0
 40
0.0
 40
0.0
 40
0.0
 40
0.1934442953479642
 40
0.4133816909284858
 40
1.0
 40
1.0
 40
1.0
 40
1.0
 40
1.0
 40
1.0
 10
132.8496624175231
 20
169.999958164259
 30
0.0
 10
132.8481318963873
 20
166.2216562004966
 30
0.0
 10
132.8334695564214
 20
159.2094177812993
 30
0.0
 10
132.6159205058648
 20
144.2766593823002
 30
0.0
 10
132.0371864770549
 20
131.8282323770734
 30
0.0
 10
130.0074918965674
 20
119.4894656332551
 30
0.0
 10
126.9763853261355
 20
113.9543592192914
 30
0.0
 10
123.2463797780072
 20
109.7251072990142
 30
0.0
  0
LINE
  5
1A7
330
199
100
AcDbEntity
  8
$DDT_AUDIT_GENERATED_(97)
  6
Continuous
 62
     7
100
AcDbLine
 10
111.3476364208
 20
170.3000796888
 30
0.0
 11
132.5496624421
 21
170.3000796888
 31
0.0
  0
LINE
  5
1A8
330
199
100
AcDbEntity
  8
$DDT_AUDIT_GENERATED_(97)
  6
Continuous
 62
     7
100
AcDbLine
 10
90.1456103995
 20
170.3000796888
 30
0.0
 11
111.3476364208
 21
170.3000796888
 31
0.0
  0
SPLINE
  5
1A9
330
199
100
AcDbEntity
  8
$DDT_AUDIT_GENERATED_(97)
  6
Continuous
 62
     7
100
AcDbSpline
210
0.0
220
0.0
230
1.0
 70
     8
 71
     5
 72
    14
 73
     8
 74
     0
 42
0.0000000001596395
 43
0.0000000001
 40
0.0
 40
0.0
 40
0.0
 40
0.0
 40
0.0
 40
0.0
 40
0.1934448870532459
 40
0.4133829553758527
 40
1.0
 40
1.0
 40
1.0
 40
1.0
 40
1.0
 40
1.0
 10
89.84561042410749
 20
169.999958164259
 30
0.0
 10
89.8471409452433
 20
166.2216562004966
 30
0.0
 10
89.86180328520925
 20
159.2094177812993
 30
0.0
 10
90.0793516703312
 20
144.2767050583175
 30
0.0
 10
90.65808282413943
 20
131.8283085310867
 30
0.0
 10
92.68776231993861
 20
119.4895788579636
 30
0.0
 10
95.71884153497449
 20
113.9544431849619
 30
0.0
 10
99.4489418272786
 20
109.7251710565002
 30
0.0
  0
ARC
  5
1AA
330
199
100
AcDbEntity
  8
$DDT_AUDIT_GENERATED_(97)
  6
Continuous
 62
     7
100
AcDbCircle
 10
90.1456103995
 20
170.0000796888
 30
0.0
 40
0.2999999999999947
100
AcDbArc
 50
90.0
 51
180.0232094728
  0
ARC
  5
1AB
330
199
100
AcDbEntity
  8
$DDT_AUDIT_GENERATED_(97)
  6
Continuous
 62
     7
100
AcDbCircle
 10
132.5496624421
 20
170.0000796888
 30
0.0
 40
0.2999999999999947
100
AcDbArc
 50
359.9767905272
 51
90.0
  0
ARC
  5
1AC
330
199
100
AcDbEntity
  8
$DDT_AUDIT_GENERATED_(97)
  6
Continuous
 62
     7
100
AcDbCircle
 10
112.2726035009
 20
135.6679513375
 30
0.0
 40
29.24481654105584
100
AcDbArc
 50
246.3200023268
 51
253.9659650723
  0
ARC
  5
1AD
330
199
100
AcDbEntity
  8
$DDT_AUDIT_GENERATED_(97)
  6
Continuous
 62
     7
100
AcDbCircle
 10
111.360010198
 20
225.7849450886
 30
0.0
 40
118.4410457100357
100
AcDbArc
 50
273.4352849914
 51
273.4581817396
  0
ARC
  5
1AE
330
199
100
AcDbEntity
  8
$DDT_AUDIT_GENERATED_(97)
  6
Continuous
 62
     7
100
AcDbCircle
 10
111.360010198
 20
225.7849450886
 30
0.0
 40
118.4410457100357
100
AcDbArc
 50
273.2385261335
 51
273.2498104725
  0
ARC
  5
1AF
330
199
100
AcDbEntity
  8
$DDT_AUDIT_GENERATED_(97)
  6
Continuous
 62
     7
100
AcDbCircle
 10
104.2487226652
 20
107.7412015035
 30
0.0
 40
0.1882255727394873
100
AcDbArc
 50
253.3978163353
 51
269.6295428375
  0
ARC
  5
1B0
330
199
100
AcDbEntity
  8
$DDT_AUDIT_GENERATED_(97)
  6
Continuous
 62
     7
100
AcDbCircle
 10
118.465440638
 20
107.6474142638
 30
0.0
 40
0.0963994736169824
100
AcDbArc
 50
262.3122999961
 51
294.3978015809
  0
SPLINE
  5
1B1
330
199
100
AcDbEntity
  8
$DDT_AUDIT_GENERATED_(97)
  6
Continuous
 62
     7
100
AcDbSpline
210
0.0
220
0.0
230
1.0
 70
     8
 71
     3
 72
    18
 73
    14
 74
     0
 42
0.0000000020315222
 43
0.0000000001
 40
0.0
 40
0.0
 40
0.0
 40
0.0
 40
0.2500000000000018
 40
0.2500000000000018
 40
0.5000000000000036
 40
0.5000000000000036
 40
0.6250000000000027
 40
0.6250000000000027
 40
0.7500000000000018
 40
0.7500000000000018
 40
0.8750000000000009
 40
0.8750000000000009
 40
1.0
 40
1.0
 40
1.0
 40
1.0
 10
115.5092090362154
 20
129.5618684146698
 30
0.0
 10
115.8811676393527
 20
129.7350634979451
 30
0.0
 10
116.240273404949
 20
129.9401469473819
 30
0.0
 10
116.906705297683
 20
130.4144819060708
 30
0.0
 10
117.2152734241376
 20
130.6795900866571
 30
0.0
 10
117.6322613841254
 20
131.1299625926143
 30
0.0
 10
117.7641684662734
 20
131.2903841189232
 30
0.0
 10
117.9990333178159
 20
131.6273551672539
 30
0.0
 10
118.102731330393
 20
131.8042794430776
 30
0.0
 10
118.2698063758324
 20
132.1830227019373
 30
0.0
 10
118.3298395828301
 20
132.3813808669704
 30
0.0
 10
118.3948499536432
 20
132.7817277887584
 30
0.0
 10
118.39852729023
 20
132.9862607254902
 30
0.0
 10
118.3985272865071
 20
133.1913834729662
 30
0.0
  0
SPLINE
  5
1B2
330
199
100
AcDbEntity
  8
$DDT_AUDIT_GENERATED_(97)
  6
Continuous
 62
     7
100
AcDbSpline
210
0.0
220
0.0
230
1.0
 70
     8
 71
     3
 72
    20
 73
    16
 74
     0
 42
0.0000000020323626
 43
0.0000000001
 40
0.0
 40
0.0
 40
0.0
 40
0.0
 40
0.1250000000000003
 40
0.1250000000000003
 40
0.2500000000000006
 40
0.2500000000000006
 40
0.3750000000000009
 40
0.3750000000000009
 40
0.5000000000000012
 40
0.5000000000000012
 40
0.6250000000000016
 40
0.6250000000000016
 40
0.7500000000000018
 40
0.7500000000000018
 40
1.0
 40
1.0
 40
1.0
 40
1.0
 10
104.296745968138
 20
133.1907625915268
 30
0.0
 10
104.2967462573367
 20
132.9847635721337
 30
0.0
 10
104.3003802343122
 20
132.7791438940983
 30
0.0
 10
104.3671419532153
 20
132.37330693102
 30
0.0
 10
104.4290509044743
 20
132.1729384855544
 30
0.0
 10
104.5953128851847
 20
131.7986974769258
 30
0.0
 10
104.700142475311
 20
131.6200972442102
 30
0.0
 10
104.9360871507622
 20
131.2828192622702
 30
0.0
 10
105.0662464837098
 20
131.1249567295639
 30
0.0
 10
105.3444866558189
 20
130.8249713572744
 30
0.0
 10
105.4933959464204
 20
130.6823212696499
 30
0.0
 10
105.8028796186181
 20
130.4142182942016
 30
0.0
 10
105.9632808539032
 20
130.2888113276525
 30
0.0
 10
106.4602809555945
 20
129.9365557843067
 30
0.0
 10
106.8154005621972
 20
129.7344693130593
 30
0.0
 10
107.1859022969295
 20
129.5619438077548
 30
0.0
  0
LINE
  5
1B3
330
199
100
AcDbEntity
  8
$DDT_AUDIT_GENERATED_(97)
  6
Continuous
 62
     7
100
AcDbLine
 10
104.2967459681
 20
145.6388948354
 30
0.0
 11
104.2967459174
 21
142.8438789584
 31
0.0
  0
LINE
  5
1B4
330
199
100
AcDbEntity
  8
$DDT_AUDIT_GENERATED_(97)
  6
Continuous
 62
     7
100
AcDbLine
 10
104.2967459174
 20
142.8438789951
 30
0.0
 11
104.2967459681
 21
133.1907625915
 31
0.0
  0
SPLINE
  5
1B5
330
199
100
AcDbEntity
  8
$DDT_AUDIT_GENERATED_(97)
  6
Continuous
 62
     7
100
AcDbSpline
210
0.0
220
0.0
230
1.0
 70
     8
 71
     3
 72
    18
 73
    14
 74
     0
 42
0.0000000020381095
 43
0.0000000001
 40
0.0
 40
0.0
 40
0.0
 40
0.0
 40
0.2499999999999998
 40
0.2499999999999998
 40
0.4999999999999996
 40
0.4999999999999996
 40
0.6249999999999997
 40
0.6249999999999997
 40
0.7499999999999998
 40
0.7499999999999998
 40
0.8749999999999999
 40
0.8749999999999999
 40
1.0
 40
1.0
 40
1.0
 40
1.0
 10
107.1859019398586
 20
149.2439010725418
 30
0.0
 10
106.814067327261
 20
149.0732726483869
 30
0.0
 10
106.4556357373477
 20
148.8718485599244
 30
0.0
 10
105.790486673246
 20
148.4048384968831
 30
0.0
 10
105.482756454176
 20
148.1435807879647
 30
0.0
 10
105.0666143742651
 20
147.6988161204691
 30
0.0
 10
104.9348553733994
 20
147.5402059164668
 30
0.0
 10
104.6996489609679
 20
147.2059869564646
 30
0.0
 10
104.5956086937092
 20
147.0302156966272
 30
0.0
 10
104.4274898965844
 20
146.6528227539797
 30
0.0
 10
104.3666479407093
 20
146.4542903154211
 30
0.0
 10
104.3005816344824
 20
146.052188303522
 30
0.0
 10
104.2967459942629
 20
145.8464987758952
 30
0.0
 10
104.2967459680988
 20
145.6388948353918
 30
0.0
  0
ARC
  5
1B6
330
199
100
AcDbEntity
  8
$DDT_AUDIT_GENERATED_(97)
  6
Continuous
 62
     7
100
AcDbCircle
 10
111.2224691998
 20
140.1413094872
 30
0.0
 40
9.95746196647787
100
AcDbArc
 50
89.2797706948
 51
113.9150133889
  0
ARC
  5
1B7
330
199
100
AcDbEntity
  8
$DDT_AUDIT_GENERATED_(97)
  6
Continuous
 62
     7
100
AcDbCircle
 10
111.4557485488
 20
140.0575617804
 30
0.0
 40
10.04100503123179
100
AcDbArc
 50
66.1908957132
 51
90.6169277655
  0
SPLINE
  5
1B8
330
199
100
AcDbEntity
  8
$DDT_AUDIT_GENERATED_(97)
  6
Continuous
 62
     7
100
AcDbSpline
210
0.0
220
0.0
230
1.0
 70
     8
 71
     3
 72
    20
 73
    16
 74
     0
 42
0.000000002038728
 43
0.0000000001
 40
0.0
 40
0.0
 40
0.0
 40
0.0
 40
0.1250000000000001
 40
0.1250000000000001
 40
0.2500000000000001
 40
0.2500000000000001
 40
0.3750000000000002
 40
0.3750000000000002
 40
0.5000000000000002
 40
0.5000000000000002
 40
0.7500000000000003
 40
0.7500000000000003
 40
0.8750000000000001
 40
0.8750000000000001
 40
1.0
 40
1.0
 40
1.0
 40
1.0
 10
118.3985270607694
 20
145.6389273265212
 30
0.0
 10
118.3985270349899
 20
145.8454985511044
 30
0.0
 10
118.3947879394248
 20
146.0539810006048
 30
0.0
 10
118.3269928423855
 20
146.461327075811
 30
0.0
 10
118.264200367515
 20
146.6618636409758
 30
0.0
 10
118.0965876768827
 20
147.0347675067821
 30
0.0
 10
117.991341147094
 20
147.2119206967716
 30
0.0
 10
117.7549070187003
 20
147.5460918052431
 30
0.0
 10
117.6247258696888
 20
147.7021715878326
 30
0.0
 10
117.2078685610143
 20
148.1465710228351
 30
0.0
 10
116.8948513293056
 20
148.4114558484968
 30
0.0
 10
116.3991414646627
 20
148.758856590931
 30
0.0
 10
116.2285880457989
 20
148.8667023339206
 30
0.0
 10
115.8767350531809
 20
149.0666917705958
 30
0.0
 10
115.6942027509073
 20
149.1591464639919
 30
0.0
 10
115.5092086791418
 20
149.244032430689
 30
0.0
  0
LINE
  5
1B9
330
199
100
AcDbEntity
  8
$DDT_AUDIT_GENERATED_(97)
  6
Continuous
 62
     7
100
AcDbLine
 10
118.3985272865
 20
133.191383473
 30
0.0
 11
118.3985271114
 21
142.8439243555
 31
0.0
  0
LINE
  5
1BA
330
199
100
AcDbEntity
  8
$DDT_AUDIT_GENERATED_(97)
  6
Continuous
 62
     7
100
AcDbLine
 10
118.3985271114
 20
142.8439243247
 30
0.0
 11
118.3985270608
 21
145.6389273265
 31
0.0
  0
ARC
  5
1BB
330
199
100
AcDbEntity
  8
$DDT_AUDIT_GENERATED_(97)
  6
Continuous
 62
     7
100
AcDbCircle
 10
111.22890597
 20
138.507529985
 30
0.0
 40
9.7854275764627
100
AcDbArc
 50
245.596141014
 51
270.6952082931
  0
ARC
  5
1BC
330
199
100
AcDbEntity
  8
$DDT_AUDIT_GENERATED_(97)
  6
Continuous
 62
     7
100
AcDbCircle
 10
111.442981292
 20
138.6192382587
 30
0.0
 40
9.896874805018802
100
AcDbArc
 50
269.4480122679
 51
294.2588558998
  0
SPLINE
  5
1BD
330
199
100
AcDbEntity
  8
$DDT_AUDIT_GENERATED_(97)
  6
Continuous
 62
     7
100
AcDbSpline
210
0.0
220
0.0
230
1.0
 70
     8
 71
     3
 72
    20
 73
    16
 74
     0
 42
0.0000000020288319
 43
0.0000000001
 40
0.0
 40
0.0
 40
0.0
 40
0.0
 40
0.2499999999999997
 40
0.2499999999999997
 40
0.3749999999999997
 40
0.3749999999999997
 40
0.4999999999999998
 40
0.4999999999999998
 40
0.6249999999999998
 40
0.6249999999999998
 40
0.7499999999999999
 40
0.7499999999999999
 40
0.8749999999999999
 40
0.8749999999999999
 40
1.0
 40
1.0
 40
1.0
 40
1.0
 10
115.5092090362154
 20
129.5962718485891
 30
0.0
 10
115.8814467766737
 20
129.7705571862297
 30
0.0
 10
116.2331045751483
 20
129.9725498075516
 30
0.0
 10
116.7267782947933
 20
130.324021972902
 30
0.0
 10
116.8859333911915
 20
130.4488862011811
 30
0.0
 10
117.192905243218
 20
130.7152503844015
 30
0.0
 10
117.3413102471393
 20
130.8573792007705
 30
0.0
 10
117.6193182366805
 20
131.1566374142537
 30
0.0
 10
117.7495306833409
 20
131.314030091859
 30
0.0
 10
117.9863243796898
 20
131.6504782223642
 30
0.0
 10
118.0924021692797
 20
131.8293332192015
 30
0.0
 10
118.2617646875681
 20
132.2056788505156
 30
0.0
 10
118.3256446161597
 20
132.408355839306
 30
0.0
 10
118.3946820350315
 20
132.8194690756179
 30
0.0
 10
118.3985272903021
 20
133.0282455513263
 30
0.0
 10
118.3985272865071
 20
133.2374258430704
 30
0.0
  0
SPLINE
  5
1BE
330
199
100
AcDbEntity
  8
$DDT_AUDIT_GENERATED_(97)
  6
Continuous
 62
     7
100
AcDbSpline
210
0.0
220
0.0
230
1.0
 70
     8
 71
     3
 72
    18
 73
    14
 74
     0
 42
0.0000000020283027
 43
0.0000000001
 40
0.0
 40
0.0
 40
0.0
 40
0.0
 40
0.1249999999999993
 40
0.1249999999999993
 40
0.2499999999999986
 40
0.2499999999999986
 40
0.3749999999999978
 40
0.3749999999999978
 40
0.4999999999999971
 40
0.4999999999999971
 40
0.7499999999999986
 40
0.7499999999999986
 40
1.0
 40
1.0
 40
1.0
 40
1.0
 10
104.2967461939255
 20
133.236849430236
 30
0.0
 10
104.296746258225
 20
133.0278635471326
 30
0.0
 10
104.300671827876
 20
132.8193556545072
 30
0.0
 10
104.369270700235
 20
132.4097298666882
 30
0.0
 10
104.4330857387644
 20
132.2063750063255
 30
0.0
 10
104.6022547982643
 20
131.8296965805902
 30
0.0
 10
104.7069976276138
 20
131.6526041849625
 30
0.0
 10
104.9443762594731
 20
131.3145852726576
 30
0.0
 10
105.0742160232753
 20
131.1575603106527
 30
0.0
 10
105.487896937016
 20
130.7114702199269
 30
0.0
 10
105.7972615491276
 20
130.4452045294147
 30
0.0
 10
106.4609753340533
 20
129.9725351590601
 30
0.0
 10
106.8141244536501
 20
129.7704553393528
 30
0.0
 10
107.1859022969295
 20
129.5963732612879
 30
0.0
  0
ARC
  5
1BF
330
199
100
AcDbEntity
  8
$DDT_AUDIT_GENERATED_(97)
  6
Continuous
 62
     7
100
AcDbCircle
 10
111.3587800728
 20
220.7495083899
 30
0.0
 40
113.4196821268991
100
AcDbArc
 50
273.5856968366
 51
273.5858700656
  0
ARC
  5
1C0
330
199
100
AcDbEntity
  8
$DDT_AUDIT_GENERATED_(97)
  6
Continuous
 62
     7
100
AcDbCircle
 10
111.3587800728
 20
220.7495083899
 30
0.0
 40
113.4196821268991
100
AcDbArc
 50
273.4809882478
 51
273.5798115171
  0
ARC
  5
1C1
330
199
100
AcDbEntity
  8
$DDT_AUDIT_GENERATED_(97)
  6
Continuous
 62
     7
100
AcDbCircle
 10
111.3587800728
 20
220.7495083899
 30
0.0
 40
113.4196821268991
100
AcDbArc
 50
273.3825438738
 51
273.3987374462
  0
ARC
  5
1C2
330
199
100
AcDbEntity
  8
$DDT_AUDIT_GENERATED_(97)
  6
Continuous
 62
     7
100
AcDbCircle
 10
111.3587800728
 20
220.7495083899
 30
0.0
 40
113.4196821268991
100
AcDbArc
 50
266.4574122798
 51
266.508759193
  0
ARC
  5
1C3
330
199
100
AcDbEntity
  8
$DDT_AUDIT_GENERATED_(97)
  6
Continuous
 62
     7
100
AcDbCircle
 10
111.3696097299
 20
360.7744361767
 30
0.0
 40
253.3215946239823
100
AcDbArc
 50
268.3889242327
 51
271.6022131505
  0
ARC
  5
1C4
330
199
100
AcDbEntity
  8
$DDT_AUDIT_GENERATED_(97)
  6
Continuous
 62
     7
100
AcDbCircle
 10
121.0060580202
 20
111.4870612432
 30
0.0
 40
2.846147216869372
100
AcDbArc
 50
294.154751309
 51
321.9297481709
  0
ARC
  5
1C5
330
199
100
AcDbEntity
  8
$DDT_AUDIT_GENERATED_(97)
  6
Continuous
 62
     7
100
AcDbCircle
 10
101.7420270466
 20
111.5512392837
 30
0.0
 40
2.927373958639548
100
AcDbArc
 50
218.4255887917
 51
245.4874283619
  0
LINE
  5
1C7
330
199
100
AcDbEntity
  8
$DDT_AUDIT_GENERATED_(1C6)
  6
Continuous
 62
     7
100
AcDbLine
 10
107.2089152161
 20
149.1640410262
 30
0.0
 11
107.2089152161
 21
149.4000796888
 31
0.0
  0
LINE
  5
1C8
330
199
100
AcDbEntity
  8
$DDT_AUDIT_GENERATED_(1C6)
  6
Continuous
 62
     7
100
AcDbLine
 10
118.3954425871
 20
135.5000796888
 30
0.0
 11
118.2808734572
 21
135.5000796888
 31
0.0
  0
LINE
  5
1C9
330
199
100
AcDbEntity
  8
$DDT_AUDIT_GENERATED_(1C6)
  6
Continuous
 62
     7
100
AcDbLine
 10
118.283431858
 20
139.5000796888
 30
0.0
 11
118.3968410529
 21
139.5000796888
 31
0.0
  0
LINE
  5
1CA
330
199
100
AcDbEntity
  8
$DDT_AUDIT_GENERATED_(1C6)
  6
Continuous
 62
     7
100
AcDbLine
 10
113.4105822883
 20
149.9000796888
 30
0.0
 11
111.8332694415
 21
149.9000796888
 31
0.0
  0
LINE
  5
1CB
330
199
100
AcDbEntity
  8
$DDT_AUDIT_GENERATED_(1C6)
  6
Continuous
 62
     7
100
AcDbLine
 10
107.7265533063
 20
149.3484072421
 30
0.0
 11
107.7265533063
 21
149.4527907849
 31
0.0
  0
LINE
  5
1CD
330
199
100
AcDbEntity
  8
$DDT_AUDIT_GENERATED_(1CC)
  6
Continuous
 62
     7
100
AcDbLine
 10
118.4152739026
 20
139.7500796888
 30
0.0
 11
118.2835917581
 21
139.7500796888
 31
0.0
  0
LINE
  5
1CE
330
199
100
AcDbEntity
  8
$DDT_AUDIT_GENERATED_(1CC)
  6
Continuous
 62
     7
100
AcDbLine
 10
108.225570043
 20
149.6396707658
 30
0.0
 11
108.225570043
 21
149.4815270088
 31
0.0
  0
LINE
  5
1CF
330
199
100
AcDbEntity
  8
$DDT_AUDIT_GENERATED_(1CC)
  6
Continuous
 62
     7
100
AcDbLine
 10
108.6516814357
 20
149.7500796888
 30
0.0
 11
108.9668652066
 21
149.7500796888
 31
0.0
  0
LINE
  5
1D0
330
199
100
AcDbEntity
  8
$DDT_AUDIT_GENERATED_(1CC)
  6
Continuous
 62
     7
100
AcDbLine
 10
113.401385827
 20
149.7500796888
 30
0.0
 11
114.0371285402
 21
149.7500796888
 31
0.0
  0
LINE
  5
1D2
330
199
100
AcDbEntity
  8
$DDT_AUDIT_GENERATED_(1D1)
  6
Continuous
 62
     7
100
AcDbLine
 10
118.3500199378
 20
139.7500796888
 30
0.0
 11
118.3500199378
 21
139.5000796888
 31
0.0
  0
ARC
  5
1D3
330
199
100
AcDbEntity
  8
$DDT_AUDIT_GENERATED_(C7)
  6
Continuous
 62
     7
100
AcDbCircle
 10
112.187260875
 20
141.8144412349
 30
0.0
 40
8.031643709569753
100
AcDbArc
 50
65.9440749531
 51
66.1809560185
  0
LINE
  5
1D4
330
199
100
AcDbEntity
  8
$DDT_AUDIT_GENERATED_(C7)
  6
Continuous
 62
     7
100
AcDbLine
 10
116.2580201046
 20
148.7216967275
 30
0.0
 11
115.4611848528
 21
149.1485207538
 31
0.0
  0
LINE
  5
1D5
330
199
100
AcDbEntity
  8
$DDT_AUDIT_GENERATED_(C7)
  6
Continuous
 62
     7
100
AcDbLine
 10
118.3020438037
 20
135.2308990415
 30
0.0
 11
118.2807423021
 21
135.2950217164
 31
0.0
  0
LINE
  5
1D6
330
199
100
AcDbEntity
  8
$DDT_AUDIT_GENERATED_(C7)
  6
Continuous
 62
     7
100
AcDbLine
 10
117.8628507447
 20
147.3687097282
 30
0.0
 11
117.8627705472
 21
147.2433226675
 31
0.0
  0
LINE
  5
1D7
330
199
100
AcDbEntity
  8
$DDT_AUDIT_GENERATED_(C7)
  6
Continuous
 62
     7
100
AcDbLine
 10
117.8627705472
 20
147.2433226673
 30
0.0
 11
117.8627502527
 21
147.2115926883
 31
0.0
  0
ARC
  5
1D8
330
199
100
AcDbEntity
  8
$DDT_AUDIT_GENERATED_(C7)
  6
Continuous
 62
     7
100
AcDbCircle
 10
115.7521732749
 20
145.7985864134
 30
0.0
 40
2.540882599775482
100
AcDbArc
 50
356.160020301
 51
33.5101106897
  0
ARC
  5
1D9
330
199
100
AcDbEntity
  8
$DDT_AUDIT_GENERATED_(C7)
  6
Continuous
 62
     7
100
AcDbCircle
 10
120.0326619769
 20
148.763193159
 30
0.0
 40
2.667066204862417
100
AcDbArc
 50
214.740167722
 51
215.8451718162
  0
LINE
  5
1DA
330
199
100
AcDbEntity
  8
$DDT_AUDIT_GENERATED_(C7)
  6
Continuous
 62
     7
100
AcDbLine
 10
117.8410143505
 20
147.2433501333
 30
0.0
 11
117.795021446
 21
147.3090140576
 31
0.0
  0
ARC
  5
1DB
330
199
100
AcDbEntity
  8
$DDT_AUDIT_GENERATED_(C7)
  6
Continuous
 62
     7
100
AcDbCircle
 10
113.6008724559
 20
144.2443784035
 30
0.0
 40
5.194504542641798
100
AcDbArc
 50
36.1553411997
 51
57.8970995008
  0
ARC
  5
1DC
330
199
100
AcDbEntity
  8
$DDT_AUDIT_GENERATED_(C7)
  6
Continuous
 62
     7
100
AcDbCircle
 10
116.7658924036
 20
149.3268100522
 30
0.0
 40
0.7930715935432824
100
AcDbArc
 50
230.0686357718
 51
239.337989303
  0
LINE
  5
1DD
330
199
100
AcDbEntity
  8
$DDT_AUDIT_GENERATED_(C7)
  6
Continuous
 62
     7
100
AcDbLine
 10
116.2585172882
 20
148.7230626896
 30
0.0
 11
116.2569102516
 21
148.7186472919
 31
0.0
  0
LINE
  5
1DE
330
199
100
AcDbEntity
  8
$DDT_AUDIT_GENERATED_(C7)
  6
Continuous
 62
     7
100
AcDbLine
 10
118.3021563819
 20
133.2383928393
 30
0.0
 11
118.3020438037
 21
135.2308990415
 31
0.0
  0
SPLINE
  5
1DF
330
199
100
AcDbEntity
  8
$DDT_AUDIT_GENERATED_(C7)
  6
Continuous
 62
     7
100
AcDbSpline
210
0.0
220
0.0
230
1.0
 70
     8
 71
     3
 72
    12
 73
     8
 74
     0
 42
0.0000000020449884
 43
0.0000000001
 40
0.7181003970604349
 40
0.7181003970604349
 40
0.7181003970604349
 40
0.7181003970604349
 40
0.7499693679989871
 40
0.806612095290301
 40
0.8667792095204581
 40
0.9313626058270134
 40
1.0
 40
1.0
 40
1.0
 40
1.0
 10
118.0150794527453
 20
131.9089405619975
 30
0.0
 10
118.0389902288787
 20
131.9544660940654
 30
0.0
 10
118.1021112463722
 20
132.0828266454573
 30
0.0
 10
118.1909712000946
 20
132.3075373812968
 30
0.0
 10
118.2658728969849
 20
132.5944311642554
 30
0.0
 10
118.3005808119512
 20
132.909091253054
 30
0.0
 10
118.3016206442953
 20
133.1264211456331
 30
0.0
 10
118.3021563818646
 20
133.2383928392676
 30
0.0
  0
SPLINE
  5
1E0
330
199
100
AcDbEntity
  8
$DDT_AUDIT_GENERATED_(C7)
  6
Continuous
 62
     7
100
AcDbSpline
210
0.0
220
0.0
230
1.0
 70
     8
 71
     3
 72
    13
 73
     9
 74
     0
 42
0.0000000020466183
 43
0.0000000001
 40
0.0
 40
0.0
 40
0.0
 40
0.0
 40
0.0549813990363859
 40
0.1072591034251471
 40
0.1571705422206567
 40
0.2052269463145023
 40
0.2509741915238142
 40
0.2817868203273962
 40
0.2817868203273962
 40
0.2817868203273962
 40
0.2817868203273962
 10
104.3978853403194
 20
133.2377708809862
 30
0.0
 10
104.398276729808
 20
133.1481128419091
 30
0.0
 10
104.3990393747362
 20
132.9732056870317
 30
0.0
 10
104.417718303892
 20
132.717038099862
 30
0.0
 10
104.4627247899079
 20
132.4756892650126
 30
0.0
 10
104.5302046958631
 20
132.2513048899253
 30
0.0
 10
104.6067799103744
 20
132.0640392896113
 30
0.0
 10
104.6614800872559
 20
131.9531805108935
 30
0.0
 10
104.6845943565199
 20
131.9092183048044
 30
0.0
  0
LINE
  5
1E1
330
199
100
AcDbEntity
  8
$DDT_AUDIT_GENERATED_(C7)
  6
Continuous
 62
     7
100
AcDbLine
 10
104.3985714116
 20
145.6804716138
 30
0.0
 11
104.3978853403
 21
133.237770881
 31
0.0
  0
SPLINE
  5
1E2
330
199
100
AcDbEntity
  8
$DDT_AUDIT_GENERATED_(C7)
  6
Continuous
 62
     7
100
AcDbSpline
210
0.0
220
0.0
230
1.0
 70
     8
 71
     3
 72
    23
 73
    19
 74
     0
 42
0.0000000029964288
 43
0.0000000001
 40
0.0
 40
0.0
 40
0.0
 40
0.0
 40
0.0775093529169277
 40
0.1488410532510415
 40
0.2140248606180522
 40
0.272846446082615
 40
0.32511227513547
 40
0.3707112336559615
 40
0.4097142920782618
 40
0.4421722983486238
 40
0.4681110482691465
 40
0.4875367162207832
 40
0.5004439545179545
 40
0.601871879767492
 40
0.7021229740024988
 40
0.8010633900681
 40
0.9005359221442585
 40
1.0
 40
1.0
 40
1.0
 40
1.0
 10
106.0008971714176
 20
148.4417557316658
 30
0.0
 10
105.9332457318054
 20
148.3901149869966
 30
0.0
 10
105.8033348094859
 20
148.2909493697133
 30
0.0
 10
105.6244791729612
 20
148.1384013761357
 30
0.0
 10
105.4665741772424
 20
147.9931542325286
 30
0.0
 10
105.3292122630078
 20
147.8566910623293
 30
0.0
 10
105.2113465133641
 20
147.7312978865253
 30
0.0
 10
105.1120788759838
 20
147.618455500271
 30
0.0
 10
105.0302966928914
 20
147.5192898704853
 30
0.0
 10
104.9646681020859
 20
147.4348258396868
 30
0.0
 10
104.9139267580441
 20
147.3660041657288
 30
0.0
 10
104.8769815515569
 20
147.3136703289499
 30
0.0
 10
104.7938807628037
 20
147.191944208027
 30
0.0
 10
104.6705814441426
 20
146.9873803754149
 30
0.0
 10
104.5325691640255
 20
146.6799449953379
 30
0.0
 10
104.4396002142126
 20
146.3554307981958
 30
0.0
 10
104.4001937094787
 20
146.0194840692689
 30
0.0
 10
104.3991121622115
 20
145.7934725640882
 30
0.0
 10
104.3985714115591
 20
145.6804716137926
 30
0.0
  0
LINE
  5
1E3
330
199
100
AcDbEntity
  8
$DDT_AUDIT_GENERATED_(C7)
  6
Continuous
 62
     7
100
AcDbLine
 10
118.2807423021
 20
135.2950217164
 30
0.0
 11
118.2873515477
 21
145.6284231817
 31
0.0
  0
SPLINE
  5
1E4
330
199
100
AcDbEntity
  8
$DDT_AUDIT_GENERATED_(C7)
  6
Continuous
 62
     7
100
AcDbSpline
210
0.0
220
0.0
230
1.0
 70
     8
 71
     3
 72
    14
 73
    10
 74
     0
 42
0.0000000021027861
 43
0.0000000001
 40
0.2940766163222635
 40
0.2940766163222635
 40
0.2940766163222635
 40
0.2940766163222635
 40
0.3462860472272164
 40
0.4219194723456499
 40
0.5001911959246839
 40
0.701563857216695
 40
0.851126265533328
 40
0.9507767972930611
 40
1.0
 40
1.0
 40
1.0
 40
1.0
 10
117.9541805824822
 20
131.7962353120209
 30
0.0
 10
117.9142726497298
 20
131.7233947406531
 30
0.0
 10
117.8090390674071
 20
131.5492656515236
 30
0.0
 10
117.6153396471437
 20
131.2851095922756
 30
0.0
 10
117.2448322162434
 20
130.8615035976209
 30
0.0
 10
116.736316476555
 20
130.4069878425965
 30
0.0
 10
116.1440226335964
 20
130.009717831054
 30
0.0
 10
115.731001381775
 20
129.781513933969
 30
0.0
 10
115.5186392269403
 20
129.6801155668965
 30
0.0
 10
115.4484243875031
 20
129.6465894893834
 30
0.0
  0
ARC
  5
1E5
330
199
100
AcDbEntity
  8
$DDT_AUDIT_GENERATED_(C7)
  6
Continuous
 62
     7
100
AcDbCircle
 10
111.4560000966
 20
138.5453510254
 30
0.0
 40
9.753328077783902
100
AcDbArc
 50
269.3743606068
 51
294.1633619021
  0
ARC
  5
1E6
330
199
100
AcDbEntity
  8
$DDT_AUDIT_GENERATED_(C7)
  6
Continuous
 62
     7
100
AcDbCircle
 10
111.2274350874
 20
138.460125492
 30
0.0
 40
9.668291678407549
100
AcDbArc
 50
245.7158318218
 51
270.7234009301
  0
SPLINE
  5
1E7
330
199
100
AcDbEntity
  8
$DDT_AUDIT_GENERATED_(C7)
  6
Continuous
 62
     7
100
AcDbSpline
210
0.0
220
0.0
230
1.0
 70
     8
 71
     3
 72
    19
 73
    15
 74
     0
 42
0.0000000021052502
 43
0.0000000001
 40
0.0
 40
0.0
 40
0.0
 40
0.0
 40
0.0555696099757333
 40
0.1110561215368131
 40
0.1665132013515963
 40
0.2220062908783855
 40
0.2775651293712309
 40
0.332930696634693
 40
0.3881151504262748
 40
0.4432109276630363
 40
0.4983259614550602
 40
0.6015877412766728
 40
0.7031472997834796
 40
0.7080221381570325
 40
0.7080221381570325
 40
0.7080221381570325
 40
0.7080221381570325
 10
107.2512292201259
 20
129.6473137454416
 30
0.0
 10
107.1719141827691
 20
129.6852297403903
 30
0.0
 10
107.0134027144776
 20
129.761005031296
 30
0.0
 10
106.7813264714595
 20
129.8856241513443
 30
0.0
 10
106.5541672205551
 20
130.0185880099438
 30
0.0
 10
106.3326708001901
 20
130.1609605028216
 30
0.0
 10
106.1176547231529
 20
130.3126186910911
 30
0.0
 10
105.9094543989767
 20
130.4725823833691
 30
0.0
 10
105.7090146902829
 20
130.6409227208113
 30
0.0
 10
105.5167546097821
 20
130.817952963941
 30
0.0
 10
105.2799323573606
 20
131.0577546169697
 30
0.0
 10
105.0119857137191
 20
131.3709424005939
 30
0.0
 10
104.8265779429445
 20
131.6490752792838
 30
0.0
 10
104.74483028172
 20
131.7976433757954
 30
0.0
 10
104.741112672252
 20
131.8044634250878
 30
0.0
  0
ARC
  5
1E8
330
199
100
AcDbEntity
  8
$DDT_AUDIT_GENERATED_(C7)
  6
Continuous
 62
     7
100
AcDbCircle
 10
111.2274273846
 20
138.739134392
 30
0.0
 40
9.500694626734836
100
AcDbArc
 50
246.0355931015
 51
270.7246020417
  0
ARC
  5
1E9
330
199
100
AcDbEntity
  8
$DDT_AUDIT_GENERATED_(C7)
  6
Continuous
 62
     7
100
AcDbCircle
 10
111.4597497743
 20
138.7897595888
 30
0.0
 40
9.55121879462054
100
AcDbArc
 50
269.327080544
 51
293.8869214116
  0
LINE
  5
1EA
330
199
100
AcDbEntity
  8
$DDT_AUDIT_GENERATED_(C7)
  6
Continuous
 62
     7
100
AcDbLine
 10
111.3492673853
 20
149.9458000534
 30
0.0
 11
111.3492672591
 21
149.8910034542
 31
0.0
  0
LINE
  5
1EB
330
199
100
AcDbEntity
  8
$DDT_AUDIT_GENERATED_(C7)
  6
Continuous
 62
     7
100
AcDbLine
 10
109.0394498427
 20
149.6986409473
 30
0.0
 11
107.4715798795
 21
149.2803894772
 31
0.0
  0
ARC
  5
1EC
330
199
100
AcDbEntity
  8
$DDT_AUDIT_GENERATED_(C7)
  6
Continuous
 62
     7
100
AcDbCircle
 10
111.2141009805
 20
140.0188438338
 30
0.0
 40
9.873084902603328
100
AcDbArc
 50
89.215574533
 51
113.66697385
  0
LINE
  5
1ED
330
199
100
AcDbEntity
  8
$DDT_AUDIT_GENERATED_(C7)
  6
Continuous
 62
     7
100
AcDbLine
 10
107.2345599313
 20
149.1780471437
 30
0.0
 11
106.2944037521
 21
148.6645714508
 31
0.0
  0
ARC
  5
1EE
330
199
100
AcDbEntity
  8
$DDT_AUDIT_GENERATED_(C7)
  6
Continuous
 62
     7
100
AcDbCircle
 10
116.5358545049
 20
134.3689973502
 30
0.0
 40
17.57918810642427
100
AcDbArc
 50
125.6203396123
 51
126.818762014
  0
SPLINE
  5
1EF
330
199
100
AcDbEntity
  8
$DDT_AUDIT_GENERATED_(C7)
  6
Continuous
 62
     7
100
AcDbSpline
210
0.0
220
0.0
230
1.0
 70
     8
 71
     3
 72
    11
 73
     7
 74
     0
 42
0.0000001378574375
 43
0.0000000001
 40
0.0
 40
0.0
 40
0.0
 40
0.0
 40
0.2495910474386827
 40
0.4997465060072964
 40
0.7490877303944103
 40
1.0
 40
1.0
 40
1.0
 40
1.0
 10
115.4308352758467
 20
149.1619936017205
 30
0.0
 10
115.4215430284855
 20
149.1660273470335
 30
0.0
 10
115.4029375207985
 20
149.1741039593438
 30
0.0
 10
115.3815211144504
 20
149.1824625255775
 30
0.0
 10
115.3663684846139
 20
149.1876629099374
 30
0.0
 10
115.3643134817016
 20
149.1873749968475
 30
0.0
 10
115.363282753379
 20
149.1872305882073
 30
0.0
  0
LINE
  5
1F0
330
199
100
AcDbEntity
  8
$DDT_AUDIT_GENERATED_(C7)
  6
Continuous
 62
     7
100
AcDbLine
 10
115.3472022228
 20
149.1430496935
 30
0.0
 11
115.3632827534
 21
149.1872305882
 31
0.0
  0
ARC
  5
1F1
330
199
100
AcDbEntity
  8
$DDT_AUDIT_GENERATED_(C7)
  6
Continuous
 62
     7
100
AcDbCircle
 10
111.45699319
 20
139.895200113
 30
0.0
 40
9.996383811742948
100
AcDbArc
 50
66.4639782787
 51
90.6174593507
  0
LINE
  5
1F2
330
199
100
AcDbEntity
  8
$DDT_AUDIT_GENERATED_(C7)
  6
Continuous
 62
     7
100
AcDbLine
 10
115.3452161876
 20
149.1375931066
 30
0.0
 11
115.34737173
 21
149.1435154107
 31
0.0
  0
LINE
  5
1F3
330
199
100
AcDbEntity
  8
$DDT_AUDIT_GENERATED_(C7)
  6
Continuous
 62
     7
100
AcDbLine
 10
116.4010159402
 20
148.7528412358
 30
0.0
 11
116.3614278636
 21
148.6446173438
 31
0.0
  0
ARC
  5
1F4
330
199
100
AcDbEntity
  8
$DDT_AUDIT_GENERATED_(C7)
  6
Continuous
 62
     7
100
AcDbCircle
 10
117.9783605048
 20
147.2453603033
 30
0.0
 40
0.1156079161377688
100
AcDbArc
 50
181.0099134615
 51
210.5338437513
  0
ARC
  5
1F5
330
199
100
AcDbEntity
  8
$DDT_AUDIT_GENERATED_(C7)
  6
Continuous
 62
     7
100
AcDbCircle
 10
135.2993954696
 20
129.1191143878
 30
0.0
 40
23.95211996304617
100
AcDbArc
 50
179.7127435863
 51
180.7810675291
  0
ARC
  5
1F6
330
199
100
AcDbEntity
  8
$DDT_AUDIT_GENERATED_(C7)
  6
Continuous
 62
     7
100
AcDbCircle
 10
145.0218645577
 20
149.5079697751
 30
0.0
 40
33.67477577708457
100
AcDbArc
 50
179.3482752009
 51
180.2142529569
  0
ARC
  5
1F7
330
199
100
AcDbEntity
  8
$DDT_AUDIT_GENERATED_(C7)
  6
Continuous
 62
     7
100
AcDbCircle
 10
106.1852301664
 20
148.8413826852
 30
0.0
 40
0.2078005881562721
100
AcDbArc
 50
258.9059783375
 51
301.6936054821
  0
SPLINE
  5
1F8
330
199
100
AcDbEntity
  8
$DDT_AUDIT_GENERATED_(C7)
  6
Continuous
 62
     7
100
AcDbSpline
210
0.0
220
0.0
230
1.0
 70
     8
 71
     3
 72
    10
 73
     6
 74
     0
 42
0.0000000302830183
 43
0.0000000001
 40
0.493152859380384
 40
0.493152859380384
 40
0.493152859380384
 40
0.493152859380384
 40
0.4950130365520947
 40
0.6361147761133336
 40
1.0
 40
1.0
 40
1.0
 40
1.0
 10
106.1387311552645
 20
148.6340483657047
 30
0.0
 10
106.1389277559384
 20
148.6339982009127
 30
0.0
 10
106.1540389583583
 20
148.6301620374213
 30
0.0
 10
106.2080382445264
 20
148.6217798030478
 30
0.0
 10
106.2600515480991
 20
148.6434210899983
 30
0.0
 10
106.2975318072806
 20
148.6590149436396
 30
0.0
  0
ELLIPSE
  5
1F9
330
199
100
AcDbEntity
  8
$DDT_AUDIT_GENERATED_(C7)
  6
Continuous
 62
     7
100
AcDbEllipse
 10
107.5500228258
 20
149.0966992926
 30
0.0
 11
0.0764602645844728
 21
-0.1848075429728702
 31
0.0
210
0.0
220
0.0
230
0.9999999999999998
 40
0.2156804575
 41
3.141592653589793
 42
3.193991337812291
  0
LINE
  5
1FA
330
199
100
AcDbEntity
  8
$DDT_AUDIT_GENERATED_(C7)
  6
Continuous
 62
     7
100
AcDbLine
 10
111.3492522576
 20
149.9402760223
 30
0.0
 11
111.3492693685
 21
149.9465242306
 31
0.0
  0
LINE
  5
1FB
330
199
100
AcDbEntity
  8
$DDT_AUDIT_GENERATED_(C7)
  6
Continuous
 62
     7
100
AcDbLine
 10
117.9786194995
 20
131.8418219597
 30
0.0
 11
118.0150577085
 21
131.9091017859
 31
0.0
  0
LINE
  5
1FC
330
199
100
AcDbEntity
  8
$DDT_AUDIT_GENERATED_(C7)
  6
Continuous
 62
     7
100
AcDbLine
 10
104.6845797771
 20
131.9092851723
 30
0.0
 11
104.7202333006
 21
131.8434619619
 31
0.0
  0
LINE
  5
1FD
330
199
100
AcDbEntity
  8
$DDT_AUDIT_GENERATED_(C7)
  6
Continuous
 62
     7
100
AcDbLine
 10
107.4810158737
 20
149.2817408712
 30
0.0
 11
107.2444278918
 21
149.1798468252
 31
0.0
  0
LINE
  5
1FE
330
199
100
AcDbEntity
  8
$DDT_AUDIT_GENERATED_(D1)
  6
Continuous
 62
     7
100
AcDbLine
 10
87.1000199378
 20
171.5500796888
 30
0.0
 11
135.6000199378
 21
171.5500796888
 31
0.0
  0
ARC
  5
1FF
330
199
100
AcDbEntity
  8
$DDT_AUDIT_GENERATED_(D1)
  6
Continuous
 62
     7
100
AcDbCircle
 10
135.6000199378
 20
173.5500796888
 30
0.0
 40
2.000000000000002
100
AcDbArc
 50
270.0
 51
0.0
  0
ARC
  5
200
330
199
100
AcDbEntity
  8
$DDT_AUDIT_GENERATED_(D1)
  6
Continuous
 62
     7
100
AcDbCircle
 10
87.1000199378
 20
173.5500796888
 30
0.0
 40
2.000000000000002
100
AcDbArc
 50
180.0
 51
270.0
  0
LINE
  5
202
330
199
100
AcDbEntity
  8
$DDT_AUDIT_GENERATED_(201)
  6
Continuous
 62
     7
100
AcDbLine
 10
108.1170544182
 20
149.6036646177
 30
0.0
 11
108.1170544182
 21
149.5000796888
 31
0.0
  0
LINE
  5
203
330
199
100
AcDbEntity
  8
$DDT_AUDIT_GENERATED_(201)
  6
Continuous
 62
     7
100
AcDbLine
 10
108.1172010502
 20
149.5000796888
 30
0.0
 11
108.1172010502
 21
149.6037212703
 31
0.0
  0
LINE
  5
204
330
199
100
AcDbEntity
  8
$DDT_AUDIT_GENERATED_(201)
  6
Continuous
 62
     7
100
AcDbLine
 10
113.0496134069
 20
149.8011245999
 30
0.0
 11
113.0496134069
 21
149.9000796888
 31
0.0
  0
LINE
  5
205
330
199
100
AcDbEntity
  8
$DDT_AUDIT_GENERATED_(201)
  6
Continuous
 62
     7
100
AcDbLine
 10
113.4256174308
 20
149.7500796888
 30
0.0
 11
113.4256174308
 21
149.8978399141
 31
0.0
  0
LINE
  5
206
330
199
100
AcDbEntity
  8
$DDT_AUDIT_GENERATED_(152)
  6
Continuous
 62
     7
100
AcDbLine
 10
127.8500199378
 20
171.3000796888
 30
0.0
 11
94.8500199378
 21
171.3000796888
 31
0.0
  0
LINE
  5
207
330
199
100
AcDbEntity
  8
$DDT_AUDIT_GENERATED_(152)
  6
Continuous
 62
     7
100
AcDbLine
 10
127.8500199378
 20
171.3000796888
 30
0.0
 11
127.8500199378
 21
171.5500796888
 31
0.0
  0
LINE
  5
208
330
199
100
AcDbEntity
  8
$DDT_AUDIT_GENERATED_(152)
  6
Continuous
 62
     7
100
AcDbLine
 10
94.8500199378
 20
171.5500796888
 30
0.0
 11
94.8500199378
 21
171.3000796888
 31
0.0
  0
LINE
  5
209
330
199
100
AcDbEntity
  8
$DDT_AUDIT_GENERATED_(152)
  6
Continuous
 62
     7
100
AcDbLine
 10
94.8500199378
 20
171.3000796888
 30
0.0
 11
95.8500199378
 21
170.3000796888
 31
0.0
  0
LINE
  5
20A
330
199
100
AcDbEntity
  8
$DDT_AUDIT_GENERATED_(152)
  6
Continuous
 62
     7
100
AcDbLine
 10
126.8500199378
 20
170.3000796888
 30
0.0
 11
127.8500199378
 21
171.3000796888
 31
0.0
  0
LINE
  5
20B
330
199
100
AcDbEntity
  8
$DDT_AUDIT_GENERATED_(D6)
  6
Continuous
 62
     7
100
AcDbLine
 10
6.35
 20
188.4500796888
 30
0.0
 11
216.35
 21
188.4500796888
 31
0.0
  0
SPLINE
  5
20C
330
199
100
AcDbEntity
  8
$DDT_AUDIT_GENERATED_(D6)
  6
Continuous
 62
     7
100
AcDbSpline
210
0.0
220
0.0
230
1.0
 70
     8
 71
     3
 72
    40
 73
    36
 74
     0
 42
0.0000000001027697
 43
0.0000000001
 40
0.3449361338382915
 40
0.3449361338382915
 40
0.3449361338382915
 40
0.3449361338382915
 40
0.3750000000000005
 40
0.3750000000000005
 40
0.4062500000000006
 40
0.4062500000000006
 40
0.4375000000000006
 40
0.4375000000000006
 40
0.4687500000000006
 40
0.4687500000000006
 40
0.5000000000000006
 40
0.5000000000000006
 40
0.5312500000000004
 40
0.5312500000000004
 40
0.5625000000000004
 40
0.5625000000000004
 40
0.6250000000000001
 40
0.6250000000000001
 40
0.6562500000000001
 40
0.6562500000000001
 40
0.6875
 40
0.6875
 40
0.71875
 40
0.71875
 40
0.7499999999999999
 40
0.7499999999999999
 40
0.7812499999999998
 40
0.7812499999999998
 40
0.8124999999999999
 40
0.8124999999999999
 40
0.8437499999999999
 40
0.8437499999999999
 40
0.8749999999999999
 40
0.8749999999999999
 40
0.9053200710644788
 40
0.9053200710644788
 40
0.9053200710644788
 40
0.9053200710644788
 10
85.07782034339026
 20
174.9994491321769
 30
0.0
 10
84.76224229920169
 20
175.0150924758134
 30
0.0
 10
84.60103893155511
 20
175.030977777855
 30
0.0
 10
84.59891962077117
 20
175.0638870957367
 30
0.0
 10
84.77157539834899
 20
175.0804354040328
 30
0.0
 10
85.44907032812202
 20
175.1129140463976
 30
0.0
 10
85.96169414870322
 20
175.1290386329893
 30
0.0
 10
87.30338055936367
 20
175.159844015892
 30
0.0
 10
88.12438871098047
 20
175.1744463983141
 30
0.0
 10
90.06303314032857
 20
175.2020702338006
 30
0.0
 10
91.19228924311909
 20
175.2151603264662
 30
0.0
 10
93.65993039252263
 20
175.2386269479863
 30
0.0
 10
95.0058493308805
 20
175.2491512683869
 30
0.0
 10
97.92645072930917
 20
175.267732627145
 30
0.0
 10
99.4854058323635
 20
175.2756502928378
 30
0.0
 10
104.312767264208
 20
175.2946888137909
 30
0.0
 10
107.8332563492991
 20
175.3013807639207
 30
0.0
 10
113.0654403046756
 20
175.3014340100491
 30
0.0
 10
114.836609489393
 20
175.2997962641421
 30
0.0
 10
118.2696732989635
 20
175.2933283155872
 30
0.0
 10
119.9373520091464
 20
175.2885389748189
 30
0.0
 10
123.1747957645031
 20
175.2758429879933
 30
0.0
 10
124.7434055507623
 20
175.2678883756288
 30
0.0
 10
127.6442834624518
 20
175.2495043154485
 30
0.0
 10
128.9955597621933
 20
175.2390129987844
 30
0.0
 10
131.4927658320155
 20
175.2153398448038
 30
0.0
 10
132.6055229039453
 20
175.2024554218167
 30
0.0
 10
134.5447832839493
 20
175.1749480017776
 30
0.0
 10
135.3821853642822
 20
175.1601246107104
 30
0.0
 10
136.7286572292765
 20
175.1293122820833
 30
0.0
 10
137.2355360257108
 20
175.1134709493486
 30
0.0
 10
137.9218162438015
 20
175.0809316728657
 30
0.0
 10
138.0984653212413
 20
175.0640892886963
 30
0.0
 10
138.1015566097484
 20
175.0314007266728
 30
0.0
 10
137.943629111486
 20
175.0154075068575
 30
0.0
 10
137.6236446130377
 20
174.9995201905254
 30
0.0
  0
LINE
  5
20D
330
199
100
AcDbEntity
  8
$DDT_AUDIT_GENERATED_(D6)
  6
Continuous
 62
     7
100
AcDbLine
 10
6.35
 20
188.4500796888
 30
0.0
 11
6.544773086
 21
177.2915370655
 31
0.0
  0
LINE
  5
20E
330
199
100
AcDbEntity
  8
$DDT_AUDIT_GENERATED_(D6)
  6
Continuous
 62
     7
100
AcDbLine
 10
216.155226914
 20
177.2915370655
 30
0.0
 11
216.35
 21
188.4500796888
 31
0.0
  0
ARC
  5
20F
330
199
100
AcDbEntity
  8
$DDT_AUDIT_GENERATED_(D6)
  6
Continuous
 62
     7
100
AcDbCircle
 10
111.35
 20
5174.7500796888
 30
0.0
 40
4999.999999999999
100
AcDbArc
 50
268.8157671216
 51
269.6991960042
  0
ARC
  5
210
330
199
100
AcDbEntity
  8
$DDT_AUDIT_GENERATED_(D6)
  6
Continuous
 62
     7
100
AcDbCircle
 10
111.35
 20
5174.7500796888
 30
0.0
 40
4999.999999999999
100
AcDbArc
 50
270.3008044527
 51
271.1842328784
  0
ARC
  5
211
330
199
100
AcDbEntity
  8
$DDT_AUDIT_GENERATED_(D6)
  6
Continuous
 62
     7
100
AcDbCircle
 10
8.0445446287
 20
177.3177156752
 30
0.0
 40
1.500000000000006
100
AcDbArc
 50
181.0
 51
268.8157671211
  0
ARC
  5
212
330
199
100
AcDbEntity
  8
$DDT_AUDIT_GENERATED_(D6)
  6
Continuous
 62
     7
100
AcDbCircle
 10
214.6554553713
 20
177.3177156752
 30
0.0
 40
1.499999999999748
100
AcDbArc
 50
271.1842328789
 51
359.0
  0
LINE
  5
214
330
199
100
AcDbEntity
  8
$DDT_AUDIT_GENERATED_(213)
  6
Continuous
 62
     7
100
AcDbLine
 10
108.225570043
 20
149.5000796888
 30
0.0
 11
107.8247708118
 21
149.5000796888
 31
0.0
  0
SPLINE
  5
216
330
199
100
AcDbEntity
  8
$DDT_AUDIT_GENERATED_(215)
  6
Continuous
 62
     7
100
AcDbSpline
210
0.0
220
0.0
230
1.0
 70
     8
 71
     3
 72
     8
 73
     4
 74
     0
 42
0.0000000108311671
 43
0.0000000001
 40
0.0
 40
0.0
 40
0.0
 40
0.0
 40
0.2180562640633867
 40
0.2180562640633867
 40
0.2180562640633867
 40
0.2180562640633867
 10
113.5901251597401
 20
149.6602833939485
 30
0.0
 10
113.5954770220612
 20
149.7271633478117
 30
0.0
 10
113.6008275267047
 20
149.7940576451843
 30
0.0
 10
113.606176753266
 20
149.8609654340005
 30
0.0
  0
SPLINE
  5
217
330
199
100
AcDbEntity
  8
$DDT_AUDIT_GENERATED_(97)
  6
Continuous
 62
     7
100
AcDbSpline
210
0.0
220
0.0
230
1.0
 70
     8
 71
     5
 72
    12
 73
     6
 74
     0
 42
0.0000000001029236
 43
0.0000000001
 40
0.0
 40
0.0
 40
0.0
 40
0.0
 40
0.0
 40
0.0
 40
0.0038063998210989
 40
0.0038063998210989
 40
0.0038063998210989
 40
0.0038063998210989
 40
0.0038063998210989
 40
0.0038063998210989
 10
132.8496624175231
 20
170.449958164259
 30
0.0
 10
132.849632301487
 20
170.3756125864116
 30
0.0
 10
132.8496001214512
 20
170.3014593944501
 30
0.0
 10
132.8495657924555
 20
170.2274962030555
 30
0.0
 10
132.8495292314196
 20
170.1537206674726
 30
0.0
 10
132.8494903570934
 20
170.0801304827474
 30
0.0
  0
LINE
  5
218
330
199
100
AcDbEntity
  8
$DDT_AUDIT_GENERATED_(97)
  6
Continuous
 62
     7
100
AcDbLine
 10
127.3277123999
 20
170.7500796888
 30
0.0
 11
132.5496624421
 21
170.7500796888
 31
0.0
  0
LINE
  5
219
330
199
100
AcDbEntity
  8
$DDT_AUDIT_GENERATED_(97)
  6
Continuous
 62
     7
100
AcDbLine
 10
90.1456103995
 20
170.7500796888
 30
0.0
 11
95.3718621112
 21
170.7500796888
 31
0.0
  0
SPLINE
  5
21A
330
199
100
AcDbEntity
  8
$DDT_AUDIT_GENERATED_(97)
  6
Continuous
 62
     7
100
AcDbSpline
210
0.0
220
0.0
230
1.0
 70
     8
 71
     5
 72
    12
 73
     6
 74
     0
 42
0.0000000001029239
 43
0.0000000001
 40
0.0
 40
0.0
 40
0.0
 40
0.0
 40
0.0
 40
0.0
 40
0.0038064114640099
 40
0.0038064114640099
 40
0.0038064114640099
 40
0.0038064114640099
 40
0.0038064114640099
 40
0.0038064114640099
 10
89.84561042410748
 20
170.449958164259
 30
0.0
 10
89.84564054014355
 20
170.3756125864128
 30
0.0
 10
89.84567272017937
 20
170.3014593944526
 30
0.0
 10
89.84570704917506
 20
170.2274962030591
 30
0.0
 10
89.84574361021096
 20
170.1537206674775
 30
0.0
 10
89.84578248453722
 20
170.0801304827534
 30
0.0
  0
ARC
  5
21B
330
199
100
AcDbEntity
  8
$DDT_AUDIT_GENERATED_(97)
  6
Continuous
 62
     7
100
AcDbCircle
 10
90.1456103995
 20
170.4500796888
 30
0.0
 40
0.2999999999999947
100
AcDbArc
 50
90.0
 51
180.0232094728
  0
ARC
  5
21C
330
199
100
AcDbEntity
  8
$DDT_AUDIT_GENERATED_(97)
  6
Continuous
 62
     7
100
AcDbCircle
 10
132.5496624421
 20
170.4500796888
 30
0.0
 40
0.2999999999999947
100
AcDbArc
 50
359.9767905272
 51
90.0
  0
ARC
  5
21D
330
199
100
AcDbEntity
  8
$DDT_AUDIT_GENERATED_(97)
  6
Continuous
 62
     7
100
AcDbCircle
 10
101.735282606
 20
111.9944364374
 30
0.0
 40
2.917862524551399
100
AcDbArc
 50
218.4032466268
 51
245.5477783595
  0
SPLINE
  5
21E
330
199
100
AcDbEntity
  8
$DDT_AUDIT_GENERATED_(C9)
  6
Continuous
 62
     7
100
AcDbSpline
210
0.0
220
0.0
230
1.0
 70
     8
 71
     3
 72
    11
 73
     7
 74
     0
 42
0.0000000007297406
 43
0.0000000001
 40
0.0
 40
0.0
 40
0.0
 40
0.0
 40
0.1557738438587115
 40
0.5770614839443345
 40
0.9281345173490215
 40
1.0
 40
1.0
 40
1.0
 40
1.0
 10
104.6025408729445
 20
107.433380878053
 30
0.0
 10
105.2960344051002
 20
107.2460779332066
 30
0.0
 10
107.8765105802535
 20
106.6560341292366
 30
0.0
 10
112.0815073040804
 20
106.35
 30
0.0
 10
115.8908142441112
 20
106.8741940120733
 30
0.0
 10
117.777533656646
 20
107.3481913346241
 30
0.0
 10
118.097492880104
 20
107.4345531067099
 30
0.0
  0
ARC
  5
21F
330
199
100
AcDbEntity
  8
$DDT_AUDIT_GENERATED_(C9)
  6
Continuous
 62
     7
100
AcDbCircle
 10
104.6816650699
 20
107.7009694525
 30
0.0
 40
0.2744446803879531
100
AcDbArc
 50
218.891344078
 51
259.6436377118
  0
ARC
  5
220
330
199
100
AcDbEntity
  8
$DDT_AUDIT_GENERATED_(C9)
  6
Continuous
 62
     7
100
AcDbCircle
 10
118.0206478553
 20
107.7134107204
 30
0.0
 40
0.2851921890157126
100
AcDbArc
 50
279.3298930891
 51
314.2014869611
  0
ENDBLK
  5
222
330
199
100
AcDbEntity
  8
0
100
AcDbBlockEnd
  0
ENDSEC
  0
SECTION
  2
ENTITIES
  0
INSERT
  5
5F
330
1F
100
AcDbEntity
  8
Default
100
AcDbBlockReference
  2
SEANNOT_GROUP
 10
0.0
 20
0.0
 30
0.0
  0
INSERT
  5
6A
330
1F
100
AcDbEntity
  8
Default
100
AcDbBlockReference
  2
SEANNOT_GROUP1
 10
0.0
 20
0.0
 30
0.0
  0
INSERT
  5
74
330
1F
100
AcDbEntity
  8
Default
100
AcDbBlockReference
  2
SEANNOT_GROUP2
 10
0.0
 20
0.0
 30
0.0
  0
INSERT
  5
7E
330
1F
100
AcDbEntity
  8
Default
100
AcDbBlockReference
  2
SEANNOT_GROUP3
 10
0.0
 20
0.0
 30
0.0
  0
INSERT
  5
84
330
1F
100
AcDbEntity
  8
Default
100
AcDbBlockReference
  2
SEANNOT_GROUP4
 10
0.0
 20
0.0
 30
0.0
  0
INSERT
  5
8A
330
1F
100
AcDbEntity
  8
Default
100
AcDbBlockReference
  2
SEANNOT_GROUP5
 10
0.0
 20
0.0
 30
0.0
  0
INSERT
  5
90
330
1F
100
AcDbEntity
  8
Default
100
AcDbBlockReference
  2
SEANNOT_GROUP6
 10
0.0
 20
0.0
 30
0.0
  0
INSERT
  5
96
330
1F
100
AcDbEntity
  8
Default
100
AcDbBlockReference
  2
SE
 10
0.0
 20
0.0
 30
0.0
  0
INSERT
  5
11C
330
1F
100
AcDbEntity
  8
Default
100
AcDbBlockReference
  2
SE1
 10
0.0
 20
0.0
 30
0.0
  0
INSERT
  5
19A
330
1F
100
AcDbEntity
  8
Default
100
AcDbBlockReference
  2
SE2
 10
0.0
 20
0.0
 30
0.0
  0
TEXT
  5
224
330
1F
100
AcDbEntity
  8
Default
  6
Continuous
 62
     7
100
AcDbText
 10
5.9362635081
 20
53.4225120485
 30
0.0
 40
10.0
  1
Grohe AG^J
  7
SEACAD_seiso_ttf
 11
5.9362635081
 21
63.4225120485
 31
0.0
100
AcDbText
 73
     3
  0
TEXT
  5
225
330
1F
100
AcDbEntity
  8
Default
  6
Continuous
 62
     7
100
AcDbText
 10
5.9362635081
 20
37.0588756849
 30
0.0
 40
10.0
  1
 
  7
SEACAD_seiso_ttf
 11
5.9362635081
 21
47.0588756849
 31
0.0
100
AcDbText
 73
     3
  0
TEXT
  5
226
330
1F
100
AcDbEntity
  8
Default
  6
Continuous
 62
     7
100
AcDbText
 10
5.9362635081
 20
20.6952393213
 30
0.0
 40
10.0
  1
ecn:
  7
SEACAD_seiso_ttf
 11
5.9362635081
 21
30.6952393213
 31
0.0
100
AcDbText
 73
     3
  0
TEXT
  5
227
330
1F
100
AcDbEntity
  8
Default
  6
Continuous
 62
     7
100
AcDbText
 10
5.9362635081
 20
4.3316029576
 30
0.0
 40
10.0
  1
unit: mm
  7
SEACAD_seiso_ttf
 11
5.9362635081
 21
14.3316029576
 31
0.0
100
AcDbText
 73
     3
  0
LINE
  5
228
330
1F
100
AcDbEntity
  8
Default
  6
Continuous
 62
     7
100
AcDbLine
 10
0.0
 20
0.0
 30
0.0
 11
100.0
 21
0.0
 31
0.0
  0
LINE
  5
229
330
1F
100
AcDbEntity
  8
Default
  6
Continuous
 62
     7
100
AcDbLine
 10
0.0
 20
0.0
 30
0.0
 11
0.0
 21
100.0
 31
0.0
  0
TEXT
  5
22A
330
1F
100
AcDbEntity
  8
Default
  6
Continuous
 62
     7
100
AcDbText
 10
24.3923665681
 20
-18.2375342018
 30
0.0
 40
10.0
  1
100 mm
  7
SEACAD_seiso_ttf
 11
24.3923665681
 21
-8.2375342018
 31
0.0
100
AcDbText
 73
     3
  0
TEXT
  5
22B
330
1F
100
AcDbEntity
  8
Default
  6
Continuous
 62
     7
100
AcDbText
 10
-7.6150308803
 20
24.6231930421
 30
0.0
 40
10.0
  1
100 mm
 50
90.0
  7
SEACAD_seiso_ttf
 11
-17.6150308803
 21
24.6231930421
 31
0.0
100
AcDbText
 73
     3
  0
TEXT
  5
22C
330
1F
100
AcDbEntity
  8
Default
  6
Continuous
 62
     7
100
AcDbText
 10
28.4878128572
 20
20.0907663715
 30
0.0
 40
10.0
  1
231806
  7
SEACAD_seiso_ttf
 11
28.4878128572
 21
30.0907663715
 31
0.0
100
AcDbText
 73
     3
  0
TEXT
  5
22D
330
1F
100
AcDbEntity
  8
Default
  6
Continuous
 62
     7
100
AcDbText
 10
5.9012241913
 20
36.7242780188
 30
0.0
 40
10.0
  1
19985000
  7
SEACAD_seiso_ttf
 11
5.9012241913
 21
46.7242780188
 31
0.0
100
AcDbText
 73
     3
  0
ENDSEC
  0
SECTION
  2
OBJECTS
  0
DICTIONARY
  5
C
330
0
100
AcDbDictionary
281
     1
  3
ACAD_GROUP
350
D
  3
ACAD_LAYOUT
350
1A
  3
ACAD_MLEADERSTYLE
350
231
  3
ACAD_MLINESTYLE
350
17
  3
ACAD_PLOTSETTINGS
350
19
  3
ACAD_PLOTSTYLENAME
350
E
  3
ACAD_SCALELIST
350
3B
  3
ACAD_TABLESTYLE
350
230
  3
ACAD_VISUALSTYLE
350
2A
  3
AcDbVariableDictionary
350
22E
  0
DICTIONARY
  5
D
102
{ACAD_REACTORS
330
C
102
}
330
C
100
AcDbDictionary
281
     1
  0
DICTIONARY
  5
1A
102
{ACAD_REACTORS
330
C
102
}
330
C
100
AcDbDictionary
281
     1
  3
Layout1
350
1E
  3
Model
350
22
  0
DICTIONARY
  5
231
102
{ACAD_REACTORS
330
C
102
}
330
C
100
AcDbDictionary
281
     1
  0
DICTIONARY
  5
17
102
{ACAD_REACTORS
330
C
102
}
330
C
100
AcDbDictionary
281
     1
  3
Standard
350
18
  0
DICTIONARY
  5
19
102
{ACAD_REACTORS
330
C
102
}
330
C
100
AcDbDictionary
281
     1
  0
ACDBDICTIONARYWDFLT
  5
E
102
{ACAD_REACTORS
330
C
102
}
330
C
100
AcDbDictionary
281
     1
  3
Normal
350
F
100
AcDbDictionaryWithDefault
340
F
  0
DICTIONARY
  5
3B
102
{ACAD_REACTORS
330
C
102
}
330
C
100
AcDbDictionary
281
     1
  3
A0
350
3C
  3
A1
350
3D
  3
A2
350
3E
  3
A3
350
3F
  3
A4
350
40
  3
A5
350
41
  3
A6
350
42
  3
A7
350
43
  3
A8
350
44
  3
A9
350
45
  3
B0
350
46
  3
B1
350
47
  3
B2
350
48
  3
B3
350
49
  3
B4
350
4A
  3
B5
350
4B
  3
B6
350
4C
  3
B7
350
4D
  3
B8
350
4E
  3
B9
350
4F
  3
C0
350
50
  3
C1
350
51
  3
C2
350
52
  3
C3
350
53
  3
C4
350
54
  3
C5
350
55
  3
C6
350
56
  3
C7
350
57
  3
C8
350
58
  3
C9
350
59
  3
D0
350
5A
  3
D1
350
5B
  3
D2
350
5C
  0
DICTIONARY
  5
230
102
{ACAD_REACTORS
330
C
102
}
330
C
100
AcDbDictionary
281
     1
  0
DICTIONARY
  5
2A
102
{ACAD_REACTORS
330
C
102
}
330
C
100
AcDbDictionary
281
     1
  3
2dWireframe
350
2F
  3
3D Hidden
350
31
  3
3dWireframe
350
30
  3
Basic
350
32
  3
Brighten
350
36
  3
ColorChange
350
3A
  3
Conceptual
350
34
  3
Dim
350
35
  3
Facepattern
350
39
  3
Flat
350
2B
  3
FlatWithEdges
350
2C
  3
Gouraud
350
2D
  3
GouraudWithEdges
350
2E
  3
Linepattern
350
38
  3
Realistic
350
33
  3
Thicken
350
37
  0
DICTIONARY
  5
22E
102
{ACAD_REACTORS
330
C
102
}
330
C
100
AcDbDictionary
281
     1
  3
CANNOSCALE
350
22F
  3
PSOLHEIGHT
350
233
  3
PSOLWIDTH
350
232
  0
LAYOUT
  5
1E
102
{ACAD_REACTORS
330
1A
102
}
330
1A
100
AcDbPlotSettings
  1

  2
none_device
  4

  6

 40
0.0
 41
0.0
 42
0.0
 43
0.0
 44
0.0
 45
0.0
 46
0.0
 47
0.0
 48
0.0
 49
0.0
140
0.0
141
0.0
142
1.0
143
1.0
 70
   688
 72
     0
 73
     0
 74
     5
  7

 75
    16
147
1.0
148
0.0
149
0.0
100
AcDbLayout
  1
Layout1
 70
     1
 71
     1
 10
0.0
 20
0.0
 11
3000.0
 21
4500.0
 12
0.0
 22
0.0
 32
0.0
 14
0.0
 24
0.0
 34
0.0
 15
3000.0
 25
4500.0
 35
0.0
146
0.0
 13
0.0
 23
0.0
 33
0.0
 16
1.0
 26
0.0
 36
0.0
 17
0.0
 27
1.0
 37
0.0
 76
     0
330
1B
  0
LAYOUT
  5
22
102
{ACAD_REACTORS
330
1A
102
}
330
1A
100
AcDbPlotSettings
  1

  2
none_device
  4

  6

 40
0.0
 41
0.0
 42
0.0
 43
0.0
 44
0.0
 45
0.0
 46
0.0
 47
0.0
 48
0.0
 49
0.0
140
0.0
141
0.0
142
1.0
143
1.0
 70
  1712
 72
     0
 73
     0
 74
     0
  7

 75
     0
147
1.0
148
0.0
149
0.0
100
AcDbLayout
  1
Model
 70
     1
 71
     0
 10
0.0
 20
0.0
 11
3000.0
 21
4500.0
 12
0.0
 22
0.0
 32
0.0
 14
0.0
 24
0.0
 34
0.0
 15
3000.0
 25
4500.0
 35
0.0
146
0.0
 13
0.0
 23
0.0
 33
0.0
 16
1.0
 26
0.0
 36
0.0
 17
0.0
 27
1.0
 37
0.0
 76
     0
330
1F
331
29
  0
MLINESTYLE
  5
18
102
{ACAD_REACTORS
330
17
102
}
330
17
100
AcDbMlineStyle
  2
Standard
 70
     0
  3

 62
   256
 51
90.0
 52
90.0
 71
     2
 49
0.5
 62
   256
  6
BYLAYER
 49
-0.5
 62
   256
  6
BYLAYER
  0
ACDBPLACEHOLDER
  5
F
102
{ACAD_REACTORS
330
E
102
}
330
E
  0
SCALE
  5
3C
102
{ACAD_REACTORS
330
3B
102
}
330
3B
100
AcDbScale
 70
     0
300
1:1
140
1.0
141
1.0
290
     1
  0
SCALE
  5
3D
102
{ACAD_REACTORS
330
3B
102
}
330
3B
100
AcDbScale
 70
     0
300
1:2
140
1.0
141
2.0
290
     0
  0
SCALE
  5
3E
102
{ACAD_REACTORS
330
3B
102
}
330
3B
100
AcDbScale
 70
     0
300
1:4
140
1.0
141
4.0
290
     0
  0
SCALE
  5
3F
102
{ACAD_REACTORS
330
3B
102
}
330
3B
100
AcDbScale
 70
     0
300
1:5
140
1.0
141
5.0
290
     0
  0
SCALE
  5
40
102
{ACAD_REACTORS
330
3B
102
}
330
3B
100
AcDbScale
 70
     0
300
1:8
140
1.0
141
8.0
290
     0
  0
SCALE
  5
41
102
{ACAD_REACTORS
330
3B
102
}
330
3B
100
AcDbScale
 70
     0
300
1:10
140
1.0
141
10.0
290
     0
  0
SCALE
  5
42
102
{ACAD_REACTORS
330
3B
102
}
330
3B
100
AcDbScale
 70
     0
300
1:16
140
1.0
141
16.0
290
     0
  0
SCALE
  5
43
102
{ACAD_REACTORS
330
3B
102
}
330
3B
100
AcDbScale
 70
     0
300
1:20
140
1.0
141
20.0
290
     0
  0
SCALE
  5
44
102
{ACAD_REACTORS
330
3B
102
}
330
3B
100
AcDbScale
 70
     0
300
1:30
140
1.0
141
30.0
290
     0
  0
SCALE
  5
45
102
{ACAD_REACTORS
330
3B
102
}
330
3B
100
AcDbScale
 70
     0
300
1:40
140
1.0
141
40.0
290
     0
  0
SCALE
  5
46
102
{ACAD_REACTORS
330
3B
102
}
330
3B
100
AcDbScale
 70
     0
300
1:50
140
1.0
141
50.0
290
     0
  0
SCALE
  5
47
102
{ACAD_REACTORS
330
3B
102
}
330
3B
100
AcDbScale
 70
     0
300
1:100
140
1.0
141
100.0
290
     0
  0
SCALE
  5
48
102
{ACAD_REACTORS
330
3B
102
}
330
3B
100
AcDbScale
 70
     0
300
2:1
140
2.0
141
1.0
290
     0
  0
SCALE
  5
49
102
{ACAD_REACTORS
330
3B
102
}
330
3B
100
AcDbScale
 70
     0
300
4:1
140
4.0
141
1.0
290
     0
  0
SCALE
  5
4A
102
{ACAD_REACTORS
330
3B
102
}
330
3B
100
AcDbScale
 70
     0
300
8:1
140
8.0
141
1.0
290
     0
  0
SCALE
  5
4B
102
{ACAD_REACTORS
330
3B
102
}
330
3B
100
AcDbScale
 70
     0
300
10:1
140
10.0
141
1.0
290
     0
  0
SCALE
  5
4C
102
{ACAD_REACTORS
330
3B
102
}
330
3B
100
AcDbScale
 70
     0
300
100:1
140
100.0
141
1.0
290
     0
  0
SCALE
  5
4D
102
{ACAD_REACTORS
330
3B
102
}
330
3B
100
AcDbScale
 70
     0
300
1/128" = 1'-0"
140
0.0078125
141
12.0
290
     0
  0
SCALE
  5
4E
102
{ACAD_REACTORS
330
3B
102
}
330
3B
100
AcDbScale
 70
     0
300
1/64" = 1'-0"
140
0.015625
141
12.0
290
     0
  0
SCALE
  5
4F
102
{ACAD_REACTORS
330
3B
102
}
330
3B
100
AcDbScale
 70
     0
300
1/32" = 1'-0"
140
0.03125
141
12.0
290
     0
  0
SCALE
  5
50
102
{ACAD_REACTORS
330
3B
102
}
330
3B
100
AcDbScale
 70
     0
300
1/16" = 1'-0"
140
0.0625
141
12.0
290
     0
  0
SCALE
  5
51
102
{ACAD_REACTORS
330
3B
102
}
330
3B
100
AcDbScale
 70
     0
300
3/32" = 1'-0"
140
0.09375
141
12.0
290
     0
  0
SCALE
  5
52
102
{ACAD_REACTORS
330
3B
102
}
330
3B
100
AcDbScale
 70
     0
300
1/8" = 1'-0"
140
0.125
141
12.0
290
     0
  0
SCALE
  5
53
102
{ACAD_REACTORS
330
3B
102
}
330
3B
100
AcDbScale
 70
     0
300
3/16" = 1'-0"
140
0.1875
141
12.0
290
     0
  0
SCALE
  5
54
102
{ACAD_REACTORS
330
3B
102
}
330
3B
100
AcDbScale
 70
     0
300
1/4" = 1'-0"
140
0.25
141
12.0
290
     0
  0
SCALE
  5
55
102
{ACAD_REACTORS
330
3B
102
}
330
3B
100
AcDbScale
 70
     0
300
3/8" = 1'-0"
140
0.375
141
12.0
290
     0
  0
SCALE
  5
56
102
{ACAD_REACTORS
330
3B
102
}
330
3B
100
AcDbScale
 70
     0
300
1/2" = 1'-0"
140
0.5
141
12.0
290
     0
  0
SCALE
  5
57
102
{ACAD_REACTORS
330
3B
102
}
330
3B
100
AcDbScale
 70
     0
300
3/4" = 1'-0"
140
0.75
141
12.0
290
     0
  0
SCALE
  5
58
102
{ACAD_REACTORS
330
3B
102
}
330
3B
100
AcDbScale
 70
     0
300
1" = 1'-0"
140
1.0
141
12.0
290
     0
  0
SCALE
  5
59
102
{ACAD_REACTORS
330
3B
102
}
330
3B
100
AcDbScale
 70
     0
300
1-1/2" = 1'-0"
140
1.5
141
12.0
290
     0
  0
SCALE
  5
5A
102
{ACAD_REACTORS
330
3B
102
}
330
3B
100
AcDbScale
 70
     0
300
3" = 1'-0"
140
3.0
141
12.0
290
     0
  0
SCALE
  5
5B
102
{ACAD_REACTORS
330
3B
102
}
330
3B
100
AcDbScale
 70
     0
300
6" = 1'-0"
140
6.0
141
12.0
290
     0
  0
SCALE
  5
5C
102
{ACAD_REACTORS
330
3B
102
}
330
3B
100
AcDbScale
 70
     0
300
1'-0" = 1'-0"
140
12.0
141
12.0
290
     0
  0
VISUALSTYLE
  5
2F
102
{ACAD_REACTORS
330
2A
102
}
330
2A
100
AcDbVisualStyle
  2
2dWireframe
 70
     4
 71
     0
 72
     2
 73
     0
 90
        0
 40
-0.6
 41
-30.0
 62
     5
 63
     7
 74
     1
 91
        4
 64
     7
 65
   257
 75
     1
175
     1
 42
1.0
 92
        0
 66
   257
 43
1.0
 76
     1
 77
     6
 78
     2
 67
     7
 79
     5
170
     0
171
     0
290
     0
174
     0
 93
        1
 44
0.0
173
     0
291
     0
 45
0.0
1001
ACAD
1000
AcDbSavedByObjectVersion
1070
     0
  0
VISUALSTYLE
  5
31
102
{ACAD_REACTORS
330
2A
102
}
330
2A
100
AcDbVisualStyle
  2
3D Hidden
 70
     6
 71
     1
 72
     2
 73
     2
 90
        0
 40
-0.6
 41
-30.0
 62
     5
 63
     7
 74
     2
 91
        2
 64
     7
 65
   257
 75
     2
175
     1
 42
40.0
 92
        0
 66
   257
 43
1.0
 76
     1
 77
     6
 78
     2
 67
     7
 79
     3
170
     0
171
     0
290
     0
174
     0
 93
        1
 44
0.0
173
     0
291
     0
 45
0.0
1001
ACAD
1000
AcDbSavedByObjectVersion
1070
     0
  0
VISUALSTYLE
  5
30
102
{ACAD_REACTORS
330
2A
102
}
330
2A
100
AcDbVisualStyle
  2
3dWireframe
 70
     5
 71
     0
 72
     2
 73
     0
 90
        0
 40
-0.6
 41
-30.0
 62
     5
 63
     7
 74
     1
 91
        4
 64
     7
 65
   257
 75
     1
175
     1
 42
1.0
 92
        0
 66
   257
 43
1.0
 76
     1
 77
     6
 78
     2
 67
     7
 79
     5
170
     0
171
     0
290
     0
174
     0
 93
        1
 44
0.0
173
     0
291
     0
 45
0.0
1001
ACAD
1000
AcDbSavedByObjectVersion
1070
     0
  0
VISUALSTYLE
  5
32
102
{ACAD_REACTORS
330
2A
102
}
330
2A
100
AcDbVisualStyle
  2
Basic
 70
     7
 71
     1
 72
     0
 73
     1
 90
        0
 40
-0.6
 41
-30.0
 62
     5
 63
     7
 74
     0
 91
        4
 64
     7
 65
   257
 75
     1
175
     1
 42
1.0
 92
        8
 66
     7
 43
1.0
 76
     1
 77
     6
 78
     2
 67
     7
 79
     5
170
     0
171
     0
290
     0
174
     0
 93
        1
 44
0.0
173
     0
291
     1
 45
0.0
1001
ACAD
1000
AcDbSavedByObjectVersion
1070
     0
  0
VISUALSTYLE
  5
36
102
{ACAD_REACTORS
330
2A
102
}
330
2A
100
AcDbVisualStyle
  2
Brighten
 70
    12
 71
     2
 72
     2
 73
     0
 90
        0
 40
-0.6
 41
-30.0
 62
     5
 63
     7
 74
     1
 91
        4
 64
     7
 65
   257
 75
     1
175
     1
 42
1.0
 92
        8
 66
     7
 43
1.0
 76
     1
 77
     6
 78
     2
 67
     7
 79
     5
170
     0
171
     0
290
     0
174
     0
 93
        1
 44
50.0
173
     0
291
     1
 45
0.0
1001
ACAD
1000
AcDbSavedByObjectVersion
1070
     0
  0
VISUALSTYLE
  5
3A
102
{ACAD_REACTORS
330
2A
102
}
330
2A
100
AcDbVisualStyle
  2
ColorChange
 70
    16
 71
     2
 72
     2
 73
     3
 90
        0
 40
-0.6
 41
-30.0
 62
     5
 63
     8
 74
     1
 91
        4
 64
     7
 65
   257
 75
     1
175
     1
 42
1.0
 92
        8
 66
     8
 43
1.0
 76
     1
 77
     6
 78
     2
 67
     7
 79
     5
170
     0
171
     0
290
     0
174
     0
 93
        1
 44
0.0
173
     0
291
     1
 45
0.0
1001
ACAD
1000
AcDbSavedByObjectVersion
1070
     0
  0
VISUALSTYLE
  5
34
102
{ACAD_REACTORS
330
2A
102
}
330
2A
100
AcDbVisualStyle
  2
Conceptual
 70
     9
 71
     3
 72
     2
 73
     0
 90
        0
 40
-0.6
 41
-30.0
 62
     5
 63
     7
 74
     2
 91
        2
 64
     7
 65
   257
 75
     1
175
     1
 42
40.0
 92
        8
 66
     7
 43
1.0
 76
     1
 77
     6
 78
     2
 67
     7
 79
     3
170
     0
171
     0
290
     0
174
     0
 93
        1
 44
0.0
173
     0
291
     0
 45
0.0
1001
ACAD
1000
AcDbSavedByObjectVersion
1070
     0
  0
VISUALSTYLE
  5
35
102
{ACAD_REACTORS
330
2A
102
}
330
2A
100
AcDbVisualStyle
  2
Dim
 70
    11
 71
     2
 72
     2
 73
     0
 90
        0
 40
-0.6
 41
-30.0
 62
     5
 63
     7
 74
     1
 91
        4
 64
     7
 65
   257
 75
     1
175
     1
 42
1.0
 92
        8
 66
     7
 43
1.0
 76
     1
 77
     6
 78
     2
 67
     7
 79
     5
170
     0
171
     0
290
     0
174
     0
 93
        1
 44
-50.0
173
     0
291
     1
 45
0.0
1001
ACAD
1000
AcDbSavedByObjectVersion
1070
     0
  0
VISUALSTYLE
  5
39
102
{ACAD_REACTORS
330
2A
102
}
330
2A
100
AcDbVisualStyle
  2
Facepattern
 70
    15
 71
     2
 72
     2
 73
     0
 90
        0
 40
-0.6
 41
-30.0
 62
     5
 63
     7
 74
     1
 91
        4
 64
     7
 65
   257
 75
     1
175
     1
 42
1.0
 92
        8
 66
     7
 43
1.0
 76
     1
 77
     6
 78
     2
 67
     7
 79
     5
170
     0
171
     0
290
     0
174
     0
 93
        1
 44
0.0
173
     0
291
     1
 45
0.0
1001
ACAD
1000
AcDbSavedByObjectVersion
1070
     0
  0
VISUALSTYLE
  5
2B
102
{ACAD_REACTORS
330
2A
102
}
330
2A
100
AcDbVisualStyle
  2
Flat
 70
     0
 71
     2
 72
     1
 73
     1
 90
        2
 40
-0.6
 41
30.0
 62
     5
 63
     7
 74
     0
 91
        4
 64
     7
 65
   257
 75
     1
175
     1
 42
1.0
 92
        8
 66
     7
 43
1.0
 76
     1
 77
     6
 78
     2
 67
     7
 79
     5
170
     0
171
     0
290
     0
174
     0
 93
       13
 44
0.0
173
     0
291
     1
 45
0.0
1001
ACAD
1000
AcDbSavedByObjectVersion
1070
     0
  0
VISUALSTYLE
  5
2C
102
{ACAD_REACTORS
330
2A
102
}
330
2A
100
AcDbVisualStyle
  2
FlatWithEdges
 70
     1
 71
     2
 72
     1
 73
     1
 90
        2
 40
-0.6
 41
30.0
 62
     5
 63
     7
 74
     1
 91
        4
 64
     7
 65
   257
 75
     1
175
     1
 42
1.0
 92
        0
 66
   257
 43
1.0
 76
     1
 77
     6
 78
     2
 67
     7
 79
     5
170
     0
171
     0
290
     0
174
     0
 93
       13
 44
0.0
173
     0
291
     1
 45
0.0
1001
ACAD
1000
AcDbSavedByObjectVersion
1070
     0
  0
VISUALSTYLE
  5
2D
102
{ACAD_REACTORS
330
2A
102
}
330
2A
100
AcDbVisualStyle
  2
Gouraud
 70
     2
 71
     2
 72
     2
 73
     1
 90
        2
 40
-0.6
 41
30.0
 62
     5
 63
     7
 74
     0
 91
        4
 64
     7
 65
   257
 75
     1
175
     1
 42
1.0
 92
        0
 66
     7
 43
1.0
 76
     1
 77
     6
 78
     2
 67
     7
 79
     5
170
     0
171
     0
290
     0
174
     0
 93
       13
 44
0.0
173
     0
291
     1
 45
0.0
1001
ACAD
1000
AcDbSavedByObjectVersion
1070
     0
  0
VISUALSTYLE
  5
2E
102
{ACAD_REACTORS
330
2A
102
}
330
2A
100
AcDbVisualStyle
  2
GouraudWithEdges
 70
     3
 71
     2
 72
     2
 73
     1
 90
        2
 40
-0.6
 41
30.0
 62
     5
 63
     7
 74
     1
 91
        4
 64
     7
 65
   257
 75
     1
175
     1
 42
1.0
 92
        0
 66
   257
 43
1.0
 76
     1
 77
     6
 78
     2
 67
     7
 79
     5
170
     0
171
     0
290
     0
174
     0
 93
       13
 44
0.0
173
     0
291
     1
 45
0.0
1001
ACAD
1000
AcDbSavedByObjectVersion
1070
     0
  0
VISUALSTYLE
  5
38
102
{ACAD_REACTORS
330
2A
102
}
330
2A
100
AcDbVisualStyle
  2
Linepattern
 70
    14
 71
     2
 72
     2
 73
     0
 90
        0
 40
-0.6
 41
-30.0
 62
     5
 63
     7
 74
     1
 91
        4
 64
     7
 65
   257
 75
     7
175
     7
 42
1.0
 92
        8
 66
     7
 43
1.0
 76
     1
 77
     6
 78
     2
 67
     7
 79
     5
170
     0
171
     0
290
     0
174
     0
 93
        1
 44
0.0
173
     0
291
     1
 45
0.0
1001
ACAD
1000
AcDbSavedByObjectVersion
1070
     0
  0
VISUALSTYLE
  5
33
102
{ACAD_REACTORS
330
2A
102
}
330
2A
100
AcDbVisualStyle
  2
Realistic
 70
     8
 71
     2
 72
     2
 73
     0
 90
        0
 40
-0.6
 41
-30.0
 62
     5
 63
     7
 74
     1
 91
        0
 64
     7
 65
   257
 75
     1
175
     1
 42
1.0
 92
        8
 66
     8
 43
1.0
 76
     1
 77
     6
 78
     2
 67
     7
 79
     5
170
     0
171
     0
290
     0
174
     0
 93
       13
 44
0.0
173
     0
291
     0
 45
0.0
1001
ACAD
1000
AcDbSavedByObjectVersion
1070
     0
  0
VISUALSTYLE
  5
37
102
{ACAD_REACTORS
330
2A
102
}
330
2A
100
AcDbVisualStyle
  2
Thicken
 70
    13
 71
     2
 72
     2
 73
     0
 90
        0
 40
-0.6
 41
-30.0
 62
     5
 63
     7
 74
     1
 91
        4
 64
     7
 65
   257
 75
     1
175
     1
 42
1.0
 92
       12
 66
     7
 43
1.0
 76
     1
 77
     6
 78
     2
 67
     7
 79
     5
170
     0
171
     0
290
     0
174
     0
 93
        1
 44
0.0
173
     0
291
     1
 45
0.0
1001
ACAD
1000
AcDbSavedByObjectVersion
1070
     0
  0
DICTIONARYVAR
  5
22F
102
{ACAD_REACTORS
330
22E
102
}
330
22E
100
DictionaryVariables
280
     0
  1
1:1
  0
DICTIONARYVAR
  5
233
102
{ACAD_REACTORS
330
22E
102
}
330
22E
100
DictionaryVariables
280
     0
  1
80.000000
  0
DICTIONARYVAR
  5
232
102
{ACAD_REACTORS
330
22E
102
}
330
22E
100
DictionaryVariables
280
     0
  1
5.000000
  0
ENDSEC
  0
EOF
