  0
SECTION
  2
HEADER
  9
$ACADVER
  1
AC1015
  9
$ACADMAINTVER
 70
     6
  9
$DWGCODEPAGE
  3
ANSI_1252
  9
$INSBASE
 10
0.0
 20
0.0
 30
0.0
  9
$EXTMIN
 10
0.0
 20
0.0
 30
0.0
  9
$EXTMAX
 10
3000.0
 20
4500.0
 30
0.0
  9
$LIMMIN
 10
0.0
 20
0.0
  9
$LIMMAX
 10
3000.0
 20
4500.0
  9
$ORTHOMODE
 70
     0
  9
$REGENMODE
 70
     1
  9
$FILLMODE
 70
     1
  9
$QTEXTMODE
 70
     0
  9
$MIRRTEXT
 70
     1
  9
$LTSCALE
 40
1.0
  9
$ATTMODE
 70
     1
  9
$TEXTSIZE
 40
2.5
  9
$TRACEWID
 40
1.0
  9
$TEXTSTYLE
  7
Standard
  9
$CLAYER
  8
0
  9
$CELTYPE
  6
ByLayer
  9
$CECOLOR
 62
   256
  9
$CELTSCALE
 40
1.0
  9
$DISPSILH
 70
     0
  9
$DIMSCALE
 40
1.0
  9
$DIMASZ
 40
2.5
  9
$DIMEXO
 40
0.625
  9
$DIMDLI
 40
3.75
  9
$DIMRND
 40
0.0
  9
$DIMDLE
 40
0.0
  9
$DIMEXE
 40
1.25
  9
$DIMTP
 40
0.0
  9
$DIMTM
 40
0.0
  9
$DIMTXT
 40
2.5
  9
$DIMCEN
 40
2.5
  9
$DIMTSZ
 40
0.0
  9
$DIMTOL
 70
     0
  9
$DIMLIM
 70
     0
  9
$DIMTIH
 70
     0
  9
$DIMTOH
 70
     0
  9
$DIMSE1
 70
     0
  9
$DIMSE2
 70
     0
  9
$DIMTAD
 70
     1
  9
$DIMZIN
 70
     8
  9
$DIMBLK
  1

  9
$DIMASO
 70
     1
  9
$DIMSHO
 70
     1
  9
$DIMPOST
  1

  9
$DIMAPOST
  1

  9
$DIMALT
 70
     0
  9
$DIMALTD
 70
     3
  9
$DIMALTF
 40
0.0393700787
  9
$DIMLFAC
 40
1.0
  9
$DIMTOFL
 70
     1
  9
$DIMTVP
 40
0.0
  9
$DIMTIX
 70
     0
  9
$DIMSOXD
 70
     0
  9
$DIMSAH
 70
     0
  9
$DIMBLK1
  1

  9
$DIMBLK2
  1

  9
$DIMSTYLE
  2
ISO-25
  9
$DIMCLRD
 70
     0
  9
$DIMCLRE
 70
     0
  9
$DIMCLRT
 70
     0
  9
$DIMTFAC
 40
1.0
  9
$DIMGAP
 40
0.625
  9
$DIMJUST
 70
     0
  9
$DIMSD1
 70
     0
  9
$DIMSD2
 70
     0
  9
$DIMTOLJ
 70
     0
  9
$DIMTZIN
 70
     8
  9
$DIMALTZ
 70
     0
  9
$DIMALTTZ
 70
     0
  9
$DIMUPT
 70
     0
  9
$DIMDEC
 70
     2
  9
$DIMTDEC
 70
     2
  9
$DIMALTU
 70
     2
  9
$DIMALTTD
 70
     3
  9
$DIMTXSTY
  7
Standard
  9
$DIMAUNIT
 70
     0
  9
$DIMADEC
 70
     0
  9
$DIMALTRND
 40
0.0
  9
$DIMAZIN
 70
     0
  9
$DIMDSEP
 70
    44
  9
$DIMATFIT
 70
     3
  9
$DIMFRAC
 70
     0
  9
$DIMLDRBLK
  1

  9
$DIMLUNIT
 70
     2
  9
$DIMLWD
 70
    -2
  9
$DIMLWE
 70
    -2
  9
$DIMTMOVE
 70
     0
  9
$LUNITS
 70
     2
  9
$LUPREC
 70
     4
  9
$SKETCHINC
 40
1.0
  9
$FILLETRAD
 40
10.0
  9
$AUNITS
 70
     0
  9
$AUPREC
 70
     0
  9
$MENU
  1
.
  9
$ELEVATION
 40
0.0
  9
$PELEVATION
 40
0.0
  9
$THICKNESS
 40
0.0
  9
$LIMCHECK
 70
     0
  9
$CHAMFERA
 40
10.0
  9
$CHAMFERB
 40
10.0
  9
$CHAMFERC
 40
20.0
  9
$CHAMFERD
 40
0.0
  9
$SKPOLY
 70
     0
  9
$TDCREATE
 40
2456910.382887871
  9
$TDUCREATE
 40
2456910.299554537
  9
$TDUPDATE
 40
2456910.382887882
  9
$TDUUPDATE
 40
2456910.299554549
  9
$TDINDWG
 40
0.0000000116
  9
$TDUSRTIMER
 40
0.0000000116
  9
$USRTIMER
 70
     1
  9
$ANGBASE
 50
0.0
  9
$ANGDIR
 70
     0
  9
$PDMODE
 70
     0
  9
$PDSIZE
 40
0.0
  9
$PLINEWID
 40
0.0
  9
$SPLFRAME
 70
     0
  9
$SPLINETYPE
 70
     6
  9
$SPLINESEGS
 70
     8
  9
$HANDSEED
  5
1E8
  9
$SURFTAB1
 70
     6
  9
$SURFTAB2
 70
     6
  9
$SURFTYPE
 70
     6
  9
$SURFU
 70
     6
  9
$SURFV
 70
     6
  9
$UCSBASE
  2

  9
$UCSNAME
  2

  9
$UCSORG
 10
0.0
 20
0.0
 30
0.0
  9
$UCSXDIR
 10
1.0
 20
0.0
 30
0.0
  9
$UCSYDIR
 10
0.0
 20
1.0
 30
0.0
  9
$UCSORTHOREF
  2

  9
$UCSORTHOVIEW
 70
     0
  9
$UCSORGTOP
 10
0.0
 20
0.0
 30
0.0
  9
$UCSORGBOTTOM
 10
0.0
 20
0.0
 30
0.0
  9
$UCSORGLEFT
 10
0.0
 20
0.0
 30
0.0
  9
$UCSORGRIGHT
 10
0.0
 20
0.0
 30
0.0
  9
$UCSORGFRONT
 10
0.0
 20
0.0
 30
0.0
  9
$UCSORGBACK
 10
0.0
 20
0.0
 30
0.0
  9
$PUCSBASE
  2

  9
$PUCSNAME
  2

  9
$PUCSORG
 10
0.0
 20
0.0
 30
0.0
  9
$PUCSXDIR
 10
1.0
 20
0.0
 30
0.0
  9
$PUCSYDIR
 10
0.0
 20
1.0
 30
0.0
  9
$PUCSORTHOREF
  2

  9
$PUCSORTHOVIEW
 70
     0
  9
$PUCSORGTOP
 10
0.0
 20
0.0
 30
0.0
  9
$PUCSORGBOTTOM
 10
0.0
 20
0.0
 30
0.0
  9
$PUCSORGLEFT
 10
0.0
 20
0.0
 30
0.0
  9
$PUCSORGRIGHT
 10
0.0
 20
0.0
 30
0.0
  9
$PUCSORGFRONT
 10
0.0
 20
0.0
 30
0.0
  9
$PUCSORGBACK
 10
0.0
 20
0.0
 30
0.0
  9
$USERI1
 70
     0
  9
$USERI2
 70
     0
  9
$USERI3
 70
     0
  9
$USERI4
 70
     0
  9
$USERI5
 70
     0
  9
$USERR1
 40
0.0
  9
$USERR2
 40
0.0
  9
$USERR3
 40
0.0
  9
$USERR4
 40
0.0
  9
$USERR5
 40
0.0
  9
$WORLDVIEW
 70
     1
  9
$SHADEDGE
 70
     3
  9
$SHADEDIF
 70
    70
  9
$TILEMODE
 70
     1
  9
$MAXACTVP
 70
    64
  9
$PINSBASE
 10
0.0
 20
0.0
 30
0.0
  9
$PLIMCHECK
 70
     0
  9
$PEXTMIN
 10
0.0
 20
0.0
 30
0.0
  9
$PEXTMAX
 10
3000.0
 20
4500.0
 30
0.0
  9
$PLIMMIN
 10
0.0
 20
0.0
  9
$PLIMMAX
 10
3000.0
 20
4500.0
  9
$UNITMODE
 70
     0
  9
$VISRETAIN
 70
     1
  9
$PLINEGEN
 70
     0
  9
$PSLTSCALE
 70
     1
  9
$TREEDEPTH
 70
  3020
  9
$CMLSTYLE
  2
Standard
  9
$CMLJUST
 70
     0
  9
$CMLSCALE
 40
20.0
  9
$PROXYGRAPHICS
 70
     1
  9
$MEASUREMENT
 70
     1
  9
$CELWEIGHT
370
    -1
  9
$ENDCAPS
280
     0
  9
$JOINSTYLE
280
     0
  9
$LWDISPLAY
290
     0
  9
$INSUNITS
 70
     4
  9
$HYPERLINKBASE
  1

  9
$STYLESHEET
  1

  9
$XEDIT
290
     1
  9
$CEPSNTYPE
380
     0
  9
$PSTYLEMODE
290
     1
  9
$FINGERPRINTGUID
  2
{89C16213-9ABB-4781-AD6A-28032C6B0811}
  9
$VERSIONGUID
  2
{FAEB1C32-E019-11D5-929B-00C0DF256EC4}
  9
$EXTNAMES
290
     1
  9
$PSVPSCALE
 40
0.0
  9
$OLESTARTUP
290
     0
  0
ENDSEC
  0
SECTION
  2
CLASSES
  0
CLASS
  1
ACDBDICTIONARYWDFLT
  2
AcDbDictionaryWithDefault
  3
ObjectDBX Classes
 90
        0
280
     0
281
     0
  0
CLASS
  1
VISUALSTYLE
  2
AcDbVisualStyle
  3
ObjectDBX Classes
 90
     4095
280
     0
281
     0
  0
CLASS
  1
SCALE
  2
AcDbScale
  3
ObjectDBX Classes
 90
     1153
280
     0
281
     0
  0
CLASS
  1
DICTIONARYVAR
  2
AcDbDictionaryVar
  3
ObjectDBX Classes
 90
        0
280
     0
281
     0
  0
CLASS
  1
ACDBPLACEHOLDER
  2
AcDbPlaceHolder
  3
ObjectDBX Classes
 90
        0
280
     0
281
     0
  0
CLASS
  1
LAYOUT
  2
AcDbLayout
  3
ObjectDBX Classes
 90
        0
280
     0
281
     0
  0
ENDSEC
  0
SECTION
  2
TABLES
  0
TABLE
  2
VPORT
  5
8
330
0
100
AcDbSymbolTable
 70
     1
  0
VPORT
  5
29
330
8
100
AcDbSymbolTableRecord
100
AcDbViewportTableRecord
  2
*Active
 70
     0
 10
0.0
 20
0.0
 11
1.0
 21
1.0
 12
344.1869158879
 22
148.5
 13
0.0
 23
0.0
 14
10.0
 24
10.0
 15
10.0
 25
10.0
 16
0.0
 26
0.0
 36
1.0
 17
0.0
 27
0.0
 37
0.0
 40
297.0
 41
1.9729729729
 42
50.0
 43
0.0
 44
0.0
 50
0.0
 51
0.0
 71
     0
 72
   100
 73
     1
 74
     3
 75
     0
 76
     0
 77
     0
 78
     0
281
     0
 65
     1
110
0.0
120
0.0
130
0.0
111
1.0
121
0.0
131
0.0
112
0.0
122
1.0
132
0.0
 79
     0
146
0.0
  0
ENDTAB
  0
TABLE
  2
LTYPE
  5
5
330
0
100
AcDbSymbolTable
 70
     2
  0
LTYPE
  5
14
330
5
100
AcDbSymbolTableRecord
100
AcDbLinetypeTableRecord
  2
ByBlock
 70
     0
  3

 72
    65
 73
     0
 40
0.0
  0
LTYPE
  5
15
330
5
100
AcDbSymbolTableRecord
100
AcDbLinetypeTableRecord
  2
ByLayer
 70
     0
  3

 72
    65
 73
     0
 40
0.0
  0
LTYPE
  5
16
330
5
100
AcDbSymbolTableRecord
100
AcDbLinetypeTableRecord
  2
Continuous
 70
     0
  3
Solid line
 72
    65
 73
     0
 40
0.0
  0
LTYPE
  5
B9
330
5
100
AcDbSymbolTableRecord
100
AcDbLinetypeTableRecord
  2
CENTER2
 70
     0
  3
Center (.5x) ___ _ ___ _ ___ _ ___ _ ___ _ ___
 72
    65
 73
     4
 40
28.575
 49
19.05
 74
     4
 75
     0
340
0
 46
0.0
 50
0.0
 44
0.0
 45
0.0
 49
-3.175
 74
     4
 75
     0
340
0
 46
0.0
 50
0.0
 44
0.0
 45
0.0
 49
3.175
 74
     4
 75
     0
340
0
 46
0.0
 50
0.0
 44
0.0
 45
0.0
 49
-3.175
 74
     4
 75
     0
340
0
 46
0.0
 50
0.0
 44
0.0
 45
0.0
  0
ENDTAB
  0
TABLE
  2
LAYER
  5
2
330
0
100
AcDbSymbolTable
 70
    15
  0
LAYER
  5
10
330
2
100
AcDbSymbolTableRecord
100
AcDbLayerTableRecord
  2
0
 70
     0
 62
     7
  6
Continuous
370
    -3
390
F
  0
LAYER
  5
5D
330
2
100
AcDbSymbolTableRecord
100
AcDbLayerTableRecord
  2
Default
 70
     0
 62
     7
  6
Continuous
370
    -3
390
F
  0
LAYER
  5
60
330
2
100
AcDbSymbolTableRecord
100
AcDbLayerTableRecord
  2
$DDT_AUDIT_GENERATED_(60)
 70
     0
 62
     7
  6
Continuous
370
    -3
390
F
  0
LAYER
  5
7D
330
2
100
AcDbSymbolTableRecord
100
AcDbLayerTableRecord
  2
$DDT_AUDIT_GENERATED_(7D)
 70
     0
 62
     7
  6
Continuous
370
    -3
390
F
  0
LAYER
  5
8C
330
2
100
AcDbSymbolTableRecord
100
AcDbLayerTableRecord
  2
$DDT_AUDIT_GENERATED_(8C)
 70
     0
 62
     7
  6
Continuous
370
    -3
390
F
  0
LAYER
  5
9A
330
2
100
AcDbSymbolTableRecord
100
AcDbLayerTableRecord
  2
$DDT_AUDIT_GENERATED_(9A)
 70
     0
 62
     7
  6
Continuous
370
    -3
390
F
  0
LAYER
  5
A6
330
2
100
AcDbSymbolTableRecord
100
AcDbLayerTableRecord
  2
$DDT_AUDIT_GENERATED_(A6)
 70
     0
 62
     7
  6
Continuous
370
    -3
390
F
  0
LAYER
  5
AA
330
2
100
AcDbSymbolTableRecord
100
AcDbLayerTableRecord
  2
$DDT_AUDIT_GENERATED_(AA)
 70
     0
 62
     7
  6
Continuous
370
    -3
390
F
  0
LAYER
  5
B2
330
2
100
AcDbSymbolTableRecord
100
AcDbLayerTableRecord
  2
$DDT_AUDIT_GENERATED_(B2)
 70
     0
 62
     7
  6
Continuous
370
    -3
390
F
  0
LAYER
  5
B8
330
2
100
AcDbSymbolTableRecord
100
AcDbLayerTableRecord
  2
DV1_Default
 70
     0
 62
     7
  6
Continuous
370
    -3
390
F
  0
LAYER
  5
F8
330
2
100
AcDbSymbolTableRecord
100
AcDbLayerTableRecord
  2
$DDT_AUDIT_GENERATED_(F8)
 70
     0
 62
     7
  6
Continuous
370
    -3
390
F
  0
LAYER
  5
10B
330
2
100
AcDbSymbolTableRecord
100
AcDbLayerTableRecord
  2
$DDT_AUDIT_GENERATED_(10B)
 70
     0
 62
     7
  6
Continuous
370
    -3
390
F
  0
LAYER
  5
11C
330
2
100
AcDbSymbolTableRecord
100
AcDbLayerTableRecord
  2
$DDT_AUDIT_GENERATED_(11C)
 70
     0
 62
     7
  6
Continuous
370
    -3
390
F
  0
LAYER
  5
139
330
2
100
AcDbSymbolTableRecord
100
AcDbLayerTableRecord
  2
DV2_Default
 70
     0
 62
     7
  6
Continuous
370
    -3
390
F
  0
LAYER
  5
1D0
330
2
100
AcDbSymbolTableRecord
100
AcDbLayerTableRecord
  2
DV3_Default
 70
     0
 62
     7
  6
Continuous
370
    -3
390
F
  0
ENDTAB
  0
TABLE
  2
STYLE
  5
3
330
0
100
AcDbSymbolTable
 70
     2
  0
STYLE
  5
11
330
3
100
AcDbSymbolTableRecord
100
AcDbTextStyleTableRecord
  2
Standard
 70
     0
 40
0.0
 41
1.0
 50
0.0
 71
     0
 42
2.5
  3
txt
  4

  0
STYLE
  5
1D7
330
3
100
AcDbSymbolTableRecord
100
AcDbTextStyleTableRecord
  2
SEACAD_seiso_ttf
 70
     0
 40
0.0
 41
1.0
 50
0.0
 71
     0
 42
0.2
  3
seiso.ttf
  4

  0
ENDTAB
  0
TABLE
  2
VIEW
  5
6
330
0
100
AcDbSymbolTable
 70
     0
  0
ENDTAB
  0
TABLE
  2
UCS
  5
7
330
0
100
AcDbSymbolTable
 70
     0
  0
ENDTAB
  0
TABLE
  2
APPID
  5
9
330
0
100
AcDbSymbolTable
 70
     1
  0
APPID
  5
12
330
9
100
AcDbSymbolTableRecord
100
AcDbRegAppTableRecord
  2
ACAD
 70
     0
  0
ENDTAB
  0
TABLE
  2
DIMSTYLE
  5
A
330
0
100
AcDbSymbolTable
 70
     1
100
AcDbDimStyleTable
  0
DIMSTYLE
105
27
330
A
100
AcDbSymbolTableRecord
100
AcDbDimStyleTableRecord
  2
ISO-25
 70
     0
 41
2.5
 42
0.625
 43
3.75
 44
1.25
 73
     0
 74
     0
 77
     1
 78
     8
140
2.5
141
2.5
143
0.0393700787
147
0.625
171
     3
172
     1
271
     2
272
     2
274
     3
278
    44
283
     0
284
     8
340
11
  0
ENDTAB
  0
TABLE
  2
BLOCK_RECORD
  5
1
330
0
100
AcDbSymbolTable
 70
     4
  0
BLOCK_RECORD
  5
1F
330
1
100
AcDbSymbolTableRecord
100
AcDbBlockTableRecord
  2
*Model_Space
340
22
  0
BLOCK_RECORD
  5
1B
330
1
100
AcDbSymbolTableRecord
100
AcDbBlockTableRecord
  2
*Paper_Space
340
1E
  0
BLOCK_RECORD
  5
5E
330
1
100
AcDbSymbolTableRecord
100
AcDbBlockTableRecord
  2
SE
340
0
102
{BLKREFS
331
5F
102
}
  0
BLOCK_RECORD
  5
C8
330
1
100
AcDbSymbolTableRecord
100
AcDbBlockTableRecord
  2
SE1
340
0
102
{BLKREFS
331
C9
102
}
  0
BLOCK_RECORD
  5
13E
330
1
100
AcDbSymbolTableRecord
100
AcDbBlockTableRecord
  2
SE2
340
0
102
{BLKREFS
331
13F
102
}
  0
ENDTAB
  0
ENDSEC
  0
SECTION
  2
BLOCKS
  0
BLOCK
  5
20
330
1F
100
AcDbEntity
  8
0
100
AcDbBlockBegin
  2
*Model_Space
 70
     0
 10
0.0
 20
0.0
 30
0.0
  3
*Model_Space
  1

  0
ENDBLK
  5
21
330
1F
100
AcDbEntity
  8
0
100
AcDbBlockEnd
  0
BLOCK
  5
1C
330
1B
100
AcDbEntity
 67
     1
  8
0
100
AcDbBlockBegin
  2
*Paper_Space
 70
     0
 10
0.0
 20
0.0
 30
0.0
  3
*Paper_Space
  1

  0
ENDBLK
  5
1D
330
1B
100
AcDbEntity
 67
     1
  8
0
100
AcDbBlockEnd
  0
BLOCK
  5
C6
330
5E
100
AcDbEntity
  8
0
100
AcDbBlockBegin
  2
SE
 70
     0
 10
0.0
 20
0.0
 30
0.0
  3
SE
  1

  0
LINE
  5
61
330
5E
100
AcDbEntity
  8
$DDT_AUDIT_GENERATED_(60)
  6
Continuous
 62
     7
100
AcDbLine
 10
41.0373434096
 20
372.041392972
 30
0.0
 11
41.0373434096
 21
395.041392972
 31
0.0
  0
LINE
  5
62
330
5E
100
AcDbEntity
  8
$DDT_AUDIT_GENERATED_(60)
  6
Continuous
 62
     7
100
AcDbLine
 10
91.0373434096
 20
395.041392972
 30
0.0
 11
91.0373434096
 21
371.6093272075
 31
0.0
  0
LINE
  5
63
330
5E
100
AcDbEntity
  8
$DDT_AUDIT_GENERATED_(60)
  6
Continuous
 62
     7
100
AcDbLine
 10
41.0373434096
 20
418.041392972
 30
0.0
 11
41.0373434096
 21
395.041392972
 31
0.0
  0
LINE
  5
64
330
5E
100
AcDbEntity
  8
$DDT_AUDIT_GENERATED_(60)
  6
Continuous
 62
     7
100
AcDbLine
 10
91.0373434096
 20
395.041392972
 30
0.0
 11
91.0373434096
 21
418.041392972
 31
0.0
  0
LINE
  5
65
330
5E
100
AcDbEntity
  8
$DDT_AUDIT_GENERATED_(60)
  6
Continuous
 62
     7
100
AcDbLine
 10
191.0373434096
 20
395.041392972
 30
0.0
 11
191.0373434096
 21
371.6093272075
 31
0.0
  0
LINE
  5
66
330
5E
100
AcDbEntity
  8
$DDT_AUDIT_GENERATED_(60)
  6
Continuous
 62
     7
100
AcDbLine
 10
191.0373434096
 20
395.041392972
 30
0.0
 11
191.0373434096
 21
418.041392972
 31
0.0
  0
LINE
  5
67
330
5E
100
AcDbEntity
  8
$DDT_AUDIT_GENERATED_(60)
  6
Continuous
 62
     7
100
AcDbLine
 10
241.0373434096
 20
372.041392972
 30
0.0
 11
241.0373434096
 21
395.041392972
 31
0.0
  0
LINE
  5
68
330
5E
100
AcDbEntity
  8
$DDT_AUDIT_GENERATED_(60)
  6
Continuous
 62
     7
100
AcDbLine
 10
241.0373434096
 20
418.041392972
 30
0.0
 11
241.0373434096
 21
395.041392972
 31
0.0
  0
LINE
  5
69
330
5E
100
AcDbEntity
  8
$DDT_AUDIT_GENERATED_(60)
  6
Continuous
 62
     7
100
AcDbLine
 10
247.0373434096
 20
372.541435214
 30
0.0
 11
247.0373434096
 21
417.541392972
 31
0.0
  0
SPLINE
  5
6A
330
5E
100
AcDbEntity
  8
$DDT_AUDIT_GENERATED_(60)
  6
Continuous
 62
     7
100
AcDbSpline
210
0.0
220
0.0
230
1.0
 70
     8
 71
     3
 72
    16
 73
    12
 74
     0
 42
0.0000000002894201
 43
0.0000000001
 40
0.0
 40
0.0
 40
0.0
 40
0.0
 40
0.0625
 40
0.0625
 40
0.125
 40
0.125
 40
0.1875000000000001
 40
0.1875000000000001
 40
0.2500000000000001
 40
0.2500000000000001
 40
0.2876371273223963
 40
0.2876371273223963
 40
0.2876371273223963
 40
0.2876371273223963
 10
216.0373434095772
 20
374.0572939565148
 30
0.0
 10
217.268936490141
 20
374.0564565798685
 30
0.0
 10
218.4754887352805
 20
373.9453367776823
 30
0.0
 10
220.7012708848563
 20
373.5753859360577
 30
0.0
 10
221.7145147028733
 20
373.319539171066
 30
0.0
 10
223.3982651339766
 20
372.8032579226297
 30
0.0
 10
224.0841310161619
 20
372.5397448624919
 30
0.0
 10
225.0180617345435
 20
372.1241066463405
 30
0.0
 10
225.2749359007984
 20
371.969704929556
 30
0.0
 10
225.2940952694907
 20
371.8439104595873
 30
0.0
 10
225.2137160838049
 20
371.8233852774093
 30
0.0
 10
225.0479722320248
 20
371.8215408260962
 30
0.0
  0
SPLINE
  5
6B
330
5E
100
AcDbEntity
  8
$DDT_AUDIT_GENERATED_(60)
  6
Continuous
 62
     7
100
AcDbSpline
210
0.0
220
0.0
230
1.0
 70
     8
 71
     3
 72
    16
 73
    12
 74
     0
 42
0.0000000002872912
 43
0.0000000001
 40
0.7121534917874092
 40
0.7121534917874092
 40
0.7121534917874092
 40
0.7121534917874092
 40
0.7499999999999999
 40
0.7499999999999999
 40
0.8125
 40
0.8125
 40
0.875
 40
0.875
 40
0.9375
 40
0.9375
 40
1.0
 40
1.0
 40
1.0
 40
1.0
 10
207.0284994719698
 20
371.6976094141735
 30
0.0
 10
206.8611527113312
 20
371.7229101068623
 30
0.0
 10
206.7805772640044
 20
371.7675202992289
 30
0.0
 10
206.7996927300057
 20
371.9463465573129
 30
0.0
 10
207.0551135104742
 20
372.1202753513713
 30
0.0
 10
207.9892978905258
 20
372.5546580454716
 30
0.0
 10
208.6749036662431
 20
372.8177633192428
 30
0.0
 10
210.3576950289846
 20
373.330213875104
 30
0.0
 10
211.3730842301273
 20
373.5831199824403
 30
0.0
 10
213.5885304204787
 20
373.9472449478287
 30
0.0
 10
214.8057503290133
 20
374.0581313331611
 30
0.0
 10
216.0373434095772
 20
374.0572939565148
 30
0.0
  0
LINE
  5
6C
330
5E
100
AcDbEntity
  8
$DDT_AUDIT_GENERATED_(60)
  6
Continuous
 62
     7
100
AcDbLine
 10
33.5373434096
 20
417.7406909081
 30
0.0
 11
33.5373434096
 21
372.3427986288
 31
0.0
  0
LINE
  5
6D
330
5E
100
AcDbEntity
  8
$DDT_AUDIT_GENERATED_(60)
  6
Continuous
 62
     7
100
AcDbLine
 10
33.8373434096
 20
372.0415147891
 30
0.0
 11
33.8373434096
 21
372.0418138393
 31
0.0
  0
LINE
  5
6E
330
5E
100
AcDbEntity
  8
$DDT_AUDIT_GENERATED_(60)
  6
Continuous
 62
     7
100
AcDbLine
 10
41.0373434096
 20
418.041392972
 30
0.0
 11
33.8373434096
 21
418.041392972
 31
0.0
  0
LINE
  5
6F
330
5E
100
AcDbEntity
  8
$DDT_AUDIT_GENERATED_(60)
  6
Continuous
 62
     7
100
AcDbLine
 10
33.8373434096
 20
372.041392972
 30
0.0
 11
41.0373434096
 21
372.041392972
 31
0.0
  0
ARC
  5
70
330
5E
100
AcDbEntity
  8
$DDT_AUDIT_GENERATED_(60)
  6
Continuous
 62
     7
100
AcDbCircle
 10
89.3240989735
 20
3066.6730426944
 30
0.0
 40
2695.06425328523
100
AcDbArc
 50
268.9733916966
 51
270.0364227613
  0
LINE
  5
71
330
5E
100
AcDbEntity
  8
$DDT_AUDIT_GENERATED_(60)
  6
Continuous
 62
     7
100
AcDbLine
 10
91.0373434096
 20
418.041392972
 30
0.0
 11
41.0373434096
 21
418.041392972
 31
0.0
  0
LINE
  5
72
330
5E
100
AcDbEntity
  8
$DDT_AUDIT_GENERATED_(60)
  6
Continuous
 62
     7
100
AcDbLine
 10
191.0373434096
 20
418.041392972
 30
0.0
 11
91.0373434096
 21
418.041392972
 31
0.0
  0
LINE
  5
73
330
5E
100
AcDbEntity
  8
$DDT_AUDIT_GENERATED_(60)
  6
Continuous
 62
     7
100
AcDbLine
 10
91.0373434096
 20
371.6093272075
 30
0.0
 11
191.0373434096
 21
371.6093272075
 31
0.0
  0
LINE
  5
74
330
5E
100
AcDbEntity
  8
$DDT_AUDIT_GENERATED_(60)
  6
Continuous
 62
     7
100
AcDbLine
 10
246.5373434096
 20
418.041392972
 30
0.0
 11
241.0373434096
 21
418.041392972
 31
0.0
  0
LINE
  5
75
330
5E
100
AcDbEntity
  8
$DDT_AUDIT_GENERATED_(60)
  6
Continuous
 62
     7
100
AcDbLine
 10
241.0373434096
 20
372.041392972
 30
0.0
 11
246.5373434096
 21
372.041392972
 31
0.0
  0
ARC
  5
76
330
5E
100
AcDbEntity
  8
$DDT_AUDIT_GENERATED_(60)
  6
Continuous
 62
     7
100
AcDbCircle
 10
246.5373433967
 20
372.5414332914
 30
0.0
 40
0.500000019237572
100
AcDbArc
 50
269.6428150391
 51
0.0092965153
  0
ARC
  5
77
330
5E
100
AcDbEntity
  8
$DDT_AUDIT_GENERATED_(60)
  6
Continuous
 62
     7
100
AcDbCircle
 10
246.5373434089
 20
417.5413499821
 30
0.0
 40
0.5000000070281385
100
AcDbArc
 50
359.9900900366
 51
90.0187302889
  0
LINE
  5
78
330
5E
100
AcDbEntity
  8
$DDT_AUDIT_GENERATED_(60)
  6
Continuous
 62
     7
100
AcDbLine
 10
241.0373434096
 20
418.041392972
 30
0.0
 11
191.0373434096
 21
418.041392972
 31
0.0
  0
ARC
  5
79
330
5E
100
AcDbEntity
  8
$DDT_AUDIT_GENERATED_(60)
  6
Continuous
 62
     7
100
AcDbCircle
 10
278.0876016819
 20
-2896.4093337242
 30
0.0
 40
3268.660717409919
100
AcDbArc
 50
90.6494613765
 51
90.929943386
  0
ARC
  5
7A
330
5E
100
AcDbEntity
  8
$DDT_AUDIT_GENERATED_(60)
  6
Continuous
 62
     7
100
AcDbCircle
 10
166.8354095627
 20
8946.9013399027
 30
0.0
 40
8575.326158269949
100
AcDbArc
 50
270.1617046956
 51
270.2686090474
  0
ARC
  5
7B
330
5E
100
AcDbEntity
  8
$DDT_AUDIT_GENERATED_(60)
  6
Continuous
 62
     7
100
AcDbCircle
 10
33.8373434597
 20
417.7412270896
 30
0.0
 40
0.3000000649738539
100
AcDbArc
 50
89.4283136328
 51
180.0636056867
  0
ARC
  5
7C
330
5E
100
AcDbEntity
  8
$DDT_AUDIT_GENERATED_(60)
  6
Continuous
 62
     7
100
AcDbCircle
 10
33.8373435417
 20
372.3416898091
 30
0.0
 40
0.3000001715333018
100
AcDbArc
 50
179.8860804975
 51
270.8292630092
  0
LINE
  5
7E
330
5E
100
AcDbEntity
  8
$DDT_AUDIT_GENERATED_(7D)
  6
Continuous
 62
     7
100
AcDbLine
 10
225.0373434096
 20
366.541392972
 30
0.0
 11
207.0373434096
 21
366.541392972
 31
0.0
  0
LINE
  5
7F
330
5E
100
AcDbEntity
  8
$DDT_AUDIT_GENERATED_(7D)
  6
Continuous
 62
     7
100
AcDbLine
 10
205.5573434096
 20
365.061392972
 30
0.0
 11
226.5173434096
 21
365.061392972
 31
0.0
  0
LINE
  5
80
330
5E
100
AcDbEntity
  8
$DDT_AUDIT_GENERATED_(7D)
  6
Continuous
 62
     7
100
AcDbLine
 10
206.7573434096
 20
357.641392972
 30
0.0
 11
225.3173434096
 21
357.641392972
 31
0.0
  0
LINE
  5
81
330
5E
100
AcDbEntity
  8
$DDT_AUDIT_GENERATED_(7D)
  6
Continuous
 62
     7
100
AcDbLine
 10
205.5573434096
 20
358.841392972
 30
0.0
 11
226.5173434096
 21
358.841392972
 31
0.0
  0
LINE
  5
82
330
5E
100
AcDbEntity
  8
$DDT_AUDIT_GENERATED_(7D)
  6
Continuous
 62
     7
100
AcDbLine
 10
205.5573434096
 20
365.061392972
 30
0.0
 11
205.5573434096
 21
358.841392972
 31
0.0
  0
LINE
  5
83
330
5E
100
AcDbEntity
  8
$DDT_AUDIT_GENERATED_(7D)
  6
Continuous
 62
     7
100
AcDbLine
 10
226.5173434096
 20
358.841392972
 30
0.0
 11
226.5173434096
 21
365.061392972
 31
0.0
  0
LINE
  5
84
330
5E
100
AcDbEntity
  8
$DDT_AUDIT_GENERATED_(7D)
  6
Continuous
 62
     7
100
AcDbLine
 10
207.0373434096
 20
372.0694986978
 30
0.0
 11
207.0373434096
 21
366.541392972
 31
0.0
  0
LINE
  5
85
330
5E
100
AcDbEntity
  8
$DDT_AUDIT_GENERATED_(7D)
  6
Continuous
 62
     7
100
AcDbLine
 10
225.0373434096
 20
366.541392972
 30
0.0
 11
225.0373434096
 21
372.0875168756
 31
0.0
  0
LINE
  5
86
330
5E
100
AcDbEntity
  8
$DDT_AUDIT_GENERATED_(7D)
  6
Continuous
 62
     7
100
AcDbLine
 10
226.5173434096
 20
365.061392972
 30
0.0
 11
225.0373434096
 21
366.541392972
 31
0.0
  0
LINE
  5
87
330
5E
100
AcDbEntity
  8
$DDT_AUDIT_GENERATED_(7D)
  6
Continuous
 62
     7
100
AcDbLine
 10
207.0373434096
 20
366.541392972
 30
0.0
 11
205.5573434096
 21
365.061392972
 31
0.0
  0
LINE
  5
88
330
5E
100
AcDbEntity
  8
$DDT_AUDIT_GENERATED_(7D)
  6
Continuous
 62
     7
100
AcDbLine
 10
205.5573434096
 20
358.841392972
 30
0.0
 11
206.7573434096
 21
357.641392972
 31
0.0
  0
LINE
  5
89
330
5E
100
AcDbEntity
  8
$DDT_AUDIT_GENERATED_(7D)
  6
Continuous
 62
     7
100
AcDbLine
 10
225.3173434096
 20
357.641392972
 30
0.0
 11
226.5173434096
 21
358.841392972
 31
0.0
  0
LINE
  5
8A
330
5E
100
AcDbEntity
  8
$DDT_AUDIT_GENERATED_(7D)
  6
Continuous
 62
     7
100
AcDbLine
 10
225.3523434096
 20
366.226392972
 30
0.0
 11
225.3523434096
 21
357.676392972
 31
0.0
  0
LINE
  5
8B
330
5E
100
AcDbEntity
  8
$DDT_AUDIT_GENERATED_(7D)
  6
Continuous
 62
     7
100
AcDbLine
 10
206.7223434096
 20
366.226392972
 30
0.0
 11
206.7223434096
 21
357.676392972
 31
0.0
  0
LINE
  5
8D
330
5E
100
AcDbEntity
  8
$DDT_AUDIT_GENERATED_(8C)
  6
Continuous
 62
     7
100
AcDbLine
 10
32.4128559229
 20
371.1471312488
 30
0.0
 11
32.4128559229
 21
419.0551301948
 31
0.0
  0
LINE
  5
8E
330
5E
100
AcDbEntity
  8
$DDT_AUDIT_GENERATED_(8C)
  6
Continuous
 62
     7
100
AcDbLine
 10
32.2111105908
 20
370.8223269117
 30
0.0
 11
32.2111105908
 21
370.8222580957
 31
0.0
  0
ARC
  5
8F
330
5E
100
AcDbEntity
  8
$DDT_AUDIT_GENERATED_(8C)
  6
Continuous
 62
     7
100
AcDbCircle
 10
-11269.0393765349
 20
395.0387420271
 30
0.0
 40
11276.91256439914
100
AcDbArc
 50
359.8780409564
 51
0.1219582795
  0
ARC
  5
90
330
5E
100
AcDbEntity
  8
$DDT_AUDIT_GENERATED_(8C)
  6
Continuous
 62
     7
100
AcDbCircle
 10
12.6128346964
 20
348.0713819175
 30
0.0
 40
23.12308217147644
100
AcDbArc
 50
81.9201461202
 51
97.0798532278
  0
LINE
  5
91
330
5E
100
AcDbEntity
  8
$DDT_AUDIT_GENERATED_(8C)
  6
Continuous
 62
     7
100
AcDbLine
 10
25.106847596
 20
370.8842533905
 30
0.0
 11
32.2111105908
 21
370.8222554264
 31
0.0
  0
LINE
  5
92
330
5E
100
AcDbEntity
  8
$DDT_AUDIT_GENERATED_(8C)
  6
Continuous
 62
     7
100
AcDbLine
 10
15.8628011404
 20
370.9649249619
 30
0.0
 11
17.4938298465
 21
370.95069119
 31
0.0
  0
LINE
  5
93
330
5E
100
AcDbEntity
  8
$DDT_AUDIT_GENERATED_(8C)
  6
Continuous
 62
     7
100
AcDbLine
 10
7.8476408181
 20
371.0348722065
 30
0.0
 11
9.8014376392
 21
371.0178216799
 31
0.0
  0
LINE
  5
94
330
5E
100
AcDbEntity
  8
$DDT_AUDIT_GENERATED_(8C)
  6
Continuous
 62
     7
100
AcDbLine
 10
32.2111105908
 20
419.2550782395
 30
0.0
 11
7.8476455927
 21
419.0424615016
 31
0.0
  0
ARC
  5
95
330
5E
100
AcDbEntity
  8
$DDT_AUDIT_GENERATED_(8C)
  6
Continuous
 62
     7
100
AcDbCircle
 10
32.2128559186
 20
419.0550320442
 30
0.0
 40
0.1999993585650211
100
AcDbArc
 50
359.9690211786
 51
90.2208721579
  0
ARC
  5
96
330
5E
100
AcDbEntity
  8
$DDT_AUDIT_GENERATED_(8C)
  6
Continuous
 62
     7
100
AcDbCircle
 10
32.212855918
 20
371.0223208711
 30
0.0
 40
0.1999991103291476
100
AcDbArc
 50
269.8194006596
 51
0.0420665193
  0
ARC
  5
97
330
5E
100
AcDbEntity
  8
$DDT_AUDIT_GENERATED_(8C)
  6
Continuous
 62
     7
100
AcDbCircle
 10
293.6919491886
 20
395.0319789661
 30
0.0
 40
287.2961502456195
100
AcDbArc
 50
175.2943399799
 51
184.7032998658
  0
SPLINE
  5
98
330
5E
100
AcDbEntity
  8
$DDT_AUDIT_GENERATED_(8C)
  6
Continuous
 62
     7
100
AcDbSpline
210
0.0
220
0.0
230
1.0
 70
     8
 71
     3
 72
    13
 73
     9
 74
     0
 42
0.0000000134253334
 43
0.0000000001
 40
0.0
 40
0.0
 40
0.0
 40
0.0
 40
0.2375226095149082
 40
0.3685220099169481
 40
0.4996582434258436
 40
0.6306290879225269
 40
0.7613418366037876
 40
1.0
 40
1.0
 40
1.0
 40
1.0
 10
7.847641022579316
 20
419.0424614588802
 30
0.0
 10
7.78342259876344
 20
419.0402666043559
 30
0.0
 10
7.698654935126642
 20
419.0353473110052
 30
0.0
 10
7.582051065477547
 20
418.9885496901281
 30
0.0
 10
7.501676196246809
 20
418.9336559260741
 30
0.0
 10
7.437705797802341
 20
418.8603957565143
 30
0.0
 10
7.377278842672419
 20
418.7500628136676
 30
0.0
 10
7.36221370188575
 20
418.6663069653351
 30
0.0
 10
7.352298809844838
 20
418.6025097004186
 30
0.0
  0
ARC
  5
99
330
5E
100
AcDbEntity
  8
$DDT_AUDIT_GENERATED_(8C)
  6
Continuous
 62
     7
100
AcDbCircle
 10
7.807002058
 20
371.4878423645
 30
0.0
 40
0.454789473746071
100
AcDbArc
 50
181.7667557572
 51
275.1266204287
  0
LINE
  5
9B
330
5E
100
AcDbEntity
  8
$DDT_AUDIT_GENERATED_(9A)
  6
Continuous
 62
     7
100
AcDbLine
 10
9.8145042852
 20
325.4421333035
 30
0.0
 11
15.8112075606
 21
325.4421333035
 31
0.0
  0
LINE
  5
9C
330
5E
100
AcDbEntity
  8
$DDT_AUDIT_GENERATED_(9A)
  6
Continuous
 62
     7
100
AcDbLine
 10
16.8778808834
 20
314.7754000756
 30
0.0
 11
8.7478309624
 21
314.7754000756
 31
0.0
  0
LINE
  5
9D
330
5E
100
AcDbEntity
  8
$DDT_AUDIT_GENERATED_(9A)
  6
Continuous
 62
     7
100
AcDbLine
 10
9.1128309625
 20
304.0436668476
 30
0.0
 11
16.5128808834
 21
304.0436668476
 31
0.0
  0
SPLINE
  5
9E
330
5E
100
AcDbEntity
  8
$DDT_AUDIT_GENERATED_(9A)
  6
Continuous
 62
     7
100
AcDbSpline
210
0.0
220
0.0
230
1.0
 70
     8
 71
     3
 72
    11
 73
     7
 74
     0
 42
0.0000000009293935
 43
0.0000000001
 40
0.0
 40
0.0
 40
0.0
 40
0.0
 40
0.2499113985313701
 40
0.5011262481107117
 40
0.7513604210682919
 40
1.0
 40
1.0
 40
1.0
 40
1.0
 10
16.87788088340018
 20
314.7754000755708
 30
0.0
 10
16.86581657861811
 20
315.7593066440339
 30
0.0
 10
16.84491761862109
 20
317.4313629769683
 30
0.0
 10
16.34414542699175
 20
320.1172942691632
 30
0.0
 10
15.84380110088579
 20
322.7986564983343
 30
0.0
 10
15.8231454379153
 20
324.4632331210228
 30
0.0
 10
15.81120756060278
 20
325.4421333035083
 30
0.0
  0
SPLINE
  5
9F
330
5E
100
AcDbEntity
  8
$DDT_AUDIT_GENERATED_(9A)
  6
Continuous
 62
     7
100
AcDbSpline
210
0.0
220
0.0
230
1.0
 70
     8
 71
     3
 72
    11
 73
     7
 74
     0
 42
0.0000000009293935
 43
0.0000000001
 40
0.0
 40
0.0
 40
0.0
 40
0.0
 40
0.248639578931708
 40
0.4988737518892882
 40
0.7500886014686301
 40
1.0
 40
1.0
 40
1.0
 40
1.0
 10
9.814504285237863
 20
325.4421333035061
 30
0.0
 10
9.802566407926122
 20
324.4632331210205
 30
0.0
 10
9.781910744956852
 20
322.7986564983319
 30
0.0
 10
9.281566418852998
 20
320.1172942691604
 30
0.0
 10
8.78079422722572
 20
317.4313629769651
 30
0.0
 10
8.759895267230034
 20
315.7593066440308
 30
0.0
 10
8.747830962448717
 20
314.7754000755676
 30
0.0
  0
LINE
  5
A0
330
5E
100
AcDbEntity
  8
$DDT_AUDIT_GENERATED_(9A)
  6
Continuous
 62
     7
100
AcDbLine
 10
15.8112075605
 20
325.3921333035
 30
0.0
 11
15.8112075605
 21
370.9720618932
 31
0.0
  0
LINE
  5
A1
330
5E
100
AcDbEntity
  8
$DDT_AUDIT_GENERATED_(9A)
  6
Continuous
 62
     7
100
AcDbLine
 10
9.8145042852
 20
371.0243659001
 30
0.0
 11
9.8145042852
 21
325.3921333035
 31
0.0
  0
LINE
  5
A2
330
5E
100
AcDbEntity
  8
$DDT_AUDIT_GENERATED_(9A)
  6
Continuous
 62
     7
100
AcDbLine
 10
16.8778808834
 20
304.4086668476
 30
0.0
 11
16.8778808834
 21
314.7754000756
 31
0.0
  0
LINE
  5
A3
330
5E
100
AcDbEntity
  8
$DDT_AUDIT_GENERATED_(9A)
  6
Continuous
 62
     7
100
AcDbLine
 10
8.7478309625
 20
314.7754000756
 30
0.0
 11
8.7478309625
 21
304.4086668476
 31
0.0
  0
ARC
  5
A4
330
5E
100
AcDbEntity
  8
$DDT_AUDIT_GENERATED_(9A)
  6
Continuous
 62
     7
100
AcDbCircle
 10
16.5128808834
 20
304.4086668476
 30
0.0
 40
0.3650000000000042
100
AcDbArc
 50
270.0
 51
0.0
  0
ARC
  5
A5
330
5E
100
AcDbEntity
  8
$DDT_AUDIT_GENERATED_(9A)
  6
Continuous
 62
     7
100
AcDbCircle
 10
9.1128309625
 20
304.4086668476
 30
0.0
 40
0.3650000000000042
100
AcDbArc
 50
180.0000000002
 51
270.0
  0
LINE
  5
A7
330
5E
100
AcDbEntity
  8
$DDT_AUDIT_GENERATED_(A6)
  6
Continuous
 62
     7
100
AcDbLine
 10
25.2068274637
 20
370.6648675935
 30
0.0
 11
17.5325047746
 21
370.8658268056
 31
0.0
  0
LINE
  5
A8
330
5E
100
AcDbEntity
  8
$DDT_AUDIT_GENERATED_(A6)
  6
Continuous
 62
     7
100
AcDbLine
 10
17.3018105214
 20
371.3720391434
 30
0.0
 11
17.5325047746
 21
370.8658268056
 31
0.0
  0
LINE
  5
A9
330
5E
100
AcDbEntity
  8
$DDT_AUDIT_GENERATED_(A6)
  6
Continuous
 62
     7
100
AcDbLine
 10
25.2068274637
 20
370.6648675935
 30
0.0
 11
24.9761332105
 21
371.1710799314
 31
0.0
  0
ARC
  5
AB
330
5E
100
AcDbEntity
  8
$DDT_AUDIT_GENERATED_(AA)
  6
Continuous
 62
     7
100
AcDbCircle
 10
216.0373434096
 20
395.041392972
 30
0.0
 40
35.0
100
AcDbArc
 50
332.4607697394
 51
0.0
  0
ARC
  5
AC
330
5E
100
AcDbEntity
  8
$DDT_AUDIT_GENERATED_(AA)
  6
Continuous
 62
     7
100
AcDbCircle
 10
216.0373434096
 20
395.041392972
 30
0.0
 40
35.0
100
AcDbArc
 50
287.4232850413
 51
318.9176668595
  0
ARC
  5
AD
330
5E
100
AcDbEntity
  8
$DDT_AUDIT_GENERATED_(AA)
  6
Continuous
 62
     7
100
AcDbCircle
 10
216.0373434096
 20
395.041392972
 30
0.0
 40
35.0
100
AcDbArc
 50
222.0275293172
 51
252.5767149587
  0
ARC
  5
AE
330
5E
100
AcDbEntity
  8
$DDT_AUDIT_GENERATED_(AA)
  6
Continuous
 62
     7
100
AcDbCircle
 10
216.0373434096
 20
395.041392972
 30
0.0
 40
35.0
100
AcDbArc
 50
41.0823331405
 51
138.9176668595
  0
ARC
  5
AF
330
5E
100
AcDbEntity
  8
$DDT_AUDIT_GENERATED_(AA)
  6
Continuous
 62
     7
100
AcDbCircle
 10
216.0373434096
 20
395.041392972
 30
0.0
 40
35.0
100
AcDbArc
 50
0.0
 51
27.5555774967
  0
ARC
  5
B0
330
5E
100
AcDbEntity
  8
$DDT_AUDIT_GENERATED_(AA)
  6
Continuous
 62
     7
100
AcDbCircle
 10
66.0373434096
 20
395.041392972
 30
0.0
 40
35.0
100
AcDbArc
 50
221.0823331405
 51
317.9724706828
  0
ARC
  5
B1
330
5E
100
AcDbEntity
  8
$DDT_AUDIT_GENERATED_(AA)
  6
Continuous
 62
     7
100
AcDbCircle
 10
66.0373434096
 20
395.041392972
 30
0.0
 40
35.0
100
AcDbArc
 50
41.0823331405
 51
138.9176668595
  0
LINE
  5
B3
330
5E
100
AcDbEntity
  8
$DDT_AUDIT_GENERATED_(B2)
  6
Continuous
 62
     7
100
AcDbLine
 10
33.5373434096
 20
372.6092731435
 30
0.0
 11
33.5373434096
 21
417.4735128005
 31
0.0
  0
ARC
  5
B4
330
5E
100
AcDbEntity
  8
$DDT_AUDIT_GENERATED_(B2)
  6
Continuous
 62
     7
100
AcDbCircle
 10
45.0373434096
 20
395.041392972
 30
0.0
 40
25.5
100
AcDbArc
 50
240.291824441
 51
242.4546468179
  0
ARC
  5
B5
330
5E
100
AcDbEntity
  8
$DDT_AUDIT_GENERATED_(B2)
  6
Continuous
 62
     7
100
AcDbCircle
 10
45.0373434096
 20
395.041392972
 30
0.0
 40
25.5
100
AcDbArc
 50
117.5453531821
 51
119.7041419797
  0
ARC
  5
B6
330
5E
100
AcDbEntity
  8
$DDT_AUDIT_GENERATED_(B2)
  6
Continuous
 62
     7
100
AcDbCircle
 10
33.3373434096
 20
417.4735128005
 30
0.0
 40
0.2000000000000057
100
AcDbArc
 50
0.0
 51
117.5453531821
  0
ARC
  5
B7
330
5E
100
AcDbEntity
  8
$DDT_AUDIT_GENERATED_(B2)
  6
Continuous
 62
     7
100
AcDbCircle
 10
33.3373434096
 20
372.6092731435
 30
0.0
 40
0.2000000000000014
100
AcDbArc
 50
242.4546468179
 51
0.0
  0
LINE
  5
BA
330
5E
100
AcDbEntity
  8
DV1_Default
  6
CENTER2
 62
     7
100
AcDbLine
 10
86.0373429625
 20
395.041392972
 30
0.0
 11
46.0373438566
 21
395.041392972
 31
0.0
  0
LINE
  5
BB
330
5E
100
AcDbEntity
  8
DV1_Default
  6
CENTER2
 62
     7
100
AcDbLine
 10
66.0373434096
 20
415.0413925249
 30
0.0
 11
66.0373434096
 21
375.041393419
 31
0.0
  0
LINE
  5
BC
330
5E
100
AcDbEntity
  8
DV1_Default
  6
CENTER2
 62
     7
100
AcDbLine
 10
91.0373428508
 20
395.041392972
 30
0.0
 11
104.5373434096
 21
395.041392972
 31
0.0
  0
LINE
  5
BD
330
5E
100
AcDbEntity
  8
DV1_Default
  6
CENTER2
 62
     7
100
AcDbLine
 10
66.0373434096
 20
420.0413924132
 30
0.0
 11
66.0373434096
 21
433.541392972
 31
0.0
  0
LINE
  5
BE
330
5E
100
AcDbEntity
  8
DV1_Default
  6
CENTER2
 62
     7
100
AcDbLine
 10
41.0373439684
 20
395.041392972
 30
0.0
 11
27.5373434096
 21
395.041392972
 31
0.0
  0
LINE
  5
BF
330
5E
100
AcDbEntity
  8
DV1_Default
  6
CENTER2
 62
     7
100
AcDbLine
 10
66.0373434096
 20
370.0413935308
 30
0.0
 11
66.0373434096
 21
356.541392972
 31
0.0
  0
LINE
  5
C0
330
5E
100
AcDbEntity
  8
DV1_Default
  6
CENTER2
 62
     7
100
AcDbLine
 10
236.0373429625
 20
395.041392972
 30
0.0
 11
196.0373438566
 21
395.041392972
 31
0.0
  0
LINE
  5
C1
330
5E
100
AcDbEntity
  8
DV1_Default
  6
CENTER2
 62
     7
100
AcDbLine
 10
216.0373434096
 20
415.0413925249
 30
0.0
 11
216.0373434096
 21
375.041393419
 31
0.0
  0
LINE
  5
C2
330
5E
100
AcDbEntity
  8
DV1_Default
  6
CENTER2
 62
     7
100
AcDbLine
 10
241.0373428508
 20
395.041392972
 30
0.0
 11
254.5373434096
 21
395.041392972
 31
0.0
  0
LINE
  5
C3
330
5E
100
AcDbEntity
  8
DV1_Default
  6
CENTER2
 62
     7
100
AcDbLine
 10
216.0373434096
 20
420.0413924132
 30
0.0
 11
216.0373434096
 21
433.541392972
 31
0.0
  0
LINE
  5
C4
330
5E
100
AcDbEntity
  8
DV1_Default
  6
CENTER2
 62
     7
100
AcDbLine
 10
191.0373439684
 20
395.041392972
 30
0.0
 11
177.5373434096
 21
395.041392972
 31
0.0
  0
LINE
  5
C5
330
5E
100
AcDbEntity
  8
DV1_Default
  6
CENTER2
 62
     7
100
AcDbLine
 10
216.0373434096
 20
370.0413935308
 30
0.0
 11
216.0373434096
 21
356.541392972
 31
0.0
  0
ENDBLK
  5
C7
330
5E
100
AcDbEntity
  8
0
100
AcDbBlockEnd
  0
BLOCK
  5
13C
330
C8
100
AcDbEntity
  8
0
100
AcDbBlockBegin
  2
SE1
 70
     0
 10
0.0
 20
0.0
 30
0.0
  3
SE1
  1

  0
SPLINE
  5
CA
330
C8
100
AcDbEntity
  8
$DDT_AUDIT_GENERATED_(60)
  6
Continuous
 62
     7
100
AcDbSpline
210
0.0
220
0.0
230
1.0
 70
     8
 71
     3
 72
     9
 73
     5
 74
     0
 42
0.0000000001090503
 43
0.0000000001
 40
0.544874022529554
 40
0.544874022529554
 40
0.544874022529554
 40
0.544874022529554
 40
0.75
 40
0.8140555344979331
 40
0.8140555344979331
 40
0.8140555344979331
 40
0.8140555344979331
 10
417.4106954508933
 20
371.6566363627192
 30
0.0
 10
410.5683270718768
 20
371.9490815004412
 30
0.0
 10
400.8630827141943
 20
374.0957205170444
 30
0.0
 10
395.6615818340294
 20
377.9575912997153
 30
0.0
 10
394.6773026774122
 20
378.9774283655353
 30
0.0
  0
SPLINE
  5
CB
330
C8
100
AcDbEntity
  8
$DDT_AUDIT_GENERATED_(60)
  6
Continuous
 62
     7
100
AcDbSpline
210
0.0
220
0.0
230
1.0
 70
     8
 71
     3
 72
    20
 73
    16
 74
     0
 42
0.0000000002529179
 43
0.0000000001
 40
0.0
 40
0.0
 40
0.0
 40
0.0
 40
0.0215720363010683
 40
0.0435384586047925
 40
0.0659211000609989
 40
0.0887405988109642
 40
0.1120164306190444
 40
0.1357669483273218
 40
0.2000091163080887
 40
0.2720012866289166
 40
0.3048469115964612
 40
0.3377196097720653
 40
0.367975002212943
 40
0.3966672762338848
 40
0.4596793314353541
 40
0.4596793314353541
 40
0.4596793314353541
 40
0.4596793314353541
 10
395.478008779849
 20
394.9102941667908
 30
0.0
 10
395.5187406999149
 20
395.3202353432491
 30
0.0
 10
395.6009492124047
 20
396.1476123554392
 30
0.0
 10
395.7767985125768
 20
397.3879621444072
 30
0.0
 10
395.9920928595702
 20
398.6314478937506
 30
0.0
 10
396.2506773509295
 20
399.8692449008608
 30
0.0
 10
396.5516751636474
 20
401.0924546450217
 30
0.0
 10
397.0870598716471
 20
402.964120190803
 30
0.0
 10
398.0090942424445
 20
405.421090044694
 30
0.0
 10
399.1749357908515
 20
407.5144673997393
 30
0.0
 10
400.1721668780114
 20
408.86094675628
 30
0.0
 10
400.8775072646943
 20
409.6393269909085
 30
0.0
 10
401.5139543634587
 20
410.2356392661687
 30
0.0
 10
402.22551424738
 20
410.8360760998024
 30
0.0
 10
402.5613627264302
 20
411.0405362751816
 30
0.0
 10
402.5583067250175
 20
411.0413902179652
 30
0.0
  0
SPLINE
  5
CC
330
C8
100
AcDbEntity
  8
$DDT_AUDIT_GENERATED_(60)
  6
Continuous
 62
     7
100
AcDbSpline
210
0.0
220
0.0
230
1.0
 70
     8
 71
     3
 72
    19
 73
    15
 74
     0
 42
0.0000000003102304
 43
0.0000000001
 40
0.4822775192725254
 40
0.4822775192725254
 40
0.4822775192725254
 40
0.4822775192725254
 40
0.5091893072067631
 40
0.568438559360996
 40
0.6341453954093031
 40
0.7012355265323025
 40
0.7416728114921746
 40
0.7630387190065527
 40
0.8172636128124742
 40
0.8763908405374516
 40
0.9059128947160017
 40
0.9354334804142003
 40
0.9655834755249173
 40
0.9999815492371179
 40
0.9999815492371179
 40
0.9999815492371179
 40
0.9999815492371179
 10
392.1951337633031
 20
379.0416011128963
 30
0.0
 10
392.3008709876109
 20
379.0417251003173
 30
0.0
 10
392.6072283556539
 20
379.0960510657673
 30
0.0
 10
392.9613630428567
 20
379.5084210609529
 30
0.0
 10
393.326825043402
 20
380.6036729230298
 30
0.0
 10
393.8804663093599
 20
382.0791714975397
 30
0.0
 10
394.3244797505641
 20
383.4297443177733
 30
0.0
 10
394.7103506217882
 20
384.7677336111205
 30
0.0
 10
395.0146973862242
 20
386.5072750956831
 30
0.0
 10
395.1595090460556
 20
388.5809791716617
 30
0.0
 10
395.2228905780725
 20
390.3920042519603
 30
0.0
 10
395.2691253406394
 20
391.7972131334777
 30
0.0
 10
395.3419370883747
 20
393.3065552729999
 30
0.0
 10
395.4305982803306
 20
394.3515917715654
 30
0.0
 10
395.4779326108737
 20
394.9093965642445
 30
0.0
  0
LINE
  5
CD
330
C8
100
AcDbEntity
  8
$DDT_AUDIT_GENERATED_(60)
  6
Continuous
 62
     7
100
AcDbLine
 10
376.84028271
 20
410.741392972
 30
0.0
 11
376.84028271
 21
379.341392972
 31
0.0
  0
LINE
  5
CE
330
C8
100
AcDbEntity
  8
$DDT_AUDIT_GENERATED_(60)
  6
Continuous
 62
     7
100
AcDbLine
 10
377.14028271
 20
379.041392972
 30
0.0
 11
392.1892394069
 21
379.041392972
 31
0.0
  0
LINE
  5
CF
330
C8
100
AcDbEntity
  8
$DDT_AUDIT_GENERATED_(60)
  6
Continuous
 62
     7
100
AcDbLine
 10
402.5536798902
 20
411.041392972
 30
0.0
 11
377.14028271
 21
411.041392972
 31
0.0
  0
SPLINE
  5
D0
330
C8
100
AcDbEntity
  8
$DDT_AUDIT_GENERATED_(60)
  6
Continuous
 62
     7
100
AcDbSpline
210
0.0
220
0.0
230
1.0
 70
     8
 71
     3
 72
    11
 73
     7
 74
     0
 42
0.0000000012765016
 43
0.0000000001
 40
0.60931228142904
 40
0.60931228142904
 40
0.60931228142904
 40
0.60931228142904
 40
0.6299356842985135
 40
0.7218092944892314
 40
0.8443837838680173
 40
1.0
 40
1.0
 40
1.0
 40
1.0
 10
405.6138178592373
 20
411.1492425453783
 30
0.0
 10
405.5605908878485
 20
411.1410452191109
 30
0.0
 10
405.2697052473822
 20
411.1005159441963
 30
0.0
 10
404.6595530718056
 20
411.0568923263718
 30
0.0
 10
403.6759272000108
 20
411.0416122075429
 30
0.0
 10
403.0052041928699
 20
411.0401838785608
 30
0.0
 10
402.558322677262
 20
411.0417146195166
 30
0.0
  0
SPLINE
  5
D1
330
C8
100
AcDbEntity
  8
$DDT_AUDIT_GENERATED_(60)
  6
Continuous
 62
     7
100
AcDbSpline
210
0.0
220
0.0
230
1.0
 70
     8
 71
     3
 72
    16
 73
    12
 74
     0
 42
0.0000000006883685
 43
0.0000000001
 40
0.0
 40
0.0
 40
0.0
 40
0.0
 40
0.0501861815108636
 40
0.0862298437433152
 40
0.1104347835523048
 40
0.1263457146737643
 40
0.1386924031945157
 40
0.1569096123043986
 40
0.182595609615286
 40
0.2161963682777458
 40
0.2306850282244056
 40
0.2306850282244056
 40
0.2306850282244056
 40
0.2306850282244056
 10
392.1938787330812
 20
379.0414259402035
 30
0.0
 10
392.6334522649407
 20
379.0433457147195
 30
0.0
 10
393.2644951742054
 20
379.0428721110844
 30
0.0
 10
394.151461088763
 20
379.0268274867223
 30
0.0
 10
394.7252656962971
 20
378.9876679033216
 30
0.0
 10
395.1021267776522
 20
378.9345345103889
 30
0.0
 10
395.2894455935257
 20
378.8971102277648
 30
0.0
 10
395.3971765122553
 20
378.8720043397256
 30
0.0
 10
395.4878842804346
 20
378.8484621179499
 30
0.0
 10
395.5210926954941
 20
378.8405812424978
 30
0.0
 10
395.5283882415706
 20
378.8404471261746
 30
0.0
 10
395.5291210685184
 20
378.8410467942633
 30
0.0
  0
ARC
  5
D2
330
C8
100
AcDbEntity
  8
$DDT_AUDIT_GENERATED_(60)
  6
Continuous
 62
     7
100
AcDbCircle
 10
377.14028271
 20
410.741392972
 30
0.0
 40
0.3000000000000017
100
AcDbArc
 50
90.0
 51
180.0
  0
ARC
  5
D3
330
C8
100
AcDbEntity
  8
$DDT_AUDIT_GENERATED_(60)
  6
Continuous
 62
     7
100
AcDbCircle
 10
377.14028271
 20
379.341392972
 30
0.0
 40
0.3000000000000017
100
AcDbArc
 50
180.0
 51
270.0
  0
LINE
  5
D4
330
C8
100
AcDbEntity
  8
$DDT_AUDIT_GENERATED_(7D)
  6
Continuous
 62
     7
100
AcDbLine
 10
414.64028271
 20
366.541392972
 30
0.0
 11
420.6419310723
 21
366.541392972
 31
0.0
  0
LINE
  5
D5
330
C8
100
AcDbEntity
  8
$DDT_AUDIT_GENERATED_(7D)
  6
Continuous
 62
     7
100
AcDbLine
 10
426.6386343477
 20
366.541392972
 30
0.0
 11
432.64028271
 21
366.541392972
 31
0.0
  0
LINE
  5
D6
330
C8
100
AcDbEntity
  8
$DDT_AUDIT_GENERATED_(7D)
  6
Continuous
 62
     7
100
AcDbLine
 10
434.12028271
 20
365.061392972
 30
0.0
 11
426.6386343477
 21
365.061392972
 31
0.0
  0
LINE
  5
D7
330
C8
100
AcDbEntity
  8
$DDT_AUDIT_GENERATED_(7D)
  6
Continuous
 62
     7
100
AcDbLine
 10
420.6419310723
 20
365.061392972
 30
0.0
 11
413.16028271
 21
365.061392972
 31
0.0
  0
LINE
  5
D8
330
C8
100
AcDbEntity
  8
$DDT_AUDIT_GENERATED_(7D)
  6
Continuous
 62
     7
100
AcDbLine
 10
432.92028271
 20
357.641392972
 30
0.0
 11
426.6386343477
 21
357.641392972
 31
0.0
  0
LINE
  5
D9
330
C8
100
AcDbEntity
  8
$DDT_AUDIT_GENERATED_(7D)
  6
Continuous
 62
     7
100
AcDbLine
 10
420.6419310723
 20
357.641392972
 30
0.0
 11
414.36028271
 21
357.641392972
 31
0.0
  0
LINE
  5
DA
330
C8
100
AcDbEntity
  8
$DDT_AUDIT_GENERATED_(7D)
  6
Continuous
 62
     7
100
AcDbLine
 10
434.12028271
 20
358.841392972
 30
0.0
 11
426.6386343477
 21
358.841392972
 31
0.0
  0
LINE
  5
DB
330
C8
100
AcDbEntity
  8
$DDT_AUDIT_GENERATED_(7D)
  6
Continuous
 62
     7
100
AcDbLine
 10
420.6419310723
 20
358.841392972
 30
0.0
 11
413.16028271
 21
358.841392972
 31
0.0
  0
LINE
  5
DC
330
C8
100
AcDbEntity
  8
$DDT_AUDIT_GENERATED_(7D)
  6
Continuous
 62
     7
100
AcDbLine
 10
413.16028271
 20
365.061392972
 30
0.0
 11
413.16028271
 21
358.841392972
 31
0.0
  0
LINE
  5
DD
330
C8
100
AcDbEntity
  8
$DDT_AUDIT_GENERATED_(7D)
  6
Continuous
 62
     7
100
AcDbLine
 10
434.12028271
 20
358.841392972
 30
0.0
 11
434.12028271
 21
365.061392972
 31
0.0
  0
LINE
  5
DE
330
C8
100
AcDbEntity
  8
$DDT_AUDIT_GENERATED_(7D)
  6
Continuous
 62
     7
100
AcDbLine
 10
414.64028271
 20
371.8647748562
 30
0.0
 11
414.64028271
 21
366.541392972
 31
0.0
  0
LINE
  5
DF
330
C8
100
AcDbEntity
  8
$DDT_AUDIT_GENERATED_(7D)
  6
Continuous
 62
     7
100
AcDbLine
 10
432.64028271
 20
366.541392972
 30
0.0
 11
432.64028271
 21
372.6155330052
 31
0.0
  0
LINE
  5
E0
330
C8
100
AcDbEntity
  8
$DDT_AUDIT_GENERATED_(7D)
  6
Continuous
 62
     7
100
AcDbLine
 10
434.12028271
 20
365.061392972
 30
0.0
 11
432.64028271
 21
366.541392972
 31
0.0
  0
LINE
  5
E1
330
C8
100
AcDbEntity
  8
$DDT_AUDIT_GENERATED_(7D)
  6
Continuous
 62
     7
100
AcDbLine
 10
414.64028271
 20
366.541392972
 30
0.0
 11
413.16028271
 21
365.061392972
 31
0.0
  0
LINE
  5
E2
330
C8
100
AcDbEntity
  8
$DDT_AUDIT_GENERATED_(7D)
  6
Continuous
 62
     7
100
AcDbLine
 10
413.16028271
 20
358.841392972
 30
0.0
 11
414.36028271
 21
357.641392972
 31
0.0
  0
LINE
  5
E3
330
C8
100
AcDbEntity
  8
$DDT_AUDIT_GENERATED_(7D)
  6
Continuous
 62
     7
100
AcDbLine
 10
432.92028271
 20
357.641392972
 30
0.0
 11
434.12028271
 21
358.841392972
 31
0.0
  0
LINE
  5
E4
330
C8
100
AcDbEntity
  8
$DDT_AUDIT_GENERATED_(7D)
  6
Continuous
 62
     7
100
AcDbLine
 10
432.95528271
 20
366.226392972
 30
0.0
 11
432.95528271
 21
357.676392972
 31
0.0
  0
LINE
  5
E5
330
C8
100
AcDbEntity
  8
$DDT_AUDIT_GENERATED_(7D)
  6
Continuous
 62
     7
100
AcDbLine
 10
414.32528271
 20
366.226392972
 30
0.0
 11
414.32528271
 21
357.676392972
 31
0.0
  0
SPLINE
  5
E6
330
C8
100
AcDbEntity
  8
$DDT_AUDIT_GENERATED_(8C)
  6
Continuous
 62
     7
100
AcDbSpline
210
0.0
220
0.0
230
1.0
 70
     8
 71
     3
 72
   119
 73
   115
 74
     0
 42
0.0000000000657016
 43
0.0000000001
 40
0.0068598034112437
 40
0.0068598034112437
 40
0.0068598034112437
 40
0.0068598034112437
 40
0.0154611221906867
 40
0.0154611221906867
 40
0.0467111221906869
 40
0.0467111221906869
 40
0.0623361221906865
 40
0.0623361221906865
 40
0.0779611221906868
 40
0.0779611221906868
 40
0.0935861221906866
 40
0.0935861221906866
 40
0.1013986221906864
 40
0.1013986221906864
 40
0.1092111221906864
 40
0.1092111221906864
 40
0.1404611221906863
 40
0.1404611221906863
 40
0.1560861221906867
 40
0.1560861221906867
 40
0.1638986221906865
 40
0.1638986221906865
 40
0.1717111221906865
 40
0.1717111221906865
 40
0.2029611221906866
 40
0.2029611221906866
 40
0.2107736221906868
 40
0.2107736221906868
 40
0.2185861221906866
 40
0.2185861221906866
 40
0.2342111221906866
 40
0.2342111221906866
 40
0.2654611221906867
 40
0.2654611221906867
 40
0.2732736221906865
 40
0.2732736221906865
 40
0.2810861221906867
 40
0.2810861221906867
 40
0.2967111221906865
 40
0.2967111221906865
 40
0.3123361221906865
 40
0.3123361221906865
 40
0.3279611221906865
 40
0.3279611221906865
 40
0.3592111221906867
 40
0.3592111221906867
 40
0.3748361221906867
 40
0.3748361221906867
 40
0.3904611221906866
 40
0.3904611221906866
 40
0.4217111221906866
 40
0.4217111221906866
 40
0.4373361221906866
 40
0.4373361221906866
 40
0.4529611221906866
 40
0.4529611221906866
 40
0.4842111221906865
 40
0.4842111221906865
 40
0.4842111221906865
 40
0.5154611221906861
 40
0.5154611221906861
 40
0.5310861221906872
 40
0.5310861221906872
 40
0.5467111221906867
 40
0.5467111221906867
 40
0.5623361221906864
 40
0.5623361221906864
 40
0.5779611221906864
 40
0.5779611221906864
 40
0.6092111221906871
 40
0.6092111221906871
 40
0.6248361221906866
 40
0.6248361221906866
 40
0.6404611221906863
 40
0.6404611221906863
 40
0.6717111221906872
 40
0.6717111221906872
 40
0.687336122190687
 40
0.687336122190687
 40
0.7029611221906865
 40
0.7029611221906865
 40
0.7185861221906862
 40
0.7185861221906862
 40
0.7263986221906867
 40
0.7263986221906867
 40
0.7342111221906862
 40
0.7342111221906862
 40
0.7654611221906868
 40
0.7654611221906868
 40
0.7810861221906864
 40
0.7810861221906864
 40
0.788898622190687
 40
0.788898622190687
 40
0.7967111221906875
 40
0.7967111221906875
 40
0.827961122190687
 40
0.827961122190687
 40
0.8435861221906868
 40
0.8435861221906868
 40
0.8592111221906864
 40
0.8592111221906864
 40
0.8904611221906864
 40
0.8904611221906864
 40
0.8982736221906862
 40
0.8982736221906862
 40
0.9060861221906867
 40
0.9060861221906867
 40
0.9217111221906867
 40
0.9217111221906867
 40
0.9373361221906871
 40
0.9373361221906871
 40
0.9529611221906866
 40
0.9529611221906866
 40
0.9611886868282955
 40
0.9611886868282955
 40
0.9611886868282955
 40
0.9611886868282955
 10
427.0955713381892
 20
371.079776263629
 30
0.0
 10
427.5282840294155
 20
371.1441178759247
 30
0.0
 10
427.9578008270371
 20
371.2200764876399
 30
0.0
 10
429.932888340998
 20
371.6238917556499
 30
0.0
 10
431.4406680248675
 20
372.0871251782032
 30
0.0
 10
433.641793431958
 20
373.000110444358
 30
0.0
 10
434.3671442167627
 20
373.3425566093456
 30
0.0
 10
435.7674472245277
 20
374.087928760797
 30
0.0
 10
436.446062578635
 20
374.4921334311192
 30
0.0
 10
437.7603012977456
 20
375.3635981925102
 30
0.0
 10
438.3959272374246
 20
375.830854778825
 30
0.0
 10
439.3159128691069
 20
376.580885699157
 30
0.0
 10
439.6169858116077
 20
376.8391064027358
 30
0.0
 10
440.2075770092734
 20
377.3725310799488
 30
0.0
 10
440.49793906539
 20
377.6486040911992
 30
0.0
 10
441.9076090856646
 20
379.0610616292255
 30
0.0
 10
442.8997290896444
 20
380.2880626666332
 30
0.0
 10
444.2038777659284
 20
382.2605739682156
 30
0.0
 10
444.6075985416114
 20
382.9403151100604
 30
0.0
 10
445.166349969952
 20
383.993596083674
 30
0.0
 10
445.3452147559029
 20
384.351277128429
 30
0.0
 10
445.6845410166091
 20
385.0727474028824
 30
0.0
 10
445.8449495528117
 20
385.436273215107
 30
0.0
 10
446.601606945817
 20
387.2676149037032
 30
0.0
 10
447.0634801250159
 20
388.7760333783144
 30
0.0
 10
447.4574945435298
 20
390.71736815653
 30
0.0
 10
447.5270189073941
 20
391.1084594013606
 30
0.0
 10
447.6469391666715
 20
391.8964726079086
 30
0.0
 10
447.6973194996622
 20
392.2938480812417
 30
0.0
 10
447.8175651609421
 20
393.4813731094515
 30
0.0
 10
447.8573944789193
 20
394.271246658423
 30
0.0
 10
447.8552654637859
 20
396.6354320950873
 30
0.0
 10
447.6932769017062
 20
398.2033194618202
 30
0.0
 10
447.2961842260713
 20
400.1534537539844
 30
0.0
 10
447.2066972269361
 20
400.5436855680376
 30
0.0
 10
447.0099848156532
 20
401.314995731379
 30
0.0
 10
446.9026106243208
 20
401.6969838086945
 30
0.0
 10
446.5540620307548
 20
402.8322176205472
 30
0.0
 10
446.2865468824932
 20
403.5747674285853
 30
0.0
 10
445.6823942109613
 20
405.031886675033
 30
0.0
 10
445.3457577881755
 20
405.7464566167355
 30
0.0
 10
444.601776802694
 20
407.1470633957234
 30
0.0
 10
444.1919544036589
 20
407.836471680701
 30
0.0
 10
442.875681511042
 20
409.8221933946545
 30
0.0
 10
441.8815560666008
 20
411.0443321641576
 30
0.0
 10
440.2076270029623
 20
412.7186190740441
 30
0.0
 10
439.6191031057301
 20
413.2497831985588
 30
0.0
 10
438.3808749797291
 20
414.2582275023022
 30
0.0
 10
437.7382024989687
 20
414.7295123870913
 30
0.0
 10
435.7596218136646
 20
416.0380651172529
 30
0.0
 10
434.3669337426969
 20
416.7769495193265
 30
0.0
 10
432.1685602190435
 20
417.6880404562525
 30
0.0
 10
431.4137042075271
 20
417.9594028088633
 30
0.0
 10
429.8953292924302
 20
418.4240103277112
 30
0.0
 10
429.1295121094306
 20
418.6185908934923
 30
0.0
 10
426.8121407006853
 20
419.0896542311364
 30
0.0
 10
425.2409409463042
 20
419.2550782386123
 30
0.0
 10
423.6402827099816
 20
419.2550782395282
 30
0.0
 10
422.039624473659
 20
419.2550782404442
 30
0.0
 10
420.4586608175629
 20
419.0896830634625
 30
0.0
 10
418.1112666217778
 20
418.6094674548669
 30
0.0
 10
417.3402115264914
 20
418.41164825723
 30
0.0
 10
415.8284780759089
 20
417.9461626804106
 30
0.0
 10
415.0863498967057
 20
417.6781921027939
 30
0.0
 10
413.6291399326329
 20
417.0726761446976
 30
0.0
 10
412.9140568913387
 20
416.735133848441
 30
0.0
 10
411.5115878630582
 20
415.9885719469282
 30
0.0
 10
410.8224622788923
 20
415.5779271933874
 30
0.0
 10
408.841185050525
 20
414.261994761257
 30
0.0
 10
407.6197663934239
 20
413.2672100436995
 30
0.0
 10
405.9445714766296
 20
411.589174544304
 30
0.0
 10
405.4116650103647
 20
410.9974245324184
 30
0.0
 10
404.4038938839024
 20
409.7571205912619
 30
0.0
 10
403.9354140385129
 20
409.1167513309268
 30
0.0
 10
402.6298471252742
 20
407.1385184017436
 30
0.0
 10
401.8913992657767
 20
405.7442406687223
 30
0.0
 10
400.9805713895198
 20
403.5396913698331
 30
0.0
 10
400.7103267736591
 20
402.78490271487
 30
0.0
 10
400.2481340436677
 20
401.2684237867209
 30
0.0
 10
400.0544280877705
 20
400.5028748626852
 30
0.0
 10
399.7419190653191
 20
398.9570563466617
 30
0.0
 10
399.6231106133056
 20
398.176787653159
 30
0.0
 10
399.503370487909
 20
396.9948467638209
 30
0.0
 10
399.4732258745968
 20
396.5989390473749
 30
0.0
 10
399.4331637121731
 20
395.8031276629679
 30
0.0
 10
399.4232877855271
 20
395.4021808493014
 30
0.0
 10
399.4263398503631
 20
393.4090891738117
 30
0.0
 10
399.592863865525
 20
391.8406063472432
 30
0.0
 10
400.0666177462612
 20
389.5230812155417
 30
0.0
 10
400.2622543039238
 20
388.756497747273
 30
0.0
 10
400.6128793105525
 20
387.6155436166953
 30
0.0
 10
400.7396564713
 20
387.2358342984878
 30
0.0
 10
401.0099865715456
 20
386.4866082784137
 30
0.0
 10
401.1536744968899
 20
386.1164925763092
 30
0.0
 10
401.9139774151788
 20
384.2879751365085
 30
0.0
 10
402.654536750784
 20
382.8948867561067
 30
0.0
 10
403.9695459372583
 20
380.9122999512818
 30
0.0
 10
404.4452634688504
 20
380.2660354453417
 30
0.0
 10
405.4510739422079
 20
379.0349429007708
 30
0.0
 10
405.9813556703443
 20
378.4489004955073
 30
0.0
 10
407.6549463996767
 20
376.7799514571801
 30
0.0
 10
408.8791517897631
 20
375.7857573497966
 30
0.0
 10
410.5417035028403
 20
374.6870716823476
 30
0.0
 10
410.8808344295875
 20
374.4747523946511
 30
0.0
 10
411.5649292234661
 20
374.0691987028601
 30
0.0
 10
411.9108112337676
 20
373.8753390066661
 30
0.0
 10
412.9597177028625
 20
373.3199095167697
 30
0.0
 10
413.6739662017462
 20
372.9844051163701
 30
0.0
 10
415.1320433400159
 20
372.3818844820445
 30
0.0
 10
415.8758711222779
 20
372.1148661284471
 30
0.0
 10
417.3939146507602
 20
371.6509792500337
 30
0.0
 10
418.1715914576295
 20
371.4537080636758
 30
0.0
 10
419.3588043461839
 20
371.2137122778205
 30
0.0
 10
419.7691236762962
 20
371.1415945138421
 30
0.0
 10
420.1802658984265
 20
371.0802780595887
 30
0.0
  0
ARC
  5
E7
330
C8
100
AcDbEntity
  8
$DDT_AUDIT_GENERATED_(8C)
  6
Continuous
 62
     7
100
AcDbCircle
 10
423.6392213669
 20
391.760364163
 30
0.0
 40
20.79161011882658
100
AcDbArc
 50
261.5675828949
 51
278.4383199733
  0
LINE
  5
E8
330
C8
100
AcDbEntity
  8
$DDT_AUDIT_GENERATED_(9A)
  6
Continuous
 62
     7
100
AcDbLine
 10
420.6419310723
 20
325.4421333035
 30
0.0
 11
426.6386343477
 21
325.4421333035
 31
0.0
  0
LINE
  5
E9
330
C8
100
AcDbEntity
  8
$DDT_AUDIT_GENERATED_(9A)
  6
Continuous
 62
     7
100
AcDbLine
 10
427.7053076705
 20
314.7754000756
 30
0.0
 11
419.5752577495
 21
314.7754000756
 31
0.0
  0
LINE
  5
EA
330
C8
100
AcDbEntity
  8
$DDT_AUDIT_GENERATED_(9A)
  6
Continuous
 62
     7
100
AcDbLine
 10
419.9402577495
 20
304.0436668476
 30
0.0
 11
427.3403076705
 21
304.0436668476
 31
0.0
  0
SPLINE
  5
EB
330
C8
100
AcDbEntity
  8
$DDT_AUDIT_GENERATED_(9A)
  6
Continuous
 62
     7
100
AcDbSpline
210
0.0
220
0.0
230
1.0
 70
     8
 71
     3
 72
    11
 73
     7
 74
     0
 42
0.0000000009293935
 43
0.0000000001
 40
0.0
 40
0.0
 40
0.0
 40
0.0
 40
0.2499113985313689
 40
0.5011262481107102
 40
0.7513604210682918
 40
1.0
 40
1.0
 40
1.0
 40
1.0
 10
427.7053076704575
 20
314.7754000755693
 30
0.0
 10
427.6932433656758
 20
315.7593066440324
 30
0.0
 10
427.6723444056794
 20
317.4313629769667
 30
0.0
 10
427.1715722140511
 20
320.1172942691618
 30
0.0
 10
426.671227887946
 20
322.7986564983332
 30
0.0
 10
426.6505722249761
 20
324.4632331210217
 30
0.0
 10
426.638634347664
 20
325.4421333035073
 30
0.0
  0
SPLINE
  5
EC
330
C8
100
AcDbEntity
  8
$DDT_AUDIT_GENERATED_(9A)
  6
Continuous
 62
     7
100
AcDbSpline
210
0.0
220
0.0
230
1.0
 70
     8
 71
     3
 72
    11
 73
     7
 74
     0
 42
0.0000000009293935
 43
0.0000000001
 40
0.0
 40
0.0
 40
0.0
 40
0.0
 40
0.2486395789317088
 40
0.4988737518892899
 40
0.7500886014686304
 40
1.0
 40
1.0
 40
1.0
 40
1.0
 10
420.6419310722991
 20
325.4421333035072
 30
0.0
 10
420.6299931949869
 20
324.4632331210216
 30
0.0
 10
420.6093375320172
 20
322.7986564983331
 30
0.0
 10
420.1089932059122
 20
320.1172942691617
 30
0.0
 10
419.608221014284
 20
317.4313629769666
 30
0.0
 10
419.5873220542877
 20
315.7593066440323
 30
0.0
 10
419.575257749506
 20
314.7754000755692
 30
0.0
  0
LINE
  5
ED
330
C8
100
AcDbEntity
  8
$DDT_AUDIT_GENERATED_(9A)
  6
Continuous
 62
     7
100
AcDbLine
 10
426.6386343477
 20
325.3921333035
 30
0.0
 11
426.6386343477
 21
371.1911884329
 31
0.0
  0
LINE
  5
EE
330
C8
100
AcDbEntity
  8
$DDT_AUDIT_GENERATED_(9A)
  6
Continuous
 62
     7
100
AcDbLine
 10
420.6419310723
 20
371.1895639608
 30
0.0
 11
420.6419310723
 21
325.3921333035
 31
0.0
  0
LINE
  5
EF
330
C8
100
AcDbEntity
  8
$DDT_AUDIT_GENERATED_(9A)
  6
Continuous
 62
     7
100
AcDbLine
 10
427.7053076705
 20
304.4086668476
 30
0.0
 11
427.7053076705
 21
314.7754000756
 31
0.0
  0
LINE
  5
F0
330
C8
100
AcDbEntity
  8
$DDT_AUDIT_GENERATED_(9A)
  6
Continuous
 62
     7
100
AcDbLine
 10
419.5752577495
 20
314.7754000756
 30
0.0
 11
419.5752577495
 21
304.4086668476
 31
0.0
  0
ARC
  5
F1
330
C8
100
AcDbEntity
  8
$DDT_AUDIT_GENERATED_(9A)
  6
Continuous
 62
     7
100
AcDbCircle
 10
427.3403076705
 20
304.4086668476
 30
0.0
 40
0.3650000000000042
100
AcDbArc
 50
270.0
 51
359.9999999999
  0
ARC
  5
F2
330
C8
100
AcDbEntity
  8
$DDT_AUDIT_GENERATED_(9A)
  6
Continuous
 62
     7
100
AcDbCircle
 10
419.9402577495
 20
304.4086668476
 30
0.0
 40
0.364999999999999
100
AcDbArc
 50
180.0000000001
 51
270.0
  0
ELLIPSE
  5
F3
330
C8
100
AcDbEntity
  8
$DDT_AUDIT_GENERATED_(A6)
  6
Continuous
 62
     7
100
AcDbEllipse
 10
423.64028271
 20
370.7653471996
 30
0.0
 11
-3.450000000000003
 21
3.469446951953615E-15
 31
0.0
210
0.0
220
0.0
230
1.0
 40
0.0291245235
 41
5.765743454257597
 42
6.283185307179586
  0
ELLIPSE
  5
F4
330
C8
100
AcDbEntity
  8
$DDT_AUDIT_GENERATED_(A6)
  6
Continuous
 62
     7
100
AcDbEllipse
 10
423.64028271
 20
370.7653471996
 30
0.0
 11
-3.450000000000003
 21
3.469446951953615E-15
 31
0.0
210
0.0
220
0.0
230
1.0
 40
0.0291245235
 41
2.624150800667804
 42
3.659034506511782
  0
ELLIPSE
  5
F5
330
C8
100
AcDbEntity
  8
$DDT_AUDIT_GENERATED_(A6)
  6
Continuous
 62
     7
100
AcDbEllipse
 10
423.64028271
 20
370.7653471996
 30
0.0
 11
-3.450000000000003
 21
3.469446951953615E-15
 31
0.0
210
0.0
220
0.0
230
1.0
 40
0.0291245235
 41
0.0
 42
0.5174418529219893
  0
LINE
  5
F6
330
C8
100
AcDbEntity
  8
$DDT_AUDIT_GENERATED_(A6)
  6
Continuous
 62
     7
100
AcDbLine
 10
420.19028271
 20
371.2715595374
 30
0.0
 11
420.19028271
 21
370.7653471996
 31
0.0
  0
LINE
  5
F7
330
C8
100
AcDbEntity
  8
$DDT_AUDIT_GENERATED_(A6)
  6
Continuous
 62
     7
100
AcDbLine
 10
427.09028271
 20
370.7653471996
 30
0.0
 11
427.09028271
 21
371.2715595374
 31
0.0
  0
LINE
  5
F9
330
C8
100
AcDbEntity
  8
$DDT_AUDIT_GENERATED_(F8)
  6
Continuous
 62
     7
100
AcDbLine
 10
358.7147639658
 20
408.261392972
 30
0.0
 11
357.84028271
 21
406.041392972
 31
0.0
  0
LINE
  5
FA
330
C8
100
AcDbEntity
  8
$DDT_AUDIT_GENERATED_(F8)
  6
Continuous
 62
     7
100
AcDbLine
 10
357.84028271
 20
384.041392972
 30
0.0
 11
358.7147639658
 21
381.821392972
 31
0.0
  0
LINE
  5
FB
330
C8
100
AcDbEntity
  8
$DDT_AUDIT_GENERATED_(F8)
  6
Continuous
 62
     7
100
AcDbLine
 10
358.84028271
 20
408.261392972
 30
0.0
 11
358.7147639658
 21
408.261392972
 31
0.0
  0
LINE
  5
FC
330
C8
100
AcDbEntity
  8
$DDT_AUDIT_GENERATED_(F8)
  6
Continuous
 62
     7
100
AcDbLine
 10
358.7147639658
 20
381.821392972
 30
0.0
 11
358.84028271
 21
381.821392972
 31
0.0
  0
LINE
  5
FD
330
C8
100
AcDbEntity
  8
$DDT_AUDIT_GENERATED_(F8)
  6
Continuous
 62
     7
100
AcDbLine
 10
358.2538887094
 20
407.091392972
 30
0.0
 11
358.84028271
 21
407.091392972
 31
0.0
  0
LINE
  5
FE
330
C8
100
AcDbEntity
  8
$DDT_AUDIT_GENERATED_(F8)
  6
Continuous
 62
     7
100
AcDbLine
 10
358.2538887094
 20
382.991392972
 30
0.0
 11
358.84028271
 21
382.991392972
 31
0.0
  0
LINE
  5
FF
330
C8
100
AcDbEntity
  8
$DDT_AUDIT_GENERATED_(AA)
  6
Continuous
 62
     7
100
AcDbLine
 10
332.5306394634
 20
430.041392972
 30
0.0
 11
332.5306394634
 21
360.041392972
 31
0.0
  0
LINE
  5
100
330
C8
100
AcDbEntity
  8
$DDT_AUDIT_GENERATED_(AA)
  6
Continuous
 62
     7
100
AcDbLine
 10
355.3135845273
 20
430.041392972
 30
0.0
 11
355.3135845273
 21
360.041392972
 31
0.0
  0
LINE
  5
101
330
C8
100
AcDbEntity
  8
$DDT_AUDIT_GENERATED_(AA)
  6
Continuous
 62
     7
100
AcDbLine
 10
332.5306394634
 20
360.041392972
 30
0.0
 11
355.3135845273
 21
360.041392972
 31
0.0
  0
LINE
  5
102
330
C8
100
AcDbEntity
  8
$DDT_AUDIT_GENERATED_(AA)
  6
Continuous
 62
     7
100
AcDbLine
 10
355.3135845273
 20
430.041392972
 30
0.0
 11
332.5306394634
 21
430.041392972
 31
0.0
  0
ARC
  5
103
330
C8
100
AcDbEntity
  8
$DDT_AUDIT_GENERATED_(AA)
  6
Continuous
 62
     7
100
AcDbCircle
 10
-91.4693605366
 20
395.041392972
 30
0.0
 40
450.0000000000002
100
AcDbArc
 50
355.7757259843
 51
358.3334021066
  0
ARC
  5
104
330
C8
100
AcDbEntity
  8
$DDT_AUDIT_GENERATED_(AA)
  6
Continuous
 62
     7
100
AcDbCircle
 10
-91.4693605366
 20
395.041392972
 30
0.0
 40
450.0
100
AcDbArc
 50
1.6665978934
 51
4.2242740157
  0
ARC
  5
105
330
C8
100
AcDbEntity
  8
$DDT_AUDIT_GENERATED_(AA)
  6
Continuous
 62
     7
100
AcDbCircle
 10
355.3135845273
 20
362.041392972
 30
0.0
 40
2.000000000000002
100
AcDbArc
 50
270.0
 51
355.7757259844
  0
ARC
  5
106
330
C8
100
AcDbEntity
  8
$DDT_AUDIT_GENERATED_(AA)
  6
Continuous
 62
     7
100
AcDbCircle
 10
355.3135845273
 20
428.041392972
 30
0.0
 40
2.000000000000142
100
AcDbArc
 50
4.2242740156
 51
90.0
  0
ARC
  5
107
330
C8
100
AcDbEntity
  8
$DDT_AUDIT_GENERATED_(AA)
  6
Continuous
 62
     7
100
AcDbCircle
 10
357.340705725
 20
381.982892972
 30
0.0
 40
1.000000000000043
100
AcDbArc
 50
358.3334021067
 51
0.0
  0
ARC
  5
108
330
C8
100
AcDbEntity
  8
$DDT_AUDIT_GENERATED_(AA)
  6
Continuous
 62
     7
100
AcDbCircle
 10
357.340705725
 20
408.099892972
 30
0.0
 40
1.000000000000001
100
AcDbArc
 50
0.0
 51
1.6665978933
  0
LINE
  5
109
330
C8
100
AcDbEntity
  8
$DDT_AUDIT_GENERATED_(AA)
  6
Continuous
 62
     7
100
AcDbLine
 10
358.340705725
 20
381.982892972
 30
0.0
 11
358.340705725
 21
382.770995138
 31
0.0
  0
LINE
  5
10A
330
C8
100
AcDbEntity
  8
$DDT_AUDIT_GENERATED_(AA)
  6
Continuous
 62
     7
100
AcDbLine
 10
358.340705725
 20
407.311790806
 30
0.0
 11
358.340705725
 21
408.099892972
 31
0.0
  0
LINE
  5
10C
330
C8
100
AcDbEntity
  8
$DDT_AUDIT_GENERATED_(10B)
  6
Continuous
 62
     7
100
AcDbLine
 10
362.34028271
 20
411.1567740287
 30
0.0
 11
362.34028271
 21
411.291392972
 31
0.0
  0
LINE
  5
10D
330
C8
100
AcDbEntity
  8
$DDT_AUDIT_GENERATED_(10B)
  6
Continuous
 62
     7
100
AcDbLine
 10
362.34028271
 20
378.791392972
 30
0.0
 11
362.34028271
 21
378.9260119152
 31
0.0
  0
SPLINE
  5
10E
330
C8
100
AcDbEntity
  8
$DDT_AUDIT_GENERATED_(10B)
  6
Continuous
 62
     7
100
AcDbSpline
210
0.0
220
0.0
230
1.0
 70
     8
 71
     3
 72
     8
 73
     4
 74
     0
 42
0.0000000009323543
 43
0.0000000001
 40
0.7940680054933106
 40
0.7940680054933106
 40
0.7940680054933106
 40
0.7940680054933106
 40
1.0
 40
1.0
 40
1.0
 40
1.0
 10
360.4706187371804
 20
380.0372157699043
 30
0.0
 10
360.9179047849385
 20
379.6012932056667
 30
0.0
 10
361.5357233752874
 20
379.2117921771082
 30
0.0
 10
362.3402827099812
 20
378.9260119152104
 30
0.0
  0
SPLINE
  5
10F
330
C8
100
AcDbEntity
  8
$DDT_AUDIT_GENERATED_(10B)
  6
Continuous
 62
     7
100
AcDbSpline
210
0.0
220
0.0
230
1.0
 70
     8
 71
     3
 72
     8
 73
     4
 74
     0
 42
0.0000000009352422
 43
0.0000000001
 40
0.0
 40
0.0
 40
0.0
 40
0.0
 40
0.2064216288159717
 40
0.2064216288159717
 40
0.2064216288159717
 40
0.2064216288159717
 10
362.3402827099813
 20
411.1567740287435
 30
0.0
 10
361.532921011873
 20
410.8699983646215
 30
0.0
 10
360.9170979732114
 20
410.4805434602134
 30
0.0
 10
360.4717432389178
 20
410.0467179658081
 30
0.0
  0
LINE
  5
110
330
C8
100
AcDbEntity
  8
$DDT_AUDIT_GENERATED_(10B)
  6
Continuous
 62
     7
100
AcDbLine
 10
372.34028271
 20
411.1567740287
 30
0.0
 11
372.34028271
 21
411.291392972
 31
0.0
  0
LINE
  5
111
330
C8
100
AcDbEntity
  8
$DDT_AUDIT_GENERATED_(10B)
  6
Continuous
 62
     7
100
AcDbLine
 10
372.34028271
 20
378.9260119152
 30
0.0
 11
372.34028271
 21
378.791392972
 31
0.0
  0
LINE
  5
112
330
C8
100
AcDbEntity
  8
$DDT_AUDIT_GENERATED_(10B)
  6
Continuous
 62
     7
100
AcDbLine
 10
362.34028271
 20
411.1567740287
 30
0.0
 11
372.34028271
 21
411.1567740287
 31
0.0
  0
SPLINE
  5
113
330
C8
100
AcDbEntity
  8
$DDT_AUDIT_GENERATED_(10B)
  6
Continuous
 62
     7
100
AcDbSpline
210
0.0
220
0.0
230
1.0
 70
     8
 71
     3
 72
     8
 73
     4
 74
     0
 42
0.0000000009352422
 43
0.0000000001
 40
0.0
 40
0.0
 40
0.0
 40
0.0
 40
0.2064216288159718
 40
0.2064216288159718
 40
0.2064216288159718
 40
0.2064216288159718
 10
372.3402827099812
 20
411.1567740287435
 30
0.0
 10
373.1476444080894
 20
410.8699983646215
 30
0.0
 10
373.7634674467512
 20
410.4805434602134
 30
0.0
 10
374.2088221810447
 20
410.0467179658081
 30
0.0
  0
SPLINE
  5
114
330
C8
100
AcDbEntity
  8
$DDT_AUDIT_GENERATED_(10B)
  6
Continuous
 62
     7
100
AcDbSpline
210
0.0
220
0.0
230
1.0
 70
     8
 71
     3
 72
     8
 73
     4
 74
     0
 42
0.0000000009323543
 43
0.0000000001
 40
0.7940680054933104
 40
0.7940680054933104
 40
0.7940680054933104
 40
0.7940680054933104
 40
1.0
 40
1.0
 40
1.0
 40
1.0
 10
374.2099466827822
 20
380.0372157699043
 30
0.0
 10
373.7626606350241
 20
379.6012932056667
 30
0.0
 10
373.1448420446751
 20
379.2117921771082
 30
0.0
 10
372.3402827099812
 20
378.9260119152104
 30
0.0
  0
LINE
  5
115
330
C8
100
AcDbEntity
  8
$DDT_AUDIT_GENERATED_(10B)
  6
Continuous
 62
     7
100
AcDbLine
 10
372.34028271
 20
378.9260119152
 30
0.0
 11
362.34028271
 21
378.9260119152
 31
0.0
  0
LINE
  5
116
330
C8
100
AcDbEntity
  8
$DDT_AUDIT_GENERATED_(10B)
  6
Continuous
 62
     7
100
AcDbLine
 10
362.34028271
 20
378.791392972
 30
0.0
 11
372.34028271
 21
378.791392972
 31
0.0
  0
ARC
  5
117
330
C8
100
AcDbEntity
  8
$DDT_AUDIT_GENERATED_(10B)
  6
Continuous
 62
     7
100
AcDbCircle
 10
369.7045815118
 20
401.6449905756
 30
0.0
 40
10.0
100
AcDbArc
 50
57.1581543944
 51
74.7179936136
  0
ARC
  5
118
330
C8
100
AcDbEntity
  8
$DDT_AUDIT_GENERATED_(10B)
  6
Continuous
 62
     7
100
AcDbCircle
 10
369.7045815118
 20
388.4377953684
 30
0.0
 40
9.999999999999995
100
AcDbArc
 50
285.2820063864
 51
302.9001740502
  0
ARC
  5
119
330
C8
100
AcDbEntity
  8
$DDT_AUDIT_GENERATED_(10B)
  6
Continuous
 62
     7
100
AcDbCircle
 10
364.9759839082
 20
401.6449905756
 30
0.0
 40
9.999999999999996
100
AcDbArc
 50
105.2820063864
 51
122.9701703263
  0
ARC
  5
11A
330
C8
100
AcDbEntity
  8
$DDT_AUDIT_GENERATED_(10B)
  6
Continuous
 62
     7
100
AcDbCircle
 10
364.9759839082
 20
388.4377953684
 30
0.0
 40
10.0
100
AcDbArc
 50
237.1581543944
 51
254.7179936136
  0
LINE
  5
11B
330
C8
100
AcDbEntity
  8
$DDT_AUDIT_GENERATED_(10B)
  6
Continuous
 62
     7
100
AcDbLine
 10
372.34028271
 20
411.291392972
 30
0.0
 11
362.34028271
 21
411.291392972
 31
0.0
  0
LINE
  5
11D
330
C8
100
AcDbEntity
  8
$DDT_AUDIT_GENERATED_(11C)
  6
Continuous
 62
     7
100
AcDbLine
 10
376.84028271
 20
405.541392972
 30
0.0
 11
375.84028271
 21
405.541392972
 31
0.0
  0
LINE
  5
11E
330
C8
100
AcDbEntity
  8
$DDT_AUDIT_GENERATED_(11C)
  6
Continuous
 62
     7
100
AcDbLine
 10
375.84028271
 20
384.541392972
 30
0.0
 11
376.84028271
 21
384.541392972
 31
0.0
  0
LINE
  5
11F
330
C8
100
AcDbEntity
  8
$DDT_AUDIT_GENERATED_(10B)
  6
Continuous
 62
     7
100
AcDbLine
 10
375.84028271
 20
380.541392972
 30
0.0
 11
375.84028271
 21
409.541392972
 31
0.0
  0
LINE
  5
120
330
C8
100
AcDbEntity
  8
$DDT_AUDIT_GENERATED_(10B)
  6
Continuous
 62
     7
100
AcDbLine
 10
358.84028271
 20
380.541392972
 30
0.0
 11
358.84028271
 21
409.541392972
 31
0.0
  0
LINE
  5
121
330
C8
100
AcDbEntity
  8
$DDT_AUDIT_GENERATED_(10B)
  6
Continuous
 62
     7
100
AcDbLine
 10
362.34028271
 20
410.041392972
 30
0.0
 11
362.34028271
 21
407.9540517456
 31
0.0
  0
LINE
  5
122
330
C8
100
AcDbEntity
  8
$DDT_AUDIT_GENERATED_(10B)
  6
Continuous
 62
     7
100
AcDbLine
 10
362.34028271
 20
397.1287341983
 30
0.0
 11
362.34028271
 21
392.9540517456
 31
0.0
  0
LINE
  5
123
330
C8
100
AcDbEntity
  8
$DDT_AUDIT_GENERATED_(10B)
  6
Continuous
 62
     7
100
AcDbLine
 10
362.34028271
 20
382.1287341983
 30
0.0
 11
362.34028271
 21
380.041392972
 31
0.0
  0
LINE
  5
124
330
C8
100
AcDbEntity
  8
$DDT_AUDIT_GENERATED_(10B)
  6
Continuous
 62
     7
100
AcDbLine
 10
359.5445539809
 20
380.041392972
 30
0.0
 11
362.34028271
 21
380.041392972
 31
0.0
  0
ARC
  5
125
330
C8
100
AcDbEntity
  8
$DDT_AUDIT_GENERATED_(10B)
  6
Continuous
 62
     7
100
AcDbCircle
 10
366.1188422292
 20
387.541392972
 30
0.0
 40
6.601089837288628
100
AcDbArc
 50
124.9187681796
 51
235.0812318204
  0
ARC
  5
126
330
C8
100
AcDbEntity
  8
$DDT_AUDIT_GENERATED_(10B)
  6
Continuous
 62
     7
100
AcDbCircle
 10
366.1188422292
 20
402.541392972
 30
0.0
 40
6.601089837288623
100
AcDbArc
 50
124.9187681796
 51
235.0812318204
  0
LINE
  5
127
330
C8
100
AcDbEntity
  8
$DDT_AUDIT_GENERATED_(10B)
  6
Continuous
 62
     7
100
AcDbLine
 10
362.34028271
 20
410.041392972
 30
0.0
 11
359.5445539809
 21
410.041392972
 31
0.0
  0
LINE
  5
128
330
C8
100
AcDbEntity
  8
$DDT_AUDIT_GENERATED_(10B)
  6
Continuous
 62
     7
100
AcDbLine
 10
372.34028271
 20
410.041392972
 30
0.0
 11
372.34028271
 21
407.9540517456
 31
0.0
  0
LINE
  5
129
330
C8
100
AcDbEntity
  8
$DDT_AUDIT_GENERATED_(10B)
  6
Continuous
 62
     7
100
AcDbLine
 10
372.34028271
 20
397.1287341983
 30
0.0
 11
372.34028271
 21
392.9540517456
 31
0.0
  0
LINE
  5
12A
330
C8
100
AcDbEntity
  8
$DDT_AUDIT_GENERATED_(10B)
  6
Continuous
 62
     7
100
AcDbLine
 10
372.34028271
 20
382.1287341983
 30
0.0
 11
372.34028271
 21
380.041392972
 31
0.0
  0
LINE
  5
12B
330
C8
100
AcDbEntity
  8
$DDT_AUDIT_GENERATED_(10B)
  6
Continuous
 62
     7
100
AcDbLine
 10
375.1360114391
 20
410.041392972
 30
0.0
 11
372.34028271
 21
410.041392972
 31
0.0
  0
LINE
  5
12C
330
C8
100
AcDbEntity
  8
$DDT_AUDIT_GENERATED_(10B)
  6
Continuous
 62
     7
100
AcDbLine
 10
372.34028271
 20
410.041392972
 30
0.0
 11
362.34028271
 21
410.041392972
 31
0.0
  0
LINE
  5
12D
330
C8
100
AcDbEntity
  8
$DDT_AUDIT_GENERATED_(10B)
  6
Continuous
 62
     7
100
AcDbLine
 10
362.34028271
 20
407.9540517456
 30
0.0
 11
372.34028271
 21
407.9540517456
 31
0.0
  0
ARC
  5
12E
330
C8
100
AcDbEntity
  8
$DDT_AUDIT_GENERATED_(10B)
  6
Continuous
 62
     7
100
AcDbCircle
 10
368.5617231908
 20
402.541392972
 30
0.0
 40
6.601089837288606
100
AcDbArc
 50
304.9187681795
 51
55.0812318205
  0
LINE
  5
12F
330
C8
100
AcDbEntity
  8
$DDT_AUDIT_GENERATED_(10B)
  6
Continuous
 62
     7
100
AcDbLine
 10
372.34028271
 20
397.1287341983
 30
0.0
 11
362.34028271
 21
397.1287341983
 31
0.0
  0
LINE
  5
130
330
C8
100
AcDbEntity
  8
$DDT_AUDIT_GENERATED_(10B)
  6
Continuous
 62
     7
100
AcDbLine
 10
362.34028271
 20
392.9540517456
 30
0.0
 11
372.34028271
 21
392.9540517456
 31
0.0
  0
ARC
  5
131
330
C8
100
AcDbEntity
  8
$DDT_AUDIT_GENERATED_(10B)
  6
Continuous
 62
     7
100
AcDbCircle
 10
368.5617231908
 20
387.541392972
 30
0.0
 40
6.601089837288606
100
AcDbArc
 50
304.9187681795
 51
55.0812318205
  0
LINE
  5
132
330
C8
100
AcDbEntity
  8
$DDT_AUDIT_GENERATED_(10B)
  6
Continuous
 62
     7
100
AcDbLine
 10
372.34028271
 20
382.1287341983
 30
0.0
 11
362.34028271
 21
382.1287341983
 31
0.0
  0
LINE
  5
133
330
C8
100
AcDbEntity
  8
$DDT_AUDIT_GENERATED_(10B)
  6
Continuous
 62
     7
100
AcDbLine
 10
362.34028271
 20
380.041392972
 30
0.0
 11
372.34028271
 21
380.041392972
 31
0.0
  0
LINE
  5
134
330
C8
100
AcDbEntity
  8
$DDT_AUDIT_GENERATED_(10B)
  6
Continuous
 62
     7
100
AcDbLine
 10
372.34028271
 20
380.041392972
 30
0.0
 11
375.1360114391
 21
380.041392972
 31
0.0
  0
ARC
  5
135
330
C8
100
AcDbEntity
  8
$DDT_AUDIT_GENERATED_(10B)
  6
Continuous
 62
     7
100
AcDbCircle
 10
369.7045815118
 20
401.6449905756
 30
0.0
 40
9.999999999999996
100
AcDbArc
 50
52.1519040322
 51
57.1036093164
  0
ARC
  5
136
330
C8
100
AcDbEntity
  8
$DDT_AUDIT_GENERATED_(10B)
  6
Continuous
 62
     7
100
AcDbCircle
 10
369.7045815118
 20
388.4377953684
 30
0.0
 40
9.999999999999996
100
AcDbArc
 50
302.9001740502
 51
307.8480959678
  0
ARC
  5
137
330
C8
100
AcDbEntity
  8
$DDT_AUDIT_GENERATED_(10B)
  6
Continuous
 62
     7
100
AcDbCircle
 10
364.9759839082
 20
401.6449905756
 30
0.0
 40
9.999999999999996
100
AcDbArc
 50
122.9001740502
 51
127.8480959678
  0
ARC
  5
138
330
C8
100
AcDbEntity
  8
$DDT_AUDIT_GENERATED_(10B)
  6
Continuous
 62
     7
100
AcDbCircle
 10
364.9759839082
 20
388.4377953684
 30
0.0
 40
9.999999999999996
100
AcDbArc
 50
232.1519040322
 51
237.1036093164
  0
LINE
  5
13A
330
C8
100
AcDbEntity
  8
DV2_Default
  6
CENTER2
 62
     7
100
AcDbLine
 10
352.5306390163
 20
395.041392972
 30
0.0
 11
312.5306399104
 21
395.041392972
 31
0.0
  0
LINE
  5
13B
330
C8
100
AcDbEntity
  8
DV2_Default
  6
CENTER2
 62
     7
100
AcDbLine
 10
332.5306394634
 20
415.0413925249
 30
0.0
 11
332.5306394634
 21
375.041393419
 31
0.0
  0
ENDBLK
  5
13D
330
C8
100
AcDbEntity
  8
0
100
AcDbBlockEnd
  0
BLOCK
  5
1D5
330
13E
100
AcDbEntity
  8
0
100
AcDbBlockBegin
  2
SE2
 70
     0
 10
0.0
 20
0.0
 30
0.0
  3
SE2
  1

  0
LINE
  5
140
330
13E
100
AcDbEntity
  8
$DDT_AUDIT_GENERATED_(60)
  6
Continuous
 62
     7
100
AcDbLine
 10
91.0373434096
 20
162.1949930762
 30
0.0
 11
91.0373434096
 21
162.8715864997
 31
0.0
  0
LINE
  5
141
330
13E
100
AcDbEntity
  8
$DDT_AUDIT_GENERATED_(60)
  6
Continuous
 62
     7
100
AcDbLine
 10
41.0373434096
 20
108.0308360869
 30
0.0
 11
91.0373434096
 21
108.0308360869
 31
0.0
  0
LINE
  5
142
330
13E
100
AcDbEntity
  8
$DDT_AUDIT_GENERATED_(60)
  6
Continuous
 62
     7
100
AcDbLine
 10
41.0373434096
 20
154.0308360869
 30
0.0
 11
41.0373434096
 21
108.0308360869
 31
0.0
  0
LINE
  5
143
330
13E
100
AcDbEntity
  8
$DDT_AUDIT_GENERATED_(60)
  6
Continuous
 62
     7
100
AcDbLine
 10
91.0373434096
 20
162.1949930762
 30
0.0
 11
91.0373434096
 21
108.0308360869
 31
0.0
  0
LINE
  5
144
330
13E
100
AcDbEntity
  8
$DDT_AUDIT_GENERATED_(60)
  6
Continuous
 62
     7
100
AcDbLine
 10
191.0373434096
 20
162.1949930762
 30
0.0
 11
191.0373434096
 21
162.8715864997
 31
0.0
  0
LINE
  5
145
330
13E
100
AcDbEntity
  8
$DDT_AUDIT_GENERATED_(60)
  6
Continuous
 62
     7
100
AcDbLine
 10
191.0373434096
 20
162.1949930762
 30
0.0
 11
191.0373434096
 21
108.0308360869
 31
0.0
  0
LINE
  5
146
330
13E
100
AcDbEntity
  8
$DDT_AUDIT_GENERATED_(60)
  6
Continuous
 62
     7
100
AcDbLine
 10
191.0373434096
 20
108.0308360869
 30
0.0
 11
198.0642066588
 21
108.0308360869
 31
0.0
  0
LINE
  5
147
330
13E
100
AcDbEntity
  8
$DDT_AUDIT_GENERATED_(60)
  6
Continuous
 62
     7
100
AcDbLine
 10
241.0373434096
 20
154.0308360869
 30
0.0
 11
241.0373434096
 21
108.0308360869
 31
0.0
  0
LINE
  5
148
330
13E
100
AcDbEntity
  8
$DDT_AUDIT_GENERATED_(60)
  6
Continuous
 62
     7
100
AcDbLine
 10
247.0373434096
 20
108.5308403239
 30
0.0
 11
247.0373434096
 21
153.5308363784
 31
0.0
  0
SPLINE
  5
149
330
13E
100
AcDbEntity
  8
$DDT_AUDIT_GENERATED_(60)
  6
Continuous
 62
     7
100
AcDbSpline
210
0.0
220
0.0
230
1.0
 70
     8
 71
     3
 72
    34
 73
    30
 74
     0
 42
0.0000000001932865
 43
0.0000000001
 40
0.0
 40
0.0
 40
0.0
 40
0.0
 40
0.0171783769160065
 40
0.0346636606011685
 40
0.0524197526824429
 40
0.070406777239609
 40
0.0885842005056924
 40
0.1069128863838487
 40
0.1253563502215284
 40
0.1438814111975272
 40
0.1624583965244852
 40
0.1810610167864432
 40
0.1996660079408762
 40
0.2182526186688334
 40
0.2368020092502638
 40
0.3025831495500748
 40
0.3637456696216951
 40
0.4281241276927696
 40
0.4952200091862604
 40
0.5647262824213605
 40
0.6331432493149433
 40
0.7027985247137344
 40
0.7597214318065506
 40
0.8200086091479163
 40
0.8802860774532623
 40
0.9099863035842297
 40
0.9400387935009874
 40
0.9699948214370953
 40
1.0
 40
1.0
 40
1.0
 40
1.0
 10
85.5363581238697
 20
162.1914731815295
 30
0.0
 10
85.61711898031717
 20
162.0715828477026
 30
0.0
 10
85.7800612844666
 20
161.8296695372171
 30
0.0
 10
85.93361770358636
 20
161.3823189152661
 30
0.0
 10
86.02304939273337
 20
160.8801372414507
 30
0.0
 10
86.04086792316197
 20
160.3240571388765
 30
0.0
 10
85.9888603436734
 20
159.7231662958187
 30
0.0
 10
85.86680063084559
 20
159.0836910411896
 30
0.0
 10
85.67554344158846
 20
158.4120383237483
 30
0.0
 10
85.41617877129816
 20
157.7139926235084
 30
0.0
 10
85.09025763604336
 20
156.9949606329603
 30
0.0
 10
84.69970025086943
 20
156.2599200837532
 30
0.0
 10
84.24686169199127
 20
155.5134868527547
 30
0.0
 10
83.73426142700946
 20
154.7598043943633
 30
0.0
 10
82.68199821638525
 20
153.3597504308826
 30
0.0
 10
80.85609203796743
 20
151.3633925383328
 30
0.0
 10
77.81014855716394
 20
148.8790567939373
 30
0.0
 10
74.14982313856785
 20
146.6533688753237
 30
0.0
 10
69.63983090126283
 20
145.1189886566118
 30
0.0
 10
64.63612343517279
 20
144.7381516964827
 30
0.0
 10
59.76266883823082
 20
145.8657763351197
 30
0.0
 10
55.6635058393586
 20
147.6486011137724
 30
0.0
 10
52.32605137232932
 20
149.6122287375285
 30
0.0
 10
49.62929638344183
 20
151.3717689561101
 30
0.0
 10
47.87073820767146
 20
152.6555431534524
 30
0.0
 10
46.89498733013848
 20
153.4582862024556
 30
0.0
 10
46.39596691662268
 20
153.9166362733537
 30
0.0
 10
46.117320136378
 20
154.2259504825448
 30
0.0
 10
46.1523783390786
 20
154.2863366716875
 30
0.0
 10
46.17004013266428
 20
154.3165824613741
 30
0.0
  0
SPLINE
  5
14A
330
13E
100
AcDbEntity
  8
$DDT_AUDIT_GENERATED_(60)
  6
Continuous
 62
     7
100
AcDbSpline
210
0.0
220
0.0
230
1.0
 70
     8
 71
     3
 72
    35
 73
    31
 74
     0
 42
0.0000000001934398
 43
0.0000000001
 40
0.0
 40
0.0
 40
0.0
 40
0.0
 40
0.016848644056185
 40
0.0335206366873124
 40
0.0500799362694071
 40
0.0665970813486606
 40
0.0831450193515609
 40
0.0997948790986162
 40
0.1166119339279618
 40
0.1460076850541737
 40
0.1754672886376514
 40
0.2358007927734715
 40
0.2652059348288157
 40
0.2979395731932755
 40
0.3311972274545868
 40
0.3632823205057131
 40
0.4083611323372829
 40
0.4550214255177085
 40
0.5024076193446027
 40
0.5696067212122161
 40
0.6346360628343053
 40
0.6964054690202852
 40
0.7623354090851406
 40
0.797232111193456
 40
0.8321084498958947
 40
0.8668139134745082
 40
0.9011722095968336
 40
0.9349763493658904
 40
0.9679951014823589
 40
1.0
 40
1.0
 40
1.0
 40
1.0
 10
235.9107462899186
 20
154.3156927442334
 30
0.0
 10
235.9249521824879
 20
154.3030548454981
 30
0.0
 10
235.9532226875742
 20
154.2779138432059
 30
0.0
 10
235.8986222602801
 20
154.1715422483251
 30
0.0
 10
235.7721932587356
 20
154.0168680082068
 30
0.0
 10
235.5675423282285
 20
153.8110300109653
 30
0.0
 10
235.2871660440255
 20
153.5575443940688
 30
0.0
 10
234.9317007655076
 20
153.2583011972841
 30
0.0
 10
234.3986336501899
 20
152.8317386417096
 30
0.0
 10
233.6239735612913
 20
152.2425541093852
 30
0.0
 10
232.1690513187507
 20
151.1986846072577
 30
0.0
 10
230.4072877720253
 20
150.0045803905388
 30
0.0
 10
228.2904411807835
 20
148.7645646179463
 30
0.0
 10
226.4998778019297
 20
147.8125623684424
 30
0.0
 10
224.5500280688721
 20
146.8546586458727
 30
0.0
 10
222.2132056460716
 20
145.8820150579384
 30
0.0
 10
219.3612834375859
 20
145.1328707132804
 30
0.0
 10
216.0103557752403
 20
144.8820158261544
 30
0.0
 10
212.1329554650151
 20
145.2271980743034
 30
0.0
 10
208.0677615204604
 20
146.5770925442612
 30
0.0
 10
204.367464038763
 20
148.8077375094939
 30
0.0
 10
201.2703024671834
 20
151.3010306972979
 30
0.0
 10
199.2225033470604
 20
153.5347389322707
 30
0.0
 10
197.8960058178426
 20
155.3835961149753
 30
0.0
 10
197.0759008043084
 20
156.7797684146616
 30
0.0
 10
196.4800157908545
 20
158.1199382325504
 30
0.0
 10
196.1172336257845
 20
159.37415641187
 30
0.0
 10
196.0020797488182
 20
160.4997141474384
 30
0.0
 10
196.1112686605704
 20
161.4799016823389
 30
0.0
 10
196.3974339960672
 20
161.9566389237847
 30
0.0
 10
196.5384369772812
 20
162.1914729616114
 30
0.0
  0
LINE
  5
14B
330
13E
100
AcDbEntity
  8
$DDT_AUDIT_GENERATED_(60)
  6
Continuous
 62
     7
100
AcDbLine
 10
200.3373434096
 20
177.8308360869
 30
0.0
 11
231.7373434096
 21
177.8308360869
 31
0.0
  0
LINE
  5
14C
330
13E
100
AcDbEntity
  8
$DDT_AUDIT_GENERATED_(60)
  6
Continuous
 62
     7
100
AcDbLine
 10
81.7373434096
 20
177.8308360869
 30
0.0
 11
50.3373434096
 21
177.8308360869
 31
0.0
  0
LINE
  5
14D
330
13E
100
AcDbEntity
  8
$DDT_AUDIT_GENERATED_(60)
  6
Continuous
 62
     7
100
AcDbLine
 10
234.0399901099
 20
108.0308360869
 30
0.0
 11
241.0373434096
 21
108.0308360869
 31
0.0
  0
LINE
  5
14E
330
13E
100
AcDbEntity
  8
$DDT_AUDIT_GENERATED_(60)
  6
Continuous
 62
     7
100
AcDbLine
 10
198.0642066588
 20
108.0308360869
 30
0.0
 11
234.0399901099
 21
108.0308360869
 31
0.0
  0
LINE
  5
14F
330
13E
100
AcDbEntity
  8
$DDT_AUDIT_GENERATED_(60)
  6
Continuous
 62
     7
100
AcDbLine
 10
33.5373434096
 20
153.7300736168
 30
0.0
 11
33.5373434096
 21
108.3310750705
 31
0.0
  0
LINE
  5
150
330
13E
100
AcDbEntity
  8
$DDT_AUDIT_GENERATED_(60)
  6
Continuous
 62
     7
100
AcDbLine
 10
33.8373434096
 20
108.0313260031
 30
0.0
 11
33.8373434096
 21
108.0314642516
 31
0.0
  0
LINE
  5
151
330
13E
100
AcDbEntity
  8
$DDT_AUDIT_GENERATED_(60)
  6
Continuous
 62
     7
100
AcDbLine
 10
33.8373434096
 20
108.0308360869
 30
0.0
 11
41.0373434096
 21
108.0308360869
 31
0.0
  0
LINE
  5
152
330
13E
100
AcDbEntity
  8
$DDT_AUDIT_GENERATED_(60)
  6
Continuous
 62
     7
100
AcDbLine
 10
41.0373434096
 20
154.0308360869
 30
0.0
 11
33.8373434096
 21
154.0308360869
 31
0.0
  0
LINE
  5
153
330
13E
100
AcDbEntity
  8
$DDT_AUDIT_GENERATED_(60)
  6
Continuous
 62
     7
100
AcDbLine
 10
42.3917126843
 20
154.0442489202
 30
0.0
 11
41.0373434096
 21
154.0308360869
 31
0.0
  0
ARC
  5
154
330
13E
100
AcDbEntity
  8
$DDT_AUDIT_GENERATED_(60)
  6
Continuous
 62
     7
100
AcDbCircle
 10
42.550418802
 20
176.4606967071
 30
0.0
 40
22.4170095912757
100
AcDbArc
 50
269.5943586207
 51
279.350546991
  0
ARC
  5
155
330
13E
100
AcDbEntity
  8
$DDT_AUDIT_GENERATED_(60)
  6
Continuous
 62
     7
100
AcDbCircle
 10
89.7432178933
 20
-1609.4911887439
 30
0.0
 40
1772.363247709119
100
AcDbArc
 50
89.9581643679
 51
90.1843271765
  0
LINE
  5
156
330
13E
100
AcDbEntity
  8
$DDT_AUDIT_GENERATED_(60)
  6
Continuous
 62
     7
100
AcDbLine
 10
91.0373434096
 20
108.0308360869
 30
0.0
 11
191.0373434096
 21
108.0308360869
 31
0.0
  0
LINE
  5
157
330
13E
100
AcDbEntity
  8
$DDT_AUDIT_GENERATED_(60)
  6
Continuous
 62
     7
100
AcDbLine
 10
191.0373434096
 20
162.8715864997
 30
0.0
 11
91.0373434096
 21
162.8715864997
 31
0.0
  0
LINE
  5
158
330
13E
100
AcDbEntity
  8
$DDT_AUDIT_GENERATED_(60)
  6
Continuous
 62
     7
100
AcDbLine
 10
241.0373434096
 20
108.0308360869
 30
0.0
 11
246.5373434096
 21
108.0308360869
 31
0.0
  0
LINE
  5
159
330
13E
100
AcDbEntity
  8
$DDT_AUDIT_GENERATED_(60)
  6
Continuous
 62
     7
100
AcDbLine
 10
246.5373434096
 20
154.0308360869
 30
0.0
 11
241.0373434096
 21
154.0308360869
 31
0.0
  0
ARC
  5
15A
330
13E
100
AcDbEntity
  8
$DDT_AUDIT_GENERATED_(60)
  6
Continuous
 62
     7
100
AcDbCircle
 10
246.5373434106
 20
153.5307616348
 30
0.0
 40
0.4999978911010434
100
AcDbArc
 50
359.9828109876
 51
89.9843563277
  0
ARC
  5
15B
330
13E
100
AcDbEntity
  8
$DDT_AUDIT_GENERATED_(60)
  6
Continuous
 62
     7
100
AcDbCircle
 10
246.5373434094
 20
108.530855678
 30
0.0
 40
0.4999995372269161
100
AcDbArc
 50
269.9883180847
 51
0.0044913821
  0
LINE
  5
15C
330
13E
100
AcDbEntity
  8
$DDT_AUDIT_GENERATED_(60)
  6
Continuous
 62
     7
100
AcDbLine
 10
50.0373434096
 20
177.5308360869
 30
0.0
 11
50.0373434096
 21
159.1781167137
 31
0.0
  0
LINE
  5
15D
330
13E
100
AcDbEntity
  8
$DDT_AUDIT_GENERATED_(60)
  6
Continuous
 62
     7
100
AcDbLine
 10
82.0373434096
 20
164.8726634681
 30
0.0
 11
82.0373434096
 21
177.5308360869
 31
0.0
  0
LINE
  5
15E
330
13E
100
AcDbEntity
  8
$DDT_AUDIT_GENERATED_(60)
  6
Continuous
 62
     7
100
AcDbLine
 10
200.0373434096
 20
177.5308360869
 30
0.0
 11
200.0373434096
 21
164.8750674377
 31
0.0
  0
LINE
  5
15F
330
13E
100
AcDbEntity
  8
$DDT_AUDIT_GENERATED_(60)
  6
Continuous
 62
     7
100
AcDbLine
 10
232.0373434096
 20
159.1777930911
 30
0.0
 11
232.0373434096
 21
177.5308360869
 31
0.0
  0
SPLINE
  5
160
330
13E
100
AcDbEntity
  8
$DDT_AUDIT_GENERATED_(60)
  6
Continuous
 62
     7
100
AcDbSpline
210
0.0
220
0.0
230
1.0
 70
     8
 71
     3
 72
    18
 73
    14
 74
     0
 42
0.0000000027611957
 43
0.0000000001
 40
0.0
 40
0.0
 40
0.0
 40
0.0
 40
0.1214502011549259
 40
0.2159630468560579
 40
0.2864674990734259
 40
0.3364714880915812
 40
0.3792079040352452
 40
0.4331231662497957
 40
0.5362329592870103
 40
0.6636866341122822
 40
0.7608857307739362
 40
0.8719806719726945
 40
1.0
 40
1.0
 40
1.0
 40
1.0
 10
84.05249582858755
 20
162.8627571438168
 30
0.0
 10
83.82135867311321
 20
162.8524806473307
 30
0.0
 10
83.48064210100526
 20
162.8425695383639
 30
0.0
 10
82.99447280470312
 20
162.8608718305984
 30
0.0
 10
82.68683513681712
 20
162.9326680610064
 30
0.0
 10
82.52040453676237
 20
163.0026677448222
 30
0.0
 10
82.46110900937096
 20
163.0339010724908
 30
0.0
 10
82.36750344492117
 20
163.0940461012281
 30
0.0
 10
82.27540365754693
 20
163.1816311274636
 30
0.0
 10
82.16328470089782
 20
163.3462087496065
 30
0.0
 10
82.05137896878314
 20
163.7319338508618
 30
0.0
 10
82.02359734875877
 20
164.253412519372
 30
0.0
 10
82.03027185953964
 20
164.6407732736623
 30
0.0
 10
82.03765800559029
 20
164.8913036598229
 30
0.0
  0
SPLINE
  5
161
330
13E
100
AcDbEntity
  8
$DDT_AUDIT_GENERATED_(60)
  6
Continuous
 62
     7
100
AcDbSpline
210
0.0
220
0.0
230
1.0
 70
     8
 71
     3
 72
    17
 73
    13
 74
     0
 42
0.0000000013945747
 43
0.0000000001
 40
0.0
 40
0.0
 40
0.0
 40
0.0
 40
0.1726509405101641
 40
0.3029270161774307
 40
0.3951308413855024
 40
0.4597300794679197
 40
0.5384453274339093
 40
0.6465877773735197
 40
0.7154736454911551
 40
0.7968137602993858
 40
0.8919043517140894
 40
1.0
 40
1.0
 40
1.0
 40
1.0
 10
50.03677452913545
 20
159.1778720133187
 30
0.0
 10
50.04077364910071
 20
158.7223952087074
 30
0.0
 10
50.03499434685717
 20
158.0514417568729
 30
0.0
 10
49.9384406897167
 20
157.0934153005924
 30
0.0
 10
49.75566872230637
 20
156.4333995665672
 30
0.0
 10
49.52514818789658
 20
155.9405115043965
 30
0.0
 10
49.17652904595273
 20
155.4566148234975
 30
0.0
 10
48.69436277979342
 20
155.0709329582028
 30
0.0
 10
48.14201233730233
 20
154.7912482957889
 30
0.0
 10
47.58943262256281
 20
154.5955875640954
 30
0.0
 10
46.9122905789072
 20
154.4343386616708
 30
0.0
 10
46.4665322192777
 20
154.3623283150531
 30
0.0
 10
46.18424623736843
 20
154.3194063730168
 30
0.0
  0
SPLINE
  5
162
330
13E
100
AcDbEntity
  8
$DDT_AUDIT_GENERATED_(60)
  6
Continuous
 62
     7
100
AcDbSpline
210
0.0
220
0.0
230
1.0
 70
     8
 71
     3
 72
    15
 73
    11
 74
     0
 42
0.0000000013913602
 43
0.0000000001
 40
0.0
 40
0.0
 40
0.0
 40
0.0
 40
0.1742809576270632
 40
0.302497448435519
 40
0.3916093038508874
 40
0.454906514087109
 40
0.5345155554043617
 40
0.6450826760796163
 40
0.7978253883137248
 40
1.0
 40
1.0
 40
1.0
 40
1.0
 10
235.8973910809995
 20
154.3189668704299
 30
0.0
 10
235.4395135940043
 20
154.3880287618733
 30
0.0
 10
234.772761470859
 20
154.503840402258
 30
0.0
 10
233.8551296721902
 20
154.8106779823869
 30
0.0
 10
233.2676106363115
 20
155.1575815395838
 30
0.0
 10
232.8664805531214
 20
155.5123120585412
 30
0.0
 10
232.5061930166416
 20
155.9884126322337
 30
0.0
 10
232.1946578181778
 20
156.7438395449048
 30
0.0
 10
232.0380678967304
 20
157.8669317866922
 30
0.0
 10
232.0294225831949
 20
158.6495479978653
 30
0.0
 10
232.0370506933017
 20
159.1807462993951
 30
0.0
  0
SPLINE
  5
163
330
13E
100
AcDbEntity
  8
$DDT_AUDIT_GENERATED_(60)
  6
Continuous
 62
     7
100
AcDbSpline
210
0.0
220
0.0
230
1.0
 70
     8
 71
     3
 72
    19
 73
    15
 74
     0
 42
0.0000000027652774
 43
0.0000000001
 40
0.0
 40
0.0
 40
0.0
 40
0.0
 40
0.1239725853085955
 40
0.2203568315510906
 40
0.2923013568104672
 40
0.3435444210412569
 40
0.3864194189278554
 40
0.4362642534846112
 40
0.4934882481750518
 40
0.5577849125127866
 40
0.632736087768552
 40
0.7277235593448609
 40
0.8482733283789646
 40
1.0
 40
1.0
 40
1.0
 40
1.0
 10
200.0375173791263
 20
164.8936447396503
 30
0.0
 10
200.0448400985016
 20
164.6435020368496
 30
0.0
 10
200.0505644168053
 20
164.2753224120802
 30
0.0
 10
200.0196017009414
 20
163.7708517195099
 30
0.0
 10
199.9408645147005
 20
163.4607000471001
 30
0.0
 10
199.8732740357792
 20
163.3068629267995
 30
0.0
 10
199.8482699908605
 20
163.261759296031
 30
0.0
 10
199.8083349199553
 20
163.1989282409555
 30
0.0
 10
199.758367462403
 20
163.1411847448427
 30
0.0
 10
199.7002556354146
 20
163.0887663701887
 30
0.0
 10
199.579877352973
 20
163.004051861814
 30
0.0
 10
199.2591952923248
 20
162.8748053492015
 30
0.0
 10
198.7062365857106
 20
162.8329668392035
 30
0.0
 10
198.3034119298171
 20
162.8480280510201
 30
0.0
 10
198.0307190685126
 20
162.8634071107165
 30
0.0
  0
ARC
  5
164
330
13E
100
AcDbEntity
  8
$DDT_AUDIT_GENERATED_(60)
  6
Continuous
 62
     7
100
AcDbCircle
 10
231.7373434096
 20
177.5308360869
 30
0.0
 40
0.2999999999999947
100
AcDbArc
 50
0.0
 51
90.0
  0
ARC
  5
165
330
13E
100
AcDbEntity
  8
$DDT_AUDIT_GENERATED_(60)
  6
Continuous
 62
     7
100
AcDbCircle
 10
200.3373434096
 20
177.5308360869
 30
0.0
 40
0.3000000000000017
100
AcDbArc
 50
90.0
 51
180.0
  0
ARC
  5
166
330
13E
100
AcDbEntity
  8
$DDT_AUDIT_GENERATED_(60)
  6
Continuous
 62
     7
100
AcDbCircle
 10
81.7373434096
 20
177.5308360869
 30
0.0
 40
0.3000000000000017
100
AcDbArc
 50
0.0
 51
90.0
  0
ARC
  5
167
330
13E
100
AcDbEntity
  8
$DDT_AUDIT_GENERATED_(60)
  6
Continuous
 62
     7
100
AcDbCircle
 10
50.3373434096
 20
177.5308360869
 30
0.0
 40
0.3000000000000017
100
AcDbArc
 50
90.0
 51
180.0
  0
ARC
  5
168
330
13E
100
AcDbEntity
  8
$DDT_AUDIT_GENERATED_(60)
  6
Continuous
 62
     7
100
AcDbCircle
 10
192.3644678957
 20
-1469.3141480177
 30
0.0
 40
1632.186274057369
100
AcDbArc
 50
89.8005495468
 51
90.0465869867
  0
ARC
  5
169
330
13E
100
AcDbEntity
  8
$DDT_AUDIT_GENERATED_(60)
  6
Continuous
 62
     7
100
AcDbCircle
 10
239.513625379
 20
176.3421522113
 30
0.0
 40
22.29808694760153
100
AcDbArc
 50
260.6462927479
 51
270.3652480784
  0
LINE
  5
16A
330
13E
100
AcDbEntity
  8
$DDT_AUDIT_GENERATED_(60)
  6
Continuous
 62
     7
100
AcDbLine
 10
241.0373434096
 20
154.0308360869
 30
0.0
 11
239.6557698497
 21
154.0445183352
 31
0.0
  0
ARC
  5
16B
330
13E
100
AcDbEntity
  8
$DDT_AUDIT_GENERATED_(60)
  6
Continuous
 62
     7
100
AcDbCircle
 10
33.8373434605
 20
153.7306786231
 30
0.0
 40
0.3000000640169483
100
AcDbArc
 50
89.3856593906
 51
180.060369291
  0
ARC
  5
16C
330
13E
100
AcDbEntity
  8
$DDT_AUDIT_GENERATED_(60)
  6
Continuous
 62
     7
100
AcDbCircle
 10
33.8373434375
 20
108.330944245
 30
0.0
 40
0.3000000349923894
100
AcDbArc
 50
179.958551888
 51
270.4937176715
  0
LINE
  5
16D
330
13E
100
AcDbEntity
  8
$DDT_AUDIT_GENERATED_(8C)
  6
Continuous
 62
     7
100
AcDbLine
 10
32.4128559229
 20
107.0147052656
 30
0.0
 11
32.4128559229
 21
155.047079787
 31
0.0
  0
LINE
  5
16E
330
13E
100
AcDbEntity
  8
$DDT_AUDIT_GENERATED_(8C)
  6
Continuous
 62
     7
100
AcDbLine
 10
32.2111105908
 20
106.8145373705
 30
0.0
 11
32.2111105908
 21
106.814424678
 31
0.0
  0
SPLINE
  5
16F
330
13E
100
AcDbEntity
  8
$DDT_AUDIT_GENERATED_(8C)
  6
Continuous
 62
     7
100
AcDbSpline
210
0.0
220
0.0
230
1.0
 70
     8
 71
     3
 72
    17
 73
    13
 74
     0
 42
0.0000000001040959
 43
0.0000000001
 40
0.2206626519137666
 40
0.2206626519137666
 40
0.2206626519137666
 40
0.2206626519137666
 40
0.2830677248118203
 40
0.3454722504581292
 40
0.4077885582351984
 40
0.4703297281781371
 40
0.4703990263359278
 40
0.5062925030047005
 40
0.5420963844449929
 40
0.595647865603058
 40
0.655398301644621
 40
0.7204069397983353
 40
0.7204069397983353
 40
0.7204069397983353
 40
0.7204069397983353
 10
7.872160308376369
 20
155.034845154066
 30
0.0
 10
7.872136588977605
 20
155.0347942261436
 30
0.0
 10
7.871263948444243
 20
153.7366390881803
 30
0.0
 10
7.866039928166896
 20
148.4656684879671
 30
0.0
 10
7.860635378653114
 20
140.4498998027172
 30
0.0
 10
7.847829538942753
 20
134.1535943105587
 30
0.0
 10
7.847532276470504
 20
129.2297142037445
 30
0.0
 10
7.852422815674053
 20
125.6297099277469
 30
0.0
 10
7.860922643949136
 20
119.6879204066773
 30
0.0
 10
7.867384526668991
 20
113.4501861637188
 30
0.0
 10
7.871310635129969
 20
108.3813621939568
 30
0.0
 10
7.8721806996499
 20
107.027684728123
 30
0.0
 10
7.872160500299389
 20
107.0268342751461
 30
0.0
  0
LINE
  5
170
330
13E
100
AcDbEntity
  8
$DDT_AUDIT_GENERATED_(8C)
  6
Continuous
 62
     7
100
AcDbLine
 10
7.8721492442
 20
107.0268275813
 30
0.0
 11
32.2111105908
 21
106.8144246832
 31
0.0
  0
LINE
  5
171
330
13E
100
AcDbEntity
  8
$DDT_AUDIT_GENERATED_(8C)
  6
Continuous
 62
     7
100
AcDbLine
 10
32.2111105908
 20
155.2472471659
 30
0.0
 11
7.8721549101
 21
155.0348443206
 31
0.0
  0
ARC
  5
172
330
13E
100
AcDbEntity
  8
$DDT_AUDIT_GENERATED_(8C)
  6
Continuous
 62
     7
100
AcDbCircle
 10
32.2128559026
 20
107.014530862
 30
0.0
 40
0.2000000756466618
100
AcDbArc
 50
269.5288123433
 51
0.0656634601
  0
ARC
  5
173
330
13E
100
AcDbEntity
  8
$DDT_AUDIT_GENERATED_(8C)
  6
Continuous
 62
     7
100
AcDbCircle
 10
32.2128559028
 20
155.0471864518
 30
0.0
 40
0.2000000449246438
100
AcDbArc
 50
359.9602516303
 51
90.7921248063
  0
SPLINE
  5
174
330
13E
100
AcDbEntity
  8
$DDT_AUDIT_GENERATED_(8C)
  6
Continuous
 62
     7
100
AcDbSpline
210
0.0
220
0.0
230
1.0
 70
     8
 71
     3
 72
    13
 73
     9
 74
     0
 42
0.0000000002121255
 43
0.0000000001
 40
0.0
 40
0.0
 40
0.0
 40
0.0
 40
0.1625798237824333
 40
0.3312695112827814
 40
0.5000101971598747
 40
0.6687508830161939
 40
0.8374405704544504
 40
1.0
 40
1.0
 40
1.0
 40
1.0
 10
7.37781169758947
 20
154.5722832244597
 30
0.0
 10
7.159845180824881
 20
151.770845307187
 30
0.0
 10
6.794961783086778
 20
146.9571201311777
 30
0.0
 10
6.462220771712462
 20
138.9528705340879
 30
0.0
 10
6.349999999999994
 20
131.0308323287588
 30
0.0
 10
6.462221636616611
 20
123.1087972693147
 30
0.0
 10
6.794945887120568
 20
115.1048648456665
 30
0.0
 10
7.159806338283059
 20
110.2914280034089
 30
0.0
 10
7.377744333818242
 20
107.4903414106163
 30
0.0
  0
SPLINE
  5
175
330
13E
100
AcDbEntity
  8
$DDT_AUDIT_GENERATED_(8C)
  6
Continuous
 62
     7
100
AcDbSpline
210
0.0
220
0.0
230
1.0
 70
     8
 71
     3
 72
    13
 73
     9
 74
     0
 42
0.0000000129735159
 43
0.0000000001
 40
0.0
 40
0.0
 40
0.0
 40
0.0
 40
0.2392847564581595
 40
0.3699271991388657
 40
0.500174604707735
 40
0.630368081885244
 40
0.7608824311976098
 40
1.0
 40
1.0
 40
1.0
 40
1.0
 10
7.872160367587394
 20
155.0348444797981
 30
0.0
 10
7.805248626721662
 20
155.0326634881536
 30
0.0
 10
7.717188816237841
 20
155.02758480039
 30
0.0
 10
7.596700841657339
 20
154.9784565353783
 30
0.0
 10
7.514775293569004
 20
154.9206901919964
 30
0.0
 10
7.4509654338
 20
154.8434208449007
 30
0.0
 10
7.39287724419635
 20
154.727085698326
 30
0.0
 10
7.381197994567601
 20
154.6397203138956
 30
0.0
 10
7.373997360122758
 20
154.5732084481741
 30
0.0
  0
SPLINE
  5
176
330
13E
100
AcDbEntity
  8
$DDT_AUDIT_GENERATED_(8C)
  6
Continuous
 62
     7
100
AcDbSpline
210
0.0
220
0.0
230
1.0
 70
     8
 71
     3
 72
    13
 73
     9
 74
     0
 42
0.0000000129735628
 43
0.0000000001
 40
0.0
 40
0.0
 40
0.0
 40
0.0
 40
0.2391167731459515
 40
0.3696308255857757
 40
0.499824190775339
 40
0.6300717129453096
 40
0.7607144562246683
 40
1.0
 40
1.0
 40
1.0
 40
1.0
 10
7.373997659753134
 20
107.4884605679324
 30
0.0
 10
7.38119826454231
 20
107.421949166588
 30
0.0
 10
7.392877474725335
 20
107.3345843391273
 30
0.0
 10
7.450965607969485
 20
107.2182500276066
 30
0.0
 10
7.514775443346333
 20
107.1409812269034
 30
0.0
 10
7.596700946629731
 20
107.0832153174861
 30
0.0
 10
7.717188882767568
 20
107.0340874141203
 30
0.0
 10
7.805248618560634
 20
107.0290087635218
 30
0.0
 10
7.872160341435869
 20
107.026827791384
 30
0.0
  0
LINE
  5
177
330
13E
100
AcDbEntity
  8
$DDT_AUDIT_GENERATED_(F8)
  6
Continuous
 62
     7
100
AcDbLine
 10
229.2573434096
 20
195.8308360869
 30
0.0
 11
229.2573434096
 21
196.3347083611
 31
0.0
  0
LINE
  5
178
330
13E
100
AcDbEntity
  8
$DDT_AUDIT_GENERATED_(F8)
  6
Continuous
 62
     7
100
AcDbLine
 10
202.8173434096
 20
196.3347083611
 30
0.0
 11
202.8173434096
 21
195.8308360869
 31
0.0
  0
LINE
  5
179
330
13E
100
AcDbEntity
  8
$DDT_AUDIT_GENERATED_(F8)
  6
Continuous
 62
     7
100
AcDbLine
 10
228.0873434096
 20
196.3347083611
 30
0.0
 11
228.0873434096
 21
195.8308360869
 31
0.0
  0
LINE
  5
17A
330
13E
100
AcDbEntity
  8
$DDT_AUDIT_GENERATED_(F8)
  6
Continuous
 62
     7
100
AcDbLine
 10
203.9873434096
 20
196.3347083611
 30
0.0
 11
203.9873434096
 21
195.8308360869
 31
0.0
  0
LINE
  5
17B
330
13E
100
AcDbEntity
  8
$DDT_AUDIT_GENERATED_(AA)
  6
Continuous
 62
     7
100
AcDbLine
 10
181.0373434096
 20
222.1404793335
 30
0.0
 11
251.0373434096
 21
222.1404793335
 31
0.0
  0
LINE
  5
17C
330
13E
100
AcDbEntity
  8
$DDT_AUDIT_GENERATED_(AA)
  6
Continuous
 62
     7
100
AcDbLine
 10
181.0373434096
 20
199.3575342695
 30
0.0
 11
251.0373434096
 21
199.3575342695
 31
0.0
  0
LINE
  5
17D
330
13E
100
AcDbEntity
  8
$DDT_AUDIT_GENERATED_(AA)
  6
Continuous
 62
     7
100
AcDbLine
 10
181.0373434096
 20
222.1404793335
 30
0.0
 11
181.0373434096
 21
199.3575342695
 31
0.0
  0
LINE
  5
17E
330
13E
100
AcDbEntity
  8
$DDT_AUDIT_GENERATED_(AA)
  6
Continuous
 62
     7
100
AcDbLine
 10
251.0373434096
 20
199.3575342695
 30
0.0
 11
251.0373434096
 21
222.1404793335
 31
0.0
  0
ARC
  5
17F
330
13E
100
AcDbEntity
  8
$DDT_AUDIT_GENERATED_(AA)
  6
Continuous
 62
     7
100
AcDbCircle
 10
216.0373434096
 20
646.1404793335
 30
0.0
 40
450.0000000000002
100
AcDbArc
 50
265.7757259843
 51
268.3165351092
  0
ARC
  5
180
330
13E
100
AcDbEntity
  8
$DDT_AUDIT_GENERATED_(AA)
  6
Continuous
 62
     7
100
AcDbCircle
 10
216.0373434096
 20
646.1404793335
 30
0.0
 40
450.0000000000001
100
AcDbArc
 50
271.6834648908
 51
274.2242740157
  0
ARC
  5
181
330
13E
100
AcDbEntity
  8
$DDT_AUDIT_GENERATED_(AA)
  6
Continuous
 62
     7
100
AcDbCircle
 10
183.0373434096
 20
199.3575342695
 30
0.0
 40
1.999999999999995
100
AcDbArc
 50
180.0
 51
265.7757259844
  0
ARC
  5
182
330
13E
100
AcDbEntity
  8
$DDT_AUDIT_GENERATED_(AA)
  6
Continuous
 62
     7
100
AcDbCircle
 10
249.0373434096
 20
199.3575342695
 30
0.0
 40
2.000000000000141
100
AcDbArc
 50
274.2242740156
 51
0.0
  0
LINE
  5
183
330
13E
100
AcDbEntity
  8
$DDT_AUDIT_GENERATED_(AA)
  6
Continuous
 62
     7
100
AcDbLine
 10
202.9788434096
 20
196.3304130719
 30
0.0
 11
229.0958434096
 21
196.3304130719
 31
0.0
  0
LINE
  5
184
330
13E
100
AcDbEntity
  8
$DDT_AUDIT_GENERATED_(F8)
  6
Continuous
 62
     7
100
AcDbLine
 10
79.2573434096
 20
195.8308360869
 30
0.0
 11
79.2573434096
 21
196.3347083611
 31
0.0
  0
LINE
  5
185
330
13E
100
AcDbEntity
  8
$DDT_AUDIT_GENERATED_(F8)
  6
Continuous
 62
     7
100
AcDbLine
 10
52.8173434096
 20
196.3347083611
 30
0.0
 11
52.8173434096
 21
195.8308360869
 31
0.0
  0
LINE
  5
186
330
13E
100
AcDbEntity
  8
$DDT_AUDIT_GENERATED_(F8)
  6
Continuous
 62
     7
100
AcDbLine
 10
78.0873434096
 20
196.3347083611
 30
0.0
 11
78.0873434096
 21
195.8308360869
 31
0.0
  0
LINE
  5
187
330
13E
100
AcDbEntity
  8
$DDT_AUDIT_GENERATED_(F8)
  6
Continuous
 62
     7
100
AcDbLine
 10
53.9873434096
 20
196.3347083611
 30
0.0
 11
53.9873434096
 21
195.8308360869
 31
0.0
  0
LINE
  5
188
330
13E
100
AcDbEntity
  8
$DDT_AUDIT_GENERATED_(AA)
  6
Continuous
 62
     7
100
AcDbLine
 10
101.0373434096
 20
222.1404793335
 30
0.0
 11
31.0373434096
 21
222.1404793335
 31
0.0
  0
LINE
  5
189
330
13E
100
AcDbEntity
  8
$DDT_AUDIT_GENERATED_(AA)
  6
Continuous
 62
     7
100
AcDbLine
 10
101.0373434096
 20
199.3575342695
 30
0.0
 11
31.0373434096
 21
199.3575342695
 31
0.0
  0
LINE
  5
18A
330
13E
100
AcDbEntity
  8
$DDT_AUDIT_GENERATED_(AA)
  6
Continuous
 62
     7
100
AcDbLine
 10
31.0373434096
 20
222.1404793335
 30
0.0
 11
31.0373434096
 21
199.3575342695
 31
0.0
  0
LINE
  5
18B
330
13E
100
AcDbEntity
  8
$DDT_AUDIT_GENERATED_(AA)
  6
Continuous
 62
     7
100
AcDbLine
 10
101.0373434096
 20
199.3575342695
 30
0.0
 11
101.0373434096
 21
222.1404793335
 31
0.0
  0
ARC
  5
18C
330
13E
100
AcDbEntity
  8
$DDT_AUDIT_GENERATED_(AA)
  6
Continuous
 62
     7
100
AcDbCircle
 10
66.0373434096
 20
646.1404793335
 30
0.0
 40
450.0000000000002
100
AcDbArc
 50
265.7757259843
 51
268.3165351092
  0
ARC
  5
18D
330
13E
100
AcDbEntity
  8
$DDT_AUDIT_GENERATED_(AA)
  6
Continuous
 62
     7
100
AcDbCircle
 10
66.0373434096
 20
646.1404793335
 30
0.0
 40
450.0
100
AcDbArc
 50
271.6834648908
 51
274.2242740157
  0
ARC
  5
18E
330
13E
100
AcDbEntity
  8
$DDT_AUDIT_GENERATED_(AA)
  6
Continuous
 62
     7
100
AcDbCircle
 10
33.0373434096
 20
199.3575342695
 30
0.0
 40
1.999999999999988
100
AcDbArc
 50
180.0
 51
265.7757259844
  0
ARC
  5
18F
330
13E
100
AcDbEntity
  8
$DDT_AUDIT_GENERATED_(AA)
  6
Continuous
 62
     7
100
AcDbCircle
 10
99.0373434096
 20
199.3575342695
 30
0.0
 40
2.000000000000141
100
AcDbArc
 50
274.2242740156
 51
0.0
  0
LINE
  5
190
330
13E
100
AcDbEntity
  8
$DDT_AUDIT_GENERATED_(AA)
  6
Continuous
 62
     7
100
AcDbLine
 10
52.9788434096
 20
196.3304130719
 30
0.0
 11
79.0958434096
 21
196.3304130719
 31
0.0
  0
LINE
  5
191
330
13E
100
AcDbEntity
  8
$DDT_AUDIT_GENERATED_(10B)
  6
Continuous
 62
     7
100
AcDbLine
 10
201.5373434096
 20
178.8308360869
 30
0.0
 11
230.5373434096
 21
178.8308360869
 31
0.0
  0
LINE
  5
192
330
13E
100
AcDbEntity
  8
$DDT_AUDIT_GENERATED_(10B)
  6
Continuous
 62
     7
100
AcDbLine
 10
201.5373434096
 20
195.8308360869
 30
0.0
 11
230.5373434096
 21
195.8308360869
 31
0.0
  0
LINE
  5
193
330
13E
100
AcDbEntity
  8
$DDT_AUDIT_GENERATED_(10B)
  6
Continuous
 62
     7
100
AcDbLine
 10
231.0373434096
 20
192.3308360869
 30
0.0
 11
228.9500021832
 21
192.3308360869
 31
0.0
  0
LINE
  5
194
330
13E
100
AcDbEntity
  8
$DDT_AUDIT_GENERATED_(10B)
  6
Continuous
 62
     7
100
AcDbLine
 10
218.1246846359
 20
192.3308360869
 30
0.0
 11
213.9500021832
 21
192.3308360869
 31
0.0
  0
LINE
  5
195
330
13E
100
AcDbEntity
  8
$DDT_AUDIT_GENERATED_(10B)
  6
Continuous
 62
     7
100
AcDbLine
 10
203.1246846359
 20
192.3308360869
 30
0.0
 11
201.0373434096
 21
192.3308360869
 31
0.0
  0
LINE
  5
196
330
13E
100
AcDbEntity
  8
$DDT_AUDIT_GENERATED_(10B)
  6
Continuous
 62
     7
100
AcDbLine
 10
201.0373434096
 20
192.3308360869
 30
0.0
 11
201.0373434096
 21
195.126564816
 31
0.0
  0
ARC
  5
197
330
13E
100
AcDbEntity
  8
$DDT_AUDIT_GENERATED_(10B)
  6
Continuous
 62
     7
100
AcDbCircle
 10
208.5373434096
 20
188.5522765677
 30
0.0
 40
6.601089837288618
100
AcDbArc
 50
34.9187681796
 51
145.0812318204
  0
ARC
  5
198
330
13E
100
AcDbEntity
  8
$DDT_AUDIT_GENERATED_(10B)
  6
Continuous
 62
     7
100
AcDbCircle
 10
223.5373434096
 20
188.5522765677
 30
0.0
 40
6.601089837288626
100
AcDbArc
 50
34.9187681796
 51
145.0812318204
  0
LINE
  5
199
330
13E
100
AcDbEntity
  8
$DDT_AUDIT_GENERATED_(10B)
  6
Continuous
 62
     7
100
AcDbLine
 10
231.0373434096
 20
195.126564816
 30
0.0
 11
231.0373434096
 21
192.3308360869
 31
0.0
  0
LINE
  5
19A
330
13E
100
AcDbEntity
  8
$DDT_AUDIT_GENERATED_(10B)
  6
Continuous
 62
     7
100
AcDbLine
 10
231.0373434096
 20
182.3308360869
 30
0.0
 11
228.9500021832
 21
182.3308360869
 31
0.0
  0
LINE
  5
19B
330
13E
100
AcDbEntity
  8
$DDT_AUDIT_GENERATED_(10B)
  6
Continuous
 62
     7
100
AcDbLine
 10
218.1246846359
 20
182.3308360869
 30
0.0
 11
213.9500021832
 21
182.3308360869
 31
0.0
  0
LINE
  5
19C
330
13E
100
AcDbEntity
  8
$DDT_AUDIT_GENERATED_(10B)
  6
Continuous
 62
     7
100
AcDbLine
 10
203.1246846359
 20
182.3308360869
 30
0.0
 11
201.0373434096
 21
182.3308360869
 31
0.0
  0
LINE
  5
19D
330
13E
100
AcDbEntity
  8
$DDT_AUDIT_GENERATED_(10B)
  6
Continuous
 62
     7
100
AcDbLine
 10
231.0373434096
 20
182.3308360869
 30
0.0
 11
231.0373434096
 21
179.5351073577
 31
0.0
  0
LINE
  5
19E
330
13E
100
AcDbEntity
  8
$DDT_AUDIT_GENERATED_(10B)
  6
Continuous
 62
     7
100
AcDbLine
 10
231.0373434096
 20
182.3308360869
 30
0.0
 11
231.0373434096
 21
192.3308360869
 31
0.0
  0
LINE
  5
19F
330
13E
100
AcDbEntity
  8
$DDT_AUDIT_GENERATED_(10B)
  6
Continuous
 62
     7
100
AcDbLine
 10
228.9500021832
 20
192.3308360869
 30
0.0
 11
228.9500021832
 21
182.3308360869
 31
0.0
  0
ARC
  5
1A0
330
13E
100
AcDbEntity
  8
$DDT_AUDIT_GENERATED_(10B)
  6
Continuous
 62
     7
100
AcDbCircle
 10
223.5373434096
 20
186.109395606
 30
0.0
 40
6.601089837288602
100
AcDbArc
 50
214.9187681796
 51
325.0812318204
  0
LINE
  5
1A1
330
13E
100
AcDbEntity
  8
$DDT_AUDIT_GENERATED_(10B)
  6
Continuous
 62
     7
100
AcDbLine
 10
218.1246846359
 20
182.3308360869
 30
0.0
 11
218.1246846359
 21
192.3308360869
 31
0.0
  0
LINE
  5
1A2
330
13E
100
AcDbEntity
  8
$DDT_AUDIT_GENERATED_(10B)
  6
Continuous
 62
     7
100
AcDbLine
 10
213.9500021832
 20
192.3308360869
 30
0.0
 11
213.9500021832
 21
182.3308360869
 31
0.0
  0
ARC
  5
1A3
330
13E
100
AcDbEntity
  8
$DDT_AUDIT_GENERATED_(10B)
  6
Continuous
 62
     7
100
AcDbCircle
 10
208.5373434096
 20
186.109395606
 30
0.0
 40
6.60108983728861
100
AcDbArc
 50
214.9187681795
 51
325.0812318204
  0
LINE
  5
1A4
330
13E
100
AcDbEntity
  8
$DDT_AUDIT_GENERATED_(10B)
  6
Continuous
 62
     7
100
AcDbLine
 10
203.1246846359
 20
182.3308360869
 30
0.0
 11
203.1246846359
 21
192.3308360869
 31
0.0
  0
LINE
  5
1A5
330
13E
100
AcDbEntity
  8
$DDT_AUDIT_GENERATED_(10B)
  6
Continuous
 62
     7
100
AcDbLine
 10
201.0373434096
 20
192.3308360869
 30
0.0
 11
201.0373434096
 21
182.3308360869
 31
0.0
  0
LINE
  5
1A6
330
13E
100
AcDbEntity
  8
$DDT_AUDIT_GENERATED_(10B)
  6
Continuous
 62
     7
100
AcDbLine
 10
201.0373434096
 20
182.3308360869
 30
0.0
 11
201.0373434096
 21
179.5351073577
 31
0.0
  0
ARC
  5
1A7
330
13E
100
AcDbEntity
  8
$DDT_AUDIT_GENERATED_(10B)
  6
Continuous
 62
     7
100
AcDbCircle
 10
222.6409410132
 20
184.9665372851
 30
0.0
 40
9.999999999999995
100
AcDbArc
 50
322.1519040322
 51
327.1069500239
  0
ARC
  5
1A8
330
13E
100
AcDbEntity
  8
$DDT_AUDIT_GENERATED_(10B)
  6
Continuous
 62
     7
100
AcDbCircle
 10
209.433745806
 20
184.9665372851
 30
0.0
 40
9.999999999999996
100
AcDbArc
 50
212.8929919298
 51
217.8480959678
  0
ARC
  5
1A9
330
13E
100
AcDbEntity
  8
$DDT_AUDIT_GENERATED_(10B)
  6
Continuous
 62
     7
100
AcDbCircle
 10
222.6409410132
 20
189.6951348887
 30
0.0
 40
9.999999999999988
100
AcDbArc
 50
32.8929919298
 51
37.8480959678
  0
ARC
  5
1AA
330
13E
100
AcDbEntity
  8
$DDT_AUDIT_GENERATED_(10B)
  6
Continuous
 62
     7
100
AcDbCircle
 10
209.433745806
 20
189.6951348887
 30
0.0
 40
9.999999999999995
100
AcDbArc
 50
142.1519040322
 51
147.1069500239
  0
LINE
  5
1AB
330
13E
100
AcDbEntity
  8
$DDT_AUDIT_GENERATED_(B2)
  6
Continuous
 62
     7
100
AcDbLine
 10
33.5373434096
 20
108.5987162584
 30
0.0
 11
33.5373434096
 21
153.4629559154
 31
0.0
  0
ARC
  5
1AC
330
13E
100
AcDbEntity
  8
$DDT_AUDIT_GENERATED_(B2)
  6
Continuous
 62
     7
100
AcDbCircle
 10
45.0373434096
 20
131.0308360869
 30
0.0
 40
25.5
100
AcDbArc
 50
117.5453531821
 51
119.725856192
  0
ARC
  5
1AD
330
13E
100
AcDbEntity
  8
$DDT_AUDIT_GENERATED_(B2)
  6
Continuous
 62
     7
100
AcDbCircle
 10
45.0373434096
 20
131.0308360869
 30
0.0
 40
25.5
100
AcDbArc
 50
240.3249579649
 51
242.4546468179
  0
ARC
  5
1AE
330
13E
100
AcDbEntity
  8
$DDT_AUDIT_GENERATED_(B2)
  6
Continuous
 62
     7
100
AcDbCircle
 10
33.3373434096
 20
153.4629559154
 30
0.0
 40
0.2000000000000057
100
AcDbArc
 50
0.0
 51
117.5453531821
  0
ARC
  5
1AF
330
13E
100
AcDbEntity
  8
$DDT_AUDIT_GENERATED_(B2)
  6
Continuous
 62
     7
100
AcDbCircle
 10
33.3373434096
 20
108.5987162584
 30
0.0
 40
0.2000000000000014
100
AcDbArc
 50
242.4546468179
 51
0.0
  0
LINE
  5
1B0
330
13E
100
AcDbEntity
  8
$DDT_AUDIT_GENERATED_(11C)
  6
Continuous
 62
     7
100
AcDbLine
 10
226.5373434096
 20
177.8308360869
 30
0.0
 11
226.5373434096
 21
178.8308360869
 31
0.0
  0
LINE
  5
1B1
330
13E
100
AcDbEntity
  8
$DDT_AUDIT_GENERATED_(11C)
  6
Continuous
 62
     7
100
AcDbLine
 10
205.5373434096
 20
178.8308360869
 30
0.0
 11
205.5373434096
 21
177.8308360869
 31
0.0
  0
LINE
  5
1B2
330
13E
100
AcDbEntity
  8
$DDT_AUDIT_GENERATED_(11C)
  6
Continuous
 62
     7
100
AcDbLine
 10
76.5373434096
 20
177.8308360869
 30
0.0
 11
76.5373434096
 21
178.8308360869
 31
0.0
  0
LINE
  5
1B3
330
13E
100
AcDbEntity
  8
$DDT_AUDIT_GENERATED_(11C)
  6
Continuous
 62
     7
100
AcDbLine
 10
55.5373434096
 20
178.8308360869
 30
0.0
 11
55.5373434096
 21
177.8308360869
 31
0.0
  0
LINE
  5
1B4
330
13E
100
AcDbEntity
  8
$DDT_AUDIT_GENERATED_(10B)
  6
Continuous
 62
     7
100
AcDbLine
 10
75.9027244663
 20
182.3308360869
 30
0.0
 11
72.2873434096
 21
182.3308360869
 31
0.0
  0
LINE
  5
1B5
330
13E
100
AcDbEntity
  8
$DDT_AUDIT_GENERATED_(10B)
  6
Continuous
 62
     7
100
AcDbLine
 10
51.5373434096
 20
178.8308360869
 30
0.0
 11
80.5373434096
 21
178.8308360869
 31
0.0
  0
LINE
  5
1B6
330
13E
100
AcDbEntity
  8
$DDT_AUDIT_GENERATED_(10B)
  6
Continuous
 62
     7
100
AcDbLine
 10
51.5373434096
 20
195.8308360869
 30
0.0
 11
80.5373434096
 21
195.8308360869
 31
0.0
  0
LINE
  5
1B7
330
13E
100
AcDbEntity
  8
$DDT_AUDIT_GENERATED_(10B)
  6
Continuous
 62
     7
100
AcDbLine
 10
75.9027244663
 20
192.3308360869
 30
0.0
 11
72.2873434096
 21
192.3308360869
 31
0.0
  0
LINE
  5
1B8
330
13E
100
AcDbEntity
  8
$DDT_AUDIT_GENERATED_(10B)
  6
Continuous
 62
     7
100
AcDbLine
 10
59.7873434096
 20
192.3308360869
 30
0.0
 11
56.1719623528
 21
192.3308360869
 31
0.0
  0
LINE
  5
1B9
330
13E
100
AcDbEntity
  8
$DDT_AUDIT_GENERATED_(10B)
  6
Continuous
 62
     7
100
AcDbLine
 10
49.9219623528
 20
192.3308360869
 30
0.0
 11
49.7873434096
 21
192.3308360869
 31
0.0
  0
LINE
  5
1BA
330
13E
100
AcDbEntity
  8
$DDT_AUDIT_GENERATED_(10B)
  6
Continuous
 62
     7
100
AcDbLine
 10
82.1527244663
 20
192.3308360869
 30
0.0
 11
82.2873434096
 21
192.3308360869
 31
0.0
  0
SPLINE
  5
1BB
330
13E
100
AcDbEntity
  8
$DDT_AUDIT_GENERATED_(10B)
  6
Continuous
 62
     7
100
AcDbSpline
210
0.0
220
0.0
230
1.0
 70
     8
 71
     3
 72
    14
 73
    10
 74
     0
 42
0.0000000011014719
 43
0.0000000001
 40
0.0
 40
0.0
 40
0.0
 40
0.0
 40
0.25
 40
0.25
 40
0.5
 40
0.5
 40
0.75
 40
0.75
 40
1.0
 40
1.0
 40
1.0
 40
1.0
 10
82.15272446634376
 20
192.3308360868632
 30
0.0
 10
81.80540661771647
 20
193.3086426553163
 30
0.0
 10
81.30747930513309
 20
194.0055011494972
 30
0.0
 10
80.21757124056484
 20
194.9121831013669
 30
0.0
 10
79.62369705915982
 20
195.126130201686
 30
0.0
 10
78.43529195577092
 20
195.1269973547279
 30
0.0
 10
77.84973817337388
 20
194.9196787964588
 30
0.0
 10
76.7494564302674
 20
194.0090803005354
 30
0.0
 10
76.24965970409356
 20
193.3075654880196
 30
0.0
 10
75.90272446634374
 20
192.3308360868632
 30
0.0
  0
SPLINE
  5
1BC
330
13E
100
AcDbEntity
  8
$DDT_AUDIT_GENERATED_(10B)
  6
Continuous
 62
     7
100
AcDbSpline
210
0.0
220
0.0
230
1.0
 70
     8
 71
     3
 72
    14
 73
    10
 74
     0
 42
0.0000000011014719
 43
0.0000000001
 40
0.0
 40
0.0
 40
0.0
 40
0.0
 40
0.25
 40
0.25
 40
0.5
 40
0.5
 40
0.75
 40
0.75
 40
1.0
 40
1.0
 40
1.0
 40
1.0
 10
56.1719623528106
 20
192.3308360868632
 30
0.0
 10
55.82464450418333
 20
193.3086426553163
 30
0.0
 10
55.32671719159993
 20
194.0055011494972
 30
0.0
 10
54.23680912703169
 20
194.9121831013669
 30
0.0
 10
53.64293494562666
 20
195.126130201686
 30
0.0
 10
52.45452984223777
 20
195.1269973547279
 30
0.0
 10
51.86897605984073
 20
194.9196787964588
 30
0.0
 10
50.76869431673424
 20
194.0090803005354
 30
0.0
 10
50.2688975905604
 20
193.3075654880196
 30
0.0
 10
49.9219623528106
 20
192.3308360868632
 30
0.0
  0
SPLINE
  5
1BD
330
13E
100
AcDbEntity
  8
$DDT_AUDIT_GENERATED_(10B)
  6
Continuous
 62
     7
100
AcDbSpline
210
0.0
220
0.0
230
1.0
 70
     8
 71
     3
 72
    14
 73
    10
 74
     0
 42
0.0000000006969408
 43
0.0000000001
 40
0.0
 40
0.0
 40
0.0
 40
0.0
 40
0.25
 40
0.25
 40
0.5
 40
0.5
 40
0.75
 40
0.75
 40
1.0
 40
1.0
 40
1.0
 40
1.0
 10
72.28734340957718
 20
192.3308360868632
 30
0.0
 10
71.59425505706504
 20
193.306464529633
 30
0.0
 10
70.5866948892342
 20
194.0124432182803
 30
0.0
 10
68.39604943686041
 20
194.9181569826765
 30
0.0
 10
67.21183513337104
 20
195.1284593793665
 30
0.0
 10
64.83174712454655
 20
195.1246445412295
 30
0.0
 10
63.64872351500295
 20
194.9093452986798
 30
0.0
 10
61.47672047516046
 20
194.0041589840415
 30
0.0
 10
60.47521776192717
 20
193.2991250225696
 30
0.0
 10
59.78734340957717
 20
192.3308360868632
 30
0.0
  0
LINE
  5
1BE
330
13E
100
AcDbEntity
  8
$DDT_AUDIT_GENERATED_(10B)
  6
Continuous
 62
     7
100
AcDbLine
 10
59.7873434096
 20
182.3308360869
 30
0.0
 11
56.1719623528
 21
182.3308360869
 31
0.0
  0
LINE
  5
1BF
330
13E
100
AcDbEntity
  8
$DDT_AUDIT_GENERATED_(10B)
  6
Continuous
 62
     7
100
AcDbLine
 10
49.9219623528
 20
182.3308360869
 30
0.0
 11
49.7873434096
 21
182.3308360869
 31
0.0
  0
LINE
  5
1C0
330
13E
100
AcDbEntity
  8
$DDT_AUDIT_GENERATED_(10B)
  6
Continuous
 62
     7
100
AcDbLine
 10
82.1527244663
 20
182.3308360869
 30
0.0
 11
82.2873434096
 21
182.3308360869
 31
0.0
  0
LINE
  5
1C1
330
13E
100
AcDbEntity
  8
$DDT_AUDIT_GENERATED_(10B)
  6
Continuous
 62
     7
100
AcDbLine
 10
72.2873434096
 20
192.3308360869
 30
0.0
 11
72.2873434096
 21
182.3308360869
 31
0.0
  0
SPLINE
  5
1C2
330
13E
100
AcDbEntity
  8
$DDT_AUDIT_GENERATED_(10B)
  6
Continuous
 62
     7
100
AcDbSpline
210
0.0
220
0.0
230
1.0
 70
     8
 71
     3
 72
    14
 73
    10
 74
     0
 42
0.0000000006969408
 43
0.0000000001
 40
0.0
 40
0.0
 40
0.0
 40
0.0
 40
0.25
 40
0.25
 40
0.5
 40
0.5
 40
0.75
 40
0.75
 40
1.0
 40
1.0
 40
1.0
 40
1.0
 10
72.28734340957718
 20
182.3308360868632
 30
0.0
 10
71.59425505706506
 20
181.3552076440935
 30
0.0
 10
70.5866948892342
 20
180.6492289554461
 30
0.0
 10
68.39604943686042
 20
179.7435151910499
 30
0.0
 10
67.21183513337104
 20
179.5332127943599
 30
0.0
 10
64.83174712454655
 20
179.5370276324969
 30
0.0
 10
63.64872351500295
 20
179.7523268750467
 30
0.0
 10
61.47672047516045
 20
180.6575131896849
 30
0.0
 10
60.47521776192715
 20
181.3625471511569
 30
0.0
 10
59.78734340957717
 20
182.3308360868632
 30
0.0
  0
LINE
  5
1C3
330
13E
100
AcDbEntity
  8
$DDT_AUDIT_GENERATED_(10B)
  6
Continuous
 62
     7
100
AcDbLine
 10
59.7873434096
 20
182.3308360869
 30
0.0
 11
59.7873434096
 21
192.3308360869
 31
0.0
  0
LINE
  5
1C4
330
13E
100
AcDbEntity
  8
$DDT_AUDIT_GENERATED_(10B)
  6
Continuous
 62
     7
100
AcDbLine
 10
56.1719623528
 20
192.3308360869
 30
0.0
 11
56.1719623528
 21
182.3308360869
 31
0.0
  0
SPLINE
  5
1C5
330
13E
100
AcDbEntity
  8
$DDT_AUDIT_GENERATED_(10B)
  6
Continuous
 62
     7
100
AcDbSpline
210
0.0
220
0.0
230
1.0
 70
     8
 71
     3
 72
    14
 73
    10
 74
     0
 42
0.0000000011014719
 43
0.0000000001
 40
0.0
 40
0.0
 40
0.0
 40
0.0
 40
0.2500000000000001
 40
0.2500000000000001
 40
0.5000000000000001
 40
0.5000000000000001
 40
0.7500000000000002
 40
0.7500000000000002
 40
1.0
 40
1.0
 40
1.0
 40
1.0
 10
56.1719623528106
 20
182.3308360868632
 30
0.0
 10
55.82464450418333
 20
181.3530295184101
 30
0.0
 10
55.32671719159993
 20
180.6561710242292
 30
0.0
 10
54.23680912703168
 20
179.7494890723596
 30
0.0
 10
53.64293494562666
 20
179.5355419720404
 30
0.0
 10
52.45452984223777
 20
179.5346748189986
 30
0.0
 10
51.86897605984071
 20
179.7419933772676
 30
0.0
 10
50.76869431673424
 20
180.652591873191
 30
0.0
 10
50.2688975905604
 20
181.3541066857068
 30
0.0
 10
49.9219623528106
 20
182.3308360868632
 30
0.0
  0
LINE
  5
1C6
330
13E
100
AcDbEntity
  8
$DDT_AUDIT_GENERATED_(10B)
  6
Continuous
 62
     7
100
AcDbLine
 10
49.9219623528
 20
182.3308360869
 30
0.0
 11
49.9219623528
 21
192.3308360869
 31
0.0
  0
LINE
  5
1C7
330
13E
100
AcDbEntity
  8
$DDT_AUDIT_GENERATED_(10B)
  6
Continuous
 62
     7
100
AcDbLine
 10
82.1527244663
 20
192.3308360869
 30
0.0
 11
82.1527244663
 21
182.3308360869
 31
0.0
  0
SPLINE
  5
1C8
330
13E
100
AcDbEntity
  8
$DDT_AUDIT_GENERATED_(10B)
  6
Continuous
 62
     7
100
AcDbSpline
210
0.0
220
0.0
230
1.0
 70
     8
 71
     3
 72
    14
 73
    10
 74
     0
 42
0.0000000011014719
 43
0.0000000001
 40
0.0
 40
0.0
 40
0.0
 40
0.0
 40
0.2499999999999999
 40
0.2499999999999999
 40
0.4999999999999999
 40
0.4999999999999999
 40
0.7499999999999999
 40
0.7499999999999999
 40
1.0
 40
1.0
 40
1.0
 40
1.0
 10
82.15272446634376
 20
182.3308360868632
 30
0.0
 10
81.80540661771649
 20
181.3530295184101
 30
0.0
 10
81.30747930513309
 20
180.6561710242292
 30
0.0
 10
80.21757124056484
 20
179.7494890723595
 30
0.0
 10
79.62369705915981
 20
179.5355419720404
 30
0.0
 10
78.43529195577091
 20
179.5346748189986
 30
0.0
 10
77.84973817337388
 20
179.7419933772676
 30
0.0
 10
76.7494564302674
 20
180.652591873191
 30
0.0
 10
76.24965970409356
 20
181.3541066857068
 30
0.0
 10
75.90272446634374
 20
182.3308360868632
 30
0.0
  0
LINE
  5
1C9
330
13E
100
AcDbEntity
  8
$DDT_AUDIT_GENERATED_(10B)
  6
Continuous
 62
     7
100
AcDbLine
 10
75.9027244663
 20
182.3308360869
 30
0.0
 11
75.9027244663
 21
192.3308360869
 31
0.0
  0
LINE
  5
1CA
330
13E
100
AcDbEntity
  8
$DDT_AUDIT_GENERATED_(10B)
  6
Continuous
 62
     7
100
AcDbLine
 10
82.2873434096
 20
182.3308360869
 30
0.0
 11
82.2873434096
 21
192.3308360869
 31
0.0
  0
ARC
  5
1CB
330
13E
100
AcDbEntity
  8
$DDT_AUDIT_GENERATED_(10B)
  6
Continuous
 62
     7
100
AcDbCircle
 10
72.6409410132
 20
184.9665372851
 30
0.0
 40
9.99999999999999
100
AcDbArc
 50
322.1519040322
 51
344.7179936136
  0
ARC
  5
1CC
330
13E
100
AcDbEntity
  8
$DDT_AUDIT_GENERATED_(10B)
  6
Continuous
 62
     7
100
AcDbCircle
 10
59.433745806
 20
184.9665372851
 30
0.0
 40
9.999999999999993
100
AcDbArc
 50
195.2820063864
 51
217.8480959678
  0
ARC
  5
1CD
330
13E
100
AcDbEntity
  8
$DDT_AUDIT_GENERATED_(10B)
  6
Continuous
 62
     7
100
AcDbCircle
 10
72.6409410132
 20
189.6951348887
 30
0.0
 40
9.999999999999993
100
AcDbArc
 50
15.2820063864
 51
37.8480959678
  0
ARC
  5
1CE
330
13E
100
AcDbEntity
  8
$DDT_AUDIT_GENERATED_(10B)
  6
Continuous
 62
     7
100
AcDbCircle
 10
59.433745806
 20
189.6951348887
 30
0.0
 40
9.999999999999995
100
AcDbArc
 50
142.1519040322
 51
164.7179936136
  0
LINE
  5
1CF
330
13E
100
AcDbEntity
  8
$DDT_AUDIT_GENERATED_(10B)
  6
Continuous
 62
     7
100
AcDbLine
 10
49.7873434096
 20
192.3308360869
 30
0.0
 11
49.7873434096
 21
182.3308360869
 31
0.0
  0
LINE
  5
1D1
330
13E
100
AcDbEntity
  8
DV3_Default
  6
CENTER2
 62
     7
100
AcDbLine
 10
86.0373429625
 20
222.1404793335
 30
0.0
 11
46.0373438566
 21
222.1404793335
 31
0.0
  0
LINE
  5
1D2
330
13E
100
AcDbEntity
  8
DV3_Default
  6
CENTER2
 62
     7
100
AcDbLine
 10
66.0373434096
 20
242.1404788864
 30
0.0
 11
66.0373434096
 21
202.1404797805
 31
0.0
  0
LINE
  5
1D3
330
13E
100
AcDbEntity
  8
DV3_Default
  6
CENTER2
 62
     7
100
AcDbLine
 10
236.0373429625
 20
222.1404793335
 30
0.0
 11
196.0373438566
 21
222.1404793335
 31
0.0
  0
LINE
  5
1D4
330
13E
100
AcDbEntity
  8
DV3_Default
  6
CENTER2
 62
     7
100
AcDbLine
 10
216.0373434096
 20
242.1404788864
 30
0.0
 11
216.0373434096
 21
202.1404797805
 31
0.0
  0
ENDBLK
  5
1D6
330
13E
100
AcDbEntity
  8
0
100
AcDbBlockEnd
  0
ENDSEC
  0
SECTION
  2
ENTITIES
  0
INSERT
  5
5F
330
1F
100
AcDbEntity
  8
Default
100
AcDbBlockReference
  2
SE
 10
0.0
 20
0.0
 30
0.0
  0
INSERT
  5
C9
330
1F
100
AcDbEntity
  8
Default
100
AcDbBlockReference
  2
SE1
 10
0.0
 20
0.0
 30
0.0
  0
INSERT
  5
13F
330
1F
100
AcDbEntity
  8
Default
100
AcDbBlockReference
  2
SE2
 10
0.0
 20
0.0
 30
0.0
  0
TEXT
  5
1D8
330
1F
100
AcDbEntity
  8
Default
  6
Continuous
 62
     7
100
AcDbText
 10
5.9362635081
 20
53.4225120485
 30
0.0
 40
10.0
  1
Grohe AG^J
  7
SEACAD_seiso_ttf
 11
5.9362635081
 21
63.4225120485
 31
0.0
100
AcDbText
 73
     3
  0
TEXT
  5
1D9
330
1F
100
AcDbEntity
  8
Default
  6
Continuous
 62
     7
100
AcDbText
 10
5.9362635081
 20
37.0588756849
 30
0.0
 40
10.0
  1
 
  7
SEACAD_seiso_ttf
 11
5.9362635081
 21
47.0588756849
 31
0.0
100
AcDbText
 73
     3
  0
TEXT
  5
1DA
330
1F
100
AcDbEntity
  8
Default
  6
Continuous
 62
     7
100
AcDbText
 10
5.9362635081
 20
20.6952393213
 30
0.0
 40
10.0
  1
ecn:
  7
SEACAD_seiso_ttf
 11
5.9362635081
 21
30.6952393213
 31
0.0
100
AcDbText
 73
     3
  0
TEXT
  5
1DB
330
1F
100
AcDbEntity
  8
Default
  6
Continuous
 62
     7
100
AcDbText
 10
5.9362635081
 20
4.3316029576
 30
0.0
 40
10.0
  1
unit: mm
  7
SEACAD_seiso_ttf
 11
5.9362635081
 21
14.3316029576
 31
0.0
100
AcDbText
 73
     3
  0
LINE
  5
1DC
330
1F
100
AcDbEntity
  8
Default
  6
Continuous
 62
     7
100
AcDbLine
 10
0.0
 20
0.0
 30
0.0
 11
100.0
 21
0.0
 31
0.0
  0
LINE
  5
1DD
330
1F
100
AcDbEntity
  8
Default
  6
Continuous
 62
     7
100
AcDbLine
 10
0.0
 20
0.0
 30
0.0
 11
0.0
 21
100.0
 31
0.0
  0
TEXT
  5
1DE
330
1F
100
AcDbEntity
  8
Default
  6
Continuous
 62
     7
100
AcDbText
 10
24.3923665681
 20
-18.2375342018
 30
0.0
 40
10.0
  1
100 mm
  7
SEACAD_seiso_ttf
 11
24.3923665681
 21
-8.2375342018
 31
0.0
100
AcDbText
 73
     3
  0
TEXT
  5
1DF
330
1F
100
AcDbEntity
  8
Default
  6
Continuous
 62
     7
100
AcDbText
 10
-7.6150308803
 20
24.6231930421
 30
0.0
 40
10.0
  1
100 mm
 50
90.0
  7
SEACAD_seiso_ttf
 11
-17.6150308803
 21
24.6231930421
 31
0.0
100
AcDbText
 73
     3
  0
TEXT
  5
1E0
330
1F
100
AcDbEntity
  8
Default
  6
Continuous
 62
     7
100
AcDbText
 10
28.4878128572
 20
20.0907663715
 30
0.0
 40
10.0
  1
231223
  7
SEACAD_seiso_ttf
 11
28.4878128572
 21
30.0907663715
 31
0.0
100
AcDbText
 73
     3
  0
TEXT
  5
1E1
330
1F
100
AcDbEntity
  8
Default
  6
Continuous
 62
     7
100
AcDbText
 10
5.9012241913
 20
36.7242780188
 30
0.0
 40
10.0
  1
33636001
  7
SEACAD_seiso_ttf
 11
5.9012241913
 21
46.7242780188
 31
0.0
100
AcDbText
 73
     3
  0
ENDSEC
  0
SECTION
  2
OBJECTS
  0
DICTIONARY
  5
C
330
0
100
AcDbDictionary
281
     1
  3
ACAD_GROUP
350
D
  3
ACAD_LAYOUT
350
1A
  3
ACAD_MLEADERSTYLE
350
1E5
  3
ACAD_MLINESTYLE
350
17
  3
ACAD_PLOTSETTINGS
350
19
  3
ACAD_PLOTSTYLENAME
350
E
  3
ACAD_SCALELIST
350
3B
  3
ACAD_TABLESTYLE
350
1E4
  3
ACAD_VISUALSTYLE
350
2A
  3
AcDbVariableDictionary
350
1E2
  0
DICTIONARY
  5
D
102
{ACAD_REACTORS
330
C
102
}
330
C
100
AcDbDictionary
281
     1
  0
DICTIONARY
  5
1A
102
{ACAD_REACTORS
330
C
102
}
330
C
100
AcDbDictionary
281
     1
  3
Layout1
350
1E
  3
Model
350
22
  0
DICTIONARY
  5
1E5
102
{ACAD_REACTORS
330
C
102
}
330
C
100
AcDbDictionary
281
     1
  0
DICTIONARY
  5
17
102
{ACAD_REACTORS
330
C
102
}
330
C
100
AcDbDictionary
281
     1
  3
Standard
350
18
  0
DICTIONARY
  5
19
102
{ACAD_REACTORS
330
C
102
}
330
C
100
AcDbDictionary
281
     1
  0
ACDBDICTIONARYWDFLT
  5
E
102
{ACAD_REACTORS
330
C
102
}
330
C
100
AcDbDictionary
281
     1
  3
Normal
350
F
100
AcDbDictionaryWithDefault
340
F
  0
DICTIONARY
  5
3B
102
{ACAD_REACTORS
330
C
102
}
330
C
100
AcDbDictionary
281
     1
  3
A0
350
3C
  3
A1
350
3D
  3
A2
350
3E
  3
A3
350
3F
  3
A4
350
40
  3
A5
350
41
  3
A6
350
42
  3
A7
350
43
  3
A8
350
44
  3
A9
350
45
  3
B0
350
46
  3
B1
350
47
  3
B2
350
48
  3
B3
350
49
  3
B4
350
4A
  3
B5
350
4B
  3
B6
350
4C
  3
B7
350
4D
  3
B8
350
4E
  3
B9
350
4F
  3
C0
350
50
  3
C1
350
51
  3
C2
350
52
  3
C3
350
53
  3
C4
350
54
  3
C5
350
55
  3
C6
350
56
  3
C7
350
57
  3
C8
350
58
  3
C9
350
59
  3
D0
350
5A
  3
D1
350
5B
  3
D2
350
5C
  0
DICTIONARY
  5
1E4
102
{ACAD_REACTORS
330
C
102
}
330
C
100
AcDbDictionary
281
     1
  0
DICTIONARY
  5
2A
102
{ACAD_REACTORS
330
C
102
}
330
C
100
AcDbDictionary
281
     1
  3
2dWireframe
350
2F
  3
3D Hidden
350
31
  3
3dWireframe
350
30
  3
Basic
350
32
  3
Brighten
350
36
  3
ColorChange
350
3A
  3
Conceptual
350
34
  3
Dim
350
35
  3
Facepattern
350
39
  3
Flat
350
2B
  3
FlatWithEdges
350
2C
  3
Gouraud
350
2D
  3
GouraudWithEdges
350
2E
  3
Linepattern
350
38
  3
Realistic
350
33
  3
Thicken
350
37
  0
DICTIONARY
  5
1E2
102
{ACAD_REACTORS
330
C
102
}
330
C
100
AcDbDictionary
281
     1
  3
CANNOSCALE
350
1E3
  3
PSOLHEIGHT
350
1E7
  3
PSOLWIDTH
350
1E6
  0
LAYOUT
  5
1E
102
{ACAD_REACTORS
330
1A
102
}
330
1A
100
AcDbPlotSettings
  1

  2
none_device
  4

  6

 40
0.0
 41
0.0
 42
0.0
 43
0.0
 44
0.0
 45
0.0
 46
0.0
 47
0.0
 48
0.0
 49
0.0
140
0.0
141
0.0
142
1.0
143
1.0
 70
   688
 72
     0
 73
     0
 74
     5
  7

 75
    16
147
1.0
148
0.0
149
0.0
100
AcDbLayout
  1
Layout1
 70
     1
 71
     1
 10
0.0
 20
0.0
 11
3000.0
 21
4500.0
 12
0.0
 22
0.0
 32
0.0
 14
0.0
 24
0.0
 34
0.0
 15
3000.0
 25
4500.0
 35
0.0
146
0.0
 13
0.0
 23
0.0
 33
0.0
 16
1.0
 26
0.0
 36
0.0
 17
0.0
 27
1.0
 37
0.0
 76
     0
330
1B
  0
LAYOUT
  5
22
102
{ACAD_REACTORS
330
1A
102
}
330
1A
100
AcDbPlotSettings
  1

  2
none_device
  4

  6

 40
0.0
 41
0.0
 42
0.0
 43
0.0
 44
0.0
 45
0.0
 46
0.0
 47
0.0
 48
0.0
 49
0.0
140
0.0
141
0.0
142
1.0
143
1.0
 70
  1712
 72
     0
 73
     0
 74
     0
  7

 75
     0
147
1.0
148
0.0
149
0.0
100
AcDbLayout
  1
Model
 70
     1
 71
     0
 10
0.0
 20
0.0
 11
3000.0
 21
4500.0
 12
0.0
 22
0.0
 32
0.0
 14
0.0
 24
0.0
 34
0.0
 15
3000.0
 25
4500.0
 35
0.0
146
0.0
 13
0.0
 23
0.0
 33
0.0
 16
1.0
 26
0.0
 36
0.0
 17
0.0
 27
1.0
 37
0.0
 76
     0
330
1F
331
29
  0
MLINESTYLE
  5
18
102
{ACAD_REACTORS
330
17
102
}
330
17
100
AcDbMlineStyle
  2
Standard
 70
     0
  3

 62
   256
 51
90.0
 52
90.0
 71
     2
 49
0.5
 62
   256
  6
BYLAYER
 49
-0.5
 62
   256
  6
BYLAYER
  0
ACDBPLACEHOLDER
  5
F
102
{ACAD_REACTORS
330
E
102
}
330
E
  0
SCALE
  5
3C
102
{ACAD_REACTORS
330
3B
102
}
330
3B
100
AcDbScale
 70
     0
300
1:1
140
1.0
141
1.0
290
     1
  0
SCALE
  5
3D
102
{ACAD_REACTORS
330
3B
102
}
330
3B
100
AcDbScale
 70
     0
300
1:2
140
1.0
141
2.0
290
     0
  0
SCALE
  5
3E
102
{ACAD_REACTORS
330
3B
102
}
330
3B
100
AcDbScale
 70
     0
300
1:4
140
1.0
141
4.0
290
     0
  0
SCALE
  5
3F
102
{ACAD_REACTORS
330
3B
102
}
330
3B
100
AcDbScale
 70
     0
300
1:5
140
1.0
141
5.0
290
     0
  0
SCALE
  5
40
102
{ACAD_REACTORS
330
3B
102
}
330
3B
100
AcDbScale
 70
     0
300
1:8
140
1.0
141
8.0
290
     0
  0
SCALE
  5
41
102
{ACAD_REACTORS
330
3B
102
}
330
3B
100
AcDbScale
 70
     0
300
1:10
140
1.0
141
10.0
290
     0
  0
SCALE
  5
42
102
{ACAD_REACTORS
330
3B
102
}
330
3B
100
AcDbScale
 70
     0
300
1:16
140
1.0
141
16.0
290
     0
  0
SCALE
  5
43
102
{ACAD_REACTORS
330
3B
102
}
330
3B
100
AcDbScale
 70
     0
300
1:20
140
1.0
141
20.0
290
     0
  0
SCALE
  5
44
102
{ACAD_REACTORS
330
3B
102
}
330
3B
100
AcDbScale
 70
     0
300
1:30
140
1.0
141
30.0
290
     0
  0
SCALE
  5
45
102
{ACAD_REACTORS
330
3B
102
}
330
3B
100
AcDbScale
 70
     0
300
1:40
140
1.0
141
40.0
290
     0
  0
SCALE
  5
46
102
{ACAD_REACTORS
330
3B
102
}
330
3B
100
AcDbScale
 70
     0
300
1:50
140
1.0
141
50.0
290
     0
  0
SCALE
  5
47
102
{ACAD_REACTORS
330
3B
102
}
330
3B
100
AcDbScale
 70
     0
300
1:100
140
1.0
141
100.0
290
     0
  0
SCALE
  5
48
102
{ACAD_REACTORS
330
3B
102
}
330
3B
100
AcDbScale
 70
     0
300
2:1
140
2.0
141
1.0
290
     0
  0
SCALE
  5
49
102
{ACAD_REACTORS
330
3B
102
}
330
3B
100
AcDbScale
 70
     0
300
4:1
140
4.0
141
1.0
290
     0
  0
SCALE
  5
4A
102
{ACAD_REACTORS
330
3B
102
}
330
3B
100
AcDbScale
 70
     0
300
8:1
140
8.0
141
1.0
290
     0
  0
SCALE
  5
4B
102
{ACAD_REACTORS
330
3B
102
}
330
3B
100
AcDbScale
 70
     0
300
10:1
140
10.0
141
1.0
290
     0
  0
SCALE
  5
4C
102
{ACAD_REACTORS
330
3B
102
}
330
3B
100
AcDbScale
 70
     0
300
100:1
140
100.0
141
1.0
290
     0
  0
SCALE
  5
4D
102
{ACAD_REACTORS
330
3B
102
}
330
3B
100
AcDbScale
 70
     0
300
1/128" = 1'-0"
140
0.0078125
141
12.0
290
     0
  0
SCALE
  5
4E
102
{ACAD_REACTORS
330
3B
102
}
330
3B
100
AcDbScale
 70
     0
300
1/64" = 1'-0"
140
0.015625
141
12.0
290
     0
  0
SCALE
  5
4F
102
{ACAD_REACTORS
330
3B
102
}
330
3B
100
AcDbScale
 70
     0
300
1/32" = 1'-0"
140
0.03125
141
12.0
290
     0
  0
SCALE
  5
50
102
{ACAD_REACTORS
330
3B
102
}
330
3B
100
AcDbScale
 70
     0
300
1/16" = 1'-0"
140
0.0625
141
12.0
290
     0
  0
SCALE
  5
51
102
{ACAD_REACTORS
330
3B
102
}
330
3B
100
AcDbScale
 70
     0
300
3/32" = 1'-0"
140
0.09375
141
12.0
290
     0
  0
SCALE
  5
52
102
{ACAD_REACTORS
330
3B
102
}
330
3B
100
AcDbScale
 70
     0
300
1/8" = 1'-0"
140
0.125
141
12.0
290
     0
  0
SCALE
  5
53
102
{ACAD_REACTORS
330
3B
102
}
330
3B
100
AcDbScale
 70
     0
300
3/16" = 1'-0"
140
0.1875
141
12.0
290
     0
  0
SCALE
  5
54
102
{ACAD_REACTORS
330
3B
102
}
330
3B
100
AcDbScale
 70
     0
300
1/4" = 1'-0"
140
0.25
141
12.0
290
     0
  0
SCALE
  5
55
102
{ACAD_REACTORS
330
3B
102
}
330
3B
100
AcDbScale
 70
     0
300
3/8" = 1'-0"
140
0.375
141
12.0
290
     0
  0
SCALE
  5
56
102
{ACAD_REACTORS
330
3B
102
}
330
3B
100
AcDbScale
 70
     0
300
1/2" = 1'-0"
140
0.5
141
12.0
290
     0
  0
SCALE
  5
57
102
{ACAD_REACTORS
330
3B
102
}
330
3B
100
AcDbScale
 70
     0
300
3/4" = 1'-0"
140
0.75
141
12.0
290
     0
  0
SCALE
  5
58
102
{ACAD_REACTORS
330
3B
102
}
330
3B
100
AcDbScale
 70
     0
300
1" = 1'-0"
140
1.0
141
12.0
290
     0
  0
SCALE
  5
59
102
{ACAD_REACTORS
330
3B
102
}
330
3B
100
AcDbScale
 70
     0
300
1-1/2" = 1'-0"
140
1.5
141
12.0
290
     0
  0
SCALE
  5
5A
102
{ACAD_REACTORS
330
3B
102
}
330
3B
100
AcDbScale
 70
     0
300
3" = 1'-0"
140
3.0
141
12.0
290
     0
  0
SCALE
  5
5B
102
{ACAD_REACTORS
330
3B
102
}
330
3B
100
AcDbScale
 70
     0
300
6" = 1'-0"
140
6.0
141
12.0
290
     0
  0
SCALE
  5
5C
102
{ACAD_REACTORS
330
3B
102
}
330
3B
100
AcDbScale
 70
     0
300
1'-0" = 1'-0"
140
12.0
141
12.0
290
     0
  0
VISUALSTYLE
  5
2F
102
{ACAD_REACTORS
330
2A
102
}
330
2A
100
AcDbVisualStyle
  2
2dWireframe
 70
     4
 71
     0
 72
     2
 73
     0
 90
        0
 40
-0.6
 41
-30.0
 62
     5
 63
     7
 74
     1
 91
        4
 64
     7
 65
   257
 75
     1
175
     1
 42
1.0
 92
        0
 66
   257
 43
1.0
 76
     1
 77
     6
 78
     2
 67
     7
 79
     5
170
     0
171
     0
290
     0
174
     0
 93
        1
 44
0.0
173
     0
291
     0
 45
0.0
1001
ACAD
1000
AcDbSavedByObjectVersion
1070
     0
  0
VISUALSTYLE
  5
31
102
{ACAD_REACTORS
330
2A
102
}
330
2A
100
AcDbVisualStyle
  2
3D Hidden
 70
     6
 71
     1
 72
     2
 73
     2
 90
        0
 40
-0.6
 41
-30.0
 62
     5
 63
     7
 74
     2
 91
        2
 64
     7
 65
   257
 75
     2
175
     1
 42
40.0
 92
        0
 66
   257
 43
1.0
 76
     1
 77
     6
 78
     2
 67
     7
 79
     3
170
     0
171
     0
290
     0
174
     0
 93
        1
 44
0.0
173
     0
291
     0
 45
0.0
1001
ACAD
1000
AcDbSavedByObjectVersion
1070
     0
  0
VISUALSTYLE
  5
30
102
{ACAD_REACTORS
330
2A
102
}
330
2A
100
AcDbVisualStyle
  2
3dWireframe
 70
     5
 71
     0
 72
     2
 73
     0
 90
        0
 40
-0.6
 41
-30.0
 62
     5
 63
     7
 74
     1
 91
        4
 64
     7
 65
   257
 75
     1
175
     1
 42
1.0
 92
        0
 66
   257
 43
1.0
 76
     1
 77
     6
 78
     2
 67
     7
 79
     5
170
     0
171
     0
290
     0
174
     0
 93
        1
 44
0.0
173
     0
291
     0
 45
0.0
1001
ACAD
1000
AcDbSavedByObjectVersion
1070
     0
  0
VISUALSTYLE
  5
32
102
{ACAD_REACTORS
330
2A
102
}
330
2A
100
AcDbVisualStyle
  2
Basic
 70
     7
 71
     1
 72
     0
 73
     1
 90
        0
 40
-0.6
 41
-30.0
 62
     5
 63
     7
 74
     0
 91
        4
 64
     7
 65
   257
 75
     1
175
     1
 42
1.0
 92
        8
 66
     7
 43
1.0
 76
     1
 77
     6
 78
     2
 67
     7
 79
     5
170
     0
171
     0
290
     0
174
     0
 93
        1
 44
0.0
173
     0
291
     1
 45
0.0
1001
ACAD
1000
AcDbSavedByObjectVersion
1070
     0
  0
VISUALSTYLE
  5
36
102
{ACAD_REACTORS
330
2A
102
}
330
2A
100
AcDbVisualStyle
  2
Brighten
 70
    12
 71
     2
 72
     2
 73
     0
 90
        0
 40
-0.6
 41
-30.0
 62
     5
 63
     7
 74
     1
 91
        4
 64
     7
 65
   257
 75
     1
175
     1
 42
1.0
 92
        8
 66
     7
 43
1.0
 76
     1
 77
     6
 78
     2
 67
     7
 79
     5
170
     0
171
     0
290
     0
174
     0
 93
        1
 44
50.0
173
     0
291
     1
 45
0.0
1001
ACAD
1000
AcDbSavedByObjectVersion
1070
     0
  0
VISUALSTYLE
  5
3A
102
{ACAD_REACTORS
330
2A
102
}
330
2A
100
AcDbVisualStyle
  2
ColorChange
 70
    16
 71
     2
 72
     2
 73
     3
 90
        0
 40
-0.6
 41
-30.0
 62
     5
 63
     8
 74
     1
 91
        4
 64
     7
 65
   257
 75
     1
175
     1
 42
1.0
 92
        8
 66
     8
 43
1.0
 76
     1
 77
     6
 78
     2
 67
     7
 79
     5
170
     0
171
     0
290
     0
174
     0
 93
        1
 44
0.0
173
     0
291
     1
 45
0.0
1001
ACAD
1000
AcDbSavedByObjectVersion
1070
     0
  0
VISUALSTYLE
  5
34
102
{ACAD_REACTORS
330
2A
102
}
330
2A
100
AcDbVisualStyle
  2
Conceptual
 70
     9
 71
     3
 72
     2
 73
     0
 90
        0
 40
-0.6
 41
-30.0
 62
     5
 63
     7
 74
     2
 91
        2
 64
     7
 65
   257
 75
     1
175
     1
 42
40.0
 92
        8
 66
     7
 43
1.0
 76
     1
 77
     6
 78
     2
 67
     7
 79
     3
170
     0
171
     0
290
     0
174
     0
 93
        1
 44
0.0
173
     0
291
     0
 45
0.0
1001
ACAD
1000
AcDbSavedByObjectVersion
1070
     0
  0
VISUALSTYLE
  5
35
102
{ACAD_REACTORS
330
2A
102
}
330
2A
100
AcDbVisualStyle
  2
Dim
 70
    11
 71
     2
 72
     2
 73
     0
 90
        0
 40
-0.6
 41
-30.0
 62
     5
 63
     7
 74
     1
 91
        4
 64
     7
 65
   257
 75
     1
175
     1
 42
1.0
 92
        8
 66
     7
 43
1.0
 76
     1
 77
     6
 78
     2
 67
     7
 79
     5
170
     0
171
     0
290
     0
174
     0
 93
        1
 44
-50.0
173
     0
291
     1
 45
0.0
1001
ACAD
1000
AcDbSavedByObjectVersion
1070
     0
  0
VISUALSTYLE
  5
39
102
{ACAD_REACTORS
330
2A
102
}
330
2A
100
AcDbVisualStyle
  2
Facepattern
 70
    15
 71
     2
 72
     2
 73
     0
 90
        0
 40
-0.6
 41
-30.0
 62
     5
 63
     7
 74
     1
 91
        4
 64
     7
 65
   257
 75
     1
175
     1
 42
1.0
 92
        8
 66
     7
 43
1.0
 76
     1
 77
     6
 78
     2
 67
     7
 79
     5
170
     0
171
     0
290
     0
174
     0
 93
        1
 44
0.0
173
     0
291
     1
 45
0.0
1001
ACAD
1000
AcDbSavedByObjectVersion
1070
     0
  0
VISUALSTYLE
  5
2B
102
{ACAD_REACTORS
330
2A
102
}
330
2A
100
AcDbVisualStyle
  2
Flat
 70
     0
 71
     2
 72
     1
 73
     1
 90
        2
 40
-0.6
 41
30.0
 62
     5
 63
     7
 74
     0
 91
        4
 64
     7
 65
   257
 75
     1
175
     1
 42
1.0
 92
        8
 66
     7
 43
1.0
 76
     1
 77
     6
 78
     2
 67
     7
 79
     5
170
     0
171
     0
290
     0
174
     0
 93
       13
 44
0.0
173
     0
291
     1
 45
0.0
1001
ACAD
1000
AcDbSavedByObjectVersion
1070
     0
  0
VISUALSTYLE
  5
2C
102
{ACAD_REACTORS
330
2A
102
}
330
2A
100
AcDbVisualStyle
  2
FlatWithEdges
 70
     1
 71
     2
 72
     1
 73
     1
 90
        2
 40
-0.6
 41
30.0
 62
     5
 63
     7
 74
     1
 91
        4
 64
     7
 65
   257
 75
     1
175
     1
 42
1.0
 92
        0
 66
   257
 43
1.0
 76
     1
 77
     6
 78
     2
 67
     7
 79
     5
170
     0
171
     0
290
     0
174
     0
 93
       13
 44
0.0
173
     0
291
     1
 45
0.0
1001
ACAD
1000
AcDbSavedByObjectVersion
1070
     0
  0
VISUALSTYLE
  5
2D
102
{ACAD_REACTORS
330
2A
102
}
330
2A
100
AcDbVisualStyle
  2
Gouraud
 70
     2
 71
     2
 72
     2
 73
     1
 90
        2
 40
-0.6
 41
30.0
 62
     5
 63
     7
 74
     0
 91
        4
 64
     7
 65
   257
 75
     1
175
     1
 42
1.0
 92
        0
 66
     7
 43
1.0
 76
     1
 77
     6
 78
     2
 67
     7
 79
     5
170
     0
171
     0
290
     0
174
     0
 93
       13
 44
0.0
173
     0
291
     1
 45
0.0
1001
ACAD
1000
AcDbSavedByObjectVersion
1070
     0
  0
VISUALSTYLE
  5
2E
102
{ACAD_REACTORS
330
2A
102
}
330
2A
100
AcDbVisualStyle
  2
GouraudWithEdges
 70
     3
 71
     2
 72
     2
 73
     1
 90
        2
 40
-0.6
 41
30.0
 62
     5
 63
     7
 74
     1
 91
        4
 64
     7
 65
   257
 75
     1
175
     1
 42
1.0
 92
        0
 66
   257
 43
1.0
 76
     1
 77
     6
 78
     2
 67
     7
 79
     5
170
     0
171
     0
290
     0
174
     0
 93
       13
 44
0.0
173
     0
291
     1
 45
0.0
1001
ACAD
1000
AcDbSavedByObjectVersion
1070
     0
  0
VISUALSTYLE
  5
38
102
{ACAD_REACTORS
330
2A
102
}
330
2A
100
AcDbVisualStyle
  2
Linepattern
 70
    14
 71
     2
 72
     2
 73
     0
 90
        0
 40
-0.6
 41
-30.0
 62
     5
 63
     7
 74
     1
 91
        4
 64
     7
 65
   257
 75
     7
175
     7
 42
1.0
 92
        8
 66
     7
 43
1.0
 76
     1
 77
     6
 78
     2
 67
     7
 79
     5
170
     0
171
     0
290
     0
174
     0
 93
        1
 44
0.0
173
     0
291
     1
 45
0.0
1001
ACAD
1000
AcDbSavedByObjectVersion
1070
     0
  0
VISUALSTYLE
  5
33
102
{ACAD_REACTORS
330
2A
102
}
330
2A
100
AcDbVisualStyle
  2
Realistic
 70
     8
 71
     2
 72
     2
 73
     0
 90
        0
 40
-0.6
 41
-30.0
 62
     5
 63
     7
 74
     1
 91
        0
 64
     7
 65
   257
 75
     1
175
     1
 42
1.0
 92
        8
 66
     8
 43
1.0
 76
     1
 77
     6
 78
     2
 67
     7
 79
     5
170
     0
171
     0
290
     0
174
     0
 93
       13
 44
0.0
173
     0
291
     0
 45
0.0
1001
ACAD
1000
AcDbSavedByObjectVersion
1070
     0
  0
VISUALSTYLE
  5
37
102
{ACAD_REACTORS
330
2A
102
}
330
2A
100
AcDbVisualStyle
  2
Thicken
 70
    13
 71
     2
 72
     2
 73
     0
 90
        0
 40
-0.6
 41
-30.0
 62
     5
 63
     7
 74
     1
 91
        4
 64
     7
 65
   257
 75
     1
175
     1
 42
1.0
 92
       12
 66
     7
 43
1.0
 76
     1
 77
     6
 78
     2
 67
     7
 79
     5
170
     0
171
     0
290
     0
174
     0
 93
        1
 44
0.0
173
     0
291
     1
 45
0.0
1001
ACAD
1000
AcDbSavedByObjectVersion
1070
     0
  0
DICTIONARYVAR
  5
1E3
102
{ACAD_REACTORS
330
1E2
102
}
330
1E2
100
DictionaryVariables
280
     0
  1
1:1
  0
DICTIONARYVAR
  5
1E7
102
{ACAD_REACTORS
330
1E2
102
}
330
1E2
100
DictionaryVariables
280
     0
  1
80.000000
  0
DICTIONARYVAR
  5
1E6
102
{ACAD_REACTORS
330
1E2
102
}
330
1E2
100
DictionaryVariables
280
     0
  1
5.000000
  0
ENDSEC
  0
EOF
