  0
SECTION
  2
HEADER
  9
$ACADVER
  1
AC1015
  9
$ACADMAINTVER
 70
     6
  9
$DWGCODEPAGE
  3
ANSI_1252
  9
$INSBASE
 10
0.0
 20
0.0
 30
0.0
  9
$EXTMIN
 10
0.0
 20
0.0
 30
0.0
  9
$EXTMAX
 10
3000.0
 20
4500.0
 30
0.0
  9
$LIMMIN
 10
0.0
 20
0.0
  9
$LIMMAX
 10
3000.0
 20
4500.0
  9
$ORTHOMODE
 70
     0
  9
$REGENMODE
 70
     1
  9
$FILLMODE
 70
     1
  9
$QTEXTMODE
 70
     0
  9
$MIRRTEXT
 70
     1
  9
$LTSCALE
 40
1.0
  9
$ATTMODE
 70
     1
  9
$TEXTSIZE
 40
2.5
  9
$TRACEWID
 40
1.0
  9
$TEXTSTYLE
  7
Standard
  9
$CLAYER
  8
0
  9
$CELTYPE
  6
ByLayer
  9
$CECOLOR
 62
   256
  9
$CELTSCALE
 40
1.0
  9
$DISPSILH
 70
     0
  9
$DIMSCALE
 40
1.0
  9
$DIMASZ
 40
2.5
  9
$DIMEXO
 40
0.625
  9
$DIMDLI
 40
3.75
  9
$DIMRND
 40
0.0
  9
$DIMDLE
 40
0.0
  9
$DIMEXE
 40
1.25
  9
$DIMTP
 40
0.0
  9
$DIMTM
 40
0.0
  9
$DIMTXT
 40
2.5
  9
$DIMCEN
 40
2.5
  9
$DIMTSZ
 40
0.0
  9
$DIMTOL
 70
     0
  9
$DIMLIM
 70
     0
  9
$DIMTIH
 70
     0
  9
$DIMTOH
 70
     0
  9
$DIMSE1
 70
     0
  9
$DIMSE2
 70
     0
  9
$DIMTAD
 70
     1
  9
$DIMZIN
 70
     8
  9
$DIMBLK
  1

  9
$DIMASO
 70
     1
  9
$DIMSHO
 70
     1
  9
$DIMPOST
  1

  9
$DIMAPOST
  1

  9
$DIMALT
 70
     0
  9
$DIMALTD
 70
     3
  9
$DIMALTF
 40
0.0393700787
  9
$DIMLFAC
 40
1.0
  9
$DIMTOFL
 70
     1
  9
$DIMTVP
 40
0.0
  9
$DIMTIX
 70
     0
  9
$DIMSOXD
 70
     0
  9
$DIMSAH
 70
     0
  9
$DIMBLK1
  1

  9
$DIMBLK2
  1

  9
$DIMSTYLE
  2
ISO-25
  9
$DIMCLRD
 70
     0
  9
$DIMCLRE
 70
     0
  9
$DIMCLRT
 70
     0
  9
$DIMTFAC
 40
1.0
  9
$DIMGAP
 40
0.625
  9
$DIMJUST
 70
     0
  9
$DIMSD1
 70
     0
  9
$DIMSD2
 70
     0
  9
$DIMTOLJ
 70
     0
  9
$DIMTZIN
 70
     8
  9
$DIMALTZ
 70
     0
  9
$DIMALTTZ
 70
     0
  9
$DIMUPT
 70
     0
  9
$DIMDEC
 70
     2
  9
$DIMTDEC
 70
     2
  9
$DIMALTU
 70
     2
  9
$DIMALTTD
 70
     3
  9
$DIMTXSTY
  7
Standard
  9
$DIMAUNIT
 70
     0
  9
$DIMADEC
 70
     0
  9
$DIMALTRND
 40
0.0
  9
$DIMAZIN
 70
     0
  9
$DIMDSEP
 70
    44
  9
$DIMATFIT
 70
     3
  9
$DIMFRAC
 70
     0
  9
$DIMLDRBLK
  1

  9
$DIMLUNIT
 70
     2
  9
$DIMLWD
 70
    -2
  9
$DIMLWE
 70
    -2
  9
$DIMTMOVE
 70
     0
  9
$LUNITS
 70
     2
  9
$LUPREC
 70
     4
  9
$SKETCHINC
 40
1.0
  9
$FILLETRAD
 40
10.0
  9
$AUNITS
 70
     0
  9
$AUPREC
 70
     0
  9
$MENU
  1
.
  9
$ELEVATION
 40
0.0
  9
$PELEVATION
 40
0.0
  9
$THICKNESS
 40
0.0
  9
$LIMCHECK
 70
     0
  9
$CHAMFERA
 40
10.0
  9
$CHAMFERB
 40
10.0
  9
$CHAMFERC
 40
20.0
  9
$CHAMFERD
 40
0.0
  9
$SKPOLY
 70
     0
  9
$TDCREATE
 40
2456904.447057384
  9
$TDUCREATE
 40
2456904.363724051
  9
$TDUPDATE
 40
2456904.447057396
  9
$TDUUPDATE
 40
2456904.363724063
  9
$TDINDWG
 40
0.0000000116
  9
$TDUSRTIMER
 40
0.0000000116
  9
$USRTIMER
 70
     1
  9
$ANGBASE
 50
0.0
  9
$ANGDIR
 70
     0
  9
$PDMODE
 70
     0
  9
$PDSIZE
 40
0.0
  9
$PLINEWID
 40
0.0
  9
$SPLFRAME
 70
     0
  9
$SPLINETYPE
 70
     6
  9
$SPLINESEGS
 70
     8
  9
$HANDSEED
  5
371
  9
$SURFTAB1
 70
     6
  9
$SURFTAB2
 70
     6
  9
$SURFTYPE
 70
     6
  9
$SURFU
 70
     6
  9
$SURFV
 70
     6
  9
$UCSBASE
  2

  9
$UCSNAME
  2

  9
$UCSORG
 10
0.0
 20
0.0
 30
0.0
  9
$UCSXDIR
 10
1.0
 20
0.0
 30
0.0
  9
$UCSYDIR
 10
0.0
 20
1.0
 30
0.0
  9
$UCSORTHOREF
  2

  9
$UCSORTHOVIEW
 70
     0
  9
$UCSORGTOP
 10
0.0
 20
0.0
 30
0.0
  9
$UCSORGBOTTOM
 10
0.0
 20
0.0
 30
0.0
  9
$UCSORGLEFT
 10
0.0
 20
0.0
 30
0.0
  9
$UCSORGRIGHT
 10
0.0
 20
0.0
 30
0.0
  9
$UCSORGFRONT
 10
0.0
 20
0.0
 30
0.0
  9
$UCSORGBACK
 10
0.0
 20
0.0
 30
0.0
  9
$PUCSBASE
  2

  9
$PUCSNAME
  2

  9
$PUCSORG
 10
0.0
 20
0.0
 30
0.0
  9
$PUCSXDIR
 10
1.0
 20
0.0
 30
0.0
  9
$PUCSYDIR
 10
0.0
 20
1.0
 30
0.0
  9
$PUCSORTHOREF
  2

  9
$PUCSORTHOVIEW
 70
     0
  9
$PUCSORGTOP
 10
0.0
 20
0.0
 30
0.0
  9
$PUCSORGBOTTOM
 10
0.0
 20
0.0
 30
0.0
  9
$PUCSORGLEFT
 10
0.0
 20
0.0
 30
0.0
  9
$PUCSORGRIGHT
 10
0.0
 20
0.0
 30
0.0
  9
$PUCSORGFRONT
 10
0.0
 20
0.0
 30
0.0
  9
$PUCSORGBACK
 10
0.0
 20
0.0
 30
0.0
  9
$USERI1
 70
     0
  9
$USERI2
 70
     0
  9
$USERI3
 70
     0
  9
$USERI4
 70
     0
  9
$USERI5
 70
     0
  9
$USERR1
 40
0.0
  9
$USERR2
 40
0.0
  9
$USERR3
 40
0.0
  9
$USERR4
 40
0.0
  9
$USERR5
 40
0.0
  9
$WORLDVIEW
 70
     1
  9
$SHADEDGE
 70
     3
  9
$SHADEDIF
 70
    70
  9
$TILEMODE
 70
     1
  9
$MAXACTVP
 70
    64
  9
$PINSBASE
 10
0.0
 20
0.0
 30
0.0
  9
$PLIMCHECK
 70
     0
  9
$PEXTMIN
 10
0.0
 20
0.0
 30
0.0
  9
$PEXTMAX
 10
3000.0
 20
4500.0
 30
0.0
  9
$PLIMMIN
 10
0.0
 20
0.0
  9
$PLIMMAX
 10
3000.0
 20
4500.0
  9
$UNITMODE
 70
     0
  9
$VISRETAIN
 70
     1
  9
$PLINEGEN
 70
     0
  9
$PSLTSCALE
 70
     1
  9
$TREEDEPTH
 70
  3020
  9
$CMLSTYLE
  2
Standard
  9
$CMLJUST
 70
     0
  9
$CMLSCALE
 40
20.0
  9
$PROXYGRAPHICS
 70
     1
  9
$MEASUREMENT
 70
     1
  9
$CELWEIGHT
370
    -1
  9
$ENDCAPS
280
     0
  9
$JOINSTYLE
280
     0
  9
$LWDISPLAY
290
     0
  9
$INSUNITS
 70
     4
  9
$HYPERLINKBASE
  1

  9
$STYLESHEET
  1

  9
$XEDIT
290
     1
  9
$CEPSNTYPE
380
     0
  9
$PSTYLEMODE
290
     1
  9
$FINGERPRINTGUID
  2
{AB630B2D-75F8-4FEA-8086-DB7ADCD1F7D9}
  9
$VERSIONGUID
  2
{FAEB1C32-E019-11D5-929B-00C0DF256EC4}
  9
$EXTNAMES
290
     1
  9
$PSVPSCALE
 40
0.0
  9
$OLESTARTUP
290
     0
  0
ENDSEC
  0
SECTION
  2
CLASSES
  0
CLASS
  1
ACDBDICTIONARYWDFLT
  2
AcDbDictionaryWithDefault
  3
ObjectDBX Classes
 90
        0
280
     0
281
     0
  0
CLASS
  1
VISUALSTYLE
  2
AcDbVisualStyle
  3
ObjectDBX Classes
 90
     4095
280
     0
281
     0
  0
CLASS
  1
SCALE
  2
AcDbScale
  3
ObjectDBX Classes
 90
     1153
280
     0
281
     0
  0
CLASS
  1
DICTIONARYVAR
  2
AcDbDictionaryVar
  3
ObjectDBX Classes
 90
        0
280
     0
281
     0
  0
CLASS
  1
ACDBPLACEHOLDER
  2
AcDbPlaceHolder
  3
ObjectDBX Classes
 90
        0
280
     0
281
     0
  0
CLASS
  1
LAYOUT
  2
AcDbLayout
  3
ObjectDBX Classes
 90
        0
280
     0
281
     0
  0
ENDSEC
  0
SECTION
  2
TABLES
  0
TABLE
  2
VPORT
  5
8
330
0
100
AcDbSymbolTable
 70
     1
  0
VPORT
  5
29
330
8
100
AcDbSymbolTableRecord
100
AcDbViewportTableRecord
  2
*Active
 70
     0
 10
0.0
 20
0.0
 11
1.0
 21
1.0
 12
344.1869158879
 22
148.5
 13
0.0
 23
0.0
 14
10.0
 24
10.0
 15
10.0
 25
10.0
 16
0.0
 26
0.0
 36
1.0
 17
0.0
 27
0.0
 37
0.0
 40
297.0
 41
1.9729729729
 42
50.0
 43
0.0
 44
0.0
 50
0.0
 51
0.0
 71
     0
 72
   100
 73
     1
 74
     3
 75
     0
 76
     0
 77
     0
 78
     0
281
     0
 65
     1
110
0.0
120
0.0
130
0.0
111
1.0
121
0.0
131
0.0
112
0.0
122
1.0
132
0.0
 79
     0
146
0.0
  0
ENDTAB
  0
TABLE
  2
LTYPE
  5
5
330
0
100
AcDbSymbolTable
 70
     2
  0
LTYPE
  5
14
330
5
100
AcDbSymbolTableRecord
100
AcDbLinetypeTableRecord
  2
ByBlock
 70
     0
  3

 72
    65
 73
     0
 40
0.0
  0
LTYPE
  5
15
330
5
100
AcDbSymbolTableRecord
100
AcDbLinetypeTableRecord
  2
ByLayer
 70
     0
  3

 72
    65
 73
     0
 40
0.0
  0
LTYPE
  5
16
330
5
100
AcDbSymbolTableRecord
100
AcDbLinetypeTableRecord
  2
Continuous
 70
     0
  3
Solid line
 72
    65
 73
     0
 40
0.0
  0
LTYPE
  5
60
330
5
100
AcDbSymbolTableRecord
100
AcDbLinetypeTableRecord
  2
CENTER2
 70
     0
  3
Center (.5x) ___ _ ___ _ ___ _ ___ _ ___ _ ___
 72
    65
 73
     4
 40
28.575
 49
19.05
 74
     4
 75
     0
340
0
 46
0.0
 50
0.0
 44
0.0
 45
0.0
 49
-3.175
 74
     4
 75
     0
340
0
 46
0.0
 50
0.0
 44
0.0
 45
0.0
 49
3.175
 74
     4
 75
     0
340
0
 46
0.0
 50
0.0
 44
0.0
 45
0.0
 49
-3.175
 74
     4
 75
     0
340
0
 46
0.0
 50
0.0
 44
0.0
 45
0.0
  0
ENDTAB
  0
TABLE
  2
LAYER
  5
2
330
0
100
AcDbSymbolTable
 70
     5
  0
LAYER
  5
10
330
2
100
AcDbSymbolTableRecord
100
AcDbLayerTableRecord
  2
0
 70
     0
 62
     7
  6
Continuous
370
    -3
390
F
  0
LAYER
  5
5D
330
2
100
AcDbSymbolTableRecord
100
AcDbLayerTableRecord
  2
Default
 70
     0
 62
     7
  6
Continuous
370
    -3
390
F
  0
LAYER
  5
BF
330
2
100
AcDbSymbolTableRecord
100
AcDbLayerTableRecord
  2
DV1_Default
 70
     0
 62
     7
  6
Continuous
370
    -3
390
F
  0
LAYER
  5
1B8
330
2
100
AcDbSymbolTableRecord
100
AcDbLayerTableRecord
  2
DV2_Default
 70
     0
 62
     7
  6
Continuous
370
    -3
390
F
  0
LAYER
  5
26C
330
2
100
AcDbSymbolTableRecord
100
AcDbLayerTableRecord
  2
DV3_Default
 70
     0
 62
     7
  6
Continuous
370
    -3
390
F
  0
ENDTAB
  0
TABLE
  2
STYLE
  5
3
330
0
100
AcDbSymbolTable
 70
     2
  0
STYLE
  5
11
330
3
100
AcDbSymbolTableRecord
100
AcDbTextStyleTableRecord
  2
Standard
 70
     0
 40
0.0
 41
1.0
 50
0.0
 71
     0
 42
2.5
  3
txt
  4

  0
STYLE
  5
360
330
3
100
AcDbSymbolTableRecord
100
AcDbTextStyleTableRecord
  2
SEACAD_seiso_ttf
 70
     0
 40
0.0
 41
1.0
 50
0.0
 71
     0
 42
0.2
  3
seiso.ttf
  4

  0
ENDTAB
  0
TABLE
  2
VIEW
  5
6
330
0
100
AcDbSymbolTable
 70
     0
  0
ENDTAB
  0
TABLE
  2
UCS
  5
7
330
0
100
AcDbSymbolTable
 70
     0
  0
ENDTAB
  0
TABLE
  2
APPID
  5
9
330
0
100
AcDbSymbolTable
 70
     1
  0
APPID
  5
12
330
9
100
AcDbSymbolTableRecord
100
AcDbRegAppTableRecord
  2
ACAD
 70
     0
  0
ENDTAB
  0
TABLE
  2
DIMSTYLE
  5
A
330
0
100
AcDbSymbolTable
 70
     1
100
AcDbDimStyleTable
  0
DIMSTYLE
105
27
330
A
100
AcDbSymbolTableRecord
100
AcDbDimStyleTableRecord
  2
ISO-25
 70
     0
 41
2.5
 42
0.625
 43
3.75
 44
1.25
 73
     0
 74
     0
 77
     1
 78
     8
140
2.5
141
2.5
143
0.0393700787
147
0.625
171
     3
172
     1
271
     2
272
     2
274
     3
278
    44
283
     0
284
     8
340
11
  0
ENDTAB
  0
TABLE
  2
BLOCK_RECORD
  5
1
330
0
100
AcDbSymbolTable
 70
    17
  0
BLOCK_RECORD
  5
1F
330
1
100
AcDbSymbolTableRecord
100
AcDbBlockTableRecord
  2
*Model_Space
340
22
  0
BLOCK_RECORD
  5
1B
330
1
100
AcDbSymbolTableRecord
100
AcDbBlockTableRecord
  2
*Paper_Space
340
1E
  0
BLOCK_RECORD
  5
5E
330
1
100
AcDbSymbolTableRecord
100
AcDbBlockTableRecord
  2
SEANNOT_GROUP
340
0
102
{BLKREFS
331
5F
102
}
  0
BLOCK_RECORD
  5
69
330
1
100
AcDbSymbolTableRecord
100
AcDbBlockTableRecord
  2
SEANNOT_GROUP1
340
0
102
{BLKREFS
331
6A
102
}
  0
BLOCK_RECORD
  5
6F
330
1
100
AcDbSymbolTableRecord
100
AcDbBlockTableRecord
  2
SEANNOT_GROUP2
340
0
102
{BLKREFS
331
70
102
}
  0
BLOCK_RECORD
  5
79
330
1
100
AcDbSymbolTableRecord
100
AcDbBlockTableRecord
  2
SEANNOT_GROUP3
340
0
102
{BLKREFS
331
7A
102
}
  0
BLOCK_RECORD
  5
7F
330
1
100
AcDbSymbolTableRecord
100
AcDbBlockTableRecord
  2
SEANNOT_GROUP4
340
0
102
{BLKREFS
331
80
102
}
  0
BLOCK_RECORD
  5
85
330
1
100
AcDbSymbolTableRecord
100
AcDbBlockTableRecord
  2
SEANNOT_GROUP5
340
0
102
{BLKREFS
331
86
102
}
  0
BLOCK_RECORD
  5
8B
330
1
100
AcDbSymbolTableRecord
100
AcDbBlockTableRecord
  2
SEANNOT_GROUP6
340
0
102
{BLKREFS
331
8C
102
}
  0
BLOCK_RECORD
  5
91
330
1
100
AcDbSymbolTableRecord
100
AcDbBlockTableRecord
  2
SEANNOT_GROUP7
340
0
102
{BLKREFS
331
92
102
}
  0
BLOCK_RECORD
  5
97
330
1
100
AcDbSymbolTableRecord
100
AcDbBlockTableRecord
  2
SEANNOT_GROUP8
340
0
102
{BLKREFS
331
98
102
}
  0
BLOCK_RECORD
  5
9D
330
1
100
AcDbSymbolTableRecord
100
AcDbBlockTableRecord
  2
SEANNOT_GROUP9
340
0
102
{BLKREFS
331
9E
102
}
  0
BLOCK_RECORD
  5
A7
330
1
100
AcDbSymbolTableRecord
100
AcDbBlockTableRecord
  2
SEANNOT_GROUP10
340
0
102
{BLKREFS
331
A8
102
}
  0
BLOCK_RECORD
  5
B1
330
1
100
AcDbSymbolTableRecord
100
AcDbBlockTableRecord
  2
SEANNOT_GROUP11
340
0
102
{BLKREFS
331
B2
102
}
  0
BLOCK_RECORD
  5
B7
330
1
100
AcDbSymbolTableRecord
100
AcDbBlockTableRecord
  2
SEANNOT_GROUP12
340
0
102
{BLKREFS
331
B8
102
}
  0
BLOCK_RECORD
  5
BD
330
1
100
AcDbSymbolTableRecord
100
AcDbBlockTableRecord
  2
SE
340
0
102
{BLKREFS
331
BE
102
}
  0
BLOCK_RECORD
  5
1B6
330
1
100
AcDbSymbolTableRecord
100
AcDbBlockTableRecord
  2
SE1
340
0
102
{BLKREFS
331
1B7
102
}
  0
BLOCK_RECORD
  5
26A
330
1
100
AcDbSymbolTableRecord
100
AcDbBlockTableRecord
  2
SE2
340
0
102
{BLKREFS
331
26B
102
}
  0
ENDTAB
  0
ENDSEC
  0
SECTION
  2
BLOCKS
  0
BLOCK
  5
20
330
1F
100
AcDbEntity
  8
0
100
AcDbBlockBegin
  2
*Model_Space
 70
     0
 10
0.0
 20
0.0
 30
0.0
  3
*Model_Space
  1

  0
ENDBLK
  5
21
330
1F
100
AcDbEntity
  8
0
100
AcDbBlockEnd
  0
BLOCK
  5
1C
330
1B
100
AcDbEntity
 67
     1
  8
0
100
AcDbBlockBegin
  2
*Paper_Space
 70
     0
 10
0.0
 20
0.0
 30
0.0
  3
*Paper_Space
  1

  0
ENDBLK
  5
1D
330
1B
100
AcDbEntity
 67
     1
  8
0
100
AcDbBlockEnd
  0
BLOCK
  5
67
330
5E
100
AcDbEntity
  8
0
100
AcDbBlockBegin
  2
SEANNOT_GROUP
 70
     0
 10
0.0
 20
0.0
 30
0.0
  3
SEANNOT_GROUP
  1

  0
LINE
  5
61
330
5E
100
AcDbEntity
  8
Default
  6
CENTER2
 62
     7
100
AcDbLine
 10
175.599999553
 20
1763.9
 30
0.0
 11
135.600000447
 21
1763.9
 31
0.0
  0
LINE
  5
62
330
5E
100
AcDbEntity
  8
Default
  6
CENTER2
 62
     7
100
AcDbLine
 10
155.6
 20
1783.899999553
 30
0.0
 11
155.6
 21
1743.900000447
 31
0.0
  0
LINE
  5
63
330
5E
100
AcDbEntity
  8
Default
  6
CENTER2
 62
     7
100
AcDbLine
 10
180.5999985099
 20
1763.9
 30
0.0
 11
174.75
 21
1763.9
 31
0.0
  0
LINE
  5
64
330
5E
100
AcDbEntity
  8
Default
  6
CENTER2
 62
     7
100
AcDbLine
 10
155.6
 20
1788.8999985099
 30
0.0
 11
155.6
 21
1783.05
 31
0.0
  0
LINE
  5
65
330
5E
100
AcDbEntity
  8
Default
  6
CENTER2
 62
     7
100
AcDbLine
 10
130.6000014901
 20
1763.9
 30
0.0
 11
136.45
 21
1763.9
 31
0.0
  0
LINE
  5
66
330
5E
100
AcDbEntity
  8
Default
  6
CENTER2
 62
     7
100
AcDbLine
 10
155.6
 20
1738.9000014901
 30
0.0
 11
155.6
 21
1744.75
 31
0.0
  0
ENDBLK
  5
68
330
5E
100
AcDbEntity
  8
0
100
AcDbBlockEnd
  0
BLOCK
  5
6D
330
69
100
AcDbEntity
  8
0
100
AcDbBlockBegin
  2
SEANNOT_GROUP1
 70
     0
 10
0.0
 20
0.0
 30
0.0
  3
SEANNOT_GROUP1
  1

  0
LINE
  5
6B
330
69
100
AcDbEntity
  8
Default
  6
CENTER2
 62
     7
100
AcDbLine
 10
175.599999553
 20
1817.75
 30
0.0
 11
135.600000447
 21
1817.75
 31
0.0
  0
LINE
  5
6C
330
69
100
AcDbEntity
  8
Default
  6
CENTER2
 62
     7
100
AcDbLine
 10
155.6
 20
1837.749999553
 30
0.0
 11
155.6
 21
1797.750000447
 31
0.0
  0
ENDBLK
  5
6E
330
69
100
AcDbEntity
  8
0
100
AcDbBlockEnd
  0
BLOCK
  5
77
330
6F
100
AcDbEntity
  8
0
100
AcDbBlockBegin
  2
SEANNOT_GROUP2
 70
     0
 10
0.0
 20
0.0
 30
0.0
  3
SEANNOT_GROUP2
  1

  0
LINE
  5
71
330
6F
100
AcDbEntity
  8
Default
  6
CENTER2
 62
     7
100
AcDbLine
 10
100.599999553
 20
748.35
 30
0.0
 11
60.600000447
 21
748.35
 31
0.0
  0
LINE
  5
72
330
6F
100
AcDbEntity
  8
Default
  6
CENTER2
 62
     7
100
AcDbLine
 10
80.6
 20
768.349999553
 30
0.0
 11
80.6
 21
728.350000447
 31
0.0
  0
LINE
  5
73
330
6F
100
AcDbEntity
  8
Default
  6
CENTER2
 62
     7
100
AcDbLine
 10
105.5999985099
 20
748.35
 30
0.0
 11
100.35
 21
748.35
 31
0.0
  0
LINE
  5
74
330
6F
100
AcDbEntity
  8
Default
  6
CENTER2
 62
     7
100
AcDbLine
 10
80.6
 20
773.3499985099
 30
0.0
 11
80.6
 21
768.1
 31
0.0
  0
LINE
  5
75
330
6F
100
AcDbEntity
  8
Default
  6
CENTER2
 62
     7
100
AcDbLine
 10
55.6000014901
 20
748.35
 30
0.0
 11
60.85
 21
748.35
 31
0.0
  0
LINE
  5
76
330
6F
100
AcDbEntity
  8
Default
  6
CENTER2
 62
     7
100
AcDbLine
 10
80.6
 20
723.3500014901
 30
0.0
 11
80.6
 21
728.6
 31
0.0
  0
ENDBLK
  5
78
330
6F
100
AcDbEntity
  8
0
100
AcDbBlockEnd
  0
BLOCK
  5
7D
330
79
100
AcDbEntity
  8
0
100
AcDbBlockBegin
  2
SEANNOT_GROUP3
 70
     0
 10
0.0
 20
0.0
 30
0.0
  3
SEANNOT_GROUP3
  1

  0
LINE
  5
7B
330
79
100
AcDbEntity
  8
Default
  6
CENTER2
 62
     7
100
AcDbLine
 10
175.599999553
 20
724.3
 30
0.0
 11
135.600000447
 21
724.3
 31
0.0
  0
LINE
  5
7C
330
79
100
AcDbEntity
  8
Default
  6
CENTER2
 62
     7
100
AcDbLine
 10
155.6
 20
744.299999553
 30
0.0
 11
155.6
 21
704.300000447
 31
0.0
  0
ENDBLK
  5
7E
330
79
100
AcDbEntity
  8
0
100
AcDbBlockEnd
  0
BLOCK
  5
83
330
7F
100
AcDbEntity
  8
0
100
AcDbBlockBegin
  2
SEANNOT_GROUP4
 70
     0
 10
0.0
 20
0.0
 30
0.0
  3
SEANNOT_GROUP4
  1

  0
LINE
  5
81
330
7F
100
AcDbEntity
  8
Default
  6
CENTER2
 62
     7
100
AcDbLine
 10
224.599999553
 20
1018.75
 30
0.0
 11
184.600000447
 21
1018.75
 31
0.0
  0
LINE
  5
82
330
7F
100
AcDbEntity
  8
Default
  6
CENTER2
 62
     7
100
AcDbLine
 10
204.6
 20
1038.749999553
 30
0.0
 11
204.6
 21
998.750000447
 31
0.0
  0
ENDBLK
  5
84
330
7F
100
AcDbEntity
  8
0
100
AcDbBlockEnd
  0
BLOCK
  5
89
330
85
100
AcDbEntity
  8
0
100
AcDbBlockBegin
  2
SEANNOT_GROUP5
 70
     0
 10
0.0
 20
0.0
 30
0.0
  3
SEANNOT_GROUP5
  1

  0
LINE
  5
87
330
85
100
AcDbEntity
  8
Default
  6
CENTER2
 62
     7
100
AcDbLine
 10
457.099999553
 20
1763.9
 30
0.0
 11
417.100000447
 21
1763.9
 31
0.0
  0
LINE
  5
88
330
85
100
AcDbEntity
  8
Default
  6
CENTER2
 62
     7
100
AcDbLine
 10
437.1
 20
1783.899999553
 30
0.0
 11
437.1
 21
1743.900000447
 31
0.0
  0
ENDBLK
  5
8A
330
85
100
AcDbEntity
  8
0
100
AcDbBlockEnd
  0
BLOCK
  5
8F
330
8B
100
AcDbEntity
  8
0
100
AcDbBlockBegin
  2
SEANNOT_GROUP6
 70
     0
 10
0.0
 20
0.0
 30
0.0
  3
SEANNOT_GROUP6
  1

  0
LINE
  5
8D
330
8B
100
AcDbEntity
  8
Default
  6
CENTER2
 62
     7
100
AcDbLine
 10
920.299999553
 20
1816.75
 30
0.0
 11
880.300000447
 21
1816.75
 31
0.0
  0
LINE
  5
8E
330
8B
100
AcDbEntity
  8
Default
  6
CENTER2
 62
     7
100
AcDbLine
 10
900.3
 20
1836.749999553
 30
0.0
 11
900.3
 21
1796.750000447
 31
0.0
  0
ENDBLK
  5
90
330
8B
100
AcDbEntity
  8
0
100
AcDbBlockEnd
  0
BLOCK
  5
95
330
91
100
AcDbEntity
  8
0
100
AcDbBlockBegin
  2
SEANNOT_GROUP7
 70
     0
 10
0.0
 20
0.0
 30
0.0
  3
SEANNOT_GROUP7
  1

  0
LINE
  5
93
330
91
100
AcDbEntity
  8
Default
  6
CENTER2
 62
     7
100
AcDbLine
 10
455.499999553
 20
748.35
 30
0.0
 11
415.500000447
 21
748.35
 31
0.0
  0
LINE
  5
94
330
91
100
AcDbEntity
  8
Default
  6
CENTER2
 62
     7
100
AcDbLine
 10
435.5
 20
768.349999553
 30
0.0
 11
435.5
 21
728.350000447
 31
0.0
  0
ENDBLK
  5
96
330
91
100
AcDbEntity
  8
0
100
AcDbBlockEnd
  0
BLOCK
  5
9B
330
97
100
AcDbEntity
  8
0
100
AcDbBlockBegin
  2
SEANNOT_GROUP8
 70
     0
 10
0.0
 20
0.0
 30
0.0
  3
SEANNOT_GROUP8
  1

  0
LINE
  5
99
330
97
100
AcDbEntity
  8
Default
  6
CENTER2
 62
     7
100
AcDbLine
 10
570.299999553
 20
723.3
 30
0.0
 11
530.300000447
 21
723.3
 31
0.0
  0
LINE
  5
9A
330
97
100
AcDbEntity
  8
Default
  6
CENTER2
 62
     7
100
AcDbLine
 10
550.3
 20
743.299999553
 30
0.0
 11
550.3
 21
703.300000447
 31
0.0
  0
ENDBLK
  5
9C
330
97
100
AcDbEntity
  8
0
100
AcDbBlockEnd
  0
BLOCK
  5
A5
330
9D
100
AcDbEntity
  8
0
100
AcDbBlockBegin
  2
SEANNOT_GROUP9
 70
     0
 10
0.0
 20
0.0
 30
0.0
  3
SEANNOT_GROUP9
  1

  0
LINE
  5
9F
330
9D
100
AcDbEntity
  8
Default
  6
CENTER2
 62
     7
100
AcDbLine
 10
175.599999553
 20
117.85
 30
0.0
 11
135.600000447
 21
117.85
 31
0.0
  0
LINE
  5
A0
330
9D
100
AcDbEntity
  8
Default
  6
CENTER2
 62
     7
100
AcDbLine
 10
155.6
 20
137.849999553
 30
0.0
 11
155.6
 21
97.850000447
 31
0.0
  0
LINE
  5
A1
330
9D
100
AcDbEntity
  8
Default
  6
CENTER2
 62
     7
100
AcDbLine
 10
180.5999985099
 20
117.85
 30
0.0
 11
170.6
 21
117.85
 31
0.0
  0
LINE
  5
A2
330
9D
100
AcDbEntity
  8
Default
  6
CENTER2
 62
     7
100
AcDbLine
 10
155.6
 20
142.8499985099
 30
0.0
 11
155.6
 21
132.85
 31
0.0
  0
LINE
  5
A3
330
9D
100
AcDbEntity
  8
Default
  6
CENTER2
 62
     7
100
AcDbLine
 10
130.6000014901
 20
117.85
 30
0.0
 11
140.6
 21
117.85
 31
0.0
  0
LINE
  5
A4
330
9D
100
AcDbEntity
  8
Default
  6
CENTER2
 62
     7
100
AcDbLine
 10
155.6
 20
92.8500014901
 30
0.0
 11
155.6
 21
102.85
 31
0.0
  0
ENDBLK
  5
A6
330
9D
100
AcDbEntity
  8
0
100
AcDbBlockEnd
  0
BLOCK
  5
AF
330
A7
100
AcDbEntity
  8
0
100
AcDbBlockBegin
  2
SEANNOT_GROUP10
 70
     0
 10
0.0
 20
0.0
 30
0.0
  3
SEANNOT_GROUP10
  1

  0
LINE
  5
A9
330
A7
100
AcDbEntity
  8
Default
  6
CENTER2
 62
     7
100
AcDbLine
 10
250.599999553
 20
748.35
 30
0.0
 11
210.600000447
 21
748.35
 31
0.0
  0
LINE
  5
AA
330
A7
100
AcDbEntity
  8
Default
  6
CENTER2
 62
     7
100
AcDbLine
 10
230.6
 20
768.349999553
 30
0.0
 11
230.6
 21
728.350000447
 31
0.0
  0
LINE
  5
AB
330
A7
100
AcDbEntity
  8
Default
  6
CENTER2
 62
     7
100
AcDbLine
 10
255.5999985099
 20
748.35
 30
0.0
 11
269.1
 21
748.35
 31
0.0
  0
LINE
  5
AC
330
A7
100
AcDbEntity
  8
Default
  6
CENTER2
 62
     7
100
AcDbLine
 10
230.6
 20
773.3499985099
 30
0.0
 11
230.6
 21
786.85
 31
0.0
  0
LINE
  5
AD
330
A7
100
AcDbEntity
  8
Default
  6
CENTER2
 62
     7
100
AcDbLine
 10
205.6000014901
 20
748.35
 30
0.0
 11
192.1
 21
748.35
 31
0.0
  0
LINE
  5
AE
330
A7
100
AcDbEntity
  8
Default
  6
CENTER2
 62
     7
100
AcDbLine
 10
230.6
 20
723.3500014901
 30
0.0
 11
230.6
 21
709.85
 31
0.0
  0
ENDBLK
  5
B0
330
A7
100
AcDbEntity
  8
0
100
AcDbBlockEnd
  0
BLOCK
  5
B5
330
B1
100
AcDbEntity
  8
0
100
AcDbBlockBegin
  2
SEANNOT_GROUP11
 70
     0
 10
0.0
 20
0.0
 30
0.0
  3
SEANNOT_GROUP11
  1

  0
LINE
  5
B3
330
B1
100
AcDbEntity
  8
Default
  6
CENTER2
 62
     7
100
AcDbLine
 10
250.599999553
 20
582.65
 30
0.0
 11
210.600000447
 21
582.65
 31
0.0
  0
LINE
  5
B4
330
B1
100
AcDbEntity
  8
Default
  6
CENTER2
 62
     7
100
AcDbLine
 10
230.6
 20
602.649999553
 30
0.0
 11
230.6
 21
562.650000447
 31
0.0
  0
ENDBLK
  5
B6
330
B1
100
AcDbEntity
  8
0
100
AcDbBlockEnd
  0
BLOCK
  5
BB
330
B7
100
AcDbEntity
  8
0
100
AcDbBlockBegin
  2
SEANNOT_GROUP12
 70
     0
 10
0.0
 20
0.0
 30
0.0
  3
SEANNOT_GROUP12
  1

  0
LINE
  5
B9
330
B7
100
AcDbEntity
  8
Default
  6
CENTER2
 62
     7
100
AcDbLine
 10
100.599999553
 20
582.65
 30
0.0
 11
60.600000447
 21
582.65
 31
0.0
  0
LINE
  5
BA
330
B7
100
AcDbEntity
  8
Default
  6
CENTER2
 62
     7
100
AcDbLine
 10
80.6
 20
602.649999553
 30
0.0
 11
80.6
 21
562.650000447
 31
0.0
  0
ENDBLK
  5
BC
330
B7
100
AcDbEntity
  8
0
100
AcDbBlockEnd
  0
BLOCK
  5
1B4
330
BD
100
AcDbEntity
  8
0
100
AcDbBlockBegin
  2
SE
 70
     0
 10
0.0
 20
0.0
 30
0.0
  3
SE
  1

  0
LINE
  5
C0
330
BD
100
AcDbEntity
  8
DV1_Default
  6
Continuous
 62
     7
100
AcDbLine
 10
194.0
 20
1018.75
 30
0.0
 11
215.2
 21
1018.75
 31
0.0
  0
LINE
  5
C1
330
BD
100
AcDbEntity
  8
DV1_Default
  6
Continuous
 62
     7
100
AcDbLine
 10
194.1
 20
1031.25
 30
0.0
 11
215.1
 21
1031.25
 31
0.0
  0
LINE
  5
C2
330
BD
100
AcDbEntity
  8
DV1_Default
  6
Continuous
 62
     7
100
AcDbLine
 10
193.1
 20
1030.25
 30
0.0
 11
193.1
 21
1019.7449874371
 31
0.0
  0
LINE
  5
C3
330
BD
100
AcDbEntity
  8
DV1_Default
  6
Continuous
 62
     7
100
AcDbLine
 10
216.1
 20
1019.7449874371
 30
0.0
 11
216.1
 21
1030.25
 31
0.0
  0
ARC
  5
C4
330
BD
100
AcDbEntity
  8
DV1_Default
  6
Continuous
 62
     7
100
AcDbCircle
 10
215.1
 20
1019.7449874371
 30
0.0
 40
1.000000000000012
100
AcDbArc
 50
275.7391704773
 51
0.0
  0
ARC
  5
C5
330
BD
100
AcDbEntity
  8
DV1_Default
  6
Continuous
 62
     7
100
AcDbCircle
 10
194.1
 20
1019.7449874371
 30
0.0
 40
1.000000000000001
100
AcDbArc
 50
180.0
 51
264.2608295227
  0
ARC
  5
C6
330
BD
100
AcDbEntity
  8
DV1_Default
  6
Continuous
 62
     7
100
AcDbCircle
 10
194.1
 20
1030.25
 30
0.0
 40
1.000000000000001
100
AcDbArc
 50
90.0
 51
180.0
  0
ARC
  5
C7
330
BD
100
AcDbEntity
  8
DV1_Default
  6
Continuous
 62
     7
100
AcDbCircle
 10
215.1
 20
1030.25
 30
0.0
 40
1.000000000000001
100
AcDbArc
 50
0.0
 51
90.0
  0
LINE
  5
C8
330
BD
100
AcDbEntity
  8
DV1_Default
  6
Continuous
 62
     7
100
AcDbLine
 10
212.6
 20
1047.25
 30
0.0
 11
196.6
 21
1047.25
 31
0.0
  0
LINE
  5
C9
330
BD
100
AcDbEntity
  8
DV1_Default
  6
Continuous
 62
     7
100
AcDbLine
 10
212.6
 20
1031.25
 30
0.0
 11
212.6
 21
1047.25
 31
0.0
  0
LINE
  5
CA
330
BD
100
AcDbEntity
  8
DV1_Default
  6
Continuous
 62
     7
100
AcDbLine
 10
196.6
 20
1047.25
 30
0.0
 11
196.6
 21
1031.25
 31
0.0
  0
LINE
  5
CB
330
BD
100
AcDbEntity
  8
DV1_Default
  6
Continuous
 62
     7
100
AcDbLine
 10
212.1
 20
1047.25
 30
0.0
 11
212.1
 21
1203.7778255546
 31
0.0
  0
LINE
  5
CC
330
BD
100
AcDbEntity
  8
DV1_Default
  6
Continuous
 62
     7
100
AcDbLine
 10
197.1
 20
1203.4292853323
 30
0.0
 11
197.1
 21
1047.25
 31
0.0
  0
LINE
  5
CD
330
BD
100
AcDbEntity
  8
DV1_Default
  6
Continuous
 62
     7
100
AcDbLine
 10
193.1
 20
1236.55
 30
0.0
 11
216.1
 21
1236.55
 31
0.0
  0
LINE
  5
CE
330
BD
100
AcDbEntity
  8
DV1_Default
  6
Continuous
 62
     7
100
AcDbLine
 10
192.8
 20
1236.25
 30
0.0
 11
216.4
 21
1236.25
 31
0.0
  0
LINE
  5
CF
330
BD
100
AcDbEntity
  8
DV1_Default
  6
Continuous
 62
     7
100
AcDbLine
 10
199.2944890088
 20
1204.45
 30
0.0
 11
210.5660996612
 21
1204.45
 31
0.0
  0
LINE
  5
D0
330
BD
100
AcDbEntity
  8
DV1_Default
  6
Continuous
 62
     7
100
AcDbLine
 10
216.1
 20
1239.6
 30
0.0
 11
193.1
 21
1239.6
 31
0.0
  0
LINE
  5
D1
330
BD
100
AcDbEntity
  8
DV1_Default
  6
Continuous
 62
     7
100
AcDbLine
 10
193.1
 20
1239.6
 30
0.0
 11
193.1
 21
1236.55
 31
0.0
  0
LINE
  5
D2
330
BD
100
AcDbEntity
  8
DV1_Default
  6
Continuous
 62
     7
100
AcDbLine
 10
216.1
 20
1236.55
 30
0.0
 11
216.1
 21
1239.6
 31
0.0
  0
LINE
  5
D3
330
BD
100
AcDbEntity
  8
DV1_Default
  6
Continuous
 62
     7
100
AcDbLine
 10
216.4
 20
1236.25
 30
0.0
 11
216.1
 21
1236.55
 31
0.0
  0
LINE
  5
D4
330
BD
100
AcDbEntity
  8
DV1_Default
  6
Continuous
 62
     7
100
AcDbLine
 10
193.1
 20
1236.55
 30
0.0
 11
192.8
 21
1236.25
 31
0.0
  0
LINE
  5
D5
330
BD
100
AcDbEntity
  8
DV1_Default
  6
Continuous
 62
     7
100
AcDbLine
 10
216.3260241801
 20
1234.8384572681
 30
0.0
 11
216.4
 21
1236.25
 31
0.0
  0
ARC
  5
D6
330
BD
100
AcDbEntity
  8
DV1_Default
  6
Continuous
 62
     7
100
AcDbCircle
 10
155.6
 20
1763.9
 30
0.0
 40
15.75
100
AcDbArc
 50
0.0
 51
43.100297387
  0
ARC
  5
D7
330
BD
100
AcDbEntity
  8
DV1_Default
  6
Continuous
 62
     7
100
AcDbCircle
 10
155.6
 20
1763.9
 30
0.0
 40
15.75
100
AcDbArc
 50
136.899702613
 51
225.700207107
  0
ARC
  5
D8
330
BD
100
AcDbEntity
  8
DV1_Default
  6
Continuous
 62
     7
100
AcDbCircle
 10
155.6
 20
1763.9
 30
0.0
 40
15.75
100
AcDbArc
 50
314.299792893
 51
0.0
  0
ARC
  5
D9
330
BD
100
AcDbEntity
  8
DV1_Default
  6
Continuous
 62
     7
100
AcDbCircle
 10
155.6
 20
1763.9
 30
0.0
 40
35.50000000000001
100
AcDbArc
 50
288.0507427208
 51
0.0
  0
ARC
  5
DA
330
BD
100
AcDbEntity
  8
DV1_Default
  6
Continuous
 62
     7
100
AcDbCircle
 10
155.6
 20
1763.9
 30
0.0
 40
35.50000000000001
100
AcDbArc
 50
108.9015893541
 51
251.9492572792
  0
ARC
  5
DB
330
BD
100
AcDbEntity
  8
DV1_Default
  6
Continuous
 62
     7
100
AcDbCircle
 10
155.6
 20
1763.9
 30
0.0
 40
35.50000000000001
100
AcDbArc
 50
0.0
 51
71.0984106459
  0
ARC
  5
DC
330
BD
100
AcDbEntity
  8
DV1_Default
  6
Continuous
 62
     7
100
AcDbCircle
 10
80.6
 20
748.35
 30
0.0
 40
16.25
100
AcDbArc
 50
236.1778378687
 51
303.8221621313
  0
LINE
  5
DD
330
BD
100
AcDbEntity
  8
DV1_Default
  6
Continuous
 62
     7
100
AcDbLine
 10
248.1
 20
737.85
 30
0.0
 11
248.8
 21
737.85
 31
0.0
  0
LINE
  5
DE
330
BD
100
AcDbEntity
  8
DV1_Default
  6
Continuous
 62
     7
100
AcDbLine
 10
248.1
 20
768.473475383
 30
0.0
 11
248.8
 21
768.473475383
 31
0.0
  0
LINE
  5
DF
330
BD
100
AcDbEntity
  8
DV1_Default
  6
Continuous
 62
     7
100
AcDbLine
 10
248.1
 20
751.473475383
 30
0.0
 11
248.8
 21
751.473475383
 31
0.0
  0
LINE
  5
E0
330
BD
100
AcDbEntity
  8
DV1_Default
  6
Continuous
 62
     7
100
AcDbLine
 10
248.8
 20
741.226524617
 30
0.0
 11
248.1
 21
741.226524617
 31
0.0
  0
LINE
  5
E1
330
BD
100
AcDbEntity
  8
DV1_Default
  6
Continuous
 62
     7
100
AcDbLine
 10
248.8
 20
758.226524617
 30
0.0
 11
248.1
 21
758.226524617
 31
0.0
  0
LINE
  5
E2
330
BD
100
AcDbEntity
  8
DV1_Default
  6
Continuous
 62
     7
100
AcDbLine
 10
248.8
 20
771.85
 30
0.0
 11
248.1
 21
771.85
 31
0.0
  0
LINE
  5
E3
330
BD
100
AcDbEntity
  8
DV1_Default
  6
Continuous
 62
     7
100
AcDbLine
 10
270.4287750595
 20
750.7088952784
 30
0.0
 11
269.7
 21
750.7088952784
 31
0.0
  0
LINE
  5
E4
330
BD
100
AcDbEntity
  8
DV1_Default
  6
Continuous
 62
     7
100
AcDbLine
 10
270.174901254
 20
751.2265333686
 30
0.0
 11
269.7
 21
751.2265333686
 31
0.0
  0
ARC
  5
E5
330
BD
100
AcDbEntity
  8
DV1_Default
  6
Continuous
 62
     7
100
AcDbCircle
 10
269.691931646
 20
751.7184436028
 30
0.0
 40
0.4919763986601715
100
AcDbArc
 50
242.7682547027
 51
270.9396860461
  0
LINE
  5
E6
330
BD
100
AcDbEntity
  8
DV1_Default
  6
Continuous
 62
     7
100
AcDbLine
 10
276.8
 20
745.6970875683
 30
0.0
 11
276.8
 21
745.0494920909
 31
0.0
  0
LINE
  5
E7
330
BD
100
AcDbEntity
  8
DV1_Default
  6
Continuous
 62
     7
100
AcDbLine
 10
279.6
 20
764.4871918685
 30
0.0
 11
279.6
 21
764.835209405
 31
0.0
  0
LINE
  5
E8
330
BD
100
AcDbEntity
  8
DV1_Default
  6
Continuous
 62
     7
100
AcDbLine
 10
283.6
 20
763.2153978579
 30
0.0
 11
283.6
 21
763.627390864
 31
0.0
  0
LINE
  5
E9
330
BD
100
AcDbEntity
  8
DV1_Default
  6
Continuous
 62
     7
100
AcDbLine
 10
269.2
 20
757.4883697047
 30
0.0
 11
269.2
 21
752.0725214274
 31
0.0
  0
LINE
  5
EA
330
BD
100
AcDbEntity
  8
DV1_Default
  6
Continuous
 62
     7
100
AcDbLine
 10
281.6
 20
745.9166725991
 30
0.0
 11
281.6
 21
745.4552147549
 31
0.0
  0
LINE
  5
EB
330
BD
100
AcDbEntity
  8
DV1_Default
  6
Continuous
 62
     7
100
AcDbLine
 10
279.6
 20
744.9790625316
 30
0.0
 11
281.6
 21
744.9790625316
 31
0.0
  0
LINE
  5
EC
330
BD
100
AcDbEntity
  8
DV1_Default
  6
Continuous
 62
     7
100
AcDbLine
 10
279.6
 20
744.9790625316
 30
0.0
 11
279.6
 21
745.4552147549
 31
0.0
  0
LINE
  5
ED
330
BD
100
AcDbEntity
  8
DV1_Default
  6
Continuous
 62
     7
100
AcDbLine
 10
281.6
 20
745.4552147549
 30
0.0
 11
281.6
 21
745.2533063824
 31
0.0
  0
LINE
  5
EE
330
BD
100
AcDbEntity
  8
DV1_Default
  6
Continuous
 62
     7
100
AcDbLine
 10
269.35
 20
751.7255501052
 30
0.0
 11
270.0010702348
 21
751.7255501052
 31
0.0
  0
LINE
  5
EF
330
BD
100
AcDbEntity
  8
DV1_Default
  6
Continuous
 62
     7
100
AcDbLine
 10
274.4999022026
 20
763.8583203476
 30
0.0
 11
275.7072790355
 21
763.8583203476
 31
0.0
  0
LINE
  5
F0
330
BD
100
AcDbEntity
  8
DV1_Default
  6
Continuous
 62
     7
100
AcDbLine
 10
269.35
 20
751.7255501052
 30
0.0
 11
269.35
 21
758.0036577645
 31
0.0
  0
LINE
  5
F1
330
BD
100
AcDbEntity
  8
DV1_Default
  6
Continuous
 62
     7
100
AcDbLine
 10
279.35
 20
764.7975506681
 30
0.0
 11
279.35
 21
764.5566929118
 31
0.0
  0
LINE
  5
F2
330
BD
100
AcDbEntity
  8
DV1_Default
  6
Continuous
 62
     7
100
AcDbLine
 10
275.7074687565
 20
763.8583893114
 30
0.0
 11
274.500041963
 21
763.8583893114
 31
0.0
  0
LINE
  5
F3
330
BD
100
AcDbEntity
  8
DV1_Default
  6
Continuous
 62
     7
100
AcDbLine
 10
276.446061245
 20
764.5566929118
 30
0.0
 11
279.35
 21
764.5566929118
 31
0.0
  0
CIRCLE
  5
F4
330
BD
100
AcDbEntity
  8
DV1_Default
  6
Continuous
 62
     7
100
AcDbCircle
 10
278.9
 20
754.95
 30
0.0
 40
9.500000000000004
  0
SPLINE
  5
F5
330
BD
100
AcDbEntity
  8
DV1_Default
  6
Continuous
 62
     7
100
AcDbSpline
210
0.0
220
0.0
230
1.0
 70
    12
 71
     2
 72
     6
 73
     3
 74
     0
 42
0.0000000994709998
 43
0.0000000001
 40
0.0
 40
0.0
 40
0.0
 40
1.0
 40
1.0
 40
1.0
 10
277.3782780656078
 20
745.5726676312295
 30
0.0
 41
1.0
 10
277.379218212283
 20
745.5223098798564
 30
0.0
 41
1.0
 10
277.3802240482009
 20
745.4721546776742
 30
0.0
 41
1.0
  0
LINE
  5
F6
330
BD
100
AcDbEntity
  8
DV1_Default
  6
Continuous
 62
     7
100
AcDbLine
 10
282.2
 20
745.6105843782
 30
0.0
 11
282.2
 21
746.0415770195
 31
0.0
  0
LINE
  5
F7
330
BD
100
AcDbEntity
  8
DV1_Default
  6
Continuous
 62
     7
100
AcDbLine
 10
287.7
 20
758.8113469153
 30
0.0
 11
287.7954545455
 21
758.2847996086
 31
0.0
  0
LINE
  5
F8
330
BD
100
AcDbEntity
  8
DV1_Default
  6
Continuous
 62
     7
100
AcDbLine
 10
287.7
 20
759.324447162
 30
0.0
 11
287.7
 21
758.8113469153
 31
0.0
  0
ELLIPSE
  5
F9
330
BD
100
AcDbEntity
  8
DV1_Default
  6
Continuous
 62
     7
100
AcDbEllipse
 10
284.2866177741
 20
758.8261498527
 30
0.0
 11
-0.1208704216937584
 21
6.999997444957166
 31
0.0
210
0.0
220
0.0
230
0.9999999999999998
 40
0.0494815199
 41
0.8502375455225384
 42
0.9655265293876927
  0
LINE
  5
FA
330
BD
100
AcDbEntity
  8
DV1_Default
  6
Continuous
 62
     7
100
AcDbLine
 10
278.6732326703
 20
745.15
 30
0.0
 11
277.7142261052
 21
745.15
 31
0.0
  0
ARC
  5
FB
330
BD
100
AcDbEntity
  8
DV1_Default
  6
Continuous
 62
     7
100
AcDbCircle
 10
277.7182905877
 20
745.4884338589
 30
0.0
 40
0.338458264627518
100
AcDbArc
 50
182.7568787212
 51
269.3119290773
  0
ARC
  5
FC
330
BD
100
AcDbEntity
  8
DV1_Default
  6
Continuous
 62
     7
100
AcDbCircle
 10
278.6683300842
 20
745.4926627211
 30
0.0
 40
0.3426977907577644
100
AcDbArc
 50
270.8196932769
 51
352.9529253511
  0
LINE
  5
FD
330
BD
100
AcDbEntity
  8
DV1_Default
  6
Continuous
 62
     7
100
AcDbLine
 10
288.3999837141
 20
754.9675906482
 30
0.0
 11
288.3999837141
 21
751.8592540703
 31
0.0
  0
ARC
  5
FE
330
BD
100
AcDbEntity
  8
DV1_Default
  6
Continuous
 62
     7
100
AcDbCircle
 10
278.861200789
 20
754.8899633504
 30
0.0
 40
9.861767300127763
100
AcDbArc
 50
289.7891612724
 51
339.5255596161
  0
SPLINE
  5
FF
330
BD
100
AcDbEntity
  8
DV1_Default
  6
Continuous
 62
     7
100
AcDbSpline
210
0.0
220
0.0
230
1.0
 70
     8
 71
     3
 72
     8
 73
     4
 74
     0
 42
0.0000000721050196
 43
0.0000000001
 40
0.0
 40
0.0
 40
0.0
 40
0.0
 40
1.0
 40
1.0
 40
1.0
 40
1.0
 10
288.3999837141487
 20
751.8592540703348
 30
0.0
 10
288.3999837141503
 20
751.8322280590319
 30
0.0
 10
288.3633692959691
 20
751.8052462139232
 30
0.0
 10
288.2997772763114
 20
751.7869260944087
 30
0.0
  0
LINE
  5
100
330
BD
100
AcDbEntity
  8
DV1_Default
  6
Continuous
 62
     7
100
AcDbLine
 10
282.2
 20
744.8658801133
 30
0.0
 11
282.2
 21
744.8768111999
 31
0.0
  0
ARC
  5
101
330
BD
100
AcDbEntity
  8
DV1_Default
  6
Continuous
 62
     7
100
AcDbCircle
 10
278.9368432525
 20
754.7723195859
 30
0.0
 40
10.41965825623492
100
AcDbArc
 50
288.2505610911
 51
334.8998403694
  0
LINE
  5
102
330
BD
100
AcDbEntity
  8
DV1_Default
  6
Continuous
 62
     7
100
AcDbLine
 10
248.8
 20
735.35
 30
0.0
 11
248.8
 21
774.35
 31
0.0
  0
CIRCLE
  5
103
330
BD
100
AcDbEntity
  8
DV1_Default
  6
Continuous
 62
     7
100
AcDbCircle
 10
278.8000179348
 20
754.8501231641
 30
0.0
 40
10.00002514887398
  0
LINE
  5
104
330
BD
100
AcDbEntity
  8
DV1_Default
  6
Continuous
 62
     7
100
AcDbLine
 10
304.8
 20
773.85
 30
0.0
 11
304.8
 21
735.85
 31
0.0
  0
LINE
  5
105
330
BD
100
AcDbEntity
  8
DV1_Default
  6
Continuous
 62
     7
100
AcDbLine
 10
249.3
 20
734.85
 30
0.0
 11
303.8
 21
734.85
 31
0.0
  0
LINE
  5
106
330
BD
100
AcDbEntity
  8
DV1_Default
  6
Continuous
 62
     7
100
AcDbLine
 10
303.8
 20
774.85
 30
0.0
 11
249.3
 21
774.85
 31
0.0
  0
ARC
  5
107
330
BD
100
AcDbEntity
  8
DV1_Default
  6
Continuous
 62
     7
100
AcDbCircle
 10
249.3
 20
735.35
 30
0.0
 40
0.4999999999999866
100
AcDbArc
 50
180.0
 51
270.0
  0
ARC
  5
108
330
BD
100
AcDbEntity
  8
DV1_Default
  6
Continuous
 62
     7
100
AcDbCircle
 10
249.3
 20
774.35
 30
0.0
 40
0.5000000000001323
100
AcDbArc
 50
90.0
 51
180.0
  0
ARC
  5
109
330
BD
100
AcDbEntity
  8
DV1_Default
  6
Continuous
 62
     7
100
AcDbCircle
 10
303.8
 20
773.85
 30
0.0
 40
0.9999999999994735
100
AcDbArc
 50
0.0
 51
90.0
  0
ARC
  5
10A
330
BD
100
AcDbEntity
  8
DV1_Default
  6
Continuous
 62
     7
100
AcDbCircle
 10
303.8
 20
735.85
 30
0.0
 40
0.9999999999995013
100
AcDbArc
 50
270.0
 51
0.0
  0
LINE
  5
10B
330
BD
100
AcDbEntity
  8
DV1_Default
  6
Continuous
 62
     7
100
AcDbLine
 10
40.7364890651
 20
758.8236283635
 30
0.0
 11
41.45
 21
758.8236283635
 31
0.0
  0
LINE
  5
10C
330
BD
100
AcDbEntity
  8
DV1_Default
  6
Continuous
 62
     7
100
AcDbLine
 10
40.9686842376
 20
758.326924818
 30
0.0
 11
41.45
 21
758.326924818
 31
0.0
  0
ARC
  5
10D
330
BD
100
AcDbEntity
  8
DV1_Default
  6
Continuous
 62
     7
100
AcDbCircle
 10
41.457414556
 20
757.8343584741
 30
0.0
 40
0.4926221461254306
100
AcDbArc
 50
65.9662340837
 51
90.8624029824
  0
LINE
  5
10E
330
BD
100
AcDbEntity
  8
DV1_Default
  6
Continuous
 62
     7
100
AcDbLine
 10
34.35
 20
763.9067465346
 30
0.0
 11
34.35
 21
764.5119361719
 31
0.0
  0
LINE
  5
10F
330
BD
100
AcDbEntity
  8
DV1_Default
  6
Continuous
 62
     7
100
AcDbLine
 10
31.55
 20
745.0243096167
 30
0.0
 11
31.55
 21
744.6885681728
 31
0.0
  0
LINE
  5
110
330
BD
100
AcDbEntity
  8
DV1_Default
  6
Continuous
 62
     7
100
AcDbLine
 10
27.55
 20
746.2896594969
 30
0.0
 11
27.55
 21
745.8985127356
 31
0.0
  0
LINE
  5
111
330
BD
100
AcDbEntity
  8
DV1_Default
  6
Continuous
 62
     7
100
AcDbLine
 10
41.95
 20
752.144336189
 30
0.0
 11
41.95
 21
757.4187190967
 31
0.0
  0
LINE
  5
112
330
BD
100
AcDbEntity
  8
DV1_Default
  6
Continuous
 62
     7
100
AcDbLine
 10
29.55
 20
763.648703846
 30
0.0
 11
29.55
 21
764.1040906236
 31
0.0
  0
LINE
  5
113
330
BD
100
AcDbEntity
  8
DV1_Default
  6
Continuous
 62
     7
100
AcDbLine
 10
31.55
 20
764.5636098183
 30
0.0
 11
29.55
 21
764.5636098183
 31
0.0
  0
LINE
  5
114
330
BD
100
AcDbEntity
  8
DV1_Default
  6
Continuous
 62
     7
100
AcDbLine
 10
31.55
 20
764.5636098183
 30
0.0
 11
31.55
 21
764.1040906236
 31
0.0
  0
LINE
  5
115
330
BD
100
AcDbEntity
  8
DV1_Default
  6
Continuous
 62
     7
100
AcDbLine
 10
29.55
 20
764.1040906236
 30
0.0
 11
29.55
 21
764.2652918
 31
0.0
  0
LINE
  5
116
330
BD
100
AcDbEntity
  8
DV1_Default
  6
Continuous
 62
     7
100
AcDbLine
 10
41.8
 20
757.7824487715
 30
0.0
 11
41.2553164572
 21
757.7824487715
 31
0.0
  0
LINE
  5
117
330
BD
100
AcDbEntity
  8
DV1_Default
  6
Continuous
 62
     7
100
AcDbLine
 10
36.6181587895
 20
745.6735790253
 30
0.0
 11
35.5035424604
 21
745.6735790253
 31
0.0
  0
LINE
  5
118
330
BD
100
AcDbEntity
  8
DV1_Default
  6
Continuous
 62
     7
100
AcDbLine
 10
41.8
 20
757.7824487715
 30
0.0
 11
41.8
 21
751.6937936564
 31
0.0
  0
LINE
  5
119
330
BD
100
AcDbEntity
  8
DV1_Default
  6
Continuous
 62
     7
100
AcDbLine
 10
31.8
 20
744.7248792833
 30
0.0
 11
31.8
 21
744.9826548085
 31
0.0
  0
LINE
  5
11A
330
BD
100
AcDbEntity
  8
DV1_Default
  6
Continuous
 62
     7
100
AcDbLine
 10
35.5033537173
 20
745.6735107583
 30
0.0
 11
36.6180067542
 21
745.6735107583
 31
0.0
  0
LINE
  5
11B
330
BD
100
AcDbEntity
  8
DV1_Default
  6
Continuous
 62
     7
100
AcDbLine
 10
34.6438825478
 20
744.9826548085
 30
0.0
 11
31.8
 21
744.9826548085
 31
0.0
  0
ARC
  5
11C
330
BD
100
AcDbEntity
  8
DV1_Default
  6
Continuous
 62
     7
100
AcDbCircle
 10
32.2499410004
 20
754.6443194401
 30
0.0
 40
9.439258139561005
100
AcDbArc
 50
80.7223835562
 51
90.6578752923
  0
CIRCLE
  5
11D
330
BD
100
AcDbEntity
  8
DV1_Default
  6
Continuous
 62
     7
100
AcDbCircle
 10
32.2500278447
 20
754.5562139022
 30
0.0
 40
9.49974531145063
  0
SPLINE
  5
11E
330
BD
100
AcDbEntity
  8
DV1_Default
  6
Continuous
 62
     7
100
AcDbSpline
210
0.0
220
0.0
230
1.0
 70
    12
 71
     2
 72
     6
 73
     3
 74
     0
 42
0.00000009881958
 43
0.0000000001
 40
0.0
 40
0.0
 40
0.0
 40
1.0
 40
1.0
 40
1.0
 10
33.77172193439164
 20
763.9601005138811
 30
0.0
 41
1.0
 10
33.77078178771639
 20
764.0107878921426
 30
0.0
 41
1.0
 10
33.76977595179851
 20
764.0612762978503
 30
0.0
 41
1.0
  0
ELLIPSE
  5
11F
330
BD
100
AcDbEntity
  8
DV1_Default
  6
Continuous
 62
     7
100
AcDbEllipse
 10
32.249999994
 20
754.6411273543
 30
0.0
 11
-6.586027710462558
 21
7.347039422622895
 31
0.0
210
0.0
220
0.0
230
1.0
 40
0.9318687465
 41
-0.954204395832309
 42
-0.9268854325005176
  0
LINE
  5
120
330
BD
100
AcDbEntity
  8
DV1_Default
  6
Continuous
 62
     7
100
AcDbLine
 10
28.95
 20
763.4828157263
 30
0.0
 11
28.95
 21
763.4758778264
 31
0.0
  0
LINE
  5
121
330
BD
100
AcDbEntity
  8
DV1_Default
  6
Continuous
 62
     7
100
AcDbLine
 10
28.95
 20
763.9219362689
 30
0.0
 11
28.95
 21
763.4828157263
 31
0.0
  0
ARC
  5
122
330
BD
100
AcDbEntity
  8
DV1_Default
  6
Continuous
 62
     7
100
AcDbCircle
 10
32.239283442
 20
754.5758677101
 30
0.0
 40
9.49084300254389
100
AcDbArc
 50
47.8680823528
 51
79.1409256999
  0
LINE
  5
123
330
BD
100
AcDbEntity
  8
DV1_Default
  6
Continuous
 62
     7
100
AcDbLine
 10
23.45
 20
750.7015366247
 30
0.0
 11
23.3545454545
 21
751.2266549958
 31
0.0
  0
LINE
  5
124
330
BD
100
AcDbEntity
  8
DV1_Default
  6
Continuous
 62
     7
100
AcDbLine
 10
23.45
 20
750.0983110876
 30
0.0
 11
23.45
 21
750.7015366247
 31
0.0
  0
ELLIPSE
  5
125
330
BD
100
AcDbEntity
  8
DV1_Default
  6
Continuous
 62
     7
100
AcDbEllipse
 10
26.8633822259
 20
750.7622557354
 30
0.0
 11
0.1246193372444471
 21
-6.999997304840164
 31
0.0
210
0.0
220
0.0
230
1.0
 40
0.0492913669
 41
0.8316126233016272
 42
0.9546823729751678
  0
ARC
  5
126
330
BD
100
AcDbEntity
  8
DV1_Default
  6
Continuous
 62
     7
100
AcDbCircle
 10
32.0503140746
 20
754.4582766086
 30
0.0
 40
9.276684495027437
100
AcDbArc
 50
203.6460274654
 51
209.9225130379
  0
ELLIPSE
  5
127
330
BD
100
AcDbEntity
  8
DV1_Default
  6
Continuous
 62
     7
100
AcDbEllipse
 10
32.25
 20
754.5542760884
 30
0.0
 11
9.500000000027139
 21
1.611278679924943E-7
 31
0.0
210
0.0
220
0.0
230
1.0
 40
0.9999414531
 41
0.3350454385529552
 42
0.8378460759908092
  0
LINE
  5
128
330
BD
100
AcDbEntity
  8
DV1_Default
  6
Continuous
 62
     7
100
AcDbLine
 10
32.4767673297
 20
764.3856226424
 30
0.0
 11
33.4357738948
 21
764.3856226424
 31
0.0
  0
LINE
  5
129
330
BD
100
AcDbEntity
  8
DV1_Default
  6
Continuous
 62
     7
100
AcDbLine
 10
33.3742234014
 20
764.3899661867
 30
0.0
 11
32.5424095178
 21
764.3899661867
 31
0.0
  0
ARC
  5
12A
330
BD
100
AcDbEntity
  8
DV1_Default
  6
Continuous
 62
     7
100
AcDbCircle
 10
32.8833354221
 20
754.5226394672
 30
0.0
 40
9.589049445688
100
AcDbArc
 50
94.4366282075
 51
95.5820117833
  0
ARC
  5
12B
330
BD
100
AcDbEntity
  8
DV1_Default
  6
Continuous
 62
     7
100
AcDbCircle
 10
33.4305137108
 20
764.0460600829
 30
0.0
 40
0.3396032999662782
100
AcDbArc
 50
2.5680459147
 51
89.1124986375
  0
ARC
  5
12C
330
BD
100
AcDbEntity
  8
DV1_Default
  6
Continuous
 62
     7
100
AcDbCircle
 10
32.4827544564
 20
764.0420363936
 30
0.0
 40
0.3436384088505947
100
AcDbArc
 50
90.9983006513
 51
173.1612416576
  0
LINE
  5
12D
330
BD
100
AcDbEntity
  8
DV1_Default
  6
Continuous
 62
     7
100
AcDbLine
 10
22.7500162859
 20
754.6719186826
 30
0.0
 11
22.7500162859
 21
757.6515519155
 31
0.0
  0
ARC
  5
12E
330
BD
100
AcDbEntity
  8
DV1_Default
  6
Continuous
 62
     7
100
AcDbCircle
 10
32.3314199637
 20
754.6138061059
 30
0.0
 40
9.903296829980443
100
AcDbArc
 50
109.9648666703
 51
159.5870895438
  0
ARC
  5
12F
330
BD
100
AcDbEntity
  8
DV1_Default
  6
Continuous
 62
     7
100
AcDbCircle
 10
32.2894353507
 20
754.5467017351
 30
0.0
 40
9.539704488340972
100
AcDbArc
 50
110.4907695759
 51
172.3418250069
  0
LINE
  5
130
330
BD
100
AcDbEntity
  8
DV1_Default
  6
Continuous
 62
     7
100
AcDbLine
 10
22.8348179341
 20
755.8179889686
 30
0.0
 11
22.7500162859
 21
754.5346812734
 31
0.0
  0
SPLINE
  5
131
330
BD
100
AcDbEntity
  8
DV1_Default
  6
Continuous
 62
     7
100
AcDbSpline
210
0.0
220
0.0
230
1.0
 70
     8
 71
     3
 72
     8
 73
     4
 74
     0
 42
0.0000000729132532
 43
0.0000000001
 40
0.0
 40
0.0
 40
0.0
 40
0.0
 40
1.0
 40
1.0
 40
1.0
 40
1.0
 10
22.7500162858508
 20
757.6515519154906
 30
0.0
 10
22.75001628584914
 20
757.6777106427974
 30
0.0
 10
22.78663070403039
 20
757.7038249473832
 30
0.0
 10
22.85022272368811
 20
757.7215554108843
 30
0.0
  0
LINE
  5
132
330
BD
100
AcDbEntity
  8
DV1_Default
  6
Continuous
 62
     7
100
AcDbLine
 10
28.95
 20
764.6736234701
 30
0.0
 11
28.95
 21
764.663531923
 31
0.0
  0
ARC
  5
133
330
BD
100
AcDbEntity
  8
DV1_Default
  6
Continuous
 62
     7
100
AcDbCircle
 10
32.2577073476
 20
754.7390191328
 30
0.0
 40
10.46120843978297
100
AcDbArc
 50
108.4325400878
 51
109.549500427
  0
LINE
  5
134
330
BD
100
AcDbEntity
  8
DV1_Default
  6
Continuous
 62
     7
100
AcDbLine
 10
22.75
 20
754.5522594932
 30
0.0
 11
22.75
 21
754.5386764872
 31
0.0
  0
LINE
  5
135
330
BD
100
AcDbEntity
  8
DV1_Default
  6
Continuous
 62
     7
100
AcDbLine
 10
41.75
 20
754.5385668329
 30
0.0
 11
41.75
 21
754.5517181095
 31
0.0
  0
LINE
  5
136
330
BD
100
AcDbEntity
  8
DV1_Default
  6
Continuous
 62
     7
100
AcDbLine
 10
33.4575522543
 20
764.3848493994
 30
0.0
 11
33.395341522
 21
764.3892395359
 31
0.0
  0
ARC
  5
137
330
BD
100
AcDbEntity
  8
DV1_Default
  6
Continuous
 62
     7
100
AcDbCircle
 10
33.3742234014
 20
764.0899837507
 30
0.0
 40
0.2999999999999975
100
AcDbArc
 50
85.9633976131
 51
90.0
  0
ARC
  5
138
330
BD
100
AcDbEntity
  8
DV1_Default
  6
Continuous
 62
     7
100
AcDbCircle
 10
32.5424095178
 20
764.0899837507
 30
0.0
 40
0.3000000000000017
100
AcDbArc
 50
90.0
 51
93.7857434894
  0
LINE
  5
139
330
BD
100
AcDbEntity
  8
DV1_Default
  6
Continuous
 62
     7
100
AcDbLine
 10
32.5226018311
 20
764.3893291291
 30
0.0
 11
32.4561097148
 21
764.3849293451
 31
0.0
  0
LINE
  5
13A
330
BD
100
AcDbEntity
  8
DV1_Default
  6
Continuous
 62
     7
100
AcDbLine
 10
62.35
 20
774.35
 30
0.0
 11
62.35
 21
735.35
 31
0.0
  0
ARC
  5
13B
330
BD
100
AcDbEntity
  8
DV1_Default
  6
Continuous
 62
     7
100
AcDbCircle
 10
32.3499337429
 20
754.6651499041
 30
0.0
 40
9.999791183152048
100
AcDbArc
 50
359.7783761093
 51
0.0
  0
ARC
  5
13C
330
BD
100
AcDbEntity
  8
DV1_Default
  6
Continuous
 62
     7
100
AcDbCircle
 10
32.3499337429
 20
754.6651499041
 30
0.0
 40
9.999791183152048
100
AcDbArc
 50
0.0
 51
180.221559767
  0
LINE
  5
13D
330
BD
100
AcDbEntity
  8
DV1_Default
  6
Continuous
 62
     7
100
AcDbLine
 10
6.35
 20
773.85
 30
0.0
 11
6.35
 21
735.85
 31
0.0
  0
ARC
  5
13E
330
BD
100
AcDbEntity
  8
DV1_Default
  6
Continuous
 62
     7
100
AcDbCircle
 10
32.3506180735
 20
754.6609141405
 30
0.0
 40
9.999363745511827
100
AcDbArc
 50
179.9365650948
 51
238.9174048514
  0
ARC
  5
13F
330
BD
100
AcDbEntity
  8
DV1_Default
  6
Continuous
 62
     7
100
AcDbCircle
 10
32.3506180735
 20
754.6609141405
 30
0.0
 40
9.999363745511827
100
AcDbArc
 50
241.1521033629
 51
329.4439444276
  0
ARC
  5
140
330
BD
100
AcDbEntity
  8
DV1_Default
  6
Continuous
 62
     7
100
AcDbCircle
 10
32.3504229834
 20
754.6515728917
 30
0.0
 40
9.999592540486066
100
AcDbArc
 50
332.2174274294
 51
0.1027325628
  0
LINE
  5
141
330
BD
100
AcDbEntity
  8
DV1_Default
  6
Continuous
 62
     7
100
AcDbLine
 10
41.1972904273
 20
749.9905872228
 30
0.0
 11
40.9613921324
 21
749.5774266151
 31
0.0
  0
LINE
  5
142
330
BD
100
AcDbEntity
  8
DV1_Default
  6
Continuous
 62
     7
100
AcDbLine
 10
61.85
 20
774.85
 30
0.0
 11
7.35
 21
774.85
 31
0.0
  0
LINE
  5
143
330
BD
100
AcDbEntity
  8
DV1_Default
  6
Continuous
 62
     7
100
AcDbLine
 10
7.35
 20
734.85
 30
0.0
 11
61.85
 21
734.85
 31
0.0
  0
ARC
  5
144
330
BD
100
AcDbEntity
  8
DV1_Default
  6
Continuous
 62
     7
100
AcDbCircle
 10
61.85
 20
774.35
 30
0.0
 40
0.5000000000000004
100
AcDbArc
 50
0.0
 51
90.0
  0
ARC
  5
145
330
BD
100
AcDbEntity
  8
DV1_Default
  6
Continuous
 62
     7
100
AcDbCircle
 10
61.85
 20
735.35
 30
0.0
 40
0.5000000000001253
100
AcDbArc
 50
270.0
 51
0.0
  0
ARC
  5
146
330
BD
100
AcDbEntity
  8
DV1_Default
  6
Continuous
 62
     7
100
AcDbCircle
 10
7.35
 20
735.85
 30
0.0
 40
0.9999999999994735
100
AcDbArc
 50
180.0
 51
270.0
  0
ARC
  5
147
330
BD
100
AcDbEntity
  8
DV1_Default
  6
Continuous
 62
     7
100
AcDbCircle
 10
7.35
 20
773.85
 30
0.0
 40
0.9999999999995013
100
AcDbArc
 50
90.0
 51
180.0
  0
ARC
  5
148
330
BD
100
AcDbEntity
  8
DV1_Default
  6
Continuous
 62
     7
100
AcDbCircle
 10
230.6
 20
748.35
 30
0.0
 40
16.25
100
AcDbArc
 50
236.1778378687
 51
303.8221621313
  0
ARC
  5
149
330
BD
100
AcDbEntity
  8
DV1_Default
  6
Continuous
 62
     7
100
AcDbCircle
 10
230.6
 20
748.35
 30
0.0
 40
35.0
100
AcDbArc
 50
202.6880911509
 51
337.3119088491
  0
ARC
  5
14A
330
BD
100
AcDbEntity
  8
DV1_Default
  6
Continuous
 62
     7
100
AcDbCircle
 10
230.6
 20
748.35
 30
0.0
 40
35.0
100
AcDbArc
 50
49.2129618067
 51
130.7870381933
  0
ARC
  5
14B
330
BD
100
AcDbEntity
  8
DV1_Default
  6
Continuous
 62
     7
100
AcDbCircle
 10
80.6
 20
748.35
 30
0.0
 40
35.0
100
AcDbArc
 50
202.6880911509
 51
337.3119088491
  0
ARC
  5
14C
330
BD
100
AcDbEntity
  8
DV1_Default
  6
Continuous
 62
     7
100
AcDbCircle
 10
80.6
 20
748.35
 30
0.0
 40
35.0
100
AcDbArc
 50
49.2129618067
 51
130.7870381933
  0
LINE
  5
14D
330
BD
100
AcDbEntity
  8
DV1_Default
  6
Continuous
 62
     7
100
AcDbLine
 10
63.1
 20
772.45
 30
0.0
 11
62.35
 21
772.45
 31
0.0
  0
LINE
  5
14E
330
BD
100
AcDbEntity
  8
DV1_Default
  6
Continuous
 62
     7
100
AcDbLine
 10
62.35
 20
737.25
 30
0.0
 11
63.1
 21
737.25
 31
0.0
  0
LINE
  5
14F
330
BD
100
AcDbEntity
  8
DV1_Default
  6
Continuous
 62
     7
100
AcDbLine
 10
145.35
 20
724.3
 30
0.0
 11
165.85
 21
724.3
 31
0.0
  0
LINE
  5
150
330
BD
100
AcDbEntity
  8
DV1_Default
  6
Continuous
 62
     7
100
AcDbLine
 10
164.85
 20
723.3
 30
0.0
 11
146.35
 21
723.3
 31
0.0
  0
LINE
  5
151
330
BD
100
AcDbEntity
  8
DV1_Default
  6
Continuous
 62
     7
100
AcDbLine
 10
165.85
 20
724.3
 30
0.0
 11
165.85
 21
744.85
 31
0.0
  0
LINE
  5
152
330
BD
100
AcDbEntity
  8
DV1_Default
  6
Continuous
 62
     7
100
AcDbLine
 10
145.35
 20
744.85
 30
0.0
 11
145.35
 21
724.3
 31
0.0
  0
LINE
  5
153
330
BD
100
AcDbEntity
  8
DV1_Default
  6
Continuous
 62
     7
100
AcDbLine
 10
145.35
 20
724.3
 30
0.0
 11
146.35
 21
723.3
 31
0.0
  0
LINE
  5
154
330
BD
100
AcDbEntity
  8
DV1_Default
  6
Continuous
 62
     7
100
AcDbLine
 10
164.85
 20
723.3
 30
0.0
 11
165.85
 21
724.3
 31
0.0
  0
LINE
  5
155
330
BD
100
AcDbEntity
  8
DV1_Default
  6
Continuous
 62
     7
100
AcDbLine
 10
150.0
 20
780.45
 30
0.0
 11
150.0
 21
774.95
 31
0.0
  0
LINE
  5
156
330
BD
100
AcDbEntity
  8
DV1_Default
  6
Continuous
 62
     7
100
AcDbLine
 10
161.2
 20
774.95
 30
0.0
 11
161.2
 21
780.45
 31
0.0
  0
LINE
  5
157
330
BD
100
AcDbEntity
  8
DV1_Default
  6
Continuous
 62
     7
100
AcDbLine
 10
230.6
 20
734.85
 30
0.0
 11
165.85
 21
734.85
 31
0.0
  0
LINE
  5
158
330
BD
100
AcDbEntity
  8
DV1_Default
  6
Continuous
 62
     7
100
AcDbLine
 10
145.35
 20
734.85
 30
0.0
 11
80.6
 21
734.85
 31
0.0
  0
LINE
  5
159
330
BD
100
AcDbEntity
  8
DV1_Default
  6
Continuous
 62
     7
100
AcDbLine
 10
63.1
 20
763.3025275254
 30
0.0
 11
63.1
 21
774.8474967734
 31
0.0
  0
LINE
  5
15A
330
BD
100
AcDbEntity
  8
DV1_Default
  6
Continuous
 62
     7
100
AcDbLine
 10
63.1
 20
734.85
 30
0.0
 11
63.1
 21
763.302364755
 31
0.0
  0
LINE
  5
15B
330
BD
100
AcDbEntity
  8
DV1_Default
  6
Continuous
 62
     7
100
AcDbLine
 10
140.6
 20
774.95
 30
0.0
 11
170.6
 21
774.95
 31
0.0
  0
ARC
  5
15C
330
BD
100
AcDbEntity
  8
DV1_Default
  6
Continuous
 62
     7
100
AcDbCircle
 10
140.6
 20
772.95
 30
0.0
 40
1.999999999999998
100
AcDbArc
 50
90.0
 51
180.0
  0
LINE
  5
15D
330
BD
100
AcDbEntity
  8
DV1_Default
  6
Continuous
 62
     7
100
AcDbLine
 10
138.6
 20
746.85
 30
0.0
 11
138.6
 21
772.95
 31
0.0
  0
LINE
  5
15E
330
BD
100
AcDbEntity
  8
DV1_Default
  6
Continuous
 62
     7
100
AcDbLine
 10
170.6
 20
744.85
 30
0.0
 11
140.6
 21
744.85
 31
0.0
  0
ARC
  5
15F
330
BD
100
AcDbEntity
  8
DV1_Default
  6
Continuous
 62
     7
100
AcDbCircle
 10
140.6
 20
746.85
 30
0.0
 40
1.999999999999995
100
AcDbArc
 50
180.0
 51
270.0
  0
SPLINE
  5
160
330
BD
100
AcDbEntity
  8
DV1_Default
  6
Continuous
 62
     7
100
AcDbSpline
210
0.0
220
0.0
230
1.0
 70
     8
 71
     3
 72
    21
 73
    17
 74
     0
 42
0.00000000208567
 43
0.0000000001
 40
0.0
 40
0.0
 40
0.0
 40
0.0
 40
0.1110207272958553
 40
0.2090724250475646
 40
0.2941571738132103
 40
0.3662794154443776
 40
0.4254478077443317
 40
0.4716796723042717
 40
0.5050140459847058
 40
0.5753408171975788
 40
0.6633882326317451
 40
0.7692132345759618
 40
0.8770029293442867
 40
0.9511336369259323
 40
0.9917561535971968
 40
1.0
 40
1.0
 40
1.0
 40
1.0
 10
135.600697441664
 20
770.7136115170254
 30
0.0
 10
135.6016232316703
 20
770.982628172413
 30
0.0
 10
135.6034234162747
 20
771.5357881964732
 30
0.0
 10
135.6144504781016
 20
772.2168455981572
 30
0.0
 10
135.6317717053511
 20
772.7517695986161
 30
0.0
 10
135.6553649866331
 20
773.1588066608629
 30
0.0
 10
135.6859698911506
 20
773.4610228667726
 30
0.0
 10
135.7205429021273
 20
773.676779333778
 30
0.0
 10
135.7868053161822
 20
773.8925390685541
 30
0.0
 10
135.9322799900244
 20
774.1383993129542
 30
0.0
 10
136.1529495393426
 20
774.4179362404234
 30
0.0
 10
136.4398643842471
 20
774.6539816581799
 30
0.0
 10
136.7157279397606
 20
774.7928810066113
 30
0.0
 10
136.8981047397303
 20
774.8430623060636
 30
0.0
 10
136.980203379585
 20
774.8504984567936
 30
0.0
 10
136.9753576321818
 20
774.8498988318605
 30
0.0
 10
136.9736561416826
 20
774.8496971108232
 30
0.0
  0
SPLINE
  5
161
330
BD
100
AcDbEntity
  8
DV1_Default
  6
Continuous
 62
     7
100
AcDbSpline
210
0.0
220
0.0
230
1.0
 70
     8
 71
     5
 72
    21
 73
    15
 74
     0
 42
0.0000000020491011
 43
0.0000000001
 40
0.0
 40
0.0
 40
0.0
 40
0.0
 40
0.0
 40
0.0
 40
0.0100283389719563
 40
0.0865742641982312
 40
0.1584511569266064
 40
0.2425265870941215
 40
0.3587470116153967
 40
0.4721308482525033
 40
0.6559417950239408
 40
0.7981352612421853
 40
0.9878999404716859
 40
1.0
 40
1.0
 40
1.0
 40
1.0
 40
1.0
 40
1.0
 10
175.5993047482207
 20
770.7119024955119
 30
0.0
 10
175.5993045162645
 20
770.712299450464
 30
0.0
 10
175.5991568065093
 20
770.8377376966074
 30
0.0
 10
175.5990380325595
 20
771.0628878524896
 30
0.0
 10
175.5998059678599
 20
771.3994121485673
 30
0.0
 10
175.6068471316647
 20
771.912805990082
 30
0.0
 10
175.585150173549
 20
772.5121126980661
 30
0.0
 10
175.6416748735435
 20
773.2175481711614
 30
0.0
 10
175.4525072055265
 20
773.9808249516304
 30
0.0
 10
175.0213619857851
 20
774.4619383454145
 30
0.0
 10
174.6564349054292
 20
774.7673456310101
 30
0.0
 10
174.2828145134925
 20
774.8368361677
 30
0.0
 10
174.2138500706309
 20
774.8524104634442
 30
0.0
 10
174.2256461677563
 20
774.8505433695427
 30
0.0
 10
174.2265387968799
 20
774.8503916361115
 30
0.0
  0
LINE
  5
162
330
BD
100
AcDbEntity
  8
DV1_Default
  6
Continuous
 62
     7
100
AcDbLine
 10
248.1
 20
734.85
 30
0.0
 11
248.1
 21
763.302364755
 31
0.0
  0
LINE
  5
163
330
BD
100
AcDbEntity
  8
DV1_Default
  6
Continuous
 62
     7
100
AcDbLine
 10
172.6
 20
746.85
 30
0.0
 11
172.6
 21
772.95
 31
0.0
  0
ARC
  5
164
330
BD
100
AcDbEntity
  8
DV1_Default
  6
Continuous
 62
     7
100
AcDbCircle
 10
170.6
 20
746.85
 30
0.0
 40
1.999999999999995
100
AcDbArc
 50
270.0
 51
0.0
  0
LINE
  5
165
330
BD
100
AcDbEntity
  8
DV1_Default
  6
Continuous
 62
     7
100
AcDbLine
 10
248.1
 20
763.3025275254
 30
0.0
 11
248.1
 21
774.8468639263
 31
0.0
  0
ARC
  5
166
330
BD
100
AcDbEntity
  8
DV1_Default
  6
Continuous
 62
     7
100
AcDbCircle
 10
170.6
 20
772.95
 30
0.0
 40
1.999999999999998
100
AcDbArc
 50
0.0
 51
90.0
  0
LINE
  5
167
330
BD
100
AcDbEntity
  8
DV1_Default
  6
Continuous
 62
     7
100
AcDbLine
 10
230.6126433221
 20
734.85
 30
0.0
 11
248.1
 21
734.85
 31
0.0
  0
LINE
  5
168
330
BD
100
AcDbEntity
  8
DV1_Default
  6
Continuous
 62
     7
100
AcDbLine
 10
63.1
 20
734.85
 30
0.0
 11
80.5873566779
 21
734.85
 31
0.0
  0
LINE
  5
169
330
BD
100
AcDbEntity
  8
DV1_Default
  6
Continuous
 62
     7
100
AcDbLine
 10
136.971529917
 20
774.85
 30
0.0
 11
80.6
 21
774.85
 31
0.0
  0
LINE
  5
16A
330
BD
100
AcDbEntity
  8
DV1_Default
  6
Continuous
 62
     7
100
AcDbLine
 10
230.6
 20
774.85
 30
0.0
 11
174.228470083
 21
774.85
 31
0.0
  0
LINE
  5
16B
330
BD
100
AcDbEntity
  8
DV1_Default
  6
Continuous
 62
     7
100
AcDbLine
 10
80.6
 20
774.8468594986
 30
0.0
 11
63.1
 21
774.8468594986
 31
0.0
  0
SPLINE
  5
16C
330
BD
100
AcDbEntity
  8
DV1_Default
  6
Continuous
 62
     7
100
AcDbSpline
210
0.0
220
0.0
230
1.0
 70
     8
 71
     3
 72
     8
 73
     4
 74
     0
 42
0.0000041465034082
 43
0.0000000001
 40
0.0
 40
0.0
 40
0.0
 40
0.0
 40
1.0
 40
1.0
 40
1.0
 40
1.0
 10
139.1961394624838
 20
774.3725363342062
 30
0.0
 10
139.1954150751859
 20
774.3728762345442
 30
0.0
 10
139.1946899015008
 20
774.3732192180621
 30
0.0
 10
139.1939592784978
 20
774.373567313703
 30
0.0
  0
SPLINE
  5
16D
330
BD
100
AcDbEntity
  8
DV1_Default
  6
Continuous
 62
     7
100
AcDbSpline
210
0.0
220
0.0
230
1.0
 70
     8
 71
     3
 72
    13
 73
     9
 74
     0
 42
0.0000000045039458
 43
0.0000000001
 40
0.0
 40
0.0
 40
0.0
 40
0.0
 40
0.2902223834156108
 40
0.536658633954946
 40
0.6904714376210623
 40
0.8139825902559762
 40
0.9137582773597336
 40
1.0
 40
1.0
 40
1.0
 40
1.0
 10
139.1075680672901
 20
774.4161941636077
 30
0.0
 10
139.0577258930648
 20
774.4403702108422
 30
0.0
 10
138.9074651885729
 20
774.5119787664221
 30
0.0
 10
138.6506266172337
 20
774.6625155441828
 30
0.0
 10
138.3446117138531
 20
774.7645475371583
 30
0.0
 10
137.9795614167361
 20
774.8154311962306
 30
0.0
 10
137.5069571175215
 20
774.8439164475674
 30
0.0
 10
137.1595752435036
 20
774.8480515552478
 30
0.0
 10
136.9708847625568
 20
774.8499337143413
 30
0.0
  0
SPLINE
  5
16E
330
BD
100
AcDbEntity
  8
DV1_Default
  6
Continuous
 62
     7
100
AcDbSpline
210
0.0
220
0.0
230
1.0
 70
     8
 71
     3
 72
    13
 73
     9
 74
     0
 42
0.0000000045039458
 43
0.0000000001
 40
0.0
 40
0.0
 40
0.0
 40
0.0
 40
0.0862417226402963
 40
0.186017409744076
 40
0.309528562378999
 40
0.463341366045111
 40
0.709777616584437
 40
1.0
 40
1.0
 40
1.0
 40
1.0
 10
174.2291152374426
 20
774.8499337143413
 30
0.0
 10
174.0404247564958
 20
774.8480515552478
 30
0.0
 10
173.693042882478
 20
774.8439164475674
 30
0.0
 10
173.2204385832633
 20
774.8154311962307
 30
0.0
 10
172.8553882861463
 20
774.7645475371583
 30
0.0
 10
172.5493733827655
 20
774.662515544183
 30
0.0
 10
172.2925348114263
 20
774.5119787664224
 30
0.0
 10
172.1422741069342
 20
774.4403702108425
 30
0.0
 10
172.092431932709
 20
774.4161941636081
 30
0.0
  0
SPLINE
  5
16F
330
BD
100
AcDbEntity
  8
DV1_Default
  6
Continuous
 62
     7
100
AcDbSpline
210
0.0
220
0.0
230
1.0
 70
     8
 71
     3
 72
     8
 73
     4
 74
     0
 42
0.0000041465034083
 43
0.0000000001
 40
0.0
 40
0.0
 40
0.0
 40
0.0
 40
1.0
 40
1.0
 40
1.0
 40
1.0
 10
172.0060407215009
 20
774.3735673137036
 30
0.0
 10
172.0053100984979
 20
774.3732192180627
 30
0.0
 10
172.0045849248129
 20
774.3728762345447
 30
0.0
 10
172.003860537515
 20
774.3725363342068
 30
0.0
  0
LINE
  5
170
330
BD
100
AcDbEntity
  8
DV1_Default
  6
Continuous
 62
     7
100
AcDbLine
 10
248.1
 20
774.8468594986
 30
0.0
 11
230.6
 21
774.8468594986
 31
0.0
  0
LINE
  5
171
330
BD
100
AcDbEntity
  8
DV1_Default
  6
Continuous
 62
     7
100
AcDbLine
 10
162.6980875933
 20
780.45
 30
0.0
 11
148.5019124067
 21
780.45
 31
0.0
  0
ARC
  5
172
330
BD
100
AcDbEntity
  8
DV1_Default
  6
Continuous
 62
     7
100
AcDbCircle
 10
155.6
 20
775.4868097926
 30
0.0
 40
28.00000000000087
100
AcDbArc
 50
70.7627384947
 51
109.2372615053
  0
ARC
  5
173
330
BD
100
AcDbEntity
  8
DV1_Default
  6
Continuous
 62
     7
100
AcDbCircle
 10
164.2982915111
 20
800.4126944266
 30
0.0
 40
1.599999999999044
100
AcDbArc
 50
289.2372615054
 51
70.7627384947
  0
ARC
  5
174
330
BD
100
AcDbEntity
  8
DV1_Default
  6
Continuous
 62
     7
100
AcDbCircle
 10
146.9017084889
 20
800.4126944266
 30
0.0
 40
1.6
100
AcDbArc
 50
109.2372615053
 51
250.7627384946
  0
ARC
  5
175
330
BD
100
AcDbEntity
  8
DV1_Default
  6
Continuous
 62
     7
100
AcDbCircle
 10
155.6
 20
825.3385790606
 30
0.0
 40
28.0
100
AcDbArc
 50
250.7627384947
 51
253.4923462495
  0
ARC
  5
176
330
BD
100
AcDbEntity
  8
DV1_Default
  6
Continuous
 62
     7
100
AcDbCircle
 10
155.6
 20
825.3385790606
 30
0.0
 40
27.99999999999999
100
AcDbArc
 50
286.5076537505
 51
289.2372615053
  0
LINE
  5
177
330
BD
100
AcDbEntity
  8
DV1_Default
  6
Continuous
 62
     7
100
AcDbLine
 10
163.1980875933
 20
780.95
 30
0.0
 11
163.1980875933
 21
798.0132981411
 31
0.0
  0
LINE
  5
178
330
BD
100
AcDbEntity
  8
DV1_Default
  6
Continuous
 62
     7
100
AcDbLine
 10
148.0019124067
 20
798.0132981411
 30
0.0
 11
148.0019124067
 21
780.95
 31
0.0
  0
ARC
  5
179
330
BD
100
AcDbEntity
  8
DV1_Default
  6
Continuous
 62
     7
100
AcDbCircle
 10
162.6980875933
 20
780.95
 30
0.0
 40
0.4999999999999997
100
AcDbArc
 50
270.0
 51
0.0
  0
ARC
  5
17A
330
BD
100
AcDbEntity
  8
DV1_Default
  6
Continuous
 62
     7
100
AcDbCircle
 10
148.5019124067
 20
780.95
 30
0.0
 40
0.4999999999999996
100
AcDbArc
 50
180.0
 51
270.0
  0
ARC
  5
17B
330
BD
100
AcDbEntity
  8
DV1_Default
  6
Continuous
 62
     7
100
AcDbCircle
 10
147.5019124067
 20
798.0132981411
 30
0.0
 40
0.5000000000000023
100
AcDbArc
 50
0.0
 51
73.4923462495
  0
ARC
  5
17C
330
BD
100
AcDbEntity
  8
DV1_Default
  6
Continuous
 62
     7
100
AcDbCircle
 10
163.6980875933
 20
798.0132981411
 30
0.0
 40
0.5000000000000004
100
AcDbArc
 50
106.5076537505
 51
180.0
  0
LINE
  5
17D
330
BD
100
AcDbEntity
  8
DV1_Default
  6
Continuous
 62
     7
100
AcDbLine
 10
144.6
 20
1752.767951671
 30
0.0
 11
144.6
 21
1237.25
 31
0.0
  0
LINE
  5
17E
330
BD
100
AcDbEntity
  8
DV1_Default
  6
Continuous
 62
     7
100
AcDbLine
 10
144.6
 20
1201.25
 30
0.0
 11
144.6
 21
774.95
 31
0.0
  0
LINE
  5
17F
330
BD
100
AcDbEntity
  8
DV1_Default
  6
Continuous
 62
     7
100
AcDbLine
 10
166.6
 20
774.95
 30
0.0
 11
166.6
 21
1201.25
 31
0.0
  0
LINE
  5
180
330
BD
100
AcDbEntity
  8
DV1_Default
  6
Continuous
 62
     7
100
AcDbLine
 10
166.6
 20
1237.25
 30
0.0
 11
166.6
 21
1752.767951671
 31
0.0
  0
ARC
  5
181
330
BD
100
AcDbEntity
  8
DV1_Default
  6
Continuous
 62
     7
100
AcDbCircle
 10
155.6
 20
1869.25
 30
0.0
 40
11.5
100
AcDbArc
 50
0.0
 51
180.0
  0
LINE
  5
182
330
BD
100
AcDbEntity
  8
DV1_Default
  6
Continuous
 62
     7
100
AcDbLine
 10
167.1
 20
1828.75
 30
0.0
 11
144.1
 21
1828.75
 31
0.0
  0
LINE
  5
183
330
BD
100
AcDbEntity
  8
DV1_Default
  6
Continuous
 62
     7
100
AcDbLine
 10
166.08
 20
1817.75
 30
0.0
 11
145.12
 21
1817.75
 31
0.0
  0
LINE
  5
184
330
BD
100
AcDbEntity
  8
DV1_Default
  6
Continuous
 62
     7
100
AcDbLine
 10
146.12
 20
1816.75
 30
0.0
 11
165.08
 21
1816.75
 31
0.0
  0
LINE
  5
185
330
BD
100
AcDbEntity
  8
DV1_Default
  6
Continuous
 62
     7
100
AcDbLine
 10
144.1
 20
1869.25
 30
0.0
 11
144.1
 21
1828.75
 31
0.0
  0
LINE
  5
186
330
BD
100
AcDbEntity
  8
DV1_Default
  6
Continuous
 62
     7
100
AcDbLine
 10
167.1
 20
1828.75
 30
0.0
 11
167.1
 21
1869.25
 31
0.0
  0
LINE
  5
187
330
BD
100
AcDbEntity
  8
DV1_Default
  6
Continuous
 62
     7
100
AcDbLine
 10
166.08
 20
1817.75
 30
0.0
 11
166.08
 21
1828.75
 31
0.0
  0
LINE
  5
188
330
BD
100
AcDbEntity
  8
DV1_Default
  6
Continuous
 62
     7
100
AcDbLine
 10
145.12
 20
1828.75
 30
0.0
 11
145.12
 21
1817.75
 31
0.0
  0
LINE
  5
189
330
BD
100
AcDbEntity
  8
DV1_Default
  6
Continuous
 62
     7
100
AcDbLine
 10
145.12
 20
1817.75
 30
0.0
 11
146.12
 21
1816.75
 31
0.0
  0
LINE
  5
18A
330
BD
100
AcDbEntity
  8
DV1_Default
  6
Continuous
 62
     7
100
AcDbLine
 10
165.08
 20
1816.75
 30
0.0
 11
166.08
 21
1817.75
 31
0.0
  0
LINE
  5
18B
330
BD
100
AcDbEntity
  8
DV1_Default
  6
Continuous
 62
     7
100
AcDbLine
 10
144.1
 20
1828.75
 30
0.0
 11
144.1
 21
1774.514730331
 31
0.0
  0
LINE
  5
18C
330
BD
100
AcDbEntity
  8
DV1_Default
  6
Continuous
 62
     7
100
AcDbLine
 10
167.1
 20
1774.514730331
 30
0.0
 11
167.1
 21
1828.75
 31
0.0
  0
LINE
  5
18D
330
BD
100
AcDbEntity
  8
DV1_Default
  6
Continuous
 62
     7
100
AcDbLine
 10
146.285
 20
1816.75
 30
0.0
 11
146.285
 21
1826.25
 31
0.0
  0
LINE
  5
18E
330
BD
100
AcDbEntity
  8
DV1_Default
  6
Continuous
 62
     7
100
AcDbLine
 10
164.915
 20
1816.75
 30
0.0
 11
164.915
 21
1826.25
 31
0.0
  0
LINE
  5
18F
330
BD
100
AcDbEntity
  8
DV1_Default
  6
Continuous
 62
     7
100
AcDbLine
 10
166.08
 20
1826.25
 30
0.0
 11
145.12
 21
1826.25
 31
0.0
  0
CIRCLE
  5
190
330
BD
100
AcDbEntity
  8
DV1_Default
  6
Continuous
 62
     7
100
AcDbCircle
 10
155.6
 20
1763.9
 30
0.0
 40
15.64999999999998
  0
ARC
  5
191
330
BD
100
AcDbEntity
  8
DV1_Default
  6
Continuous
 62
     7
100
AcDbCircle
 10
125.7500216263
 20
1264.1423464206
 30
0.0
 40
22.98450261383559
100
AcDbArc
 50
252.2703749234
 51
287.7305254963
  0
LINE
  5
192
330
BD
100
AcDbEntity
  8
DV1_Default
  6
Continuous
 62
     7
100
AcDbLine
 10
113.25
 20
1201.95
 30
0.0
 11
113.25
 21
1236.55
 31
0.0
  0
ARC
  5
193
330
BD
100
AcDbEntity
  8
DV1_Default
  6
Continuous
 62
     7
100
AcDbCircle
 10
125.7500412248
 20
1253.8211964334
 30
0.0
 40
17.98934910701986
100
AcDbArc
 50
247.1036896946
 51
292.8983965512
  0
LINE
  5
194
330
BD
100
AcDbEntity
  8
DV1_Default
  6
Continuous
 62
     7
100
AcDbLine
 10
138.25
 20
1237.05
 30
0.0
 11
138.25
 21
1201.45
 31
0.0
  0
LINE
  5
195
330
BD
100
AcDbEntity
  8
DV1_Default
  6
Continuous
 62
     7
100
AcDbLine
 10
118.8163991336
 20
1237.25
 30
0.0
 11
113.95
 21
1237.25
 31
0.0
  0
LINE
  5
196
330
BD
100
AcDbEntity
  8
DV1_Default
  6
Continuous
 62
     7
100
AcDbLine
 10
138.05
 20
1237.25
 30
0.0
 11
132.6887572498
 21
1237.25
 31
0.0
  0
LINE
  5
197
330
BD
100
AcDbEntity
  8
DV1_Default
  6
Continuous
 62
     7
100
AcDbLine
 10
113.95
 20
1201.25
 30
0.0
 11
138.05
 21
1201.25
 31
0.0
  0
LINE
  5
198
330
BD
100
AcDbEntity
  8
DV1_Default
  6
Continuous
 62
     7
100
AcDbLine
 10
132.75
 20
1237.2266950334
 30
0.0
 11
132.75
 21
1242.25
 31
0.0
  0
LINE
  5
199
330
BD
100
AcDbEntity
  8
DV1_Default
  6
Continuous
 62
     7
100
AcDbLine
 10
118.75
 20
1242.25
 30
0.0
 11
118.75
 21
1237.2245880239
 31
0.0
  0
LINE
  5
19A
330
BD
100
AcDbEntity
  8
DV1_Default
  6
Continuous
 62
     7
100
AcDbLine
 10
132.75
 20
1242.25
 30
0.0
 11
118.75
 21
1242.25
 31
0.0
  0
ARC
  5
19B
330
BD
100
AcDbEntity
  8
DV1_Default
  6
Continuous
 62
     7
100
AcDbCircle
 10
113.95
 20
1201.95
 30
0.0
 40
0.6999999999999923
100
AcDbArc
 50
180.0
 51
270.0
  0
ARC
  5
19C
330
BD
100
AcDbEntity
  8
DV1_Default
  6
Continuous
 62
     7
100
AcDbCircle
 10
113.95
 20
1236.55
 30
0.0
 40
0.6999999999999784
100
AcDbArc
 50
90.0
 51
180.0
  0
ARC
  5
19D
330
BD
100
AcDbEntity
  8
DV1_Default
  6
Continuous
 62
     7
100
AcDbCircle
 10
138.05
 20
1201.45
 30
0.0
 40
0.2000000000000335
100
AcDbArc
 50
270.0
 51
0.0
  0
ARC
  5
19E
330
BD
100
AcDbEntity
  8
DV1_Default
  6
Continuous
 62
     7
100
AcDbCircle
 10
138.05
 20
1237.05
 30
0.0
 40
0.1999999999999988
100
AcDbArc
 50
0.0
 51
90.0
  0
LINE
  5
19F
330
BD
100
AcDbEntity
  8
DV1_Default
  6
Continuous
 62
     7
100
AcDbLine
 10
171.6
 20
1201.25
 30
0.0
 11
171.6
 21
1237.25
 31
0.0
  0
LINE
  5
1A0
330
BD
100
AcDbEntity
  8
DV1_Default
  6
Continuous
 62
     7
100
AcDbLine
 10
139.6
 20
1201.25
 30
0.0
 11
139.6
 21
1237.25
 31
0.0
  0
LINE
  5
1A1
330
BD
100
AcDbEntity
  8
DV1_Default
  6
Continuous
 62
     7
100
AcDbLine
 10
166.6
 20
1201.25
 30
0.0
 11
171.6
 21
1201.25
 31
0.0
  0
LINE
  5
1A2
330
BD
100
AcDbEntity
  8
DV1_Default
  6
Continuous
 62
     7
100
AcDbLine
 10
139.6
 20
1201.25
 30
0.0
 11
144.6
 21
1201.25
 31
0.0
  0
LINE
  5
1A3
330
BD
100
AcDbEntity
  8
DV1_Default
  6
Continuous
 62
     7
100
AcDbLine
 10
144.6
 20
1237.25
 30
0.0
 11
139.6
 21
1237.25
 31
0.0
  0
LINE
  5
1A4
330
BD
100
AcDbEntity
  8
DV1_Default
  6
Continuous
 62
     7
100
AcDbLine
 10
171.6
 20
1237.25
 30
0.0
 11
166.6
 21
1237.25
 31
0.0
  0
LINE
  5
1A5
330
BD
100
AcDbEntity
  8
DV1_Default
  6
Continuous
 62
     7
100
AcDbLine
 10
171.6
 20
1202.55
 30
0.0
 11
172.45
 21
1202.55
 31
0.0
  0
LINE
  5
1A6
330
BD
100
AcDbEntity
  8
DV1_Default
  6
Continuous
 62
     7
100
AcDbLine
 10
172.45
 20
1235.95
 30
0.0
 11
171.6
 21
1235.95
 31
0.0
  0
LINE
  5
1A7
330
BD
100
AcDbEntity
  8
DV1_Default
  6
Continuous
 62
     7
100
AcDbLine
 10
138.25
 20
1202.55
 30
0.0
 11
139.6
 21
1202.55
 31
0.0
  0
LINE
  5
1A8
330
BD
100
AcDbEntity
  8
DV1_Default
  6
Continuous
 62
     7
100
AcDbLine
 10
139.6
 20
1235.95
 30
0.0
 11
138.25
 21
1235.95
 31
0.0
  0
LINE
  5
1A9
330
BD
100
AcDbEntity
  8
DV1_Default
  6
Continuous
 62
     7
100
AcDbLine
 10
218.95
 20
1234.8384572681
 30
0.0
 11
214.7242971305
 21
1234.8384572681
 31
0.0
  0
LINE
  5
1AA
330
BD
100
AcDbEntity
  8
DV1_Default
  6
Continuous
 62
     7
100
AcDbLine
 10
218.95
 20
1203.6615427319
 30
0.0
 11
212.3518832593
 21
1203.6615427319
 31
0.0
  0
LINE
  5
1AB
330
BD
100
AcDbEntity
  8
DV1_Default
  6
Continuous
 62
     7
100
AcDbLine
 10
218.95
 20
1234.8384572681
 30
0.0
 11
218.95
 21
1203.6615427319
 31
0.0
  0
LINE
  5
1AC
330
BD
100
AcDbEntity
  8
DV1_Default
  6
Continuous
 62
     7
100
AcDbLine
 10
172.45
 20
1201.45
 30
0.0
 11
172.45
 21
1237.05
 31
0.0
  0
SPLINE
  5
1AD
330
BD
100
AcDbEntity
  8
DV1_Default
  6
Continuous
 62
     7
100
AcDbSpline
210
0.0
220
0.0
230
1.0
 70
     8
 71
     3
 72
    22
 73
    18
 74
     0
 42
0.0000000003955022
 43
0.0000000001
 40
0.0
 40
0.0
 40
0.0
 40
0.0
 40
0.1241949969138301
 40
0.1241949969138301
 40
0.2493099973547116
 40
0.2493099973547116
 40
0.4995399982364747
 40
0.4995399982364747
 40
0.5620974984569151
 40
0.5620974984569151
 40
0.6246549986773557
 40
0.6246549986773557
 40
0.7497699991182372
 40
0.7497699991182372
 40
0.8748849995591185
 40
0.8748849995591185
 40
1.0
 40
1.0
 40
1.0
 40
1.0
 10
191.5368983740801
 20
1237.249999482244
 30
0.0
 10
191.5368784183411
 20
1237.249987977067
 30
0.0
 10
191.7606675312564
 20
1237.087765623376
 30
0.0
 10
192.6017296828139
 20
1236.499114539389
 30
0.0
 10
193.218281395616
 20
1236.073755199679
 30
0.0
 10
195.4844251490666
 20
1234.613624118761
 30
0.0
 10
197.5389902762846
 20
1233.362584994402
 30
0.0
 10
200.6100904182273
 20
1232.270254509126
 30
0.0
 10
201.2446673080851
 20
1232.079729342178
 30
0.0
 10
202.5627264096205
 20
1231.779367149682
 30
0.0
 10
203.2529671399558
 20
1231.670177347596
 30
0.0
 10
205.3092473120005
 20
1231.51083468175
 30
0.0
 10
206.7174915390651
 20
1231.634619281562
 30
0.0
 10
209.351477779953
 20
1232.241982294322
 30
0.0
 10
210.591818269929
 20
1232.713493560213
 30
0.0
 10
212.8168413094909
 20
1233.738095043855
 30
0.0
 10
213.8332904300374
 20
1234.303665779518
 30
0.0
 10
214.7242971304956
 20
1234.83845726812
 30
0.0
  0
SPLINE
  5
1AE
330
BD
100
AcDbEntity
  8
DV1_Default
  6
Continuous
 62
     7
100
AcDbSpline
210
0.0
220
0.0
230
1.0
 70
     8
 71
     3
 72
    22
 73
    18
 74
     0
 42
0.0000000004933761
 43
0.0000000001
 40
0.0
 40
0.0
 40
0.0
 40
0.0
 40
0.1248835489704234
 40
0.1248835489704234
 40
0.2497670979408469
 40
0.2497670979408469
 40
0.3746506469112704
 40
0.3746506469112704
 40
0.4995341958816938
 40
0.4995341958816938
 40
0.7493012938225408
 40
0.7493012938225408
 40
0.8741848427929645
 40
0.8741848427929645
 40
0.999068391763388
 40
0.999068391763388
 40
1.0
 40
1.0
 40
1.0
 40
1.0
 10
212.3518832593063
 20
1203.66154273188
 30
0.0
 10
211.5448171155891
 20
1204.060388055473
 30
0.0
 10
210.6539351457303
 20
1204.454568212082
 30
0.0
 10
208.6675763434243
 20
1205.130491115064
 30
0.0
 10
207.6070366491032
 20
1205.397385057531
 30
0.0
 10
205.3567507941989
 20
1205.660424206899
 30
0.0
 10
204.2204119150014
 20
1205.645304355155
 30
0.0
 10
201.9864941454569
 20
1205.331515117461
 30
0.0
 10
200.9275503459636
 20
1205.041480962619
 30
0.0
 10
198.018267169118
 20
1203.999770757997
 30
0.0
 10
196.4185203748581
 20
1203.099939101612
 30
0.0
 10
194.6847399103024
 20
1202.065248695604
 30
0.0
 10
194.222314829338
 20
1201.770355098057
 30
0.0
 10
193.5933976705389
 20
1201.363715813543
 30
0.0
 10
193.4260376385728
 20
1201.25162966511
 30
0.0
 10
193.4235876392324
 20
1201.250006314427
 30
0.0
 10
193.423578721974
 20
1201.250000472548
 30
0.0
 10
193.4235790209001
 20
1201.250000800868
 30
0.0
  0
LINE
  5
1AF
330
BD
100
AcDbEntity
  8
DV1_Default
  6
Continuous
 62
     7
100
AcDbLine
 10
172.65
 20
1201.25
 30
0.0
 11
193.4541254428
 21
1201.25
 31
0.0
  0
LINE
  5
1B0
330
BD
100
AcDbEntity
  8
DV1_Default
  6
Continuous
 62
     7
100
AcDbLine
 10
191.556552043
 20
1237.25
 30
0.0
 11
172.65
 21
1237.25
 31
0.0
  0
ARC
  5
1B1
330
BD
100
AcDbEntity
  8
DV1_Default
  6
Continuous
 62
     7
100
AcDbCircle
 10
172.65
 20
1201.45
 30
0.0
 40
0.2000000000000023
100
AcDbArc
 50
180.0
 51
270.0
  0
ARC
  5
1B2
330
BD
100
AcDbEntity
  8
DV1_Default
  6
Continuous
 62
     7
100
AcDbCircle
 10
172.65
 20
1237.05
 30
0.0
 40
0.2000000000000335
100
AcDbArc
 50
90.0
 51
180.0
  0
CIRCLE
  5
1B3
330
BD
100
AcDbEntity
  8
DV1_Default
  6
Continuous
 62
     7
100
AcDbCircle
 10
155.6
 20
1763.9
 30
0.0
 40
15.6
  0
ENDBLK
  5
1B5
330
BD
100
AcDbEntity
  8
0
100
AcDbBlockEnd
  0
BLOCK
  5
268
330
1B6
100
AcDbEntity
  8
0
100
AcDbBlockBegin
  2
SE1
 70
     0
 10
0.0
 20
0.0
 30
0.0
  3
SE1
  1

  0
LINE
  5
1B9
330
1B6
100
AcDbEntity
  8
DV2_Default
  6
Continuous
 62
     7
100
AcDbLine
 10
488.8
 20
1030.25
 30
0.0
 11
488.8
 21
1019.7449874371
 31
0.0
  0
LINE
  5
1BA
330
1B6
100
AcDbEntity
  8
DV2_Default
  6
Continuous
 62
     7
100
AcDbLine
 10
511.8
 20
1019.7449874371
 30
0.0
 11
511.8
 21
1030.25
 31
0.0
  0
ARC
  5
1BB
330
1B6
100
AcDbEntity
  8
DV2_Default
  6
Continuous
 62
     7
100
AcDbCircle
 10
510.8
 20
1019.7449874371
 30
0.0
 40
0.9999999999999842
100
AcDbArc
 50
300.0
 51
0.0
  0
ARC
  5
1BC
330
1B6
100
AcDbEntity
  8
DV2_Default
  6
Continuous
 62
     7
100
AcDbCircle
 10
489.8
 20
1019.7449874371
 30
0.0
 40
1.000000000000001
100
AcDbArc
 50
180.0
 51
240.0
  0
ARC
  5
1BD
330
1B6
100
AcDbEntity
  8
DV2_Default
  6
Continuous
 62
     7
100
AcDbCircle
 10
489.8
 20
1030.25
 30
0.0
 40
1.000000000000001
100
AcDbArc
 50
120.0
 51
180.0
  0
ARC
  5
1BE
330
1B6
100
AcDbEntity
  8
DV2_Default
  6
Continuous
 62
     7
100
AcDbCircle
 10
510.8
 20
1030.25
 30
0.0
 40
1.000000000000001
100
AcDbArc
 50
0.0
 51
60.0
  0
LINE
  5
1BF
330
1B6
100
AcDbEntity
  8
DV2_Default
  6
Continuous
 62
     7
100
AcDbLine
 10
511.8
 20
1236.55
 30
0.0
 11
511.3
 21
1236.55
 31
0.0
  0
LINE
  5
1C0
330
1B6
100
AcDbEntity
  8
DV2_Default
  6
Continuous
 62
     7
100
AcDbLine
 10
489.3
 20
1236.55
 30
0.0
 11
488.8
 21
1236.55
 31
0.0
  0
LINE
  5
1C1
330
1B6
100
AcDbEntity
  8
DV2_Default
  6
Continuous
 62
     7
100
AcDbLine
 10
512.1
 20
1236.25
 30
0.0
 11
511.3
 21
1236.25
 31
0.0
  0
LINE
  5
1C2
330
1B6
100
AcDbEntity
  8
DV2_Default
  6
Continuous
 62
     7
100
AcDbLine
 10
489.3
 20
1236.25
 30
0.0
 11
488.5
 21
1236.25
 31
0.0
  0
LINE
  5
1C3
330
1B6
100
AcDbEntity
  8
DV2_Default
  6
Continuous
 62
     7
100
AcDbLine
 10
511.8
 20
1239.6
 30
0.0
 11
511.3
 21
1239.6
 31
0.0
  0
LINE
  5
1C4
330
1B6
100
AcDbEntity
  8
DV2_Default
  6
Continuous
 62
     7
100
AcDbLine
 10
489.3
 20
1239.6
 30
0.0
 11
488.8
 21
1239.6
 31
0.0
  0
LINE
  5
1C5
330
1B6
100
AcDbEntity
  8
DV2_Default
  6
Continuous
 62
     7
100
AcDbLine
 10
488.8
 20
1239.6
 30
0.0
 11
488.8
 21
1236.55
 31
0.0
  0
LINE
  5
1C6
330
1B6
100
AcDbEntity
  8
DV2_Default
  6
Continuous
 62
     7
100
AcDbLine
 10
511.8
 20
1236.55
 30
0.0
 11
511.8
 21
1239.6
 31
0.0
  0
LINE
  5
1C7
330
1B6
100
AcDbEntity
  8
DV2_Default
  6
Continuous
 62
     7
100
AcDbLine
 10
512.1
 20
1236.25
 30
0.0
 11
511.8
 21
1236.55
 31
0.0
  0
LINE
  5
1C8
330
1B6
100
AcDbEntity
  8
DV2_Default
  6
Continuous
 62
     7
100
AcDbLine
 10
488.8
 20
1236.55
 30
0.0
 11
488.5
 21
1236.25
 31
0.0
  0
LINE
  5
1C9
330
1B6
100
AcDbEntity
  8
DV2_Default
  6
Continuous
 62
     7
100
AcDbLine
 10
488.5
 20
1236.25
 30
0.0
 11
488.6708945485
 21
1232.9891377604
 31
0.0
  0
LINE
  5
1CA
330
1B6
100
AcDbEntity
  8
DV2_Default
  6
Continuous
 62
     7
100
AcDbLine
 10
511.9291054515
 20
1232.9891377604
 30
0.0
 11
512.1
 21
1236.25
 31
0.0
  0
LINE
  5
1CB
330
1B6
100
AcDbEntity
  8
DV2_Default
  6
Continuous
 62
     7
100
AcDbLine
 10
452.1
 20
1798.4
 30
0.0
 11
452.1
 21
1729.4
 31
0.0
  0
LINE
  5
1CC
330
1B6
100
AcDbEntity
  8
DV2_Default
  6
Continuous
 62
     7
100
AcDbLine
 10
437.1
 20
1728.6
 30
0.0
 11
437.1
 21
1799.2
 31
0.0
  0
LINE
  5
1CD
330
1B6
100
AcDbEntity
  8
DV2_Default
  6
Continuous
 62
     7
100
AcDbLine
 10
437.3
 20
1728.4
 30
0.0
 11
451.1
 21
1728.4
 31
0.0
  0
LINE
  5
1CE
330
1B6
100
AcDbEntity
  8
DV2_Default
  6
Continuous
 62
     7
100
AcDbLine
 10
451.1
 20
1799.4
 30
0.0
 11
437.3
 21
1799.4
 31
0.0
  0
ARC
  5
1CF
330
1B6
100
AcDbEntity
  8
DV2_Default
  6
Continuous
 62
     7
100
AcDbCircle
 10
451.1
 20
1798.4
 30
0.0
 40
1.000000000000001
100
AcDbArc
 50
0.0
 51
90.0
  0
ARC
  5
1D0
330
1B6
100
AcDbEntity
  8
DV2_Default
  6
Continuous
 62
     7
100
AcDbCircle
 10
451.1
 20
1729.4
 30
0.0
 40
1.000000000000001
100
AcDbArc
 50
270.0
 51
0.0
  0
ARC
  5
1D1
330
1B6
100
AcDbEntity
  8
DV2_Default
  6
Continuous
 62
     7
100
AcDbCircle
 10
437.3
 20
1799.2
 30
0.0
 40
0.199999999999978
100
AcDbArc
 50
90.0
 51
180.0
  0
ARC
  5
1D2
330
1B6
100
AcDbEntity
  8
DV2_Default
  6
Continuous
 62
     7
100
AcDbCircle
 10
437.3
 20
1728.6
 30
0.0
 40
0.1999999999999919
100
AcDbArc
 50
180.0
 51
270.0
  0
LINE
  5
1D3
330
1B6
100
AcDbEntity
  8
DV2_Default
  6
Continuous
 62
     7
100
AcDbLine
 10
479.6
 20
737.9
 30
0.0
 11
479.6
 21
758.8
 31
0.0
  0
LINE
  5
1D4
330
1B6
100
AcDbEntity
  8
DV2_Default
  6
Continuous
 62
     7
100
AcDbLine
 10
480.3
 20
758.8
 30
0.0
 11
479.6
 21
758.8
 31
0.0
  0
LINE
  5
1D5
330
1B6
100
AcDbEntity
  8
DV2_Default
  6
Continuous
 62
     7
100
AcDbLine
 10
479.6
 20
737.9
 30
0.0
 11
480.3
 21
737.9
 31
0.0
  0
LINE
  5
1D6
330
1B6
100
AcDbEntity
  8
DV2_Default
  6
Continuous
 62
     7
100
AcDbLine
 10
479.6
 20
758.8
 30
0.0
 11
479.5
 21
758.7165496252
 31
0.0
  0
LINE
  5
1D7
330
1B6
100
AcDbEntity
  8
DV2_Default
  6
Continuous
 62
     7
100
AcDbLine
 10
479.5
 20
737.9834503748
 30
0.0
 11
479.6
 21
737.9
 31
0.0
  0
LINE
  5
1D8
330
1B6
100
AcDbEntity
  8
DV2_Default
  6
Continuous
 62
     7
100
AcDbLine
 10
462.5
 20
764.6
 30
0.0
 11
462.5
 21
732.1
 31
0.0
  0
LINE
  5
1D9
330
1B6
100
AcDbEntity
  8
DV2_Default
  6
Continuous
 62
     7
100
AcDbLine
 10
479.5
 20
764.6
 30
0.0
 11
479.5
 21
732.1
 31
0.0
  0
LINE
  5
1DA
330
1B6
100
AcDbEntity
  8
DV2_Default
  6
Continuous
 62
     7
100
AcDbLine
 10
479.5
 20
764.6
 30
0.0
 11
462.5
 21
764.6
 31
0.0
  0
LINE
  5
1DB
330
1B6
100
AcDbEntity
  8
DV2_Default
  6
Continuous
 62
     7
100
AcDbLine
 10
462.5
 20
732.1
 30
0.0
 11
479.5
 21
732.1
 31
0.0
  0
SPLINE
  5
1DC
330
1B6
100
AcDbEntity
  8
DV2_Default
  6
Continuous
 62
     7
100
AcDbSpline
210
0.0
220
0.0
230
1.0
 70
     8
 71
     3
 72
    16
 73
    12
 74
     0
 42
0.0000000487054515
 43
0.0000000001
 40
0.0
 40
0.0
 40
0.0
 40
0.0
 40
0.1231068554825418
 40
0.2376891968743042
 40
0.3436567424519171
 40
0.4410136210356354
 40
0.5298336797350925
 40
0.6102400939920304
 40
0.682389963393636
 40
0.8402928291762344
 40
1.0
 40
1.0
 40
1.0
 40
1.0
 10
502.4135178743305
 20
752.0780413255272
 30
0.0
 10
502.3997999464053
 20
752.0813052748584
 30
0.0
 10
502.373314109807
 20
752.0876071568512
 30
0.0
 10
502.336631044882
 20
752.0961201012103
 30
0.0
 10
502.3054046535605
 20
752.1034835097569
 30
0.0
 10
502.2799218329228
 20
752.1096660142812
 30
0.0
 10
502.2599828682601
 20
752.1146780661065
 30
0.0
 10
502.24501059863
 20
752.1185606105017
 30
0.0
 10
502.229752393126
 20
752.1224151101239
 30
0.0
 10
502.2175320205858
 20
752.1251632491189
 30
0.0
 10
502.2199385741437
 20
752.124541870802
 30
0.0
 10
502.221169929293
 20
752.1243177081412
 30
0.0
  0
SPLINE
  5
1DD
330
1B6
100
AcDbEntity
  8
DV2_Default
  6
Continuous
 62
     7
100
AcDbSpline
210
0.0
220
0.0
230
1.0
 70
    12
 71
     3
 72
    14
 73
    10
 74
     0
 42
0.0000000016708294
 43
0.0000000001
 40
0.0
 40
0.0
 40
0.0
 40
0.0
 40
0.2500000000000083
 40
0.2500000000000083
 40
0.4999999999999848
 40
0.4999999999999848
 40
0.7499999999999917
 40
0.7499999999999917
 40
1.0
 40
1.0
 40
1.0
 40
1.0
 10
502.4135178743305
 20
752.0780413255272
 30
0.0
 41
1.0
 10
502.5313303518272
 20
752.5667429479255
 30
0.0
 41
1.0
 10
502.6212777835635
 20
753.0589481624266
 30
0.0
 41
1.0
 10
502.7448613470027
 20
754.0471845492743
 30
0.0
 41
1.0
 10
502.7784972064683
 20
754.5432142604129
 30
0.0
 41
1.0
 10
502.7892393688789
 20
755.5358861081335
 30
0.0
 41
1.0
 10
502.7663456643264
 20
756.0325275518995
 30
0.0
 41
1.0
 10
502.6641768658724
 20
757.0232069097467
 30
0.0
 41
1.0
 10
502.5849020125205
 20
757.5172433570702
 30
0.0
 41
1.0
 10
502.4776927557143
 20
758.0083800420953
 30
0.0
 41
1.0
  0
ARC
  5
1DE
330
1B6
100
AcDbEntity
  8
DV2_Default
  6
Continuous
 62
     7
100
AcDbCircle
 10
489.6944405792
 20
755.1811969517
 30
0.0
 40
12.94879745086276
100
AcDbArc
 50
346.6785496046
 51
12.0814503955
  0
LINE
  5
1DF
330
1B6
100
AcDbEntity
  8
DV2_Default
  6
Continuous
 62
     7
100
AcDbLine
 10
502.3542314091
 20
751.9492894289
 30
0.0
 11
502.2948210579
 21
752.1976150275
 31
0.0
  0
ARC
  5
1E0
330
1B6
100
AcDbEntity
  8
DV2_Default
  6
Continuous
 62
     7
100
AcDbCircle
 10
520.3
 20
754.85
 30
0.0
 40
18.30000000000001
100
AcDbArc
 50
189.1981777051
 51
169.5618222949
  0
ARC
  5
1E1
330
1B6
100
AcDbEntity
  8
DV2_Default
  6
Continuous
 62
     7
100
AcDbCircle
 10
507.2615361764
 20
752.7385777023
 30
0.0
 40
5.091682810531568
100
AcDbArc
 50
187.7997431901
 51
189.1973165234
  0
ARC
  5
1E2
330
1B6
100
AcDbEntity
  8
DV2_Default
  6
Continuous
 62
     7
100
AcDbCircle
 10
507.3102815423
 20
757.2430853287
 30
0.0
 40
5.091682810443031
100
AcDbArc
 50
169.5626834766
 51
170.9602568099
  0
SPLINE
  5
1E3
330
1B6
100
AcDbEntity
  8
DV2_Default
  6
Continuous
 62
     7
100
AcDbSpline
210
0.0
220
0.0
230
1.0
 70
     8
 71
     3
 72
    12
 73
     8
 74
     0
 42
0.0000000488549363
 43
0.0000000001
 40
0.0
 40
0.0
 40
0.0
 40
0.0
 40
0.1077000269841509
 40
0.2144229052810032
 40
0.3205196399631747
 40
0.6095685615466329
 40
1.0
 40
1.0
 40
1.0
 40
1.0
 10
502.2843505840237
 20
757.9662694823326
 30
0.0
 10
502.2832244789246
 20
757.9661037005519
 30
0.0
 10
502.2810212832479
 20
757.9655955185043
 30
0.0
 10
502.2859610510146
 20
757.9665806297635
 30
0.0
 10
502.3027684508363
 20
757.9700855674384
 30
0.0
 10
502.3569406068901
 20
757.9830560989681
 30
0.0
 10
502.4336279690391
 20
757.9991388471141
 30
0.0
 10
502.4776927557143
 20
758.0083800420953
 30
0.0
  0
ARC
  5
1E4
330
1B6
100
AcDbEntity
  8
DV2_Default
  6
Continuous
 62
     7
100
AcDbCircle
 10
502.4183259023
 20
758.0090993008
 30
0.0
 40
0.1406548230562028
100
AcDbArc
 50
166.016208024
 51
197.7282669379
  0
ARC
  5
1E5
330
1B6
100
AcDbEntity
  8
DV2_Default
  6
Continuous
 62
     7
100
AcDbCircle
 10
502.3873543191
 20
752.0309767618
 30
0.0
 40
0.1906037347522233
100
AcDbArc
 50
119.0437340901
 51
150.6783425458
  0
ARC
  5
1E6
330
1B6
100
AcDbEntity
  8
DV2_Default
  6
Continuous
 62
     7
100
AcDbCircle
 10
502.452595528
 20
758.0561339949
 30
0.0
 40
0.1907406401196
100
AcDbArc
 50
208.1079702266
 51
239.7257960468
  0
SPLINE
  5
1E7
330
1B6
100
AcDbEntity
  8
DV2_Default
  6
Continuous
 62
     7
100
AcDbSpline
210
0.0
220
0.0
230
1.0
 70
     8
 71
     3
 72
    17
 73
    13
 74
     0
 42
0.0000001944765208
 43
0.0000000001
 40
0.0
 40
0.0
 40
0.0
 40
0.0
 40
0.3179096655929743
 40
0.3179096655929743
 40
0.3179096655929743
 40
0.6385994210859716
 40
0.6385994210859716
 40
0.6385994210859716
 40
0.9072624107241073
 40
0.9072624107241073
 40
0.9072624107241073
 40
1.0
 40
1.0
 40
1.0
 40
1.0
 10
502.2146053361168
 20
752.098820227107
 30
0.0
 10
502.214157092128
 20
752.0943284155106
 30
0.0
 10
502.2139449358064
 20
752.0895167006627
 30
0.0
 10
502.2139666503946
 20
752.0844049412915
 30
0.0
 10
502.213988645927
 20
752.0792270457523
 30
0.0
 10
502.2142506310952
 20
752.0736515611342
 30
0.0
 10
502.214715575662
 20
752.0678487395271
 30
0.0
 10
502.2151045872094
 20
752.0629936131871
 30
0.0
 10
502.2156446634025
 20
752.057872073455
 30
0.0
 10
502.2162716255253
 20
752.0528340762958
 30
0.0
 10
502.2164906816122
 20
752.051073836078
 30
0.0
 10
502.2167212838159
 20
752.0493142944953
 30
0.0
 10
502.2169593302752
 20
752.0475796656592
 30
0.0
  0
ARC
  5
1E8
330
1B6
100
AcDbEntity
  8
DV2_Default
  6
Continuous
 62
     7
100
AcDbCircle
 10
520.3389160731
 20
754.7495730906
 30
0.0
 40
20.00000000000005
100
AcDbArc
 50
331.893575848
 51
2.2351168948
  0
ARC
  5
1E9
330
1B6
100
AcDbEntity
  8
DV2_Default
  6
Continuous
 62
     7
100
AcDbCircle
 10
530.8933931981
 20
749.1690179527
 30
0.0
 40
8.061266252636944
100
AcDbArc
 50
331.5483669548
 51
332.7847002907
  0
CIRCLE
  5
1EA
330
1B6
100
AcDbEntity
  8
DV2_Default
  6
Continuous
 62
     7
100
AcDbCircle
 10
520.3
 20
754.85
 30
0.0
 40
20.0
  0
CIRCLE
  5
1EB
330
1B6
100
AcDbEntity
  8
DV2_Default
  6
Continuous
 62
     7
100
AcDbCircle
 10
520.3
 20
754.85
 30
0.0
 40
18.5
  0
ARC
  5
1EC
330
1B6
100
AcDbEntity
  8
DV2_Default
  6
Continuous
 62
     7
100
AcDbCircle
 10
517.0573221158
 20
737.504975629
 30
0.0
 40
0.8545480361015508
100
AcDbArc
 50
232.7780538022
 51
260.2180076972
  0
ARC
  5
1ED
330
1B6
100
AcDbEntity
  8
DV2_Default
  6
Continuous
 62
     7
100
AcDbCircle
 10
523.1665653621
 20
737.4388646747
 30
0.0
 40
0.854548036103992
100
AcDbArc
 50
278.5419923027
 51
305.9819461978
  0
ARC
  5
1EE
330
1B6
100
AcDbEntity
  8
DV2_Default
  6
Continuous
 62
     7
100
AcDbCircle
 10
522.566972263
 20
772.343506315
 30
0.0
 40
0.8603071284294848
100
AcDbArc
 50
56.0687313109
 51
83.4631861235
  0
LINE
  5
1EF
330
1B6
100
AcDbEntity
  8
DV2_Default
  6
Continuous
 62
     7
100
AcDbLine
 10
461.5
 20
783.35
 30
0.0
 11
461.5
 21
713.35
 31
0.0
  0
LINE
  5
1F0
330
1B6
100
AcDbEntity
  8
DV2_Default
  6
Continuous
 62
     7
100
AcDbLine
 10
435.5
 20
783.35
 30
0.0
 11
435.5
 21
713.35
 31
0.0
  0
LINE
  5
1F1
330
1B6
100
AcDbEntity
  8
DV2_Default
  6
Continuous
 62
     7
100
AcDbLine
 10
435.5
 20
713.35
 30
0.0
 11
461.5
 21
713.35
 31
0.0
  0
LINE
  5
1F2
330
1B6
100
AcDbEntity
  8
DV2_Default
  6
Continuous
 62
     7
100
AcDbLine
 10
461.5
 20
783.35
 30
0.0
 11
435.5
 21
783.35
 31
0.0
  0
LINE
  5
1F3
330
1B6
100
AcDbEntity
  8
DV2_Default
  6
Continuous
 62
     7
100
AcDbLine
 10
462.4744812559
 20
735.13
 30
0.0
 11
461.6
 21
737.35
 31
0.0
  0
LINE
  5
1F4
330
1B6
100
AcDbEntity
  8
DV2_Default
  6
Continuous
 62
     7
100
AcDbLine
 10
461.5
 20
737.35
 30
0.0
 11
461.6
 21
737.35
 31
0.0
  0
LINE
  5
1F5
330
1B6
100
AcDbEntity
  8
DV2_Default
  6
Continuous
 62
     7
100
AcDbLine
 10
461.6
 20
759.35
 30
0.0
 11
462.4744812559
 21
761.57
 31
0.0
  0
LINE
  5
1F6
330
1B6
100
AcDbEntity
  8
DV2_Default
  6
Continuous
 62
     7
100
AcDbLine
 10
461.5
 20
759.35
 30
0.0
 11
461.6
 21
759.35
 31
0.0
  0
LINE
  5
1F7
330
1B6
100
AcDbEntity
  8
DV2_Default
  6
Continuous
 62
     7
100
AcDbLine
 10
462.5
 20
761.57
 30
0.0
 11
462.4744812559
 21
761.57
 31
0.0
  0
LINE
  5
1F8
330
1B6
100
AcDbEntity
  8
DV2_Default
  6
Continuous
 62
     7
100
AcDbLine
 10
462.4744812559
 20
735.13
 30
0.0
 11
462.5
 21
735.13
 31
0.0
  0
LINE
  5
1F9
330
1B6
100
AcDbEntity
  8
DV2_Default
  6
Continuous
 62
     7
100
AcDbLine
 10
435.2340740861
 20
740.7
 30
0.0
 11
435.5
 21
740.7
 31
0.0
  0
LINE
  5
1FA
330
1B6
100
AcDbEntity
  8
DV2_Default
  6
Continuous
 62
     7
100
AcDbLine
 10
435.5
 20
756.0
 30
0.0
 11
435.2276904222
 21
756.0
 31
0.0
  0
SPLINE
  5
1FB
330
1B6
100
AcDbEntity
  8
DV2_Default
  6
Continuous
 62
     7
100
AcDbSpline
210
0.0
220
0.0
230
1.0
 70
     8
 71
     3
 72
     8
 73
     4
 74
     0
 42
0.0000000051587233
 43
0.0000000001
 40
0.9934625401095956
 40
0.9934625401095956
 40
0.9934625401095956
 40
0.9934625401095956
 40
1.0
 40
1.0
 40
1.0
 40
1.0
 10
435.2144564369696
 20
740.6582952328613
 30
0.0
 10
435.2186351967151
 20
740.657864301538
 30
0.0
 10
435.2228368569618
 20
740.6574307000877
 30
0.0
 10
435.2270622102059
 20
740.656995207073
 30
0.0
  0
SPLINE
  5
1FC
330
1B6
100
AcDbEntity
  8
DV2_Default
  6
Continuous
 62
     7
100
AcDbSpline
210
0.0
220
0.0
230
1.0
 70
     8
 71
     3
 72
     8
 73
     4
 74
     0
 42
0.0000000038820047
 43
0.0000000001
 40
0.0
 40
0.0
 40
0.0
 40
0.0
 40
0.0089387793206089
 40
0.0089387793206089
 40
0.0089387793206089
 40
0.0089387793206089
 10
435.23742512951
 20
756.0271173218566
 30
0.0
 10
435.2297310289069
 20
756.0276632535537
 30
0.0
 10
435.2220749122935
 20
756.028204897016
 30
0.0
 10
435.2144564478015
 20
756.0287437456634
 30
0.0
  0
LINE
  5
1FD
330
1B6
100
AcDbEntity
  8
DV2_Default
  6
Continuous
 62
     7
100
AcDbLine
 10
462.0136059994
 20
760.4
 30
0.0
 11
462.5
 21
760.4
 31
0.0
  0
LINE
  5
1FE
330
1B6
100
AcDbEntity
  8
DV2_Default
  6
Continuous
 62
     7
100
AcDbLine
 10
462.0136059994
 20
736.3
 30
0.0
 11
462.5
 21
736.3
 31
0.0
  0
LINE
  5
1FF
330
1B6
100
AcDbEntity
  8
DV2_Default
  6
Continuous
 62
     7
100
AcDbLine
 10
540.05
 20
724.3
 30
0.0
 11
560.55
 21
724.3
 31
0.0
  0
LINE
  5
200
330
1B6
100
AcDbEntity
  8
DV2_Default
  6
Continuous
 62
     7
100
AcDbLine
 10
559.55
 20
723.3
 30
0.0
 11
541.05
 21
723.3
 31
0.0
  0
LINE
  5
201
330
1B6
100
AcDbEntity
  8
DV2_Default
  6
Continuous
 62
     7
100
AcDbLine
 10
560.55
 20
724.3
 30
0.0
 11
560.55
 21
744.85
 31
0.0
  0
LINE
  5
202
330
1B6
100
AcDbEntity
  8
DV2_Default
  6
Continuous
 62
     7
100
AcDbLine
 10
540.05
 20
744.8138144812
 30
0.0
 11
540.05
 21
724.3
 31
0.0
  0
LINE
  5
203
330
1B6
100
AcDbEntity
  8
DV2_Default
  6
Continuous
 62
     7
100
AcDbLine
 10
540.05
 20
724.3
 30
0.0
 11
541.05
 21
723.3
 31
0.0
  0
LINE
  5
204
330
1B6
100
AcDbEntity
  8
DV2_Default
  6
Continuous
 62
     7
100
AcDbLine
 10
559.55
 20
723.3
 30
0.0
 11
560.55
 21
724.3
 31
0.0
  0
LINE
  5
205
330
1B6
100
AcDbEntity
  8
DV2_Default
  6
Continuous
 62
     7
100
AcDbLine
 10
544.7
 20
780.45
 30
0.0
 11
544.7
 21
774.95
 31
0.0
  0
LINE
  5
206
330
1B6
100
AcDbEntity
  8
DV2_Default
  6
Continuous
 62
     7
100
AcDbLine
 10
555.9
 20
774.95
 30
0.0
 11
555.9
 21
780.45
 31
0.0
  0
LINE
  5
207
330
1B6
100
AcDbEntity
  8
DV2_Default
  6
Continuous
 62
     7
100
AcDbLine
 10
520.2999999999
 20
734.85
 30
0.0
 11
498.8510455519
 21
734.85
 31
0.0
  0
SPLINE
  5
208
330
1B6
100
AcDbEntity
  8
DV2_Default
  6
Continuous
 62
     7
100
AcDbSpline
210
0.0
220
0.0
230
1.0
 70
     8
 71
     2
 72
     6
 73
     3
 74
     0
 42
0.0000000133825989
 43
0.0000000001
 40
0.0
 40
0.0
 40
0.0
 40
1.0
 40
1.0
 40
1.0
 10
502.0116938544211
 20
762.9490489787867
 30
0.0
 10
501.8611134045577
 20
762.6079684471782
 30
0.0
 10
501.7227646585964
 20
762.2600697471822
 30
0.0
  0
LINE
  5
209
330
1B6
100
AcDbEntity
  8
DV2_Default
  6
Continuous
 62
     7
100
AcDbLine
 10
501.5628802837
 20
763.6355939882
 30
0.0
 11
504.9791111376
 21
767.7057521937
 31
0.0
  0
LINE
  5
20A
330
1B6
100
AcDbEntity
  8
DV2_Default
  6
Continuous
 62
     7
100
AcDbLine
 10
500.3039229142
 20
754.4529475489
 30
0.0
 11
500.3108086531
 21
754.1611697192
 31
0.0
  0
SPLINE
  5
20B
330
1B6
100
AcDbEntity
  8
DV2_Default
  6
Continuous
 62
     7
100
AcDbSpline
210
0.0
220
0.0
230
1.0
 70
     8
 71
     3
 72
    53
 73
    49
 74
     0
 42
0.0000000018104277
 43
0.0000000001
 40
0.0
 40
0.0
 40
0.0
 40
0.0
 40
0.0283741188145485
 40
0.0564527045666644
 40
0.08423581016924
 40
0.1117234876316956
 40
0.1389157880679938
 40
0.1658127617050375
 40
0.1924144578913049
 40
0.2187209251055822
 40
0.244732210965697
 40
0.2704483622371987
 40
0.2958694248419097
 40
0.3209954438663275
 40
0.3458264635698606
 40
0.3703625273929142
 40
0.3946036779647947
 40
0.4185499571115117
 40
0.4422014058634642
 40
0.4655580644630575
 40
0.488619972372325
 40
0.5113871682805309
 40
0.5338596901118688
 40
0.5560375750332707
 40
0.5779208594623749
 40
0.5995095790756823
 40
0.620803768817015
 40
0.6418034629062432
 40
0.6625086948483405
 40
0.6829194974428878
 40
0.703035902793951
 40
0.7228579423204805
 40
0.7423856467671903
 40
0.7616190462160474
 40
0.7805581700983237
 40
0.7992030472073608
 40
0.8175537057120016
 40
0.8356101731708324
 40
0.8533724765472844
 40
0.8708406422254972
 40
0.8880146960274078
 40
0.9048946632307248
 40
0.9214805685881842
 40
0.9377724363480852
 40
0.9537702902762811
 40
0.9694741536797111
 40
0.984884049431858
 40
1.0
 40
1.0
 40
1.0
 40
1.0
 10
495.3155945509305
 20
752.4543333732222
 30
0.0
 10
495.3892297345344
 20
752.4576590502104
 30
0.0
 10
495.5357331481866
 20
752.4642757653133
 30
0.0
 10
495.7539161037024
 20
752.4777614319362
 30
0.0
 10
495.9689775511665
 20
752.4936687106966
 30
0.0
 10
496.1805473152357
 20
752.5121461450626
 30
0.0
 10
496.3882821118515
 20
752.5330129579079
 30
0.0
 10
496.5918657211338
 20
752.5561724361828
 30
0.0
 10
496.7910085431183
 20
752.5815035620567
 30
0.0
 10
496.9854472048109
 20
752.6088901927938
 30
0.0
 10
497.1749440522306
 20
752.638213947013
 30
0.0
 10
497.3592865809991
 20
752.6693566267644
 30
0.0
 10
497.5382868008211
 20
752.7022000951304
 30
0.0
 10
497.711780544253
 20
752.7366267927374
 30
0.0
 10
497.8796267258793
 20
752.7725200543488
 30
0.0
 10
498.0417065588015
 20
752.8097644466333
 30
0.0
 10
498.1979227347821
 20
752.8482460691373
 30
0.0
 10
498.3481985741554
 20
752.8878528341207
 30
0.0
 10
498.4924771512954
 20
752.9284747216465
 30
0.0
 10
498.6307204011141
 20
752.9700040114952
 30
0.0
 10
498.7629082117485
 20
753.012335492212
 30
0.0
 10
498.8890375082692
 20
753.0553666480031
 30
0.0
 10
499.0091213319245
 20
753.0989978241774
 30
0.0
 10
499.1231879191145
 20
753.143132371883
 30
0.0
 10
499.2312797839694
 20
753.1876767729416
 30
0.0
 10
499.333452808104
 20
753.2325407456059
 30
0.0
 10
499.4297753408053
 20
753.2776373320963
 30
0.0
 10
499.5203273126229
 20
753.3228829687956
 30
0.0
 10
499.6051993650374
 20
753.3681975399882
 30
0.0
 10
499.6844919986066
 20
753.4135044160446
 30
0.0
 10
499.7583147417217
 20
753.4587304769532
 30
0.0
 10
499.8267853418415
 20
753.5038061220979
 30
0.0
 10
499.8900289808453
 20
753.5486652671777
 30
0.0
 10
499.9481775158597
 20
753.593245329151
 30
0.0
 10
500.0013687468607
 20
753.6374872000802
 30
0.0
 10
500.0497457115417
 20
753.6813352107093
 30
0.0
 10
500.0934560099224
 20
753.7247370846956
 30
0.0
 10
500.1326511530399
 20
753.7676438839898
 30
0.0
 10
500.16748595885
 20
753.8100099473068
 30
0.0
 10
500.1981179128308
 20
753.8517928182616
 30
0.0
 10
500.2247067946067
 20
753.8929531791374
 30
0.0
 10
500.2474134745199
 20
753.9334547355766
 30
0.0
 10
500.266401866286
 20
753.9732642544101
 30
0.0
 10
500.2818295435605
 20
754.012351022605
 30
0.0
 10
500.2938796796377
 20
754.0506883902372
 30
0.0
 10
500.3026430511124
 20
754.0882477286893
 30
0.0
 10
500.3085444060358
 20
754.1250199061022
 30
0.0
 10
500.3100587648916
 20
754.1491973862425
 30
0.0
 10
500.3108086531457
 20
754.1611697191574
 30
0.0
  0
SPLINE
  5
20C
330
1B6
100
AcDbEntity
  8
DV2_Default
  6
Continuous
 62
     7
100
AcDbSpline
210
0.0
220
0.0
230
1.0
 70
     8
 71
     3
 72
    10
 73
     6
 74
     0
 42
0.0000000022742181
 43
0.0000000001
 40
0.0
 40
0.0
 40
0.0
 40
0.0
 40
0.5
 40
0.5
 40
1.0
 40
1.0
 40
1.0
 40
1.0
 10
497.7330522734603
 20
761.8500000000001
 30
0.0
 10
498.4601556641592
 20
761.8500000000001
 30
0.0
 10
499.186825533027
 20
762.0110723826958
 30
0.0
 10
500.5048298022149
 20
762.6255565360632
 30
0.0
 10
501.0953756683683
 20
763.0786006738211
 30
0.0
 10
501.5628807206542
 20
763.6355936214131
 30
0.0
  0
LINE
  5
20D
330
1B6
100
AcDbEntity
  8
DV2_Default
  6
Continuous
 62
     7
100
AcDbLine
 10
605.3
 20
774.95
 30
0.0
 11
620.3
 21
774.95
 31
0.0
  0
LINE
  5
20E
330
1B6
100
AcDbEntity
  8
DV2_Default
  6
Continuous
 62
     7
100
AcDbLine
 10
500.3
 20
774.95
 30
0.0
 11
485.3
 21
774.95
 31
0.0
  0
LINE
  5
20F
330
1B6
100
AcDbEntity
  8
DV2_Default
  6
Continuous
 62
     7
100
AcDbLine
 10
500.3
 20
774.95
 30
0.0
 11
519.7992807935
 21
774.95
 31
0.0
  0
LINE
  5
210
330
1B6
100
AcDbEntity
  8
DV2_Default
  6
Continuous
 62
     7
100
AcDbLine
 10
521.0490798718
 20
774.95
 30
0.0
 11
605.3
 21
774.95
 31
0.0
  0
LINE
  5
211
330
1B6
100
AcDbEntity
  8
DV2_Default
  6
Continuous
 62
     7
100
AcDbLine
 10
605.3
 20
744.85
 30
0.0
 11
620.3
 21
744.85
 31
0.0
  0
LINE
  5
212
330
1B6
100
AcDbEntity
  8
DV2_Default
  6
Continuous
 62
     7
100
AcDbLine
 10
605.3
 20
744.85
 30
0.0
 11
540.2737977631
 21
744.85
 31
0.0
  0
SPLINE
  5
213
330
1B6
100
AcDbEntity
  8
DV2_Default
  6
Continuous
 62
     7
100
AcDbSpline
210
0.0
220
0.0
230
1.0
 70
     8
 71
     3
 72
    17
 73
    13
 74
     0
 42
0.0000000016409119
 43
0.0000000001
 40
0.0
 40
0.0
 40
0.0
 40
0.0
 40
0.0114925066896941
 40
0.1194087550206596
 40
0.2278019089607189
 40
0.3366730933584854
 40
0.4460234183105771
 40
0.5558539793850794
 40
0.6661658578416119
 40
0.7769601208480229
 40
0.8882378216937695
 40
1.0
 40
1.0
 40
1.0
 40
1.0
 10
496.7679090172902
 20
761.8246519930717
 30
0.0
 10
496.781512151022
 20
761.8434761830206
 30
0.0
 10
496.9228540752607
 20
762.0390873597012
 30
0.0
 10
497.1925587338192
 20
762.4127630063817
 30
0.0
 10
497.5775003417992
 20
762.947440961518
 30
0.0
 10
497.9638783531946
 20
763.485732774284
 30
0.0
 10
498.351489446787
 20
764.0276379135449
 30
0.0
 10
498.7401260159624
 20
764.5731583774686
 30
0.0
 10
499.1295935819257
 20
765.1222866625213
 30
0.0
 10
499.5196458937754
 20
765.67505095922
 30
0.0
 10
499.9102292445242
 20
766.2313453718538
 30
0.0
 10
500.1698884080653
 20
766.6040162802224
 30
0.0
 10
500.2999999999994
 20
766.790756488302
 30
0.0
  0
SPLINE
  5
214
330
1B6
100
AcDbEntity
  8
DV2_Default
  6
Continuous
 62
     7
100
AcDbSpline
210
0.0
220
0.0
230
1.0
 70
     8
 71
     2
 72
     6
 73
     3
 74
     0
 42
0.000000002031538
 43
0.0000000001
 40
0.0
 40
0.0
 40
0.0
 40
1.0
 40
1.0
 40
1.0
 10
502.6897825902474
 20
769.6591205110816
 30
0.0
 10
505.0791936870914
 20
772.3629688844968
 30
0.0
 10
506.2548238491423
 20
772.95
 30
0.0
  0
LINE
  5
215
330
1B6
100
AcDbEntity
  8
DV2_Default
  6
Continuous
 62
     7
100
AcDbLine
 10
500.3000000032
 20
766.7907564883
 30
0.0
 11
502.6897794979
 21
769.6591170113
 31
0.0
  0
ARC
  5
216
330
1B6
100
AcDbEntity
  8
DV2_Default
  6
Continuous
 62
     7
100
AcDbCircle
 10
520.3
 20
754.85
 30
0.0
 40
20.00000000000004
100
AcDbArc
 50
66.3048228603
 51
67.4351268605
  0
ARC
  5
217
330
1B6
100
AcDbEntity
  8
DV2_Default
  6
Continuous
 62
     7
100
AcDbCircle
 10
520.3
 20
754.85
 30
0.0
 40
20.00000000000004
100
AcDbArc
 50
68.268228924
 51
92.7199096284
  0
ARC
  5
218
330
1B6
100
AcDbEntity
  8
DV2_Default
  6
Continuous
 62
     7
100
AcDbCircle
 10
520.2641897067
 20
722.7301417288
 30
0.0
 40
52.13728508955001
100
AcDbArc
 50
74.4129878285
 51
105.5870121715
  0
SPLINE
  5
219
330
1B6
100
AcDbEntity
  8
DV2_Default
  6
Continuous
 62
     7
100
AcDbSpline
210
0.0
220
0.0
230
1.0
 70
     8
 71
     2
 72
    10
 73
     7
 74
     0
 42
0.0000000003338329
 43
0.0000000001
 40
0.0
 40
0.0
 40
0.0
 40
0.25
 40
0.25
 40
0.5
 40
0.5
 40
1.0
 40
1.0
 40
1.0
 10
534.2735555643085
 20
772.95
 30
0.0
 10
536.4879135532276
 20
771.8130423490884
 30
0.0
 10
539.1892974708907
 20
767.9599243473683
 30
0.0
 10
541.3289378538
 20
764.908049039053
 30
0.0
 10
542.3672334035697
 20
761.3576594288309
 30
0.0
 10
544.572201875875
 20
753.81790145079
 30
0.0
 10
541.8567460762179
 20
746.85
 30
0.0
  0
ARC
  5
21A
330
1B6
100
AcDbEntity
  8
DV2_Default
  6
Continuous
 62
     7
100
AcDbCircle
 10
537.5442357145
 20
748.6368091607
 30
0.0
 40
4.668022343244226
100
AcDbArc
 50
305.7843620221
 51
337.4942293957
  0
SPLINE
  5
21B
330
1B6
100
AcDbEntity
  8
DV2_Default
  6
Continuous
 62
     7
100
AcDbSpline
210
0.0
220
0.0
230
1.0
 70
     8
 71
     3
 72
     8
 73
     4
 74
     0
 42
0.0000000035232658
 43
0.0000000001
 40
0.0
 40
0.0
 40
0.0
 40
0.0
 40
1.0
 40
1.0
 40
1.0
 40
1.0
 10
535.9298771130506
 20
742.3717412500414
 30
0.0
 10
536.4920728309019
 20
743.0759300442343
 30
0.0
 10
537.2285960409099
 20
743.7429372115254
 30
0.0
 10
538.0500012382157
 20
744.2072086162668
 30
0.0
  0
LINE
  5
21C
330
1B6
100
AcDbEntity
  8
DV2_Default
  6
Continuous
 62
     7
100
AcDbLine
 10
480.3
 20
761.35
 30
0.0
 11
480.3
 21
735.35
 31
0.0
  0
ARC
  5
21D
330
1B6
100
AcDbEntity
  8
DV2_Default
  6
Continuous
 62
     7
100
AcDbCircle
 10
540.3950314135
 20
740.262009832
 30
0.0
 40
4.589527205597512
100
AcDbArc
 50
91.5151589525
 51
120.7272928813
  0
LINE
  5
21E
330
1B6
100
AcDbEntity
  8
DV2_Default
  6
Continuous
 62
     7
100
AcDbLine
 10
480.8
 20
734.85
 30
0.0
 11
498.8384022299
 21
734.85
 31
0.0
  0
LINE
  5
21F
330
1B6
100
AcDbEntity
  8
DV2_Default
  6
Continuous
 62
     7
100
AcDbLine
 10
497.7330507838
 20
761.85
 30
0.0
 11
480.8
 21
761.85
 31
0.0
  0
LINE
  5
220
330
1B6
100
AcDbEntity
  8
DV2_Default
  6
Continuous
 62
     7
100
AcDbLine
 10
622.3
 20
746.85
 30
0.0
 11
622.3
 21
772.95
 31
0.0
  0
LINE
  5
221
330
1B6
100
AcDbEntity
  8
DV2_Default
  6
Continuous
 62
     7
100
AcDbLine
 10
483.3
 20
772.95
 30
0.0
 11
483.3
 21
761.85
 31
0.0
  0
ARC
  5
222
330
1B6
100
AcDbEntity
  8
DV2_Default
  6
Continuous
 62
     7
100
AcDbCircle
 10
620.3
 20
772.95
 30
0.0
 40
2.000000000000002
100
AcDbArc
 50
0.0
 51
90.0
  0
ARC
  5
223
330
1B6
100
AcDbEntity
  8
DV2_Default
  6
Continuous
 62
     7
100
AcDbCircle
 10
485.3
 20
772.95
 30
0.0
 40
1.999999999999998
100
AcDbArc
 50
90.0
 51
180.0
  0
ARC
  5
224
330
1B6
100
AcDbEntity
  8
DV2_Default
  6
Continuous
 62
     7
100
AcDbCircle
 10
620.3
 20
746.85
 30
0.0
 40
2.000000000000002
100
AcDbArc
 50
270.0
 51
0.0
  0
ARC
  5
225
330
1B6
100
AcDbEntity
  8
DV2_Default
  6
Continuous
 62
     7
100
AcDbCircle
 10
521.5215341749
 20
754.0528942705
 30
0.0
 40
18.56476312925595
100
AcDbArc
 50
322.4177378406
 51
323.1702689424
  0
LINE
  5
226
330
1B6
100
AcDbEntity
  8
DV2_Default
  6
Continuous
 62
     7
100
AcDbLine
 10
506.0353636793
 20
768.8717251172
 30
0.0
 11
507.7579149266
 21
770.4503320025
 31
0.0
  0
LINE
  5
227
330
1B6
100
AcDbEntity
  8
DV2_Default
  6
Continuous
 62
     7
100
AcDbLine
 10
519.2958997686
 20
774.7988957545
 30
0.0
 11
518.5068021658
 21
774.7599531875
 31
0.0
  0
ARC
  5
228
330
1B6
100
AcDbEntity
  8
DV2_Default
  6
Continuous
 62
     7
100
AcDbCircle
 10
480.8
 20
735.35
 30
0.0
 40
0.5000000000000004
100
AcDbArc
 50
180.0
 51
270.0
  0
ARC
  5
229
330
1B6
100
AcDbEntity
  8
DV2_Default
  6
Continuous
 62
     7
100
AcDbCircle
 10
480.8
 20
761.35
 30
0.0
 40
0.499999999999997
100
AcDbArc
 50
90.0
 51
180.0
  0
LINE
  5
22A
330
1B6
100
AcDbEntity
  8
DV2_Default
  6
Continuous
 62
     7
100
AcDbLine
 10
557.3980875933
 20
780.45
 30
0.0
 11
543.2019124067
 21
780.45
 31
0.0
  0
ARC
  5
22B
330
1B6
100
AcDbEntity
  8
DV2_Default
  6
Continuous
 62
     7
100
AcDbCircle
 10
550.3
 20
775.4868097926
 30
0.0
 40
28.00000000000086
100
AcDbArc
 50
70.7627384947
 51
109.2372615053
  0
ARC
  5
22C
330
1B6
100
AcDbEntity
  8
DV2_Default
  6
Continuous
 62
     7
100
AcDbCircle
 10
558.9982915111
 20
800.4126944266
 30
0.0
 40
1.599999999999044
100
AcDbArc
 50
289.2372615054
 51
70.7627384947
  0
ARC
  5
22D
330
1B6
100
AcDbEntity
  8
DV2_Default
  6
Continuous
 62
     7
100
AcDbCircle
 10
541.6017084889
 20
800.4126944266
 30
0.0
 40
1.6
100
AcDbArc
 50
109.2372615053
 51
250.7627384946
  0
ARC
  5
22E
330
1B6
100
AcDbEntity
  8
DV2_Default
  6
Continuous
 62
     7
100
AcDbCircle
 10
550.3
 20
825.3385790606
 30
0.0
 40
27.99999999999999
100
AcDbArc
 50
250.7627384947
 51
253.4923462495
  0
ARC
  5
22F
330
1B6
100
AcDbEntity
  8
DV2_Default
  6
Continuous
 62
     7
100
AcDbCircle
 10
550.3
 20
825.3385790606
 30
0.0
 40
28.0
100
AcDbArc
 50
286.5076537505
 51
289.2372615053
  0
LINE
  5
230
330
1B6
100
AcDbEntity
  8
DV2_Default
  6
Continuous
 62
     7
100
AcDbLine
 10
557.8980875933
 20
780.95
 30
0.0
 11
557.8980875933
 21
798.0132981411
 31
0.0
  0
LINE
  5
231
330
1B6
100
AcDbEntity
  8
DV2_Default
  6
Continuous
 62
     7
100
AcDbLine
 10
542.7019124067
 20
798.0132981411
 30
0.0
 11
542.7019124067
 21
780.95
 31
0.0
  0
ARC
  5
232
330
1B6
100
AcDbEntity
  8
DV2_Default
  6
Continuous
 62
     7
100
AcDbCircle
 10
557.3980875933
 20
780.95
 30
0.0
 40
0.4999999999999997
100
AcDbArc
 50
270.0
 51
0.0
  0
ARC
  5
233
330
1B6
100
AcDbEntity
  8
DV2_Default
  6
Continuous
 62
     7
100
AcDbCircle
 10
543.2019124067
 20
780.95
 30
0.0
 40
0.5000000000000004
100
AcDbArc
 50
180.0
 51
270.0
  0
ARC
  5
234
330
1B6
100
AcDbEntity
  8
DV2_Default
  6
Continuous
 62
     7
100
AcDbCircle
 10
542.2019124067
 20
798.0132981411
 30
0.0
 40
0.5000000000000013
100
AcDbArc
 50
0.0
 51
73.4923462495
  0
ARC
  5
235
330
1B6
100
AcDbEntity
  8
DV2_Default
  6
Continuous
 62
     7
100
AcDbCircle
 10
558.3980875933
 20
798.0132981411
 30
0.0
 40
0.5000000000000004
100
AcDbArc
 50
106.5076537505
 51
180.0
  0
LINE
  5
236
330
1B6
100
AcDbEntity
  8
DV2_Default
  6
Continuous
 62
     7
100
AcDbLine
 10
489.3
 20
1748.3184184763
 30
0.0
 11
489.3
 21
1233.4978068488
 31
0.0
  0
LINE
  5
237
330
1B6
100
AcDbEntity
  8
DV2_Default
  6
Continuous
 62
     7
100
AcDbLine
 10
489.3
 20
1205.0021931512
 30
0.0
 11
489.3
 21
774.95
 31
0.0
  0
LINE
  5
238
330
1B6
100
AcDbEntity
  8
DV2_Default
  6
Continuous
 62
     7
100
AcDbLine
 10
511.3
 20
774.95
 30
0.0
 11
511.3
 21
1205.0021931512
 31
0.0
  0
LINE
  5
239
330
1B6
100
AcDbEntity
  8
DV2_Default
  6
Continuous
 62
     7
100
AcDbLine
 10
511.3
 20
1233.4978068488
 30
0.0
 11
511.3
 21
1748.4278011376
 31
0.0
  0
LINE
  5
23A
330
1B6
100
AcDbEntity
  8
DV2_Default
  6
Continuous
 62
     7
100
AcDbLine
 10
888.8
 20
1828.75
 30
0.0
 11
911.8
 21
1828.75
 31
0.0
  0
LINE
  5
23B
330
1B6
100
AcDbEntity
  8
DV2_Default
  6
Continuous
 62
     7
100
AcDbLine
 10
889.82
 20
1817.75
 30
0.0
 11
910.78
 21
1817.75
 31
0.0
  0
LINE
  5
23C
330
1B6
100
AcDbEntity
  8
DV2_Default
  6
Continuous
 62
     7
100
AcDbLine
 10
909.78
 20
1816.75
 30
0.0
 11
890.82
 21
1816.75
 31
0.0
  0
ARC
  5
23D
330
1B6
100
AcDbEntity
  8
DV2_Default
  6
Continuous
 62
     7
100
AcDbCircle
 10
478.5732082751
 20
1796.25
 30
0.0
 40
10.54403897869237
100
AcDbArc
 50
345.9094470614
 51
14.090552951
  0
ARC
  5
23E
330
1B6
100
AcDbEntity
  8
DV2_Default
  6
Continuous
 62
     7
100
AcDbCircle
 10
540.8
 20
1828.75
 30
0.0
 40
29.0
100
AcDbArc
 50
90.0
 51
180.0
  0
ARC
  5
23F
330
1B6
100
AcDbEntity
  8
DV2_Default
  6
Continuous
 62
     7
100
AcDbCircle
 10
540.8
 20
1828.75
 30
0.0
 40
51.99999999999982
100
AcDbArc
 50
90.0
 51
180.0
  0
LINE
  5
240
330
1B6
100
AcDbEntity
  8
DV2_Default
  6
Continuous
 62
     7
100
AcDbLine
 10
859.8
 20
1880.75
 30
0.0
 11
540.8
 21
1880.75
 31
0.0
  0
LINE
  5
241
330
1B6
100
AcDbEntity
  8
DV2_Default
  6
Continuous
 62
     7
100
AcDbLine
 10
540.8
 20
1857.75
 30
0.0
 11
859.8
 21
1857.75
 31
0.0
  0
ARC
  5
242
330
1B6
100
AcDbEntity
  8
DV2_Default
  6
Continuous
 62
     7
100
AcDbCircle
 10
859.8
 20
1828.75
 30
0.0
 40
28.99999999999991
100
AcDbArc
 50
0.0
 51
90.0
  0
ARC
  5
243
330
1B6
100
AcDbEntity
  8
DV2_Default
  6
Continuous
 62
     7
100
AcDbCircle
 10
859.8
 20
1828.75
 30
0.0
 40
51.99999999999999
100
AcDbArc
 50
0.0
 51
90.0
  0
LINE
  5
244
330
1B6
100
AcDbEntity
  8
DV2_Default
  6
Continuous
 62
     7
100
AcDbLine
 10
910.78
 20
1817.75
 30
0.0
 11
910.78
 21
1828.75
 31
0.0
  0
LINE
  5
245
330
1B6
100
AcDbEntity
  8
DV2_Default
  6
Continuous
 62
     7
100
AcDbLine
 10
889.82
 20
1828.75
 30
0.0
 11
889.82
 21
1817.75
 31
0.0
  0
LINE
  5
246
330
1B6
100
AcDbEntity
  8
DV2_Default
  6
Continuous
 62
     7
100
AcDbLine
 10
889.82
 20
1817.75
 30
0.0
 11
890.82
 21
1816.75
 31
0.0
  0
LINE
  5
247
330
1B6
100
AcDbEntity
  8
DV2_Default
  6
Continuous
 62
     7
100
AcDbLine
 10
909.78
 20
1816.75
 30
0.0
 11
910.78
 21
1817.75
 31
0.0
  0
LINE
  5
248
330
1B6
100
AcDbEntity
  8
DV2_Default
  6
Continuous
 62
     7
100
AcDbLine
 10
488.8
 20
1793.6830216908
 30
0.0
 11
488.8
 21
1779.3266775435
 31
0.0
  0
LINE
  5
249
330
1B6
100
AcDbEntity
  8
DV2_Default
  6
Continuous
 62
     7
100
AcDbLine
 10
488.8
 20
1828.75
 30
0.0
 11
488.8
 21
1798.817
 31
0.0
  0
LINE
  5
24A
330
1B6
100
AcDbEntity
  8
DV2_Default
  6
Continuous
 62
     7
100
AcDbLine
 10
511.8
 20
1779.3268361495
 30
0.0
 11
511.8
 21
1828.75
 31
0.0
  0
LINE
  5
24B
330
1B6
100
AcDbEntity
  8
DV2_Default
  6
Continuous
 62
     7
100
AcDbLine
 10
890.985
 20
1816.75
 30
0.0
 11
890.985
 21
1826.25
 31
0.0
  0
LINE
  5
24C
330
1B6
100
AcDbEntity
  8
DV2_Default
  6
Continuous
 62
     7
100
AcDbLine
 10
909.615
 20
1816.75
 30
0.0
 11
909.615
 21
1826.25
 31
0.0
  0
LINE
  5
24D
330
1B6
100
AcDbEntity
  8
DV2_Default
  6
Continuous
 62
     7
100
AcDbLine
 10
910.78
 20
1826.25
 30
0.0
 11
889.82
 21
1826.25
 31
0.0
  0
LINE
  5
24E
330
1B6
100
AcDbEntity
  8
DV2_Default
  6
Continuous
 62
     7
100
AcDbLine
 10
488.85
 20
1794.2405
 30
0.0
 11
488.85
 21
1798.2595
 31
0.0
  0
SPLINE
  5
24F
330
1B6
100
AcDbEntity
  8
DV2_Default
  6
Continuous
 62
     7
100
AcDbSpline
210
0.0
220
0.0
230
1.0
 70
     8
 71
     3
 72
    24
 73
    20
 74
     0
 42
0.0000000003780195
 43
0.0000000001
 40
0.0
 40
0.0
 40
0.0
 40
0.0
 40
0.1240793498835148
 40
0.1240793498835148
 40
0.2490674641261941
 40
0.2490674641261941
 40
0.3740555783688734
 40
0.3740555783688734
 40
0.4990436926115526
 40
0.4990436926115526
 40
0.624031806854232
 40
0.624031806854232
 40
0.749019921096911
 40
0.749019921096911
 40
0.8740080353395899
 40
0.8740080353395899
 40
0.9989961495822687
 40
0.9989961495822687
 40
1.0
 40
1.0
 40
1.0
 40
1.0
 10
488.5000022267675
 20
1779.549997666294
 30
0.0
 10
488.4996917952753
 20
1779.550172582762
 30
0.0
 10
488.8383475542879
 20
1779.290823246379
 30
0.0
 10
490.0578772262202
 20
1778.405394732083
 30
0.0
 10
490.9329080498009
 20
1777.783564212338
 30
0.0
 10
493.0407110319621
 20
1776.458193339653
 30
0.0
 10
494.2695453517682
 20
1775.750583253701
 30
0.0
 10
497.0557233685976
 20
1774.604918077668
 30
0.0
 10
498.6379941924896
 20
1774.184602882746
 30
0.0
 10
501.9070771936915
 20
1774.17586931885
 30
0.0
 10
503.5017174456493
 20
1774.591942168655
 30
0.0
 10
506.2863626326911
 20
1775.728067057054
 30
0.0
 10
507.5250294660826
 20
1776.438561171385
 30
0.0
 10
509.6234071275464
 20
1777.754255156044
 30
0.0
 10
510.5046660891501
 20
1778.378785393363
 30
0.0
 10
511.7453453266214
 20
1779.278424695711
 30
0.0
 10
512.0941793927104
 20
1779.545611310936
 30
0.0
 10
512.0999731801186
 20
1779.549979777962
 30
0.0
 10
512.0999969342221
 20
1779.549997419482
 30
0.0
 10
512.0999983200064
 20
1779.549997939801
 30
0.0
  0
SPLINE
  5
250
330
1B6
100
AcDbEntity
  8
DV2_Default
  6
Continuous
 62
     7
100
AcDbSpline
210
0.0
220
0.0
230
1.0
 70
     8
 71
     3
 72
    28
 73
    24
 74
     0
 42
0.0000000004015963
 43
0.0000000001
 40
0.0
 40
0.0
 40
0.0
 40
0.0
 40
0.0624610985016968
 40
0.0624610985016968
 40
0.1249221970033936
 40
0.1249221970033936
 40
0.2498443940067872
 40
0.2498443940067872
 40
0.3747665910101809
 40
0.3747665910101809
 40
0.499688788013575
 40
0.499688788013575
 40
0.624610985016969
 40
0.624610985016969
 40
0.7495331820203631
 40
0.7495331820203631
 40
0.8744553790237573
 40
0.8744553790237573
 40
0.9369164775254541
 40
0.9369164775254541
 40
0.9993775760271513
 40
0.9993775760271513
 40
1.0
 40
1.0
 40
1.0
 40
1.0
 10
511.5499999999993
 20
1748.25
 30
0.0
 10
511.5499999999993
 20
1748.25
 30
0.0
 10
511.4706269139502
 20
1748.307331258315
 30
0.0
 10
511.1642262776928
 20
1748.525351208884
 30
0.0
 10
510.9334050832035
 20
1748.688660303302
 30
0.0
 10
510.0607281485305
 20
1749.289934264046
 30
0.0
 10
509.2263000188055
 20
1749.850871694664
 30
0.0
 10
507.2152242432174
 20
1751.034561785619
 30
0.0
 10
506.0378412544887
 20
1751.662729647144
 30
0.0
 10
503.3673178392992
 20
1752.664502585357
 30
0.0
 10
501.8368029723877
 20
1753.01989648632
 30
0.0
 10
498.7740516007184
 20
1753.021424375879
 30
0.0
 10
497.258723433974
 20
1752.672125540108
 30
0.0
 10
494.5794751484769
 20
1751.671336691489
 30
0.0
 10
493.404799162166
 20
1751.04564484357
 30
0.0
 10
491.3820524348901
 20
1749.856480474339
 30
0.0
 10
490.5616103952516
 20
1749.305058074395
 30
0.0
 10
489.6745874240447
 20
1748.694296568763
 30
0.0
 10
489.4456520135685
 20
1748.532343067707
 30
0.0
 10
489.134067010862
 20
1748.310706594074
 30
0.0
 10
489.0517203333689
 20
1748.251236659918
 30
0.0
 10
489.0500106549697
 20
1748.250007659326
 30
0.0
 10
489.050001807086
 20
1748.250001403749
 30
0.0
 10
489.0500009727531
 20
1748.250001010244
 30
0.0
  0
ARC
  5
251
330
1B6
100
AcDbEntity
  8
DV2_Default
  6
Continuous
 62
     7
100
AcDbCircle
 10
457.3000000029
 20
1794.996383054
 30
0.0
 40
15.64081109345351
100
AcDbArc
 50
260.9564652813
 51
279.0435363458
  0
LINE
  5
252
330
1B6
100
AcDbEntity
  8
DV2_Default
  6
Continuous
 62
     7
100
AcDbLine
 10
454.8449688983
 20
1779.55
 30
0.0
 11
452.1
 21
1779.55
 31
0.0
  0
LINE
  5
253
330
1B6
100
AcDbEntity
  8
DV2_Default
  6
Continuous
 62
     7
100
AcDbLine
 10
488.5889654873
 20
1779.55
 30
0.0
 11
459.7278934912
 21
1779.55
 31
0.0
  0
LINE
  5
254
330
1B6
100
AcDbEntity
  8
DV2_Default
  6
Continuous
 62
     7
100
AcDbLine
 10
511.55
 20
1748.25
 30
0.0
 11
515.7
 21
1748.25
 31
0.0
  0
LINE
  5
255
330
1B6
100
AcDbEntity
  8
DV2_Default
  6
Continuous
 62
     7
100
AcDbLine
 10
452.1
 20
1748.25
 30
0.0
 11
489.1608110638
 21
1748.25
 31
0.0
  0
ARC
  5
256
330
1B6
100
AcDbEntity
  8
DV2_Default
  6
Continuous
 62
     7
100
AcDbCircle
 10
500.3000065181
 20
1219.2503673354
 30
0.0
 40
22.99999999999999
100
AcDbArc
 50
72.2811627442
 51
107.716695035
  0
CIRCLE
  5
257
330
1B6
100
AcDbEntity
  8
DV2_Default
  6
Continuous
 62
     7
100
AcDbCircle
 10
500.3
 20
1219.25
 30
0.0
 40
18.0
  0
LINE
  5
258
330
1B6
100
AcDbEntity
  8
DV2_Default
  6
Continuous
 62
     7
100
AcDbLine
 10
507.3
 20
1235.8761090785
 30
0.0
 11
507.3
 21
1241.1872601684
 31
0.0
  0
LINE
  5
259
330
1B6
100
AcDbEntity
  8
DV2_Default
  6
Continuous
 62
     7
100
AcDbLine
 10
493.3
 20
1241.1713538581
 30
0.0
 11
493.3
 21
1235.8346440927
 31
0.0
  0
ARC
  5
25A
330
1B6
100
AcDbEntity
  8
DV2_Default
  6
Continuous
 62
     7
100
AcDbCircle
 10
399.7
 20
1763.9
 30
0.0
 40
125.0
100
AcDbArc
 50
352.9117808659
 51
7.0882191341
  0
LINE
  5
25B
330
1B6
100
AcDbEntity
  8
DV2_Default
  6
Continuous
 62
     7
100
AcDbLine
 10
515.9
 20
1748.3
 30
0.0
 11
523.5461949355
 21
1748.3
 31
0.0
  0
LINE
  5
25C
330
1B6
100
AcDbEntity
  8
DV2_Default
  6
Continuous
 62
     7
100
AcDbLine
 10
523.5461949355
 20
1779.5
 30
0.0
 11
512.0341727949
 21
1779.5
 31
0.0
  0
ARC
  5
25D
330
1B6
100
AcDbEntity
  8
DV2_Default
  6
Continuous
 62
     7
100
AcDbCircle
 10
515.9
 20
1748.5
 30
0.0
 40
0.2000000000000005
100
AcDbArc
 50
180.0
 51
270.0
  0
ARC
  5
25E
330
1B6
100
AcDbEntity
  8
DV2_Default
  6
Continuous
 62
     7
100
AcDbCircle
 10
523.5461949355
 20
1748.5
 30
0.0
 40
0.199999999999978
100
AcDbArc
 50
270.0
 51
352.911780866
  0
ARC
  5
25F
330
1B6
100
AcDbEntity
  8
DV2_Default
  6
Continuous
 62
     7
100
AcDbCircle
 10
523.5461949355
 20
1779.3
 30
0.0
 40
0.200000000000017
100
AcDbArc
 50
7.0882191339
 51
90.0
  0
LINE
  5
260
330
1B6
100
AcDbEntity
  8
DV2_Default
  6
Continuous
 62
     7
100
AcDbLine
 10
435.2144564284
 20
1794.75
 30
0.0
 11
437.1
 21
1794.75
 31
0.0
  0
LINE
  5
261
330
1B6
100
AcDbEntity
  8
DV2_Default
  6
Continuous
 62
     7
100
AcDbLine
 10
435.2144564284
 20
1793.3887136794
 30
0.0
 11
437.1
 21
1793.3887136794
 31
0.0
  0
LINE
  5
262
330
1B6
100
AcDbEntity
  8
DV2_Default
  6
Continuous
 62
     7
100
AcDbLine
 10
437.1
 20
1788.1112863206
 30
0.0
 11
435.2144564284
 21
1788.1112863206
 31
0.0
  0
LINE
  5
263
330
1B6
100
AcDbEntity
  8
DV2_Default
  6
Continuous
 62
     7
100
AcDbLine
 10
435.2144564284
 20
1786.75
 30
0.0
 11
437.1
 21
1786.75
 31
0.0
  0
LINE
  5
264
330
1B6
100
AcDbEntity
  8
DV2_Default
  6
Continuous
 62
     7
100
AcDbLine
 10
435.2144564284
 20
1744.9709554096
 30
0.0
 11
437.1
 21
1744.9709554096
 31
0.0
  0
LINE
  5
265
330
1B6
100
AcDbEntity
  8
DV2_Default
  6
Continuous
 62
     7
100
AcDbLine
 10
435.2144564284
 20
1751.9790445904
 30
0.0
 11
437.1
 21
1751.9790445904
 31
0.0
  0
LINE
  5
266
330
1B6
100
AcDbEntity
  8
DV2_Default
  6
Continuous
 62
     7
100
AcDbLine
 10
435.2144564284
 20
1755.9790445904
 30
0.0
 11
437.1
 21
1755.9790445904
 31
0.0
  0
LINE
  5
267
330
1B6
100
AcDbEntity
  8
DV2_Default
  6
Continuous
 62
     7
100
AcDbLine
 10
437.1
 20
1754.475
 30
0.0
 11
435.2144564284
 21
1754.475
 31
0.0
  0
ENDBLK
  5
269
330
1B6
100
AcDbEntity
  8
0
100
AcDbBlockEnd
  0
BLOCK
  5
35E
330
26A
100
AcDbEntity
  8
0
100
AcDbBlockBegin
  2
SE2
 70
     0
 10
0.0
 20
0.0
 30
0.0
  3
SE2
  1

  0
CIRCLE
  5
26D
330
26A
100
AcDbEntity
  8
DV3_Default
  6
Continuous
 62
     7
100
AcDbCircle
 10
204.6
 20
517.85
 30
0.0
 40
11.8
  0
CIRCLE
  5
26E
330
26A
100
AcDbEntity
  8
DV3_Default
  6
Continuous
 62
     7
100
AcDbCircle
 10
204.6
 20
517.85
 30
0.0
 40
11.5
  0
LINE
  5
26F
330
26A
100
AcDbEntity
  8
DV3_Default
  6
Continuous
 62
     7
100
AcDbLine
 10
121.1
 20
566.05
 30
0.0
 11
190.1
 21
566.05
 31
0.0
  0
LINE
  5
270
330
26A
100
AcDbEntity
  8
DV3_Default
  6
Continuous
 62
     7
100
AcDbLine
 10
190.9
 20
581.05
 30
0.0
 11
120.3
 21
581.05
 31
0.0
  0
LINE
  5
271
330
26A
100
AcDbEntity
  8
DV3_Default
  6
Continuous
 62
     7
100
AcDbLine
 10
120.1
 20
580.85
 30
0.0
 11
120.1
 21
567.05
 31
0.0
  0
LINE
  5
272
330
26A
100
AcDbEntity
  8
DV3_Default
  6
Continuous
 62
     7
100
AcDbLine
 10
191.1
 20
567.05
 30
0.0
 11
191.1
 21
580.85
 31
0.0
  0
ARC
  5
273
330
26A
100
AcDbEntity
  8
DV3_Default
  6
Continuous
 62
     7
100
AcDbCircle
 10
190.1
 20
567.05
 30
0.0
 40
1.000000000000001
100
AcDbArc
 50
270.0
 51
0.0
  0
ARC
  5
274
330
26A
100
AcDbEntity
  8
DV3_Default
  6
Continuous
 62
     7
100
AcDbCircle
 10
121.1
 20
567.05
 30
0.0
 40
1.000000000000001
100
AcDbArc
 50
180.0
 51
270.0
  0
ARC
  5
275
330
26A
100
AcDbEntity
  8
DV3_Default
  6
Continuous
 62
     7
100
AcDbCircle
 10
190.9
 20
580.85
 30
0.0
 40
0.1999999999999988
100
AcDbArc
 50
0.0
 51
90.0
  0
ARC
  5
276
330
26A
100
AcDbEntity
  8
DV3_Default
  6
Continuous
 62
     7
100
AcDbCircle
 10
120.3
 20
580.85
 30
0.0
 40
0.1999999999999919
100
AcDbArc
 50
90.0
 51
180.0
  0
LINE
  5
277
330
26A
100
AcDbEntity
  8
DV3_Default
  6
Continuous
 62
     7
100
AcDbLine
 10
91.05
 20
538.55
 30
0.0
 11
70.15
 21
538.55
 31
0.0
  0
LINE
  5
278
330
26A
100
AcDbEntity
  8
DV3_Default
  6
Continuous
 62
     7
100
AcDbLine
 10
91.05
 20
537.85
 30
0.0
 11
91.05
 21
538.55
 31
0.0
  0
LINE
  5
279
330
26A
100
AcDbEntity
  8
DV3_Default
  6
Continuous
 62
     7
100
AcDbLine
 10
70.15
 20
538.55
 30
0.0
 11
70.15
 21
537.85
 31
0.0
  0
LINE
  5
27A
330
26A
100
AcDbEntity
  8
DV3_Default
  6
Continuous
 62
     7
100
AcDbLine
 10
91.05
 20
538.55
 30
0.0
 11
90.9665496252
 21
538.65
 31
0.0
  0
LINE
  5
27B
330
26A
100
AcDbEntity
  8
DV3_Default
  6
Continuous
 62
     7
100
AcDbLine
 10
70.2334503748
 20
538.65
 30
0.0
 11
70.15
 21
538.55
 31
0.0
  0
LINE
  5
27C
330
26A
100
AcDbEntity
  8
DV3_Default
  6
Continuous
 62
     7
100
AcDbLine
 10
96.85
 20
555.65
 30
0.0
 11
64.35
 21
555.65
 31
0.0
  0
LINE
  5
27D
330
26A
100
AcDbEntity
  8
DV3_Default
  6
Continuous
 62
     7
100
AcDbLine
 10
96.85
 20
538.65
 30
0.0
 11
64.35
 21
538.65
 31
0.0
  0
LINE
  5
27E
330
26A
100
AcDbEntity
  8
DV3_Default
  6
Continuous
 62
     7
100
AcDbLine
 10
96.85
 20
538.65
 30
0.0
 11
96.85
 21
555.65
 31
0.0
  0
LINE
  5
27F
330
26A
100
AcDbEntity
  8
DV3_Default
  6
Continuous
 62
     7
100
AcDbLine
 10
64.35
 20
555.65
 30
0.0
 11
64.35
 21
538.65
 31
0.0
  0
LINE
  5
280
330
26A
100
AcDbEntity
  8
DV3_Default
  6
Continuous
 62
     7
100
AcDbLine
 10
248.1
 20
515.5304717559
 30
0.0
 11
248.8
 21
515.5304717559
 31
0.0
  0
LINE
  5
281
330
26A
100
AcDbEntity
  8
DV3_Default
  6
Continuous
 62
     7
100
AcDbLine
 10
248.1
 20
503.7660797831
 30
0.0
 11
248.8
 21
503.7660797831
 31
0.0
  0
LINE
  5
282
330
26A
100
AcDbEntity
  8
DV3_Default
  6
Continuous
 62
     7
100
AcDbLine
 10
248.1
 20
486.0856080272
 30
0.0
 11
248.8
 21
486.0856080272
 31
0.0
  0
LINE
  5
283
330
26A
100
AcDbEntity
  8
DV3_Default
  6
Continuous
 62
     7
100
AcDbLine
 10
248.8
 20
480.1695282441
 30
0.0
 11
248.1
 21
480.1695282441
 31
0.0
  0
LINE
  5
284
330
26A
100
AcDbEntity
  8
DV3_Default
  6
Continuous
 62
     7
100
AcDbLine
 10
248.8
 20
491.9339202169
 30
0.0
 11
248.1
 21
491.9339202169
 31
0.0
  0
LINE
  5
285
330
26A
100
AcDbEntity
  8
DV3_Default
  6
Continuous
 62
     7
100
AcDbLine
 10
248.8
 20
509.6143919728
 30
0.0
 11
248.1
 21
509.6143919728
 31
0.0
  0
LINE
  5
286
330
26A
100
AcDbEntity
  8
DV3_Default
  6
Continuous
 62
     7
100
AcDbLine
 10
248.8
 20
515.85
 30
0.0
 11
248.1
 21
515.85
 31
0.0
  0
LINE
  5
287
330
26A
100
AcDbEntity
  8
DV3_Default
  6
Continuous
 62
     7
100
AcDbLine
 10
248.1
 20
479.85
 30
0.0
 11
248.8
 21
479.85
 31
0.0
  0
ARC
  5
288
330
26A
100
AcDbEntity
  8
DV3_Default
  6
Continuous
 62
     7
100
AcDbCircle
 10
278.9000002351
 20
460.9676747531
 30
0.0
 40
19.09617563685452
100
AcDbArc
 50
61.8813806703
 51
118.1186224662
  0
LINE
  5
289
330
26A
100
AcDbEntity
  8
DV3_Default
  6
Continuous
 62
     7
100
AcDbLine
 10
269.9
 20
477.81
 30
0.0
 11
287.8735131746
 21
477.81
 31
0.0
  0
ARC
  5
28A
330
26A
100
AcDbEntity
  8
DV3_Default
  6
Continuous
 62
     7
100
AcDbCircle
 10
269.8734919684
 20
478.2879477394
 30
0.0
 40
0.4659420635018977
100
AcDbArc
 50
177.2797859358
 51
246.3608788281
  0
ARC
  5
28B
330
26A
100
AcDbEntity
  8
DV3_Default
  6
Continuous
 62
     7
100
AcDbCircle
 10
287.9377043826
 20
478.2878071954
 30
0.0
 40
0.4573196200236849
100
AcDbArc
 50
292.0225813641
 51
4.0391847008
  0
LINE
  5
28C
330
26A
100
AcDbEntity
  8
DV3_Default
  6
Continuous
 62
     7
100
AcDbLine
 10
248.8
 20
478.35
 30
0.0
 11
248.8
 21
517.35
 31
0.0
  0
ARC
  5
28D
330
26A
100
AcDbEntity
  8
DV3_Default
  6
Continuous
 62
     7
100
AcDbCircle
 10
278.800033174
 20
462.0398512151
 30
0.0
 40
18.97916213591864
100
AcDbArc
 50
56.4106093385
 51
123.5893915462
  0
ARC
  5
28E
330
26A
100
AcDbEntity
  8
DV3_Default
  6
Continuous
 62
     7
100
AcDbCircle
 10
252.821596537
 20
458.126773426
 30
0.0
 40
19.79747237390326
100
AcDbArc
 50
90.0579727419
 51
94.9636885413
  0
ARC
  5
28F
330
26A
100
AcDbEntity
  8
DV3_Default
  6
Continuous
 62
     7
100
AcDbCircle
 10
252.7815337756
 20
458.1267734173
 30
0.0
 40
19.79747238255733
100
AcDbArc
 50
85.0363114597
 51
89.942027257
  0
ARC
  5
290
330
26A
100
AcDbEntity
  8
DV3_Default
  6
Continuous
 62
     7
100
AcDbCircle
 10
295.966339673
 20
534.7422766427
 30
0.0
 40
17.10161888716577
100
AcDbArc
 50
276.9184585857
 51
278.9745457338
  0
ARC
  5
291
330
26A
100
AcDbEntity
  8
DV3_Default
  6
Continuous
 62
     7
100
AcDbCircle
 10
295.9698755048
 20
534.7179912357
 30
0.0
 40
17.07707921660723
100
AcDbArc
 50
276.9063576735
 51
277.8147312352
  0
ARC
  5
292
330
26A
100
AcDbEntity
  8
DV3_Default
  6
Continuous
 62
     7
100
AcDbCircle
 10
257.6308071532
 20
538.1921665336
 30
0.0
 40
20.58640877031725
100
AcDbArc
 50
262.8686759632
 51
269.9933758935
  0
ARC
  5
293
330
26A
100
AcDbEntity
  8
DV3_Default
  6
Continuous
 62
     7
100
AcDbCircle
 10
257.1280696533
 20
534.7030209904
 30
0.0
 40
17.06196913777538
100
AcDbArc
 50
261.0234868584
 51
263.0892768701
  0
ARC
  5
294
330
26A
100
AcDbEntity
  8
DV3_Default
  6
Continuous
 62
     7
100
AcDbCircle
 10
257.1373872996
 20
534.7667038737
 30
0.0
 40
17.12632590156823
100
AcDbArc
 50
262.7316430769
 51
263.0840100936
  0
LINE
  5
295
330
26A
100
AcDbEntity
  8
DV3_Default
  6
Continuous
 62
     7
100
AcDbLine
 10
291.4715728692
 20
517.6057578961
 30
0.0
 11
257.6284271076
 21
517.6057579008
 31
0.0
  0
LINE
  5
296
330
26A
100
AcDbEntity
  8
DV3_Default
  6
Continuous
 62
     7
100
AcDbLine
 10
295.4715761912
 20
517.6057578956
 30
0.0
 11
291.4715728692
 21
517.6057578961
 31
0.0
  0
ARC
  5
297
330
26A
100
AcDbEntity
  8
DV3_Default
  6
Continuous
 62
     7
100
AcDbCircle
 10
295.4700855344
 20
538.179437882
 30
0.0
 40
20.57368003999255
100
AcDbArc
 50
270.00415134
 51
277.1373854699
  0
LINE
  5
298
330
26A
100
AcDbEntity
  8
DV3_Default
  6
Continuous
 62
     7
100
AcDbLine
 10
304.8
 20
478.85
 30
0.0
 11
304.8
 21
516.85
 31
0.0
  0
ARC
  5
299
330
26A
100
AcDbEntity
  8
DV3_Default
  6
Continuous
 62
     7
100
AcDbCircle
 10
268.2999135648
 20
478.3498371036
 30
0.0
 40
0.5000665496107439
100
AcDbArc
 50
292.9185929642
 51
326.6535930691
  0
ARC
  5
29A
330
26A
100
AcDbEntity
  8
DV3_Default
  6
Continuous
 62
     7
100
AcDbCircle
 10
268.3005500823
 20
478.3491530081
 30
0.0
 40
0.4992126264035263
100
AcDbArc
 50
269.9437033664
 51
292.8851430624
  0
ARC
  5
29B
330
26A
100
AcDbEntity
  8
DV3_Default
  6
Continuous
 62
     7
100
AcDbCircle
 10
289.2995163612
 20
478.3491528693
 30
0.0
 40
0.49921228825305
100
AcDbArc
 50
247.1148470332
 51
270.0562716839
  0
ARC
  5
29C
330
26A
100
AcDbEntity
  8
DV3_Default
  6
Continuous
 62
     7
100
AcDbCircle
 10
289.3001527087
 20
478.3498375544
 30
0.0
 40
0.50006715353178
100
AcDbArc
 50
213.3701083528
 51
247.0814267106
  0
LINE
  5
29D
330
26A
100
AcDbEntity
  8
DV3_Default
  6
Continuous
 62
     7
100
AcDbLine
 10
289.2986162929
 20
477.85
 30
0.0
 11
303.8
 21
477.85
 31
0.0
  0
LINE
  5
29E
330
26A
100
AcDbEntity
  8
DV3_Default
  6
Continuous
 62
     7
100
AcDbLine
 10
254.4941658381
 20
477.85
 30
0.0
 11
268.3014515919
 21
477.85
 31
0.0
  0
LINE
  5
29F
330
26A
100
AcDbEntity
  8
DV3_Default
  6
Continuous
 62
     7
100
AcDbLine
 10
249.3
 20
477.85
 30
0.0
 11
251.1089643404
 21
477.85
 31
0.0
  0
LINE
  5
2A0
330
26A
100
AcDbEntity
  8
DV3_Default
  6
Continuous
 62
     7
100
AcDbLine
 10
254.4658756818
 20
517.85
 30
0.0
 11
249.3
 21
517.85
 31
0.0
  0
LINE
  5
2A1
330
26A
100
AcDbEntity
  8
DV3_Default
  6
Continuous
 62
     7
100
AcDbLine
 10
303.8
 20
517.85
 30
0.0
 11
298.6334669404
 21
517.85
 31
0.0
  0
ARC
  5
2A2
330
26A
100
AcDbEntity
  8
DV3_Default
  6
Continuous
 62
     7
100
AcDbCircle
 10
251.1086194321
 20
478.3501795136
 30
0.0
 40
0.5001795137231331
100
AcDbArc
 50
270.0014931693
 51
279.3469669885
  0
ARC
  5
2A3
330
26A
100
AcDbEntity
  8
DV3_Default
  6
Continuous
 62
     7
100
AcDbCircle
 10
254.494510881
 20
478.3501794975
 30
0.0
 40
0.5001794976401907
100
AcDbArc
 50
260.6530328592
 51
269.9985068274
  0
ARC
  5
2A4
330
26A
100
AcDbEntity
  8
DV3_Default
  6
Continuous
 62
     7
100
AcDbCircle
 10
249.3
 20
478.35
 30
0.0
 40
0.5000000000000004
100
AcDbArc
 50
180.0
 51
270.0
  0
ARC
  5
2A5
330
26A
100
AcDbEntity
  8
DV3_Default
  6
Continuous
 62
     7
100
AcDbCircle
 10
249.3
 20
517.35
 30
0.0
 40
0.5000000000001323
100
AcDbArc
 50
90.0
 51
180.0
  0
ARC
  5
2A6
330
26A
100
AcDbEntity
  8
DV3_Default
  6
Continuous
 62
     7
100
AcDbCircle
 10
303.8
 20
516.85
 30
0.0
 40
0.9999999999994735
100
AcDbArc
 50
0.0
 51
90.0
  0
ARC
  5
2A7
330
26A
100
AcDbEntity
  8
DV3_Default
  6
Continuous
 62
     7
100
AcDbCircle
 10
303.8
 20
478.85
 30
0.0
 40
0.9999999999995082
100
AcDbArc
 50
270.0
 51
0.0
  0
ARC
  5
2A8
330
26A
100
AcDbEntity
  8
DV3_Default
  6
Continuous
 62
     7
100
AcDbCircle
 10
32.2499963275
 20
461.110226621
 30
0.0
 40
18.97208113104767
100
AcDbArc
 50
61.7639654456
 51
118.3174390261
  0
LINE
  5
2A9
330
26A
100
AcDbEntity
  8
DV3_Default
  6
Continuous
 62
     7
100
AcDbLine
 10
23.2693142356
 20
477.8110844249
 30
0.0
 11
41.2327474105
 21
477.8110844249
 31
0.0
  0
ARC
  5
2AA
330
26A
100
AcDbEntity
  8
DV3_Default
  6
Continuous
 62
     7
100
AcDbCircle
 10
23.2401232849
 20
478.3041355771
 30
0.0
 40
0.4868104993919945
100
AcDbArc
 50
177.4809921734
 51
245.3405494612
  0
ARC
  5
2AB
330
26A
100
AcDbEntity
  8
DV3_Default
  6
Continuous
 62
     7
100
AcDbCircle
 10
41.4427673209
 20
478.2820240838
 30
0.0
 40
0.3095501363472897
100
AcDbArc
 50
327.0093576639
 51
12.7450322428
  0
ARC
  5
2AC
330
26A
100
AcDbEntity
  8
DV3_Default
  6
Continuous
 62
     7
100
AcDbCircle
 10
41.2624954254
 20
478.2877275362
 30
0.0
 40
0.4731652209730488
100
AcDbArc
 50
279.9462504327
 51
338.3908308009
  0
LINE
  5
2AD
330
26A
100
AcDbEntity
  8
DV3_Default
  6
Continuous
 62
     7
100
AcDbLine
 10
62.35
 20
517.35
 30
0.0
 11
62.35
 21
478.35
 31
0.0
  0
ARC
  5
2AE
330
26A
100
AcDbEntity
  8
DV3_Default
  6
Continuous
 62
     7
100
AcDbCircle
 10
32.3499664054
 20
462.0532868412
 30
0.0
 40
18.96832140587067
100
AcDbArc
 50
56.3932364647
 51
86.2266197092
  0
ARC
  5
2AF
330
26A
100
AcDbEntity
  8
DV3_Default
  6
Continuous
 62
     7
100
AcDbCircle
 10
32.3499664054
 20
462.0532868412
 30
0.0
 40
18.96832140587067
100
AcDbArc
 50
98.0109173696
 51
123.6067544626
  0
SPLINE
  5
2B0
330
26A
100
AcDbEntity
  8
DV3_Default
  6
Continuous
 62
     7
100
AcDbSpline
210
0.0
220
0.0
230
1.0
 70
     8
 71
     3
 72
    12
 73
     8
 74
     0
 42
0.0000000059002685
 43
0.0000000001
 40
0.0
 40
0.0
 40
0.0
 40
0.0
 40
0.124340821681072
 40
0.2500742304059086
 40
0.5004852824588386
 40
0.7530509679997419
 40
1.0
 40
1.0
 40
1.0
 40
1.0
 10
58.34843484349497
 20
477.906773087545
 30
0.0
 10
58.45823743082281
 20
477.9062767817446
 30
0.0
 10
58.67907236782373
 20
477.9052786116386
 30
0.0
 10
59.10187060774726
 20
477.8951594772406
 30
0.0
 10
59.57172285819111
 20
477.874594718831
 30
0.0
 10
59.94561816415484
 20
477.8520934365878
 30
0.0
 10
60.03851109534021
 20
477.848839752729
 30
0.0
 10
60.04123853357927
 20
477.8509592554037
 30
0.0
  0
SPLINE
  5
2B1
330
26A
100
AcDbEntity
  8
DV3_Default
  6
Continuous
 62
     7
100
AcDbSpline
210
0.0
220
0.0
230
1.0
 70
     8
 71
     3
 72
    12
 73
     8
 74
     0
 42
0.0000000058996749
 43
0.0000000001
 40
0.0
 40
0.0
 40
0.0
 40
0.0
 40
0.2474506904791498
 40
0.5000957065195095
 40
0.750214118156963
 40
0.8757932681045999
 40
1.0
 40
1.0
 40
1.0
 40
1.0
 10
56.65559303470864
 20
477.8509921461888
 30
0.0
 10
56.65789011017251
 20
477.8488282941848
 30
0.0
 10
56.75044657868053
 20
477.8520433020399
 30
0.0
 10
57.12477764912325
 20
477.8745777079531
 30
0.0
 10
57.59492755146428
 20
477.8951567978303
 30
0.0
 10
58.01775560535838
 20
477.9052787656031
 30
0.0
 10
58.23861292197614
 20
477.9062768081055
 30
0.0
 10
58.34843484349497
 20
477.906773087545
 30
0.0
  0
SPLINE
  5
2B2
330
26A
100
AcDbEntity
  8
DV3_Default
  6
Continuous
 62
     7
100
AcDbSpline
210
0.0
220
0.0
230
1.0
 70
     8
 71
     3
 72
     9
 73
     5
 74
     0
 42
0.0000013703774964
 43
0.0000000001
 40
0.0
 40
0.0
 40
0.0
 40
0.0
 40
0.8284659334622113
 40
1.0
 40
1.0
 40
1.0
 40
1.0
 10
12.51588202808521
 20
517.8488039705245
 30
0.0
 10
12.51676269121452
 20
517.8492975744554
 30
0.0
 10
12.51782569585205
 20
517.8499182965933
 30
0.0
 10
12.52206516982077
 20
517.8500157100907
 30
0.0
 10
12.52288130765611
 20
517.8500179344652
 30
0.0
  0
SPLINE
  5
2B3
330
26A
100
AcDbEntity
  8
DV3_Default
  6
Continuous
 62
     7
100
AcDbSpline
210
0.0
220
0.0
230
1.0
 70
     8
 71
     3
 72
    13
 73
     9
 74
     0
 42
0.0000000217683073
 43
0.0000000001
 40
0.0
 40
0.0
 40
0.0
 40
0.0
 40
0.0892579119355576
 40
0.2681385951707937
 40
0.4480358541304203
 40
0.6295759028438686
 40
0.8133681643238118
 40
1.0
 40
1.0
 40
1.0
 40
1.0
 10
12.66721767471737
 20
517.8358536077878
 30
0.0
 10
12.67642854752279
 20
517.8348008254736
 30
0.0
 10
12.70535987555527
 20
517.8314772677819
 30
0.0
 10
12.75996473532334
 20
517.825150276803
 30
0.0
 10
12.83552549504344
 20
517.8163979685165
 30
0.0
 10
12.92134479403381
 20
517.8065464919679
 30
0.0
 10
13.01671433565119
 20
517.7957297786136
 30
0.0
 10
13.08782733043359
 20
517.7878542976634
 30
0.0
 10
13.12365639461779
 20
517.783931166931
 30
0.0
  0
ARC
  5
2B4
330
26A
100
AcDbEntity
  8
DV3_Default
  6
Continuous
 62
     7
100
AcDbCircle
 10
13.7400459977
 20
523.1353151637
 30
0.0
 40
5.426396411965887
100
AcDbArc
 50
256.9621738227
 51
263.509527266
  0
ARC
  5
2B5
330
26A
100
AcDbEntity
  8
DV3_Default
  6
Continuous
 62
     7
100
AcDbCircle
 10
15.663711338
 20
536.279513437
 30
0.0
 40
18.70863666770308
100
AcDbArc
 50
262.2061791327
 51
270.0450574023
  0
LINE
  5
2B6
330
26A
100
AcDbEntity
  8
DV3_Default
  6
Continuous
 62
     7
100
AcDbLine
 10
53.5215728924
 20
517.5708825594
 30
0.0
 11
19.6784271308
 21
517.5708825544
 31
0.0
  0
ARC
  5
2B7
330
26A
100
AcDbEntity
  8
DV3_Default
  6
Continuous
 62
     7
100
AcDbCircle
 10
53.4990347305
 20
540.5158685379
 30
0.0
 40
22.87755967426979
100
AcDbArc
 50
270.0564457828
 51
276.4647710897
  0
SPLINE
  5
2B8
330
26A
100
AcDbEntity
  8
DV3_Default
  6
Continuous
 62
     7
100
AcDbSpline
210
0.0
220
0.0
230
1.0
 70
     8
 71
     3
 72
    18
 73
    14
 74
     0
 42
0.000000016305578
 43
0.0000000001
 40
0.0
 40
0.0
 40
0.0
 40
0.0
 40
0.0934342565877247
 40
0.1854414132477567
 40
0.2763148622418755
 40
0.3663590783999304
 40
0.4558869973077451
 40
0.5452169806632162
 40
0.634669503507513
 40
0.7245637302815936
 40
0.8152141600159417
 40
0.9069275126241816
 40
1.0
 40
1.0
 40
1.0
 40
1.0
 10
56.07487143439801
 20
517.7837810419483
 30
0.0
 10
56.11070154770069
 20
517.7876925008271
 30
0.0
 10
56.181862503035
 20
517.7955698874018
 30
0.0
 10
56.2773239888186
 20
517.8063926457057
 30
0.0
 10
56.36324537171431
 20
517.8162524234209
 30
0.0
 10
56.43892008102846
 20
517.8250158094006
 30
0.0
 10
56.50452687564773
 20
517.832617145224
 30
0.0
 10
56.56001752207332
 20
517.8389719113557
 30
0.0
 10
56.60538640304204
 20
517.8439955147277
 30
0.0
 10
56.64069075269835
 20
517.84761404371
 30
0.0
 10
56.6657007878944
 20
517.849702547073
 30
0.0
 10
56.68129690129105
 20
517.8503245466881
 30
0.0
 10
56.68317434449398
 20
517.849329795755
 30
0.0
 10
56.68410215241908
 20
517.8488490648712
 30
0.0
  0
ARC
  5
2B9
330
26A
100
AcDbEntity
  8
DV3_Default
  6
Continuous
 62
     7
100
AcDbCircle
 10
55.4660834017
 20
523.0982231074
 30
0.0
 40
5.388830811568084
100
AcDbArc
 50
276.4865579329
 51
283.0632493897
  0
ARC
  5
2BA
330
26A
100
AcDbEntity
  8
DV3_Default
  6
Continuous
 62
     7
100
AcDbCircle
 10
53.5354825803
 20
536.2931847428
 30
0.0
 40
18.72230735047305
100
AcDbArc
 50
269.9574322508
 51
277.7952708807
  0
LINE
  5
2BB
330
26A
100
AcDbEntity
  8
DV3_Default
  6
Continuous
 62
     7
100
AcDbLine
 10
19.6784271308
 20
517.6383199612
 30
0.0
 11
53.5215728924
 21
517.6383199656
 31
0.0
  0
LINE
  5
2BC
330
26A
100
AcDbEntity
  8
DV3_Default
  6
Continuous
 62
     7
100
AcDbLine
 10
15.6784238088
 20
517.6383199607
 30
0.0
 11
19.6784271308
 21
517.6383199612
 31
0.0
  0
ARC
  5
2BD
330
26A
100
AcDbEntity
  8
DV3_Default
  6
Continuous
 62
     7
100
AcDbCircle
 10
15.6980302888
 20
540.4669859224
 30
0.0
 40
22.82867438084559
100
AcDbArc
 50
263.5250209849
 51
269.9507913305
  0
LINE
  5
2BE
330
26A
100
AcDbEntity
  8
DV3_Default
  6
Continuous
 62
     7
100
AcDbLine
 10
19.6784271308
 20
517.5708825544
 30
0.0
 11
15.6784238088
 21
517.5708825538
 31
0.0
  0
LINE
  5
2BF
330
26A
100
AcDbEntity
  8
DV3_Default
  6
Continuous
 62
     7
100
AcDbLine
 10
6.35
 20
516.85
 30
0.0
 11
6.35
 21
478.85
 31
0.0
  0
ARC
  5
2C0
330
26A
100
AcDbEntity
  8
DV3_Default
  6
Continuous
 62
     7
100
AcDbCircle
 10
21.8525064897
 20
478.3456982881
 30
0.0
 40
0.4956777542197011
100
AcDbArc
 50
269.9392716645
 51
292.9714351169
  0
ARC
  5
2C1
330
26A
100
AcDbEntity
  8
DV3_Default
  6
Continuous
 62
     7
100
AcDbCircle
 10
42.8474297219
 20
478.3456911937
 30
0.0
 40
0.4956708238524585
100
AcDbArc
 50
247.0283831653
 51
270.0607416596
  0
ARC
  5
2C2
330
26A
100
AcDbEntity
  8
DV3_Default
  6
Continuous
 62
     7
100
AcDbCircle
 10
32.3196303329
 20
464.9211308631
 30
0.0
 40
15.88260968784173
100
AcDbArc
 50
85.5492798618
 51
99.0462903007
  0
LINE
  5
2C3
330
26A
100
AcDbEntity
  8
DV3_Default
  6
Continuous
 62
     7
100
AcDbLine
 10
12.550195402
 20
517.85
 30
0.0
 11
7.35
 21
517.85
 31
0.0
  0
LINE
  5
2C4
330
26A
100
AcDbEntity
  8
DV3_Default
  6
Continuous
 62
     7
100
AcDbLine
 10
61.85
 20
517.85
 30
0.0
 11
56.6502066336
 21
517.85
 31
0.0
  0
LINE
  5
2C5
330
26A
100
AcDbEntity
  8
DV3_Default
  6
Continuous
 62
     7
100
AcDbLine
 10
59.9980404812
 20
477.85
 30
0.0
 11
61.85
 21
477.85
 31
0.0
  0
LINE
  5
2C6
330
26A
100
AcDbEntity
  8
DV3_Default
  6
Continuous
 62
     7
100
AcDbLine
 10
42.8279720599
 20
477.85
 30
0.0
 11
56.6991167489
 21
477.85
 31
0.0
  0
LINE
  5
2C7
330
26A
100
AcDbEntity
  8
DV3_Default
  6
Continuous
 62
     7
100
AcDbLine
 10
7.35
 20
477.85
 30
0.0
 11
21.8719612688
 21
477.85
 31
0.0
  0
ARC
  5
2C8
330
26A
100
AcDbEntity
  8
DV3_Default
  6
Continuous
 62
     7
100
AcDbCircle
 10
61.85
 20
517.35
 30
0.0
 40
0.5000000000000004
100
AcDbArc
 50
0.0
 51
90.0
  0
ARC
  5
2C9
330
26A
100
AcDbEntity
  8
DV3_Default
  6
Continuous
 62
     7
100
AcDbCircle
 10
61.85
 20
478.35
 30
0.0
 40
0.4999999999998131
100
AcDbArc
 50
270.0
 51
0.0
  0
ARC
  5
2CA
330
26A
100
AcDbEntity
  8
DV3_Default
  6
Continuous
 62
     7
100
AcDbCircle
 10
7.35
 20
478.85
 30
0.0
 40
0.9999999999995013
100
AcDbArc
 50
180.0
 51
270.0
  0
ARC
  5
2CB
330
26A
100
AcDbEntity
  8
DV3_Default
  6
Continuous
 62
     7
100
AcDbCircle
 10
7.35
 20
516.85
 30
0.0
 40
0.9999999999995047
100
AcDbArc
 50
90.0
 51
180.0
  0
LINE
  5
2CC
330
26A
100
AcDbEntity
  8
DV3_Default
  6
Continuous
 62
     7
100
AcDbLine
 10
246.85
 20
555.65
 30
0.0
 11
214.35
 21
555.65
 31
0.0
  0
LINE
  5
2CD
330
26A
100
AcDbEntity
  8
DV3_Default
  6
Continuous
 62
     7
100
AcDbLine
 10
246.85
 20
538.65
 30
0.0
 11
214.35
 21
538.65
 31
0.0
  0
LINE
  5
2CE
330
26A
100
AcDbEntity
  8
DV3_Default
  6
Continuous
 62
     7
100
AcDbLine
 10
246.85
 20
538.65
 30
0.0
 11
246.85
 21
555.65
 31
0.0
  0
LINE
  5
2CF
330
26A
100
AcDbEntity
  8
DV3_Default
  6
Continuous
 62
     7
100
AcDbLine
 10
214.35
 20
555.65
 30
0.0
 11
214.35
 21
538.65
 31
0.0
  0
LINE
  5
2D0
330
26A
100
AcDbEntity
  8
DV3_Default
  6
Continuous
 62
     7
100
AcDbLine
 10
241.05
 20
538.55
 30
0.0
 11
220.15
 21
538.55
 31
0.0
  0
LINE
  5
2D1
330
26A
100
AcDbEntity
  8
DV3_Default
  6
Continuous
 62
     7
100
AcDbLine
 10
241.05
 20
537.85
 30
0.0
 11
241.05
 21
538.55
 31
0.0
  0
LINE
  5
2D2
330
26A
100
AcDbEntity
  8
DV3_Default
  6
Continuous
 62
     7
100
AcDbLine
 10
220.15
 20
538.55
 30
0.0
 11
220.15
 21
537.85
 31
0.0
  0
LINE
  5
2D3
330
26A
100
AcDbEntity
  8
DV3_Default
  6
Continuous
 62
     7
100
AcDbLine
 10
241.05
 20
538.55
 30
0.0
 11
240.9665496252
 21
538.65
 31
0.0
  0
LINE
  5
2D4
330
26A
100
AcDbEntity
  8
DV3_Default
  6
Continuous
 62
     7
100
AcDbLine
 10
220.2334503748
 20
538.65
 30
0.0
 11
220.15
 21
538.55
 31
0.0
  0
LINE
  5
2D5
330
26A
100
AcDbEntity
  8
DV3_Default
  6
Continuous
 62
     7
100
AcDbLine
 10
195.6
 20
556.65
 30
0.0
 11
265.6
 21
556.65
 31
0.0
  0
LINE
  5
2D6
330
26A
100
AcDbEntity
  8
DV3_Default
  6
Continuous
 62
     7
100
AcDbLine
 10
195.6
 20
582.65
 30
0.0
 11
265.6
 21
582.65
 31
0.0
  0
LINE
  5
2D7
330
26A
100
AcDbEntity
  8
DV3_Default
  6
Continuous
 62
     7
100
AcDbLine
 10
195.6
 20
582.65
 30
0.0
 11
195.6
 21
556.65
 31
0.0
  0
LINE
  5
2D8
330
26A
100
AcDbEntity
  8
DV3_Default
  6
Continuous
 62
     7
100
AcDbLine
 10
265.6
 20
556.65
 30
0.0
 11
265.6
 21
582.65
 31
0.0
  0
LINE
  5
2D9
330
26A
100
AcDbEntity
  8
DV3_Default
  6
Continuous
 62
     7
100
AcDbLine
 10
45.6
 20
556.65
 30
0.0
 11
115.6
 21
556.65
 31
0.0
  0
LINE
  5
2DA
330
26A
100
AcDbEntity
  8
DV3_Default
  6
Continuous
 62
     7
100
AcDbLine
 10
45.6
 20
582.65
 30
0.0
 11
115.6
 21
582.65
 31
0.0
  0
LINE
  5
2DB
330
26A
100
AcDbEntity
  8
DV3_Default
  6
Continuous
 62
     7
100
AcDbLine
 10
45.6
 20
582.65
 30
0.0
 11
45.6
 21
556.65
 31
0.0
  0
LINE
  5
2DC
330
26A
100
AcDbEntity
  8
DV3_Default
  6
Continuous
 62
     7
100
AcDbLine
 10
115.6
 20
556.65
 30
0.0
 11
115.6
 21
582.65
 31
0.0
  0
ELLIPSE
  5
2DD
330
26A
100
AcDbEntity
  8
DV3_Default
  6
Continuous
 62
     7
100
AcDbEllipse
 10
80.6
 20
560.8830152318
 30
0.0
 11
-13.22000000000002
 21
-6.938893903907228E-15
 31
0.0
210
0.0
220
0.0
230
1.0
 40
0.3939104756
 41
0.9828339676581144
 42
2.15875868593168
  0
LINE
  5
2DE
330
26A
100
AcDbEntity
  8
DV3_Default
  6
Continuous
 62
     7
100
AcDbLine
 10
87.9326939115
 20
556.55
 30
0.0
 11
87.9326939115
 21
556.65
 31
0.0
  0
LINE
  5
2DF
330
26A
100
AcDbEntity
  8
DV3_Default
  6
Continuous
 62
     7
100
AcDbLine
 10
73.2673060885
 20
556.65
 30
0.0
 11
73.2673060885
 21
556.55
 31
0.0
  0
LINE
  5
2E0
330
26A
100
AcDbEntity
  8
DV3_Default
  6
Continuous
 62
     7
100
AcDbLine
 10
73.2673060885
 20
556.55
 30
0.0
 11
87.9326939115
 21
556.55
 31
0.0
  0
LINE
  5
2E1
330
26A
100
AcDbEntity
  8
DV3_Default
  6
Continuous
 62
     7
100
AcDbLine
 10
93.82
 20
555.65
 30
0.0
 11
93.82
 21
556.65
 31
0.0
  0
LINE
  5
2E2
330
26A
100
AcDbEntity
  8
DV3_Default
  6
Continuous
 62
     7
100
AcDbLine
 10
67.38
 20
556.65
 30
0.0
 11
67.38
 21
555.65
 31
0.0
  0
LINE
  5
2E3
330
26A
100
AcDbEntity
  8
DV3_Default
  6
Continuous
 62
     7
100
AcDbLine
 10
92.65
 20
556.65
 30
0.0
 11
92.65
 21
555.65
 31
0.0
  0
LINE
  5
2E4
330
26A
100
AcDbEntity
  8
DV3_Default
  6
Continuous
 62
     7
100
AcDbLine
 10
68.55
 20
556.65
 30
0.0
 11
68.55
 21
555.65
 31
0.0
  0
ELLIPSE
  5
2E5
330
26A
100
AcDbEntity
  8
DV3_Default
  6
Continuous
 62
     7
100
AcDbEllipse
 10
230.6
 20
560.8830152318
 30
0.0
 11
-13.22000000000001
 21
-1.387778780781446E-14
 31
0.0
210
0.0
220
0.0
230
1.0
 40
0.3939104756
 41
0.9828339676581135
 42
2.158758685931682
  0
LINE
  5
2E6
330
26A
100
AcDbEntity
  8
DV3_Default
  6
Continuous
 62
     7
100
AcDbLine
 10
237.9326939115
 20
556.55
 30
0.0
 11
237.9326939115
 21
556.65
 31
0.0
  0
LINE
  5
2E7
330
26A
100
AcDbEntity
  8
DV3_Default
  6
Continuous
 62
     7
100
AcDbLine
 10
223.2673060885
 20
556.65
 30
0.0
 11
223.2673060885
 21
556.55
 31
0.0
  0
LINE
  5
2E8
330
26A
100
AcDbEntity
  8
DV3_Default
  6
Continuous
 62
     7
100
AcDbLine
 10
223.2673060885
 20
556.55
 30
0.0
 11
237.9326939115
 21
556.55
 31
0.0
  0
LINE
  5
2E9
330
26A
100
AcDbEntity
  8
DV3_Default
  6
Continuous
 62
     7
100
AcDbLine
 10
243.82
 20
555.65
 30
0.0
 11
243.82
 21
556.65
 31
0.0
  0
LINE
  5
2EA
330
26A
100
AcDbEntity
  8
DV3_Default
  6
Continuous
 62
     7
100
AcDbLine
 10
217.38
 20
556.65
 30
0.0
 11
217.38
 21
555.65
 31
0.0
  0
LINE
  5
2EB
330
26A
100
AcDbEntity
  8
DV3_Default
  6
Continuous
 62
     7
100
AcDbLine
 10
242.65
 20
556.65
 30
0.0
 11
242.65
 21
555.65
 31
0.0
  0
LINE
  5
2EC
330
26A
100
AcDbEntity
  8
DV3_Default
  6
Continuous
 62
     7
100
AcDbLine
 10
218.55
 20
556.65
 30
0.0
 11
218.55
 21
555.65
 31
0.0
  0
LINE
  5
2ED
330
26A
100
AcDbEntity
  8
DV3_Default
  6
Continuous
 62
     7
100
AcDbLine
 10
63.1
 20
515.45
 30
0.0
 11
62.35
 21
515.45
 31
0.0
  0
LINE
  5
2EE
330
26A
100
AcDbEntity
  8
DV3_Default
  6
Continuous
 62
     7
100
AcDbLine
 10
62.35
 20
480.25
 30
0.0
 11
63.1
 21
480.25
 31
0.0
  0
LINE
  5
2EF
330
26A
100
AcDbEntity
  8
DV3_Default
  6
Continuous
 62
     7
100
AcDbLine
 10
63.1
 20
479.7234949731
 30
0.0
 11
63.1
 21
513.1712251371
 31
0.0
  0
LINE
  5
2F0
330
26A
100
AcDbEntity
  8
DV3_Default
  6
Continuous
 62
     7
100
AcDbLine
 10
63.1
 20
513.1712251371
 30
0.0
 11
63.1
 21
517.8007666914
 31
0.0
  0
SPLINE
  5
2F1
330
26A
100
AcDbEntity
  8
DV3_Default
  6
Continuous
 62
     7
100
AcDbSpline
210
0.0
220
0.0
230
1.0
 70
     8
 71
     3
 72
     8
 73
     4
 74
     0
 42
0.0000000995330838
 43
0.0000000001
 40
0.0
 40
0.0
 40
0.0
 40
0.0
 40
1.0
 40
1.0
 40
1.0
 40
1.0
 10
94.0969042411387
 20
533.7829533748734
 30
0.0
 10
94.09896613951199
 20
533.8181034033771
 30
0.0
 10
94.10002780645816
 20
533.8515758290026
 30
0.0
 10
94.10005315413423
 20
533.8833452152708
 30
0.0
  0
ARC
  5
2F2
330
26A
100
AcDbEntity
  8
DV3_Default
  6
Continuous
 62
     7
100
AcDbCircle
 10
62.9280756638
 20
522.6505892834
 30
0.0
 40
4.8144686187854
100
AcDbArc
 50
277.09573308
 51
2.1880817491
  0
LINE
  5
2F3
330
26A
100
AcDbEntity
  8
DV3_Default
  6
Continuous
 62
     7
100
AcDbLine
 10
63.1
 20
479.7238440355
 30
0.0
 11
63.1
 21
477.85
 31
0.0
  0
LINE
  5
2F4
330
26A
100
AcDbEntity
  8
DV3_Default
  6
Continuous
 62
     7
100
AcDbLine
 10
138.6
 20
412.85
 30
0.0
 11
138.6
 21
483.8764444357
 31
0.0
  0
ARC
  5
2F5
330
26A
100
AcDbEntity
  8
DV3_Default
  6
Continuous
 62
     7
100
AcDbCircle
 10
155.6
 20
412.85
 30
0.0
 40
17.0
100
AcDbArc
 50
312.5684542033
 51
0.0
  0
ARC
  5
2F6
330
26A
100
AcDbEntity
  8
DV3_Default
  6
Continuous
 62
     7
100
AcDbCircle
 10
155.6
 20
412.85
 30
0.0
 40
17.0
100
AcDbArc
 50
180.0
 51
227.4315457967
  0
SPLINE
  5
2F7
330
26A
100
AcDbEntity
  8
DV3_Default
  6
Continuous
 62
     7
100
AcDbSpline
210
0.0
220
0.0
230
1.0
 70
     8
 71
     3
 72
    15
 73
    11
 74
     0
 42
0.0000000008638301
 43
0.0000000001
 40
0.0
 40
0.0
 40
0.0
 40
0.0
 40
0.1023170408887616
 40
0.261775072784282
 40
0.3880991485902155
 40
0.5769960010620859
 40
0.7326538964534959
 40
0.8551289792437449
 40
0.9445409313659379
 40
1.0
 40
1.0
 40
1.0
 40
1.0
 10
140.002829340438
 20
495.3721756301269
 30
0.0
 10
139.946196012353
 20
494.9755311610147
 30
0.0
 10
139.7831936736233
 20
493.9642966919142
 30
0.0
 10
139.5525721570861
 20
492.4651894495912
 30
0.0
 10
139.2706317398749
 20
490.637191415168
 30
0.0
 10
139.0097235973555
 20
488.8299876109921
 30
0.0
 10
138.8017438914542
 20
487.0408332983524
 30
0.0
 10
138.6792541001471
 20
485.6433839306255
 30
0.0
 10
138.6152710684883
 20
484.628329461955
 30
0.0
 10
138.604393848643
 20
484.1024858366508
 30
0.0
 10
138.6002721293696
 20
483.890460076342
 30
0.0
  0
SPLINE
  5
2F8
330
26A
100
AcDbEntity
  8
DV3_Default
  6
Continuous
 62
     7
100
AcDbSpline
210
0.0
220
0.0
230
1.0
 70
     8
 71
     5
 72
    20
 73
    14
 74
     0
 42
0.0000000008637182
 43
0.0000000001
 40
0.0
 40
0.0
 40
0.0
 40
0.0
 40
0.0
 40
0.0
 40
0.04405904126836
 40
0.2142991333772254
 40
0.434365451058513
 40
0.5701134239163618
 40
0.7092574809651296
 40
0.8099161775738893
 40
0.8959702640520744
 40
0.9876143156928073
 40
1.0
 40
1.0
 40
1.0
 40
1.0
 40
1.0
 40
1.0
 10
171.1978363647706
 20
495.3722598159521
 30
0.0
 10
171.2134120802932
 20
495.2641051435536
 30
0.0
 10
171.2902431992296
 20
494.7451839385922
 30
0.0
 10
171.4509669058027
 20
493.7632859674961
 30
0.0
 10
171.6149290959452
 20
492.6280249977318
 30
0.0
 10
171.908323534741
 20
490.8251962353758
 30
0.0
 10
172.1020444190341
 20
489.4552081090254
 30
0.0
 10
172.3396060806993
 20
487.6647027671064
 30
0.0
 10
172.4696071770289
 20
486.3225373144492
 30
0.0
 10
172.5619750978638
 20
485.219245092131
 30
0.0
 10
172.5853756079484
 20
484.5508852465113
 30
0.0
 10
172.5927885455528
 20
484.1408675413587
 30
0.0
 10
172.595377668909
 20
483.9235946531041
 30
0.0
 10
172.5985882908001
 20
483.8898510541309
 30
0.0
  0
LINE
  5
2F9
330
26A
100
AcDbEntity
  8
DV3_Default
  6
Continuous
 62
     7
100
AcDbLine
 10
248.1
 20
479.7238440355
 30
0.0
 11
248.1
 21
477.85
 31
0.0
  0
LINE
  5
2FA
330
26A
100
AcDbEntity
  8
DV3_Default
  6
Continuous
 62
     7
100
AcDbLine
 10
248.1
 20
479.7234949731
 30
0.0
 11
248.1
 21
513.1712251371
 31
0.0
  0
LINE
  5
2FB
330
26A
100
AcDbEntity
  8
DV3_Default
  6
Continuous
 62
     7
100
AcDbLine
 10
248.1
 20
513.1712251371
 30
0.0
 11
248.1
 21
517.7976964047
 31
0.0
  0
ARC
  5
2FC
330
26A
100
AcDbEntity
  8
DV3_Default
  6
Continuous
 62
     7
100
AcDbCircle
 10
248.2674961143
 20
522.6464768126
 30
0.0
 40
4.810202542267256
100
AcDbArc
 50
177.7609552393
 51
262.9440287313
  0
LINE
  5
2FD
330
26A
100
AcDbEntity
  8
DV3_Default
  6
Continuous
 62
     7
100
AcDbLine
 10
172.6
 20
412.85
 30
0.0
 11
172.6
 21
483.8764444357
 31
0.0
  0
LINE
  5
2FE
330
26A
100
AcDbEntity
  8
DV3_Default
  6
Continuous
 62
     7
100
AcDbLine
 10
67.6
 20
537.85
 30
0.0
 11
93.6
 21
537.85
 31
0.0
  0
LINE
  5
2FF
330
26A
100
AcDbEntity
  8
DV3_Default
  6
Continuous
 62
     7
100
AcDbLine
 10
217.6
 20
537.85
 30
0.0
 11
243.6
 21
537.85
 31
0.0
  0
LINE
  5
300
330
26A
100
AcDbEntity
  8
DV3_Default
  6
Continuous
 62
     7
100
AcDbLine
 10
175.5998328754
 20
477.85
 30
0.0
 11
248.1
 21
477.85
 31
0.0
  0
LINE
  5
301
330
26A
100
AcDbEntity
  8
DV3_Default
  6
Continuous
 62
     7
100
AcDbLine
 10
63.1
 20
477.85
 30
0.0
 11
135.6001671246
 21
477.85
 31
0.0
  0
LINE
  5
302
330
26A
100
AcDbEntity
  8
DV3_Default
  6
Continuous
 62
     7
100
AcDbLine
 10
64.1120274552
 20
517.9490858302
 30
0.0
 11
63.1
 21
517.7895273531
 31
0.0
  0
LINE
  5
303
330
26A
100
AcDbEntity
  8
DV3_Default
  6
Continuous
 62
     7
100
AcDbLine
 10
67.1
 20
537.35
 30
0.0
 11
67.1
 21
521.8844322639
 31
0.0
  0
LINE
  5
304
330
26A
100
AcDbEntity
  8
DV3_Default
  6
Continuous
 62
     7
100
AcDbLine
 10
94.1
 20
533.8688389918
 30
0.0
 11
94.1
 21
537.35
 31
0.0
  0
ARC
  5
305
330
26A
100
AcDbEntity
  8
DV3_Default
  6
Continuous
 62
     7
100
AcDbCircle
 10
63.0099672151
 20
521.9005662499
 30
0.0
 40
4.075699454733642
100
AcDbArc
 50
285.7816413125
 51
359.7132152632
  0
ARC
  5
306
330
26A
100
AcDbEntity
  8
DV3_Default
  6
Continuous
 62
     7
100
AcDbCircle
 10
98.6992739786
 20
533.8883307179
 30
0.0
 40
4.630791984757154
100
AcDbArc
 50
181.349805698
 51
270.2964905868
  0
LINE
  5
307
330
26A
100
AcDbEntity
  8
DV3_Default
  6
Continuous
 62
     7
100
AcDbLine
 10
113.25
 20
529.2989544481
 30
0.0
 11
98.7498737136
 21
529.2989544481
 31
0.0
  0
ARC
  5
308
330
26A
100
AcDbEntity
  8
DV3_Default
  6
Continuous
 62
     7
100
AcDbCircle
 10
135.1635253318
 20
474.2197872873
 30
0.0
 40
3.654800989192736
100
AcDbArc
 50
19.9930917544
 51
83.1402288491
  0
ARC
  5
309
330
26A
100
AcDbEntity
  8
DV3_Default
  6
Continuous
 62
     7
100
AcDbCircle
 10
176.0364746682
 20
474.2197872873
 30
0.0
 40
3.654800989192744
100
AcDbArc
 50
96.8597711509
 51
160.0069082456
  0
LINE
  5
30A
330
26A
100
AcDbEntity
  8
DV3_Default
  6
Continuous
 62
     7
100
AcDbLine
 10
248.1
 20
517.7895273531
 30
0.0
 11
247.0879725448
 21
517.9490858302
 31
0.0
  0
LINE
  5
30B
330
26A
100
AcDbEntity
  8
DV3_Default
  6
Continuous
 62
     7
100
AcDbLine
 10
217.1
 20
537.35
 30
0.0
 11
217.1
 21
535.85
 31
0.0
  0
LINE
  5
30C
330
26A
100
AcDbEntity
  8
DV3_Default
  6
Continuous
 62
     7
100
AcDbLine
 10
244.1
 20
521.8844322639
 30
0.0
 11
244.1
 21
537.35
 31
0.0
  0
ARC
  5
30D
330
26A
100
AcDbEntity
  8
DV3_Default
  6
Continuous
 62
     7
100
AcDbCircle
 10
248.1883024745
 20
521.8987121409
 30
0.0
 40
4.073774249885358
100
AcDbArc
 50
251.8838923861
 51
257.6599381283
  0
ARC
  5
30E
330
26A
100
AcDbEntity
  8
DV3_Default
  6
Continuous
 62
     7
100
AcDbCircle
 10
248.1883024745
 20
521.8987121409
 30
0.0
 40
4.073774249885358
100
AcDbArc
 50
180.2508844271
 51
235.9031242836
  0
ARC
  5
30F
330
26A
100
AcDbEntity
  8
DV3_Default
  6
Continuous
 62
     7
100
AcDbCircle
 10
67.6
 20
537.35
 30
0.0
 40
0.5000000000000004
100
AcDbArc
 50
90.0
 51
180.0
  0
ARC
  5
310
330
26A
100
AcDbEntity
  8
DV3_Default
  6
Continuous
 62
     7
100
AcDbCircle
 10
93.6
 20
537.35
 30
0.0
 40
0.5000000000000004
100
AcDbArc
 50
0.0
 51
90.0
  0
ARC
  5
311
330
26A
100
AcDbEntity
  8
DV3_Default
  6
Continuous
 62
     7
100
AcDbCircle
 10
217.6
 20
537.35
 30
0.0
 40
0.5000000000000004
100
AcDbArc
 50
90.0
 51
180.0
  0
ARC
  5
312
330
26A
100
AcDbEntity
  8
DV3_Default
  6
Continuous
 62
     7
100
AcDbCircle
 10
243.6
 20
537.35
 30
0.0
 40
0.5000000000000004
100
AcDbArc
 50
0.0
 51
90.0
  0
ARC
  5
313
330
26A
100
AcDbEntity
  8
DV3_Default
  6
Continuous
 62
     7
100
AcDbCircle
 10
155.6
 20
517.85
 30
0.0
 40
11.5
100
AcDbArc
 50
0.0
 51
180.0
  0
ARC
  5
314
330
26A
100
AcDbEntity
  8
DV3_Default
  6
Continuous
 62
     7
100
AcDbCircle
 10
155.6
 20
117.85
 30
0.0
 40
11.5
100
AcDbArc
 50
180.0
 51
0.0
  0
LINE
  5
315
330
26A
100
AcDbEntity
  8
DV3_Default
  6
Continuous
 62
     7
100
AcDbLine
 10
144.1
 20
517.85
 30
0.0
 11
144.1
 21
477.35
 31
0.0
  0
LINE
  5
316
330
26A
100
AcDbEntity
  8
DV3_Default
  6
Continuous
 62
     7
100
AcDbLine
 10
167.1
 20
477.35
 30
0.0
 11
167.1
 21
517.85
 31
0.0
  0
LINE
  5
317
330
26A
100
AcDbEntity
  8
DV3_Default
  6
Continuous
 62
     7
100
AcDbLine
 10
167.1
 20
158.35
 30
0.0
 11
167.1
 21
477.35
 31
0.0
  0
LINE
  5
318
330
26A
100
AcDbEntity
  8
DV3_Default
  6
Continuous
 62
     7
100
AcDbLine
 10
144.1
 20
477.35
 30
0.0
 11
144.1
 21
158.35
 31
0.0
  0
LINE
  5
319
330
26A
100
AcDbEntity
  8
DV3_Default
  6
Continuous
 62
     7
100
AcDbLine
 10
144.1
 20
158.35
 30
0.0
 11
144.1
 21
117.85
 31
0.0
  0
LINE
  5
31A
330
26A
100
AcDbEntity
  8
DV3_Default
  6
Continuous
 62
     7
100
AcDbLine
 10
167.1
 20
117.85
 30
0.0
 11
167.1
 21
158.35
 31
0.0
  0
LINE
  5
31B
330
26A
100
AcDbEntity
  8
DV3_Default
  6
Continuous
 62
     7
100
AcDbLine
 10
153.5905
 20
529.3
 30
0.0
 11
154.5287857357
 21
529.3
 31
0.0
  0
LINE
  5
31C
330
26A
100
AcDbEntity
  8
DV3_Default
  6
Continuous
 62
     7
100
AcDbLine
 10
156.6712142643
 20
529.3
 30
0.0
 11
157.6095
 21
529.3
 31
0.0
  0
LINE
  5
31D
330
26A
100
AcDbEntity
  8
DV3_Default
  6
Continuous
 62
     7
100
AcDbLine
 10
157.9393827592
 20
529.1095421002
 30
0.0
 11
157.6095
 21
529.3
 31
0.0
  0
LINE
  5
31E
330
26A
100
AcDbEntity
  8
DV3_Default
  6
Continuous
 62
     7
100
AcDbLine
 10
153.5905
 20
529.3
 30
0.0
 11
153.2606172408
 21
529.1095421002
 31
0.0
  0
ARC
  5
31F
330
26A
100
AcDbEntity
  8
DV3_Default
  6
Continuous
 62
     7
100
AcDbCircle
 10
155.6
 20
517.85
 30
0.0
 40
11.79999999999999
100
AcDbArc
 50
0.0
 51
192.6829120705
  0
ARC
  5
320
330
26A
100
AcDbEntity
  8
DV3_Default
  6
Continuous
 62
     7
100
AcDbCircle
 10
155.6
 20
517.85
 30
0.0
 40
11.79999999999999
100
AcDbArc
 50
347.5615388783
 51
0.0
  0
LINE
  5
321
330
26A
100
AcDbEntity
  8
DV3_Default
  6
Continuous
 62
     7
100
AcDbLine
 10
171.25
 20
502.45
 30
0.0
 11
167.1
 21
502.45
 31
0.0
  0
LINE
  5
322
330
26A
100
AcDbEntity
  8
DV3_Default
  6
Continuous
 62
     7
100
AcDbLine
 10
144.1
 20
502.45
 30
0.0
 11
139.95
 21
502.45
 31
0.0
  0
CIRCLE
  5
323
330
26A
100
AcDbEntity
  8
DV3_Default
  6
Continuous
 62
     7
100
AcDbCircle
 10
155.6
 20
560.85
 30
0.0
 40
2.4585
  0
LINE
  5
324
330
26A
100
AcDbEntity
  8
DV3_Default
  6
Continuous
 62
     7
100
AcDbLine
 10
171.25
 20
502.45
 30
0.0
 11
171.25
 21
566.05
 31
0.0
  0
LINE
  5
325
330
26A
100
AcDbEntity
  8
DV3_Default
  6
Continuous
 62
     7
100
AcDbLine
 10
139.95
 20
566.05
 30
0.0
 11
139.95
 21
502.45
 31
0.0
  0
ARC
  5
326
330
26A
100
AcDbEntity
  8
DV3_Default
  6
Continuous
 62
     7
100
AcDbCircle
 10
155.6
 20
560.85
 30
0.0
 40
3.0
100
AcDbArc
 50
255.0
 51
195.0
  0
CIRCLE
  5
327
330
26A
100
AcDbEntity
  8
DV3_Default
  6
Continuous
 62
     7
100
AcDbCircle
 10
125.75
 20
517.85
 30
0.0
 40
7.000000000000002
  0
LINE
  5
328
330
26A
100
AcDbEntity
  8
DV3_Default
  6
Continuous
 62
     7
100
AcDbLine
 10
113.25
 20
500.55
 30
0.0
 11
113.25
 21
535.15
 31
0.0
  0
LINE
  5
329
330
26A
100
AcDbEntity
  8
DV3_Default
  6
Continuous
 62
     7
100
AcDbLine
 10
138.25
 20
535.65
 30
0.0
 11
138.25
 21
500.05
 31
0.0
  0
LINE
  5
32A
330
26A
100
AcDbEntity
  8
DV3_Default
  6
Continuous
 62
     7
100
AcDbLine
 10
138.05
 20
535.85
 30
0.0
 11
113.95
 21
535.85
 31
0.0
  0
LINE
  5
32B
330
26A
100
AcDbEntity
  8
DV3_Default
  6
Continuous
 62
     7
100
AcDbLine
 10
113.95
 20
499.85
 30
0.0
 11
138.05
 21
499.85
 31
0.0
  0
ARC
  5
32C
330
26A
100
AcDbEntity
  8
DV3_Default
  6
Continuous
 62
     7
100
AcDbCircle
 10
113.95
 20
500.55
 30
0.0
 40
0.6999999999999923
100
AcDbArc
 50
180.0
 51
270.0
  0
ARC
  5
32D
330
26A
100
AcDbEntity
  8
DV3_Default
  6
Continuous
 62
     7
100
AcDbCircle
 10
113.95
 20
535.15
 30
0.0
 40
0.6999999999999993
100
AcDbArc
 50
90.0
 51
180.0
  0
ARC
  5
32E
330
26A
100
AcDbEntity
  8
DV3_Default
  6
Continuous
 62
     7
100
AcDbCircle
 10
138.05
 20
500.05
 30
0.0
 40
0.1999999999999988
100
AcDbArc
 50
270.0
 51
0.0
  0
ARC
  5
32F
330
26A
100
AcDbEntity
  8
DV3_Default
  6
Continuous
 62
     7
100
AcDbCircle
 10
138.05
 20
535.65
 30
0.0
 40
0.1999999999999988
100
AcDbArc
 50
0.0
 51
90.0
  0
LINE
  5
330
330
26A
100
AcDbEntity
  8
DV3_Default
  6
Continuous
 62
     7
100
AcDbLine
 10
214.5106096896
 20
526.85
 30
0.0
 11
213.8591128956
 21
526.85
 31
0.0
  0
LINE
  5
331
330
26A
100
AcDbEntity
  8
DV3_Default
  6
Continuous
 62
     7
100
AcDbLine
 10
214.5535440961
 20
508.85
 30
0.0
 11
213.8591128956
 21
508.85
 31
0.0
  0
LINE
  5
332
330
26A
100
AcDbEntity
  8
DV3_Default
  6
Continuous
 62
     7
100
AcDbLine
 10
212.078089665
 20
508.85
 30
0.0
 11
213.8591128956
 21
508.85
 31
0.0
  0
LINE
  5
333
330
26A
100
AcDbEntity
  8
DV3_Default
  6
Continuous
 62
     7
100
AcDbLine
 10
213.8591128956
 20
508.85
 30
0.0
 11
213.2688963608
 21
508.815582412
 31
0.0
  0
ARC
  5
334
330
26A
100
AcDbEntity
  8
DV3_Default
  6
Continuous
 62
     7
100
AcDbCircle
 10
213.9898734189
 20
502.8340146757
 30
0.0
 40
6.0248618658381
100
AcDbArc
 50
96.8728837682
 51
116.6243401353
  0
LINE
  5
335
330
26A
100
AcDbEntity
  8
DV3_Default
  6
Continuous
 62
     7
100
AcDbLine
 10
213.8591128956
 20
526.85
 30
0.0
 11
212.0819785216
 21
526.85
 31
0.0
  0
ARC
  5
336
330
26A
100
AcDbEntity
  8
DV3_Default
  6
Continuous
 62
     7
100
AcDbCircle
 10
213.9898734189
 20
532.8659853244
 30
0.0
 40
6.024861865856038
100
AcDbArc
 50
243.7413244792
 51
263.1271162318
  0
LINE
  5
337
330
26A
100
AcDbEntity
  8
DV3_Default
  6
Continuous
 62
     7
100
AcDbLine
 10
213.2688963608
 20
526.884417588
 30
0.0
 11
213.8591128956
 21
526.85
 31
0.0
  0
LINE
  5
338
330
26A
100
AcDbEntity
  8
DV3_Default
  6
Continuous
 62
     7
100
AcDbLine
 10
171.6
 20
499.85
 30
0.0
 11
171.6
 21
535.85
 31
0.0
  0
LINE
  5
339
330
26A
100
AcDbEntity
  8
DV3_Default
  6
Continuous
 62
     7
100
AcDbLine
 10
139.6
 20
499.85
 30
0.0
 11
139.6
 21
535.85
 31
0.0
  0
LINE
  5
33A
330
26A
100
AcDbEntity
  8
DV3_Default
  6
Continuous
 62
     7
100
AcDbLine
 10
139.6
 20
499.85
 30
0.0
 11
140.0
 21
499.85
 31
0.0
  0
LINE
  5
33B
330
26A
100
AcDbEntity
  8
DV3_Default
  6
Continuous
 62
     7
100
AcDbLine
 10
171.2
 20
499.85
 30
0.0
 11
171.6
 21
499.85
 31
0.0
  0
LINE
  5
33C
330
26A
100
AcDbEntity
  8
DV3_Default
  6
Continuous
 62
     7
100
AcDbLine
 10
171.6
 20
535.85
 30
0.0
 11
171.25
 21
535.85
 31
0.0
  0
LINE
  5
33D
330
26A
100
AcDbEntity
  8
DV3_Default
  6
Continuous
 62
     7
100
AcDbLine
 10
139.95
 20
535.85
 30
0.0
 11
139.6
 21
535.85
 31
0.0
  0
LINE
  5
33E
330
26A
100
AcDbEntity
  8
DV3_Default
  6
Continuous
 62
     7
100
AcDbLine
 10
171.6
 20
501.15
 30
0.0
 11
172.45
 21
501.15
 31
0.0
  0
LINE
  5
33F
330
26A
100
AcDbEntity
  8
DV3_Default
  6
Continuous
 62
     7
100
AcDbLine
 10
172.45
 20
534.55
 30
0.0
 11
171.6
 21
534.55
 31
0.0
  0
LINE
  5
340
330
26A
100
AcDbEntity
  8
DV3_Default
  6
Continuous
 62
     7
100
AcDbLine
 10
138.25
 20
501.15
 30
0.0
 11
139.6
 21
501.15
 31
0.0
  0
LINE
  5
341
330
26A
100
AcDbEntity
  8
DV3_Default
  6
Continuous
 62
     7
100
AcDbLine
 10
139.6
 20
534.55
 30
0.0
 11
138.25
 21
534.55
 31
0.0
  0
LINE
  5
342
330
26A
100
AcDbEntity
  8
DV3_Default
  6
Continuous
 62
     7
100
AcDbLine
 10
218.95
 20
508.85
 30
0.0
 11
214.7242971305
 21
508.85
 31
0.0
  0
LINE
  5
343
330
26A
100
AcDbEntity
  8
DV3_Default
  6
Continuous
 62
     7
100
AcDbLine
 10
218.95
 20
535.85
 30
0.0
 11
218.95
 21
526.85
 31
0.0
  0
LINE
  5
344
330
26A
100
AcDbEntity
  8
DV3_Default
  6
Continuous
 62
     7
100
AcDbLine
 10
218.95
 20
526.85
 30
0.0
 11
214.7242971305
 21
526.85
 31
0.0
  0
LINE
  5
345
330
26A
100
AcDbEntity
  8
DV3_Default
  6
Continuous
 62
     7
100
AcDbLine
 10
218.95
 20
508.85
 30
0.0
 11
218.95
 21
499.85
 31
0.0
  0
LINE
  5
346
330
26A
100
AcDbEntity
  8
DV3_Default
  6
Continuous
 62
     7
100
AcDbLine
 10
172.45
 20
500.05
 30
0.0
 11
172.45
 21
535.65
 31
0.0
  0
LINE
  5
347
330
26A
100
AcDbEntity
  8
DV3_Default
  6
Continuous
 62
     7
100
AcDbLine
 10
214.7242971305
 20
526.85
 30
0.0
 11
214.5555155669
 21
526.85
 31
0.0
  0
SPLINE
  5
348
330
26A
100
AcDbEntity
  8
DV3_Default
  6
Continuous
 62
     7
100
AcDbSpline
210
0.0
220
0.0
230
1.0
 70
     8
 71
     3
 72
    40
 73
    36
 74
     0
 42
0.0000000001591078
 43
0.0000000001
 40
0.0
 40
0.0
 40
0.0
 40
0.0
 40
0.0625000000000002
 40
0.0625000000000002
 40
0.1250000000000004
 40
0.1250000000000004
 40
0.1562500000000005
 40
0.1562500000000005
 40
0.1875000000000006
 40
0.1875000000000006
 40
0.2500000000000006
 40
0.2500000000000006
 40
0.3125000000000006
 40
0.3125000000000006
 40
0.3750000000000007
 40
0.3750000000000007
 40
0.4375000000000007
 40
0.4375000000000007
 40
0.5000000000000007
 40
0.5000000000000007
 40
0.5625000000000007
 40
0.5625000000000007
 40
0.6250000000000006
 40
0.6250000000000006
 40
0.6875000000000006
 40
0.6875000000000006
 40
0.7500000000000006
 40
0.7500000000000006
 40
0.8125000000000006
 40
0.8125000000000006
 40
0.8750000000000003
 40
0.8750000000000003
 40
0.9375000000000002
 40
0.9375000000000002
 40
1.0
 40
1.0
 40
1.0
 40
1.0
 10
214.5555155668862
 20
526.85
 30
0.0
 10
213.6858227527757
 20
527.7322007718994
 30
0.0
 10
212.6922826033701
 20
528.4873887248125
 30
0.0
 10
210.5199087272277
 20
529.7004057997601
 30
0.0
 10
209.3494659647585
 20
530.1632489445097
 30
0.0
 10
207.3764917218764
 20
530.6144476995968
 30
0.0
 10
206.7044596702743
 20
530.7175046461421
 30
0.0
 10
205.3258029365304
 20
530.8235243538463
 30
0.0
 10
204.6157704329683
 20
530.8244844971144
 30
0.0
 10
202.553254040346
 20
530.6723807800192
 30
0.0
 10
201.2249946998193
 20
530.3639590340935
 30
0.0
 10
198.8310653412647
 20
529.4460755170501
 30
0.0
 10
197.7312270559748
 20
528.8290973719622
 30
0.0
 10
195.7682622403021
 20
527.3395108712529
 30
0.0
 10
194.8767825739408
 20
526.4434929146822
 30
0.0
 10
193.3737673599334
 20
524.394599129236
 30
0.0
 10
192.749084606145
 20
523.2206336611558
 30
0.0
 10
191.8857732133249
 20
520.6733448769997
 30
0.0
 10
191.6469637938895
 20
519.279137791403
 30
0.0
 10
191.6366414201763
 20
516.5161459404546
 30
0.0
 10
191.8649143209334
 20
515.1188735338757
 30
0.0
 10
192.7125593931158
 20
512.558453547811
 30
0.0
 10
193.3295556553894
 20
511.3786487137742
 30
0.0
 10
194.8324777288637
 20
509.3046636625037
 30
0.0
 10
195.7127568639653
 20
508.4102866081342
 30
0.0
 10
197.6866547552631
 20
506.8974275459431
 30
0.0
 10
198.7767634033081
 20
506.2818805810365
 30
0.0
 10
201.1511221843732
 20
505.3576043632964
 30
0.0
 10
202.4796355142311
 20
505.039830994747
 30
0.0
 10
205.2450828720546
 20
504.8226388465492
 30
0.0
 10
206.6726083246666
 20
504.9295771602237
 30
0.0
 10
209.3006827881372
 20
505.5207766289529
 30
0.0
 10
210.5010123158398
 20
505.9900507573087
 30
0.0
 10
212.6949777104462
 20
507.2131155996569
 30
0.0
 10
213.6736437929154
 20
507.9554451099391
 30
0.0
 10
214.5555155668862
 20
508.85
 30
0.0
  0
SPLINE
  5
349
330
26A
100
AcDbEntity
  8
DV3_Default
  6
Continuous
 62
     7
100
AcDbSpline
210
0.0
220
0.0
230
1.0
 70
     8
 71
     3
 72
    36
 73
    32
 74
     0
 42
0.0000000001565544
 43
0.0000000001
 40
0.0
 40
0.0
 40
0.0
 40
0.0
 40
0.0625000000000001
 40
0.0625000000000001
 40
0.1250000000000001
 40
0.1250000000000001
 40
0.1875000000000002
 40
0.1875000000000002
 40
0.2500000000000002
 40
0.2500000000000002
 40
0.3750000000000003
 40
0.3750000000000003
 40
0.4375000000000004
 40
0.4375000000000004
 40
0.5000000000000004
 40
0.5000000000000004
 40
0.5625000000000003
 40
0.5625000000000003
 40
0.6250000000000003
 40
0.6250000000000003
 40
0.7500000000000003
 40
0.7500000000000003
 40
0.7812500000000002
 40
0.7812500000000002
 40
0.8125000000000001
 40
0.8125000000000001
 40
0.8750000000000001
 40
0.8750000000000001
 40
0.9375
 40
0.9375
 40
1.0
 40
1.0
 40
1.0
 40
1.0
 10
214.7242971304956
 20
526.85
 30
0.0
 10
213.8380912217722
 20
527.7712951510675
 30
0.0
 10
212.8447453022635
 20
528.5441214611512
 30
0.0
 10
210.6024037659316
 20
529.8211921044225
 30
0.0
 10
209.3883606699011
 20
530.3039965501553
 30
0.0
 10
206.7408402814007
 20
530.9169703050536
 30
0.0
 10
205.3389650123902
 20
531.0293960367683
 30
0.0
 10
202.5784390929121
 20
530.8312066190823
 30
0.0
 10
201.237411554848
 20
530.5229236785975
 30
0.0
 10
197.5714529047687
 20
529.1139959807214
 30
0.0
 10
195.5076049092883
 20
527.5329823596284
 30
0.0
 10
193.2331846569857
 20
524.3801013838546
 30
0.0
 10
192.618881751373
 20
523.1993343389316
 30
0.0
 10
191.7674769500611
 20
520.6300594528224
 30
0.0
 10
191.5402977581151
 20
519.2738053542216
 30
0.0
 10
191.5335735887724
 20
516.4885236029163
 30
0.0
 10
191.7575638444644
 20
515.1144746027907
 30
0.0
 10
192.6017296828139
 20
512.5382649007893
 30
0.0
 10
193.218281395616
 20
511.3457402028504
 30
0.0
 10
195.4844251490666
 20
508.1889652703431
 30
0.0
 10
197.5389902762846
 20
506.6028483860793
 30
0.0
 10
200.6100904182273
 20
505.4171025226112
 30
0.0
 10
201.2446673080851
 20
505.2229332750127
 30
0.0
 10
202.5627264096205
 20
504.924841281466
 30
0.0
 10
203.2529671399558
 20
504.8213953857965
 30
0.0
 10
205.3092473120005
 20
504.6707243346713
 30
0.0
 10
206.7174915390651
 20
504.780780026968
 30
0.0
 10
209.351477779953
 20
505.3843792165507
 30
0.0
 10
210.591818269929
 20
505.8752274840668
 30
0.0
 10
212.8168413094909
 20
507.1375802147929
 30
0.0
 10
213.8332904300374
 20
507.9237139702855
 30
0.0
 10
214.7242971304956
 20
508.85
 30
0.0
  0
LINE
  5
34A
330
26A
100
AcDbEntity
  8
DV3_Default
  6
Continuous
 62
     7
100
AcDbLine
 10
214.7242971305
 20
508.85
 30
0.0
 11
214.5555155669
 21
508.85
 31
0.0
  0
LINE
  5
34B
330
26A
100
AcDbEntity
  8
DV3_Default
  6
Continuous
 62
     7
100
AcDbLine
 10
172.65
 20
499.85
 30
0.0
 11
218.95
 21
499.85
 31
0.0
  0
LINE
  5
34C
330
26A
100
AcDbEntity
  8
DV3_Default
  6
Continuous
 62
     7
100
AcDbLine
 10
218.95
 20
535.85
 30
0.0
 11
172.65
 21
535.85
 31
0.0
  0
ARC
  5
34D
330
26A
100
AcDbEntity
  8
DV3_Default
  6
Continuous
 62
     7
100
AcDbCircle
 10
172.65
 20
500.05
 30
0.0
 40
0.2000000000000023
100
AcDbArc
 50
180.0
 51
270.0
  0
ARC
  5
34E
330
26A
100
AcDbEntity
  8
DV3_Default
  6
Continuous
 62
     7
100
AcDbCircle
 10
172.65
 20
535.65
 30
0.0
 40
0.1999999999999988
100
AcDbArc
 50
90.0
 51
180.0
  0
ARC
  5
34F
330
26A
100
AcDbEntity
  8
DV3_Default
  6
Continuous
 62
     7
100
AcDbCircle
 10
155.6
 20
618.45
 30
0.0
 40
125.0
100
AcDbArc
 50
262.9117808659
 51
264.7213238967
  0
ARC
  5
350
330
26A
100
AcDbEntity
  8
DV3_Default
  6
Continuous
 62
     7
100
AcDbCircle
 10
155.6
 20
618.45
 30
0.0
 40
125.0
100
AcDbArc
 50
275.2786761033
 51
277.0882191341
  0
LINE
  5
351
330
26A
100
AcDbEntity
  8
DV3_Default
  6
Continuous
 62
     7
100
AcDbLine
 10
140.0
 20
502.25
 30
0.0
 11
140.0
 21
494.6038050645
 31
0.0
  0
LINE
  5
352
330
26A
100
AcDbEntity
  8
DV3_Default
  6
Continuous
 62
     7
100
AcDbLine
 10
171.2
 20
494.6038050645
 30
0.0
 11
171.2
 21
502.25
 31
0.0
  0
ARC
  5
353
330
26A
100
AcDbEntity
  8
DV3_Default
  6
Continuous
 62
     7
100
AcDbCircle
 10
140.2
 20
502.25
 30
0.0
 40
0.2000000000000005
100
AcDbArc
 50
90.0
 51
180.0
  0
ARC
  5
354
330
26A
100
AcDbEntity
  8
DV3_Default
  6
Continuous
 62
     7
100
AcDbCircle
 10
171.0
 20
502.25
 30
0.0
 40
0.2000000000000005
100
AcDbArc
 50
0.0
 51
90.0
  0
ARC
  5
355
330
26A
100
AcDbEntity
  8
DV3_Default
  6
Continuous
 62
     7
100
AcDbCircle
 10
140.2
 20
494.6038050645
 30
0.0
 40
0.2000000000000005
100
AcDbArc
 50
180.0
 51
262.911780866
  0
ARC
  5
356
330
26A
100
AcDbEntity
  8
DV3_Default
  6
Continuous
 62
     7
100
AcDbCircle
 10
171.0
 20
494.6038050645
 30
0.0
 40
0.2000000000000121
100
AcDbArc
 50
277.088219134
 51
0.0
  0
CIRCLE
  5
357
330
26A
100
AcDbEntity
  8
DV3_Default
  6
Continuous
 62
     7
100
AcDbCircle
 10
155.6
 20
560.85
 30
0.0
 40
1.8
  0
LINE
  5
358
330
26A
100
AcDbEntity
  8
DV3_Default
  6
Continuous
 62
     7
100
AcDbLine
 10
155.6
 20
559.1179491924
 30
0.0
 11
154.1
 21
559.9839745962
 31
0.0
  0
LINE
  5
359
330
26A
100
AcDbEntity
  8
DV3_Default
  6
Continuous
 62
     7
100
AcDbLine
 10
157.1
 20
559.9839745962
 30
0.0
 11
155.6
 21
559.1179491924
 31
0.0
  0
LINE
  5
35A
330
26A
100
AcDbEntity
  8
DV3_Default
  6
Continuous
 62
     7
100
AcDbLine
 10
157.1
 20
561.7160254038
 30
0.0
 11
157.1
 21
559.9839745962
 31
0.0
  0
LINE
  5
35B
330
26A
100
AcDbEntity
  8
DV3_Default
  6
Continuous
 62
     7
100
AcDbLine
 10
155.6
 20
562.5820508076
 30
0.0
 11
157.1
 21
561.7160254038
 31
0.0
  0
LINE
  5
35C
330
26A
100
AcDbEntity
  8
DV3_Default
  6
Continuous
 62
     7
100
AcDbLine
 10
154.1
 20
561.7160254038
 30
0.0
 11
155.6
 21
562.5820508076
 31
0.0
  0
LINE
  5
35D
330
26A
100
AcDbEntity
  8
DV3_Default
  6
Continuous
 62
     7
100
AcDbLine
 10
154.1
 20
559.9839745962
 30
0.0
 11
154.1
 21
561.7160254038
 31
0.0
  0
ENDBLK
  5
35F
330
26A
100
AcDbEntity
  8
0
100
AcDbBlockEnd
  0
ENDSEC
  0
SECTION
  2
ENTITIES
  0
INSERT
  5
5F
330
1F
100
AcDbEntity
  8
Default
100
AcDbBlockReference
  2
SEANNOT_GROUP
 10
0.0
 20
0.0
 30
0.0
  0
INSERT
  5
6A
330
1F
100
AcDbEntity
  8
Default
100
AcDbBlockReference
  2
SEANNOT_GROUP1
 10
0.0
 20
0.0
 30
0.0
  0
INSERT
  5
70
330
1F
100
AcDbEntity
  8
Default
100
AcDbBlockReference
  2
SEANNOT_GROUP2
 10
0.0
 20
0.0
 30
0.0
  0
INSERT
  5
7A
330
1F
100
AcDbEntity
  8
Default
100
AcDbBlockReference
  2
SEANNOT_GROUP3
 10
0.0
 20
0.0
 30
0.0
  0
INSERT
  5
80
330
1F
100
AcDbEntity
  8
Default
100
AcDbBlockReference
  2
SEANNOT_GROUP4
 10
0.0
 20
0.0
 30
0.0
  0
INSERT
  5
86
330
1F
100
AcDbEntity
  8
Default
100
AcDbBlockReference
  2
SEANNOT_GROUP5
 10
0.0
 20
0.0
 30
0.0
  0
INSERT
  5
8C
330
1F
100
AcDbEntity
  8
Default
100
AcDbBlockReference
  2
SEANNOT_GROUP6
 10
0.0
 20
0.0
 30
0.0
  0
INSERT
  5
92
330
1F
100
AcDbEntity
  8
Default
100
AcDbBlockReference
  2
SEANNOT_GROUP7
 10
0.0
 20
0.0
 30
0.0
  0
INSERT
  5
98
330
1F
100
AcDbEntity
  8
Default
100
AcDbBlockReference
  2
SEANNOT_GROUP8
 10
0.0
 20
0.0
 30
0.0
  0
INSERT
  5
9E
330
1F
100
AcDbEntity
  8
Default
100
AcDbBlockReference
  2
SEANNOT_GROUP9
 10
0.0
 20
0.0
 30
0.0
  0
INSERT
  5
A8
330
1F
100
AcDbEntity
  8
Default
100
AcDbBlockReference
  2
SEANNOT_GROUP10
 10
0.0
 20
0.0
 30
0.0
  0
INSERT
  5
B2
330
1F
100
AcDbEntity
  8
Default
100
AcDbBlockReference
  2
SEANNOT_GROUP11
 10
0.0
 20
0.0
 30
0.0
  0
INSERT
  5
B8
330
1F
100
AcDbEntity
  8
Default
100
AcDbBlockReference
  2
SEANNOT_GROUP12
 10
0.0
 20
0.0
 30
0.0
  0
INSERT
  5
BE
330
1F
100
AcDbEntity
  8
Default
100
AcDbBlockReference
  2
SE
 10
0.0
 20
0.0
 30
0.0
  0
INSERT
  5
1B7
330
1F
100
AcDbEntity
  8
Default
100
AcDbBlockReference
  2
SE1
 10
0.0
 20
0.0
 30
0.0
  0
INSERT
  5
26B
330
1F
100
AcDbEntity
  8
Default
100
AcDbBlockReference
  2
SE2
 10
0.0
 20
0.0
 30
0.0
  0
TEXT
  5
361
330
1F
100
AcDbEntity
  8
Default
  6
Continuous
 62
     7
100
AcDbText
 10
5.9362635081
 20
53.4225120485
 30
0.0
 40
10.0
  1
Grohe AG^J
  7
SEACAD_seiso_ttf
 11
5.9362635081
 21
63.4225120485
 31
0.0
100
AcDbText
 73
     3
  0
TEXT
  5
362
330
1F
100
AcDbEntity
  8
Default
  6
Continuous
 62
     7
100
AcDbText
 10
5.9362635081
 20
37.0588756849
 30
0.0
 40
10.0
  1
 
  7
SEACAD_seiso_ttf
 11
5.9362635081
 21
47.0588756849
 31
0.0
100
AcDbText
 73
     3
  0
TEXT
  5
363
330
1F
100
AcDbEntity
  8
Default
  6
Continuous
 62
     7
100
AcDbText
 10
5.9362635081
 20
20.6952393213
 30
0.0
 40
10.0
  1
ecn:
  7
SEACAD_seiso_ttf
 11
5.9362635081
 21
30.6952393213
 31
0.0
100
AcDbText
 73
     3
  0
TEXT
  5
364
330
1F
100
AcDbEntity
  8
Default
  6
Continuous
 62
     7
100
AcDbText
 10
5.9362635081
 20
4.3316029576
 30
0.0
 40
10.0
  1
unit: mm
  7
SEACAD_seiso_ttf
 11
5.9362635081
 21
14.3316029576
 31
0.0
100
AcDbText
 73
     3
  0
LINE
  5
365
330
1F
100
AcDbEntity
  8
Default
  6
Continuous
 62
     7
100
AcDbLine
 10
0.0
 20
0.0
 30
0.0
 11
100.0
 21
0.0
 31
0.0
  0
LINE
  5
366
330
1F
100
AcDbEntity
  8
Default
  6
Continuous
 62
     7
100
AcDbLine
 10
0.0
 20
0.0
 30
0.0
 11
0.0
 21
100.0
 31
0.0
  0
TEXT
  5
367
330
1F
100
AcDbEntity
  8
Default
  6
Continuous
 62
     7
100
AcDbText
 10
24.3923665681
 20
-18.2375342018
 30
0.0
 40
10.0
  1
100 mm
  7
SEACAD_seiso_ttf
 11
24.3923665681
 21
-8.2375342018
 31
0.0
100
AcDbText
 73
     3
  0
TEXT
  5
368
330
1F
100
AcDbEntity
  8
Default
  6
Continuous
 62
     7
100
AcDbText
 10
-7.6150308803
 20
24.6231930421
 30
0.0
 40
10.0
  1
100 mm
 50
90.0
  7
SEACAD_seiso_ttf
 11
-17.6150308803
 21
24.6231930421
 31
0.0
100
AcDbText
 73
     3
  0
TEXT
  5
369
330
1F
100
AcDbEntity
  8
Default
  6
Continuous
 62
     7
100
AcDbText
 10
28.4878128572
 20
20.0907663715
 30
0.0
 40
10.0
  1
232279
  7
SEACAD_seiso_ttf
 11
28.4878128572
 21
30.0907663715
 31
0.0
100
AcDbText
 73
     3
  0
TEXT
  5
36A
330
1F
100
AcDbEntity
  8
Default
  6
Continuous
 62
     7
100
AcDbText
 10
5.9012241913
 20
36.7242780188
 30
0.0
 40
10.0
  1
26243000
  7
SEACAD_seiso_ttf
 11
5.9012241913
 21
46.7242780188
 31
0.0
100
AcDbText
 73
     3
  0
ENDSEC
  0
SECTION
  2
OBJECTS
  0
DICTIONARY
  5
C
330
0
100
AcDbDictionary
281
     1
  3
ACAD_GROUP
350
D
  3
ACAD_LAYOUT
350
1A
  3
ACAD_MLEADERSTYLE
350
36E
  3
ACAD_MLINESTYLE
350
17
  3
ACAD_PLOTSETTINGS
350
19
  3
ACAD_PLOTSTYLENAME
350
E
  3
ACAD_SCALELIST
350
3B
  3
ACAD_TABLESTYLE
350
36D
  3
ACAD_VISUALSTYLE
350
2A
  3
AcDbVariableDictionary
350
36B
  0
DICTIONARY
  5
D
102
{ACAD_REACTORS
330
C
102
}
330
C
100
AcDbDictionary
281
     1
  0
DICTIONARY
  5
1A
102
{ACAD_REACTORS
330
C
102
}
330
C
100
AcDbDictionary
281
     1
  3
Layout1
350
1E
  3
Model
350
22
  0
DICTIONARY
  5
36E
102
{ACAD_REACTORS
330
C
102
}
330
C
100
AcDbDictionary
281
     1
  0
DICTIONARY
  5
17
102
{ACAD_REACTORS
330
C
102
}
330
C
100
AcDbDictionary
281
     1
  3
Standard
350
18
  0
DICTIONARY
  5
19
102
{ACAD_REACTORS
330
C
102
}
330
C
100
AcDbDictionary
281
     1
  0
ACDBDICTIONARYWDFLT
  5
E
102
{ACAD_REACTORS
330
C
102
}
330
C
100
AcDbDictionary
281
     1
  3
Normal
350
F
100
AcDbDictionaryWithDefault
340
F
  0
DICTIONARY
  5
3B
102
{ACAD_REACTORS
330
C
102
}
330
C
100
AcDbDictionary
281
     1
  3
A0
350
3C
  3
A1
350
3D
  3
A2
350
3E
  3
A3
350
3F
  3
A4
350
40
  3
A5
350
41
  3
A6
350
42
  3
A7
350
43
  3
A8
350
44
  3
A9
350
45
  3
B0
350
46
  3
B1
350
47
  3
B2
350
48
  3
B3
350
49
  3
B4
350
4A
  3
B5
350
4B
  3
B6
350
4C
  3
B7
350
4D
  3
B8
350
4E
  3
B9
350
4F
  3
C0
350
50
  3
C1
350
51
  3
C2
350
52
  3
C3
350
53
  3
C4
350
54
  3
C5
350
55
  3
C6
350
56
  3
C7
350
57
  3
C8
350
58
  3
C9
350
59
  3
D0
350
5A
  3
D1
350
5B
  3
D2
350
5C
  0
DICTIONARY
  5
36D
102
{ACAD_REACTORS
330
C
102
}
330
C
100
AcDbDictionary
281
     1
  0
DICTIONARY
  5
2A
102
{ACAD_REACTORS
330
C
102
}
330
C
100
AcDbDictionary
281
     1
  3
2dWireframe
350
2F
  3
3D Hidden
350
31
  3
3dWireframe
350
30
  3
Basic
350
32
  3
Brighten
350
36
  3
ColorChange
350
3A
  3
Conceptual
350
34
  3
Dim
350
35
  3
Facepattern
350
39
  3
Flat
350
2B
  3
FlatWithEdges
350
2C
  3
Gouraud
350
2D
  3
GouraudWithEdges
350
2E
  3
Linepattern
350
38
  3
Realistic
350
33
  3
Thicken
350
37
  0
DICTIONARY
  5
36B
102
{ACAD_REACTORS
330
C
102
}
330
C
100
AcDbDictionary
281
     1
  3
CANNOSCALE
350
36C
  3
PSOLHEIGHT
350
370
  3
PSOLWIDTH
350
36F
  0
LAYOUT
  5
1E
102
{ACAD_REACTORS
330
1A
102
}
330
1A
100
AcDbPlotSettings
  1

  2
none_device
  4

  6

 40
0.0
 41
0.0
 42
0.0
 43
0.0
 44
0.0
 45
0.0
 46
0.0
 47
0.0
 48
0.0
 49
0.0
140
0.0
141
0.0
142
1.0
143
1.0
 70
   688
 72
     0
 73
     0
 74
     5
  7

 75
    16
147
1.0
148
0.0
149
0.0
100
AcDbLayout
  1
Layout1
 70
     1
 71
     1
 10
0.0
 20
0.0
 11
3000.0
 21
4500.0
 12
0.0
 22
0.0
 32
0.0
 14
0.0
 24
0.0
 34
0.0
 15
3000.0
 25
4500.0
 35
0.0
146
0.0
 13
0.0
 23
0.0
 33
0.0
 16
1.0
 26
0.0
 36
0.0
 17
0.0
 27
1.0
 37
0.0
 76
     0
330
1B
  0
LAYOUT
  5
22
102
{ACAD_REACTORS
330
1A
102
}
330
1A
100
AcDbPlotSettings
  1

  2
none_device
  4

  6

 40
0.0
 41
0.0
 42
0.0
 43
0.0
 44
0.0
 45
0.0
 46
0.0
 47
0.0
 48
0.0
 49
0.0
140
0.0
141
0.0
142
1.0
143
1.0
 70
  1712
 72
     0
 73
     0
 74
     0
  7

 75
     0
147
1.0
148
0.0
149
0.0
100
AcDbLayout
  1
Model
 70
     1
 71
     0
 10
0.0
 20
0.0
 11
3000.0
 21
4500.0
 12
0.0
 22
0.0
 32
0.0
 14
0.0
 24
0.0
 34
0.0
 15
3000.0
 25
4500.0
 35
0.0
146
0.0
 13
0.0
 23
0.0
 33
0.0
 16
1.0
 26
0.0
 36
0.0
 17
0.0
 27
1.0
 37
0.0
 76
     0
330
1F
331
29
  0
MLINESTYLE
  5
18
102
{ACAD_REACTORS
330
17
102
}
330
17
100
AcDbMlineStyle
  2
Standard
 70
     0
  3

 62
   256
 51
90.0
 52
90.0
 71
     2
 49
0.5
 62
   256
  6
BYLAYER
 49
-0.5
 62
   256
  6
BYLAYER
  0
ACDBPLACEHOLDER
  5
F
102
{ACAD_REACTORS
330
E
102
}
330
E
  0
SCALE
  5
3C
102
{ACAD_REACTORS
330
3B
102
}
330
3B
100
AcDbScale
 70
     0
300
1:1
140
1.0
141
1.0
290
     1
  0
SCALE
  5
3D
102
{ACAD_REACTORS
330
3B
102
}
330
3B
100
AcDbScale
 70
     0
300
1:2
140
1.0
141
2.0
290
     0
  0
SCALE
  5
3E
102
{ACAD_REACTORS
330
3B
102
}
330
3B
100
AcDbScale
 70
     0
300
1:4
140
1.0
141
4.0
290
     0
  0
SCALE
  5
3F
102
{ACAD_REACTORS
330
3B
102
}
330
3B
100
AcDbScale
 70
     0
300
1:5
140
1.0
141
5.0
290
     0
  0
SCALE
  5
40
102
{ACAD_REACTORS
330
3B
102
}
330
3B
100
AcDbScale
 70
     0
300
1:8
140
1.0
141
8.0
290
     0
  0
SCALE
  5
41
102
{ACAD_REACTORS
330
3B
102
}
330
3B
100
AcDbScale
 70
     0
300
1:10
140
1.0
141
10.0
290
     0
  0
SCALE
  5
42
102
{ACAD_REACTORS
330
3B
102
}
330
3B
100
AcDbScale
 70
     0
300
1:16
140
1.0
141
16.0
290
     0
  0
SCALE
  5
43
102
{ACAD_REACTORS
330
3B
102
}
330
3B
100
AcDbScale
 70
     0
300
1:20
140
1.0
141
20.0
290
     0
  0
SCALE
  5
44
102
{ACAD_REACTORS
330
3B
102
}
330
3B
100
AcDbScale
 70
     0
300
1:30
140
1.0
141
30.0
290
     0
  0
SCALE
  5
45
102
{ACAD_REACTORS
330
3B
102
}
330
3B
100
AcDbScale
 70
     0
300
1:40
140
1.0
141
40.0
290
     0
  0
SCALE
  5
46
102
{ACAD_REACTORS
330
3B
102
}
330
3B
100
AcDbScale
 70
     0
300
1:50
140
1.0
141
50.0
290
     0
  0
SCALE
  5
47
102
{ACAD_REACTORS
330
3B
102
}
330
3B
100
AcDbScale
 70
     0
300
1:100
140
1.0
141
100.0
290
     0
  0
SCALE
  5
48
102
{ACAD_REACTORS
330
3B
102
}
330
3B
100
AcDbScale
 70
     0
300
2:1
140
2.0
141
1.0
290
     0
  0
SCALE
  5
49
102
{ACAD_REACTORS
330
3B
102
}
330
3B
100
AcDbScale
 70
     0
300
4:1
140
4.0
141
1.0
290
     0
  0
SCALE
  5
4A
102
{ACAD_REACTORS
330
3B
102
}
330
3B
100
AcDbScale
 70
     0
300
8:1
140
8.0
141
1.0
290
     0
  0
SCALE
  5
4B
102
{ACAD_REACTORS
330
3B
102
}
330
3B
100
AcDbScale
 70
     0
300
10:1
140
10.0
141
1.0
290
     0
  0
SCALE
  5
4C
102
{ACAD_REACTORS
330
3B
102
}
330
3B
100
AcDbScale
 70
     0
300
100:1
140
100.0
141
1.0
290
     0
  0
SCALE
  5
4D
102
{ACAD_REACTORS
330
3B
102
}
330
3B
100
AcDbScale
 70
     0
300
1/128" = 1'-0"
140
0.0078125
141
12.0
290
     0
  0
SCALE
  5
4E
102
{ACAD_REACTORS
330
3B
102
}
330
3B
100
AcDbScale
 70
     0
300
1/64" = 1'-0"
140
0.015625
141
12.0
290
     0
  0
SCALE
  5
4F
102
{ACAD_REACTORS
330
3B
102
}
330
3B
100
AcDbScale
 70
     0
300
1/32" = 1'-0"
140
0.03125
141
12.0
290
     0
  0
SCALE
  5
50
102
{ACAD_REACTORS
330
3B
102
}
330
3B
100
AcDbScale
 70
     0
300
1/16" = 1'-0"
140
0.0625
141
12.0
290
     0
  0
SCALE
  5
51
102
{ACAD_REACTORS
330
3B
102
}
330
3B
100
AcDbScale
 70
     0
300
3/32" = 1'-0"
140
0.09375
141
12.0
290
     0
  0
SCALE
  5
52
102
{ACAD_REACTORS
330
3B
102
}
330
3B
100
AcDbScale
 70
     0
300
1/8" = 1'-0"
140
0.125
141
12.0
290
     0
  0
SCALE
  5
53
102
{ACAD_REACTORS
330
3B
102
}
330
3B
100
AcDbScale
 70
     0
300
3/16" = 1'-0"
140
0.1875
141
12.0
290
     0
  0
SCALE
  5
54
102
{ACAD_REACTORS
330
3B
102
}
330
3B
100
AcDbScale
 70
     0
300
1/4" = 1'-0"
140
0.25
141
12.0
290
     0
  0
SCALE
  5
55
102
{ACAD_REACTORS
330
3B
102
}
330
3B
100
AcDbScale
 70
     0
300
3/8" = 1'-0"
140
0.375
141
12.0
290
     0
  0
SCALE
  5
56
102
{ACAD_REACTORS
330
3B
102
}
330
3B
100
AcDbScale
 70
     0
300
1/2" = 1'-0"
140
0.5
141
12.0
290
     0
  0
SCALE
  5
57
102
{ACAD_REACTORS
330
3B
102
}
330
3B
100
AcDbScale
 70
     0
300
3/4" = 1'-0"
140
0.75
141
12.0
290
     0
  0
SCALE
  5
58
102
{ACAD_REACTORS
330
3B
102
}
330
3B
100
AcDbScale
 70
     0
300
1" = 1'-0"
140
1.0
141
12.0
290
     0
  0
SCALE
  5
59
102
{ACAD_REACTORS
330
3B
102
}
330
3B
100
AcDbScale
 70
     0
300
1-1/2" = 1'-0"
140
1.5
141
12.0
290
     0
  0
SCALE
  5
5A
102
{ACAD_REACTORS
330
3B
102
}
330
3B
100
AcDbScale
 70
     0
300
3" = 1'-0"
140
3.0
141
12.0
290
     0
  0
SCALE
  5
5B
102
{ACAD_REACTORS
330
3B
102
}
330
3B
100
AcDbScale
 70
     0
300
6" = 1'-0"
140
6.0
141
12.0
290
     0
  0
SCALE
  5
5C
102
{ACAD_REACTORS
330
3B
102
}
330
3B
100
AcDbScale
 70
     0
300
1'-0" = 1'-0"
140
12.0
141
12.0
290
     0
  0
VISUALSTYLE
  5
2F
102
{ACAD_REACTORS
330
2A
102
}
330
2A
100
AcDbVisualStyle
  2
2dWireframe
 70
     4
 71
     0
 72
     2
 73
     0
 90
        0
 40
-0.6
 41
-30.0
 62
     5
 63
     7
 74
     1
 91
        4
 64
     7
 65
   257
 75
     1
175
     1
 42
1.0
 92
        0
 66
   257
 43
1.0
 76
     1
 77
     6
 78
     2
 67
     7
 79
     5
170
     0
171
     0
290
     0
174
     0
 93
        1
 44
0.0
173
     0
291
     0
 45
0.0
1001
ACAD
1000
AcDbSavedByObjectVersion
1070
     0
  0
VISUALSTYLE
  5
31
102
{ACAD_REACTORS
330
2A
102
}
330
2A
100
AcDbVisualStyle
  2
3D Hidden
 70
     6
 71
     1
 72
     2
 73
     2
 90
        0
 40
-0.6
 41
-30.0
 62
     5
 63
     7
 74
     2
 91
        2
 64
     7
 65
   257
 75
     2
175
     1
 42
40.0
 92
        0
 66
   257
 43
1.0
 76
     1
 77
     6
 78
     2
 67
     7
 79
     3
170
     0
171
     0
290
     0
174
     0
 93
        1
 44
0.0
173
     0
291
     0
 45
0.0
1001
ACAD
1000
AcDbSavedByObjectVersion
1070
     0
  0
VISUALSTYLE
  5
30
102
{ACAD_REACTORS
330
2A
102
}
330
2A
100
AcDbVisualStyle
  2
3dWireframe
 70
     5
 71
     0
 72
     2
 73
     0
 90
        0
 40
-0.6
 41
-30.0
 62
     5
 63
     7
 74
     1
 91
        4
 64
     7
 65
   257
 75
     1
175
     1
 42
1.0
 92
        0
 66
   257
 43
1.0
 76
     1
 77
     6
 78
     2
 67
     7
 79
     5
170
     0
171
     0
290
     0
174
     0
 93
        1
 44
0.0
173
     0
291
     0
 45
0.0
1001
ACAD
1000
AcDbSavedByObjectVersion
1070
     0
  0
VISUALSTYLE
  5
32
102
{ACAD_REACTORS
330
2A
102
}
330
2A
100
AcDbVisualStyle
  2
Basic
 70
     7
 71
     1
 72
     0
 73
     1
 90
        0
 40
-0.6
 41
-30.0
 62
     5
 63
     7
 74
     0
 91
        4
 64
     7
 65
   257
 75
     1
175
     1
 42
1.0
 92
        8
 66
     7
 43
1.0
 76
     1
 77
     6
 78
     2
 67
     7
 79
     5
170
     0
171
     0
290
     0
174
     0
 93
        1
 44
0.0
173
     0
291
     1
 45
0.0
1001
ACAD
1000
AcDbSavedByObjectVersion
1070
     0
  0
VISUALSTYLE
  5
36
102
{ACAD_REACTORS
330
2A
102
}
330
2A
100
AcDbVisualStyle
  2
Brighten
 70
    12
 71
     2
 72
     2
 73
     0
 90
        0
 40
-0.6
 41
-30.0
 62
     5
 63
     7
 74
     1
 91
        4
 64
     7
 65
   257
 75
     1
175
     1
 42
1.0
 92
        8
 66
     7
 43
1.0
 76
     1
 77
     6
 78
     2
 67
     7
 79
     5
170
     0
171
     0
290
     0
174
     0
 93
        1
 44
50.0
173
     0
291
     1
 45
0.0
1001
ACAD
1000
AcDbSavedByObjectVersion
1070
     0
  0
VISUALSTYLE
  5
3A
102
{ACAD_REACTORS
330
2A
102
}
330
2A
100
AcDbVisualStyle
  2
ColorChange
 70
    16
 71
     2
 72
     2
 73
     3
 90
        0
 40
-0.6
 41
-30.0
 62
     5
 63
     8
 74
     1
 91
        4
 64
     7
 65
   257
 75
     1
175
     1
 42
1.0
 92
        8
 66
     8
 43
1.0
 76
     1
 77
     6
 78
     2
 67
     7
 79
     5
170
     0
171
     0
290
     0
174
     0
 93
        1
 44
0.0
173
     0
291
     1
 45
0.0
1001
ACAD
1000
AcDbSavedByObjectVersion
1070
     0
  0
VISUALSTYLE
  5
34
102
{ACAD_REACTORS
330
2A
102
}
330
2A
100
AcDbVisualStyle
  2
Conceptual
 70
     9
 71
     3
 72
     2
 73
     0
 90
        0
 40
-0.6
 41
-30.0
 62
     5
 63
     7
 74
     2
 91
        2
 64
     7
 65
   257
 75
     1
175
     1
 42
40.0
 92
        8
 66
     7
 43
1.0
 76
     1
 77
     6
 78
     2
 67
     7
 79
     3
170
     0
171
     0
290
     0
174
     0
 93
        1
 44
0.0
173
     0
291
     0
 45
0.0
1001
ACAD
1000
AcDbSavedByObjectVersion
1070
     0
  0
VISUALSTYLE
  5
35
102
{ACAD_REACTORS
330
2A
102
}
330
2A
100
AcDbVisualStyle
  2
Dim
 70
    11
 71
     2
 72
     2
 73
     0
 90
        0
 40
-0.6
 41
-30.0
 62
     5
 63
     7
 74
     1
 91
        4
 64
     7
 65
   257
 75
     1
175
     1
 42
1.0
 92
        8
 66
     7
 43
1.0
 76
     1
 77
     6
 78
     2
 67
     7
 79
     5
170
     0
171
     0
290
     0
174
     0
 93
        1
 44
-50.0
173
     0
291
     1
 45
0.0
1001
ACAD
1000
AcDbSavedByObjectVersion
1070
     0
  0
VISUALSTYLE
  5
39
102
{ACAD_REACTORS
330
2A
102
}
330
2A
100
AcDbVisualStyle
  2
Facepattern
 70
    15
 71
     2
 72
     2
 73
     0
 90
        0
 40
-0.6
 41
-30.0
 62
     5
 63
     7
 74
     1
 91
        4
 64
     7
 65
   257
 75
     1
175
     1
 42
1.0
 92
        8
 66
     7
 43
1.0
 76
     1
 77
     6
 78
     2
 67
     7
 79
     5
170
     0
171
     0
290
     0
174
     0
 93
        1
 44
0.0
173
     0
291
     1
 45
0.0
1001
ACAD
1000
AcDbSavedByObjectVersion
1070
     0
  0
VISUALSTYLE
  5
2B
102
{ACAD_REACTORS
330
2A
102
}
330
2A
100
AcDbVisualStyle
  2
Flat
 70
     0
 71
     2
 72
     1
 73
     1
 90
        2
 40
-0.6
 41
30.0
 62
     5
 63
     7
 74
     0
 91
        4
 64
     7
 65
   257
 75
     1
175
     1
 42
1.0
 92
        8
 66
     7
 43
1.0
 76
     1
 77
     6
 78
     2
 67
     7
 79
     5
170
     0
171
     0
290
     0
174
     0
 93
       13
 44
0.0
173
     0
291
     1
 45
0.0
1001
ACAD
1000
AcDbSavedByObjectVersion
1070
     0
  0
VISUALSTYLE
  5
2C
102
{ACAD_REACTORS
330
2A
102
}
330
2A
100
AcDbVisualStyle
  2
FlatWithEdges
 70
     1
 71
     2
 72
     1
 73
     1
 90
        2
 40
-0.6
 41
30.0
 62
     5
 63
     7
 74
     1
 91
        4
 64
     7
 65
   257
 75
     1
175
     1
 42
1.0
 92
        0
 66
   257
 43
1.0
 76
     1
 77
     6
 78
     2
 67
     7
 79
     5
170
     0
171
     0
290
     0
174
     0
 93
       13
 44
0.0
173
     0
291
     1
 45
0.0
1001
ACAD
1000
AcDbSavedByObjectVersion
1070
     0
  0
VISUALSTYLE
  5
2D
102
{ACAD_REACTORS
330
2A
102
}
330
2A
100
AcDbVisualStyle
  2
Gouraud
 70
     2
 71
     2
 72
     2
 73
     1
 90
        2
 40
-0.6
 41
30.0
 62
     5
 63
     7
 74
     0
 91
        4
 64
     7
 65
   257
 75
     1
175
     1
 42
1.0
 92
        0
 66
     7
 43
1.0
 76
     1
 77
     6
 78
     2
 67
     7
 79
     5
170
     0
171
     0
290
     0
174
     0
 93
       13
 44
0.0
173
     0
291
     1
 45
0.0
1001
ACAD
1000
AcDbSavedByObjectVersion
1070
     0
  0
VISUALSTYLE
  5
2E
102
{ACAD_REACTORS
330
2A
102
}
330
2A
100
AcDbVisualStyle
  2
GouraudWithEdges
 70
     3
 71
     2
 72
     2
 73
     1
 90
        2
 40
-0.6
 41
30.0
 62
     5
 63
     7
 74
     1
 91
        4
 64
     7
 65
   257
 75
     1
175
     1
 42
1.0
 92
        0
 66
   257
 43
1.0
 76
     1
 77
     6
 78
     2
 67
     7
 79
     5
170
     0
171
     0
290
     0
174
     0
 93
       13
 44
0.0
173
     0
291
     1
 45
0.0
1001
ACAD
1000
AcDbSavedByObjectVersion
1070
     0
  0
VISUALSTYLE
  5
38
102
{ACAD_REACTORS
330
2A
102
}
330
2A
100
AcDbVisualStyle
  2
Linepattern
 70
    14
 71
     2
 72
     2
 73
     0
 90
        0
 40
-0.6
 41
-30.0
 62
     5
 63
     7
 74
     1
 91
        4
 64
     7
 65
   257
 75
     7
175
     7
 42
1.0
 92
        8
 66
     7
 43
1.0
 76
     1
 77
     6
 78
     2
 67
     7
 79
     5
170
     0
171
     0
290
     0
174
     0
 93
        1
 44
0.0
173
     0
291
     1
 45
0.0
1001
ACAD
1000
AcDbSavedByObjectVersion
1070
     0
  0
VISUALSTYLE
  5
33
102
{ACAD_REACTORS
330
2A
102
}
330
2A
100
AcDbVisualStyle
  2
Realistic
 70
     8
 71
     2
 72
     2
 73
     0
 90
        0
 40
-0.6
 41
-30.0
 62
     5
 63
     7
 74
     1
 91
        0
 64
     7
 65
   257
 75
     1
175
     1
 42
1.0
 92
        8
 66
     8
 43
1.0
 76
     1
 77
     6
 78
     2
 67
     7
 79
     5
170
     0
171
     0
290
     0
174
     0
 93
       13
 44
0.0
173
     0
291
     0
 45
0.0
1001
ACAD
1000
AcDbSavedByObjectVersion
1070
     0
  0
VISUALSTYLE
  5
37
102
{ACAD_REACTORS
330
2A
102
}
330
2A
100
AcDbVisualStyle
  2
Thicken
 70
    13
 71
     2
 72
     2
 73
     0
 90
        0
 40
-0.6
 41
-30.0
 62
     5
 63
     7
 74
     1
 91
        4
 64
     7
 65
   257
 75
     1
175
     1
 42
1.0
 92
       12
 66
     7
 43
1.0
 76
     1
 77
     6
 78
     2
 67
     7
 79
     5
170
     0
171
     0
290
     0
174
     0
 93
        1
 44
0.0
173
     0
291
     1
 45
0.0
1001
ACAD
1000
AcDbSavedByObjectVersion
1070
     0
  0
DICTIONARYVAR
  5
36C
102
{ACAD_REACTORS
330
36B
102
}
330
36B
100
DictionaryVariables
280
     0
  1
1:1
  0
DICTIONARYVAR
  5
370
102
{ACAD_REACTORS
330
36B
102
}
330
36B
100
DictionaryVariables
280
     0
  1
80.000000
  0
DICTIONARYVAR
  5
36F
102
{ACAD_REACTORS
330
36B
102
}
330
36B
100
DictionaryVariables
280
     0
  1
5.000000
  0
ENDSEC
  0
EOF
