  0
SECTION
  2
HEADER
  9
$ACADVER
  1
AC1015
  9
$ACADMAINTVER
 70
     6
  9
$DWGCODEPAGE
  3
ANSI_1252
  9
$INSBASE
 10
0.0
 20
0.0
 30
0.0
  9
$EXTMIN
 10
0.0
 20
0.0
 30
0.0
  9
$EXTMAX
 10
3000.0
 20
4500.0
 30
0.0
  9
$LIMMIN
 10
0.0
 20
0.0
  9
$LIMMAX
 10
3000.0
 20
4500.0
  9
$ORTHOMODE
 70
     0
  9
$REGENMODE
 70
     1
  9
$FILLMODE
 70
     1
  9
$QTEXTMODE
 70
     0
  9
$MIRRTEXT
 70
     1
  9
$LTSCALE
 40
1.0
  9
$ATTMODE
 70
     1
  9
$TEXTSIZE
 40
2.5
  9
$TRACEWID
 40
1.0
  9
$TEXTSTYLE
  7
Standard
  9
$CLAYER
  8
0
  9
$CELTYPE
  6
ByLayer
  9
$CECOLOR
 62
   256
  9
$CELTSCALE
 40
1.0
  9
$DISPSILH
 70
     0
  9
$DIMSCALE
 40
1.0
  9
$DIMASZ
 40
2.5
  9
$DIMEXO
 40
0.625
  9
$DIMDLI
 40
3.75
  9
$DIMRND
 40
0.0
  9
$DIMDLE
 40
0.0
  9
$DIMEXE
 40
1.25
  9
$DIMTP
 40
0.0
  9
$DIMTM
 40
0.0
  9
$DIMTXT
 40
2.5
  9
$DIMCEN
 40
2.5
  9
$DIMTSZ
 40
0.0
  9
$DIMTOL
 70
     0
  9
$DIMLIM
 70
     0
  9
$DIMTIH
 70
     0
  9
$DIMTOH
 70
     0
  9
$DIMSE1
 70
     0
  9
$DIMSE2
 70
     0
  9
$DIMTAD
 70
     1
  9
$DIMZIN
 70
     8
  9
$DIMBLK
  1

  9
$DIMASO
 70
     1
  9
$DIMSHO
 70
     1
  9
$DIMPOST
  1

  9
$DIMAPOST
  1

  9
$DIMALT
 70
     0
  9
$DIMALTD
 70
     3
  9
$DIMALTF
 40
0.0393700787
  9
$DIMLFAC
 40
1.0
  9
$DIMTOFL
 70
     1
  9
$DIMTVP
 40
0.0
  9
$DIMTIX
 70
     0
  9
$DIMSOXD
 70
     0
  9
$DIMSAH
 70
     0
  9
$DIMBLK1
  1

  9
$DIMBLK2
  1

  9
$DIMSTYLE
  2
ISO-25
  9
$DIMCLRD
 70
     0
  9
$DIMCLRE
 70
     0
  9
$DIMCLRT
 70
     0
  9
$DIMTFAC
 40
1.0
  9
$DIMGAP
 40
0.625
  9
$DIMJUST
 70
     0
  9
$DIMSD1
 70
     0
  9
$DIMSD2
 70
     0
  9
$DIMTOLJ
 70
     0
  9
$DIMTZIN
 70
     8
  9
$DIMALTZ
 70
     0
  9
$DIMALTTZ
 70
     0
  9
$DIMUPT
 70
     0
  9
$DIMDEC
 70
     2
  9
$DIMTDEC
 70
     2
  9
$DIMALTU
 70
     2
  9
$DIMALTTD
 70
     3
  9
$DIMTXSTY
  7
Standard
  9
$DIMAUNIT
 70
     0
  9
$DIMADEC
 70
     0
  9
$DIMALTRND
 40
0.0
  9
$DIMAZIN
 70
     0
  9
$DIMDSEP
 70
    44
  9
$DIMATFIT
 70
     3
  9
$DIMFRAC
 70
     0
  9
$DIMLDRBLK
  1

  9
$DIMLUNIT
 70
     2
  9
$DIMLWD
 70
    -2
  9
$DIMLWE
 70
    -2
  9
$DIMTMOVE
 70
     0
  9
$LUNITS
 70
     2
  9
$LUPREC
 70
     4
  9
$SKETCHINC
 40
1.0
  9
$FILLETRAD
 40
10.0
  9
$AUNITS
 70
     0
  9
$AUPREC
 70
     0
  9
$MENU
  1
.
  9
$ELEVATION
 40
0.0
  9
$PELEVATION
 40
0.0
  9
$THICKNESS
 40
0.0
  9
$LIMCHECK
 70
     0
  9
$CHAMFERA
 40
10.0
  9
$CHAMFERB
 40
10.0
  9
$CHAMFERC
 40
20.0
  9
$CHAMFERD
 40
0.0
  9
$SKPOLY
 70
     0
  9
$TDCREATE
 40
2456835.45440066
  9
$TDUCREATE
 40
2456835.371067327
  9
$TDUPDATE
 40
2456835.454400671
  9
$TDUUPDATE
 40
2456835.371067338
  9
$TDINDWG
 40
0.0000000116
  9
$TDUSRTIMER
 40
0.0000000116
  9
$USRTIMER
 70
     1
  9
$ANGBASE
 50
0.0
  9
$ANGDIR
 70
     0
  9
$PDMODE
 70
     0
  9
$PDSIZE
 40
0.0
  9
$PLINEWID
 40
0.0
  9
$SPLFRAME
 70
     0
  9
$SPLINETYPE
 70
     6
  9
$SPLINESEGS
 70
     8
  9
$HANDSEED
  5
228
  9
$SURFTAB1
 70
     6
  9
$SURFTAB2
 70
     6
  9
$SURFTYPE
 70
     6
  9
$SURFU
 70
     6
  9
$SURFV
 70
     6
  9
$UCSBASE
  2

  9
$UCSNAME
  2

  9
$UCSORG
 10
0.0
 20
0.0
 30
0.0
  9
$UCSXDIR
 10
1.0
 20
0.0
 30
0.0
  9
$UCSYDIR
 10
0.0
 20
1.0
 30
0.0
  9
$UCSORTHOREF
  2

  9
$UCSORTHOVIEW
 70
     0
  9
$UCSORGTOP
 10
0.0
 20
0.0
 30
0.0
  9
$UCSORGBOTTOM
 10
0.0
 20
0.0
 30
0.0
  9
$UCSORGLEFT
 10
0.0
 20
0.0
 30
0.0
  9
$UCSORGRIGHT
 10
0.0
 20
0.0
 30
0.0
  9
$UCSORGFRONT
 10
0.0
 20
0.0
 30
0.0
  9
$UCSORGBACK
 10
0.0
 20
0.0
 30
0.0
  9
$PUCSBASE
  2

  9
$PUCSNAME
  2

  9
$PUCSORG
 10
0.0
 20
0.0
 30
0.0
  9
$PUCSXDIR
 10
1.0
 20
0.0
 30
0.0
  9
$PUCSYDIR
 10
0.0
 20
1.0
 30
0.0
  9
$PUCSORTHOREF
  2

  9
$PUCSORTHOVIEW
 70
     0
  9
$PUCSORGTOP
 10
0.0
 20
0.0
 30
0.0
  9
$PUCSORGBOTTOM
 10
0.0
 20
0.0
 30
0.0
  9
$PUCSORGLEFT
 10
0.0
 20
0.0
 30
0.0
  9
$PUCSORGRIGHT
 10
0.0
 20
0.0
 30
0.0
  9
$PUCSORGFRONT
 10
0.0
 20
0.0
 30
0.0
  9
$PUCSORGBACK
 10
0.0
 20
0.0
 30
0.0
  9
$USERI1
 70
     0
  9
$USERI2
 70
     0
  9
$USERI3
 70
     0
  9
$USERI4
 70
     0
  9
$USERI5
 70
     0
  9
$USERR1
 40
0.0
  9
$USERR2
 40
0.0
  9
$USERR3
 40
0.0
  9
$USERR4
 40
0.0
  9
$USERR5
 40
0.0
  9
$WORLDVIEW
 70
     1
  9
$SHADEDGE
 70
     3
  9
$SHADEDIF
 70
    70
  9
$TILEMODE
 70
     1
  9
$MAXACTVP
 70
    64
  9
$PINSBASE
 10
0.0
 20
0.0
 30
0.0
  9
$PLIMCHECK
 70
     0
  9
$PEXTMIN
 10
0.0
 20
0.0
 30
0.0
  9
$PEXTMAX
 10
3000.0
 20
4500.0
 30
0.0
  9
$PLIMMIN
 10
0.0
 20
0.0
  9
$PLIMMAX
 10
3000.0
 20
4500.0
  9
$UNITMODE
 70
     0
  9
$VISRETAIN
 70
     1
  9
$PLINEGEN
 70
     0
  9
$PSLTSCALE
 70
     1
  9
$TREEDEPTH
 70
  3020
  9
$CMLSTYLE
  2
Standard
  9
$CMLJUST
 70
     0
  9
$CMLSCALE
 40
20.0
  9
$PROXYGRAPHICS
 70
     1
  9
$MEASUREMENT
 70
     1
  9
$CELWEIGHT
370
    -1
  9
$ENDCAPS
280
     0
  9
$JOINSTYLE
280
     0
  9
$LWDISPLAY
290
     0
  9
$INSUNITS
 70
     4
  9
$HYPERLINKBASE
  1

  9
$STYLESHEET
  1

  9
$XEDIT
290
     1
  9
$CEPSNTYPE
380
     0
  9
$PSTYLEMODE
290
     1
  9
$FINGERPRINTGUID
  2
{BF7A6188-3920-48DB-B9D4-E2CE7F8C5505}
  9
$VERSIONGUID
  2
{FAEB1C32-E019-11D5-929B-00C0DF256EC4}
  9
$EXTNAMES
290
     1
  9
$PSVPSCALE
 40
0.0
  9
$OLESTARTUP
290
     0
  0
ENDSEC
  0
SECTION
  2
CLASSES
  0
CLASS
  1
ACDBDICTIONARYWDFLT
  2
AcDbDictionaryWithDefault
  3
ObjectDBX Classes
 90
        0
280
     0
281
     0
  0
CLASS
  1
VISUALSTYLE
  2
AcDbVisualStyle
  3
ObjectDBX Classes
 90
     4095
280
     0
281
     0
  0
CLASS
  1
SCALE
  2
AcDbScale
  3
ObjectDBX Classes
 90
     1153
280
     0
281
     0
  0
CLASS
  1
DICTIONARYVAR
  2
AcDbDictionaryVar
  3
ObjectDBX Classes
 90
        0
280
     0
281
     0
  0
CLASS
  1
ACDBPLACEHOLDER
  2
AcDbPlaceHolder
  3
ObjectDBX Classes
 90
        0
280
     0
281
     0
  0
CLASS
  1
LAYOUT
  2
AcDbLayout
  3
ObjectDBX Classes
 90
        0
280
     0
281
     0
  0
ENDSEC
  0
SECTION
  2
TABLES
  0
TABLE
  2
VPORT
  5
8
330
0
100
AcDbSymbolTable
 70
     1
  0
VPORT
  5
29
330
8
100
AcDbSymbolTableRecord
100
AcDbViewportTableRecord
  2
*Active
 70
     0
 10
0.0
 20
0.0
 11
1.0
 21
1.0
 12
344.1869158879
 22
148.5
 13
0.0
 23
0.0
 14
10.0
 24
10.0
 15
10.0
 25
10.0
 16
0.0
 26
0.0
 36
1.0
 17
0.0
 27
0.0
 37
0.0
 40
297.0
 41
1.9729729729
 42
50.0
 43
0.0
 44
0.0
 50
0.0
 51
0.0
 71
     0
 72
   100
 73
     1
 74
     3
 75
     0
 76
     0
 77
     0
 78
     0
281
     0
 65
     1
110
0.0
120
0.0
130
0.0
111
1.0
121
0.0
131
0.0
112
0.0
122
1.0
132
0.0
 79
     0
146
0.0
  0
ENDTAB
  0
TABLE
  2
LTYPE
  5
5
330
0
100
AcDbSymbolTable
 70
     2
  0
LTYPE
  5
14
330
5
100
AcDbSymbolTableRecord
100
AcDbLinetypeTableRecord
  2
ByBlock
 70
     0
  3

 72
    65
 73
     0
 40
0.0
  0
LTYPE
  5
15
330
5
100
AcDbSymbolTableRecord
100
AcDbLinetypeTableRecord
  2
ByLayer
 70
     0
  3

 72
    65
 73
     0
 40
0.0
  0
LTYPE
  5
16
330
5
100
AcDbSymbolTableRecord
100
AcDbLinetypeTableRecord
  2
Continuous
 70
     0
  3
Solid line
 72
    65
 73
     0
 40
0.0
  0
LTYPE
  5
60
330
5
100
AcDbSymbolTableRecord
100
AcDbLinetypeTableRecord
  2
CENTER2
 70
     0
  3
Center (.5x) ___ _ ___ _ ___ _ ___ _ ___ _ ___
 72
    65
 73
     4
 40
28.575
 49
19.05
 74
     4
 75
     0
340
0
 46
0.0
 50
0.0
 44
0.0
 45
0.0
 49
-3.175
 74
     4
 75
     0
340
0
 46
0.0
 50
0.0
 44
0.0
 45
0.0
 49
3.175
 74
     4
 75
     0
340
0
 46
0.0
 50
0.0
 44
0.0
 45
0.0
 49
-3.175
 74
     4
 75
     0
340
0
 46
0.0
 50
0.0
 44
0.0
 45
0.0
  0
ENDTAB
  0
TABLE
  2
LAYER
  5
2
330
0
100
AcDbSymbolTable
 70
    13
  0
LAYER
  5
10
330
2
100
AcDbSymbolTableRecord
100
AcDbLayerTableRecord
  2
0
 70
     0
 62
     7
  6
Continuous
370
    -3
390
F
  0
LAYER
  5
5D
330
2
100
AcDbSymbolTableRecord
100
AcDbLayerTableRecord
  2
Default
 70
     0
 62
     7
  6
Continuous
370
    -3
390
F
  0
LAYER
  5
78
330
2
100
AcDbSymbolTableRecord
100
AcDbLayerTableRecord
  2
$DDT_AUDIT_GENERATED_(78)
 70
     0
 62
     7
  6
Continuous
370
    -3
390
F
  0
LAYER
  5
8A
330
2
100
AcDbSymbolTableRecord
100
AcDbLayerTableRecord
  2
$DDT_AUDIT_GENERATED_(8A)
 70
     0
 62
     7
  6
Continuous
370
    -3
390
F
  0
LAYER
  5
AF
330
2
100
AcDbSymbolTableRecord
100
AcDbLayerTableRecord
  2
$DDT_AUDIT_GENERATED_(AF)
 70
     0
 62
     7
  6
Continuous
370
    -3
390
F
  0
LAYER
  5
BB
330
2
100
AcDbSymbolTableRecord
100
AcDbLayerTableRecord
  2
$DDT_AUDIT_GENERATED_(BB)
 70
     0
 62
     7
  6
Continuous
370
    -3
390
F
  0
LAYER
  5
16A
330
2
100
AcDbSymbolTableRecord
100
AcDbLayerTableRecord
  2
$DDT_AUDIT_GENERATED_(16A)
 70
     0
 62
     7
  6
Continuous
370
    -3
390
F
  0
LAYER
  5
16D
330
2
100
AcDbSymbolTableRecord
100
AcDbLayerTableRecord
  2
$DDT_AUDIT_GENERATED_(16D)
 70
     0
 62
     7
  6
Continuous
370
    -3
390
F
  0
LAYER
  5
170
330
2
100
AcDbSymbolTableRecord
100
AcDbLayerTableRecord
  2
$DDT_AUDIT_GENERATED_(170)
 70
     0
 62
     7
  6
Continuous
370
    -3
390
F
  0
LAYER
  5
173
330
2
100
AcDbSymbolTableRecord
100
AcDbLayerTableRecord
  2
$DDT_AUDIT_GENERATED_(173)
 70
     0
 62
     7
  6
Continuous
370
    -3
390
F
  0
LAYER
  5
1A7
330
2
100
AcDbSymbolTableRecord
100
AcDbLayerTableRecord
  2
$DDT_AUDIT_GENERATED_(1A7)
 70
     0
 62
     7
  6
Continuous
370
    -3
390
F
  0
LAYER
  5
1CF
330
2
100
AcDbSymbolTableRecord
100
AcDbLayerTableRecord
  2
$DDT_AUDIT_GENERATED_(1CF)
 70
     0
 62
     7
  6
Continuous
370
    -3
390
F
  0
LAYER
  5
1D3
330
2
100
AcDbSymbolTableRecord
100
AcDbLayerTableRecord
  2
$DDT_AUDIT_GENERATED_(1D3)
 70
     0
 62
     7
  6
Continuous
370
    -3
390
F
  0
ENDTAB
  0
TABLE
  2
STYLE
  5
3
330
0
100
AcDbSymbolTable
 70
     2
  0
STYLE
  5
11
330
3
100
AcDbSymbolTableRecord
100
AcDbTextStyleTableRecord
  2
Standard
 70
     0
 40
0.0
 41
1.0
 50
0.0
 71
     0
 42
2.5
  3
txt
  4

  0
STYLE
  5
217
330
3
100
AcDbSymbolTableRecord
100
AcDbTextStyleTableRecord
  2
SEACAD_seiso_ttf
 70
     0
 40
0.0
 41
1.0
 50
0.0
 71
     0
 42
0.2
  3
seiso.ttf
  4

  0
ENDTAB
  0
TABLE
  2
VIEW
  5
6
330
0
100
AcDbSymbolTable
 70
     0
  0
ENDTAB
  0
TABLE
  2
UCS
  5
7
330
0
100
AcDbSymbolTable
 70
     0
  0
ENDTAB
  0
TABLE
  2
APPID
  5
9
330
0
100
AcDbSymbolTable
 70
     1
  0
APPID
  5
12
330
9
100
AcDbSymbolTableRecord
100
AcDbRegAppTableRecord
  2
ACAD
 70
     0
  0
ENDTAB
  0
TABLE
  2
DIMSTYLE
  5
A
330
0
100
AcDbSymbolTable
 70
     1
100
AcDbDimStyleTable
  0
DIMSTYLE
105
27
330
A
100
AcDbSymbolTableRecord
100
AcDbDimStyleTableRecord
  2
ISO-25
 70
     0
 41
2.5
 42
0.625
 43
3.75
 44
1.25
 73
     0
 74
     0
 77
     1
 78
     8
140
2.5
141
2.5
143
0.0393700787
147
0.625
171
     3
172
     1
271
     2
272
     2
274
     3
278
    44
283
     0
284
     8
340
11
  0
ENDTAB
  0
TABLE
  2
BLOCK_RECORD
  5
1
330
0
100
AcDbSymbolTable
 70
     7
  0
BLOCK_RECORD
  5
1F
330
1
100
AcDbSymbolTableRecord
100
AcDbBlockTableRecord
  2
*Model_Space
340
22
  0
BLOCK_RECORD
  5
1B
330
1
100
AcDbSymbolTableRecord
100
AcDbBlockTableRecord
  2
*Paper_Space
340
1E
  0
BLOCK_RECORD
  5
5E
330
1
100
AcDbSymbolTableRecord
100
AcDbBlockTableRecord
  2
SEANNOT_GROUP
340
0
102
{BLKREFS
331
5F
102
}
  0
BLOCK_RECORD
  5
66
330
1
100
AcDbSymbolTableRecord
100
AcDbBlockTableRecord
  2
SEANNOT_GROUP1
340
0
102
{BLKREFS
331
67
102
}
  0
BLOCK_RECORD
  5
6C
330
1
100
AcDbSymbolTableRecord
100
AcDbBlockTableRecord
  2
SEANNOT_GROUP2
340
0
102
{BLKREFS
331
6D
102
}
  0
BLOCK_RECORD
  5
76
330
1
100
AcDbSymbolTableRecord
100
AcDbBlockTableRecord
  2
SE
340
0
102
{BLKREFS
331
77
102
}
  0
BLOCK_RECORD
  5
183
330
1
100
AcDbSymbolTableRecord
100
AcDbBlockTableRecord
  2
SE1
340
0
102
{BLKREFS
331
184
102
}
  0
BLOCK_RECORD
  5
1F5
330
1
100
AcDbSymbolTableRecord
100
AcDbBlockTableRecord
  2
SE2
340
0
102
{BLKREFS
331
1F6
102
}
  0
ENDTAB
  0
ENDSEC
  0
SECTION
  2
BLOCKS
  0
BLOCK
  5
20
330
1F
100
AcDbEntity
  8
0
100
AcDbBlockBegin
  2
*Model_Space
 70
     0
 10
0.0
 20
0.0
 30
0.0
  3
*Model_Space
  1

  0
ENDBLK
  5
21
330
1F
100
AcDbEntity
  8
0
100
AcDbBlockEnd
  0
BLOCK
  5
1C
330
1B
100
AcDbEntity
 67
     1
  8
0
100
AcDbBlockBegin
  2
*Paper_Space
 70
     0
 10
0.0
 20
0.0
 30
0.0
  3
*Paper_Space
  1

  0
ENDBLK
  5
1D
330
1B
100
AcDbEntity
 67
     1
  8
0
100
AcDbBlockEnd
  0
BLOCK
  5
63
330
5E
100
AcDbEntity
  8
0
100
AcDbBlockBegin
  2
SEANNOT_GROUP
 70
     0
 10
0.0
 20
0.0
 30
0.0
  3
SEANNOT_GROUP
  1

  0
LINE
  5
61
330
5E
100
AcDbEntity
  8
Default
  6
CENTER2
 62
     7
100
AcDbLine
 10
92.4359162649
 20
449.1837490538
 30
0.0
 11
52.4359171589
 21
449.1837490538
 31
0.0
  0
LINE
  5
62
330
5E
100
AcDbEntity
  8
Default
  6
CENTER2
 62
     7
100
AcDbLine
 10
72.4359167119
 20
469.1837486068
 30
0.0
 11
72.4359167119
 21
429.1837495009
 31
0.0
  0
ENDBLK
  5
64
330
5E
100
AcDbEntity
  8
0
100
AcDbBlockEnd
  0
BLOCK
  5
6A
330
66
100
AcDbEntity
  8
0
100
AcDbBlockBegin
  2
SEANNOT_GROUP1
 70
     0
 10
0.0
 20
0.0
 30
0.0
  3
SEANNOT_GROUP1
  1

  0
LINE
  5
68
330
66
100
AcDbEntity
  8
Default
  6
CENTER2
 62
     7
100
AcDbLine
 10
247.9625161063
 20
449.1837490538
 30
0.0
 11
207.9625170003
 21
449.1837490538
 31
0.0
  0
LINE
  5
69
330
66
100
AcDbEntity
  8
Default
  6
CENTER2
 62
     7
100
AcDbLine
 10
227.9625165533
 20
469.1837486068
 30
0.0
 11
227.9625165533
 21
429.1837495009
 31
0.0
  0
ENDBLK
  5
6B
330
66
100
AcDbEntity
  8
0
100
AcDbBlockEnd
  0
BLOCK
  5
74
330
6C
100
AcDbEntity
  8
0
100
AcDbBlockBegin
  2
SEANNOT_GROUP2
 70
     0
 10
0.0
 20
0.0
 30
0.0
  3
SEANNOT_GROUP2
  1

  0
LINE
  5
6E
330
6C
100
AcDbEntity
  8
Default
  6
CENTER2
 62
     7
100
AcDbLine
 10
92.435920387
 20
299.8558702986
 30
0.0
 11
52.4359212811
 21
299.8558702986
 31
0.0
  0
LINE
  5
6F
330
6C
100
AcDbEntity
  8
Default
  6
CENTER2
 62
     7
100
AcDbLine
 10
72.4359208341
 20
319.8558698516
 30
0.0
 11
72.4359208341
 21
279.8558707456
 31
0.0
  0
LINE
  5
70
330
6C
100
AcDbEntity
  8
Default
  6
CENTER2
 62
     7
100
AcDbLine
 10
97.4359202753
 20
299.8558702986
 30
0.0
 11
101.9373708934
 21
299.8558702986
 31
0.0
  0
LINE
  5
71
330
6C
100
AcDbEntity
  8
Default
  6
CENTER2
 62
     7
100
AcDbLine
 10
72.4359208341
 20
324.8558697398
 30
0.0
 11
72.4359208341
 21
329.3573203579
 31
0.0
  0
LINE
  5
72
330
6C
100
AcDbEntity
  8
Default
  6
CENTER2
 62
     7
100
AcDbLine
 10
47.4359213929
 20
299.8558702986
 30
0.0
 11
42.9344707748
 21
299.8558702986
 31
0.0
  0
LINE
  5
73
330
6C
100
AcDbEntity
  8
Default
  6
CENTER2
 62
     7
100
AcDbLine
 10
72.4359208341
 20
274.8558708574
 30
0.0
 11
72.4359208341
 21
270.3544202393
 31
0.0
  0
ENDBLK
  5
75
330
6C
100
AcDbEntity
  8
0
100
AcDbBlockEnd
  0
BLOCK
  5
181
330
76
100
AcDbEntity
  8
0
100
AcDbBlockBegin
  2
SE
 70
     0
 10
0.0
 20
0.0
 30
0.0
  3
SE
  1

  0
LINE
  5
79
330
76
100
AcDbEntity
  8
$DDT_AUDIT_GENERATED_(78)
  6
Continuous
 62
     7
100
AcDbLine
 10
47.9359167119
 20
577.1837490538
 30
0.0
 11
96.9359167119
 21
577.1837490538
 31
0.0
  0
ARC
  5
7A
330
76
100
AcDbEntity
  8
$DDT_AUDIT_GENERATED_(78)
  6
Continuous
 62
     7
100
AcDbCircle
 10
29.8359173844
 20
724.1547422695
 30
0.0
 40
163.4629210384376
100
AcDbArc
 50
266.8761711076
 51
267.9211234593
  0
ARC
  5
7B
330
76
100
AcDbEntity
  8
$DDT_AUDIT_GENERATED_(78)
  6
Continuous
 62
     7
100
AcDbCircle
 10
29.7215463755
 20
346.0149356205
 30
0.0
 40
214.1454734740519
100
AcDbArc
 50
92.6223175615
 51
92.6223750543
  0
ELLIPSE
  5
7C
330
76
100
AcDbEntity
  8
$DDT_AUDIT_GENERATED_(78)
  6
Continuous
 62
     7
100
AcDbEllipse
 10
31.4175528107
 20
516.0834662296
 30
0.0
 11
10.4999999923874
 21
-0.06479615486934542
 31
0.0
210
0.0
220
0.0
230
1.0
 40
0.0061705924
 41
3.277319893558516
 42
3.918302249837773
  0
LINE
  5
7D
330
76
100
AcDbEntity
  8
$DDT_AUDIT_GENERATED_(78)
  6
Continuous
 62
     7
100
AcDbLine
 10
46.9359167119
 20
515.7978155023
 30
0.0
 11
23.9284230945
 21
516.0842658605
 31
0.0
  0
SPLINE
  5
7E
330
76
100
AcDbEntity
  8
$DDT_AUDIT_GENERATED_(78)
  6
Continuous
 62
     7
100
AcDbSpline
210
0.0
220
0.0
230
1.0
 70
     8
 71
     3
 72
    18
 73
    14
 74
     0
 42
0.0000000002194114
 43
0.0000000001
 40
0.1250000000000002
 40
0.1250000000000002
 40
0.1250000000000002
 40
0.1250000000000002
 40
0.1875000000000003
 40
0.1875000000000003
 40
0.2500000000000003
 40
0.2500000000000003
 40
0.3125000000000004
 40
0.3125000000000004
 40
0.3750000000000004
 40
0.3750000000000004
 40
0.4375000000000006
 40
0.4375000000000006
 40
0.442051156943173
 40
0.442051156943173
 40
0.442051156943173
 40
0.442051156943173
 10
21.17372348103767
 20
560.9411985801423
 30
0.0
 10
21.17388842249181
 20
560.9325282990056
 30
0.0
 10
21.44256490154359
 20
560.9264494780537
 30
0.0
 10
22.46406890180178
 20
560.9263334392518
 30
0.0
 10
23.22760443821536
 20
560.9323479698246
 30
0.0
 10
25.11748112843131
 20
560.9571429674231
 30
0.0
 10
26.25505175135099
 20
560.976032835395
 30
0.0
 10
28.73551562778928
 20
561.0213260976077
 30
0.0
 10
30.06576612119006
 20
561.0474024795136
 30
0.0
 10
32.77158573017665
 20
561.0975980953544
 30
0.0
 10
34.10139083509109
 20
561.1207159466785
 30
0.0
 10
35.43419456191904
 20
561.1385252014209
 30
0.0
 10
35.52409889362096
 20
561.1396970312987
 30
0.0
 10
35.61340972436879
 20
561.1408308557473
 30
0.0
  0
LINE
  5
7F
330
76
100
AcDbEntity
  8
$DDT_AUDIT_GENERATED_(78)
  6
Continuous
 62
     7
100
AcDbLine
 10
97.7359167119
 20
449.1837490538
 30
0.0
 11
47.1359167119
 21
449.1837490538
 31
0.0
  0
LINE
  5
80
330
76
100
AcDbEntity
  8
$DDT_AUDIT_GENERATED_(78)
  6
Continuous
 62
     7
100
AcDbLine
 10
97.9359167119
 20
449.3837490538
 30
0.0
 11
97.9359167119
 21
576.1837490538
 31
0.0
  0
LINE
  5
81
330
76
100
AcDbEntity
  8
$DDT_AUDIT_GENERATED_(78)
  6
Continuous
 62
     7
100
AcDbLine
 10
46.9359167119
 20
576.1837490538
 30
0.0
 11
46.9359167119
 21
449.3837490538
 31
0.0
  0
LINE
  5
82
330
76
100
AcDbEntity
  8
$DDT_AUDIT_GENERATED_(78)
  6
Continuous
 62
     7
100
AcDbLine
 10
19.9237234031
 20
559.9365525374
 30
0.0
 11
19.9237234031
 21
517.1482218403
 31
0.0
  0
SPLINE
  5
83
330
76
100
AcDbEntity
  8
$DDT_AUDIT_GENERATED_(78)
  6
Continuous
 62
     7
100
AcDbSpline
210
0.0
220
0.0
230
1.0
 70
     8
 71
     3
 72
    11
 73
     7
 74
     0
 42
0.0000000006492347
 43
0.0000000001
 40
0.2638901571045995
 40
0.2638901571045995
 40
0.2638901571045995
 40
0.2638901571045995
 40
0.439251556975653
 40
0.6892235953562694
 40
0.9265803733334615
 40
1.0
 40
1.0
 40
1.0
 40
1.0
 10
46.93621315395809
 20
561.2830629113888
 30
0.0
 10
46.0400338802699
 20
561.2718099576483
 30
0.0
 10
43.82073492086614
 20
561.2439118343557
 30
0.0
 10
40.47316895142125
 20
561.2018372547893
 30
0.0
 10
37.51112294228022
 20
561.1646224263516
 30
0.0
 10
36.01339742318304
 20
561.1458584650726
 30
0.0
 10
35.59899089986711
 20
561.1406666962728
 30
0.0
  0
ARC
  5
84
330
76
100
AcDbEntity
  8
$DDT_AUDIT_GENERATED_(78)
  6
Continuous
 62
     7
100
AcDbCircle
 10
96.9359167119
 20
576.1837490538
 30
0.0
 40
1.000000000000001
100
AcDbArc
 50
0.0
 51
90.0
  0
ARC
  5
85
330
76
100
AcDbEntity
  8
$DDT_AUDIT_GENERATED_(78)
  6
Continuous
 62
     7
100
AcDbCircle
 10
47.9359167119
 20
576.1837490538
 30
0.0
 40
1.000000000000001
100
AcDbArc
 50
90.0
 51
180.0
  0
ARC
  5
86
330
76
100
AcDbEntity
  8
$DDT_AUDIT_GENERATED_(78)
  6
Continuous
 62
     7
100
AcDbCircle
 10
97.7359167119
 20
449.3837490538
 30
0.0
 40
0.2000000000000028
100
AcDbArc
 50
270.0
 51
0.0
  0
ARC
  5
87
330
76
100
AcDbEntity
  8
$DDT_AUDIT_GENERATED_(78)
  6
Continuous
 62
     7
100
AcDbCircle
 10
47.1359167119
 20
449.3837490538
 30
0.0
 40
0.2000000000000023
100
AcDbArc
 50
180.0
 51
270.0
  0
ARC
  5
88
330
76
100
AcDbEntity
  8
$DDT_AUDIT_GENERATED_(78)
  6
Continuous
 62
     7
100
AcDbCircle
 10
20.9300135181
 20
559.9493706494
 30
0.0
 40
0.9899617784500918
100
AcDbArc
 50
92.4268540623
 51
180.7795094391
  0
ARC
  5
89
330
76
100
AcDbEntity
  8
$DDT_AUDIT_GENERATED_(78)
  6
Continuous
 62
     7
100
AcDbCircle
 10
20.9317813957
 20
517.1385298487
 30
0.0
 40
0.9990414293057013
100
AcDbArc
 50
179.4258157715
 51
272.1431059444
  0
SPLINE
  5
8B
330
76
100
AcDbEntity
  8
$DDT_AUDIT_GENERATED_(8A)
  6
Continuous
 62
     7
100
AcDbSpline
210
0.0
220
0.0
230
1.0
 70
     8
 71
     3
 72
    12
 73
     8
 74
     0
 42
0.0000000007916316
 43
0.0000000001
 40
0.0
 40
0.0
 40
0.0
 40
0.0
 40
0.2500000000000003
 40
0.2500000000000003
 40
0.3125000000000003
 40
0.3125000000000003
 40
0.325692607913584
 40
0.325692607913584
 40
0.325692607913584
 40
0.325692607913584
 10
56.30391972137097
 20
613.9479419688962
 30
0.0
 10
56.31782801415496
 20
615.5047138863958
 30
0.0
 10
56.35763207274104
 20
616.7542678072762
 30
0.0
 10
56.31009349142828
 20
617.7237574854091
 30
0.0
 10
56.28953732376435
 20
617.889603108317
 30
0.0
 10
56.27107227726923
 20
618.0218286008308
 30
0.0
 10
56.26689528106289
 20
618.0406122672837
 30
0.0
 10
56.2660936698888
 20
618.0572452749567
 30
0.0
  0
SPLINE
  5
8C
330
76
100
AcDbEntity
  8
$DDT_AUDIT_GENERATED_(8A)
  6
Continuous
 62
     7
100
AcDbSpline
210
0.0
220
0.0
230
1.0
 70
     8
 71
     3
 72
     8
 73
     4
 74
     0
 42
0.0000000027843086
 43
0.0000000001
 40
0.326345824755294
 40
0.326345824755294
 40
0.326345824755294
 40
0.326345824755294
 40
0.3329885526977897
 40
0.3329885526977897
 40
0.3329885526977897
 40
0.3329885526977897
 10
56.26599994892683
 20
618.0597004063297
 30
0.0
 10
56.26576997720839
 20
618.067970810386
 30
0.0
 10
56.26645017829687
 20
618.0757224614747
 30
0.0
 10
56.26859383055599
 20
618.0832249098731
 30
0.0
  0
SPLINE
  5
8D
330
76
100
AcDbEntity
  8
$DDT_AUDIT_GENERATED_(8A)
  6
Continuous
 62
     7
100
AcDbSpline
210
0.0
220
0.0
230
1.0
 70
     8
 71
     3
 72
    28
 73
    24
 74
     0
 42
0.0000000001024016
 43
0.0000000001
 40
0.3329885526977897
 40
0.3329885526977897
 40
0.3329885526977897
 40
0.3329885526977897
 40
0.3437500000000002
 40
0.3437500000000002
 40
0.375
 40
0.375
 40
0.4375000000000001
 40
0.4375000000000001
 40
0.4687500000000001
 40
0.4687500000000001
 40
0.5000000000000001
 40
0.5000000000000001
 40
0.5312500000000001
 40
0.5312500000000001
 40
0.5625000000000002
 40
0.5625000000000002
 40
0.5937500000000002
 40
0.5937500000000002
 40
0.6250000000000002
 40
0.6250000000000002
 40
0.6562500000000003
 40
0.6562500000000003
 40
0.6653780814299848
 40
0.6653780814299848
 40
0.6653780814299848
 40
0.6653780814299848
 10
56.26859383055599
 20
618.0832249098731
 30
0.0
 10
56.2720666208043
 20
618.0953791338268
 30
0.0
 10
56.27938025507827
 20
618.1068793225222
 30
0.0
 10
56.3321096571858
 20
618.1536955909905
 30
0.0
 10
56.42624782274325
 20
618.2193253799835
 30
0.0
 10
57.71965040019717
 20
618.3797467069244
 30
0.0
 10
59.91597057877517
 20
618.371503195758
 30
0.0
 10
64.14418846479444
 20
618.3577331685192
 30
0.0
 10
65.71049879964433
 20
618.3534377867209
 30
0.0
 10
69.0495101326382
 20
618.3568504494501
 30
0.0
 10
70.78528942780932
 20
618.3634921537445
 30
0.0
 10
74.33862966894917
 20
618.3629545323031
 30
0.0
 10
76.07342066582223
 20
618.3561757673174
 30
0.0
 10
79.4105987428255
 20
618.3536471342233
 30
0.0
 10
80.95469842743022
 20
618.358559178633
 30
0.0
 10
83.75290834563701
 20
618.3675240363011
 30
0.0
 10
84.96231007670544
 20
618.3702377853612
 30
0.0
 10
86.95514653466117
 20
618.3475414136417
 30
0.0
 10
87.66963345115897
 20
618.320320230321
 30
0.0
 10
88.47455723533399
 20
618.2101451841676
 30
0.0
 10
88.55055171832323
 20
618.1478866808194
 30
0.0
 10
88.59351692084842
 20
618.1045347436103
 30
0.0
 10
88.59932659897878
 20
618.0947777239904
 30
0.0
 10
88.60248672823026
 20
618.0844876947308
 30
0.0
  0
SPLINE
  5
8E
330
76
100
AcDbEntity
  8
$DDT_AUDIT_GENERATED_(8A)
  6
Continuous
 62
     7
100
AcDbSpline
210
0.0
220
0.0
230
1.0
 70
     8
 71
     3
 72
     8
 73
     4
 74
     0
 42
0.0000000027712251
 43
0.0000000001
 40
0.6653780814299848
 40
0.6653780814299848
 40
0.6653780814299848
 40
0.6653780814299848
 40
0.6722499315706949
 40
0.6722499315706949
 40
0.6722499315706949
 40
0.6722499315706949
 10
88.60248672823026
 20
618.0844876947308
 30
0.0
 10
88.60486575330887
 20
618.0767411009302
 30
0.0
 10
88.60574315755652
 20
618.0686924261283
 30
0.0
 10
88.60565385073139
 20
618.0600957615426
 30
0.0
  0
SPLINE
  5
8F
330
76
100
AcDbEntity
  8
$DDT_AUDIT_GENERATED_(8A)
  6
Continuous
 62
     7
100
AcDbSpline
210
0.0
220
0.0
230
1.0
 70
     8
 71
     3
 72
    10
 73
     6
 74
     0
 42
0.0000000007715749
 43
0.0000000001
 40
0.6877547477263376
 40
0.6877547477263376
 40
0.6877547477263376
 40
0.6877547477263376
 40
0.7500000000000003
 40
0.7500000000000003
 40
1.0
 40
1.0
 40
1.0
 40
1.0
 10
88.59642834396337
 20
617.9907144165389
 30
0.0
 10
88.58058585118981
 20
617.8793992399976
 30
0.0
 10
88.56100883393673
 20
617.7136877828663
 30
0.0
 10
88.5147314592582
 20
616.7439372293437
 30
0.0
 10
88.55406994691938
 20
615.4983977742327
 30
0.0
 10
88.5679218065227
 20
613.9479190712433
 30
0.0
  0
ELLIPSE
  5
90
330
76
100
AcDbEntity
  8
$DDT_AUDIT_GENERATED_(8A)
  6
Continuous
 62
     7
100
AcDbEllipse
 10
57.3039192363
 20
613.947821929
 30
0.0
 11
-0.9999600934401266
 21
0.008933729747861996
 31
0.0
210
0.0
220
0.0
230
0.9999999999999999
 40
0.9939041733
 41
0.0088678627518441
 42
1.442732196941888
  0
ELLIPSE
  5
91
330
76
100
AcDbEntity
  8
$DDT_AUDIT_GENERATED_(8A)
  6
Continuous
 62
     7
100
AcDbEllipse
 10
87.5679222916
 20
613.9477990329
 30
0.0
 11
0.9999600946458409
 21
0.008933594789345412
 31
0.0
210
0.0
220
0.0
230
0.9999999999999999
 40
0.9939041468
 41
4.840452799456934
 42
6.274317578343393
  0
ARC
  5
92
330
76
100
AcDbEntity
  8
$DDT_AUDIT_GENERATED_(8A)
  6
Continuous
 62
     7
100
AcDbCircle
 10
72.4379023454
 20
3174.4475001872
 30
0.0
 40
2561.519891607576
100
AcDbArc
 50
269.659701595
 51
270.3402098202
  0
SPLINE
  5
93
330
76
100
AcDbEntity
  8
$DDT_AUDIT_GENERATED_(8A)
  6
Continuous
 62
     7
100
AcDbSpline
210
0.0
220
0.0
230
1.0
 70
     8
 71
     3
 72
    32
 73
    28
 74
     0
 42
0.000000000092175
 43
0.0000000001
 40
0.3561379814234469
 40
0.3561379814234469
 40
0.3561379814234469
 40
0.3561379814234469
 40
0.3749999999999963
 40
0.3749999999999963
 40
0.3906249999999962
 40
0.3906249999999962
 40
0.4062499999999962
 40
0.4062499999999962
 40
0.4374999999999961
 40
0.4374999999999961
 40
0.4687499999999961
 40
0.4687499999999961
 40
0.4843749999999961
 40
0.4843749999999961
 40
0.499999999999996
 40
0.499999999999996
 40
0.5624999999999959
 40
0.5624999999999959
 40
0.5781249999999959
 40
0.5781249999999959
 40
0.593749999999996
 40
0.593749999999996
 40
0.6093749999999961
 40
0.6093749999999961
 40
0.6249999999999961
 40
0.6249999999999961
 40
0.643615478106329
 40
0.643615478106329
 40
0.643615478106329
 40
0.643615478106329
 10
56.86276764800841
 20
621.2559864944465
 30
0.0
 10
56.92890865318539
 20
621.2673506769253
 30
0.0
 10
57.05074635644846
 20
621.2750643975777
 30
0.0
 10
57.48750752828266
 20
621.2822819431963
 30
0.0
 10
57.7639160252848
 20
621.2830467784573
 30
0.0
 10
58.47772215128882
 20
621.2803548817046
 30
0.0
 10
58.91727640981505
 20
621.2768412881525
 30
0.0
 10
60.40111659789429
 20
621.2619291770982
 30
0.0
 10
61.64186676177956
 20
621.245878168776
 30
0.0
 10
64.42598337753907
 20
621.2128735937823
 30
0.0
 10
65.99663233076996
 20
621.1957383028932
 30
0.0
 10
68.4685821264598
 20
621.1776605137629
 30
0.0
 10
69.31058846578712
 20
621.1728804809763
 30
0.0
 10
71.03285805965763
 20
621.1666549932717
 30
0.0
 10
71.92136369390785
 20
621.165245919751
 30
0.0
 10
76.28607619694205
 20
621.1677772178772
 30
0.0
 10
79.71992477399837
 20
621.2037430527522
 30
0.0
 10
83.08322539687502
 20
621.2443553951092
 30
0.0
 10
83.7098255840804
 20
621.252112913899
 30
0.0
 10
84.86669747851342
 20
621.2657150406598
 30
0.0
 10
85.39909783094696
 20
621.2715684279575
 30
0.0
 10
86.3157582203565
 20
621.2797357577559
 30
0.0
 10
86.70572719089823
 20
621.2821302631792
 30
0.0
 10
87.3343882904026
 20
621.2825099594781
 30
0.0
 10
87.57177001106683
 20
621.2803962419266
 30
0.0
 10
87.91481659672138
 20
621.2701982461595
 30
0.0
 10
88.00195315692908
 20
621.2611446466553
 30
0.0
 10
88.04612967844128
 20
621.2486401868078
 30
0.0
  0
SPLINE
  5
94
330
76
100
AcDbEntity
  8
$DDT_AUDIT_GENERATED_(8A)
  6
Continuous
 62
     7
100
AcDbSpline
210
0.0
220
0.0
230
1.0
 70
     8
 71
     3
 72
     8
 73
     4
 74
     0
 42
0.0000000005283264
 43
0.0000000001
 40
0.0
 40
0.0
 40
0.0
 40
0.0
 40
0.0437575862892217
 40
0.0437575862892217
 40
0.0437575862892217
 40
0.0437575862892217
 10
88.56758883057604
 20
616.7063510209905
 30
0.0
 10
88.56513947730622
 20
616.9956952442059
 30
0.0
 10
88.56190911333412
 20
617.2720139476595
 30
0.0
 10
88.55845287027672
 20
617.5345291685687
 30
0.0
  0
SPLINE
  5
95
330
76
100
AcDbEntity
  8
$DDT_AUDIT_GENERATED_(8A)
  6
Continuous
 62
     7
100
AcDbSpline
210
0.0
220
0.0
230
1.0
 70
     8
 71
     3
 72
     8
 73
     4
 74
     0
 42
0.0000000028483596
 43
0.0000000001
 40
0.3258719997096357
 40
0.3258719997096357
 40
0.3258719997096357
 40
0.3258719997096357
 40
0.3274930493109334
 40
0.3274930493109334
 40
0.3274930493109334
 40
0.3274930493109334
 10
88.60582815688461
 20
620.6810062349332
 30
0.0
 10
88.60588656867542
 20
620.6829274470189
 30
0.0
 10
88.60589110249953
 20
620.6848238507316
 30
0.0
 10
88.60583351227962
 20
620.6866956249804
 30
0.0
  0
SPLINE
  5
96
330
76
100
AcDbEntity
  8
$DDT_AUDIT_GENERATED_(8A)
  6
Continuous
 62
     7
100
AcDbSpline
210
0.0
220
0.0
230
1.0
 70
     8
 71
     3
 72
     8
 73
     4
 74
     0
 42
0.0000000028548733
 43
0.0000000001
 40
0.6717239783749364
 40
0.6717239783749364
 40
0.6717239783749364
 40
0.6717239783749364
 40
0.6734507337374155
 40
0.6734507337374155
 40
0.6734507337374155
 40
0.6734507337374155
 10
56.26609561576443
 20
620.6867665824996
 30
0.0
 10
56.26601900155404
 20
620.684779019925
 30
0.0
 10
56.26601232999794
 20
620.682763672833
 30
0.0
 10
56.26606623888715
 20
620.6807203323915
 30
0.0
  0
SPLINE
  5
97
330
76
100
AcDbEntity
  8
$DDT_AUDIT_GENERATED_(8A)
  6
Continuous
 62
     7
100
AcDbSpline
210
0.0
220
0.0
230
1.0
 70
     8
 71
     3
 72
     8
 73
     4
 74
     0
 42
0.0000000005329494
 43
0.0000000001
 40
0.9507582933668188
 40
0.9507582933668188
 40
0.9507582933668188
 40
0.9507582933668188
 40
1.0
 40
1.0
 40
1.0
 40
1.0
 10
56.31466163509074
 20
617.6302374414632
 30
0.0
 10
56.31073249909706
 20
617.339389954028
 30
0.0
 10
56.30700146296399
 20
617.0310577831963
 30
0.0
 10
56.30425270038403
 20
616.70635098474
 30
0.0
  0
ELLIPSE
  5
98
330
76
100
AcDbEntity
  8
$DDT_AUDIT_GENERATED_(8A)
  6
Continuous
 62
     7
100
AcDbEllipse
 10
54.3403792862
 20
615.9734567745
 30
0.0
 11
0.06347513983595912
 21
-0.4959545408833588
 31
0.0
210
0.0
220
0.0
230
1.0
 40
0.7072768997
 41
3.118105637250795
 42
3.163777753445807
  0
ELLIPSE
  5
99
330
76
100
AcDbEntity
  8
$DDT_AUDIT_GENERATED_(8A)
  6
Continuous
 62
     7
100
AcDbEllipse
 10
90.5314622737
 20
615.9734567884
 30
0.0
 11
-0.06347513913605718
 21
-0.495954540972926
 31
0.0
210
0.0
220
0.0
230
1.0
 40
0.7072768962
 41
3.121140185662669
 42
3.163967745175987
  0
SPLINE
  5
9A
330
76
100
AcDbEntity
  8
$DDT_AUDIT_GENERATED_(8A)
  6
Continuous
 62
     7
100
AcDbSpline
210
0.0
220
0.0
230
1.0
 70
     8
 71
     3
 72
     8
 73
     4
 74
     0
 42
0.0000000002101932
 43
0.0000000001
 40
0.0
 40
0.0
 40
0.0
 40
0.0
 40
0.0059188190597831
 40
0.0059188190597831
 40
0.0059188190597831
 40
0.0059188190597831
 10
98.43170073261405
 20
580.9913678171159
 30
0.0
 10
98.43451092867292
 20
581.08520026894
 30
0.0
 10
98.43590023042795
 20
581.1790521701729
 30
0.0
 10
98.43587998535375
 20
581.2729049743883
 30
0.0
  0
SPLINE
  5
9B
330
76
100
AcDbEntity
  8
$DDT_AUDIT_GENERATED_(8A)
  6
Continuous
 62
     7
100
AcDbSpline
210
0.0
220
0.0
230
1.0
 70
     8
 71
     3
 72
     8
 73
     4
 74
     0
 42
0.0000000002102469
 43
0.0000000001
 40
0.9940817696805625
 40
0.9940817696805625
 40
0.9940817696805625
 40
0.9940817696805625
 40
1.0
 40
1.0
 40
1.0
 40
1.0
 10
46.43591009018495
 20
581.272804723047
 30
0.0
 10
46.43592156452671
 20
581.1790621104763
 30
0.0
 10
46.43732918105373
 20
581.0852499982079
 30
0.0
 10
46.44014086628993
 20
580.9913678176083
 30
0.0
  0
LINE
  5
9C
330
76
100
AcDbEntity
  8
$DDT_AUDIT_GENERATED_(8A)
  6
Continuous
 62
     7
100
AcDbLine
 10
98.0636253198
 20
580.281097677
 30
0.0
 11
46.8082162785
 21
580.281097677
 31
0.0
  0
SPLINE
  5
9D
330
76
100
AcDbEntity
  8
$DDT_AUDIT_GENERATED_(8A)
  6
Continuous
 62
     7
100
AcDbSpline
210
0.0
220
0.0
230
1.0
 70
     8
 71
     3
 72
    22
 73
    18
 74
     0
 42
0.0000000004527172
 43
0.0000000001
 40
0.0290793428647286
 40
0.0290793428647286
 40
0.0290793428647286
 40
0.0290793428647286
 40
0.125
 40
0.125
 40
0.25
 40
0.25
 40
0.375
 40
0.375
 40
0.5
 40
0.5
 40
0.625
 40
0.625
 40
0.75
 40
0.75
 40
0.875
 40
0.875
 40
1.0
 40
1.0
 40
1.0
 40
1.0
 10
71.80995193717118
 20
595.4021555861144
 30
0.0
 10
71.13402590771537
 20
595.2601841604242
 30
0.0
 10
70.51076633135958
 20
594.8949536492494
 30
0.0
 10
69.46889099939399
 20
593.705108972044
 30
0.0
 10
69.169042345312
 20
592.793413832277
 30
0.0
 10
69.20432371911501
 20
590.9870156047436
 30
0.0
 10
69.51782953731131
 20
590.1062860192336
 30
0.0
 10
70.67018181571808
 20
588.719960426708
 30
0.0
 10
71.5202608500818
 20
588.2533466232398
 30
0.0
 10
73.32497851843938
 20
588.244639157109
 30
0.0
 10
74.18742270847711
 20
588.7085305065322
 30
0.0
 10
75.34954446598344
 20
590.0953233264386
 30
0.0
 10
75.6663560943798
 20
590.9850313478225
 30
0.0
 10
75.70374452231158
 20
592.7854626614575
 30
0.0
 10
75.40902401663794
 20
593.6953825689857
 30
0.0
 10
74.22667906610293
 20
595.0511873921796
 30
0.0
 10
73.34421484699625
 20
595.4677152797996
 30
0.0
 10
72.43592100083288
 20
595.4677166032244
 30
0.0
  0
LINE
  5
9E
330
76
100
AcDbEntity
  8
$DDT_AUDIT_GENERATED_(8A)
  6
Continuous
 62
     7
100
AcDbLine
 10
87.0565312687
 20
621.282332277
 30
0.0
 11
57.8285816951
 21
621.282332277
 31
0.0
  0
LINE
  5
9F
330
76
100
AcDbEntity
  8
$DDT_AUDIT_GENERATED_(8A)
  6
Continuous
 62
     7
100
AcDbLine
 10
56.2680030181
 20
620.6799777106
 30
0.0
 11
56.268003018
 21
618.0612207156
 31
0.0
  0
LINE
  5
A0
330
76
100
AcDbEntity
  8
$DDT_AUDIT_GENERATED_(8A)
  6
Continuous
 62
     7
100
AcDbLine
 10
88.6038473261
 20
618.0601229122
 30
0.0
 11
88.6038473262
 21
620.6641924777
 31
0.0
  0
SPLINE
  5
A1
330
76
100
AcDbEntity
  8
$DDT_AUDIT_GENERATED_(8A)
  6
Continuous
 62
     7
100
AcDbSpline
210
0.0
220
0.0
230
1.0
 70
     8
 71
     3
 72
    22
 73
    18
 74
     0
 42
0.0000000011390177
 43
0.0000000001
 40
0.0
 40
0.0
 40
0.0
 40
0.0
 40
0.0471294966685286
 40
0.0993987828413761
 40
0.1547944144740492
 40
0.2171942638985285
 40
0.2884915386174073
 40
0.365755114289546
 40
0.4436497518188481
 40
0.5203341697404626
 40
0.5958997755382245
 40
0.6705242937354154
 40
0.7442997576948841
 40
0.817254052762765
 40
0.8893845910456405
 40
0.960633122638187
 40
1.0
 40
1.0
 40
1.0
 40
1.0
 10
98.43089327109644
 20
613.4813497871935
 30
0.0
 10
98.42508421856417
 20
613.5784646205892
 30
0.0
 10
98.41283699229348
 20
613.7499906922119
 30
0.0
 10
98.29922114794465
 20
614.0171629802434
 30
0.0
 10
98.12593500612924
 20
614.262607876846
 30
0.0
 10
97.8801112049021
 20
614.5002022167647
 30
0.0
 10
97.54952281314391
 20
614.7341547272769
 30
0.0
 10
97.12539744300257
 20
614.9639097836227
 30
0.0
 10
96.61485209604042
 20
615.1839222955975
 30
0.0
 10
96.0308601675554
 20
615.3908897573884
 30
0.0
 10
95.37971847944155
 20
615.5852114373268
 30
0.0
 10
94.66336886832872
 20
615.768116727502
 30
0.0
 10
93.88461255148997
 20
615.9400440081886
 30
0.0
 10
93.04409863670047
 20
616.1016870455339
 30
0.0
 10
92.15322339725779
 20
616.2509926548098
 30
0.0
 10
91.32704888281663
 20
616.374082748024
 30
0.0
 10
90.83538974152012
 20
616.4367401131364
 30
0.0
 10
90.62882960197433
 20
616.4629109015045
 30
0.0
  0
SPLINE
  5
A2
330
76
100
AcDbEntity
  8
$DDT_AUDIT_GENERATED_(8A)
  6
Continuous
 62
     7
100
AcDbSpline
210
0.0
220
0.0
230
1.0
 70
     8
 71
     3
 72
    23
 73
    19
 74
     0
 42
0.0000000011382704
 43
0.0000000001
 40
0.0
 40
0.0
 40
0.0
 40
0.0
 40
0.037630104978076
 40
0.1080737936624152
 40
0.1782789717351653
 40
0.2495446620664894
 40
0.321656221983559
 40
0.394586899322635
 40
0.4683178584512714
 40
0.5428623591028319
 40
0.6182982082638763
 40
0.6947969741756425
 40
0.7725398154736972
 40
0.8397512858354641
 40
0.897762293981516
 40
0.9497868208367949
 40
0.9993288882421277
 40
1.0
 40
1.0
 40
1.0
 40
1.0
 10
54.23420970159476
 20
616.4616782982534
 30
0.0
 10
54.03623586993139
 20
616.4366536863031
 30
0.0
 10
53.5543541477405
 20
616.37540185351
 30
0.0
 10
52.74610561717147
 20
616.2551808410672
 30
0.0
 10
51.86965806867678
 20
616.1090373386538
 30
0.0
 10
51.04421035946999
 20
615.9515485134082
 30
0.0
 10
50.27652063839892
 20
615.7839580302862
 30
0.0
 10
49.56858197811653
 20
615.6058697805062
 30
0.0
 10
48.92389114735861
 20
615.4171843569837
 30
0.0
 10
48.34459993431448
 20
615.2171180224836
 30
0.0
 10
47.83215910136732
 20
615.0039044377697
 30
0.0
 10
47.38728644978991
 20
614.7738265899184
 30
0.0
 10
47.0288055710705
 20
614.5318438089828
 30
0.0
 10
46.76079482433141
 20
614.280913161776
 30
0.0
 10
46.57359247165384
 20
614.0232951141506
 30
0.0
 10
46.46881687742045
 20
613.7577491931481
 30
0.0
 10
46.4250979797561
 20
613.5583738734475
 30
0.0
 10
46.43745670148466
 20
613.4706168906686
 30
0.0
 10
46.43764834657165
 20
613.4692577594153
 30
0.0
  0
ARC
  5
A3
330
76
100
AcDbEntity
  8
$DDT_AUDIT_GENERATED_(8A)
  6
Continuous
 62
     7
100
AcDbCircle
 10
52.5933662886
 20
630.6217268678
 30
0.0
 40
14.2502860861127
100
AcDbArc
 50
276.7521373211
 51
279.7339737203
  0
SPLINE
  5
A4
330
76
100
AcDbEntity
  8
$DDT_AUDIT_GENERATED_(8A)
  6
Continuous
 62
     7
100
AcDbSpline
210
0.0
220
0.0
230
1.0
 70
     8
 71
     3
 72
    13
 73
     9
 74
     0
 42
0.0000000044480573
 43
0.0000000001
 40
0.3981817710600799
 40
0.3981817710600799
 40
0.3981817710600799
 40
0.3981817710600799
 40
0.4330349404415499
 40
0.5537696194150172
 40
0.6863821939686566
 40
0.825958337513103
 40
0.9700545575683288
 40
1.0
 40
1.0
 40
1.0
 40
1.0
 10
56.31257931978321
 20
616.9011440292943
 30
0.0
 10
56.30142748559476
 20
616.8960015290255
 30
0.0
 10
56.24710304642481
 20
616.8719521991791
 30
0.0
 10
56.11150487505437
 20
616.8215138116941
 30
0.0
 10
55.85936377202066
 20
616.7479253918937
 30
0.0
 10
55.52355627570442
 20
616.670595253506
 30
0.0
 10
55.22238057754413
 20
616.6106948195942
 30
0.0
 10
55.03950625017772
 20
616.5822949126538
 30
0.0
 10
55.00271667897655
 20
616.5765966002763
 30
0.0
  0
SPLINE
  5
A5
330
76
100
AcDbEntity
  8
$DDT_AUDIT_GENERATED_(8A)
  6
Continuous
 62
     7
100
AcDbSpline
210
0.0
220
0.0
230
1.0
 70
     8
 71
     3
 72
    13
 73
     9
 74
     0
 42
0.0000000040798346
 43
0.0000000001
 40
0.0
 40
0.0
 40
0.0
 40
0.0
 40
0.0347386500447153
 40
0.1772219988413476
 40
0.3182286243565633
 40
0.4564055846257254
 40
0.5744994625465005
 40
0.6160519895071781
 40
0.6160519895071781
 40
0.6160519895071781
 40
0.6160519895071781
 10
90.02260660972536
 20
616.5520640628417
 30
0.0
 10
89.97596195001687
 20
616.5589065026729
 30
0.0
 10
89.77272301518931
 20
616.5888183758686
 30
0.0
 10
89.43664841928515
 20
616.6522398780598
 30
0.0
 10
89.06307426947258
 20
616.7346557815434
 30
0.0
 10
88.78386711743283
 20
616.8135135927005
 30
0.0
 10
88.63153207782022
 20
616.8690091244009
 30
0.0
 10
88.5717980824323
 20
616.895276534471
 30
0.0
 10
88.55787043113715
 20
616.9017155912746
 30
0.0
  0
ARC
  5
A6
330
76
100
AcDbEntity
  8
$DDT_AUDIT_GENERATED_(8A)
  6
Continuous
 62
     7
100
AcDbCircle
 10
92.0673869673
 20
628.9457260369
 30
0.0
 40
12.56120948944555
100
AcDbArc
 50
260.6313973928
 51
263.3031024198
  0
ARC
  5
A7
330
76
100
AcDbEntity
  8
$DDT_AUDIT_GENERATED_(8A)
  6
Continuous
 62
     7
100
AcDbCircle
 10
56.8393416213
 20
620.6801584499
 30
0.0
 40
0.5717957960114427
100
AcDbArc
 50
96.2106263052
 51
170.8869068699
  0
ARC
  5
A8
330
76
100
AcDbEntity
  8
$DDT_AUDIT_GENERATED_(8A)
  6
Continuous
 62
     7
100
AcDbCircle
 10
88.0504815639
 20
620.6930926744
 30
0.0
 40
0.5500101235451531
100
AcDbArc
 50
7.1248335472
 51
78.9445653988
  0
SPLINE
  5
A9
330
76
100
AcDbEntity
  8
$DDT_AUDIT_GENERATED_(8A)
  6
Continuous
 62
     7
100
AcDbSpline
210
0.0
220
0.0
230
1.0
 70
     8
 71
     3
 72
    14
 73
    10
 74
     0
 42
0.0000000118594155
 43
0.0000000001
 40
0.0
 40
0.0
 40
0.0
 40
0.0
 40
0.0018581727220913
 40
0.2892029380083014
 40
0.588823642578438
 40
0.7151540846801963
 40
0.815213848201276
 40
0.9118367852137099
 40
0.9166509121084228
 40
0.9166509121084228
 40
0.9166509121084228
 40
0.9166509121084228
 10
46.44023343252647
 20
580.9826197189556
 30
0.0
 10
46.44024756964983
 20
580.9819408583746
 30
0.0
 10
46.442149061747
 20
580.8907284290586
 30
0.0
 10
46.45246415233319
 20
580.7308655885824
 30
0.0
 10
46.47016875892273
 20
580.5896685981597
 30
0.0
 10
46.50971260225842
 20
580.472919298122
 30
0.0
 10
46.56902129616235
 20
580.3793020953873
 30
0.0
 10
46.64594824207676
 20
580.3206911661684
 30
0.0
 10
46.68863825139878
 20
580.3047704036427
 30
0.0
 10
46.69067390613488
 20
580.3040436873714
 30
0.0
  0
SPLINE
  5
AA
330
76
100
AcDbEntity
  8
$DDT_AUDIT_GENERATED_(8A)
  6
Continuous
 62
     7
100
AcDbSpline
210
0.0
220
0.0
230
1.0
 70
     8
 71
     3
 72
    15
 73
    11
 74
     0
 42
0.0000000114975651
 43
0.0000000001
 40
0.0743774632821248
 40
0.0743774632821248
 40
0.0743774632821248
 40
0.0743774632821248
 40
0.0782011627551173
 40
0.1630639539361741
 40
0.2431283288361155
 40
0.3387807089215878
 40
0.4706244318717446
 40
0.6969547992234775
 40
0.9687333111162961
 40
1.0
 40
1.0
 40
1.0
 40
1.0
 10
98.17202441621158
 20
580.3005402665763
 30
0.0
 10
98.17371440857178
 20
580.3010762130134
 30
0.0
 10
98.21278896827948
 20
580.3139913368432
 30
0.0
 10
98.28225934004989
 20
580.36104733226
 30
0.0
 10
98.34390243013266
 20
580.4399620371296
 30
0.0
 10
98.3791442374318
 20
580.5188329034055
 30
0.0
 10
98.40369578404199
 20
580.6123517188669
 30
0.0
 10
98.42090041260205
 20
580.7501681485833
 30
0.0
 10
98.43025903509967
 20
580.890225754979
 30
0.0
 10
98.43164562833923
 20
580.9935662299571
 30
0.0
 10
98.43180667582877
 20
581.0059741392595
 30
0.0
  0
LINE
  5
AB
330
76
100
AcDbEntity
  8
$DDT_AUDIT_GENERATED_(8A)
  6
Continuous
 62
     7
100
AcDbLine
 10
98.4359207997
 20
581.2728929898
 30
0.0
 11
98.4359208261
 21
613.4765815265
 31
0.0
  0
LINE
  5
AC
330
76
100
AcDbEntity
  8
$DDT_AUDIT_GENERATED_(8A)
  6
Continuous
 62
     7
100
AcDbLine
 10
46.4359208261
 20
613.4769591144
 30
0.0
 11
46.4359207997
 21
581.2728095708
 31
0.0
  0
ARC
  5
AD
330
76
100
AcDbEntity
  8
$DDT_AUDIT_GENERATED_(8A)
  6
Continuous
 62
     7
100
AcDbCircle
 10
72.2883541479
 20
593.5318388317
 30
0.0
 40
1.907267825832841
100
AcDbArc
 50
88.34679181
 51
98.9572474687
  0
LINE
  5
AE
330
76
100
AcDbEntity
  8
$DDT_AUDIT_GENERATED_(8A)
  6
Continuous
 62
     7
100
AcDbLine
 10
71.8112385332
 20
595.3868491734
 30
0.0
 11
71.9913974381
 21
595.415847131
 31
0.0
  0
ELLIPSE
  5
B0
330
76
100
AcDbEntity
  8
$DDT_AUDIT_GENERATED_(AF)
  6
Continuous
 62
     7
100
AcDbEllipse
 10
31.4237234031
 20
662.5167366927
 30
0.0
 11
10.07500000000001
 21
1.665334536937735E-13
 31
0.0
210
0.0
220
0.0
230
1.0
 40
0.1736481777
 41
0.0
 42
4.049339977434116
  0
ELLIPSE
  5
B1
330
76
100
AcDbEntity
  8
$DDT_AUDIT_GENERATED_(AF)
  6
Continuous
 62
     7
100
AcDbEllipse
 10
31.4237234031
 20
662.5167366927
 30
0.0
 11
10.07500000000001
 21
1.665334536937735E-13
 31
0.0
210
0.0
220
0.0
230
1.0
 40
0.1736481777
 41
5.375438019767291
 42
6.283185307179491
  0
ELLIPSE
  5
B2
330
76
100
AcDbEntity
  8
$DDT_AUDIT_GENERATED_(AF)
  6
Continuous
 62
     7
100
AcDbEllipse
 10
31.4237234031
 20
663.5015444457
 30
0.0
 11
-11.575
 21
-1.942890293094024E-13
 31
0.0
210
0.0
220
0.0
230
1.0
 40
0.1736481777
 41
3.141876567334215
 42
6.282988027303149
  0
ELLIPSE
  5
B3
330
76
100
AcDbEntity
  8
$DDT_AUDIT_GENERATED_(AF)
  6
Continuous
 62
     7
100
AcDbEllipse
 10
31.4237234031
 20
679.1107473309
 30
0.0
 11
11.575
 21
1.942890293094024E-13
 31
0.0
210
0.0
220
0.0
230
1.0
 40
0.1736481777
 41
3.127927617704775
 42
3.14159265358981
  0
ELLIPSE
  5
B4
330
76
100
AcDbEntity
  8
$DDT_AUDIT_GENERATED_(AF)
  6
Continuous
 62
     7
100
AcDbEllipse
 10
31.4237234031
 20
679.2584684939
 30
0.0
 11
-11.425
 21
-1.942890293094024E-13
 31
0.0
210
0.0
220
0.0
230
1.0
 40
0.1736481777
 41
3.407774211252032
 42
6.078238551878008
  0
LINE
  5
B5
330
76
100
AcDbEntity
  8
$DDT_AUDIT_GENERATED_(AF)
  6
Continuous
 62
     7
100
AcDbLine
 10
42.9987234031
 20
663.5015444457
 30
0.0
 11
42.9987234031
 21
679.1107473309
 31
0.0
  0
LINE
  5
B6
330
76
100
AcDbEntity
  8
$DDT_AUDIT_GENERATED_(AF)
  6
Continuous
 62
     7
100
AcDbLine
 10
19.8487234031
 20
679.1107473309
 30
0.0
 11
19.8487234031
 21
663.5015444457
 31
0.0
  0
SPLINE
  5
B7
330
76
100
AcDbEntity
  8
$DDT_AUDIT_GENERATED_(AF)
  6
Continuous
 62
     7
100
AcDbSpline
210
0.0
220
0.0
230
1.0
 70
     8
 71
     3
 72
    28
 73
    24
 74
     0
 42
0.0000000007947867
 43
0.0000000001
 40
0.0
 40
0.0
 40
0.0
 40
0.0
 40
0.0132827588694586
 40
0.0451254239143844
 40
0.0767151235176964
 40
0.1098751320636449
 40
0.1468908519614439
 40
0.1908891969140587
 40
0.2455173866047771
 40
0.3092028511320271
 40
0.3708997117105365
 40
0.4297033013657319
 40
0.4868219501147462
 40
0.5429543913443982
 40
0.5984725142638057
 40
0.6535882287037187
 40
0.7084307358577653
 40
0.7630835123941655
 40
0.8176033653265947
 40
0.8720309398532815
 40
0.9263968845615342
 40
0.9807257021413078
 40
1.0
 40
1.0
 40
1.0
 40
1.0
 10
19.85915913276987
 20
663.5029140528173
 30
0.0
 10
19.85605731339541
 20
663.4531593581208
 30
0.0
 10
19.8478791759024
 20
663.3095994245931
 30
0.0
 10
19.91783810716895
 20
663.0492103536171
 30
0.0
 10
20.04882400227888
 20
662.7762712135537
 30
0.0
 10
20.23005280389447
 20
662.539209603255
 30
0.0
 10
20.45546049629391
 20
662.3285245194763
 30
0.0
 10
20.74515819259568
 20
662.1276119252651
 30
0.0
 10
21.12597127423831
 20
661.9289610556452
 30
0.0
 10
21.60663206891564
 20
661.7385452096822
 30
0.0
 10
22.17133681469145
 20
661.5637337314411
 30
0.0
 10
22.78631548819973
 20
661.4098377640789
 30
0.0
 10
23.44689214595967
 20
661.2733711526297
 30
0.0
 10
24.15433310591941
 20
661.1515466522025
 30
0.0
 10
24.90742455859942
 20
661.0432417594317
 30
0.0
 10
25.70311301524356
 20
660.9481432166631
 30
0.0
 10
26.53709269834382
 20
660.8663023544742
 30
0.0
 10
27.4045449251711
 20
660.7979205808737
 30
0.0
 10
28.29903714778372
 20
660.7432625316148
 30
0.0
 10
29.21762025395933
 20
660.702524904499
 30
0.0
 10
30.14254050892289
 20
660.6760750639401
 30
0.0
 10
30.90197420467351
 20
660.6661385557976
 30
0.0
 10
31.30117092529328
 20
660.6653804061742
 30
0.0
 10
31.42372340310372
 20
660.6652149668515
 30
0.0
  0
SPLINE
  5
B8
330
76
100
AcDbEntity
  8
$DDT_AUDIT_GENERATED_(AF)
  6
Continuous
 62
     7
100
AcDbSpline
210
0.0
220
0.0
230
1.0
 70
     8
 71
     3
 72
    28
 73
    24
 74
     0
 42
0.0000000007947086
 43
0.0000000001
 40
0.0
 40
0.0
 40
0.0
 40
0.0
 40
0.0285569732416054
 40
0.0828555852982688
 40
0.1371803225959912
 40
0.1915387126893009
 40
0.2459532742075454
 40
0.3004511583034736
 40
0.3550670762024227
 40
0.4098477305410702
 40
0.4648589408098789
 40
0.5201977406924132
 40
0.576014039938741
 40
0.6325516041447976
 40
0.6902296757809638
 40
0.7498072495500663
 40
0.8126184514654321
 40
0.8600269855076612
 40
0.8983692374566556
 40
0.9322680180079918
 40
0.9638005773397887
 40
0.9943646518551172
 40
1.0
 40
1.0
 40
1.0
 40
1.0
 10
31.42372340310372
 20
660.6652149668515
 30
0.0
 10
31.60530232261126
 20
660.665578180547
 30
0.0
 10
32.05288865295103
 20
660.6668022780533
 30
0.0
 10
32.8637784908176
 20
660.6796197258344
 30
0.0
 10
33.78638414687213
 20
660.7084228885719
 30
0.0
 10
34.70016094037089
 20
660.751474596797
 30
0.0
 10
35.58842625627219
 20
660.8083041635888
 30
0.0
 10
36.44781580346513
 20
660.8786712487471
 30
0.0
 10
37.2718271597824
 20
660.9622249212964
 30
0.0
 10
38.05534711384394
 20
661.0586383736901
 30
0.0
 10
38.79359950608838
 20
661.1676467651448
 30
0.0
 10
39.48265248422592
 20
661.28916954511
 30
0.0
 10
40.11962050575228
 20
661.4235236874198
 30
0.0
 10
40.70317384791961
 20
661.571884578317
 30
0.0
 10
41.23439446032623
 20
661.7372505393881
 30
0.0
 10
41.71818333506621
 20
661.9270332377729
 30
0.0
 10
42.11661399108704
 20
662.1336603275815
 30
0.0
 10
42.43097476396891
 20
662.3586466826428
 30
0.0
 10
42.66305887344186
 20
662.5898655062049
 30
0.0
 10
42.84062594401364
 20
662.846108005968
 30
0.0
 10
42.95454620429816
 20
663.130339251518
 30
0.0
 10
43.00638147546648
 20
663.3672359190421
 30
0.0
 10
42.99495101263707
 20
663.4822969694003
 30
0.0
 10
42.99282369222189
 20
663.5032124452811
 30
0.0
  0
ARC
  5
B9
330
76
100
AcDbEntity
  8
$DDT_AUDIT_GENERATED_(AF)
  6
Continuous
 62
     7
100
AcDbCircle
 10
20.5240034856
 20
679.0676646045
 30
0.0
 40
0.6758100651935831
100
AcDbArc
 50
122.1075290904
 51
173.0650948405
  0
SPLINE
  5
BA
330
76
100
AcDbEntity
  8
$DDT_AUDIT_GENERATED_(AF)
  6
Continuous
 62
     7
100
AcDbSpline
210
0.0
220
0.0
230
1.0
 70
     8
 71
     3
 72
    11
 73
     7
 74
     0
 42
0.0000000119775437
 43
0.0000000001
 40
0.0
 40
0.0
 40
0.0
 40
0.0
 40
0.1678285827149621
 40
0.4388012951250389
 40
0.7260723066948743
 40
1.0
 40
1.0
 40
1.0
 40
1.0
 10
42.98825555767633
 20
679.1206742740455
 30
0.0
 10
42.98871712845891
 20
679.166624345226
 30
0.0
 10
42.98843284967467
 20
679.2681798946394
 30
0.0
 10
42.89813597317588
 20
679.4371592802
 30
0.0
 10
42.74725131527019
 20
679.6069668123592
 30
0.0
 10
42.60686917131942
 20
679.7026421769021
 30
0.0
 10
42.52453915561065
 20
679.7571743217948
 30
0.0
  0
ELLIPSE
  5
BC
330
76
100
AcDbEntity
  8
$DDT_AUDIT_GENERATED_(BB)
  6
Continuous
 62
     7
100
AcDbEllipse
 10
31.4237234031
 20
662.2705347544
 30
0.0
 11
-9.000000000000007
 21
-1.387778780781446E-13
 31
0.0
210
0.0
220
0.0
230
1.0
 40
0.1736481777
 41
0.0
 42
6.283185307179586
  0
ELLIPSE
  5
BD
330
76
100
AcDbEntity
  8
$DDT_AUDIT_GENERATED_(BB)
  6
Continuous
 62
     7
100
AcDbEllipse
 10
31.4237234031
 20
662.2705347544
 30
0.0
 11
-5.249999999999997
 21
-8.326672684688673E-14
 31
0.0
210
0.0
220
0.0
230
1.0
 40
0.1736481777
 41
0.0
 42
6.283185307179586
  0
ELLIPSE
  5
BE
330
76
100
AcDbEntity
  8
$DDT_AUDIT_GENERATED_(BB)
  6
Continuous
 62
     7
100
AcDbEllipse
 10
31.4237234031
 20
662.2705347544
 30
0.0
 11
-6.250000000000005
 21
-1.110223024625157E-13
 31
0.0
210
0.0
220
0.0
230
1.0
 40
0.1736481777
 41
0.0
 42
6.283185307179586
  0
ELLIPSE
  5
BF
330
76
100
AcDbEntity
  8
$DDT_AUDIT_GENERATED_(BB)
  6
Continuous
 62
     7
100
AcDbEllipse
 10
31.4237234031
 20
662.2705347544
 30
0.0
 11
-2.750000000000003
 21
-5.551115123125783E-14
 31
0.0
210
0.0
220
0.0
230
1.0
 40
0.1736481777
 41
0.0
 42
6.283185307179586
  0
ELLIPSE
  5
C0
330
76
100
AcDbEntity
  8
$DDT_AUDIT_GENERATED_(BB)
  6
Continuous
 62
     7
100
AcDbEllipse
 10
31.4237234031
 20
662.2705347544
 30
0.0
 11
-2.150000000000006
 21
-2.775557561562891E-14
 31
0.0
210
0.0
220
0.0
230
1.0
 40
0.1736481777
 41
0.0
 42
6.283185307179586
  0
ELLIPSE
  5
C1
330
76
100
AcDbEntity
  8
$DDT_AUDIT_GENERATED_(BB)
  6
Continuous
 62
     7
100
AcDbEllipse
 10
31.4237234031
 20
662.467496305
 30
0.0
 11
-0.5196299438963575
 21
0.0
 31
0.0
210
0.0
220
0.0
230
1.0
 40
0.1736481777
 41
0.0
 42
6.283185307179586
  0
ELLIPSE
  5
C2
330
76
100
AcDbEntity
  8
$DDT_AUDIT_GENERATED_(BB)
  6
Continuous
 62
     7
100
AcDbEllipse
 10
31.4237234031
 20
662.2705347544
 30
0.0
 11
-8.699999999999999
 21
-1.387778780781446E-13
 31
0.0
210
0.0
220
0.0
230
1.0
 40
0.1736481777
 41
0.0
 42
6.283185307179586
  0
ARC
  5
C3
330
76
100
AcDbEntity
  8
$DDT_AUDIT_GENERATED_(BB)
  6
Continuous
 62
     7
100
AcDbCircle
 10
31.4237234031
 20
709.9377504197
 30
0.0
 40
48.94626362829043
100
AcDbArc
 50
269.8829413828
 51
270.1170586172
  0
ELLIPSE
  5
C4
330
76
100
AcDbEntity
  8
$DDT_AUDIT_GENERATED_(BB)
  6
Continuous
 62
     7
100
AcDbEllipse
 10
31.4237234031
 20
662.467496305
 30
0.0
 11
8.50000000002292
 21
-8.881784197001252E-13
 31
0.0
210
0.0
220
0.0
230
1.0
 40
0.1736481777
 41
4.724153957673337
 42
4.962423390895681
  0
LINE
  5
C5
330
76
100
AcDbEntity
  8
$DDT_AUDIT_GENERATED_(BB)
  6
Continuous
 62
     7
100
AcDbLine
 10
31.3237234031
 20
661.1853725714
 30
0.0
 11
31.3237234031
 21
660.9915889444
 31
0.0
  0
LINE
  5
C6
330
76
100
AcDbEntity
  8
$DDT_AUDIT_GENERATED_(BB)
  6
Continuous
 62
     7
100
AcDbLine
 10
31.5237234031
 20
661.1853725714
 30
0.0
 11
31.5237234031
 21
660.9915889444
 31
0.0
  0
LINE
  5
C7
330
76
100
AcDbEntity
  8
$DDT_AUDIT_GENERATED_(BB)
  6
Continuous
 62
     7
100
AcDbLine
 10
31.6737234031
 20
662.3402262892
 30
0.0
 11
31.6737234031
 21
662.3883928835
 31
0.0
  0
LINE
  5
C8
330
76
100
AcDbEntity
  8
$DDT_AUDIT_GENERATED_(BB)
  6
Continuous
 62
     7
100
AcDbLine
 10
31.1737234031
 20
662.3402262892
 30
0.0
 11
31.1737234031
 21
662.3883928835
 31
0.0
  0
ARC
  5
C9
330
76
100
AcDbEntity
  8
$DDT_AUDIT_GENERATED_(BB)
  6
Continuous
 62
     7
100
AcDbCircle
 10
31.4237234031
 20
674.637594906
 30
0.0
 40
12.2999095483329
100
AcDbArc
 50
268.8353628735
 51
271.1646371265
  0
ELLIPSE
  5
CA
330
76
100
AcDbEntity
  8
$DDT_AUDIT_GENERATED_(BB)
  6
Continuous
 62
     7
100
AcDbEllipse
 10
31.4237232983
 20
662.4674962369
 30
0.0
 11
-8.499999783747707
 21
1.814631778174203E-8
 31
0.0
210
0.0
220
0.0
230
1.0
 40
0.1736481741
 41
1.297231967738989
 42
1.320761922876405
  0
ELLIPSE
  5
CB
330
76
100
AcDbEntity
  8
$DDT_AUDIT_GENERATED_(BB)
  6
Continuous
 62
     7
100
AcDbEllipse
 10
31.4237234031
 20
662.467496305
 30
0.0
 11
-8.499999999995623
 21
8.326672684688674E-14
 31
0.0
210
0.0
220
0.0
230
1.0
 40
0.1736481777
 41
1.3207619162838
 42
1.559031349506884
  0
LINE
  5
CC
330
76
100
AcDbEntity
  8
$DDT_AUDIT_GENERATED_(BB)
  6
Continuous
 62
     7
100
AcDbLine
 10
29.1273211889
 20
661.0463736137
 30
0.0
 11
29.1273211889
 21
661.2611467567
 31
0.0
  0
LINE
  5
CD
330
76
100
AcDbEntity
  8
$DDT_AUDIT_GENERATED_(BB)
  6
Continuous
 62
     7
100
AcDbLine
 10
29.4291580675
 20
661.2419831748
 30
0.0
 11
29.1273211889
 21
661.0463736137
 31
0.0
  0
LINE
  5
CE
330
76
100
AcDbEntity
  8
$DDT_AUDIT_GENERATED_(BB)
  6
Continuous
 62
     7
100
AcDbLine
 10
29.6199088485
 20
661.2314168474
 30
0.0
 11
29.3205063541
 21
661.0373849226
 31
0.0
  0
ELLIPSE
  5
CF
330
76
100
AcDbEntity
  8
$DDT_AUDIT_GENERATED_(BB)
  6
Continuous
 62
     7
100
AcDbEllipse
 10
31.4237232021
 20
662.4674962445
 30
0.0
 11
-8.499999748583315
 21
3.118169611404653E-8
 31
0.0
210
0.0
220
0.0
230
1.0
 40
0.1736481756
 41
1.035432584496927
 42
1.058962539630202
  0
ELLIPSE
  5
D0
330
76
100
AcDbEntity
  8
$DDT_AUDIT_GENERATED_(BB)
  6
Continuous
 62
     7
100
AcDbEllipse
 10
31.4237234031
 20
662.467496305
 30
0.0
 11
-8.500000000008653
 21
-1.249000902703301E-12
 31
0.0
210
0.0
220
0.0
230
1.0
 40
0.1736481777
 41
1.058962528484364
 42
1.297231961707111
  0
LINE
  5
D1
330
76
100
AcDbEntity
  8
$DDT_AUDIT_GENERATED_(BB)
  6
Continuous
 62
     7
100
AcDbLine
 10
27.0874149906
 20
661.1980054459
 30
0.0
 11
27.0874149906
 21
661.4889456888
 31
0.0
  0
LINE
  5
D2
330
76
100
AcDbEntity
  8
$DDT_AUDIT_GENERATED_(BB)
  6
Continuous
 62
     7
100
AcDbLine
 10
27.7388268494
 20
661.3939289403
 30
0.0
 11
27.0874149906
 21
661.1980054459
 31
0.0
  0
LINE
  5
D3
330
76
100
AcDbEntity
  8
$DDT_AUDIT_GENERATED_(BB)
  6
Continuous
 62
     7
100
AcDbLine
 10
27.9029191039
 20
661.3738232808
 30
0.0
 11
27.2606200713
 21
661.1806406282
 31
0.0
  0
ELLIPSE
  5
D4
330
76
100
AcDbEntity
  8
$DDT_AUDIT_GENERATED_(BB)
  6
Continuous
 62
     7
100
AcDbEllipse
 10
31.423723021
 20
662.4674962386
 30
0.0
 11
-8.499999594802944
 21
4.845340795256448E-8
 31
0.0
210
0.0
220
0.0
230
1.0
 40
0.1736481777
 41
0.7736332026232535
 42
0.7971631579470256
  0
ELLIPSE
  5
D5
330
76
100
AcDbEntity
  8
$DDT_AUDIT_GENERATED_(BB)
  6
Continuous
 62
     7
100
AcDbEllipse
 10
31.4237234031
 20
662.467496305
 30
0.0
 11
-8.500000000017216
 21
-2.081668171172169E-12
 31
0.0
210
0.0
220
0.0
230
1.0
 40
0.1736481777
 41
0.797163140684854
 42
1.035432573907467
  0
LINE
  5
D6
330
76
100
AcDbEntity
  8
$DDT_AUDIT_GENERATED_(BB)
  6
Continuous
 62
     7
100
AcDbLine
 10
25.3430210445
 20
661.4361509823
 30
0.0
 11
25.3430210445
 21
661.8378193266
 31
0.0
  0
LINE
  5
D7
330
76
100
AcDbEntity
  8
$DDT_AUDIT_GENERATED_(BB)
  6
Continuous
 62
     7
100
AcDbLine
 10
26.4127378969
 20
661.6219053643
 30
0.0
 11
25.3430210445
 21
661.4361509823
 31
0.0
  0
LINE
  5
D8
330
76
100
AcDbEntity
  8
$DDT_AUDIT_GENERATED_(BB)
  6
Continuous
 62
     7
100
AcDbLine
 10
26.5358574296
 20
661.5941697252
 30
0.0
 11
25.4844424007
 21
661.4115934215
 31
0.0
  0
ELLIPSE
  5
D9
330
76
100
AcDbEntity
  8
$DDT_AUDIT_GENERATED_(BB)
  6
Continuous
 62
     7
100
AcDbEllipse
 10
31.4237229356
 20
662.4674962582
 30
0.0
 11
-8.499999527709738
 21
4.182418300580082E-8
 31
0.0
210
0.0
220
0.0
230
1.0
 40
0.1736481804
 41
0.5118338125444308
 42
0.5353637678675122
  0
ELLIPSE
  5
DA
330
76
100
AcDbEntity
  8
$DDT_AUDIT_GENERATED_(BB)
  6
Continuous
 62
     7
100
AcDbEllipse
 10
31.4237234031
 20
662.467496305
 30
0.0
 11
-8.500000000025549
 21
-2.470246229790973E-12
 31
0.0
210
0.0
220
0.0
230
1.0
 40
0.1736481777
 41
0.535363752885559
 42
0.7736331861081132
  0
LINE
  5
DB
330
76
100
AcDbEntity
  8
$DDT_AUDIT_GENERATED_(BB)
  6
Continuous
 62
     7
100
AcDbLine
 10
24.0130169153
 20
661.744580998
 30
0.0
 11
24.0130169153
 21
662.1047069834
 31
0.0
  0
LINE
  5
DC
330
76
100
AcDbEntity
  8
$DDT_AUDIT_GENERATED_(BB)
  6
Continuous
 62
     7
100
AcDbLine
 10
25.5516892505
 20
661.898841858
 30
0.0
 11
24.0130169153
 21
661.744580998
 31
0.0
  0
LINE
  5
DD
330
76
100
AcDbEntity
  8
$DDT_AUDIT_GENERATED_(BB)
  6
Continuous
 62
     7
100
AcDbLine
 10
25.6241208136
 20
661.866001215
 30
0.0
 11
24.1130169153
 21
661.7145042514
 31
0.0
  0
ELLIPSE
  5
DE
330
76
100
AcDbEntity
  8
$DDT_AUDIT_GENERATED_(BB)
  6
Continuous
 62
     7
100
AcDbEllipse
 10
31.4237229477
 20
662.4674962839
 30
0.0
 11
-8.499999544356312
 21
2.098907159187036E-8
 31
0.0
210
0.0
220
0.0
230
1.0
 40
0.1736481818
 41
0.2500344175469373
 42
0.2735643727756411
  0
ELLIPSE
  5
DF
330
76
100
AcDbEntity
  8
$DDT_AUDIT_GENERATED_(BB)
  6
Continuous
 62
     7
100
AcDbEllipse
 10
31.4237234031
 20
662.467496305
 30
0.0
 11
-8.500000000029088
 21
-2.442490654175344E-12
 31
0.0
210
0.0
220
0.0
230
1.0
 40
0.1736481777
 41
0.2735643650866663
 42
0.5118337983091621
  0
LINE
  5
E0
330
76
100
AcDbEntity
  8
$DDT_AUDIT_GENERATED_(BB)
  6
Continuous
 62
     7
100
AcDbLine
 10
23.1880401865
 20
662.1022764972
 30
0.0
 11
23.1880401865
 21
662.4501314872
 31
0.0
  0
LINE
  5
E1
330
76
100
AcDbEntity
  8
$DDT_AUDIT_GENERATED_(BB)
  6
Continuous
 62
     7
100
AcDbLine
 10
25.1887320183
 20
662.1953664653
 30
0.0
 11
23.1880401865
 21
662.1022764972
 31
0.0
  0
LINE
  5
E2
330
76
100
AcDbEntity
  8
$DDT_AUDIT_GENERATED_(BB)
  6
Continuous
 62
     7
100
AcDbLine
 10
25.2060936957
 20
662.1602195205
 30
0.0
 11
23.2398039955
 21
662.0687302453
 31
0.0
  0
ARC
  5
E3
330
76
100
AcDbEntity
  8
$DDT_AUDIT_GENERATED_(BB)
  6
Continuous
 62
     7
100
AcDbCircle
 10
23.1806002823
 20
662.467496305
 30
0.0
 40
0.2568762259789325
100
AcDbArc
 50
176.1238526716
 51
183.8761473283
  0
ELLIPSE
  5
E4
330
76
100
AcDbEntity
  8
$DDT_AUDIT_GENERATED_(BB)
  6
Continuous
 62
     7
100
AcDbEllipse
 10
31.4237234031
 20
662.467496305
 30
0.0
 11
-8.500000000025196
 21
-1.304512053934559E-12
 31
0.0
210
0.0
220
0.0
230
1.0
 40
0.1736481777
 41
0.0117649772878477
 42
0.2500344105105831
  0
ARC
  5
E5
330
76
100
AcDbEntity
  8
$DDT_AUDIT_GENERATED_(BB)
  6
Continuous
 62
     7
100
AcDbCircle
 10
25.3629598899
 20
662.467496305
 30
0.0
 40
0.189234846521569
100
AcDbArc
 50
174.7349422714
 51
180.0
  0
LINE
  5
E6
330
76
100
AcDbEntity
  8
$DDT_AUDIT_GENERATED_(BB)
  6
Continuous
 62
     7
100
AcDbLine
 10
25.1745234543
 20
662.4848611228
 30
0.0
 11
25.1745234543
 21
662.7402872534
 31
0.0
  0
LINE
  5
E7
330
76
100
AcDbEntity
  8
$DDT_AUDIT_GENERATED_(BB)
  6
Continuous
 62
     7
100
AcDbLine
 10
25.1745234543
 20
662.4848611228
 30
0.0
 11
22.9243116588
 21
662.4848611228
 31
0.0
  0
LINE
  5
E8
330
76
100
AcDbEntity
  8
$DDT_AUDIT_GENERATED_(BB)
  6
Continuous
 62
     7
100
AcDbLine
 10
25.1737234031
 20
662.4501314872
 30
0.0
 11
22.9243116588
 21
662.4501314872
 31
0.0
  0
ELLIPSE
  5
E9
330
76
100
AcDbEntity
  8
$DDT_AUDIT_GENERATED_(BB)
  6
Continuous
 62
     7
100
AcDbEllipse
 10
31.4237234031
 20
662.467496305
 30
0.0
 11
-8.500000000030893
 21
1.165734175856414E-12
 31
0.0
210
0.0
220
0.0
230
1.0
 40
0.1736481777
 41
6.171271450579491
 42
6.271420329891408
  0
ELLIPSE
  5
EA
330
76
100
AcDbEntity
  8
$DDT_AUDIT_GENERATED_(BB)
  6
Continuous
 62
     7
100
AcDbEllipse
 10
31.4237234342
 20
662.4674963035
 30
0.0
 11
-6.250000031093474
 21
1.461025744831090E-9
 31
0.0
210
0.0
220
0.0
230
1.0
 40
0.1736481773
 41
-0.2778000698193051
 42
-0.245798704411051
  0
LINE
  5
EB
330
76
100
AcDbEntity
  8
$DDT_AUDIT_GENERATED_(BB)
  6
Continuous
 62
     7
100
AcDbLine
 10
25.4133416834
 20
662.7651300709
 30
0.0
 11
25.4133416834
 21
663.0500209012
 31
0.0
  0
LINE
  5
EC
330
76
100
AcDbEntity
  8
$DDT_AUDIT_GENERATED_(BB)
  6
Continuous
 62
     7
100
AcDbLine
 10
25.4133416834
 20
662.7651300709
 30
0.0
 11
23.409347506
 21
662.8583736935
 31
0.0
  0
LINE
  5
ED
330
76
100
AcDbEntity
  8
$DDT_AUDIT_GENERATED_(BB)
  6
Continuous
 62
     7
100
AcDbLine
 10
25.3615778744
 20
662.731583819
 30
0.0
 11
23.333058616
 21
662.8259685664
 31
0.0
  0
ELLIPSE
  5
EE
330
76
100
AcDbEntity
  8
$DDT_AUDIT_GENERATED_(BB)
  6
Continuous
 62
     7
100
AcDbEllipse
 10
31.4237234321
 20
662.467496302
 30
0.0
 11
-6.250000029288897
 21
2.651046049351180E-9
 31
0.0
210
0.0
220
0.0
230
1.0
 40
0.1736481774
 41
-0.5395994570671974
 42
-0.5075980916621878
  0
LINE
  5
EF
330
76
100
AcDbEntity
  8
$DDT_AUDIT_GENERATED_(BB)
  6
Continuous
 62
     7
100
AcDbLine
 10
26.0617574941
 20
663.0251157698
 30
0.0
 11
26.0617574941
 21
663.374034353
 31
0.0
  0
LINE
  5
F0
330
76
100
AcDbEntity
  8
$DDT_AUDIT_GENERATED_(BB)
  6
Continuous
 62
     7
100
AcDbLine
 10
26.0617574941
 20
663.0251157698
 30
0.0
 11
24.488977663
 21
663.1827961048
 31
0.0
  0
LINE
  5
F1
330
76
100
AcDbEntity
  8
$DDT_AUDIT_GENERATED_(BB)
  6
Continuous
 62
     7
100
AcDbLine
 10
25.9617574941
 20
662.9950390232
 30
0.0
 11
24.3692943283
 21
663.1546927271
 31
0.0
  0
ELLIPSE
  5
F2
330
76
100
AcDbEntity
  8
$DDT_AUDIT_GENERATED_(BB)
  6
Continuous
 62
     7
100
AcDbEllipse
 10
31.4237234261
 20
662.467496301
 30
0.0
 11
-6.250000024363822
 21
2.906758167497969E-9
 31
0.0
210
0.0
220
0.0
230
1.0
 40
0.1736481777
 41
-0.8013988447203975
 42
-0.7693974793129135
  0
LINE
  5
F3
330
76
100
AcDbEntity
  8
$DDT_AUDIT_GENERATED_(BB)
  6
Continuous
 62
     7
100
AcDbLine
 10
27.0755824204
 20
663.2471006237
 30
0.0
 11
27.0755824204
 21
663.5790595573
 31
0.0
  0
LINE
  5
F4
330
76
100
AcDbEntity
  8
$DDT_AUDIT_GENERATED_(BB)
  6
Continuous
 62
     7
100
AcDbLine
 10
27.0755824204
 20
663.2471006237
 30
0.0
 11
25.9428890746
 21
663.443790759
 31
0.0
  0
LINE
  5
F5
330
76
100
AcDbEntity
  8
$DDT_AUDIT_GENERATED_(BB)
  6
Continuous
 62
     7
100
AcDbLine
 10
26.9341610642
 20
663.2225430629
 30
0.0
 11
25.7883736526
 21
663.4215069589
 31
0.0
  0
ELLIPSE
  5
F6
330
76
100
AcDbEntity
  8
$DDT_AUDIT_GENERATED_(BB)
  6
Continuous
 62
     7
100
AcDbEllipse
 10
31.4237233728
 20
662.4674963142
 30
0.0
 11
-6.249999962114811
 21
-4.733879954699205E-9
 31
0.0
210
0.0
220
0.0
230
1.0
 40
0.1736481772
 41
-1.063198236254012
 42
-1.031196870608257
  0
LINE
  5
F7
330
76
100
AcDbEntity
  8
$DDT_AUDIT_GENERATED_(BB)
  6
Continuous
 62
     7
100
AcDbLine
 10
28.3857259691
 20
663.4159567316
 30
0.0
 11
28.3857259691
 21
663.6861729309
 31
0.0
  0
LINE
  5
F8
330
76
100
AcDbEntity
  8
$DDT_AUDIT_GENERATED_(BB)
  6
Continuous
 62
     7
100
AcDbLine
 10
28.3857259691
 20
663.4159567316
 30
0.0
 11
27.6642812926
 21
663.6329438191
 31
0.0
  0
LINE
  5
F9
330
76
100
AcDbEntity
  8
$DDT_AUDIT_GENERATED_(BB)
  6
Continuous
 62
     7
100
AcDbLine
 10
28.2125208883
 20
663.3985919138
 30
0.0
 11
27.4845431673
 21
663.6175439285
 31
0.0
  0
ELLIPSE
  5
FA
330
76
100
AcDbEntity
  8
$DDT_AUDIT_GENERATED_(BB)
  6
Continuous
 62
     7
100
AcDbEllipse
 10
31.4237234209
 20
662.4674962935
 30
0.0
 11
-6.250000036568247
 21
3.078731714012406E-9
 31
0.0
210
0.0
220
0.0
230
1.0
 40
0.1736481785
 41
-1.324997620191226
 42
-1.292996254876114
  0
LINE
  5
FB
330
76
100
AcDbEntity
  8
$DDT_AUDIT_GENERATED_(BB)
  6
Continuous
 62
     7
100
AcDbLine
 10
29.9029040223
 20
663.5201768288
 30
0.0
 11
29.9029040223
 21
663.7580126707
 31
0.0
  0
LINE
  5
FC
330
76
100
AcDbEntity
  8
$DDT_AUDIT_GENERATED_(BB)
  6
Continuous
 62
     7
100
AcDbLine
 10
29.9029040223
 20
663.5201768288
 30
0.0
 11
29.5544595759
 21
663.7459910684
 31
0.0
  0
LINE
  5
FD
330
76
100
AcDbEntity
  8
$DDT_AUDIT_GENERATED_(BB)
  6
Continuous
 62
     7
100
AcDbLine
 10
29.7097188571
 20
663.5111881377
 30
0.0
 11
29.3595266153
 21
663.7381350602
 31
0.0
  0
ARC
  5
FE
330
76
100
AcDbEntity
  8
$DDT_AUDIT_GENERATED_(BB)
  6
Continuous
 62
     7
100
AcDbCircle
 10
31.4237234031
 20
627.5649502801
 30
0.0
 40
35.9878471439263
100
AcDbArc
 50
89.8407911065
 51
90.1592088935
  0
LINE
  5
FF
330
76
100
AcDbEntity
  8
$DDT_AUDIT_GENERATED_(BB)
  6
Continuous
 62
     7
100
AcDbLine
 10
31.5237234031
 20
663.552658488
 30
0.0
 11
31.5237234031
 21
663.781174099
 31
0.0
  0
LINE
  5
100
330
76
100
AcDbEntity
  8
$DDT_AUDIT_GENERATED_(BB)
  6
Continuous
 62
     7
100
AcDbLine
 10
31.3237234031
 20
663.552658488
 30
0.0
 11
31.3237234031
 21
663.781174099
 31
0.0
  0
ELLIPSE
  5
101
330
76
100
AcDbEntity
  8
$DDT_AUDIT_GENERATED_(BB)
  6
Continuous
 62
     7
100
AcDbEllipse
 10
31.4237233845
 20
662.4674962929
 30
0.0
 11
6.250000038445245
 21
3.220035349471573E-9
 31
0.0
210
0.0
220
0.0
230
1.0
 40
0.1736481785
 41
1.292996254822486
 42
1.324997620128411
  0
LINE
  5
102
330
76
100
AcDbEntity
  8
$DDT_AUDIT_GENERATED_(BB)
  6
Continuous
 62
     7
100
AcDbLine
 10
33.1377279491
 20
663.5111881377
 30
0.0
 11
33.4879201909
 21
663.7381350602
 31
0.0
  0
LINE
  5
103
330
76
100
AcDbEntity
  8
$DDT_AUDIT_GENERATED_(BB)
  6
Continuous
 62
     7
100
AcDbLine
 10
32.9445427839
 20
663.5201768288
 30
0.0
 11
33.2929872303
 21
663.7459910684
 31
0.0
  0
LINE
  5
104
330
76
100
AcDbEntity
  8
$DDT_AUDIT_GENERATED_(BB)
  6
Continuous
 62
     7
100
AcDbLine
 10
32.9445427839
 20
663.5201768288
 30
0.0
 11
32.9445427839
 21
663.7580126707
 31
0.0
  0
ELLIPSE
  5
105
330
76
100
AcDbEntity
  8
$DDT_AUDIT_GENERATED_(BB)
  6
Continuous
 62
     7
100
AcDbEllipse
 10
31.4237233747
 20
662.4674962964
 30
0.0
 11
6.250000035461174
 21
4.425376731731490E-9
 31
0.0
210
0.0
220
0.0
230
1.0
 40
0.1736481781
 41
1.031196866435138
 42
1.063198231780509
  0
LINE
  5
106
330
76
100
AcDbEntity
  8
$DDT_AUDIT_GENERATED_(BB)
  6
Continuous
 62
     7
100
AcDbLine
 10
34.6349259179
 20
663.3985919138
 30
0.0
 11
35.3629036389
 21
663.6175439285
 31
0.0
  0
LINE
  5
107
330
76
100
AcDbEntity
  8
$DDT_AUDIT_GENERATED_(BB)
  6
Continuous
 62
     7
100
AcDbLine
 10
34.4617208371
 20
663.4159567316
 30
0.0
 11
35.1831655136
 21
663.6329438191
 31
0.0
  0
LINE
  5
108
330
76
100
AcDbEntity
  8
$DDT_AUDIT_GENERATED_(BB)
  6
Continuous
 62
     7
100
AcDbLine
 10
34.4617208371
 20
663.4159567316
 30
0.0
 11
34.4617208371
 21
663.6861729309
 31
0.0
  0
ELLIPSE
  5
109
330
76
100
AcDbEntity
  8
$DDT_AUDIT_GENERATED_(BB)
  6
Continuous
 62
     7
100
AcDbEllipse
 10
31.4237233997
 20
662.4674963044
 30
0.0
 11
6.25000000364015
 21
4.712341628021477E-10
 31
0.0
210
0.0
220
0.0
230
1.0
 40
0.1736481777
 41
0.7693974804507987
 42
0.8013988459290476
  0
LINE
  5
10A
330
76
100
AcDbEntity
  8
$DDT_AUDIT_GENERATED_(BB)
  6
Continuous
 62
     7
100
AcDbLine
 10
35.913285742
 20
663.2225430629
 30
0.0
 11
37.0590731536
 21
663.4215069589
 31
0.0
  0
LINE
  5
10B
330
76
100
AcDbEntity
  8
$DDT_AUDIT_GENERATED_(BB)
  6
Continuous
 62
     7
100
AcDbLine
 10
35.7718643858
 20
663.2471006237
 30
0.0
 11
36.9045577316
 21
663.443790759
 31
0.0
  0
LINE
  5
10C
330
76
100
AcDbEntity
  8
$DDT_AUDIT_GENERATED_(BB)
  6
Continuous
 62
     7
100
AcDbLine
 10
35.7718643858
 20
663.2471006237
 30
0.0
 11
35.7718643858
 21
663.5790595573
 31
0.0
  0
ELLIPSE
  5
10D
330
76
100
AcDbEntity
  8
$DDT_AUDIT_GENERATED_(BB)
  6
Continuous
 62
     7
100
AcDbEllipse
 10
31.4237233769
 20
662.4674963024
 30
0.0
 11
6.250000026465314
 21
2.351924210941547E-9
 31
0.0
210
0.0
220
0.0
230
1.0
 40
0.1736481775
 41
0.5075980917788515
 42
0.5395994571920713
  0
LINE
  5
10E
330
76
100
AcDbEntity
  8
$DDT_AUDIT_GENERATED_(BB)
  6
Continuous
 62
     7
100
AcDbLine
 10
36.8856893121
 20
662.9950390232
 30
0.0
 11
38.4781524779
 21
663.1546927271
 31
0.0
  0
LINE
  5
10F
330
76
100
AcDbEntity
  8
$DDT_AUDIT_GENERATED_(BB)
  6
Continuous
 62
     7
100
AcDbLine
 10
36.7856893121
 20
663.0251157698
 30
0.0
 11
38.3584691432
 21
663.1827961048
 31
0.0
  0
LINE
  5
110
330
76
100
AcDbEntity
  8
$DDT_AUDIT_GENERATED_(BB)
  6
Continuous
 62
     7
100
AcDbLine
 10
36.7856893121
 20
663.0251157698
 30
0.0
 11
36.7856893121
 21
663.374034353
 31
0.0
  0
ELLIPSE
  5
111
330
76
100
AcDbEntity
  8
$DDT_AUDIT_GENERATED_(BB)
  6
Continuous
 62
     7
100
AcDbEllipse
 10
31.4237233473
 20
662.4674963024
 30
0.0
 11
6.250000055834357
 21
2.607164484302871E-9
 31
0.0
210
0.0
220
0.0
230
1.0
 40
0.173648177
 41
0.2457987038997633
 42
0.2778000692424853
  0
LINE
  5
112
330
76
100
AcDbEntity
  8
$DDT_AUDIT_GENERATED_(BB)
  6
Continuous
 62
     7
100
AcDbLine
 10
37.4858689318
 20
662.731583819
 30
0.0
 11
39.5143881902
 21
662.8259685664
 31
0.0
  0
LINE
  5
113
330
76
100
AcDbEntity
  8
$DDT_AUDIT_GENERATED_(BB)
  6
Continuous
 62
     7
100
AcDbLine
 10
37.4341051228
 20
662.7651300709
 30
0.0
 11
39.4380993002
 21
662.8583736935
 31
0.0
  0
LINE
  5
114
330
76
100
AcDbEntity
  8
$DDT_AUDIT_GENERATED_(BB)
  6
Continuous
 62
     7
100
AcDbLine
 10
37.4341051228
 20
662.7651300709
 30
0.0
 11
37.4341051228
 21
663.0500209012
 31
0.0
  0
ARC
  5
115
330
76
100
AcDbEntity
  8
$DDT_AUDIT_GENERATED_(BB)
  6
Continuous
 62
     7
100
AcDbCircle
 10
39.6668465239
 20
662.467496305
 30
0.0
 40
0.2568762259789325
100
AcDbArc
 50
356.1238526716
 51
3.8761473283
  0
ELLIPSE
  5
116
330
76
100
AcDbEntity
  8
$DDT_AUDIT_GENERATED_(BB)
  6
Continuous
 62
     7
100
AcDbEllipse
 10
31.4237234031
 20
662.467496305
 30
0.0
 11
8.500000000029768
 21
1.415534356397075E-12
 31
0.0
210
0.0
220
0.0
230
1.0
 40
0.1736481777
 41
0.011764977287961
 42
0.1119138936942667
  0
ARC
  5
117
330
76
100
AcDbEntity
  8
$DDT_AUDIT_GENERATED_(BB)
  6
Continuous
 62
     7
100
AcDbCircle
 10
37.4844869164
 20
662.467496305
 30
0.0
 40
0.1892348465215715
100
AcDbArc
 50
0.0
 51
5.2650577286
  0
LINE
  5
118
330
76
100
AcDbEntity
  8
$DDT_AUDIT_GENERATED_(BB)
  6
Continuous
 62
     7
100
AcDbLine
 10
37.6737234031
 20
662.4501314872
 30
0.0
 11
39.9231351475
 21
662.4501314872
 31
0.0
  0
LINE
  5
119
330
76
100
AcDbEntity
  8
$DDT_AUDIT_GENERATED_(BB)
  6
Continuous
 62
     7
100
AcDbLine
 10
37.6729233519
 20
662.4848611228
 30
0.0
 11
39.9231351475
 21
662.4848611228
 31
0.0
  0
LINE
  5
11A
330
76
100
AcDbEntity
  8
$DDT_AUDIT_GENERATED_(BB)
  6
Continuous
 62
     7
100
AcDbLine
 10
37.6729233519
 20
662.4848611228
 30
0.0
 11
37.6729233519
 21
662.7402872534
 31
0.0
  0
ELLIPSE
  5
11B
330
76
100
AcDbEntity
  8
$DDT_AUDIT_GENERATED_(BB)
  6
Continuous
 62
     7
100
AcDbEllipse
 10
31.4237238588
 20
662.4674962837
 30
0.0
 11
8.499999544009187
 21
2.120509323688680E-8
 31
0.0
210
0.0
220
0.0
230
1.0
 40
0.1736481818
 41
-0.2735643727849597
 42
-0.2500344175557334
  0
ELLIPSE
  5
11C
330
76
100
AcDbEntity
  8
$DDT_AUDIT_GENERATED_(BB)
  6
Continuous
 62
     7
100
AcDbEllipse
 10
31.4237234031
 20
662.467496305
 30
0.0
 11
8.500000000003762
 21
1.471045507628332E-12
 31
0.0
210
0.0
220
0.0
230
1.0
 40
0.1736481777
 41
6.033150896668453
 42
6.271420329891352
  0
LINE
  5
11D
330
76
100
AcDbEntity
  8
$DDT_AUDIT_GENERATED_(BB)
  6
Continuous
 62
     7
100
AcDbLine
 10
39.6594066197
 20
662.1022764972
 30
0.0
 11
39.6594066197
 21
662.4501314872
 31
0.0
  0
LINE
  5
11E
330
76
100
AcDbEntity
  8
$DDT_AUDIT_GENERATED_(BB)
  6
Continuous
 62
     7
100
AcDbLine
 10
37.6413531105
 20
662.1602195205
 30
0.0
 11
39.6076428107
 21
662.0687302453
 31
0.0
  0
LINE
  5
11F
330
76
100
AcDbEntity
  8
$DDT_AUDIT_GENERATED_(BB)
  6
Continuous
 62
     7
100
AcDbLine
 10
37.6587147879
 20
662.1953664653
 30
0.0
 11
39.6594066197
 21
662.1022764972
 31
0.0
  0
ELLIPSE
  5
120
330
76
100
AcDbEntity
  8
$DDT_AUDIT_GENERATED_(BB)
  6
Continuous
 62
     7
100
AcDbEllipse
 10
31.4237237528
 20
662.4674962699
 30
0.0
 11
8.49999964666759
 21
3.137215487392098E-8
 31
0.0
210
0.0
220
0.0
230
1.0
 40
0.1736481797
 41
-0.5353637640968296
 42
-0.5118338089619048
  0
ELLIPSE
  5
121
330
76
100
AcDbEntity
  8
$DDT_AUDIT_GENERATED_(BB)
  6
Continuous
 62
     7
100
AcDbEllipse
 10
31.4237234031
 20
662.467496305
 30
0.0
 11
8.500000000030852
 21
-2.275957200481571E-12
 31
0.0
210
0.0
220
0.0
230
1.0
 40
0.1736481777
 41
-0.5118337983092962
 42
-0.2735643650868198
  0
LINE
  5
122
330
76
100
AcDbEntity
  8
$DDT_AUDIT_GENERATED_(BB)
  6
Continuous
 62
     7
100
AcDbLine
 10
38.8344298909
 20
661.744580998
 30
0.0
 11
38.8344298909
 21
662.1047069834
 31
0.0
  0
LINE
  5
123
330
76
100
AcDbEntity
  8
$DDT_AUDIT_GENERATED_(BB)
  6
Continuous
 62
     7
100
AcDbLine
 10
37.2233259926
 20
661.866001215
 30
0.0
 11
38.7344298909
 21
661.7145042514
 31
0.0
  0
LINE
  5
124
330
76
100
AcDbEntity
  8
$DDT_AUDIT_GENERATED_(BB)
  6
Continuous
 62
     7
100
AcDbLine
 10
37.2957575557
 20
661.898841858
 30
0.0
 11
38.8344298909
 21
661.744580998
 31
0.0
  0
ELLIPSE
  5
125
330
76
100
AcDbEntity
  8
$DDT_AUDIT_GENERATED_(BB)
  6
Continuous
 62
     7
100
AcDbEllipse
 10
31.423723786
 20
662.4674962386
 30
0.0
 11
8.499999593842567
 21
4.840924883176000E-8
 31
0.0
210
0.0
220
0.0
230
1.0
 40
0.1736481777
 41
-0.7971631579694947
 42
-0.7736332026435351
  0
ELLIPSE
  5
126
330
76
100
AcDbEntity
  8
$DDT_AUDIT_GENERATED_(BB)
  6
Continuous
 62
     7
100
AcDbEllipse
 10
31.4237234031
 20
662.467496305
 30
0.0
 11
8.500000000023503
 21
-1.970645868709653E-12
 31
0.0
210
0.0
220
0.0
230
1.0
 40
0.1736481777
 41
-0.773633186108392
 42
-0.5353637528858295
  0
LINE
  5
127
330
76
100
AcDbEntity
  8
$DDT_AUDIT_GENERATED_(BB)
  6
Continuous
 62
     7
100
AcDbLine
 10
37.5044257617
 20
661.4361509823
 30
0.0
 11
37.5044257617
 21
661.8378193266
 31
0.0
  0
LINE
  5
128
330
76
100
AcDbEntity
  8
$DDT_AUDIT_GENERATED_(BB)
  6
Continuous
 62
     7
100
AcDbLine
 10
36.3115893766
 20
661.5941697252
 30
0.0
 11
37.3630044055
 21
661.4115934215
 31
0.0
  0
LINE
  5
129
330
76
100
AcDbEntity
  8
$DDT_AUDIT_GENERATED_(BB)
  6
Continuous
 62
     7
100
AcDbLine
 10
36.4347089093
 20
661.6219053643
 30
0.0
 11
37.5044257617
 21
661.4361509823
 31
0.0
  0
ELLIPSE
  5
12A
330
76
100
AcDbEntity
  8
$DDT_AUDIT_GENERATED_(BB)
  6
Continuous
 62
     7
100
AcDbEllipse
 10
31.4237236385
 20
662.4674962342
 30
0.0
 11
8.499999705800281
 21
3.651054458764236E-8
 31
0.0
210
0.0
220
0.0
230
1.0
 40
0.1736481753
 41
-1.058962541543009
 42
-1.035432586315173
  0
ELLIPSE
  5
12B
330
76
100
AcDbEntity
  8
$DDT_AUDIT_GENERATED_(BB)
  6
Continuous
 62
     7
100
AcDbEllipse
 10
31.4237234031
 20
662.467496305
 30
0.0
 11
8.500000000000695
 21
3.053113317719180E-13
 31
0.0
210
0.0
220
0.0
230
1.0
 40
0.1736481777
 41
-1.035432573908552
 42
-0.7971631406855764
  0
LINE
  5
12C
330
76
100
AcDbEntity
  8
$DDT_AUDIT_GENERATED_(BB)
  6
Continuous
 62
     7
100
AcDbLine
 10
35.7600318157
 20
661.1980054459
 30
0.0
 11
35.7600318157
 21
661.4889456888
 31
0.0
  0
LINE
  5
12D
330
76
100
AcDbEntity
  8
$DDT_AUDIT_GENERATED_(BB)
  6
Continuous
 62
     7
100
AcDbLine
 10
34.9445277024
 20
661.3738232808
 30
0.0
 11
35.5868267349
 21
661.1806406282
 31
0.0
  0
LINE
  5
12E
330
76
100
AcDbEntity
  8
$DDT_AUDIT_GENERATED_(BB)
  6
Continuous
 62
     7
100
AcDbLine
 10
35.1086199568
 20
661.3939289403
 30
0.0
 11
35.7600318157
 21
661.1980054459
 31
0.0
  0
ELLIPSE
  5
12F
330
76
100
AcDbEntity
  8
$DDT_AUDIT_GENERATED_(BB)
  6
Continuous
 62
     7
100
AcDbEllipse
 10
31.4237235208
 20
662.4674962289
 30
0.0
 11
8.499999757420481
 21
2.032821133646223E-8
 31
0.0
210
0.0
220
0.0
230
1.0
 40
0.1736481737
 41
-1.320761923704988
 42
-1.297231968499342
  0
ELLIPSE
  5
130
330
76
100
AcDbEntity
  8
$DDT_AUDIT_GENERATED_(BB)
  6
Continuous
 62
     7
100
AcDbEllipse
 10
31.4237234031
 20
662.467496305
 30
0.0
 11
8.500000000016092
 21
-1.748601263784622E-12
 31
0.0
210
0.0
220
0.0
230
1.0
 40
0.1736481777
 41
-1.297231961706944
 42
-1.058962528484372
  0
LINE
  5
131
330
76
100
AcDbEntity
  8
$DDT_AUDIT_GENERATED_(BB)
  6
Continuous
 62
     7
100
AcDbLine
 10
33.7201256173
 20
661.0463736137
 30
0.0
 11
33.7201256173
 21
661.2611467567
 31
0.0
  0
LINE
  5
132
330
76
100
AcDbEntity
  8
$DDT_AUDIT_GENERATED_(BB)
  6
Continuous
 62
     7
100
AcDbLine
 10
33.2275379577
 20
661.2314168474
 30
0.0
 11
33.5269404521
 21
661.0373849226
 31
0.0
  0
LINE
  5
133
330
76
100
AcDbEntity
  8
$DDT_AUDIT_GENERATED_(BB)
  6
Continuous
 62
     7
100
AcDbLine
 10
33.4182887387
 20
661.2419831748
 30
0.0
 11
33.7201256173
 21
661.0463736137
 31
0.0
  0
ARC
  5
134
330
76
100
AcDbEntity
  8
$DDT_AUDIT_GENERATED_(BB)
  6
Continuous
 62
     7
100
AcDbCircle
 10
31.4237234031
 20
691.7730939416
 30
0.0
 40
30.21725070590737
100
AcDbArc
 50
269.6681757198
 51
270.3318242802
  0
LINE
  5
135
330
76
100
AcDbEntity
  8
$DDT_AUDIT_GENERATED_(BB)
  6
Continuous
 62
     7
100
AcDbLine
 10
31.2487234031
 20
661.7939701513
 30
0.0
 11
31.2487234031
 21
661.5563499869
 31
0.0
  0
LINE
  5
136
330
76
100
AcDbEntity
  8
$DDT_AUDIT_GENERATED_(BB)
  6
Continuous
 62
     7
100
AcDbLine
 10
31.5987234031
 20
661.7939701513
 30
0.0
 11
31.5987234031
 21
661.5563499869
 31
0.0
  0
ELLIPSE
  5
137
330
76
100
AcDbEntity
  8
$DDT_AUDIT_GENERATED_(BB)
  6
Continuous
 62
     7
100
AcDbEllipse
 10
31.4237234014
 20
662.4674963045
 30
0.0
 11
-5.249999997833321
 21
2.702560397693787E-10
 31
0.0
210
0.0
220
0.0
230
1.0
 40
0.1736481776
 41
1.013858042076131
 42
1.080537060620731
  0
LINE
  5
138
330
76
100
AcDbEntity
  8
$DDT_AUDIT_GENERATED_(BB)
  6
Continuous
 62
     7
100
AcDbLine
 10
29.4570364842
 20
661.9367577255
 30
0.0
 11
28.6486276961
 21
661.6936146625
 31
0.0
  0
LINE
  5
139
330
76
100
AcDbEntity
  8
$DDT_AUDIT_GENERATED_(BB)
  6
Continuous
 62
     7
100
AcDbLine
 10
29.7231808145
 20
661.895251557
 30
0.0
 11
28.9517365874
 21
661.6632262314
 31
0.0
  0
LINE
  5
13A
330
76
100
AcDbEntity
  8
$DDT_AUDIT_GENERATED_(BB)
  6
Continuous
 62
     7
100
AcDbLine
 10
28.6486276961
 20
662.1541872657
 30
0.0
 11
28.6486276961
 21
661.6936146625
 31
0.0
  0
ELLIPSE
  5
13B
330
76
100
AcDbEntity
  8
$DDT_AUDIT_GENERATED_(BB)
  6
Continuous
 62
     7
100
AcDbEllipse
 10
31.4237234022
 20
662.4674963049
 30
0.0
 11
-5.249999999098725
 21
8.476552793013070E-11
 31
0.0
210
0.0
220
0.0
230
1.0
 40
0.1736481777
 41
0.4902592663791309
 42
0.5569382849082396
  0
LINE
  5
13C
330
76
100
AcDbEntity
  8
$DDT_AUDIT_GENERATED_(BB)
  6
Continuous
 62
     7
100
AcDbLine
 10
28.6846647991
 20
662.2279792706
 30
0.0
 11
26.7921166427
 21
662.0382402993
 31
0.0
  0
LINE
  5
13D
330
76
100
AcDbEntity
  8
$DDT_AUDIT_GENERATED_(BB)
  6
Continuous
 62
     7
100
AcDbLine
 10
28.7434378332
 20
662.1636925339
 30
0.0
 11
26.9671166427
 21
661.9856059926
 31
0.0
  0
LINE
  5
13E
330
76
100
AcDbEntity
  8
$DDT_AUDIT_GENERATED_(BB)
  6
Continuous
 62
     7
100
AcDbLine
 10
26.7921166427
 20
662.4371078739
 30
0.0
 11
26.7921166427
 21
662.0382402993
 31
0.0
  0
LINE
  5
13F
330
76
100
AcDbEntity
  8
$DDT_AUDIT_GENERATED_(BB)
  6
Continuous
 62
     7
100
AcDbLine
 10
28.6792972336
 20
662.7075514691
 30
0.0
 11
28.6792972336
 21
662.4978847361
 31
0.0
  0
ELLIPSE
  5
140
330
76
100
AcDbEntity
  8
$DDT_AUDIT_GENERATED_(BB)
  6
Continuous
 62
     7
100
AcDbEllipse
 10
31.4237234031
 20
662.467496305
 30
0.0
 11
2.749999999992737
 21
5.551115123125783E-14
 31
0.0
210
0.0
220
0.0
230
1.0
 40
0.1736481777
 41
3.077913261332593
 42
3.141592653589793
  0
LINE
  5
141
330
76
100
AcDbEntity
  8
$DDT_AUDIT_GENERATED_(BB)
  6
Continuous
 62
     7
100
AcDbLine
 10
28.6792972336
 20
662.4978847361
 30
0.0
 11
26.3395963617
 21
662.4978847361
 31
0.0
  0
LINE
  5
142
330
76
100
AcDbEntity
  8
$DDT_AUDIT_GENERATED_(BB)
  6
Continuous
 62
     7
100
AcDbLine
 10
28.6737234031
 20
662.4371078739
 30
0.0
 11
26.2621028021
 21
662.4371078739
 31
0.0
  0
LINE
  5
143
330
76
100
AcDbEntity
  8
$DDT_AUDIT_GENERATED_(BB)
  6
Continuous
 62
     7
100
AcDbLine
 10
29.1344806215
 20
663.0909533449
 30
0.0
 11
29.1344806215
 21
662.7320957599
 31
0.0
  0
ELLIPSE
  5
144
330
76
100
AcDbEntity
  8
$DDT_AUDIT_GENERATED_(BB)
  6
Continuous
 62
     7
100
AcDbEllipse
 10
31.4237234031
 20
662.467496305
 30
0.0
 11
-2.749999999993695
 21
-4.302114220422482E-12
 31
0.0
210
0.0
220
0.0
230
1.0
 40
0.1736481777
 41
-0.5872781678562786
 42
-0.4599193833420268
  0
LINE
  5
145
330
76
100
AcDbEntity
  8
$DDT_AUDIT_GENERATED_(BB)
  6
Continuous
 62
     7
100
AcDbLine
 10
29.1344806215
 20
662.7320957599
 30
0.0
 11
27.5675792182
 21
662.8891867482
 31
0.0
  0
LINE
  5
146
330
76
100
AcDbEntity
  8
$DDT_AUDIT_GENERATED_(BB)
  6
Continuous
 62
     7
100
AcDbLine
 10
28.9594806215
 20
662.6794614532
 30
0.0
 11
27.3348123802
 21
662.8423439035
 31
0.0
  0
LINE
  5
147
330
76
100
AcDbEntity
  8
$DDT_AUDIT_GENERATED_(BB)
  6
Continuous
 62
     7
100
AcDbLine
 10
30.203064764
 20
663.157203715
 30
0.0
 11
30.203064764
 21
662.8954075734
 31
0.0
  0
ELLIPSE
  5
148
330
76
100
AcDbEntity
  8
$DDT_AUDIT_GENERATED_(BB)
  6
Continuous
 62
     7
100
AcDbEllipse
 10
31.4237234031
 20
662.467496305
 30
0.0
 11
-2.750000000002029
 21
3.608224830031759E-13
 31
0.0
210
0.0
220
0.0
230
1.0
 40
0.1736481777
 41
-1.110876943453197
 42
-0.9835181589392228
  0
LINE
  5
149
330
76
100
AcDbEntity
  8
$DDT_AUDIT_GENERATED_(BB)
  6
Continuous
 62
     7
100
AcDbLine
 10
30.203064764
 20
662.8954075734
 30
0.0
 11
29.4677839934
 21
663.1165561078
 31
0.0
  0
LINE
  5
14A
330
76
100
AcDbEntity
  8
$DDT_AUDIT_GENERATED_(BB)
  6
Continuous
 62
     7
100
AcDbLine
 10
29.8999558727
 20
662.8650191423
 30
0.0
 11
29.1456487305
 21
663.0918901903
 31
0.0
  0
ARC
  5
14B
330
76
100
AcDbEntity
  8
$DDT_AUDIT_GENERATED_(BB)
  6
Continuous
 62
     7
100
AcDbCircle
 10
31.4237234031
 20
647.1395404898
 30
0.0
 40
15.80548925698434
100
AcDbArc
 50
89.3656022836
 51
90.6343977164
  0
LINE
  5
14C
330
76
100
AcDbEntity
  8
$DDT_AUDIT_GENERATED_(BB)
  6
Continuous
 62
     7
100
AcDbLine
 10
31.5987234031
 20
662.9440609081
 30
0.0
 11
31.5987234031
 21
663.1816810725
 31
0.0
  0
LINE
  5
14D
330
76
100
AcDbEntity
  8
$DDT_AUDIT_GENERATED_(BB)
  6
Continuous
 62
     7
100
AcDbLine
 10
31.2487234031
 20
662.9440609081
 30
0.0
 11
31.2487234031
 21
663.1816810725
 31
0.0
  0
ELLIPSE
  5
14E
330
76
100
AcDbEntity
  8
$DDT_AUDIT_GENERATED_(BB)
  6
Continuous
 62
     7
100
AcDbEllipse
 10
31.4237234031
 20
662.467496305
 30
0.0
 11
2.750000000057096
 21
7.216449660063518E-12
 31
0.0
210
0.0
220
0.0
230
1.0
 40
0.1736481777
 41
0.9835181589328188
 42
1.110876943444746
  0
LINE
  5
14F
330
76
100
AcDbEntity
  8
$DDT_AUDIT_GENERATED_(BB)
  6
Continuous
 62
     7
100
AcDbLine
 10
32.6443820422
 20
663.157203715
 30
0.0
 11
32.6443820422
 21
662.8954075734
 31
0.0
  0
LINE
  5
150
330
76
100
AcDbEntity
  8
$DDT_AUDIT_GENERATED_(BB)
  6
Continuous
 62
     7
100
AcDbLine
 10
32.9474909335
 20
662.8650191423
 30
0.0
 11
33.7017980757
 21
663.0918901903
 31
0.0
  0
LINE
  5
151
330
76
100
AcDbEntity
  8
$DDT_AUDIT_GENERATED_(BB)
  6
Continuous
 62
     7
100
AcDbLine
 10
32.6443820422
 20
662.8954075734
 30
0.0
 11
33.3796628128
 21
663.1165561078
 31
0.0
  0
ELLIPSE
  5
152
330
76
100
AcDbEntity
  8
$DDT_AUDIT_GENERATED_(BB)
  6
Continuous
 62
     7
100
AcDbEllipse
 10
31.4237234031
 20
662.467496305
 30
0.0
 11
2.749999999999239
 21
2.386979502944087E-12
 31
0.0
210
0.0
220
0.0
230
1.0
 40
0.1736481777
 41
0.459919383341
 42
0.5872781678550989
  0
LINE
  5
153
330
76
100
AcDbEntity
  8
$DDT_AUDIT_GENERATED_(BB)
  6
Continuous
 62
     7
100
AcDbLine
 10
33.7129661847
 20
663.0909533449
 30
0.0
 11
33.7129661847
 21
662.7320957599
 31
0.0
  0
LINE
  5
154
330
76
100
AcDbEntity
  8
$DDT_AUDIT_GENERATED_(BB)
  6
Continuous
 62
     7
100
AcDbLine
 10
33.8879661847
 20
662.6794614532
 30
0.0
 11
35.5126344261
 21
662.8423439035
 31
0.0
  0
LINE
  5
155
330
76
100
AcDbEntity
  8
$DDT_AUDIT_GENERATED_(BB)
  6
Continuous
 62
     7
100
AcDbLine
 10
33.7129661847
 20
662.7320957599
 30
0.0
 11
35.279867588
 21
662.8891867482
 31
0.0
  0
ELLIPSE
  5
156
330
76
100
AcDbEntity
  8
$DDT_AUDIT_GENERATED_(BB)
  6
Continuous
 62
     7
100
AcDbEllipse
 10
31.4237234031
 20
662.467496305
 30
0.0
 11
-2.750000000012215
 21
-5.551115123125783E-14
 31
0.0
210
0.0
220
0.0
230
1.0
 40
0.1736481777
 41
3.141592653589793
 42
3.205272045846588
  0
LINE
  5
157
330
76
100
AcDbEntity
  8
$DDT_AUDIT_GENERATED_(BB)
  6
Continuous
 62
     7
100
AcDbLine
 10
34.1681495726
 20
662.7075514691
 30
0.0
 11
34.1681495726
 21
662.4978847361
 31
0.0
  0
LINE
  5
158
330
76
100
AcDbEntity
  8
$DDT_AUDIT_GENERATED_(BB)
  6
Continuous
 62
     7
100
AcDbLine
 10
34.1737234031
 20
662.4371078739
 30
0.0
 11
36.5853440041
 21
662.4371078739
 31
0.0
  0
LINE
  5
159
330
76
100
AcDbEntity
  8
$DDT_AUDIT_GENERATED_(BB)
  6
Continuous
 62
     7
100
AcDbLine
 10
34.1681495726
 20
662.4978847361
 30
0.0
 11
36.5078504445
 21
662.4978847361
 31
0.0
  0
ELLIPSE
  5
15A
330
76
100
AcDbEntity
  8
$DDT_AUDIT_GENERATED_(BB)
  6
Continuous
 62
     7
100
AcDbEllipse
 10
31.4237234038
 20
662.4674963049
 30
0.0
 11
5.249999999249355
 21
7.149836278586008E-11
 31
0.0
210
0.0
220
0.0
230
1.0
 40
0.1736481777
 41
-0.5569382848999203
 42
-0.4902592663718695
  0
LINE
  5
15B
330
76
100
AcDbEntity
  8
$DDT_AUDIT_GENERATED_(BB)
  6
Continuous
 62
     7
100
AcDbLine
 10
34.104008973
 20
662.1636925339
 30
0.0
 11
35.8803301635
 21
661.9856059926
 31
0.0
  0
LINE
  5
15C
330
76
100
AcDbEntity
  8
$DDT_AUDIT_GENERATED_(BB)
  6
Continuous
 62
     7
100
AcDbLine
 10
34.1627820071
 20
662.2279792706
 30
0.0
 11
36.0553301635
 21
662.0382402993
 31
0.0
  0
LINE
  5
15D
330
76
100
AcDbEntity
  8
$DDT_AUDIT_GENERATED_(BB)
  6
Continuous
 62
     7
100
AcDbLine
 10
36.0553301635
 20
662.4371078739
 30
0.0
 11
36.0553301635
 21
662.0382402993
 31
0.0
  0
ELLIPSE
  5
15E
330
76
100
AcDbEntity
  8
$DDT_AUDIT_GENERATED_(BB)
  6
Continuous
 62
     7
100
AcDbEllipse
 10
31.4237234022
 20
662.4674963053
 30
0.0
 11
5.250000001113718
 21
-1.369182545118974E-10
 31
0.0
210
0.0
220
0.0
230
1.0
 40
0.1736481777
 41
-1.080537060373955
 42
-1.013858041862655
  0
LINE
  5
15F
330
76
100
AcDbEntity
  8
$DDT_AUDIT_GENERATED_(BB)
  6
Continuous
 62
     7
100
AcDbLine
 10
33.1242659917
 20
661.895251557
 30
0.0
 11
33.8957102188
 21
661.6632262314
 31
0.0
  0
LINE
  5
160
330
76
100
AcDbEntity
  8
$DDT_AUDIT_GENERATED_(BB)
  6
Continuous
 62
     7
100
AcDbLine
 10
33.390410322
 20
661.9367577255
 30
0.0
 11
34.1988191101
 21
661.6936146625
 31
0.0
  0
LINE
  5
161
330
76
100
AcDbEntity
  8
$DDT_AUDIT_GENERATED_(BB)
  6
Continuous
 62
     7
100
AcDbLine
 10
34.1988191101
 20
662.1541872657
 30
0.0
 11
34.1988191101
 21
661.6936146625
 31
0.0
  0
LINE
  5
162
330
76
100
AcDbEntity
  8
$DDT_AUDIT_GENERATED_(BB)
  6
Continuous
 62
     7
100
AcDbLine
 10
22.4237234031
 20
663.3030701152
 30
0.0
 11
22.4237234031
 21
662.2705347544
 31
0.0
  0
LINE
  5
163
330
76
100
AcDbEntity
  8
$DDT_AUDIT_GENERATED_(BB)
  6
Continuous
 62
     7
100
AcDbLine
 10
40.4237234031
 20
662.2705347544
 30
0.0
 11
40.4237234031
 21
663.3030701152
 31
0.0
  0
LINE
  5
164
330
76
100
AcDbEntity
  8
$DDT_AUDIT_GENERATED_(BB)
  6
Continuous
 62
     7
100
AcDbLine
 10
25.1737234031
 20
662.467496305
 30
0.0
 11
25.1737234031
 21
662.2705347544
 31
0.0
  0
LINE
  5
165
330
76
100
AcDbEntity
  8
$DDT_AUDIT_GENERATED_(BB)
  6
Continuous
 62
     7
100
AcDbLine
 10
37.6737234031
 20
662.2705347544
 30
0.0
 11
37.6737234031
 21
662.467496305
 31
0.0
  0
LINE
  5
166
330
76
100
AcDbEntity
  8
$DDT_AUDIT_GENERATED_(BB)
  6
Continuous
 62
     7
100
AcDbLine
 10
28.6737234031
 20
662.467496305
 30
0.0
 11
28.6737234031
 21
662.2705347544
 31
0.0
  0
LINE
  5
167
330
76
100
AcDbEntity
  8
$DDT_AUDIT_GENERATED_(BB)
  6
Continuous
 62
     7
100
AcDbLine
 10
34.1737234031
 20
662.2705347544
 30
0.0
 11
34.1737234031
 21
662.467496305
 31
0.0
  0
LINE
  5
168
330
76
100
AcDbEntity
  8
$DDT_AUDIT_GENERATED_(BB)
  6
Continuous
 62
     7
100
AcDbLine
 10
30.9040934592
 20
662.6328101653
 30
0.0
 11
30.9040934592
 21
662.467496305
 31
0.0
  0
LINE
  5
169
330
76
100
AcDbEntity
  8
$DDT_AUDIT_GENERATED_(BB)
  6
Continuous
 62
     7
100
AcDbLine
 10
31.943353347
 20
662.467496305
 30
0.0
 11
31.943353347
 21
662.6328101653
 31
0.0
  0
ELLIPSE
  5
16B
330
76
100
AcDbEntity
  8
$DDT_AUDIT_GENERATED_(16A)
  6
Continuous
 62
     7
100
AcDbEllipse
 10
72.4359167119
 20
591.8909515633
 30
0.0
 11
0.0
 21
3.530588062451523
 31
0.0
210
0.0
220
0.0
230
1.0
 40
1.0
 41
4.205671363046132
 42
4.71238898038469
  0
ELLIPSE
  5
16C
330
76
100
AcDbEntity
  8
$DDT_AUDIT_GENERATED_(16A)
  6
Continuous
 62
     7
100
AcDbEllipse
 10
72.4359167119
 20
591.8909515633
 30
0.0
 11
0.0
 21
3.449999999999989
 31
0.0
210
0.0
220
0.0
230
1.0
 40
1.0
 41
1.570796326794897
 42
2.019514521297399
  0
ARC
  5
16E
330
76
100
AcDbEntity
  8
$DDT_AUDIT_GENERATED_(16D)
  6
Continuous
 62
     7
100
AcDbCircle
 10
72.4359167119
 20
570.7837490538
 30
0.0
 40
24.49999999999999
100
AcDbArc
 50
157.1491804162
 51
164.8572685595
  0
ARC
  5
16F
330
76
100
AcDbEntity
  8
$DDT_AUDIT_GENERATED_(16D)
  6
Continuous
 62
     7
100
AcDbCircle
 10
72.4359167119
 20
570.7837490538
 30
0.0
 40
24.5
100
AcDbArc
 50
15.1427314405
 51
22.8460551898
  0
LINE
  5
171
330
76
100
AcDbEntity
  8
$DDT_AUDIT_GENERATED_(170)
  6
Continuous
 62
     7
100
AcDbLine
 10
41.4237234031
 20
561.2137872847
 30
0.0
 11
41.4237234031
 21
561.6837490538
 31
0.0
  0
LINE
  5
172
330
76
100
AcDbEntity
  8
$DDT_AUDIT_GENERATED_(170)
  6
Continuous
 62
     7
100
AcDbLine
 10
21.4237234031
 20
561.6837490538
 30
0.0
 11
21.4237234031
 21
560.9297973405
 31
0.0
  0
LINE
  5
174
330
76
100
AcDbEntity
  8
$DDT_AUDIT_GENERATED_(173)
  6
Continuous
 62
     7
100
AcDbLine
 10
19.9237234031
 20
561.6837490538
 30
0.0
 11
42.9237234031
 21
561.6837490538
 31
0.0
  0
ELLIPSE
  5
175
330
76
100
AcDbEntity
  8
$DDT_AUDIT_GENERATED_(173)
  6
Continuous
 62
     7
100
AcDbEllipse
 10
31.4237234031
 20
679.6298634722
 30
0.0
 11
11.00000000000023
 21
1.942890293094024E-13
 31
0.0
210
0.0
220
0.0
230
1.0
 40
0.1736481777
 41
0.105528861522239
 42
3.036063794623116
  0
ARC
  5
176
330
76
100
AcDbEntity
  8
$DDT_AUDIT_GENERATED_(173)
  6
Continuous
 62
     7
100
AcDbCircle
 10
31.4237234031
 20
776.1837490538
 30
0.0
 40
11.5
100
AcDbArc
 50
0.0
 51
180.0
  0
LINE
  5
177
330
76
100
AcDbEntity
  8
$DDT_AUDIT_GENERATED_(173)
  6
Continuous
 62
     7
100
AcDbLine
 10
42.9237234031
 20
679.3686194443
 30
0.0
 11
42.9237234031
 21
680.932641674
 31
0.0
  0
LINE
  5
178
330
76
100
AcDbEntity
  8
$DDT_AUDIT_GENERATED_(173)
  6
Continuous
 62
     7
100
AcDbLine
 10
42.9237234031
 20
684.871872686
 30
0.0
 11
42.9237234031
 21
776.1837490538
 31
0.0
  0
LINE
  5
179
330
76
100
AcDbEntity
  8
$DDT_AUDIT_GENERATED_(173)
  6
Continuous
 62
     7
100
AcDbLine
 10
19.9237234031
 20
776.1837490538
 30
0.0
 11
19.9237234031
 21
684.871872686
 31
0.0
  0
LINE
  5
17A
330
76
100
AcDbEntity
  8
$DDT_AUDIT_GENERATED_(173)
  6
Continuous
 62
     7
100
AcDbLine
 10
19.9237234031
 20
680.932641674
 30
0.0
 11
19.9237234031
 21
679.3714413261
 31
0.0
  0
LINE
  5
17B
330
76
100
AcDbEntity
  8
$DDT_AUDIT_GENERATED_(173)
  6
Continuous
 62
     7
100
AcDbLine
 10
42.9237234031
 20
561.6837490538
 30
0.0
 11
42.9237234031
 21
663.0792932076
 31
0.0
  0
LINE
  5
17C
330
76
100
AcDbEntity
  8
$DDT_AUDIT_GENERATED_(173)
  6
Continuous
 62
     7
100
AcDbLine
 10
19.9237234031
 20
663.063878338
 30
0.0
 11
19.9237234031
 21
561.6837490538
 31
0.0
  0
LINE
  5
17D
330
76
100
AcDbEntity
  8
$DDT_AUDIT_GENERATED_(173)
  6
Continuous
 62
     7
100
AcDbLine
 10
42.9237234031
 20
680.932641674
 30
0.0
 11
42.9237234031
 21
684.871872686
 31
0.0
  0
LINE
  5
17E
330
76
100
AcDbEntity
  8
$DDT_AUDIT_GENERATED_(173)
  6
Continuous
 62
     7
100
AcDbLine
 10
19.9237234031
 20
684.871872686
 30
0.0
 11
19.9237234031
 21
680.932641674
 31
0.0
  0
ARC
  5
17F
330
76
100
AcDbEntity
  8
$DDT_AUDIT_GENERATED_(173)
  6
Continuous
 62
     7
100
AcDbCircle
 10
22.2462225524
 20
680.9332152432
 30
0.0
 40
2.32091141156513
100
AcDbArc
 50
180.1621567327
 51
212.4512778287
  0
ARC
  5
180
330
76
100
AcDbEntity
  8
$DDT_AUDIT_GENERATED_(173)
  6
Continuous
 62
     7
100
AcDbCircle
 10
40.6251330329
 20
680.9197504064
 30
0.0
 40
2.294031056651312
100
AcDbArc
 50
328.3529566018
 51
0.3114087259
  0
ENDBLK
  5
182
330
76
100
AcDbEntity
  8
0
100
AcDbBlockEnd
  0
BLOCK
  5
1F3
330
183
100
AcDbEntity
  8
0
100
AcDbBlockBegin
  2
SE1
 70
     0
 10
0.0
 20
0.0
 30
0.0
  3
SE1
  1

  0
LINE
  5
185
330
183
100
AcDbEntity
  8
$DDT_AUDIT_GENERATED_(78)
  6
Continuous
 62
     7
100
AcDbLine
 10
203.4625165533
 20
577.1837490538
 30
0.0
 11
252.4625165533
 21
577.1837490538
 31
0.0
  0
ARC
  5
186
330
183
100
AcDbEntity
  8
$DDT_AUDIT_GENERATED_(78)
  6
Continuous
 62
     7
100
AcDbCircle
 10
185.3915498716
 20
380.9409368427
 30
0.0
 40
180.2178068338709
100
AcDbArc
 50
87.1602409094
 51
92.8477709386
  0
LINE
  5
187
330
183
100
AcDbEntity
  8
$DDT_AUDIT_GENERATED_(78)
  6
Continuous
 62
     7
100
AcDbLine
 10
179.4550229359
 20
516.0842658605
 30
0.0
 11
203.222147135
 21
515.7883578684
 31
0.0
  0
ELLIPSE
  5
188
330
183
100
AcDbEntity
  8
$DDT_AUDIT_GENERATED_(78)
  6
Continuous
 62
     7
100
AcDbEllipse
 10
186.9441526521
 20
516.0834662296
 30
0.0
 11
10.49999999238741
 21
-0.06479615486934542
 31
0.0
210
0.0
220
0.0
230
1.0
 40
0.0061705924
 41
0.794162888768021
 42
3.91830224983777
  0
SPLINE
  5
189
330
183
100
AcDbEntity
  8
$DDT_AUDIT_GENERATED_(78)
  6
Continuous
 62
     7
100
AcDbSpline
210
0.0
220
0.0
230
1.0
 70
     8
 71
     3
 72
    18
 73
    14
 74
     0
 42
0.0000000069224933
 43
0.0000000001
 40
0.0
 40
0.0
 40
0.0
 40
0.0
 40
0.0445103597381889
 40
0.1216144747286944
 40
0.2312604701210571
 40
0.3410382767169503
 40
0.4631712754231535
 40
0.5844218001675835
 40
0.7100573939053937
 40
0.7795928905036493
 40
0.8438372704348457
 40
0.9204466795665154
 40
1.0
 40
1.0
 40
1.0
 40
1.0
 10
219.2958376026163
 20
560.2515070558891
 30
0.0
 10
219.2958913773119
 20
560.2751426877587
 30
0.0
 10
219.2960383044855
 20
560.3397216974907
 30
0.0
 10
219.2866651750388
 20
560.4617258683755
 30
0.0
 10
219.2586095649321
 20
560.6137986356641
 30
0.0
 10
219.2080331290551
 20
560.7773458326084
 30
0.0
 10
219.1404022245049
 20
560.9282141610647
 30
0.0
 10
219.0526684274687
 20
561.0601992475681
 30
0.0
 10
218.9519742688063
 20
561.1475880896937
 30
0.0
 10
218.8496267228844
 20
561.1988631629529
 30
0.0
 10
218.7546349214003
 20
561.2282298277084
 30
0.0
 10
218.6439733685084
 20
561.2462881365201
 30
0.0
 10
218.5612078906017
 20
561.2488533044415
 30
0.0
 10
218.5190450223995
 20
561.2501600671127
 30
0.0
  0
LINE
  5
18A
330
183
100
AcDbEntity
  8
$DDT_AUDIT_GENERATED_(78)
  6
Continuous
 62
     7
100
AcDbLine
 10
219.2958376026
 20
516.7871029526
 30
0.0
 11
219.2958376026
 21
560.2515070559
 31
0.0
  0
LINE
  5
18B
330
183
100
AcDbEntity
  8
$DDT_AUDIT_GENERATED_(78)
  6
Continuous
 62
     7
100
AcDbLine
 10
218.4893012218
 20
515.7883578684
 30
0.0
 11
194.3036999272
 21
516.0842658605
 31
0.0
  0
SPLINE
  5
18C
330
183
100
AcDbEntity
  8
$DDT_AUDIT_GENERATED_(78)
  6
Continuous
 62
     7
100
AcDbSpline
210
0.0
220
0.0
230
1.0
 70
     8
 71
     3
 72
    15
 73
    11
 74
     0
 42
0.000000006795817
 43
0.0000000001
 40
0.0
 40
0.0
 40
0.0
 40
0.0
 40
0.1551390984175505
 40
0.289104697871043
 40
0.4151099611636049
 40
0.536808464986159
 40
0.6539931128865741
 40
0.7692554663893434
 40
0.8844720676530301
 40
1.0
 40
1.0
 40
1.0
 40
1.0
 10
218.4893012218155
 20
515.7883578683912
 30
0.0
 10
218.5731065455285
 20
515.7913128950977
 30
0.0
 10
218.7292793803534
 20
515.7968196442787
 30
0.0
 10
218.9097544069733
 20
515.866835783351
 30
0.0
 10
219.0350363353223
 20
515.9704406461593
 30
0.0
 10
219.1274885247681
 20
516.1012213793069
 30
0.0
 10
219.1999995672703
 20
516.253014973938
 30
0.0
 10
219.2558136066163
 20
516.4209687082617
 30
0.0
 10
219.2923748250009
 20
516.6007672153172
 30
0.0
 10
219.2946823056209
 20
516.724935195773
 30
0.0
 10
219.2958376026101
 20
516.7871029525613
 30
0.0
  0
ARC
  5
18D
330
183
100
AcDbEntity
  8
$DDT_AUDIT_GENERATED_(78)
  6
Continuous
 62
     7
100
AcDbCircle
 10
210.8698965126
 20
277.80199692
 30
0.0
 40
283.5513545451821
100
AcDbArc
 50
88.4541879548
 51
90.8998088064
  0
LINE
  5
18E
330
183
100
AcDbEntity
  8
$DDT_AUDIT_GENERATED_(78)
  6
Continuous
 62
     7
100
AcDbLine
 10
204.538806651
 20
449.1837490538
 30
0.0
 11
204.5199772842
 21
449.1837490538
 31
0.0
  0
SPLINE
  5
18F
330
183
100
AcDbEntity
  8
$DDT_AUDIT_GENERATED_(78)
  6
Continuous
 62
     7
100
AcDbSpline
210
0.0
220
0.0
230
1.0
 70
     8
 71
     3
 72
    20
 73
    16
 74
     0
 42
0.0000000002298872
 43
0.0000000001
 40
0.0
 40
0.0
 40
0.0
 40
0.0
 40
0.0625000000000001
 40
0.0625000000000001
 40
0.1250000000000001
 40
0.1250000000000001
 40
0.1875000000000002
 40
0.1875000000000002
 40
0.2500000000000002
 40
0.2500000000000002
 40
0.3125000000000002
 40
0.3125000000000002
 40
0.3750000000000002
 40
0.3750000000000002
 40
0.4083871031494328
 40
0.4083871031494328
 40
0.4083871031494328
 40
0.4083871031494328
 10
179.7024787373326
 20
560.9846576385879
 30
0.0
 10
180.6601935609872
 20
560.9846576385879
 30
0.0
 10
181.7885055186486
 20
560.9785836064241
 30
0.0
 10
184.2716637273144
 20
560.9610571337795
 30
0.0
 10
185.6141949204578
 20
560.949868861279
 30
0.0
 10
188.288979846414
 20
560.9325282990056
 30
0.0
 10
189.6376449103473
 20
560.9264494780537
 30
0.0
 10
192.1049147885733
 20
560.9263334392518
 30
0.0
 10
193.2490212645763
 20
560.9323479698246
 30
0.0
 10
195.1406389409647
 20
560.9571429674231
 30
0.0
 10
195.9029962830093
 20
560.976032835395
 30
0.0
 10
196.932259937082
 20
561.0213260976077
 30
0.0
 10
197.1996557790307
 20
561.0474024795136
 30
0.0
 10
197.2006778936393
 20
561.0859073770639
 30
0.0
 10
197.1250354440648
 20
561.0987494606243
 30
0.0
 10
196.9761031805685
 20
561.1103348522862
 30
0.0
  0
SPLINE
  5
190
330
183
100
AcDbEntity
  8
$DDT_AUDIT_GENERATED_(78)
  6
Continuous
 62
     7
100
AcDbSpline
210
0.0
220
0.0
230
1.0
 70
     8
 71
     3
 72
    10
 73
     6
 74
     0
 42
0.000000001488262
 43
0.0000000001
 40
0.8424190052955316
 40
0.8424190052955316
 40
0.8424190052955316
 40
0.8424190052955316
 40
0.875
 40
0.875
 40
0.875142183919145
 40
0.875142183919145
 40
0.875142183919145
 40
0.875142183919145
 10
176.916044257587
 20
560.9302057074535
 30
0.0
 10
176.7735478836527
 20
560.9328226681948
 30
0.0
 10
176.700908073133
 20
560.9366330197047
 30
0.0
 10
176.7003242653241
 20
560.9411711543218
 30
0.0
 10
176.7003231404654
 20
560.9411908841854
 30
0.0
 10
176.7003234270339
 20
560.9412106254292
 30
0.0
  0
SPLINE
  5
191
330
183
100
AcDbEntity
  8
$DDT_AUDIT_GENERATED_(78)
  6
Continuous
 62
     7
100
AcDbSpline
210
0.0
220
0.0
230
1.0
 70
     8
 71
     3
 72
     8
 73
     4
 74
     0
 42
0.0000000003301878
 43
0.0000000001
 40
0.9498613533878175
 40
0.9498613533878175
 40
0.9498613533878175
 40
0.9498613533878175
 40
0.9568673491598801
 40
0.9568673491598801
 40
0.9568673491598801
 40
0.9568673491598801
 10
177.8135842177517
 20
560.97428495327
 30
0.0
 10
177.881392525908
 20
560.9751459971454
 30
0.0
 10
177.9521306462854
 20
560.975968937792
 30
0.0
 10
178.0257519728554
 20
560.9767476117079
 30
0.0
  0
SPLINE
  5
192
330
183
100
AcDbEntity
  8
$DDT_AUDIT_GENERATED_(78)
  6
Continuous
 62
     7
100
AcDbSpline
210
0.0
220
0.0
230
1.0
 70
     8
 71
     3
 72
     8
 73
     4
 74
     0
 42
0.0000000002551723
 43
0.0000000001
 40
0.9587175668089938
 40
0.9587175668089938
 40
0.9587175668089938
 40
0.9587175668089938
 40
1.0
 40
1.0
 40
1.0
 40
1.0
 10
178.0846824737209
 20
560.9773551575803
 30
0.0
 10
178.5274461552605
 20
560.9818031461895
 30
0.0
 10
179.0698899657557
 20
560.9846576385879
 30
0.0
 10
179.7024787373326
 20
560.9846576385879
 30
0.0
  0
LINE
  5
193
330
183
100
AcDbEntity
  8
$DDT_AUDIT_GENERATED_(78)
  6
Continuous
 62
     7
100
AcDbLine
 10
204.5199772842
 20
449.1837490538
 30
0.0
 11
204.4516979181
 21
449.1837490538
 31
0.0
  0
SPLINE
  5
194
330
183
100
AcDbEntity
  8
$DDT_AUDIT_GENERATED_(78)
  6
Continuous
 62
     7
100
AcDbSpline
210
0.0
220
0.0
230
1.0
 70
     8
 71
     3
 72
    10
 73
     6
 74
     0
 42
0.000000037341759
 43
0.0000000001
 40
0.0
 40
0.0
 40
0.0
 40
0.0
 40
0.5
 40
0.5
 40
1.0
 40
1.0
 40
1.0
 40
1.0
 10
218.7293495731244
 20
449.3837490538495
 30
0.0
 10
218.6877214527552
 20
449.33883821086
 30
0.0
 10
218.6508830748439
 20
449.2933774945022
 30
0.0
 10
218.6031261856049
 20
449.2158673935213
 30
0.0
 10
218.593821753231
 20
449.1837490538495
 30
0.0
 10
218.6173891009337
 20
449.1837490538495
 30
0.0
  0
LINE
  5
195
330
183
100
AcDbEntity
  8
$DDT_AUDIT_GENERATED_(78)
  6
Continuous
 62
     7
100
AcDbLine
 10
217.3079586713
 20
515.7926530702
 30
0.0
 11
218.4893012218
 21
515.7883578684
 31
0.0
  0
ELLIPSE
  5
196
330
183
100
AcDbEntity
  8
$DDT_AUDIT_GENERATED_(78)
  6
Continuous
 62
     7
100
AcDbEllipse
 10
187.2324495968
 20
516.0799081682
 30
0.0
 11
9.614468351365154
 21
-0.05933148405141975
 31
0.0
210
0.0
220
0.0
230
1.0
 40
0.0061705924
 41
0.7855124021799087
 42
3.141832496458777
  0
LINE
  5
197
330
183
100
AcDbEntity
  8
$DDT_AUDIT_GENERATED_(78)
  6
Continuous
 62
     7
100
AcDbLine
 10
194.0303875826
 20
516.0799145582
 30
0.0
 11
217.3079157335
 21
515.7926532188
 31
0.0
  0
ARC
  5
198
330
183
100
AcDbEntity
  8
$DDT_AUDIT_GENERATED_(78)
  6
Continuous
 62
     7
100
AcDbCircle
 10
218.0601458324
 20
516.7539071795
 30
0.0
 40
1.964873735944278
100
AcDbArc
 50
269.0176870431
 51
272.6002415712
  0
LINE
  5
199
330
183
100
AcDbEntity
  8
$DDT_AUDIT_GENERATED_(78)
  6
Continuous
 62
     7
100
AcDbLine
 10
253.4625165533
 20
449.3837490538
 30
0.0
 11
253.4625165533
 21
576.1837490538
 31
0.0
  0
LINE
  5
19A
330
183
100
AcDbEntity
  8
$DDT_AUDIT_GENERATED_(78)
  6
Continuous
 62
     7
100
AcDbLine
 10
202.4625165533
 20
576.1837490538
 30
0.0
 11
202.4625165533
 21
561.283154291
 31
0.0
  0
LINE
  5
19B
330
183
100
AcDbEntity
  8
$DDT_AUDIT_GENERATED_(78)
  6
Continuous
 62
     7
100
AcDbLine
 10
202.4625165533
 20
515.7978155023
 30
0.0
 11
202.4625165533
 21
449.3837490538
 31
0.0
  0
LINE
  5
19C
330
183
100
AcDbEntity
  8
$DDT_AUDIT_GENERATED_(78)
  6
Continuous
 62
     7
100
AcDbLine
 10
175.4503232445
 20
559.9362684291
 30
0.0
 11
175.4503232445
 21
517.1482218403
 31
0.0
  0
LINE
  5
19D
330
183
100
AcDbEntity
  8
$DDT_AUDIT_GENERATED_(78)
  6
Continuous
 62
     7
100
AcDbLine
 10
177.8385421715
 20
560.9751179375
 30
0.0
 11
177.6501512802
 21
560.9727612406
 31
0.0
  0
LINE
  5
19E
330
183
100
AcDbEntity
  8
$DDT_AUDIT_GENERATED_(78)
  6
Continuous
 62
     7
100
AcDbLine
 10
206.4465327522
 20
561.3329927859
 30
0.0
 11
196.9503232445
 21
561.2141988941
 31
0.0
  0
ARC
  5
19F
330
183
100
AcDbEntity
  8
$DDT_AUDIT_GENERATED_(78)
  6
Continuous
 62
     7
100
AcDbCircle
 10
252.4625165533
 20
576.1837490538
 30
0.0
 40
1.000000000000001
100
AcDbArc
 50
0.0
 51
90.0
  0
ARC
  5
1A0
330
183
100
AcDbEntity
  8
$DDT_AUDIT_GENERATED_(78)
  6
Continuous
 62
     7
100
AcDbCircle
 10
203.4625165533
 20
576.1837490538
 30
0.0
 40
1.000000000000001
100
AcDbArc
 50
90.0
 51
180.0
  0
ARC
  5
1A1
330
183
100
AcDbEntity
  8
$DDT_AUDIT_GENERATED_(78)
  6
Continuous
 62
     7
100
AcDbCircle
 10
253.2625165533
 20
449.3837490538
 30
0.0
 40
0.2000000000000028
100
AcDbArc
 50
270.0
 51
0.0
  0
ARC
  5
1A2
330
183
100
AcDbEntity
  8
$DDT_AUDIT_GENERATED_(78)
  6
Continuous
 62
     7
100
AcDbCircle
 10
202.6625165533
 20
449.3837490538
 30
0.0
 40
0.2000000000000023
100
AcDbArc
 50
180.0
 51
270.0
  0
SPLINE
  5
1A3
330
183
100
AcDbEntity
  8
$DDT_AUDIT_GENERATED_(78)
  6
Continuous
 62
     7
100
AcDbSpline
210
0.0
220
0.0
230
1.0
 70
     8
 71
     3
 72
    14
 73
    10
 74
     0
 42
0.0000000071960901
 43
0.0000000001
 40
0.0
 40
0.0
 40
0.0
 40
0.0
 40
0.0622883278981711
 40
0.165016601090485
 40
0.3251655930455053
 40
0.5161275621157965
 40
0.7425092454575506
 40
0.9889755582766596
 40
1.0
 40
1.0
 40
1.0
 40
1.0
 10
176.2504842571651
 20
560.9164688165033
 30
0.0
 10
176.2349964841752
 20
560.9135598389687
 30
0.0
 10
176.1989688547291
 20
560.9061322411245
 30
0.0
 10
176.0705875922462
 20
560.8673998204954
 30
0.0
 10
175.8797625394715
 20
560.7707078265362
 30
0.0
 10
175.6654868473703
 20
560.5824818328078
 30
0.0
 10
175.5064335685532
 20
560.3052661714715
 30
0.0
 10
175.43034258877
 20
560.0572797908865
 30
0.0
 10
175.4522075217423
 20
559.940337607763
 30
0.0
 10
175.4532969857727
 20
559.9345373231712
 30
0.0
  0
SPLINE
  5
1A4
330
183
100
AcDbEntity
  8
$DDT_AUDIT_GENERATED_(78)
  6
Continuous
 62
     7
100
AcDbSpline
210
0.0
220
0.0
230
1.0
 70
     8
 71
     3
 72
    23
 73
    19
 74
     0
 42
0.0000000021806683
 43
0.0000000001
 40
0.0
 40
0.0
 40
0.0
 40
0.0
 40
0.0139701762338121
 40
0.0508967260644217
 40
0.0805751440623111
 40
0.1056733515200982
 40
0.1267074922666954
 40
0.1429148310970863
 40
0.1553132625991205
 40
0.1691857464152476
 40
0.1923326595918274
 40
0.2432117788953085
 40
0.3550585988466172
 40
0.501526963517528
 40
0.6565099088585866
 40
0.8087294923175709
 40
0.9602595034983937
 40
1.0
 40
1.0
 40
1.0
 40
1.0
 10
175.4655401690056
 20
517.149718683759
 30
0.0
 10
175.4606911180744
 20
517.1023496272759
 30
0.0
 10
175.4468868710661
 20
516.9537592447648
 30
0.0
 10
175.5396394466399
 20
516.703321931328
 30
0.0
 10
175.6999548725159
 20
516.4702253720525
 30
0.0
 10
175.8799286471616
 20
516.317448750549
 30
0.0
 10
176.0464680369061
 20
516.2280608059643
 30
0.0
 10
176.1757075826158
 20
516.1842194099308
 30
0.0
 10
176.2588171996672
 20
516.1650344535349
 30
0.0
 10
176.3218080819908
 20
516.1544670666465
 30
0.0
 10
176.3871097231882
 20
516.1469804531442
 30
0.0
 10
176.4721213682681
 20
516.1409094996181
 30
0.0
 10
176.6375519165202
 20
516.1334997678701
 30
0.0
 10
176.9887743645592
 20
516.1235168008203
 30
0.0
 10
177.5494202530677
 20
516.1119686729727
 30
0.0
 10
178.2783054482838
 20
516.0999412513347
 30
0.0
 10
178.9674621423142
 20
516.0903699603612
 30
0.0
 10
179.3543817175136
 20
516.0854906475231
 30
0.0
 10
179.4487441862561
 20
516.0843052795803
 30
0.0
  0
SPLINE
  5
1A5
330
183
100
AcDbEntity
  8
$DDT_AUDIT_GENERATED_(78)
  6
Continuous
 62
     7
100
AcDbSpline
210
0.0
220
0.0
230
1.0
 70
     8
 71
     3
 72
     8
 73
     4
 74
     0
 42
0.0000000001524556
 43
0.0000000001
 40
0.0
 40
0.0
 40
0.0
 40
0.0
 40
1.0
 40
1.0
 40
1.0
 40
1.0
 10
218.0262562329901
 20
514.7893140366784
 30
0.0
 10
218.121831805034
 20
503.7465121055891
 30
0.0
 10
218.3142226263047
 20
481.883062825005
 30
0.0
 10
218.603428696802
 20
449.1989661949264
 30
0.0
  0
SPLINE
  5
1A6
330
183
100
AcDbEntity
  8
$DDT_AUDIT_GENERATED_(78)
  6
Continuous
 62
     7
100
AcDbSpline
210
0.0
220
0.0
230
1.0
 70
     8
 71
     3
 72
    12
 73
     8
 74
     0
 42
0.0000000084860801
 43
0.0000000001
 40
0.0
 40
0.0
 40
0.0
 40
0.0
 40
0.1404957029148685
 40
0.4411862063814749
 40
0.6990183605814845
 40
0.9326348583728733
 40
1.0
 40
1.0
 40
1.0
 40
1.0
 10
217.2919919861117
 20
515.7825840438582
 30
0.0
 10
217.3432928903891
 20
515.7835439850957
 30
0.0
 10
217.4817510939787
 20
515.7830094104678
 30
0.0
 10
217.6782430862327
 20
515.6633272628133
 30
0.0
 10
217.8741822436125
 20
515.4188461387258
 30
0.0
 10
217.9844769125679
 20
515.1734875418354
 30
0.0
 10
217.995853038376
 20
515.0340484152209
 30
0.0
 10
217.9986394153088
 20
514.9978169793203
 30
0.0
  0
LINE
  5
1A8
330
183
100
AcDbEntity
  8
$DDT_AUDIT_GENERATED_(1A7)
  6
Continuous
 62
     7
100
AcDbLine
 10
175.4503232445
 20
563.4837490538
 30
0.0
 11
183.8503232445
 21
563.4837490538
 31
0.0
  0
LINE
  5
1A9
330
183
100
AcDbEntity
  8
$DDT_AUDIT_GENERATED_(1A7)
  6
Continuous
 62
     7
100
AcDbLine
 10
175.4503232445
 20
564.9837490538
 30
0.0
 11
183.8503232445
 21
564.9837490538
 31
0.0
  0
LINE
  5
1AA
330
183
100
AcDbEntity
  8
$DDT_AUDIT_GENERATED_(1A7)
  6
Continuous
 62
     7
100
AcDbLine
 10
183.8503232445
 20
563.4837490538
 30
0.0
 11
183.8503232445
 21
564.9837490538
 31
0.0
  0
LINE
  5
1AB
330
183
100
AcDbEntity
  8
$DDT_AUDIT_GENERATED_(1A7)
  6
Continuous
 62
     7
100
AcDbLine
 10
184.0503232445
 20
563.4837490538
 30
0.0
 11
183.8503232445
 21
563.4837490538
 31
0.0
  0
LINE
  5
1AC
330
183
100
AcDbEntity
  8
$DDT_AUDIT_GENERATED_(1A7)
  6
Continuous
 62
     7
100
AcDbLine
 10
175.4503232445
 20
564.9837490538
 30
0.0
 11
175.4503232445
 21
563.4837490538
 31
0.0
  0
ARC
  5
1AD
330
183
100
AcDbEntity
  8
$DDT_AUDIT_GENERATED_(8A)
  6
Continuous
 62
     7
100
AcDbCircle
 10
251.6668760127
 20
642.0301442329
 30
0.0
 40
29.06874923875651
100
AcDbArc
 50
259.2826623502
 51
270.6450449848
  0
ARC
  5
1AE
330
183
100
AcDbEntity
  8
$DDT_AUDIT_GENERATED_(8A)
  6
Continuous
 62
     7
100
AcDbCircle
 10
322.8980030311
 20
31.809276611
 30
0.0
 40
585.4555592148887
100
AcDbArc
 50
89.6670970228
 51
96.9420831055
  0
ARC
  5
1AF
330
183
100
AcDbEntity
  8
$DDT_AUDIT_GENERATED_(8A)
  6
Continuous
 62
     7
100
AcDbCircle
 10
362.8458029957
 20
-291.4201374584
 30
0.0
 40
915.3974095697569
100
AcDbArc
 50
97.3432142448
 51
100.0977046826
  0
ARC
  5
1B0
330
183
100
AcDbEntity
  8
$DDT_AUDIT_GENERATED_(8A)
  6
Continuous
 62
     7
100
AcDbCircle
 10
335.5269530286
 20
-90.1160338583
 30
0.0
 40
712.2539502964557
100
AcDbArc
 50
96.7486785412
 51
97.233363709
  0
ARC
  5
1B1
330
183
100
AcDbEntity
  8
$DDT_AUDIT_GENERATED_(8A)
  6
Continuous
 62
     7
100
AcDbCircle
 10
316.6046279684
 20
101.7328660254
 30
0.0
 40
519.5242535657186
100
AcDbArc
 50
88.9248320745
 51
97.1626715149
  0
LINE
  5
1B2
330
183
100
AcDbEntity
  8
$DDT_AUDIT_GENERATED_(8A)
  6
Continuous
 62
     7
100
AcDbLine
 10
202.0787850495
 20
597.0776195546
 30
0.0
 11
228.2293173427
 21
580.7369533885
 31
0.0
  0
ARC
  5
1B3
330
183
100
AcDbEntity
  8
$DDT_AUDIT_GENERATED_(8A)
  6
Continuous
 62
     7
100
AcDbCircle
 10
229.8190751354
 20
583.281097677
 30
0.0
 40
2.999999999999854
100
AcDbArc
 50
238.0
 51
270.0
  0
LINE
  5
1B4
330
183
100
AcDbEntity
  8
$DDT_AUDIT_GENERATED_(8A)
  6
Continuous
 62
     7
100
AcDbLine
 10
253.6576966105
 20
580.281097677
 30
0.0
 11
229.8190751354
 21
580.281097677
 31
0.0
  0
ARC
  5
1B5
330
183
100
AcDbEntity
  8
$DDT_AUDIT_GENERATED_(8A)
  6
Continuous
 62
     7
100
AcDbCircle
 10
283.1576655078
 20
591.8583381249
 30
0.0
 40
29.44507837698653
100
AcDbArc
 50
172.7365420764
 51
187.3979830373
  0
LINE
  5
1B6
330
183
100
AcDbEntity
  8
$DDT_AUDIT_GENERATED_(8A)
  6
Continuous
 62
     7
100
AcDbLine
 10
327.1277423935
 20
618.3643503978
 30
0.0
 11
326.8369975554
 21
620.7322765605
 31
0.0
  0
SPLINE
  5
1B7
330
183
100
AcDbEntity
  8
$DDT_AUDIT_GENERATED_(8A)
  6
Continuous
 62
     7
100
AcDbSpline
210
0.0
220
0.0
230
1.0
 70
     8
 71
     3
 72
    29
 73
    25
 74
     0
 42
0.0000000001432769
 43
0.0000000001
 40
0.0
 40
0.0
 40
0.0
 40
0.0
 40
0.0283609977854785
 40
0.1285641944991242
 40
0.2191130185386407
 40
0.3007084419093057
 40
0.3741176358469309
 40
0.4401056811465048
 40
0.5104422027853328
 40
0.5714862658491388
 40
0.6233752103404138
 40
0.6662474086929792
 40
0.7005711913936898
 40
0.7313272395334343
 40
0.7572134604999972
 40
0.7815701726244517
 40
0.8069597003680357
 40
0.834814802188211
 40
0.8550372568240329
 40
0.8772804117082165
 40
0.9023094604468226
 40
0.9316112643727951
 40
0.9667649502651909
 40
1.0
 40
1.0
 40
1.0
 40
1.0
 10
256.6494591554256
 20
612.9245427376052
 30
0.0
 10
257.3711460452024
 20
613.001436476705
 30
0.0
 10
260.1671424340922
 20
613.29881513737
 30
0.0
 10
265.3932974267383
 20
613.7985645004746
 30
0.0
 10
271.6560648698893
 20
614.3584858801036
 30
0.0
 10
277.3613156681251
 20
614.817580416658
 30
0.0
 10
282.4867101346781
 20
615.1875458959801
 30
0.0
 10
287.3566233607493
 20
615.499589282075
 30
0.0
 10
291.9408189049177
 20
615.7584056622394
 30
0.0
 10
296.1998060305577
 20
615.9590669026686
 30
0.0
 10
299.8222578620028
 20
616.0880009568543
 30
0.0
 10
302.8247795950695
 20
616.1517755285005
 30
0.0
 10
305.3363895111112
 20
616.1534712472705
 30
0.0
 10
307.4522736087079
 20
616.1058061836733
 30
0.0
 10
309.3351624214608
 20
616.031374395404
 30
0.0
 10
311.093850280832
 20
615.9744339629711
 30
0.0
 10
312.8994246051712
 20
615.9649498272275
 30
0.0
 10
314.6082862660682
 20
616.006085760547
 30
0.0
 10
316.2425696412317
 20
616.0841295327626
 30
0.0
 10
317.8091086569772
 20
616.1850464830959
 30
0.0
 10
319.5867355676758
 20
616.3330085825445
 30
0.0
 10
321.6458253865026
 20
616.5601893291141
 30
0.0
 10
323.9445702005884
 20
616.8729888305566
 30
0.0
 10
325.4006568899145
 20
617.1113690773731
 30
0.0
 10
326.2397092357808
 20
617.2504491931772
 30
0.0
  0
SPLINE
  5
1B8
330
183
100
AcDbEntity
  8
$DDT_AUDIT_GENERATED_(8A)
  6
Continuous
 62
     7
100
AcDbSpline
210
0.0
220
0.0
230
1.0
 70
     8
 71
     3
 72
    13
 73
     9
 74
     0
 42
0.0000000071410487
 43
0.0000000001
 40
0.0
 40
0.0
 40
0.0
 40
0.0
 40
0.0364029038155407
 40
0.2240223956431268
 40
0.4600581117301203
 40
0.7098296686673556
 40
0.9727220784076163
 40
1.0
 40
1.0
 40
1.0
 40
1.0
 10
326.4440950012177
 20
617.2930087261145
 30
0.0
 10
326.4617737774603
 20
617.2979046890156
 30
0.0
 10
326.555030932957
 20
617.3242157181874
 30
0.0
 10
326.7463806871242
 20
617.4336411310491
 30
0.0
 10
326.9686551953001
 20
617.6532410849267
 30
0.0
 10
327.1124675065477
 20
617.9646474146723
 30
0.0
 10
327.1601866108055
 20
618.2297641797838
 30
0.0
 10
327.1255896697203
 20
618.3510169497412
 30
0.0
 10
327.1217850747395
 20
618.3642270563371
 30
0.0
  0
ARC
  5
1B9
330
183
100
AcDbEntity
  8
$DDT_AUDIT_GENERATED_(8A)
  6
Continuous
 62
     7
100
AcDbCircle
 10
256.9413475314
 20
609.9792219972
 30
0.0
 40
2.963732566396571
100
AcDbArc
 50
95.66241523
 51
180.6165287478
  0
ARC
  5
1BA
330
183
100
AcDbEntity
  8
$DDT_AUDIT_GENERATED_(8A)
  6
Continuous
 62
     7
100
AcDbCircle
 10
202.4377610273
 20
609.3054226771
 30
0.0
 40
0.4999999999730345
100
AcDbArc
 50
100.0367880122
 51
179.3990026078
  0
ARC
  5
1BB
330
183
100
AcDbEntity
  8
$DDT_AUDIT_GENERATED_(8A)
  6
Continuous
 62
     7
100
AcDbCircle
 10
326.3537279149
 20
620.6784932473
 30
0.0
 40
0.4824191553192436
100
AcDbArc
 50
7.0136154876
 51
71.5408371754
  0
ARC
  5
1BC
330
183
100
AcDbEntity
  8
$DDT_AUDIT_GENERATED_(8A)
  6
Continuous
 62
     7
100
AcDbCircle
 10
253.65769721
 20
580.581097677
 30
0.0
 40
0.2999999999997124
100
AcDbArc
 50
269.9999993999
 51
1.2184034962
  0
ARC
  5
1BD
330
183
100
AcDbEntity
  8
$DDT_AUDIT_GENERATED_(8A)
  6
Continuous
 62
     7
100
AcDbCircle
 10
202.2377612385
 20
597.3320337222
 30
0.0
 40
0.2999999955621621
100
AcDbArc
 50
184.9968150703
 51
238.0016114901
  0
LINE
  5
1BE
330
183
100
AcDbEntity
  8
$DDT_AUDIT_GENERATED_(8A)
  6
Continuous
 62
     7
100
AcDbLine
 10
253.95769721
 20
595.6497088116
 30
0.0
 11
253.95769721
 21
609.9468030872
 31
0.0
  0
LINE
  5
1BF
330
183
100
AcDbEntity
  8
$DDT_AUDIT_GENERATED_(8A)
  6
Continuous
 62
     7
100
AcDbLine
 10
253.95769721
 20
580.581097677
 30
0.0
 11
253.95769721
 21
588.0981463328
 31
0.0
  0
LINE
  5
1C0
330
183
100
AcDbEntity
  8
$DDT_AUDIT_GENERATED_(8A)
  6
Continuous
 62
     7
100
AcDbLine
 10
201.9377610261
 20
609.309468085
 30
0.0
 11
201.9377610261
 21
597.3063564422
 31
0.0
  0
ARC
  5
1C1
330
183
100
AcDbEntity
  8
$DDT_AUDIT_GENERATED_(8A)
  6
Continuous
 62
     7
100
AcDbCircle
 10
253.7640734168
 20
595.6470599286
 30
0.0
 40
0.1932719081064503
100
AcDbArc
 50
351.3106739605
 51
352.4128533474
  0
LINE
  5
1C2
330
183
100
AcDbEntity
  8
$DDT_AUDIT_GENERATED_(8A)
  6
Continuous
 62
     7
100
AcDbLine
 10
253.9468729539
 20
595.5563032329
 30
0.0
 11
253.9551927097
 21
595.618165714
 31
0.0
  0
LINE
  5
1C3
330
183
100
AcDbEntity
  8
$DDT_AUDIT_GENERATED_(AF)
  6
Continuous
 62
     7
100
AcDbLine
 10
399.7990515973
 20
660.6804072138
 30
0.0
 11
420.6277355735
 21
664.3530661715
 31
0.0
  0
LINE
  5
1C4
330
183
100
AcDbEntity
  8
$DDT_AUDIT_GENERATED_(AF)
  6
Continuous
 62
     7
100
AcDbLine
 10
418.5128031432
 20
681.2423989237
 30
0.0
 11
396.0099459869
 21
677.274538064
 31
0.0
  0
LINE
  5
1C5
330
183
100
AcDbEntity
  8
$DDT_AUDIT_GENERATED_(AF)
  6
Continuous
 62
     7
100
AcDbLine
 10
421.4388951488
 20
665.5115221022
 30
0.0
 11
418.6865715328
 21
681.1207249874
 31
0.0
  0
LINE
  5
1C6
330
183
100
AcDbEntity
  8
$DDT_AUDIT_GENERATED_(AF)
  6
Continuous
 62
     7
100
AcDbLine
 10
395.8882720506
 20
677.1007696744
 30
0.0
 11
398.6405956666
 21
661.4915667892
 31
0.0
  0
ARC
  5
1C7
330
183
100
AcDbEntity
  8
$DDT_AUDIT_GENERATED_(AF)
  6
Continuous
 62
     7
100
AcDbCircle
 10
420.4540873958
 20
665.3378739245
 30
0.0
 40
1.000000000000005
100
AcDbArc
 50
280.0
 51
10.0
  0
ARC
  5
1C8
330
183
100
AcDbEntity
  8
$DDT_AUDIT_GENERATED_(AF)
  6
Continuous
 62
     7
100
AcDbCircle
 10
399.6254034196
 20
661.6652149669
 30
0.0
 40
1.000000000000005
100
AcDbArc
 50
190.0
 51
280.0
  0
ARC
  5
1C9
330
183
100
AcDbEntity
  8
$DDT_AUDIT_GENERATED_(AF)
  6
Continuous
 62
     7
100
AcDbCircle
 10
418.5388503699
 20
681.0946777608
 30
0.0
 40
0.1500000000000037
100
AcDbArc
 50
10.0
 51
100.0
  0
ARC
  5
1CA
330
183
100
AcDbEntity
  8
$DDT_AUDIT_GENERATED_(AF)
  6
Continuous
 62
     7
100
AcDbCircle
 10
396.0359932135
 20
677.1268169011
 30
0.0
 40
0.1500000000000037
100
AcDbArc
 50
100.0
 51
190.0
  0
LINE
  5
1CB
330
183
100
AcDbEntity
  8
$DDT_AUDIT_GENERATED_(BB)
  6
Continuous
 62
     7
100
AcDbLine
 10
419.1200754069
 20
663.8333683534
 30
0.0
 11
401.3935358527
 21
660.7077011554
 31
0.0
  0
LINE
  5
1CC
330
183
100
AcDbEntity
  8
$DDT_AUDIT_GENERATED_(BB)
  6
Continuous
 62
     7
100
AcDbLine
 10
401.3501238083
 20
660.9539030937
 30
0.0
 11
401.3935358527
 21
660.7077011554
 31
0.0
  0
LINE
  5
1CD
330
183
100
AcDbEntity
  8
$DDT_AUDIT_GENERATED_(BB)
  6
Continuous
 62
     7
100
AcDbLine
 10
419.1200754069
 20
663.8333683534
 30
0.0
 11
419.0766633625
 21
664.0795702917
 31
0.0
  0
LINE
  5
1CE
330
183
100
AcDbEntity
  8
$DDT_AUDIT_GENERATED_(16A)
  6
Continuous
 62
     7
100
AcDbLine
 10
253.7678109034
 20
588.7718681244
 30
0.0
 11
253.6087454248
 21
594.8463336802
 31
0.0
  0
LINE
  5
1D0
330
183
100
AcDbEntity
  8
$DDT_AUDIT_GENERATED_(1CF)
  6
Continuous
 62
     7
100
AcDbLine
 10
183.2911301928
 20
563.4337490538
 30
0.0
 11
183.2911301928
 21
563.4837490538
 31
0.0
  0
LINE
  5
1D1
330
183
100
AcDbEntity
  8
$DDT_AUDIT_GENERATED_(1CF)
  6
Continuous
 62
     7
100
AcDbLine
 10
181.9920920871
 20
563.4837490538
 30
0.0
 11
181.9920920871
 21
563.4337490538
 31
0.0
  0
LINE
  5
1D2
330
183
100
AcDbEntity
  8
$DDT_AUDIT_GENERATED_(1CF)
  6
Continuous
 62
     7
100
AcDbLine
 10
178.3003232445
 20
563.4837490538
 30
0.0
 11
178.3003232445
 21
563.4337490538
 31
0.0
  0
SPLINE
  5
1D4
330
183
100
AcDbEntity
  8
$DDT_AUDIT_GENERATED_(1D3)
  6
Continuous
 62
     7
100
AcDbSpline
210
0.0
220
0.0
230
1.0
 70
     8
 71
     3
 72
    14
 73
    10
 74
     0
 42
0.00000000720788
 43
0.0000000001
 40
0.0
 40
0.0
 40
0.0
 40
0.0
 40
0.25
 40
0.25
 40
0.5
 40
0.5
 40
0.75
 40
0.75
 40
1.0
 40
1.0
 40
1.0
 40
1.0
 10
203.8811757283852
 20
515.7939661523642
 30
0.0
 10
203.9774114846958
 20
515.792778353421
 30
0.0
 10
204.0711446514594
 20
515.7677391938513
 30
0.0
 10
204.2496926599577
 20
515.6706732381191
 30
0.0
 10
204.3313707277367
 20
515.6000139830631
 30
0.0
 10
204.4717545434161
 20
515.4180242595445
 30
0.0
 10
204.5289300077953
 20
515.3080049407483
 30
0.0
 10
204.6071995426009
 20
515.0632533757557
 30
0.0
 10
204.62802645508
 20
514.9291677772684
 30
0.0
 10
204.6275115921341
 20
514.7927759875515
 30
0.0
  0
SPLINE
  5
1D5
330
183
100
AcDbEntity
  8
$DDT_AUDIT_GENERATED_(1D3)
  6
Continuous
 62
     7
100
AcDbSpline
210
0.0
220
0.0
230
1.0
 70
     8
 71
     3
 72
    14
 73
    10
 74
     0
 42
0.0000000071811482
 43
0.0000000001
 40
0.0
 40
0.0
 40
0.0
 40
0.0
 40
0.25
 40
0.25
 40
0.5
 40
0.5
 40
0.75
 40
0.75
 40
1.0
 40
1.0
 40
1.0
 40
1.0
 10
217.6801265849419
 20
514.7927759875515
 30
0.0
 10
217.6789599166996
 20
514.9289612588639
 30
0.0
 10
217.6566272139758
 20
515.0625547751074
 30
0.0
 10
217.5754872810101
 20
515.3073416608474
 30
0.0
 10
217.5165058504923
 20
515.4180914009319
 30
0.0
 10
217.3749089415333
 20
515.5990035543782
 30
0.0
 10
217.2912173468243
 20
515.6707043683052
 30
0.0
 10
217.1130830055713
 20
515.7671131597134
 30
0.0
 10
217.0175719427669
 20
515.79277974608
 30
0.0
 10
216.9214343778031
 20
515.7939661523642
 30
0.0
  0
LINE
  5
1D6
330
183
100
AcDbEntity
  8
$DDT_AUDIT_GENERATED_(1D3)
  6
Continuous
 62
     7
100
AcDbLine
 10
216.9214343778
 20
515.7939661524
 30
0.0
 11
193.7515308374
 21
516.0798993271
 31
0.0
  0
SPLINE
  5
1D7
330
183
100
AcDbEntity
  8
$DDT_AUDIT_GENERATED_(1D3)
  6
Continuous
 62
     7
100
AcDbSpline
210
0.0
220
0.0
230
1.0
 70
     8
 71
     3
 72
    10
 73
     6
 74
     0
 42
0.0000000350291041
 43
0.0000000001
 40
0.0
 40
0.0
 40
0.0
 40
0.0
 40
0.5
 40
0.5
 40
1.0
 40
1.0
 40
1.0
 40
1.0
 10
204.5388066509518
 20
449.1837490538495
 30
0.0
 10
204.5000546683698
 20
449.1837490538495
 30
0.0
 10
204.4618276392204
 20
449.2030008875901
 30
0.0
 10
204.4039143281271
 20
449.275818338809
 30
0.0
 10
204.386031338917
 20
449.3284852498053
 30
0.0
 10
204.3862303930556
 20
449.3837490538495
 30
0.0
  0
ELLIPSE
  5
1D8
330
183
100
AcDbEntity
  8
$DDT_AUDIT_GENERATED_(1D3)
  6
Continuous
 62
     7
100
AcDbEllipse
 10
227.962516704
 20
1572.3993372609
 30
0.0
 11
-18.03190962628123
 21
-2922.010586875547
 31
0.0
210
0.0
220
0.0
230
0.9999999999999999
 40
0.0061705924
 41
-1.200404940404605
 42
-1.176276550123677
  0
SPLINE
  5
1D9
330
183
100
AcDbEntity
  8
$DDT_AUDIT_GENERATED_(1D3)
  6
Continuous
 62
     7
100
AcDbSpline
210
0.0
220
0.0
230
1.0
 70
     8
 71
     3
 72
    10
 73
     6
 74
     0
 42
0.0000000349181257
 43
0.0000000001
 40
0.0
 40
0.0
 40
0.0
 40
0.0
 40
0.5
 40
0.5
 40
1.0
 40
1.0
 40
1.0
 40
1.0
 10
218.246101016215
 20
449.3837490538495
 30
0.0
 10
218.2465833646774
 20
449.3285589578701
 30
0.0
 10
218.265382858846
 20
449.2755172372319
 30
0.0
 10
218.3235752738914
 20
449.2034108095181
 30
0.0
 10
218.3624632203533
 20
449.1837490538495
 30
0.0
 10
218.4011456050686
 20
449.1837490538495
 30
0.0
  0
LINE
  5
1DA
330
183
100
AcDbEntity
  8
$DDT_AUDIT_GENERATED_(1D3)
  6
Continuous
 62
     7
100
AcDbLine
 10
218.4011456051
 20
449.1837490538
 30
0.0
 11
218.6173891009
 21
449.1837490538
 31
0.0
  0
ELLIPSE
  5
1DB
330
183
100
AcDbEntity
  8
$DDT_AUDIT_GENERATED_(1D3)
  6
Continuous
 62
     7
100
AcDbEllipse
 10
227.9625166384
 20
1572.3993395732
 30
0.0
 11
18.03190955443031
 21
-2922.010590388728
 31
0.0
210
0.0
220
0.0
230
1.0
 40
0.0061705925
 41
-1.200481096157766
 42
-1.176352705794637
  0
ARC
  5
1DC
330
183
100
AcDbEntity
  8
$DDT_AUDIT_GENERATED_(16D)
  6
Continuous
 62
     7
100
AcDbCircle
 10
227.9625165533
 20
570.7837490538
 30
0.0
 40
24.49999999999999
100
AcDbArc
 50
127.7520013062
 51
164.8572685595
  0
ARC
  5
1DD
330
183
100
AcDbEntity
  8
$DDT_AUDIT_GENERATED_(16D)
  6
Continuous
 62
     7
100
AcDbCircle
 10
227.9625165533
 20
570.7837490538
 30
0.0
 40
24.5
100
AcDbArc
 50
15.1427314405
 51
22.8694210881
  0
LINE
  5
1DE
330
183
100
AcDbEntity
  8
$DDT_AUDIT_GENERATED_(170)
  6
Continuous
 62
     7
100
AcDbLine
 10
196.9503232445
 20
561.0325432363
 30
0.0
 11
196.9503232445
 21
561.6837490538
 31
0.0
  0
LINE
  5
1DF
330
183
100
AcDbEntity
  8
$DDT_AUDIT_GENERATED_(170)
  6
Continuous
 62
     7
100
AcDbLine
 10
176.9503232445
 20
561.6837490538
 30
0.0
 11
176.9503232445
 21
560.959717169
 31
0.0
  0
LINE
  5
1E0
330
183
100
AcDbEntity
  8
$DDT_AUDIT_GENERATED_(173)
  6
Continuous
 62
     7
100
AcDbLine
 10
198.4503232445
 20
561.6837490538
 30
0.0
 11
175.4503232445
 21
561.6837490538
 31
0.0
  0
LINE
  5
1E1
330
183
100
AcDbEntity
  8
$DDT_AUDIT_GENERATED_(173)
  6
Continuous
 62
     7
100
AcDbLine
 10
396.3630023267
 20
677.7197335178
 30
0.0
 11
418.028772893
 21
681.5399934265
 31
0.0
  0
LINE
  5
1E2
330
183
100
AcDbEntity
  8
$DDT_AUDIT_GENERATED_(173)
  6
Continuous
 62
     7
100
AcDbLine
 10
184.0503232445
 20
564.9837490538
 30
0.0
 11
184.0503232445
 21
563.4337490538
 31
0.0
  0
LINE
  5
1E3
330
183
100
AcDbEntity
  8
$DDT_AUDIT_GENERATED_(173)
  6
Continuous
 62
     7
100
AcDbLine
 10
175.4503232445
 20
564.9837490538
 30
0.0
 11
184.0503232445
 21
564.9837490538
 31
0.0
  0
LINE
  5
1E4
330
183
100
AcDbEntity
  8
$DDT_AUDIT_GENERATED_(173)
  6
Continuous
 62
     7
100
AcDbLine
 10
175.4503232445
 20
563.4337490538
 30
0.0
 11
184.0503232445
 21
563.4337490538
 31
0.0
  0
ARC
  5
1E5
330
183
100
AcDbEntity
  8
$DDT_AUDIT_GENERATED_(173)
  6
Continuous
 62
     7
100
AcDbCircle
 10
297.4503232445
 20
665.6837490538
 30
0.0
 40
98.99999999999999
100
AcDbArc
 50
10.0
 51
180.0
  0
ARC
  5
1E6
330
183
100
AcDbEntity
  8
$DDT_AUDIT_GENERATED_(173)
  6
Continuous
 62
     7
100
AcDbCircle
 10
297.4503232445
 20
665.6837490538
 30
0.0
 40
122.0
100
AcDbArc
 50
10.0
 51
180.0
  0
LINE
  5
1E7
330
183
100
AcDbEntity
  8
$DDT_AUDIT_GENERATED_(173)
  6
Continuous
 62
     7
100
AcDbLine
 10
198.4503232445
 20
561.6837490538
 30
0.0
 11
198.4503232445
 21
665.6837490538
 31
0.0
  0
LINE
  5
1E8
330
183
100
AcDbEntity
  8
$DDT_AUDIT_GENERATED_(173)
  6
Continuous
 62
     7
100
AcDbLine
 10
175.4503232445
 20
563.4337490538
 30
0.0
 11
175.4503232445
 21
561.6837490538
 31
0.0
  0
LINE
  5
1E9
330
183
100
AcDbEntity
  8
$DDT_AUDIT_GENERATED_(173)
  6
Continuous
 62
     7
100
AcDbLine
 10
175.4503232445
 20
665.6837490538
 30
0.0
 11
175.4503232445
 21
564.9837490538
 31
0.0
  0
LINE
  5
1EA
330
183
100
AcDbEntity
  8
$DDT_AUDIT_GENERATED_(173)
  6
Continuous
 62
     7
100
AcDbLine
 10
418.2914618226
 20
682.9295957172
 30
0.0
 11
417.596869112
 21
686.8688267292
 31
0.0
  0
LINE
  5
1EB
330
183
100
AcDbEntity
  8
$DDT_AUDIT_GENERATED_(173)
  6
Continuous
 62
     7
100
AcDbLine
 10
394.9462907927
 20
682.8749186429
 30
0.0
 11
395.6408835034
 21
678.9356876308
 31
0.0
  0
ARC
  5
1EC
330
183
100
AcDbEntity
  8
$DDT_AUDIT_GENERATED_(173)
  6
Continuous
 62
     7
100
AcDbCircle
 10
416.3218463166
 20
682.5822993618
 30
0.0
 40
2.000000000012605
100
AcDbArc
 50
328.5903778909
 51
10.0
  0
ARC
  5
1ED
330
183
100
AcDbEntity
  8
$DDT_AUDIT_GENERATED_(173)
  6
Continuous
 62
     7
100
AcDbCircle
 10
397.6104990094
 20
679.2829839862
 30
0.0
 40
2.000000000012577
100
AcDbArc
 50
190.0
 51
231.4096221091
  0
LINE
  5
1EE
330
183
100
AcDbEntity
  8
$DDT_AUDIT_GENERATED_(173)
  6
Continuous
 62
     7
100
AcDbLine
 10
418.0942598482
 20
681.1685984482
 30
0.0
 11
418.028772893
 21
681.5399934265
 31
0.0
  0
LINE
  5
1EF
330
183
100
AcDbEntity
  8
$DDT_AUDIT_GENERATED_(173)
  6
Continuous
 62
     7
100
AcDbLine
 10
396.3630023267
 20
677.7197335178
 30
0.0
 11
396.4284892819
 21
677.3483385395
 31
0.0
  0
LINE
  5
1F0
330
183
100
AcDbEntity
  8
$DDT_AUDIT_GENERATED_(173)
  6
Continuous
 62
     7
100
AcDbLine
 10
397.0326688384
 20
677.4548716965
 30
0.0
 11
396.9979392029
 21
677.6518332471
 31
0.0
  0
LINE
  5
1F1
330
183
100
AcDbEntity
  8
$DDT_AUDIT_GENERATED_(173)
  6
Continuous
 62
     7
100
AcDbLine
 10
417.4900802917
 20
681.0620652912
 30
0.0
 11
417.4553506562
 21
681.2590268418
 31
0.0
  0
LINE
  5
1F2
330
183
100
AcDbEntity
  8
$DDT_AUDIT_GENERATED_(173)
  6
Continuous
 62
     7
100
AcDbLine
 10
418.0595302126
 20
681.3655599988
 30
0.0
 11
396.3937596464
 21
677.5453000901
 31
0.0
  0
ENDBLK
  5
1F4
330
183
100
AcDbEntity
  8
0
100
AcDbBlockEnd
  0
BLOCK
  5
215
330
1F5
100
AcDbEntity
  8
0
100
AcDbBlockBegin
  2
SE2
 70
     0
 10
0.0
 20
0.0
 30
0.0
  3
SE2
  1

  0
ARC
  5
1F7
330
1F5
100
AcDbEntity
  8
$DDT_AUDIT_GENERATED_(78)
  6
Continuous
 62
     7
100
AcDbCircle
 10
31.4237234031
 20
340.846152476
 30
0.0
 40
11.5
100
AcDbArc
 50
174.9639763981
 51
180.4480249635
  0
LINE
  5
1F8
330
1F5
100
AcDbEntity
  8
$DDT_AUDIT_GENERATED_(78)
  6
Continuous
 62
     7
100
AcDbLine
 10
39.4841799425
 20
349.0485326412
 30
0.0
 11
63.7692377612
 21
325.1836727882
 31
0.0
  0
LINE
  5
1F9
330
1F5
100
AcDbEntity
  8
$DDT_AUDIT_GENERATED_(78)
  6
Continuous
 62
     7
100
AcDbLine
 10
47.0862030908
 20
308.5006381178
 30
0.0
 11
42.9237234031
 21
312.7364082212
 31
0.0
  0
SPLINE
  5
1FA
330
1F5
100
AcDbEntity
  8
$DDT_AUDIT_GENERATED_(78)
  6
Continuous
 62
     7
100
AcDbSpline
210
0.0
220
0.0
230
1.0
 70
    12
 71
     2
 72
     6
 73
     3
 74
     0
 42
0.0000000038547903
 43
0.0000000001
 40
0.5815631098419627
 40
0.5815631098419627
 40
0.5815631098419627
 40
1.0
 40
1.0
 40
1.0
 10
64.66636367682389
 20
324.6176026253316
 30
0.0
 41
0.9373273134701146
 10
64.15635389045178
 20
324.8032548275089
 30
0.0
 41
0.9461170374553877
 10
63.76923776119964
 20
325.1836727882329
 30
0.0
 41
1.0
  0
SPLINE
  5
1FB
330
1F5
100
AcDbEntity
  8
$DDT_AUDIT_GENERATED_(78)
  6
Continuous
 62
     7
100
AcDbSpline
210
0.0
220
0.0
230
1.0
 70
    12
 71
     2
 72
     6
 73
     3
 74
     0
 42
0.000000003840184
 43
0.0000000001
 40
0.0
 40
0.0
 40
0.0
 40
0.4462764586562056
 40
0.4462764586562056
 40
0.4462764586562056
 10
47.08620309082769
 20
308.5006381178487
 30
0.0
 41
1.0
 10
47.4934743356273
 20
308.0861958881958
 30
0.0
 41
0.942532080053344
 10
47.67621915908708
 20
307.53461945826
 30
0.0
 41
0.936357319706952
  0
LINE
  5
1FC
330
1F5
100
AcDbEntity
  8
$DDT_AUDIT_GENERATED_(8A)
  6
Continuous
 62
     7
100
AcDbLine
 10
88.5679218065
 20
275.9107127463
 30
0.0
 11
88.5675888306
 21
275.9104522759
 31
0.0
  0
SPLINE
  5
1FD
330
1F5
100
AcDbEntity
  8
$DDT_AUDIT_GENERATED_(8A)
  6
Continuous
 62
     7
100
AcDbSpline
210
0.0
220
0.0
230
1.0
 70
     8
 71
     3
 72
     8
 73
     4
 74
     0
 42
0.0000000000592721
 43
0.0000000001
 40
0.0
 40
0.0
 40
0.0
 40
0.0
 40
0.1840945056735407
 40
0.1840945056735407
 40
0.1840945056735407
 40
0.1840945056735407
 10
56.30391972137097
 20
275.9107129853148
 30
0.0
 10
56.31416148251029
 20
265.5755368644143
 30
0.0
 10
56.33844528978558
 20
255.2222688432182
 30
0.0
 10
56.33535117894358
 20
244.851536588314
 30
0.0
  0
SPLINE
  5
1FE
330
1F5
100
AcDbEntity
  8
$DDT_AUDIT_GENERATED_(8A)
  6
Continuous
 62
     7
100
AcDbSpline
210
0.0
220
0.0
230
1.0
 70
     8
 71
     3
 72
     8
 73
     4
 74
     0
 42
0.0000000000595668
 43
0.0000000001
 40
0.0
 40
0.0
 40
0.0
 40
0.0
 40
0.1236101528828998
 40
0.1236101528828998
 40
0.1236101528828998
 40
0.1236101528828998
 10
88.56758883057604
 20
275.9104522759148
 30
0.0
 10
88.56066968905516
 20
269.0010127284487
 30
0.0
 10
88.54751810107292
 20
262.0842527233022
 30
0.0
 10
88.54064812913536
 20
255.1589427997692
 30
0.0
  0
SPLINE
  5
1FF
330
1F5
100
AcDbEntity
  8
$DDT_AUDIT_GENERATED_(8A)
  6
Continuous
 62
     7
100
AcDbSpline
210
0.0
220
0.0
230
1.0
 70
     8
 71
     3
 72
    34
 73
    30
 74
     0
 42
0.0000000000592525
 43
0.0000000001
 40
0.2876167777394984
 40
0.2876167777394984
 40
0.2876167777394984
 40
0.2876167777394984
 40
0.3124999999999997
 40
0.3124999999999997
 40
0.3437499999999997
 40
0.3437499999999997
 40
0.3749999999999996
 40
0.3749999999999996
 40
0.4374999999999995
 40
0.4374999999999995
 40
0.4687499999999994
 40
0.4687499999999994
 40
0.4999999999999993
 40
0.4999999999999993
 40
0.5312499999999993
 40
0.5312499999999993
 40
0.5624999999999993
 40
0.5624999999999993
 40
0.5937499999999992
 40
0.5937499999999992
 40
0.6249999999999992
 40
0.6249999999999992
 40
0.6562499999999992
 40
0.6562499999999992
 40
0.6874999999999992
 40
0.6874999999999992
 40
0.7499999999999994
 40
0.7499999999999994
 40
1.0
 40
1.0
 40
1.0
 40
1.0
 10
88.57848446102359
 20
227.5452796346966
 30
0.0
 10
88.58521490229157
 20
226.1461746244532
 30
0.0
 10
88.59208487747102
 20
224.7466536940824
 30
0.0
 10
88.60545735390863
 20
221.588559901226
 30
0.0
 10
88.61815815672182
 20
219.8282552726436
 30
0.0
 10
88.53592083725391
 20
216.3130686440949
 30
0.0
 10
88.43911141020848
 20
214.5610085284817
 30
0.0
 10
87.13181260444384
 20
209.4071901946861
 30
0.0
 10
84.95671640369574
 20
206.440112165253
 30
0.0
 10
80.73333463565207
 20
203.2518659323057
 30
0.0
 10
79.19583133036878
 20
202.4163682644751
 30
0.0
 10
75.85206776490466
 20
201.2491264723342
 30
0.0
 10
74.13522281355222
 20
200.9512278252897
 30
0.0
 10
70.60533834318666
 20
200.9666509337662
 30
0.0
 10
68.8696129075305
 20
201.2850656441204
 30
0.0
 10
65.54524163762808
 20
202.4799475114608
 30
0.0
 10
64.00353015902185
 20
203.3343005481231
 30
0.0
 10
61.20301681684629
 20
205.4891903617945
 30
0.0
 10
59.98566970058364
 20
206.7558938176559
 30
0.0
 10
57.99289035867464
 20
209.6570603813009
 30
0.0
 10
57.25274869448026
 20
211.2664611562652
 30
0.0
 10
56.42161987035822
 20
214.6705263969071
 30
0.0
 10
56.32942198369268
 20
216.4539752137005
 30
0.0
 10
56.25406386214263
 20
219.960523945207
 30
0.0
 10
56.26677062786466
 20
221.7143131909065
 30
0.0
 10
56.28957026631859
 20
226.9746746249102
 30
0.0
 10
56.30994909433367
 20
230.4808531874993
 30
0.0
 10
56.35748260355923
 20
248.0039284139028
 30
0.0
 10
56.31820815993193
 20
261.974857731444
 30
0.0
 10
56.30425270038402
 20
275.9104525830798
 30
0.0
  0
ARC
  5
200
330
1F5
100
AcDbEntity
  8
$DDT_AUDIT_GENERATED_(8A)
  6
Continuous
 62
     7
100
AcDbCircle
 10
96.5678979802
 20
275.9024267413
 30
0.0
 40
8.000313174993604
100
AcDbArc
 50
135.2465314718
 51
179.9425235826
  0
ARC
  5
201
330
1F5
100
AcDbEntity
  8
$DDT_AUDIT_GENERATED_(8A)
  6
Continuous
 62
     7
100
AcDbCircle
 10
48.3039435475
 20
275.9024268779
 30
0.0
 40
8.000313178426731
100
AcDbArc
 50
0.0574776388
 51
44.7534682444
  0
ARC
  5
202
330
1F5
100
AcDbEntity
  8
$DDT_AUDIT_GENERATED_(8A)
  6
Continuous
 62
     7
100
AcDbCircle
 10
72.4359208341
 20
299.8558702986
 30
0.0
 40
26.00145005932028
100
AcDbArc
 50
315.2023287032
 51
224.7976709525
  0
LINE
  5
203
330
1F5
100
AcDbEntity
  8
$DDT_AUDIT_GENERATED_(8A)
  6
Continuous
 62
     7
100
AcDbLine
 10
88.6038473372
 20
220.7662849636
 30
0.0
 11
88.6038473373
 21
221.0854790363
 31
0.0
  0
ARC
  5
204
330
1F5
100
AcDbEntity
  8
$DDT_AUDIT_GENERATED_(8A)
  6
Continuous
 62
     7
100
AcDbCircle
 10
4492.7567454599
 20
246.734146978
 30
0.0
 40
4404.220717826885
100
AcDbArc
 50
179.8904128469
 51
180.2496221348
  0
ARC
  5
205
330
1F5
100
AcDbEntity
  8
$DDT_AUDIT_GENERATED_(8A)
  6
Continuous
 62
     7
100
AcDbCircle
 10
319.6469146606
 20
223.5513471451
 30
0.0
 40
263.3963765856685
100
AcDbArc
 50
178.8930921138
 51
181.3913712013
  0
ELLIPSE
  5
206
330
1F5
100
AcDbEntity
  8
$DDT_AUDIT_GENERATED_(AF)
  6
Continuous
 62
     7
100
AcDbEllipse
 10
31.4237234031
 20
117.7567303127
 30
0.0
 11
11.575
 21
1.082467449009528E-12
 31
0.0
210
0.0
220
0.0
230
1.0
 40
0.984807753
 41
3.141592653589793
 42
3.679181491300834
  0
ELLIPSE
  5
207
330
1F5
100
AcDbEntity
  8
$DDT_AUDIT_GENERATED_(AF)
  6
Continuous
 62
     7
100
AcDbEllipse
 10
31.4237234031
 20
117.7567303127
 30
0.0
 11
11.575
 21
1.082467449009528E-12
 31
0.0
210
0.0
220
0.0
230
1.0
 40
0.984807753
 41
5.760005546790924
 42
6.283185307179586
  0
ELLIPSE
  5
208
330
1F5
100
AcDbEntity
  8
$DDT_AUDIT_GENERATED_(AF)
  6
Continuous
 62
     7
100
AcDbEllipse
 10
31.4237234031
 20
120.5090539288
 30
0.0
 11
-11.57500000000002
 21
-4.718447854656915E-13
 31
0.0
210
0.0
220
0.0
230
1.0
 40
0.984807753
 41
6.169286307733263
 42
6.283185307179586
  0
ELLIPSE
  5
209
330
1F5
100
AcDbEntity
  8
$DDT_AUDIT_GENERATED_(AF)
  6
Continuous
 62
     7
100
AcDbEllipse
 10
31.4237234031
 20
120.5090539288
 30
0.0
 11
-11.57500000000002
 21
-4.718447854656915E-13
 31
0.0
210
0.0
220
0.0
230
1.0
 40
0.984807753
 41
3.141592653589794
 42
3.255491653036051
  0
LINE
  5
20A
330
1F5
100
AcDbEntity
  8
$DDT_AUDIT_GENERATED_(AF)
  6
Continuous
 62
     7
100
AcDbLine
 10
42.9987234031
 20
117.7567303127
 30
0.0
 11
42.9987234031
 21
120.5090539288
 31
0.0
  0
LINE
  5
20B
330
1F5
100
AcDbEntity
  8
$DDT_AUDIT_GENERATED_(AF)
  6
Continuous
 62
     7
100
AcDbLine
 10
19.8487234031
 20
120.5090539288
 30
0.0
 11
19.8487234031
 21
117.7567303127
 31
0.0
  0
ARC
  5
20C
330
1F5
100
AcDbEntity
  8
$DDT_AUDIT_GENERATED_(AF)
  6
Continuous
 62
     7
100
AcDbCircle
 10
31.4230354009
 20
117.996081857
 30
0.0
 40
11.646081857005
100
AcDbArc
 50
211.5048678668
 51
329.315252356
  0
ARC
  5
20D
330
1F5
100
AcDbEntity
  8
$DDT_AUDIT_GENERATED_(173)
  6
Continuous
 62
     7
100
AcDbCircle
 10
31.4237234031
 20
340.846152476
 30
0.0
 40
11.5
100
AcDbArc
 50
0.0
 51
180.0
  0
ELLIPSE
  5
20E
330
1F5
100
AcDbEntity
  8
$DDT_AUDIT_GENERATED_(173)
  6
Continuous
 62
     7
100
AcDbEllipse
 10
31.4237234031
 20
120.8303030575
 30
0.0
 11
-11.5
 21
-1.498801083243961E-12
 31
0.0
210
0.0
220
0.0
230
1.0
 40
0.984807753
 41
2.892803917664607
 42
3.141592653589793
  0
ELLIPSE
  5
20F
330
1F5
100
AcDbEntity
  8
$DDT_AUDIT_GENERATED_(173)
  6
Continuous
 62
     7
100
AcDbEllipse
 10
31.4237234031
 20
120.8303030575
 30
0.0
 11
-11.5
 21
-1.498801083243961E-12
 31
0.0
210
0.0
220
0.0
230
1.0
 40
0.984807753
 41
0.0000000000000007
 42
0.2414040967805228
  0
LINE
  5
210
330
1F5
100
AcDbEntity
  8
$DDT_AUDIT_GENERATED_(173)
  6
Continuous
 62
     7
100
AcDbLine
 10
42.9237234031
 20
121.5248957681
 30
0.0
 11
42.9237234031
 21
340.846152476
 31
0.0
  0
LINE
  5
211
330
1F5
100
AcDbEntity
  8
$DDT_AUDIT_GENERATED_(173)
  6
Continuous
 62
     7
100
AcDbLine
 10
19.9237234031
 20
340.846152476
 30
0.0
 11
19.9237234031
 21
121.5248957681
 31
0.0
  0
LINE
  5
212
330
1F5
100
AcDbEntity
  8
$DDT_AUDIT_GENERATED_(173)
  6
Continuous
 62
     7
100
AcDbLine
 10
42.9237234031
 20
120.8303030575
 30
0.0
 11
42.9237234031
 21
121.5248957681
 31
0.0
  0
LINE
  5
213
330
1F5
100
AcDbEntity
  8
$DDT_AUDIT_GENERATED_(173)
  6
Continuous
 62
     7
100
AcDbLine
 10
19.9237234031
 20
121.5248957681
 30
0.0
 11
19.9237234031
 21
120.8303030575
 31
0.0
  0
ARC
  5
214
330
1F5
100
AcDbEntity
  8
$DDT_AUDIT_GENERATED_(173)
  6
Continuous
 62
     7
100
AcDbCircle
 10
31.4194806304
 20
121.0128603659
 30
0.0
 40
11.53112607676785
100
AcDbArc
 50
194.5845752096
 51
345.0059229217
  0
ENDBLK
  5
216
330
1F5
100
AcDbEntity
  8
0
100
AcDbBlockEnd
  0
ENDSEC
  0
SECTION
  2
ENTITIES
  0
INSERT
  5
5F
330
1F
100
AcDbEntity
  8
Default
100
AcDbBlockReference
  2
SEANNOT_GROUP
 10
0.0
 20
0.0
 30
0.0
  0
LINE
  5
65
330
1F
100
AcDbEntity
  8
Default
  6
Continuous
 62
     7
100
AcDbLine
 10
202.6625165533
 20
449.1837490538
 30
0.0
 11
253.2625165533
 21
449.1837490538
 31
0.0
  0
INSERT
  5
67
330
1F
100
AcDbEntity
  8
Default
100
AcDbBlockReference
  2
SEANNOT_GROUP1
 10
0.0
 20
0.0
 30
0.0
  0
INSERT
  5
6D
330
1F
100
AcDbEntity
  8
Default
100
AcDbBlockReference
  2
SEANNOT_GROUP2
 10
0.0
 20
0.0
 30
0.0
  0
INSERT
  5
77
330
1F
100
AcDbEntity
  8
Default
100
AcDbBlockReference
  2
SE
 10
0.0
 20
0.0
 30
0.0
  0
INSERT
  5
184
330
1F
100
AcDbEntity
  8
Default
100
AcDbBlockReference
  2
SE1
 10
0.0
 20
0.0
 30
0.0
  0
INSERT
  5
1F6
330
1F
100
AcDbEntity
  8
Default
100
AcDbBlockReference
  2
SE2
 10
0.0
 20
0.0
 30
0.0
  0
TEXT
  5
218
330
1F
100
AcDbEntity
  8
Default
  6
Continuous
 62
     7
100
AcDbText
 10
5.9362635081
 20
53.4225120485
 30
0.0
 40
10.0
  1
Grohe AG^J
  7
SEACAD_seiso_ttf
 11
5.9362635081
 21
63.4225120485
 31
0.0
100
AcDbText
 73
     3
  0
TEXT
  5
219
330
1F
100
AcDbEntity
  8
Default
  6
Continuous
 62
     7
100
AcDbText
 10
5.9362635081
 20
37.0588756849
 30
0.0
 40
10.0
  1
 
  7
SEACAD_seiso_ttf
 11
5.9362635081
 21
47.0588756849
 31
0.0
100
AcDbText
 73
     3
  0
TEXT
  5
21A
330
1F
100
AcDbEntity
  8
Default
  6
Continuous
 62
     7
100
AcDbText
 10
5.9362635081
 20
20.6952393213
 30
0.0
 40
10.0
  1
ecn:
  7
SEACAD_seiso_ttf
 11
5.9362635081
 21
30.6952393213
 31
0.0
100
AcDbText
 73
     3
  0
TEXT
  5
21B
330
1F
100
AcDbEntity
  8
Default
  6
Continuous
 62
     7
100
AcDbText
 10
5.9362635081
 20
4.3316029576
 30
0.0
 40
10.0
  1
unit: mm
  7
SEACAD_seiso_ttf
 11
5.9362635081
 21
14.3316029576
 31
0.0
100
AcDbText
 73
     3
  0
LINE
  5
21C
330
1F
100
AcDbEntity
  8
Default
  6
Continuous
 62
     7
100
AcDbLine
 10
0.0
 20
0.0
 30
0.0
 11
100.0
 21
0.0
 31
0.0
  0
LINE
  5
21D
330
1F
100
AcDbEntity
  8
Default
  6
Continuous
 62
     7
100
AcDbLine
 10
0.0
 20
0.0
 30
0.0
 11
0.0
 21
100.0
 31
0.0
  0
TEXT
  5
21E
330
1F
100
AcDbEntity
  8
Default
  6
Continuous
 62
     7
100
AcDbText
 10
24.3923665681
 20
-18.2375342018
 30
0.0
 40
10.0
  1
100 mm
  7
SEACAD_seiso_ttf
 11
24.3923665681
 21
-8.2375342018
 31
0.0
100
AcDbText
 73
     3
  0
TEXT
  5
21F
330
1F
100
AcDbEntity
  8
Default
  6
Continuous
 62
     7
100
AcDbText
 10
-7.6150308803
 20
24.6231930421
 30
0.0
 40
10.0
  1
100 mm
 50
90.0
  7
SEACAD_seiso_ttf
 11
-17.6150308803
 21
24.6231930421
 31
0.0
100
AcDbText
 73
     3
  0
TEXT
  5
220
330
1F
100
AcDbEntity
  8
Default
  6
Continuous
 62
     7
100
AcDbText
 10
28.4878128572
 20
20.0907663715
 30
0.0
 40
10.0
  1
231766
  7
SEACAD_seiso_ttf
 11
28.4878128572
 21
30.0907663715
 31
0.0
100
AcDbText
 73
     3
  0
TEXT
  5
221
330
1F
100
AcDbEntity
  8
Default
  6
Continuous
 62
     7
100
AcDbText
 10
5.9012241913
 20
36.7242780188
 30
0.0
 40
10.0
  1
30221002
  7
SEACAD_seiso_ttf
 11
5.9012241913
 21
46.7242780188
 31
0.0
100
AcDbText
 73
     3
  0
ENDSEC
  0
SECTION
  2
OBJECTS
  0
DICTIONARY
  5
C
330
0
100
AcDbDictionary
281
     1
  3
ACAD_GROUP
350
D
  3
ACAD_LAYOUT
350
1A
  3
ACAD_MLEADERSTYLE
350
225
  3
ACAD_MLINESTYLE
350
17
  3
ACAD_PLOTSETTINGS
350
19
  3
ACAD_PLOTSTYLENAME
350
E
  3
ACAD_SCALELIST
350
3B
  3
ACAD_TABLESTYLE
350
224
  3
ACAD_VISUALSTYLE
350
2A
  3
AcDbVariableDictionary
350
222
  0
DICTIONARY
  5
D
102
{ACAD_REACTORS
330
C
102
}
330
C
100
AcDbDictionary
281
     1
  0
DICTIONARY
  5
1A
102
{ACAD_REACTORS
330
C
102
}
330
C
100
AcDbDictionary
281
     1
  3
Layout1
350
1E
  3
Model
350
22
  0
DICTIONARY
  5
225
102
{ACAD_REACTORS
330
C
102
}
330
C
100
AcDbDictionary
281
     1
  0
DICTIONARY
  5
17
102
{ACAD_REACTORS
330
C
102
}
330
C
100
AcDbDictionary
281
     1
  3
Standard
350
18
  0
DICTIONARY
  5
19
102
{ACAD_REACTORS
330
C
102
}
330
C
100
AcDbDictionary
281
     1
  0
ACDBDICTIONARYWDFLT
  5
E
102
{ACAD_REACTORS
330
C
102
}
330
C
100
AcDbDictionary
281
     1
  3
Normal
350
F
100
AcDbDictionaryWithDefault
340
F
  0
DICTIONARY
  5
3B
102
{ACAD_REACTORS
330
C
102
}
330
C
100
AcDbDictionary
281
     1
  3
A0
350
3C
  3
A1
350
3D
  3
A2
350
3E
  3
A3
350
3F
  3
A4
350
40
  3
A5
350
41
  3
A6
350
42
  3
A7
350
43
  3
A8
350
44
  3
A9
350
45
  3
B0
350
46
  3
B1
350
47
  3
B2
350
48
  3
B3
350
49
  3
B4
350
4A
  3
B5
350
4B
  3
B6
350
4C
  3
B7
350
4D
  3
B8
350
4E
  3
B9
350
4F
  3
C0
350
50
  3
C1
350
51
  3
C2
350
52
  3
C3
350
53
  3
C4
350
54
  3
C5
350
55
  3
C6
350
56
  3
C7
350
57
  3
C8
350
58
  3
C9
350
59
  3
D0
350
5A
  3
D1
350
5B
  3
D2
350
5C
  0
DICTIONARY
  5
224
102
{ACAD_REACTORS
330
C
102
}
330
C
100
AcDbDictionary
281
     1
  0
DICTIONARY
  5
2A
102
{ACAD_REACTORS
330
C
102
}
330
C
100
AcDbDictionary
281
     1
  3
2dWireframe
350
2F
  3
3D Hidden
350
31
  3
3dWireframe
350
30
  3
Basic
350
32
  3
Brighten
350
36
  3
ColorChange
350
3A
  3
Conceptual
350
34
  3
Dim
350
35
  3
Facepattern
350
39
  3
Flat
350
2B
  3
FlatWithEdges
350
2C
  3
Gouraud
350
2D
  3
GouraudWithEdges
350
2E
  3
Linepattern
350
38
  3
Realistic
350
33
  3
Thicken
350
37
  0
DICTIONARY
  5
222
102
{ACAD_REACTORS
330
C
102
}
330
C
100
AcDbDictionary
281
     1
  3
CANNOSCALE
350
223
  3
PSOLHEIGHT
350
227
  3
PSOLWIDTH
350
226
  0
LAYOUT
  5
1E
102
{ACAD_REACTORS
330
1A
102
}
330
1A
100
AcDbPlotSettings
  1

  2
none_device
  4

  6

 40
0.0
 41
0.0
 42
0.0
 43
0.0
 44
0.0
 45
0.0
 46
0.0
 47
0.0
 48
0.0
 49
0.0
140
0.0
141
0.0
142
1.0
143
1.0
 70
   688
 72
     0
 73
     0
 74
     5
  7

 75
    16
147
1.0
148
0.0
149
0.0
100
AcDbLayout
  1
Layout1
 70
     1
 71
     1
 10
0.0
 20
0.0
 11
3000.0
 21
4500.0
 12
0.0
 22
0.0
 32
0.0
 14
0.0
 24
0.0
 34
0.0
 15
3000.0
 25
4500.0
 35
0.0
146
0.0
 13
0.0
 23
0.0
 33
0.0
 16
1.0
 26
0.0
 36
0.0
 17
0.0
 27
1.0
 37
0.0
 76
     0
330
1B
  0
LAYOUT
  5
22
102
{ACAD_REACTORS
330
1A
102
}
330
1A
100
AcDbPlotSettings
  1

  2
none_device
  4

  6

 40
0.0
 41
0.0
 42
0.0
 43
0.0
 44
0.0
 45
0.0
 46
0.0
 47
0.0
 48
0.0
 49
0.0
140
0.0
141
0.0
142
1.0
143
1.0
 70
  1712
 72
     0
 73
     0
 74
     0
  7

 75
     0
147
1.0
148
0.0
149
0.0
100
AcDbLayout
  1
Model
 70
     1
 71
     0
 10
0.0
 20
0.0
 11
3000.0
 21
4500.0
 12
0.0
 22
0.0
 32
0.0
 14
0.0
 24
0.0
 34
0.0
 15
3000.0
 25
4500.0
 35
0.0
146
0.0
 13
0.0
 23
0.0
 33
0.0
 16
1.0
 26
0.0
 36
0.0
 17
0.0
 27
1.0
 37
0.0
 76
     0
330
1F
331
29
  0
MLINESTYLE
  5
18
102
{ACAD_REACTORS
330
17
102
}
330
17
100
AcDbMlineStyle
  2
Standard
 70
     0
  3

 62
   256
 51
90.0
 52
90.0
 71
     2
 49
0.5
 62
   256
  6
BYLAYER
 49
-0.5
 62
   256
  6
BYLAYER
  0
ACDBPLACEHOLDER
  5
F
102
{ACAD_REACTORS
330
E
102
}
330
E
  0
SCALE
  5
3C
102
{ACAD_REACTORS
330
3B
102
}
330
3B
100
AcDbScale
 70
     0
300
1:1
140
1.0
141
1.0
290
     1
  0
SCALE
  5
3D
102
{ACAD_REACTORS
330
3B
102
}
330
3B
100
AcDbScale
 70
     0
300
1:2
140
1.0
141
2.0
290
     0
  0
SCALE
  5
3E
102
{ACAD_REACTORS
330
3B
102
}
330
3B
100
AcDbScale
 70
     0
300
1:4
140
1.0
141
4.0
290
     0
  0
SCALE
  5
3F
102
{ACAD_REACTORS
330
3B
102
}
330
3B
100
AcDbScale
 70
     0
300
1:5
140
1.0
141
5.0
290
     0
  0
SCALE
  5
40
102
{ACAD_REACTORS
330
3B
102
}
330
3B
100
AcDbScale
 70
     0
300
1:8
140
1.0
141
8.0
290
     0
  0
SCALE
  5
41
102
{ACAD_REACTORS
330
3B
102
}
330
3B
100
AcDbScale
 70
     0
300
1:10
140
1.0
141
10.0
290
     0
  0
SCALE
  5
42
102
{ACAD_REACTORS
330
3B
102
}
330
3B
100
AcDbScale
 70
     0
300
1:16
140
1.0
141
16.0
290
     0
  0
SCALE
  5
43
102
{ACAD_REACTORS
330
3B
102
}
330
3B
100
AcDbScale
 70
     0
300
1:20
140
1.0
141
20.0
290
     0
  0
SCALE
  5
44
102
{ACAD_REACTORS
330
3B
102
}
330
3B
100
AcDbScale
 70
     0
300
1:30
140
1.0
141
30.0
290
     0
  0
SCALE
  5
45
102
{ACAD_REACTORS
330
3B
102
}
330
3B
100
AcDbScale
 70
     0
300
1:40
140
1.0
141
40.0
290
     0
  0
SCALE
  5
46
102
{ACAD_REACTORS
330
3B
102
}
330
3B
100
AcDbScale
 70
     0
300
1:50
140
1.0
141
50.0
290
     0
  0
SCALE
  5
47
102
{ACAD_REACTORS
330
3B
102
}
330
3B
100
AcDbScale
 70
     0
300
1:100
140
1.0
141
100.0
290
     0
  0
SCALE
  5
48
102
{ACAD_REACTORS
330
3B
102
}
330
3B
100
AcDbScale
 70
     0
300
2:1
140
2.0
141
1.0
290
     0
  0
SCALE
  5
49
102
{ACAD_REACTORS
330
3B
102
}
330
3B
100
AcDbScale
 70
     0
300
4:1
140
4.0
141
1.0
290
     0
  0
SCALE
  5
4A
102
{ACAD_REACTORS
330
3B
102
}
330
3B
100
AcDbScale
 70
     0
300
8:1
140
8.0
141
1.0
290
     0
  0
SCALE
  5
4B
102
{ACAD_REACTORS
330
3B
102
}
330
3B
100
AcDbScale
 70
     0
300
10:1
140
10.0
141
1.0
290
     0
  0
SCALE
  5
4C
102
{ACAD_REACTORS
330
3B
102
}
330
3B
100
AcDbScale
 70
     0
300
100:1
140
100.0
141
1.0
290
     0
  0
SCALE
  5
4D
102
{ACAD_REACTORS
330
3B
102
}
330
3B
100
AcDbScale
 70
     0
300
1/128" = 1'-0"
140
0.0078125
141
12.0
290
     0
  0
SCALE
  5
4E
102
{ACAD_REACTORS
330
3B
102
}
330
3B
100
AcDbScale
 70
     0
300
1/64" = 1'-0"
140
0.015625
141
12.0
290
     0
  0
SCALE
  5
4F
102
{ACAD_REACTORS
330
3B
102
}
330
3B
100
AcDbScale
 70
     0
300
1/32" = 1'-0"
140
0.03125
141
12.0
290
     0
  0
SCALE
  5
50
102
{ACAD_REACTORS
330
3B
102
}
330
3B
100
AcDbScale
 70
     0
300
1/16" = 1'-0"
140
0.0625
141
12.0
290
     0
  0
SCALE
  5
51
102
{ACAD_REACTORS
330
3B
102
}
330
3B
100
AcDbScale
 70
     0
300
3/32" = 1'-0"
140
0.09375
141
12.0
290
     0
  0
SCALE
  5
52
102
{ACAD_REACTORS
330
3B
102
}
330
3B
100
AcDbScale
 70
     0
300
1/8" = 1'-0"
140
0.125
141
12.0
290
     0
  0
SCALE
  5
53
102
{ACAD_REACTORS
330
3B
102
}
330
3B
100
AcDbScale
 70
     0
300
3/16" = 1'-0"
140
0.1875
141
12.0
290
     0
  0
SCALE
  5
54
102
{ACAD_REACTORS
330
3B
102
}
330
3B
100
AcDbScale
 70
     0
300
1/4" = 1'-0"
140
0.25
141
12.0
290
     0
  0
SCALE
  5
55
102
{ACAD_REACTORS
330
3B
102
}
330
3B
100
AcDbScale
 70
     0
300
3/8" = 1'-0"
140
0.375
141
12.0
290
     0
  0
SCALE
  5
56
102
{ACAD_REACTORS
330
3B
102
}
330
3B
100
AcDbScale
 70
     0
300
1/2" = 1'-0"
140
0.5
141
12.0
290
     0
  0
SCALE
  5
57
102
{ACAD_REACTORS
330
3B
102
}
330
3B
100
AcDbScale
 70
     0
300
3/4" = 1'-0"
140
0.75
141
12.0
290
     0
  0
SCALE
  5
58
102
{ACAD_REACTORS
330
3B
102
}
330
3B
100
AcDbScale
 70
     0
300
1" = 1'-0"
140
1.0
141
12.0
290
     0
  0
SCALE
  5
59
102
{ACAD_REACTORS
330
3B
102
}
330
3B
100
AcDbScale
 70
     0
300
1-1/2" = 1'-0"
140
1.5
141
12.0
290
     0
  0
SCALE
  5
5A
102
{ACAD_REACTORS
330
3B
102
}
330
3B
100
AcDbScale
 70
     0
300
3" = 1'-0"
140
3.0
141
12.0
290
     0
  0
SCALE
  5
5B
102
{ACAD_REACTORS
330
3B
102
}
330
3B
100
AcDbScale
 70
     0
300
6" = 1'-0"
140
6.0
141
12.0
290
     0
  0
SCALE
  5
5C
102
{ACAD_REACTORS
330
3B
102
}
330
3B
100
AcDbScale
 70
     0
300
1'-0" = 1'-0"
140
12.0
141
12.0
290
     0
  0
VISUALSTYLE
  5
2F
102
{ACAD_REACTORS
330
2A
102
}
330
2A
100
AcDbVisualStyle
  2
2dWireframe
 70
     4
 71
     0
 72
     2
 73
     0
 90
        0
 40
-0.6
 41
-30.0
 62
     5
 63
     7
 74
     1
 91
        4
 64
     7
 65
   257
 75
     1
175
     1
 42
1.0
 92
        0
 66
   257
 43
1.0
 76
     1
 77
     6
 78
     2
 67
     7
 79
     5
170
     0
171
     0
290
     0
174
     0
 93
        1
 44
0.0
173
     0
291
     0
 45
0.0
1001
ACAD
1000
AcDbSavedByObjectVersion
1070
     0
  0
VISUALSTYLE
  5
31
102
{ACAD_REACTORS
330
2A
102
}
330
2A
100
AcDbVisualStyle
  2
3D Hidden
 70
     6
 71
     1
 72
     2
 73
     2
 90
        0
 40
-0.6
 41
-30.0
 62
     5
 63
     7
 74
     2
 91
        2
 64
     7
 65
   257
 75
     2
175
     1
 42
40.0
 92
        0
 66
   257
 43
1.0
 76
     1
 77
     6
 78
     2
 67
     7
 79
     3
170
     0
171
     0
290
     0
174
     0
 93
        1
 44
0.0
173
     0
291
     0
 45
0.0
1001
ACAD
1000
AcDbSavedByObjectVersion
1070
     0
  0
VISUALSTYLE
  5
30
102
{ACAD_REACTORS
330
2A
102
}
330
2A
100
AcDbVisualStyle
  2
3dWireframe
 70
     5
 71
     0
 72
     2
 73
     0
 90
        0
 40
-0.6
 41
-30.0
 62
     5
 63
     7
 74
     1
 91
        4
 64
     7
 65
   257
 75
     1
175
     1
 42
1.0
 92
        0
 66
   257
 43
1.0
 76
     1
 77
     6
 78
     2
 67
     7
 79
     5
170
     0
171
     0
290
     0
174
     0
 93
        1
 44
0.0
173
     0
291
     0
 45
0.0
1001
ACAD
1000
AcDbSavedByObjectVersion
1070
     0
  0
VISUALSTYLE
  5
32
102
{ACAD_REACTORS
330
2A
102
}
330
2A
100
AcDbVisualStyle
  2
Basic
 70
     7
 71
     1
 72
     0
 73
     1
 90
        0
 40
-0.6
 41
-30.0
 62
     5
 63
     7
 74
     0
 91
        4
 64
     7
 65
   257
 75
     1
175
     1
 42
1.0
 92
        8
 66
     7
 43
1.0
 76
     1
 77
     6
 78
     2
 67
     7
 79
     5
170
     0
171
     0
290
     0
174
     0
 93
        1
 44
0.0
173
     0
291
     1
 45
0.0
1001
ACAD
1000
AcDbSavedByObjectVersion
1070
     0
  0
VISUALSTYLE
  5
36
102
{ACAD_REACTORS
330
2A
102
}
330
2A
100
AcDbVisualStyle
  2
Brighten
 70
    12
 71
     2
 72
     2
 73
     0
 90
        0
 40
-0.6
 41
-30.0
 62
     5
 63
     7
 74
     1
 91
        4
 64
     7
 65
   257
 75
     1
175
     1
 42
1.0
 92
        8
 66
     7
 43
1.0
 76
     1
 77
     6
 78
     2
 67
     7
 79
     5
170
     0
171
     0
290
     0
174
     0
 93
        1
 44
50.0
173
     0
291
     1
 45
0.0
1001
ACAD
1000
AcDbSavedByObjectVersion
1070
     0
  0
VISUALSTYLE
  5
3A
102
{ACAD_REACTORS
330
2A
102
}
330
2A
100
AcDbVisualStyle
  2
ColorChange
 70
    16
 71
     2
 72
     2
 73
     3
 90
        0
 40
-0.6
 41
-30.0
 62
     5
 63
     8
 74
     1
 91
        4
 64
     7
 65
   257
 75
     1
175
     1
 42
1.0
 92
        8
 66
     8
 43
1.0
 76
     1
 77
     6
 78
     2
 67
     7
 79
     5
170
     0
171
     0
290
     0
174
     0
 93
        1
 44
0.0
173
     0
291
     1
 45
0.0
1001
ACAD
1000
AcDbSavedByObjectVersion
1070
     0
  0
VISUALSTYLE
  5
34
102
{ACAD_REACTORS
330
2A
102
}
330
2A
100
AcDbVisualStyle
  2
Conceptual
 70
     9
 71
     3
 72
     2
 73
     0
 90
        0
 40
-0.6
 41
-30.0
 62
     5
 63
     7
 74
     2
 91
        2
 64
     7
 65
   257
 75
     1
175
     1
 42
40.0
 92
        8
 66
     7
 43
1.0
 76
     1
 77
     6
 78
     2
 67
     7
 79
     3
170
     0
171
     0
290
     0
174
     0
 93
        1
 44
0.0
173
     0
291
     0
 45
0.0
1001
ACAD
1000
AcDbSavedByObjectVersion
1070
     0
  0
VISUALSTYLE
  5
35
102
{ACAD_REACTORS
330
2A
102
}
330
2A
100
AcDbVisualStyle
  2
Dim
 70
    11
 71
     2
 72
     2
 73
     0
 90
        0
 40
-0.6
 41
-30.0
 62
     5
 63
     7
 74
     1
 91
        4
 64
     7
 65
   257
 75
     1
175
     1
 42
1.0
 92
        8
 66
     7
 43
1.0
 76
     1
 77
     6
 78
     2
 67
     7
 79
     5
170
     0
171
     0
290
     0
174
     0
 93
        1
 44
-50.0
173
     0
291
     1
 45
0.0
1001
ACAD
1000
AcDbSavedByObjectVersion
1070
     0
  0
VISUALSTYLE
  5
39
102
{ACAD_REACTORS
330
2A
102
}
330
2A
100
AcDbVisualStyle
  2
Facepattern
 70
    15
 71
     2
 72
     2
 73
     0
 90
        0
 40
-0.6
 41
-30.0
 62
     5
 63
     7
 74
     1
 91
        4
 64
     7
 65
   257
 75
     1
175
     1
 42
1.0
 92
        8
 66
     7
 43
1.0
 76
     1
 77
     6
 78
     2
 67
     7
 79
     5
170
     0
171
     0
290
     0
174
     0
 93
        1
 44
0.0
173
     0
291
     1
 45
0.0
1001
ACAD
1000
AcDbSavedByObjectVersion
1070
     0
  0
VISUALSTYLE
  5
2B
102
{ACAD_REACTORS
330
2A
102
}
330
2A
100
AcDbVisualStyle
  2
Flat
 70
     0
 71
     2
 72
     1
 73
     1
 90
        2
 40
-0.6
 41
30.0
 62
     5
 63
     7
 74
     0
 91
        4
 64
     7
 65
   257
 75
     1
175
     1
 42
1.0
 92
        8
 66
     7
 43
1.0
 76
     1
 77
     6
 78
     2
 67
     7
 79
     5
170
     0
171
     0
290
     0
174
     0
 93
       13
 44
0.0
173
     0
291
     1
 45
0.0
1001
ACAD
1000
AcDbSavedByObjectVersion
1070
     0
  0
VISUALSTYLE
  5
2C
102
{ACAD_REACTORS
330
2A
102
}
330
2A
100
AcDbVisualStyle
  2
FlatWithEdges
 70
     1
 71
     2
 72
     1
 73
     1
 90
        2
 40
-0.6
 41
30.0
 62
     5
 63
     7
 74
     1
 91
        4
 64
     7
 65
   257
 75
     1
175
     1
 42
1.0
 92
        0
 66
   257
 43
1.0
 76
     1
 77
     6
 78
     2
 67
     7
 79
     5
170
     0
171
     0
290
     0
174
     0
 93
       13
 44
0.0
173
     0
291
     1
 45
0.0
1001
ACAD
1000
AcDbSavedByObjectVersion
1070
     0
  0
VISUALSTYLE
  5
2D
102
{ACAD_REACTORS
330
2A
102
}
330
2A
100
AcDbVisualStyle
  2
Gouraud
 70
     2
 71
     2
 72
     2
 73
     1
 90
        2
 40
-0.6
 41
30.0
 62
     5
 63
     7
 74
     0
 91
        4
 64
     7
 65
   257
 75
     1
175
     1
 42
1.0
 92
        0
 66
     7
 43
1.0
 76
     1
 77
     6
 78
     2
 67
     7
 79
     5
170
     0
171
     0
290
     0
174
     0
 93
       13
 44
0.0
173
     0
291
     1
 45
0.0
1001
ACAD
1000
AcDbSavedByObjectVersion
1070
     0
  0
VISUALSTYLE
  5
2E
102
{ACAD_REACTORS
330
2A
102
}
330
2A
100
AcDbVisualStyle
  2
GouraudWithEdges
 70
     3
 71
     2
 72
     2
 73
     1
 90
        2
 40
-0.6
 41
30.0
 62
     5
 63
     7
 74
     1
 91
        4
 64
     7
 65
   257
 75
     1
175
     1
 42
1.0
 92
        0
 66
   257
 43
1.0
 76
     1
 77
     6
 78
     2
 67
     7
 79
     5
170
     0
171
     0
290
     0
174
     0
 93
       13
 44
0.0
173
     0
291
     1
 45
0.0
1001
ACAD
1000
AcDbSavedByObjectVersion
1070
     0
  0
VISUALSTYLE
  5
38
102
{ACAD_REACTORS
330
2A
102
}
330
2A
100
AcDbVisualStyle
  2
Linepattern
 70
    14
 71
     2
 72
     2
 73
     0
 90
        0
 40
-0.6
 41
-30.0
 62
     5
 63
     7
 74
     1
 91
        4
 64
     7
 65
   257
 75
     7
175
     7
 42
1.0
 92
        8
 66
     7
 43
1.0
 76
     1
 77
     6
 78
     2
 67
     7
 79
     5
170
     0
171
     0
290
     0
174
     0
 93
        1
 44
0.0
173
     0
291
     1
 45
0.0
1001
ACAD
1000
AcDbSavedByObjectVersion
1070
     0
  0
VISUALSTYLE
  5
33
102
{ACAD_REACTORS
330
2A
102
}
330
2A
100
AcDbVisualStyle
  2
Realistic
 70
     8
 71
     2
 72
     2
 73
     0
 90
        0
 40
-0.6
 41
-30.0
 62
     5
 63
     7
 74
     1
 91
        0
 64
     7
 65
   257
 75
     1
175
     1
 42
1.0
 92
        8
 66
     8
 43
1.0
 76
     1
 77
     6
 78
     2
 67
     7
 79
     5
170
     0
171
     0
290
     0
174
     0
 93
       13
 44
0.0
173
     0
291
     0
 45
0.0
1001
ACAD
1000
AcDbSavedByObjectVersion
1070
     0
  0
VISUALSTYLE
  5
37
102
{ACAD_REACTORS
330
2A
102
}
330
2A
100
AcDbVisualStyle
  2
Thicken
 70
    13
 71
     2
 72
     2
 73
     0
 90
        0
 40
-0.6
 41
-30.0
 62
     5
 63
     7
 74
     1
 91
        4
 64
     7
 65
   257
 75
     1
175
     1
 42
1.0
 92
       12
 66
     7
 43
1.0
 76
     1
 77
     6
 78
     2
 67
     7
 79
     5
170
     0
171
     0
290
     0
174
     0
 93
        1
 44
0.0
173
     0
291
     1
 45
0.0
1001
ACAD
1000
AcDbSavedByObjectVersion
1070
     0
  0
DICTIONARYVAR
  5
223
102
{ACAD_REACTORS
330
222
102
}
330
222
100
DictionaryVariables
280
     0
  1
1:1
  0
DICTIONARYVAR
  5
227
102
{ACAD_REACTORS
330
222
102
}
330
222
100
DictionaryVariables
280
     0
  1
80.000000
  0
DICTIONARYVAR
  5
226
102
{ACAD_REACTORS
330
222
102
}
330
222
100
DictionaryVariables
280
     0
  1
5.000000
  0
ENDSEC
  0
EOF
