  0
SECTION
  2
HEADER
  9
$ACADVER
  1
AC1015
  9
$ACADMAINTVER
 70
     6
  9
$DWGCODEPAGE
  3
ANSI_1252
  9
$INSBASE
 10
0.0
 20
0.0
 30
0.0
  9
$EXTMIN
 10
0.0
 20
0.0
 30
0.0
  9
$EXTMAX
 10
3000.0
 20
4500.0
 30
0.0
  9
$LIMMIN
 10
0.0
 20
0.0
  9
$LIMMAX
 10
3000.0
 20
4500.0
  9
$ORTHOMODE
 70
     0
  9
$REGENMODE
 70
     1
  9
$FILLMODE
 70
     1
  9
$QTEXTMODE
 70
     0
  9
$MIRRTEXT
 70
     1
  9
$LTSCALE
 40
1.0
  9
$ATTMODE
 70
     1
  9
$TEXTSIZE
 40
2.5
  9
$TRACEWID
 40
1.0
  9
$TEXTSTYLE
  7
Standard
  9
$CLAYER
  8
0
  9
$CELTYPE
  6
ByLayer
  9
$CECOLOR
 62
   256
  9
$CELTSCALE
 40
1.0
  9
$DISPSILH
 70
     0
  9
$DIMSCALE
 40
1.0
  9
$DIMASZ
 40
2.5
  9
$DIMEXO
 40
0.625
  9
$DIMDLI
 40
3.75
  9
$DIMRND
 40
0.0
  9
$DIMDLE
 40
0.0
  9
$DIMEXE
 40
1.25
  9
$DIMTP
 40
0.0
  9
$DIMTM
 40
0.0
  9
$DIMTXT
 40
2.5
  9
$DIMCEN
 40
2.5
  9
$DIMTSZ
 40
0.0
  9
$DIMTOL
 70
     0
  9
$DIMLIM
 70
     0
  9
$DIMTIH
 70
     0
  9
$DIMTOH
 70
     0
  9
$DIMSE1
 70
     0
  9
$DIMSE2
 70
     0
  9
$DIMTAD
 70
     1
  9
$DIMZIN
 70
     8
  9
$DIMBLK
  1

  9
$DIMASO
 70
     1
  9
$DIMSHO
 70
     1
  9
$DIMPOST
  1

  9
$DIMAPOST
  1

  9
$DIMALT
 70
     0
  9
$DIMALTD
 70
     3
  9
$DIMALTF
 40
0.0393700787
  9
$DIMLFAC
 40
1.0
  9
$DIMTOFL
 70
     1
  9
$DIMTVP
 40
0.0
  9
$DIMTIX
 70
     0
  9
$DIMSOXD
 70
     0
  9
$DIMSAH
 70
     0
  9
$DIMBLK1
  1

  9
$DIMBLK2
  1

  9
$DIMSTYLE
  2
ISO-25
  9
$DIMCLRD
 70
     0
  9
$DIMCLRE
 70
     0
  9
$DIMCLRT
 70
     0
  9
$DIMTFAC
 40
1.0
  9
$DIMGAP
 40
0.625
  9
$DIMJUST
 70
     0
  9
$DIMSD1
 70
     0
  9
$DIMSD2
 70
     0
  9
$DIMTOLJ
 70
     0
  9
$DIMTZIN
 70
     8
  9
$DIMALTZ
 70
     0
  9
$DIMALTTZ
 70
     0
  9
$DIMUPT
 70
     0
  9
$DIMDEC
 70
     2
  9
$DIMTDEC
 70
     2
  9
$DIMALTU
 70
     2
  9
$DIMALTTD
 70
     3
  9
$DIMTXSTY
  7
Standard
  9
$DIMAUNIT
 70
     0
  9
$DIMADEC
 70
     0
  9
$DIMALTRND
 40
0.0
  9
$DIMAZIN
 70
     0
  9
$DIMDSEP
 70
    44
  9
$DIMATFIT
 70
     3
  9
$DIMFRAC
 70
     0
  9
$DIMLDRBLK
  1

  9
$DIMLUNIT
 70
     2
  9
$DIMLWD
 70
    -2
  9
$DIMLWE
 70
    -2
  9
$DIMTMOVE
 70
     0
  9
$LUNITS
 70
     2
  9
$LUPREC
 70
     4
  9
$SKETCHINC
 40
1.0
  9
$FILLETRAD
 40
10.0
  9
$AUNITS
 70
     0
  9
$AUPREC
 70
     0
  9
$MENU
  1
.
  9
$ELEVATION
 40
0.0
  9
$PELEVATION
 40
0.0
  9
$THICKNESS
 40
0.0
  9
$LIMCHECK
 70
     0
  9
$CHAMFERA
 40
10.0
  9
$CHAMFERB
 40
10.0
  9
$CHAMFERC
 40
20.0
  9
$CHAMFERD
 40
0.0
  9
$SKPOLY
 70
     0
  9
$TDCREATE
 40
2456813.566329352
  9
$TDUCREATE
 40
2456813.482996019
  9
$TDUPDATE
 40
2456813.566329363
  9
$TDUUPDATE
 40
2456813.48299603
  9
$TDINDWG
 40
0.0000000116
  9
$TDUSRTIMER
 40
0.0000000116
  9
$USRTIMER
 70
     1
  9
$ANGBASE
 50
0.0
  9
$ANGDIR
 70
     0
  9
$PDMODE
 70
     0
  9
$PDSIZE
 40
0.0
  9
$PLINEWID
 40
0.0
  9
$SPLFRAME
 70
     0
  9
$SPLINETYPE
 70
     6
  9
$SPLINESEGS
 70
     8
  9
$HANDSEED
  5
273
  9
$SURFTAB1
 70
     6
  9
$SURFTAB2
 70
     6
  9
$SURFTYPE
 70
     6
  9
$SURFU
 70
     6
  9
$SURFV
 70
     6
  9
$UCSBASE
  2

  9
$UCSNAME
  2

  9
$UCSORG
 10
0.0
 20
0.0
 30
0.0
  9
$UCSXDIR
 10
1.0
 20
0.0
 30
0.0
  9
$UCSYDIR
 10
0.0
 20
1.0
 30
0.0
  9
$UCSORTHOREF
  2

  9
$UCSORTHOVIEW
 70
     0
  9
$UCSORGTOP
 10
0.0
 20
0.0
 30
0.0
  9
$UCSORGBOTTOM
 10
0.0
 20
0.0
 30
0.0
  9
$UCSORGLEFT
 10
0.0
 20
0.0
 30
0.0
  9
$UCSORGRIGHT
 10
0.0
 20
0.0
 30
0.0
  9
$UCSORGFRONT
 10
0.0
 20
0.0
 30
0.0
  9
$UCSORGBACK
 10
0.0
 20
0.0
 30
0.0
  9
$PUCSBASE
  2

  9
$PUCSNAME
  2

  9
$PUCSORG
 10
0.0
 20
0.0
 30
0.0
  9
$PUCSXDIR
 10
1.0
 20
0.0
 30
0.0
  9
$PUCSYDIR
 10
0.0
 20
1.0
 30
0.0
  9
$PUCSORTHOREF
  2

  9
$PUCSORTHOVIEW
 70
     0
  9
$PUCSORGTOP
 10
0.0
 20
0.0
 30
0.0
  9
$PUCSORGBOTTOM
 10
0.0
 20
0.0
 30
0.0
  9
$PUCSORGLEFT
 10
0.0
 20
0.0
 30
0.0
  9
$PUCSORGRIGHT
 10
0.0
 20
0.0
 30
0.0
  9
$PUCSORGFRONT
 10
0.0
 20
0.0
 30
0.0
  9
$PUCSORGBACK
 10
0.0
 20
0.0
 30
0.0
  9
$USERI1
 70
     0
  9
$USERI2
 70
     0
  9
$USERI3
 70
     0
  9
$USERI4
 70
     0
  9
$USERI5
 70
     0
  9
$USERR1
 40
0.0
  9
$USERR2
 40
0.0
  9
$USERR3
 40
0.0
  9
$USERR4
 40
0.0
  9
$USERR5
 40
0.0
  9
$WORLDVIEW
 70
     1
  9
$SHADEDGE
 70
     3
  9
$SHADEDIF
 70
    70
  9
$TILEMODE
 70
     1
  9
$MAXACTVP
 70
    64
  9
$PINSBASE
 10
0.0
 20
0.0
 30
0.0
  9
$PLIMCHECK
 70
     0
  9
$PEXTMIN
 10
0.0
 20
0.0
 30
0.0
  9
$PEXTMAX
 10
3000.0
 20
4500.0
 30
0.0
  9
$PLIMMIN
 10
0.0
 20
0.0
  9
$PLIMMAX
 10
3000.0
 20
4500.0
  9
$UNITMODE
 70
     0
  9
$VISRETAIN
 70
     1
  9
$PLINEGEN
 70
     0
  9
$PSLTSCALE
 70
     1
  9
$TREEDEPTH
 70
  3020
  9
$CMLSTYLE
  2
Standard
  9
$CMLJUST
 70
     0
  9
$CMLSCALE
 40
20.0
  9
$PROXYGRAPHICS
 70
     1
  9
$MEASUREMENT
 70
     1
  9
$CELWEIGHT
370
    -1
  9
$ENDCAPS
280
     0
  9
$JOINSTYLE
280
     0
  9
$LWDISPLAY
290
     0
  9
$INSUNITS
 70
     4
  9
$HYPERLINKBASE
  1

  9
$STYLESHEET
  1

  9
$XEDIT
290
     1
  9
$CEPSNTYPE
380
     0
  9
$PSTYLEMODE
290
     1
  9
$FINGERPRINTGUID
  2
{0A7121ED-AB28-4D76-82A9-9E8EE8BE504F}
  9
$VERSIONGUID
  2
{FAEB1C32-E019-11D5-929B-00C0DF256EC4}
  9
$EXTNAMES
290
     1
  9
$PSVPSCALE
 40
0.0
  9
$OLESTARTUP
290
     0
  0
ENDSEC
  0
SECTION
  2
CLASSES
  0
CLASS
  1
ACDBDICTIONARYWDFLT
  2
AcDbDictionaryWithDefault
  3
ObjectDBX Classes
 90
        0
280
     0
281
     0
  0
CLASS
  1
VISUALSTYLE
  2
AcDbVisualStyle
  3
ObjectDBX Classes
 90
     4095
280
     0
281
     0
  0
CLASS
  1
SCALE
  2
AcDbScale
  3
ObjectDBX Classes
 90
     1153
280
     0
281
     0
  0
CLASS
  1
DICTIONARYVAR
  2
AcDbDictionaryVar
  3
ObjectDBX Classes
 90
        0
280
     0
281
     0
  0
CLASS
  1
ACDBPLACEHOLDER
  2
AcDbPlaceHolder
  3
ObjectDBX Classes
 90
        0
280
     0
281
     0
  0
CLASS
  1
LAYOUT
  2
AcDbLayout
  3
ObjectDBX Classes
 90
        0
280
     0
281
     0
  0
ENDSEC
  0
SECTION
  2
TABLES
  0
TABLE
  2
VPORT
  5
8
330
0
100
AcDbSymbolTable
 70
     1
  0
VPORT
  5
29
330
8
100
AcDbSymbolTableRecord
100
AcDbViewportTableRecord
  2
*Active
 70
     0
 10
0.0
 20
0.0
 11
1.0
 21
1.0
 12
344.1869158879
 22
148.5
 13
0.0
 23
0.0
 14
10.0
 24
10.0
 15
10.0
 25
10.0
 16
0.0
 26
0.0
 36
1.0
 17
0.0
 27
0.0
 37
0.0
 40
297.0
 41
1.9729729729
 42
50.0
 43
0.0
 44
0.0
 50
0.0
 51
0.0
 71
     0
 72
   100
 73
     1
 74
     3
 75
     0
 76
     0
 77
     0
 78
     0
281
     0
 65
     1
110
0.0
120
0.0
130
0.0
111
1.0
121
0.0
131
0.0
112
0.0
122
1.0
132
0.0
 79
     0
146
0.0
  0
ENDTAB
  0
TABLE
  2
LTYPE
  5
5
330
0
100
AcDbSymbolTable
 70
     2
  0
LTYPE
  5
14
330
5
100
AcDbSymbolTableRecord
100
AcDbLinetypeTableRecord
  2
ByBlock
 70
     0
  3

 72
    65
 73
     0
 40
0.0
  0
LTYPE
  5
15
330
5
100
AcDbSymbolTableRecord
100
AcDbLinetypeTableRecord
  2
ByLayer
 70
     0
  3

 72
    65
 73
     0
 40
0.0
  0
LTYPE
  5
16
330
5
100
AcDbSymbolTableRecord
100
AcDbLinetypeTableRecord
  2
Continuous
 70
     0
  3
Solid line
 72
    65
 73
     0
 40
0.0
  0
LTYPE
  5
60
330
5
100
AcDbSymbolTableRecord
100
AcDbLinetypeTableRecord
  2
CENTER2
 70
     0
  3
Center (.5x) ___ _ ___ _ ___ _ ___ _ ___ _ ___
 72
    65
 73
     4
 40
28.575
 49
19.05
 74
     4
 75
     0
340
0
 46
0.0
 50
0.0
 44
0.0
 45
0.0
 49
-3.175
 74
     4
 75
     0
340
0
 46
0.0
 50
0.0
 44
0.0
 45
0.0
 49
3.175
 74
     4
 75
     0
340
0
 46
0.0
 50
0.0
 44
0.0
 45
0.0
 49
-3.175
 74
     4
 75
     0
340
0
 46
0.0
 50
0.0
 44
0.0
 45
0.0
  0
ENDTAB
  0
TABLE
  2
LAYER
  5
2
330
0
100
AcDbSymbolTable
 70
     5
  0
LAYER
  5
10
330
2
100
AcDbSymbolTableRecord
100
AcDbLayerTableRecord
  2
0
 70
     0
 62
     7
  6
Continuous
370
    -3
390
F
  0
LAYER
  5
5D
330
2
100
AcDbSymbolTableRecord
100
AcDbLayerTableRecord
  2
Default
 70
     0
 62
     7
  6
Continuous
370
    -3
390
F
  0
LAYER
  5
77
330
2
100
AcDbSymbolTableRecord
100
AcDbLayerTableRecord
  2
DV1_Default
 70
     0
 62
     7
  6
Continuous
370
    -3
390
F
  0
LAYER
  5
CE
330
2
100
AcDbSymbolTableRecord
100
AcDbLayerTableRecord
  2
DV2_Default
 70
     0
 62
     7
  6
Continuous
370
    -3
390
F
  0
LAYER
  5
13C
330
2
100
AcDbSymbolTableRecord
100
AcDbLayerTableRecord
  2
DV3_Default
 70
     0
 62
     7
  6
Continuous
370
    -3
390
F
  0
ENDTAB
  0
TABLE
  2
STYLE
  5
3
330
0
100
AcDbSymbolTable
 70
     2
  0
STYLE
  5
11
330
3
100
AcDbSymbolTableRecord
100
AcDbTextStyleTableRecord
  2
Standard
 70
     0
 40
0.0
 41
1.0
 50
0.0
 71
     0
 42
2.5
  3
txt
  4

  0
STYLE
  5
262
330
3
100
AcDbSymbolTableRecord
100
AcDbTextStyleTableRecord
  2
SEACAD_seiso_ttf
 70
     0
 40
0.0
 41
1.0
 50
0.0
 71
     0
 42
0.2
  3
seiso.ttf
  4

  0
ENDTAB
  0
TABLE
  2
VIEW
  5
6
330
0
100
AcDbSymbolTable
 70
     0
  0
ENDTAB
  0
TABLE
  2
UCS
  5
7
330
0
100
AcDbSymbolTable
 70
     0
  0
ENDTAB
  0
TABLE
  2
APPID
  5
9
330
0
100
AcDbSymbolTable
 70
     1
  0
APPID
  5
12
330
9
100
AcDbSymbolTableRecord
100
AcDbRegAppTableRecord
  2
ACAD
 70
     0
  0
ENDTAB
  0
TABLE
  2
DIMSTYLE
  5
A
330
0
100
AcDbSymbolTable
 70
     1
100
AcDbDimStyleTable
  0
DIMSTYLE
105
27
330
A
100
AcDbSymbolTableRecord
100
AcDbDimStyleTableRecord
  2
ISO-25
 70
     0
 41
2.5
 42
0.625
 43
3.75
 44
1.25
 73
     0
 74
     0
 77
     1
 78
     8
140
2.5
141
2.5
143
0.0393700787
147
0.625
171
     3
172
     1
271
     2
272
     2
274
     3
278
    44
283
     0
284
     8
340
11
  0
ENDTAB
  0
TABLE
  2
BLOCK_RECORD
  5
1
330
0
100
AcDbSymbolTable
 70
     7
  0
BLOCK_RECORD
  5
1F
330
1
100
AcDbSymbolTableRecord
100
AcDbBlockTableRecord
  2
*Model_Space
340
22
  0
BLOCK_RECORD
  5
1B
330
1
100
AcDbSymbolTableRecord
100
AcDbBlockTableRecord
  2
*Paper_Space
340
1E
  0
BLOCK_RECORD
  5
5E
330
1
100
AcDbSymbolTableRecord
100
AcDbBlockTableRecord
  2
SEANNOT_GROUP
340
0
102
{BLKREFS
331
5F
102
}
  0
BLOCK_RECORD
  5
65
330
1
100
AcDbSymbolTableRecord
100
AcDbBlockTableRecord
  2
SEANNOT_GROUP1
340
0
102
{BLKREFS
331
66
102
}
  0
BLOCK_RECORD
  5
6B
330
1
100
AcDbSymbolTableRecord
100
AcDbBlockTableRecord
  2
SEANNOT_GROUP2
340
0
102
{BLKREFS
331
6C
102
}
  0
BLOCK_RECORD
  5
75
330
1
100
AcDbSymbolTableRecord
100
AcDbBlockTableRecord
  2
SE
340
0
102
{BLKREFS
331
76
102
}
  0
BLOCK_RECORD
  5
CC
330
1
100
AcDbSymbolTableRecord
100
AcDbBlockTableRecord
  2
SE1
340
0
102
{BLKREFS
331
CD
102
}
  0
BLOCK_RECORD
  5
13A
330
1
100
AcDbSymbolTableRecord
100
AcDbBlockTableRecord
  2
SE2
340
0
102
{BLKREFS
331
13B
102
}
  0
ENDTAB
  0
ENDSEC
  0
SECTION
  2
BLOCKS
  0
BLOCK
  5
20
330
1F
100
AcDbEntity
  8
0
100
AcDbBlockBegin
  2
*Model_Space
 70
     0
 10
0.0
 20
0.0
 30
0.0
  3
*Model_Space
  1

  0
ENDBLK
  5
21
330
1F
100
AcDbEntity
  8
0
100
AcDbBlockEnd
  0
BLOCK
  5
1C
330
1B
100
AcDbEntity
 67
     1
  8
0
100
AcDbBlockBegin
  2
*Paper_Space
 70
     0
 10
0.0
 20
0.0
 30
0.0
  3
*Paper_Space
  1

  0
ENDBLK
  5
1D
330
1B
100
AcDbEntity
 67
     1
  8
0
100
AcDbBlockEnd
  0
BLOCK
  5
63
330
5E
100
AcDbEntity
  8
0
100
AcDbBlockBegin
  2
SEANNOT_GROUP
 70
     0
 10
0.0
 20
0.0
 30
0.0
  3
SEANNOT_GROUP
  1

  0
LINE
  5
61
330
5E
100
AcDbEntity
  8
Default
  6
CENTER2
 62
     7
100
AcDbLine
 10
51.3500025126
 20
339.758969783
 30
0.0
 11
11.3500034067
 21
339.758969783
 31
0.0
  0
LINE
  5
62
330
5E
100
AcDbEntity
  8
Default
  6
CENTER2
 62
     7
100
AcDbLine
 10
31.3500029596
 20
359.758969336
 30
0.0
 11
31.3500029596
 21
319.7589702301
 31
0.0
  0
ENDBLK
  5
64
330
5E
100
AcDbEntity
  8
0
100
AcDbBlockEnd
  0
BLOCK
  5
69
330
65
100
AcDbEntity
  8
0
100
AcDbBlockBegin
  2
SEANNOT_GROUP1
 70
     0
 10
0.0
 20
0.0
 30
0.0
  3
SEANNOT_GROUP1
  1

  0
LINE
  5
67
330
65
100
AcDbEntity
  8
Default
  6
CENTER2
 62
     7
100
AcDbLine
 10
191.095715613
 20
339.758969783
 30
0.0
 11
151.0957165071
 21
339.758969783
 31
0.0
  0
LINE
  5
68
330
65
100
AcDbEntity
  8
Default
  6
CENTER2
 62
     7
100
AcDbLine
 10
171.09571606
 20
359.758969336
 30
0.0
 11
171.09571606
 21
319.7589702301
 31
0.0
  0
ENDBLK
  5
6A
330
65
100
AcDbEntity
  8
0
100
AcDbBlockEnd
  0
BLOCK
  5
73
330
6B
100
AcDbEntity
  8
0
100
AcDbBlockBegin
  2
SEANNOT_GROUP2
 70
     0
 10
0.0
 20
0.0
 30
0.0
  3
SEANNOT_GROUP2
  1

  0
LINE
  5
6D
330
6B
100
AcDbEntity
  8
Default
  6
CENTER2
 62
     7
100
AcDbLine
 10
31.3500029596
 20
220.5972032511
 30
0.0
 11
31.3500029596
 21
260.5972023571
 31
0.0
  0
LINE
  5
6E
330
6B
100
AcDbEntity
  8
Default
  6
CENTER2
 62
     7
100
AcDbLine
 10
51.3500025126
 20
240.5972028041
 30
0.0
 11
11.3500034067
 21
240.5972028041
 31
0.0
  0
LINE
  5
6F
330
6B
100
AcDbEntity
  8
Default
  6
CENTER2
 62
     7
100
AcDbLine
 10
31.3500029596
 20
215.5972033629
 30
0.0
 11
31.3500029596
 21
211.9139461242
 31
0.0
  0
LINE
  5
70
330
6B
100
AcDbEntity
  8
Default
  6
CENTER2
 62
     7
100
AcDbLine
 10
56.3500024008
 20
240.5972028041
 30
0.0
 11
59.8500029596
 21
240.5972028041
 31
0.0
  0
LINE
  5
71
330
6B
100
AcDbEntity
  8
Default
  6
CENTER2
 62
     7
100
AcDbLine
 10
31.3500029596
 20
265.5972022453
 30
0.0
 11
31.3500029596
 21
269.280459484
 31
0.0
  0
LINE
  5
72
330
6B
100
AcDbEntity
  8
Default
  6
CENTER2
 62
     7
100
AcDbLine
 10
6.3500035184
 20
240.5972028041
 30
0.0
 11
2.8500029596
 21
240.5972028041
 31
0.0
  0
ENDBLK
  5
74
330
6B
100
AcDbEntity
  8
0
100
AcDbBlockEnd
  0
BLOCK
  5
CA
330
75
100
AcDbEntity
  8
0
100
AcDbBlockBegin
  2
SE
 70
     0
 10
0.0
 20
0.0
 30
0.0
  3
SE
  1

  0
SPLINE
  5
78
330
75
100
AcDbEntity
  8
DV1_Default
  6
Continuous
 62
     7
100
AcDbSpline
210
0.0
220
0.0
230
1.0
 70
     8
 71
     3
 72
    18
 73
    14
 74
     0
 42
0.0000000000967486
 43
0.0000000001
 40
0.0
 40
0.0
 40
0.0
 40
0.0
 40
0.4934276476225819
 40
0.4934276476225819
 40
0.7704371593404421
 40
0.7704371593404421
 40
0.8396895372699072
 40
0.8396895372699072
 40
0.9089419151993724
 40
0.9089419151993724
 40
0.9781942931288375
 40
0.9781942931288375
 40
1.0
 40
1.0
 40
1.0
 40
1.0
 10
55.82911451437899
 20
218.9267499137632
 30
0.0
 10
54.59326289099509
 20
201.9702610500008
 30
0.0
 10
53.3538914724723
 20
185.0142520331665
 30
0.0
 10
51.40610127180877
 20
158.5405761098316
 30
0.0
 10
50.70197143629724
 20
149.0223315998531
 30
0.0
 10
49.81941129564222
 20
137.1249054530784
 30
0.0
 10
49.64315451097243
 20
134.7454422675963
 30
0.0
 10
49.27863825652134
 20
129.987401799517
 30
0.0
 10
49.14281456387845
 20
127.6049494250148
 30
0.0
 10
48.71405638466374
 20
122.8526172502757
 30
0.0
 10
48.38435526440292
 20
120.4990321277321
 30
0.0
 10
47.41207613505951
 20
117.5070699320092
 30
0.0
 10
47.14215297386888
 20
116.8048698116951
 30
0.0
 10
46.83356283486435
 20
116.1239723164992
 30
0.0
  0
SPLINE
  5
79
330
75
100
AcDbEntity
  8
DV1_Default
  6
Continuous
 62
     7
100
AcDbSpline
210
0.0
220
0.0
230
1.0
 70
     8
 71
     3
 72
    10
 73
     6
 74
     0
 42
0.0000000005693638
 43
0.0000000001
 40
0.0
 40
0.0
 40
0.0
 40
0.0
 40
0.5433001607463971
 40
0.5433001607463971
 40
1.0
 40
1.0
 40
1.0
 40
1.0
 10
8.150965430196434
 20
201.3848521653295
 30
0.0
 10
7.919292568742561
 20
204.5556380729917
 30
0.0
 10
7.68779193732777
 20
207.7264454450915
 30
0.0
 10
7.261971930271362
 20
213.5626875503157
 30
0.0
 10
7.067145324320508
 20
216.2343995865529
 30
0.0
 10
6.872729051914418
 20
218.9017382040385
 30
0.0
  0
SPLINE
  5
7A
330
75
100
AcDbEntity
  8
DV1_Default
  6
Continuous
 62
     7
100
AcDbSpline
210
0.0
220
0.0
230
1.0
 70
     8
 71
     3
 72
    14
 73
    10
 74
     0
 42
0.0000000002679158
 43
0.0000000001
 40
0.0
 40
0.0
 40
0.0
 40
0.0
 40
0.4003807574634238
 40
0.4003807574634238
 40
0.7839954564334016
 40
0.7839954564334016
 40
0.97580280591839
 40
0.97580280591839
 40
1.0
 40
1.0
 40
1.0
 40
1.0
 10
53.11397960101162
 20
181.7093783551719
 30
0.0
 10
53.47718249868343
 20
186.6775232236581
 30
0.0
 10
53.84001101465095
 20
191.645665680593
 30
0.0
 10
54.54995678676669
 20
201.3738975492493
 30
0.0
 10
54.89708090234906
 20
206.1339867946155
 30
0.0
 10
55.41749044399004
 20
213.2741112022958
 30
0.0
 10
55.59091026539235
 20
215.654150677267
 30
0.0
 10
55.78616143603105
 20
218.3344371591851
 30
0.0
 10
55.80805120372534
 20
218.6349355163859
 30
0.0
 10
55.8299514146134
 20
218.9355862660204
 30
0.0
  0
SPLINE
  5
7B
330
75
100
AcDbEntity
  8
DV1_Default
  6
Continuous
 62
     7
100
AcDbSpline
210
0.0
220
0.0
230
1.0
 70
     8
 71
     3
 72
     8
 73
     4
 74
     0
 42
0.0000000002617341
 43
0.0000000001
 40
0.0
 40
0.0
 40
0.0
 40
0.0
 40
1.0
 40
1.0
 40
1.0
 40
1.0
 10
6.871608046799621
 20
218.9141168303951
 30
0.0
 10
7.796797376807354
 20
206.2123661921817
 30
0.0
 10
8.723060352962493
 20
193.5105316492506
 30
0.0
 10
9.65182703577194
 20
180.8086859818679
 30
0.0
  0
SPLINE
  5
7C
330
75
100
AcDbEntity
  8
DV1_Default
  6
Continuous
 62
     7
100
AcDbSpline
210
0.0
220
0.0
230
1.0
 70
     8
 71
     3
 72
    36
 73
    32
 74
     0
 42
0.0000000000418754
 43
0.0000000001
 40
0.0
 40
0.0
 40
0.0
 40
0.0
 40
0.2499999999999999
 40
0.2499999999999999
 40
0.375
 40
0.375
 40
0.40625
 40
0.40625
 40
0.4375
 40
0.4375
 40
0.4531249999999999
 40
0.4531249999999999
 40
0.4687499999999999
 40
0.4687499999999999
 40
0.4999999999999999
 40
0.4999999999999999
 40
0.5312499999999999
 40
0.5312499999999999
 40
0.546875
 40
0.546875
 40
0.5625
 40
0.5625
 40
0.578125
 40
0.578125
 40
0.59375
 40
0.59375
 40
0.625
 40
0.625
 40
0.75
 40
0.75
 40
1.0
 40
1.0
 40
1.0
 40
1.0
 10
6.958061157929789
 20
223.2432425199391
 30
0.0
 10
8.805060872634323
 20
203.7644512705304
 30
0.0
 10
10.64861454962072
 20
184.2853388199147
 30
0.0
 10
13.40590801618237
 20
155.0659210782377
 30
0.0
 10
14.32454145906175
 20
145.3260721426077
 30
0.0
 10
15.4684579802526
 20
133.1508548580955
 30
0.0
 10
15.65280958549604
 20
130.707295483545
 30
0.0
 10
16.31196710737912
 20
125.8759019015406
 30
0.0
 10
16.78785545402715
 20
123.4882802682215
 30
0.0
 10
18.41778751585563
 20
120.0826369776953
 30
0.0
 10
19.12151605729956
 20
119.0251938298802
 30
0.0
 10
20.8207465298598
 20
117.1779834286645
 30
0.0
 10
21.7981377693784
 20
116.3483945481016
 30
0.0
 10
24.99100912881293
 20
114.25849242611
 30
0.0
 10
27.46528269904321
 20
113.4018043679407
 30
0.0
 10
32.5374637742046
 20
112.9677262217684
 30
0.0
 10
35.12449528152856
 20
113.3757545433584
 30
0.0
 10
38.63516981853621
 20
114.88149377762
 30
0.0
 10
39.73499875385433
 20
115.5220422476992
 30
0.0
 10
41.73379389411336
 20
117.0488737798619
 30
0.0
 10
42.66204728969514
 20
117.9370787031813
 30
0.0
 10
44.18840984913169
 20
119.9148264810128
 30
0.0
 10
44.79284737147117
 20
121.0356494663691
 30
0.0
 10
45.71741580300419
 20
123.3712263394748
 30
0.0
 10
46.04551265204084
 20
124.5755901399356
 30
0.0
 10
46.80373063077176
 20
128.2503019953109
 30
0.0
 10
47.0089498488262
 20
130.7669367756885
 30
0.0
 10
48.1773737465363
 20
143.2618114059774
 30
0.0
 10
49.12353383743569
 20
153.256618037082
 30
0.0
 10
51.95252373219073
 20
183.2419529748139
 30
0.0
 10
53.84431319339973
 20
203.2316362198393
 30
0.0
 10
55.73980801716952
 20
223.2209740608653
 30
0.0
  0
ELLIPSE
  5
7D
330
75
100
AcDbEntity
  8
DV1_Default
  6
Continuous
 62
     7
100
AcDbEllipse
 10
31.3500029596
 20
225.584263388
 30
0.0
 11
24.99999999999957
 21
4.744468706796568E-12
 31
0.0
210
0.0
220
0.0
230
1.0
 40
0.9925461458
 41
-0.0948025917938067
 42
3.23549470203828
  0
SPLINE
  5
7E
330
75
100
AcDbEntity
  8
DV1_Default
  6
Continuous
 62
     7
100
AcDbSpline
210
0.0
220
0.0
230
1.0
 70
     8
 71
     3
 72
     8
 73
     4
 74
     0
 42
0.0000000002571962
 43
0.0000000001
 40
0.0
 40
0.0
 40
0.0
 40
0.0
 40
0.9999999999999999
 40
0.9999999999999999
 40
0.9999999999999999
 40
0.9999999999999999
 10
56.23760803119707
 20
223.2354187452819
 30
0.0
 10
55.01431484592438
 20
210.3332881924765
 30
0.0
 10
53.79218370527477
 20
197.4308084755475
 30
0.0
 10
52.57083953295768
 20
184.5278801508266
 30
0.0
  0
SPLINE
  5
7F
330
75
100
AcDbEntity
  8
DV1_Default
  6
Continuous
 62
     7
100
AcDbSpline
210
0.0
220
0.0
230
1.0
 70
     8
 71
     3
 72
     8
 73
     4
 74
     0
 42
0.0000000002654049
 43
0.0000000001
 40
0.0
 40
0.0
 40
0.0
 40
0.0
 40
1.0
 40
1.0
 40
1.0
 40
1.0
 10
10.01381393342883
 20
185.7473336498191
 30
0.0
 10
8.83016195975737
 20
198.2511632421286
 30
0.0
 10
7.645666836050453
 20
210.7545632950485
 30
0.0
 10
6.460263493577035
 20
223.2576637709976
 30
0.0
  0
ELLIPSE
  5
80
330
75
100
AcDbEntity
  8
DV1_Default
  6
Continuous
 62
     7
100
AcDbEllipse
 10
31.35
 20
226.0955433449
 30
0.0
 11
-23.05000000000012
 21
9.638123632527140E-12
 31
0.0
210
0.0
220
0.0
230
1.0
 40
0.9925461516
 41
0.0152515282158817
 42
0.2255190822169631
  0
ELLIPSE
  5
81
330
75
100
AcDbEntity
  8
DV1_Default
  6
Continuous
 62
     7
100
AcDbEllipse
 10
31.35
 20
226.0955433449
 30
0.0
 11
-23.05000000000012
 21
9.638123632527140E-12
 31
0.0
210
0.0
220
0.0
230
1.0
 40
0.9925461516
 41
2.953766297533467
 42
3.141592653589792
  0
ELLIPSE
  5
82
330
75
100
AcDbEntity
  8
DV1_Default
  6
Continuous
 62
     7
100
AcDbEllipse
 10
31.35
 20
226.3764190501
 30
0.0
 11
-23.05000000000024
 21
1.716161934783855E-11
 31
0.0
210
0.0
220
0.0
230
1.0
 40
0.9925461516
 41
0.0203203796588808
 42
0.1125719640544072
  0
ELLIPSE
  5
83
330
75
100
AcDbEntity
  8
DV1_Default
  6
Continuous
 62
     7
100
AcDbEllipse
 10
31.35
 20
226.3764190501
 30
0.0
 11
-23.05000000000024
 21
1.716161934783855E-11
 31
0.0
210
0.0
220
0.0
230
1.0
 40
0.9925461516
 41
3.054809551723384
 42
3.133066276899064
  0
SPLINE
  5
84
330
75
100
AcDbEntity
  8
DV1_Default
  6
Continuous
 62
     7
100
AcDbSpline
210
0.0
220
0.0
230
1.0
 70
     8
 71
     3
 72
    30
 73
    26
 74
     0
 42
0.0000000014370641
 43
0.0000000001
 40
0.0
 40
0.0
 40
0.0
 40
0.0
 40
0.0131282247542261
 40
0.0131282247542261
 40
0.1752782611536792
 40
0.1752782611536792
 40
0.3374282975531323
 40
0.3374282975531323
 40
0.4185033157528589
 40
0.4185033157528589
 40
0.4590408248527223
 40
0.4590408248527223
 40
0.4995783339525855
 40
0.4995783339525855
 40
0.5401158430524489
 40
0.5401158430524489
 40
0.5806533521523122
 40
0.5806533521523122
 40
0.6617283703520397
 40
0.6617283703520397
 40
0.8238784067514944
 40
0.8238784067514944
 40
0.9860284431509493
 40
0.9860284431509493
 40
1.0
 40
1.0
 40
1.0
 40
1.0
 10
33.35657206099511
 20
262.1937926889187
 30
0.0
 10
33.38561219410651
 20
262.1806875585486
 30
0.0
 10
33.41304868912979
 20
262.1675923826295
 30
0.0
 10
33.76155363119663
 20
261.9933191455202
 30
0.0
 10
33.8660403733648
 20
261.8421675993613
 30
0.0
 10
33.83057869060736
 20
261.5668409013012
 30
0.0
 10
33.69003743479564
 20
261.4448415017151
 30
0.0
 10
33.20343802828104
 20
261.2823786006492
 30
0.0
 10
33.00049010670878
 20
261.2329114510156
 30
0.0
 10
32.55361710826437
 20
261.1677157009043
 30
0.0
 10
32.37750723774632
 20
261.1471995108641
 30
0.0
 10
31.94128050639074
 20
261.1144866646941
 30
0.0
 10
31.67142053631624
 20
261.1023472335023
 30
0.0
 10
31.08526979523148
 20
261.1009165621235
 30
0.0
 10
30.8073825290794
 20
261.1119553972699
 30
0.0
 10
30.36011386140053
 20
261.1434574352778
 30
0.0
 10
30.18102143296549
 20
261.1634816260242
 30
0.0
 10
29.72026229313881
 20
261.2284641306298
 30
0.0
 10
29.51044717947567
 20
261.2787747698629
 30
0.0
 10
29.01725159776626
 20
261.4404495620162
 30
0.0
 10
28.87200586282963
 20
261.5636181664767
 30
0.0
 10
28.8322313668004
 20
261.839119915976
 30
0.0
 10
28.9332007901716
 20
261.9893605531253
 30
0.0
 10
29.28298383838502
 20
262.1657105962142
 30
0.0
 10
29.31218995194702
 20
262.1797193505015
 30
0.0
 10
29.34318177904124
 20
262.1937155657528
 30
0.0
  0
ELLIPSE
  5
85
330
75
100
AcDbEntity
  8
DV1_Default
  6
Continuous
 62
     7
100
AcDbEllipse
 10
31.3500029596
 20
240.5972028041
 30
0.0
 11
-4.420322864560427E-12
 21
-25.18325667992569
 31
0.0
210
0.0
220
0.0
230
1.0
 40
0.9927230746
 41
1.570796326795071
 42
3.061507192322064
  0
ELLIPSE
  5
86
330
75
100
AcDbEntity
  8
DV1_Default
  6
Continuous
 62
     7
100
AcDbEllipse
 10
31.3500029596
 20
240.5972028041
 30
0.0
 11
-4.420322864560427E-12
 21
-25.18325667992569
 31
0.0
210
0.0
220
0.0
230
1.0
 40
0.9927230746
 41
3.221678352389382
 42
4.712388980384864
  0
ARC
  5
87
330
75
100
AcDbEntity
  8
DV1_Default
  6
Continuous
 62
     7
100
AcDbCircle
 10
31.35
 20
225.593345268
 30
0.0
 40
22.95973511088114
100
AcDbArc
 50
0.0
 51
254.6685974843
  0
ARC
  5
88
330
75
100
AcDbEntity
  8
DV1_Default
  6
Continuous
 62
     7
100
AcDbCircle
 10
31.35
 20
225.593345268
 30
0.0
 40
22.95973511088114
100
AcDbArc
 50
284.9830539565
 51
360.0
  0
ARC
  5
89
330
75
100
AcDbEntity
  8
DV1_Default
  6
Continuous
 62
     7
100
AcDbCircle
 10
31.3500038519
 20
225.5284474348
 30
0.0
 40
23.25149757725287
100
AcDbArc
 50
284.9271876764
 51
360.0
  0
ARC
  5
8A
330
75
100
AcDbEntity
  8
DV1_Default
  6
Continuous
 62
     7
100
AcDbCircle
 10
31.3500038519
 20
225.5284474348
 30
0.0
 40
23.25149757725287
100
AcDbArc
 50
0.0
 51
254.7237331376
  0
SPLINE
  5
8B
330
75
100
AcDbEntity
  8
DV1_Default
  6
Continuous
 62
     7
100
AcDbSpline
210
0.0
220
0.0
230
1.0
 70
     8
 71
     3
 72
    29
 73
    25
 74
     0
 42
0.0000000001409293
 43
0.0000000001
 40
0.0
 40
0.0
 40
0.0
 40
0.0
 40
0.0081048059911639
 40
0.0191409512389744
 40
0.0293313199025182
 40
0.040206343644769
 40
0.0505128847989787
 40
0.0621776835483611
 40
0.0741365021988298
 40
0.0864154018282448
 40
0.0990140807960078
 40
0.1119621256656002
 40
0.1249703049432534
 40
0.1386485961111412
 40
0.1531374880193619
 40
0.1686490542881519
 40
0.1854955476626889
 40
0.20419271312614
 40
0.2257299999246999
 40
0.2550874035346352
 40
0.3411963929904239
 40
0.4510713552183289
 40
0.5861098537681634
 40
1.0
 40
1.0
 40
1.0
 40
1.0
 10
44.22051845404325
 20
112.0036120302995
 30
0.0
 10
44.36008747297586
 20
112.1614116599245
 30
0.0
 10
44.63810516640368
 20
112.4774968796211
 30
0.0
 10
45.08027207338919
 20
113.0330278882269
 30
0.0
 10
45.524751765768
 20
113.6440391254222
 30
0.0
 10
45.92645624422299
 20
114.269930306356
 30
0.0
 10
46.3133304571714
 20
114.9433481932279
 30
0.0
 10
46.68186004170403
 20
115.656494778385
 30
0.0
 10
47.03631071436232
 20
116.4281828668824
 30
0.0
 10
47.36406610611466
 20
117.2354509890455
 30
0.0
 10
47.6644280948467
 20
118.0781577071608
 30
0.0
 10
47.93215923816793
 20
118.9498455238613
 30
0.0
 10
48.16951756561642
 20
119.8566245740073
 30
0.0
 10
48.37967855586523
 20
120.8074180237236
 30
0.0
 10
48.56639186859541
 20
121.8233336450592
 30
0.0
 10
48.73103824214183
 20
122.9188913657201
 30
0.0
 10
48.87577726815335
 20
124.1175915146596
 30
0.0
 10
49.00481012566289
 20
125.4613854799072
 30
0.0
 10
49.13009550761626
 20
127.1025795923726
 30
0.0
 10
49.37517871443619
 20
130.3333694428838
 30
0.0
 10
49.75530570363205
 20
135.6534097118531
 30
0.0
 10
50.31216814363981
 20
143.4438173630111
 30
0.0
 10
51.4716961222771
 20
159.1432208498442
 30
0.0
 10
52.33131096149254
 20
170.9726599937927
 30
0.0
 10
53.11532651721964
 20
181.7123823334854
 30
0.0
  0
ARC
  5
8C
330
75
100
AcDbEntity
  8
DV1_Default
  6
Continuous
 62
     7
100
AcDbCircle
 10
31.348125675
 20
123.8396973974
 30
0.0
 40
17.48969739742628
100
AcDbArc
 50
222.6061937331
 51
317.4014387226
  0
SPLINE
  5
8D
330
75
100
AcDbEntity
  8
DV1_Default
  6
Continuous
 62
     7
100
AcDbSpline
210
0.0
220
0.0
230
1.0
 70
     8
 71
     3
 72
    28
 73
    24
 74
     0
 42
0.0000000001427441
 43
0.0000000001
 40
0.0
 40
0.0
 40
0.0
 40
0.0
 40
0.4882026664530185
 40
0.6569017356268659
 40
0.7241654012765267
 40
0.7577557136040506
 40
0.785825518512786
 40
0.8072021966198653
 40
0.8252478245922622
 40
0.8408403243307782
 40
0.8556806943289449
 40
0.8697919655004355
 40
0.8847565453941871
 40
0.8990244328679946
 40
0.912699598710316
 40
0.9258911080914148
 40
0.9386911922033432
 40
0.9511475355928485
 40
0.963177669852245
 40
0.9748315960524018
 40
0.9861738141194233
 40
0.997264748959192
 40
1.0
 40
1.0
 40
1.0
 40
1.0
 10
9.652302406599727
 20
180.8119794252586
 30
0.0
 10
10.56548194909214
 20
168.3053051375031
 30
0.0
 10
11.59486789528514
 20
154.3286761413684
 30
0.0
 10
12.83411780973508
 20
137.2685909314004
 30
0.0
 10
13.31160899857425
 20
131.0021643247092
 30
0.0
 10
13.50191871684366
 20
127.99653051717
 30
0.0
 10
13.63906842153036
 20
126.0624151056986
 30
0.0
 10
13.78163744457713
 20
124.492827576493
 30
0.0
 10
13.92613524584527
 20
123.216414773012
 30
0.0
 10
14.08485267985982
 20
122.095626608627
 30
0.0
 10
14.26632578019785
 20
121.0714972008812
 30
0.0
 10
14.48088967546
 20
120.0688245919129
 30
0.0
 10
14.73175483369888
 20
119.0883408026337
 30
0.0
 10
15.02233228768043
 20
118.1295222401265
 30
0.0
 10
15.34239481681989
 20
117.2239179555347
 30
0.0
 10
15.69164873674343
 20
116.366012869339
 30
0.0
 10
16.06980403076378
 20
115.551722180155
 30
0.0
 10
16.4749351005876
 20
114.7807801270629
 30
0.0
 10
16.90485426395195
 20
114.0551133717568
 30
0.0
 10
17.3593060940667
 20
113.3726302461829
 30
0.0
 10
17.8320840268344
 20
112.7401554188811
 30
0.0
 10
18.21928875026864
 20
112.2736242785291
 30
0.0
 10
18.42433456188864
 20
112.0496055275578
 30
0.0
 10
18.47180958245287
 20
111.9978752494545
 30
0.0
  0
LINE
  5
8E
330
75
100
AcDbEntity
  8
DV1_Default
  6
Continuous
 62
     7
100
AcDbLine
 10
56.3500029596
 20
225.584263388
 30
0.0
 11
56.3500029596
 21
240.5972028041
 31
0.0
  0
LINE
  5
8F
330
75
100
AcDbEntity
  8
DV1_Default
  6
Continuous
 62
     7
100
AcDbLine
 10
6.3500029596
 20
240.5972028041
 30
0.0
 11
6.3500029596
 21
225.584263388
 31
0.0
  0
ELLIPSE
  5
90
330
75
100
AcDbEntity
  8
DV1_Default
  6
Continuous
 62
     7
100
AcDbEllipse
 10
31.35
 20
225.7395233854
 30
0.0
 11
22.8999999999999
 21
7.769826448900119E-12
 31
0.0
210
0.0
220
0.0
230
1.0
 40
0.9925461516
 41
0.0
 42
1.185655650968861
  0
ELLIPSE
  5
91
330
75
100
AcDbEntity
  8
DV1_Default
  6
Continuous
 62
     7
100
AcDbEllipse
 10
31.35
 20
225.7395233854
 30
0.0
 11
22.8999999999999
 21
7.769826448900119E-12
 31
0.0
210
0.0
220
0.0
230
1.0
 40
0.9925461516
 41
1.515136281919987
 42
1.622312891971248
  0
ELLIPSE
  5
92
330
75
100
AcDbEntity
  8
DV1_Default
  6
Continuous
 62
     7
100
AcDbEllipse
 10
31.35
 20
225.7395233854
 30
0.0
 11
22.8999999999999
 21
7.769826448900119E-12
 31
0.0
210
0.0
220
0.0
230
1.0
 40
0.9925461516
 41
2.023157040374034
 42
3.141592653589452
  0
ELLIPSE
  5
93
330
75
100
AcDbEntity
  8
DV1_Default
  6
Continuous
 62
     7
100
AcDbEllipse
 10
31.35
 20
225.5903617852
 30
0.0
 11
12.49999999999997
 21
-2.433817036795460E-12
 31
0.0
210
0.0
220
0.0
230
1.0
 40
0.9925461516
 41
5.515120572169238
 42
6.283185307179583
  0
ELLIPSE
  5
94
330
75
100
AcDbEntity
  8
DV1_Default
  6
Continuous
 62
     7
100
AcDbEllipse
 10
31.35
 20
225.5903617852
 30
0.0
 11
12.49999999999997
 21
-2.433817036795460E-12
 31
0.0
210
0.0
220
0.0
230
1.0
 40
0.9925461516
 41
3.141592653589793
 42
3.987550492668341
  0
ELLIPSE
  5
95
330
75
100
AcDbEntity
  8
DV1_Default
  6
Continuous
 62
     7
100
AcDbEllipse
 10
31.35
 20
225.5611207305
 30
0.0
 11
-12.50000000000006
 21
4.485994908876023E-12
 31
0.0
210
0.0
220
0.0
230
1.0
 40
0.9925461516
 41
0.0
 42
1.181331862860584
  0
ELLIPSE
  5
96
330
75
100
AcDbEntity
  8
DV1_Default
  6
Continuous
 62
     7
100
AcDbEllipse
 10
31.35
 20
225.5611207305
 30
0.0
 11
-12.50000000000006
 21
4.485994908876023E-12
 31
0.0
210
0.0
220
0.0
230
1.0
 40
0.9925461516
 41
1.953575756052585
 42
6.283185307179586
  0
ELLIPSE
  5
97
330
75
100
AcDbEntity
  8
DV1_Default
  6
Continuous
 62
     7
100
AcDbEllipse
 10
31.35
 20
225.5547345477
 30
0.0
 11
-22.90000000000002
 21
-1.337471799978118E-12
 31
0.0
210
0.0
220
0.0
230
1.0
 40
0.9925461516
 41
3.141592653589793
 42
6.283185307179586
  0
LINE
  5
98
330
75
100
AcDbEntity
  8
DV1_Default
  6
Continuous
 62
     7
100
AcDbLine
 10
8.45
 20
225.7395233854
 30
0.0
 11
8.45
 21
225.5547345477
 31
0.0
  0
LINE
  5
99
330
75
100
AcDbEntity
  8
DV1_Default
  6
Continuous
 62
     7
100
AcDbLine
 10
54.25
 20
225.5547345477
 30
0.0
 11
54.25
 21
225.7395233854
 31
0.0
  0
ARC
  5
9A
330
75
100
AcDbEntity
  8
DV1_Default
  6
Continuous
 62
     7
100
AcDbCircle
 10
31.3438299353
 20
225.7371880219
 30
0.0
 40
12.54992772474379
100
AcDbArc
 50
228.7229754801
 51
247.8484686896
  0
ARC
  5
9B
330
75
100
AcDbEntity
  8
DV1_Default
  6
Continuous
 62
     7
100
AcDbCircle
 10
31.5186252738
 20
225.9493001328
 30
0.0
 40
22.84461114266868
100
AcDbArc
 50
300.6760206631
 51
5.4390630451
  0
ARC
  5
9C
330
75
100
AcDbEntity
  8
DV1_Default
  6
Continuous
 62
     7
100
AcDbCircle
 10
31.1813747262
 20
225.9493001328
 30
0.0
 40
22.84461114266868
100
AcDbArc
 50
174.7838043991
 51
239.8249167066
  0
LINE
  5
9D
330
75
100
AcDbEntity
  8
DV1_Default
  6
Continuous
 62
     7
100
AcDbLine
 10
33.35
 20
272.4841074971
 30
0.0
 11
33.35
 21
283.8544799131
 31
0.0
  0
LINE
  5
9E
330
75
100
AcDbEntity
  8
DV1_Default
  6
Continuous
 62
     7
100
AcDbLine
 10
29.35
 20
283.8544799131
 30
0.0
 11
29.35
 21
272.4841074971
 31
0.0
  0
LINE
  5
9F
330
75
100
AcDbEntity
  8
DV1_Default
  6
Continuous
 62
     7
100
AcDbLine
 10
29.35
 20
272.4841074971
 30
0.0
 11
29.35
 21
269.6309379482
 31
0.0
  0
LINE
  5
A0
330
75
100
AcDbEntity
  8
DV1_Default
  6
Continuous
 62
     7
100
AcDbLine
 10
33.35
 20
269.6309379482
 30
0.0
 11
33.35
 21
272.4841074971
 31
0.0
  0
LINE
  5
A1
330
75
100
AcDbEntity
  8
DV1_Default
  6
Continuous
 62
     7
100
AcDbLine
 10
33.35
 20
261.3324175069
 30
0.0
 11
33.35
 21
269.6309379482
 31
0.0
  0
LINE
  5
A2
330
75
100
AcDbEntity
  8
DV1_Default
  6
Continuous
 62
     7
100
AcDbLine
 10
29.35
 20
269.6309379482
 30
0.0
 11
29.35
 21
261.3376991576
 31
0.0
  0
ARC
  5
A3
330
75
100
AcDbEntity
  8
DV1_Default
  6
Continuous
 62
     7
100
AcDbCircle
 10
31.35
 20
283.8544799131
 30
0.0
 40
2.000000000000002
100
AcDbArc
 50
0.0
 51
180.0
  0
ARC
  5
A4
330
75
100
AcDbEntity
  8
DV1_Default
  6
Continuous
 62
     7
100
AcDbCircle
 10
31.2574262555
 20
220.6075934845
 30
0.0
 40
3.815927834334
100
AcDbArc
 50
148.1130396649
 51
179.3631629531
  0
LINE
  5
A5
330
75
100
AcDbEntity
  8
DV1_Default
  6
Continuous
 62
     7
100
AcDbLine
 10
28.1168233719
 20
222.7769151508
 30
0.0
 11
28.0173560148
 21
222.6232164119
 31
0.0
  0
ARC
  5
A6
330
75
100
AcDbEntity
  8
DV1_Default
  6
Continuous
 62
     7
100
AcDbCircle
 10
31.2680309605
 20
220.4033816186
 30
0.0
 40
3.945008229654584
100
AcDbArc
 50
89.1324880802
 51
143.0140786544
  0
ARC
  5
A7
330
75
100
AcDbEntity
  8
DV1_Default
  6
Continuous
 62
     7
100
AcDbCircle
 10
31.3946835599
 20
220.4141412601
 30
0.0
 40
3.934365633338899
100
AcDbArc
 50
36.9222334859
 51
90.9746510098
  0
ARC
  5
A8
330
75
100
AcDbEntity
  8
DV1_Default
  6
Continuous
 62
     7
100
AcDbCircle
 10
31.4005089386
 20
220.605328327
 30
0.0
 40
3.817726354496851
100
AcDbArc
 50
5.8198421986
 51
31.936334794
  0
ARC
  5
A9
330
75
100
AcDbEntity
  8
DV1_Default
  6
Continuous
 62
     7
100
AcDbCircle
 10
33.2455989121
 20
221.818263265
 30
0.0
 40
1.611184515419295
100
AcDbArc
 50
30.0394593353
 51
36.5443461
  0
SPLINE
  5
AA
330
75
100
AcDbEntity
  8
DV1_Default
  6
Continuous
 62
     7
100
AcDbSpline
210
0.0
220
0.0
230
1.0
 70
     8
 71
     3
 72
    20
 73
    16
 74
     0
 42
0.0000000006983906
 43
0.0000000001
 40
0.0
 40
0.0
 40
0.0
 40
0.0
 40
0.125
 40
0.125
 40
0.25
 40
0.25
 40
0.375
 40
0.375
 40
0.5
 40
0.5
 40
0.75
 40
0.75
 40
0.875
 40
0.875
 40
1.0
 40
1.0
 40
1.0
 40
1.0
 10
24.97198732451633
 20
200.741323127239
 30
0.0
 10
24.93972925067083
 20
200.4786021392937
 30
0.0
 10
24.94966971137503
 20
200.2361153667136
 30
0.0
 10
25.38609078376586
 20
199.7784052419738
 30
0.0
 10
25.80730008318087
 20
199.5670641137673
 30
0.0
 10
26.98854766954753
 20
199.2090741802209
 30
0.0
 10
27.75085615480391
 20
199.0619620758529
 30
0.0
 10
29.42872652785767
 20
198.8660613963441
 30
0.0
 10
30.34010701302377
 20
198.8171506236563
 30
0.0
 10
33.10270656375213
 20
198.8172859288292
 30
0.0
 10
34.9502581457302
 20
199.0300391964927
 30
0.0
 10
36.73670981616559
 20
199.5726444260457
 30
0.0
 10
37.15062632962839
 20
199.780840720772
 30
0.0
 10
37.59087417239921
 20
200.2400596775046
 30
0.0
 10
37.60135678306061
 20
200.4824769151812
 30
0.0
 10
37.57092351586964
 20
200.7441149299212
 30
0.0
  0
SPLINE
  5
AB
330
75
100
AcDbEntity
  8
DV1_Default
  6
Continuous
 62
     7
100
AcDbSpline
210
0.0
220
0.0
230
1.0
 70
     8
 71
     3
 72
     8
 73
     4
 74
     0
 42
0.0000000880484652
 43
0.0000000001
 40
0.0
 40
0.0
 40
0.0
 40
0.0
 40
0.9999999999999999
 40
0.9999999999999999
 40
0.9999999999999999
 40
0.9999999999999999
 10
37.50592222075559
 20
199.5906329244343
 30
0.0
 10
37.49167475102163
 20
199.5567219794743
 30
0.0
 10
37.47511231412886
 20
199.5227580067775
 30
0.0
 10
37.45595396567072
 20
199.4887830771884
 30
0.0
  0
SPLINE
  5
AC
330
75
100
AcDbEntity
  8
DV1_Default
  6
Continuous
 62
     7
100
AcDbSpline
210
0.0
220
0.0
230
1.0
 70
     8
 71
     3
 72
     8
 73
     4
 74
     0
 42
0.0000002554954892
 43
0.0000000001
 40
0.0
 40
0.0
 40
0.0
 40
0.0
 40
1.0
 40
1.0
 40
1.0
 40
1.0
 10
37.45595396567072
 20
199.4887830771884
 30
0.0
 10
37.44961727945999
 20
199.477545758465
 30
0.0
 10
37.44299660644511
 20
199.4663072410826
 30
0.0
 10
37.43608178103136
 20
199.455069047318
 30
0.0
  0
SPLINE
  5
AD
330
75
100
AcDbEntity
  8
DV1_Default
  6
Continuous
 62
     7
100
AcDbSpline
210
0.0
220
0.0
230
1.0
 70
     8
 71
     3
 72
    20
 73
    16
 74
     0
 42
0.0000000007624654
 43
0.0000000001
 40
0.0
 40
0.0
 40
0.0
 40
0.0
 40
0.0176341716460081
 40
0.0176341716460081
 40
0.1786172359230073
 40
0.1786172359230073
 40
0.5005833644770058
 40
0.5005833644770058
 40
0.661566428754005
 40
0.661566428754005
 40
0.8225494930310042
 40
0.8225494930310042
 40
0.9835325573080035
 40
0.9835325573080035
 40
0.9999999999999999
 40
0.9999999999999999
 40
0.9999999999999999
 40
0.9999999999999999
 10
37.43608178103136
 20
199.455069047318
 30
0.0
 10
37.41677824315867
 20
199.4236963248015
 30
0.0
 10
37.3951823402303
 20
199.3923261242774
 30
0.0
 10
37.15097700628941
 20
199.0749370940701
 30
0.0
 10
36.73709113903737
 20
198.8050009465523
 30
0.0
 10
34.95070084349521
 20
198.1387805162197
 30
0.0
 10
33.10315625968756
 20
197.9119382438323
 30
0.0
 10
30.34055673502057
 20
197.9118506888812
 30
0.0
 10
29.42917329275319
 20
197.9667392285095
 30
0.0
 10
27.75128988147708
 20
198.1889607939335
 30
0.0
 10
26.98896996917439
 20
198.3591068985372
 30
0.0
 10
25.80768184348234
 20
198.7987506788415
 30
0.0
 10
25.38644146682457
 20
199.0726613156721
 30
0.0
 10
25.14587872234445
 20
199.3869169298749
 30
0.0
 10
25.12573380140668
 20
199.416139789344
 30
0.0
 10
25.10759049044259
 20
199.4453903071157
 30
0.0
  0
SPLINE
  5
AE
330
75
100
AcDbEntity
  8
DV1_Default
  6
Continuous
 62
     7
100
AcDbSpline
210
0.0
220
0.0
230
1.0
 70
     8
 71
     3
 72
     8
 73
     4
 74
     0
 42
0.0000001776913092
 43
0.0000000001
 40
0.0
 40
0.0
 40
0.0
 40
0.0
 40
1.0
 40
1.0
 40
1.0
 40
1.0
 10
25.10759049044259
 20
199.4453903071157
 30
0.0
 10
25.09754395887022
 20
199.4615872543479
 30
0.0
 10
25.08811115916625
 20
199.4777926821442
 30
0.0
 10
25.07926191376207
 20
199.4940011205403
 30
0.0
  0
ARC
  5
AF
330
75
100
AcDbEntity
  8
DV1_Default
  6
Continuous
 62
     7
100
AcDbCircle
 10
3309.1479296159
 20
-196.5654864876
 30
0.0
 40
3308.120965274959
100
AcDbArc
 50
172.8230159849
 51
172.8432604455
  0
ARC
  5
B0
330
75
100
AcDbEntity
  8
DV1_Default
  6
Continuous
 62
     7
100
AcDbCircle
 10
-3197.348949645
 20
-171.5131486972
 30
0.0
 40
3256.268117967892
100
AcDbArc
 50
6.5644175185
 51
6.626316472
  0
ARC
  5
B1
330
75
100
AcDbEntity
  8
DV1_Default
  6
Continuous
 62
     7
100
AcDbCircle
 10
-3197.348949645
 20
-171.5131486972
 30
0.0
 40
3256.268117967892
100
AcDbArc
 50
6.626316472
 51
6.8001344726
  0
ARC
  5
B2
330
75
100
AcDbEntity
  8
DV1_Default
  6
Continuous
 62
     7
100
AcDbCircle
 10
-3197.348949645
 20
-171.5131486972
 30
0.0
 40
3256.268117967892
100
AcDbArc
 50
6.8001344726
 51
6.8006291063
  0
ARC
  5
B3
330
75
100
AcDbEntity
  8
DV1_Default
  6
Continuous
 62
     7
100
AcDbCircle
 10
-3197.348949645
 20
-171.5131486972
 30
0.0
 40
3256.268117967892
100
AcDbArc
 50
6.8006291063
 51
6.8632539533
  0
ARC
  5
B4
330
75
100
AcDbEntity
  8
DV1_Default
  6
Continuous
 62
     7
100
AcDbCircle
 10
-526.0130290826
 20
257.6000053357
 30
0.0
 40
555.1333453997958
100
AcDbArc
 50
356.1521724294
 51
356.3876360976
  0
ARC
  5
B5
330
75
100
AcDbEntity
  8
DV1_Default
  6
Continuous
 62
     7
100
AcDbCircle
 10
-526.0130290826
 20
257.6000053357
 30
0.0
 40
555.1333453997958
100
AcDbArc
 50
355.4773297702
 51
356.1521724294
  0
ARC
  5
B6
330
75
100
AcDbEntity
  8
DV1_Default
  6
Continuous
 62
     7
100
AcDbCircle
 10
-526.0130290826
 20
257.6000053357
 30
0.0
 40
555.1333453997958
100
AcDbArc
 50
355.4739989516
 51
355.4773297702
  0
ARC
  5
B7
330
75
100
AcDbEntity
  8
DV1_Default
  6
Continuous
 62
     7
100
AcDbCircle
 10
-526.0130290826
 20
257.6000053357
 30
0.0
 40
555.1333453997958
100
AcDbArc
 50
354.4169817609
 51
355.4739989516
  0
ARC
  5
B8
330
75
100
AcDbEntity
  8
DV1_Default
  6
Continuous
 62
     7
100
AcDbCircle
 10
-526.0130290826
 20
257.6000053357
 30
0.0
 40
555.1333453997958
100
AcDbArc
 50
354.3917280829
 51
354.4169817609
  0
SPLINE
  5
B9
330
75
100
AcDbEntity
  8
DV1_Default
  6
Continuous
 62
     7
100
AcDbSpline
210
0.0
220
0.0
230
1.0
 70
     8
 71
     3
 72
    11
 73
     7
 74
     0
 42
0.0000000159590346
 43
0.0000000001
 40
0.0
 40
0.0
 40
0.0
 40
0.0
 40
0.2421823769645194
 40
0.4840560277619533
 40
0.9680196780697202
 40
1.0
 40
1.0
 40
1.0
 40
1.0
 10
26.46306028389954
 20
203.3487209907062
 30
0.0
 10
26.45786703528093
 20
203.2990112257684
 30
0.0
 10
26.44842120621671
 20
203.1994248851855
 30
0.0
 10
26.45534567864025
 20
203.009071237584
 30
0.0
 10
26.51202324023165
 20
202.8660064063318
 30
0.0
 10
26.59471439369058
 20
202.7730479847594
 30
0.0
 10
26.6000100826393
 20
202.7673029614564
 30
0.0
  0
SPLINE
  5
BA
330
75
100
AcDbEntity
  8
DV1_Default
  6
Continuous
 62
     7
100
AcDbSpline
210
0.0
220
0.0
230
1.0
 70
     8
 71
     3
 72
    19
 73
    15
 74
     0
 42
0.0000000010420507
 43
0.0000000001
 40
0.0
 40
0.0
 40
0.0
 40
0.0
 40
0.0798772571499744
 40
0.1654996126698383
 40
0.2511235013959828
 40
0.3367813787995088
 40
0.4223123688234263
 40
0.5080747009207188
 40
0.5935833475578206
 40
0.6788974688260355
 40
0.7644889536310161
 40
0.8494699440350479
 40
0.9351568767985212
 40
1.0
 40
1.0
 40
1.0
 40
1.0
 10
26.6000100826393
 20
202.7673029614564
 30
0.0
 10
26.67470773378053
 20
202.6862672830699
 30
0.0
 10
26.89961801926902
 20
202.5253427581616
 30
0.0
 10
27.4743078655764
 20
202.3002722645703
 30
0.0
 10
28.26322413801687
 20
202.1216363385053
 30
0.0
 10
29.19187486932957
 20
201.9991747003344
 30
0.0
 10
30.21100837028663
 20
201.9204150082751
 30
0.0
 10
31.27584264119165
 20
201.8881791660032
 30
0.0
 10
32.33739592435952
 20
201.9221069338883
 30
0.0
 10
33.35406054417317
 20
202.001126496612
 30
0.0
 10
34.28013732259458
 20
202.1246303828403
 30
0.0
 10
35.06601468273087
 20
202.3035314352665
 30
0.0
 10
35.60554918111558
 20
202.5150206282541
 30
0.0
 10
35.82298015240293
 20
202.6604855079179
 30
0.0
 10
35.89411737128275
 20
202.725307901867
 30
0.0
  0
SPLINE
  5
BB
330
75
100
AcDbEntity
  8
DV1_Default
  6
Continuous
 62
     7
100
AcDbSpline
210
0.0
220
0.0
230
1.0
 70
     8
 71
     3
 72
    11
 73
     7
 74
     0
 42
0.0000000144841209
 43
0.0000000001
 40
0.0
 40
0.0
 40
0.0
 40
0.0
 40
0.1090810104529325
 40
0.5540106067406732
 40
0.7024934299977571
 40
1.0
 40
1.0
 40
1.0
 40
1.0
 10
35.89411737128275
 20
202.725307901867
 30
0.0
 10
35.91705005533821
 20
202.7462048599371
 30
0.0
 10
36.02163381235258
 20
202.853478948625
 30
0.0
 10
36.07890862086369
 20
202.9971264776171
 30
0.0
 10
36.09400697519312
 20
203.1860751773538
 30
0.0
 10
36.08558553141187
 20
203.2845713209975
 30
0.0
 10
36.0798065198086
 20
203.3508359174078
 30
0.0
  0
ARC
  5
BC
330
75
100
AcDbEntity
  8
DV1_Default
  6
Continuous
 62
     7
100
AcDbCircle
 10
587.4455664956
 20
254.2191499415
 30
0.0
 40
553.7073113526436
100
AcDbArc
 50
185.206438297
 51
185.2711152652
  0
ARC
  5
BD
330
75
100
AcDbEntity
  8
DV1_Default
  6
Continuous
 62
     7
100
AcDbCircle
 10
587.4455664956
 20
254.2191499415
 30
0.0
 40
553.7073113526436
100
AcDbArc
 50
184.1899710464
 51
185.206438297
  0
ARC
  5
BE
330
75
100
AcDbEntity
  8
DV1_Default
  6
Continuous
 62
     7
100
AcDbCircle
 10
587.4455664956
 20
254.2191499415
 30
0.0
 40
553.7073113526436
100
AcDbArc
 50
183.2710525343
 51
184.1899710464
  0
SPLINE
  5
BF
330
75
100
AcDbEntity
  8
DV1_Default
  6
Continuous
 62
     7
100
AcDbSpline
210
0.0
220
0.0
230
1.0
 70
     8
 71
     3
 72
     8
 73
     4
 74
     0
 42
0.0000003451021284
 43
0.0000000001
 40
0.0
 40
0.0
 40
0.0
 40
0.0
 40
1.0
 40
1.0
 40
1.0
 40
1.0
 10
26.73670322714319
 20
197.4017791826902
 30
0.0
 10
26.74368538022927
 20
197.3952434060181
 30
0.0
 10
26.75081236549886
 20
197.3887243950473
 30
0.0
 10
26.75808485205371
 20
197.3822237561797
 30
0.0
  0
SPLINE
  5
C0
330
75
100
AcDbEntity
  8
DV1_Default
  6
Continuous
 62
     7
100
AcDbSpline
210
0.0
220
0.0
230
1.0
 70
     8
 71
     3
 72
     8
 73
     4
 74
     0
 42
0.0000003369048397
 43
0.0000000001
 40
0.0
 40
0.0
 40
0.0
 40
0.0
 40
1.0
 40
1.0
 40
1.0
 40
1.0
 10
35.79013368359723
 20
197.3888786492655
 30
0.0
 10
35.79756210762736
 20
197.3955647826627
 30
0.0
 10
35.80483741448059
 20
197.4022697343611
 30
0.0
 10
35.81196029916131
 20
197.4089917437662
 30
0.0
  0
SPLINE
  5
C1
330
75
100
AcDbEntity
  8
DV1_Default
  6
Continuous
 62
     7
100
AcDbSpline
210
0.0
220
0.0
230
1.0
 70
     8
 71
     3
 72
    31
 73
    27
 74
     0
 42
0.0000000010973702
 43
0.0000000001
 40
0.0
 40
0.0
 40
0.0
 40
0.0
 40
0.0450473417109881
 40
0.0926369551990857
 40
0.137376471179687
 40
0.1792538222339891
 40
0.2307443661251145
 40
0.2773743076756227
 40
0.3192445256181053
 40
0.3734726976905722
 40
0.4207943872888085
 40
0.4623620667822497
 40
0.4981790327370642
 40
0.5193216247990606
 40
0.5401515759023818
 40
0.5608508229737428
 40
0.5814215007685489
 40
0.6055891303802687
 40
0.6393629108206025
 40
0.6829092518083222
 40
0.7363452327205507
 40
0.7997767040212905
 40
0.8539919185742949
 40
0.9139731601550145
 40
0.9798713315952048
 40
0.9999999999999999
 40
0.9999999999999999
 40
0.9999999999999999
 40
0.9999999999999999
 10
26.76204471513594
 20
197.3823218631801
 30
0.0
 10
26.83474751808851
 20
197.3210354508657
 30
0.0
 10
26.96339279047542
 20
197.215029721624
 30
0.0
 10
27.24070213394868
 20
197.0644852358485
 30
0.0
 10
27.5465087083399
 20
196.9358007151012
 30
0.0
 10
27.90268473541787
 20
196.8164184924546
 30
0.0
 10
28.29968938774903
 20
196.710153988887
 30
0.0
 10
28.72810678368406
 20
196.6184129327734
 30
0.0
 10
29.18809038612708
 20
196.5397331618421
 30
0.0
 10
29.66975675770022
 20
196.4790693676013
 30
0.0
 10
30.16707638473082
 20
196.4378062084112
 30
0.0
 10
30.60900810496916
 20
196.4164825862598
 30
0.0
 10
30.96151446151074
 20
196.4085143501771
 30
0.0
 10
31.24054517969965
 20
196.406682138972
 30
0.0
 10
31.46541773694177
 20
196.4075898351223
 30
0.0
 10
31.68790665257429
 20
196.4110028598256
 30
0.0
 10
31.92152642897105
 20
196.4175045290166
 30
0.0
 10
32.2005113091393
 20
196.4293866077378
 30
0.0
 10
32.55838697891428
 20
196.45245542484
 30
0.0
 10
33.01145315136124
 20
196.4959919965837
 30
0.0
 10
33.54936284990641
 20
196.5707772637518
 30
0.0
 10
34.09040095902176
 20
196.6762935026216
 30
0.0
 10
34.60601326914372
 20
196.8082325317284
 30
0.0
 10
35.06800700676649
 20
196.9630277356415
 30
0.0
 10
35.39119823548222
 20
197.11057044173
 30
0.0
 10
35.53579837205343
 20
197.2022458648535
 30
0.0
 10
35.56826007836904
 20
197.2242518888337
 30
0.0
  0
ARC
  5
C2
330
75
100
AcDbEntity
  8
DV1_Default
  6
Continuous
 62
     7
100
AcDbCircle
 10
30.1261258004
 20
203.6006448359
 30
0.0
 40
8.40364550375138
100
AcDbArc
 50
312.5592893736
 51
330.8353502799
  0
ARC
  5
C3
330
75
100
AcDbEntity
  8
DV1_Default
  6
Continuous
 62
     7
100
AcDbCircle
 10
32.4082406525
 20
203.6049369621
 30
0.0
 40
8.402459243746064
100
AcDbArc
 50
209.248608764
 51
227.5695094375
  0
LINE
  5
C4
330
75
100
AcDbEntity
  8
DV1_Default
  6
Continuous
 62
     7
100
AcDbLine
 10
35.5891370687
 20
217.6558168161
 30
0.0
 11
35.1933526839
 21
221.0739929925
 31
0.0
  0
ARC
  5
C5
330
75
100
AcDbEntity
  8
DV1_Default
  6
Continuous
 62
     7
100
AcDbCircle
 10
-307.0083601093
 20
259.3378502566
 30
0.0
 40
336.6561470960549
100
AcDbArc
 50
352.7296731179
 51
353.4755678093
  0
SPLINE
  5
C6
330
75
100
AcDbEntity
  8
DV1_Default
  6
Continuous
 62
     7
100
AcDbSpline
210
0.0
220
0.0
230
1.0
 70
     8
 71
     3
 72
     8
 73
     4
 74
     0
 42
0.0000000006615667
 43
0.0000000001
 40
0.0
 40
0.0
 40
0.0
 40
0.0
 40
1.0
 40
1.0
 40
1.0
 40
1.0
 10
26.79228251059602
 20
215.5499277308077
 30
0.0
 10
25.8851157798237
 20
208.3066178621005
 30
0.0
 10
25.26054715828625
 20
203.3069333782692
 30
0.0
 10
24.9185766459837
 20
200.5508742793138
 30
0.0
  0
ARC
  5
C7
330
75
100
AcDbEntity
  8
DV1_Default
  6
Continuous
 62
     7
100
AcDbCircle
 10
36.028024645
 20
200.2713585867
 30
0.0
 40
1.620544278340371
100
AcDbArc
 50
331.2180052589
 51
9.441255453
  0
ARC
  5
C8
330
75
100
AcDbEntity
  8
DV1_Default
  6
Continuous
 62
     7
100
AcDbCircle
 10
26.5218805665
 20
200.2775816608
 30
0.0
 40
1.64126842691907
100
AcDbArc
 50
170.313010486
 51
208.5933023289
  0
SPLINE
  5
C9
330
75
100
AcDbEntity
  8
DV1_Default
  6
Continuous
 62
     7
100
AcDbSpline
210
0.0
220
0.0
230
1.0
 70
     8
 71
     3
 72
     8
 73
     4
 74
     0
 42
0.0000000006818634
 43
0.0000000001
 40
0.0
 40
0.0
 40
0.0
 40
0.0
 40
1.0
 40
1.0
 40
1.0
 40
1.0
 10
37.62619992481491
 20
200.549630737317
 30
0.0
 10
37.38556003066203
 20
202.5838558776707
 30
0.0
 10
36.80663775256784
 20
207.4380203804808
 30
0.0
 10
35.88943309053234
 20
215.1121242457472
 30
0.0
  0
ENDBLK
  5
CB
330
75
100
AcDbEntity
  8
0
100
AcDbBlockEnd
  0
BLOCK
  5
138
330
CC
100
AcDbEntity
  8
0
100
AcDbBlockBegin
  2
SE1
 70
     0
 10
0.0
 20
0.0
 30
0.0
  3
SE1
  1

  0
LINE
  5
CF
330
CC
100
AcDbEntity
  8
DV2_Default
  6
Continuous
 62
     7
100
AcDbLine
 10
278.470802383
 20
425.3396733579
 30
0.0
 11
295.8574672562
 21
429.9984161697
 31
0.0
  0
LINE
  5
D0
330
CC
100
AcDbEntity
  8
DV2_Default
  6
Continuous
 62
     7
100
AcDbLine
 10
278.3802157172
 20
425.6777473971
 30
0.0
 11
278.470802383
 21
425.3396733579
 31
0.0
  0
LINE
  5
D1
330
CC
100
AcDbEntity
  8
DV2_Default
  6
Continuous
 62
     7
100
AcDbLine
 10
295.8574672562
 20
429.9984161697
 30
0.0
 11
295.7668805904
 21
430.3364902089
 31
0.0
  0
LINE
  5
D2
330
CC
100
AcDbEntity
  8
DV2_Default
  6
Continuous
 62
     7
100
AcDbLine
 10
276.728668378
 20
425.2352166213
 30
0.0
 11
297.4184279297
 21
430.7790209847
 31
0.0
  0
ELLIPSE
  5
D3
330
CC
100
AcDbEntity
  8
DV2_Default
  6
Continuous
 62
     7
100
AcDbEllipse
 10
287.7300217503
 20
425.5571259872
 30
0.0
 11
11.52832473676009
 21
3.089005303298628
 31
0.0
210
0.0
220
0.0
230
1.0
 40
0.5773502692
 41
1.166970237634111
 42
1.97462241595567
  0
LINE
  5
D4
330
CC
100
AcDbEntity
  8
DV2_Default
  6
Continuous
 62
     7
100
AcDbLine
 10
281.5601011074
 20
430.4638446049
 30
0.0
 11
282.3441254362
 21
427.5378259754
 31
0.0
  0
LINE
  5
D5
330
CC
100
AcDbEntity
  8
DV2_Default
  6
Continuous
 62
     7
100
AcDbLine
 10
291.4039947863
 20
429.9654106513
 30
0.0
 11
290.6199704575
 21
432.8914292808
 31
0.0
  0
SPLINE
  5
D6
330
CC
100
AcDbEntity
  8
DV2_Default
  6
Continuous
 62
     7
100
AcDbSpline
210
0.0
220
0.0
230
1.0
 70
     8
 71
     3
 72
    12
 73
     8
 74
     0
 42
0.0000000398432805
 43
0.0000000001
 40
0.0
 40
0.0
 40
0.0
 40
0.0
 40
0.5
 40
0.5
 40
0.75
 40
0.75
 40
1.0
 40
1.0
 40
1.0
 40
1.0
 10
291.2499426655926
 20
429.7896461890916
 30
0.0
 10
291.2864630850543
 20
429.8085313236654
 30
0.0
 10
291.3221302543631
 20
429.8305418401039
 30
0.0
 10
291.3678868946878
 20
429.8720633018376
 30
0.0
 10
291.3821397147284
 20
429.8875577380758
 30
0.0
 10
291.4030565050926
 20
429.9235991933923
 30
0.0
 10
291.4094206759003
 20
429.9451609557708
 30
0.0
 10
291.4039947863456
 20
429.9654106512648
 30
0.0
  0
SPLINE
  5
D7
330
CC
100
AcDbEntity
  8
DV2_Default
  6
Continuous
 62
     7
100
AcDbSpline
210
0.0
220
0.0
230
1.0
 70
     8
 71
     3
 72
    12
 73
     8
 74
     0
 42
0.0000000398474798
 43
0.0000000001
 40
0.0
 40
0.0
 40
0.0
 40
0.0
 40
0.25
 40
0.25
 40
0.5
 40
0.5
 40
1.0
 40
1.0
 40
1.0
 40
1.0
 10
282.3441254362199
 20
427.5378259753672
 30
0.0
 10
282.3495078268427
 20
427.5177386200968
 30
0.0
 10
282.3656801052596
 20
427.5022504104439
 30
0.0
 10
282.4014610220627
 20
427.4815586236403
 30
0.0
 10
282.4216402012383
 20
427.4751559260496
 30
0.0
 10
282.4823095345138
 20
427.4619424787335
 30
0.0
 10
282.5242438581529
 20
427.4607253941626
 30
0.0
 10
282.5654207174081
 20
427.4626355464152
 30
0.0
  0
SPLINE
  5
D8
330
CC
100
AcDbEntity
  8
DV2_Default
  6
Continuous
 62
     7
100
AcDbSpline
210
0.0
220
0.0
230
1.0
 70
     8
 71
     3
 72
    14
 73
    10
 74
     0
 42
0.0000000011024152
 43
0.0000000001
 40
0.0
 40
0.0
 40
0.0
 40
0.0
 40
0.25
 40
0.25
 40
0.5
 40
0.5
 40
0.75
 40
0.75
 40
1.0
 40
1.0
 40
1.0
 40
1.0
 10
282.5654207174081
 20
427.4626355464152
 30
0.0
 10
283.3204744483102
 20
427.4976617143648
 30
0.0
 10
284.0805346114343
 20
427.5669003391756
 30
0.0
 10
285.5737895403761
 20
427.7866341906188
 30
0.0
 10
286.3107922568329
 20
427.9373307124006
 30
0.0
 10
287.7640985635107
 20
428.3265324925418
 30
0.0
 10
288.4803977324935
 20
428.5650565064435
 30
0.0
 10
289.8933295292727
 20
429.1255328932402
 30
0.0
 10
290.5812607801281
 20
429.4438629921794
 30
0.0
 10
291.2499426655926
 20
429.7896461890916
 30
0.0
  0
LINE
  5
D9
330
CC
100
AcDbEntity
  8
DV2_Default
  6
Continuous
 62
     7
100
AcDbLine
 10
290.6199704575
 20
432.8914292808
 30
0.0
 11
281.5601011074
 21
430.4638446049
 31
0.0
  0
LINE
  5
DA
330
CC
100
AcDbEntity
  8
DV2_Default
  6
Continuous
 62
     7
100
AcDbLine
 10
274.5936463798
 20
428.4694473503
 30
0.0
 11
275.3457353745
 21
425.66261301
 31
0.0
  0
LINE
  5
DB
330
CC
100
AcDbEntity
  8
DV2_Default
  6
Continuous
 62
     7
100
AcDbLine
 10
298.402384848
 20
431.8406236166
 30
0.0
 11
298.0083535189
 21
433.3111685569
 31
0.0
  0
ARC
  5
DC
330
CC
100
AcDbEntity
  8
DV2_Default
  6
Continuous
 62
     7
100
AcDbCircle
 10
275.4906242485
 20
425.7014358668
 30
0.0
 40
0.1500000000000005
100
AcDbArc
 50
195.0
 51
255.0
  0
LINE
  5
DD
330
CC
100
AcDbEntity
  8
DV2_Default
  6
Continuous
 62
     7
100
AcDbLine
 10
275.4518013917
 20
425.5565469928
 30
0.0
 11
276.6510226645
 21
425.2352166213
 31
0.0
  0
LINE
  5
DE
330
CC
100
AcDbEntity
  8
DV2_Default
  6
Continuous
 62
     7
100
AcDbLine
 10
297.4856710901
 20
430.8178438415
 30
0.0
 11
298.3635619913
 21
431.6957347427
 31
0.0
  0
ARC
  5
DF
330
CC
100
AcDbEntity
  8
DV2_Default
  6
Continuous
 62
     7
100
AcDbCircle
 10
276.6898455212
 20
425.3801054952
 30
0.0
 40
0.1500000000000103
100
AcDbArc
 50
255.0
 51
285.0
  0
ARC
  5
E0
330
CC
100
AcDbEntity
  8
DV2_Default
  6
Continuous
 62
     7
100
AcDbCircle
 10
297.3796050729
 20
430.9239098587
 30
0.0
 40
0.1499999999999969
100
AcDbArc
 50
285.0
 51
315.0
  0
ARC
  5
E1
330
CC
100
AcDbEntity
  8
DV2_Default
  6
Continuous
 62
     7
100
AcDbCircle
 10
298.2574959741
 20
431.8018007598
 30
0.0
 40
0.1499999999999916
100
AcDbArc
 50
315.0
 51
15.0
  0
LINE
  5
E2
330
CC
100
AcDbEntity
  8
DV2_Default
  6
Continuous
 62
     7
100
AcDbLine
 10
186.5195439378
 20
450.806487554
 30
0.0
 11
188.4352656501
 21
462.0437088251
 31
0.0
  0
ARC
  5
E3
330
CC
100
AcDbEntity
  8
DV2_Default
  6
Continuous
 62
     7
100
AcDbCircle
 10
100.2810510215
 20
363.8045149054
 30
0.0
 40
214.0728070511989
100
AcDbArc
 50
19.6725152043
 51
21.3497809609
  0
ARC
  5
E4
330
CC
100
AcDbEntity
  8
DV2_Default
  6
Continuous
 62
     7
100
AcDbCircle
 10
-1152.5391671435
 20
-16970.2244248329
 30
0.0
 40
17472.41815783348
100
AcDbArc
 50
85.2324195202
 51
85.6046315189
  0
ARC
  5
E5
330
CC
100
AcDbEntity
  8
DV2_Default
  6
Continuous
 62
     7
100
AcDbCircle
 10
328.0570429431
 20
768.0924912218
 30
0.0
 40
327.1243828616894
100
AcDbArc
 50
265.018633747
 51
265.9972719809
  0
ARC
  5
E6
330
CC
100
AcDbEntity
  8
DV2_Default
  6
Continuous
 62
     7
100
AcDbCircle
 10
2587.250210298
 20
31273.7744624222
 30
0.0
 40
30916.32032619562
100
AcDbArc
 50
265.5463539156
 51
265.7566229381
  0
ARC
  5
E7
330
CC
100
AcDbEntity
  8
DV2_Default
  6
Continuous
 62
     7
100
AcDbCircle
 10
279.6282522748
 20
166.5449787402
 30
0.0
 40
275.9233410087694
100
AcDbArc
 50
84.6568737115
 51
85.8360635176
  0
ARC
  5
E8
330
CC
100
AcDbEntity
  8
DV2_Default
  6
Continuous
 62
     7
100
AcDbCircle
 10
298.9951109385
 20
441.956231853
 30
0.0
 40
0.702185025921972
100
AcDbArc
 50
342.0636160588
 51
20.6323054955
  0
LINE
  5
E9
330
CC
100
AcDbEntity
  8
DV2_Default
  6
Continuous
 62
     7
100
AcDbLine
 10
188.4496877407
 20
462.5458127226
 30
0.0
 11
161.8522121728
 21
465.8115733834
 31
0.0
  0
LINE
  5
EA
330
CC
100
AcDbEntity
  8
DV2_Default
  6
Continuous
 62
     7
100
AcDbLine
 10
188.4496763442
 20
462.5458141219
 30
0.0
 11
298.564711233
 21
449.0253825236
 31
0.0
  0
ARC
  5
EB
330
CC
100
AcDbEntity
  8
DV2_Default
  6
Continuous
 62
     7
100
AcDbCircle
 10
791.1298699773
 20
990.0181467863
 30
0.0
 40
810.1252173067214
100
AcDbArc
 50
221.7276437979
 51
224.2496385679
  0
SPLINE
  5
EC
330
CC
100
AcDbEntity
  8
DV2_Default
  6
Continuous
 62
     7
100
AcDbSpline
210
0.0
220
0.0
230
1.0
 70
     8
 71
     3
 72
    26
 73
    22
 74
     0
 42
0.0000000003788109
 43
0.0000000001
 40
0.0
 40
0.0
 40
0.0
 40
0.0
 40
0.0577250074797131
 40
0.0577250074797131
 40
0.1202323393424522
 40
0.1202323393424522
 40
0.2452470030679297
 40
0.2452470030679297
 40
0.3702616667934082
 40
0.3702616667934082
 40
0.4952763305188864
 40
0.4952763305188864
 40
0.6202909942443647
 40
0.6202909942443647
 40
0.745305657969843
 40
0.745305657969843
 40
0.8703203216953214
 40
0.8703203216953214
 40
0.9953349854207997
 40
0.9953349854207997
 40
1.0
 40
1.0
 40
1.0
 40
1.0
 10
298.3553352846898
 20
433.233139936796
 30
0.0
 10
298.3550966577779
 20
433.2332171846984
 30
0.0
 10
298.2750564152561
 20
433.2513194396266
 30
0.0
 10
297.9516049524524
 20
433.3238533583886
 30
0.0
 10
297.6955888767011
 20
433.3816664965564
 30
0.0
 10
296.6746175071499
 20
433.6122325159519
 30
0.0
 10
295.6810514419153
 20
433.8389303335953
 30
0.0
 10
293.2875120056941
 20
434.3461522137576
 30
0.0
 10
291.8773076504297
 20
434.6314973042465
 30
0.0
 10
288.8579449543668
 20
435.026468037434
 30
0.0
 10
287.2029820703817
 20
435.1318454365174
 30
0.0
 10
283.9108168989431
 20
434.739643580572
 30
0.0
 10
282.3062336209615
 20
434.2113820402053
 30
0.0
 10
279.5582597758761
 20
432.7998956761568
 30
0.0
 10
278.391848383513
 20
431.9438459771187
 30
0.0
 10
276.4653806450881
 20
430.3644204788051
 30
0.0
 10
275.7155524979935
 20
429.6248468171979
 30
0.0
 10
274.6520365382293
 20
428.5438536644518
 30
0.0
 10
274.3619526448501
 20
428.2211271255664
 30
0.0
 10
274.340733028848
 20
428.1981239517221
 30
0.0
 10
274.3403465248517
 20
428.1977071987875
 30
0.0
 10
274.3403358818258
 20
428.1976991374359
 30
0.0
  0
ARC
  5
ED
330
CC
100
AcDbEntity
  8
DV2_Default
  6
Continuous
 62
     7
100
AcDbCircle
 10
11.9260030786
 20
389.2678297063
 30
0.0
 40
139.1061745582796
100
AcDbArc
 50
350.5627535538
 51
355.4372311804
  0
LINE
  5
EE
330
CC
100
AcDbEntity
  8
DV2_Default
  6
Continuous
 62
     7
100
AcDbLine
 10
195.9812088962
 20
339.758969783
 30
0.0
 11
146.2102232238
 21
339.758969783
 31
0.0
  0
ARC
  5
EF
330
CC
100
AcDbEntity
  8
DV2_Default
  6
Continuous
 62
     7
100
AcDbCircle
 10
292.7595799761
 20
445.5189449074
 30
0.0
 40
13.26265766229773
100
AcDbArc
 50
313.1456323963
 51
341.6470835386
  0
ARC
  5
F0
330
CC
100
AcDbEntity
  8
DV2_Default
  6
Continuous
 62
     7
100
AcDbCircle
 10
289.358157532
 20
448.9082235109
 30
0.0
 40
18.06134087995394
100
AcDbArc
 50
299.7464495954
 51
313.7960097645
  0
ARC
  5
F1
330
CC
100
AcDbEntity
  8
DV2_Default
  6
Continuous
 62
     7
100
AcDbCircle
 10
102.1419872491
 20
2994.2023739183
 30
0.0
 40
2571.776100164582
100
AcDbArc
 50
272.4220176756
 51
273.8396952844
  0
LINE
  5
F2
330
CC
100
AcDbEntity
  8
DV2_Default
  6
Continuous
 62
     7
100
AcDbLine
 10
305.2182690939
 20
441.7707444536
 30
0.0
 11
298.8393558697
 21
448.9061474373
 31
0.0
  0
ARC
  5
F3
330
CC
100
AcDbEntity
  8
DV2_Default
  6
Continuous
 62
     7
100
AcDbCircle
 10
304.8497021321
 20
441.4328122623
 30
0.0
 40
0.500000000001766
100
AcDbArc
 50
340.2634242049
 51
42.620689273
  0
ARC
  5
F4
330
CC
100
AcDbEntity
  8
DV2_Default
  6
Continuous
 62
     7
100
AcDbCircle
 10
161.791274905
 20
465.3153006264
 30
0.0
 40
0.5000000000000054
100
AcDbArc
 50
82.9999972367
 51
172.9999972367
  0
ARC
  5
F5
330
CC
100
AcDbEntity
  8
DV2_Default
  6
Continuous
 62
     7
100
AcDbCircle
 10
298.5056369431
 20
448.5288995892
 30
0.0
 40
0.4999815712369906
100
AcDbArc
 50
44.985734244
 51
83.0830440747
  0
ARC
  5
F6
330
CC
100
AcDbEntity
  8
DV2_Default
  6
Continuous
 62
     7
100
AcDbCircle
 10
211.0844400465
 20
419.7532741004
 30
0.0
 40
4.968268200136015
100
AcDbArc
 50
92.9879951952
 51
173.2176699457
  0
LINE
  5
F7
330
CC
100
AcDbEntity
  8
DV2_Default
  6
Continuous
 62
     7
100
AcDbLine
 10
149.1494839747
 20
366.458969783
 30
0.0
 11
145.9124593801
 21
340.0955306004
 31
0.0
  0
LINE
  5
F8
330
CC
100
AcDbEntity
  8
DV2_Default
  6
Continuous
 62
     7
100
AcDbLine
 10
161.2950018321
 20
465.376235322
 30
0.0
 11
150.5910075926
 21
378.1992328306
 31
0.0
  0
LINE
  5
F9
330
CC
100
AcDbEntity
  8
DV2_Default
  6
Continuous
 62
     7
100
AcDbLine
 10
196.27897274
 20
340.0224089656
 30
0.0
 11
206.1408478938
 21
420.3409046247
 31
0.0
  0
ARC
  5
FA
330
CC
100
AcDbEntity
  8
DV2_Default
  6
Continuous
 62
     7
100
AcDbCircle
 10
146.2102232238
 20
340.058969783
 30
0.0
 40
0.3
100
AcDbArc
 50
172.9999972367
 51
270.0
  0
ARC
  5
FB
330
CC
100
AcDbEntity
  8
DV2_Default
  6
Continuous
 62
     7
100
AcDbCircle
 10
195.9812088962
 20
340.058969783
 30
0.0
 40
0.3
100
AcDbArc
 50
270.0
 51
353.0436370939
  0
ARC
  5
FC
330
CC
100
AcDbEntity
  8
DV2_Default
  6
Continuous
 62
     7
100
AcDbCircle
 10
192.0588815092
 20
340.508969783
 30
0.0
 40
1.5
100
AcDbArc
 50
307.4864724738
 51
330.0
  0
ARC
  5
FD
330
CC
100
AcDbEntity
  8
DV2_Default
  6
Continuous
 62
     7
100
AcDbCircle
 10
150.0588815092
 20
340.508969783
 30
0.0
 40
1.5
100
AcDbArc
 50
210.0
 51
232.5135275262
  0
ARC
  5
FE
330
CC
100
AcDbEntity
  8
DV2_Default
  6
Continuous
 62
     7
100
AcDbCircle
 10
193.9069061158
 20
407.1176702645
 30
0.0
 40
55.00000000000005
100
AcDbArc
 50
74.4512079716
 51
82.7171491113
  0
ARC
  5
FF
330
CC
100
AcDbEntity
  8
DV2_Default
  6
Continuous
 62
     7
100
AcDbCircle
 10
165.1850853851
 20
410.6442664113
 30
0.0
 40
54.99999999998947
100
AcDbArc
 50
83.2828508887
 51
91.5487920284
  0
ARC
  5
100
330
CC
100
AcDbEntity
  8
DV2_Default
  6
Continuous
 62
     7
100
AcDbCircle
 10
163.7066412893
 20
465.3242828986
 30
0.0
 40
0.3000000000000346
100
AcDbArc
 50
91.5487920283
 51
113.8103737243
  0
ARC
  5
101
330
CC
100
AcDbEntity
  8
DV2_Default
  6
Continuous
 62
     7
100
AcDbCircle
 10
208.5697273435
 20
459.8157885767
 30
0.0
 40
0.3000000000000012
100
AcDbArc
 50
54.1252223357
 51
74.4512079717
  0
LINE
  5
102
330
CC
100
AcDbEntity
  8
DV2_Default
  6
Continuous
 62
     7
100
AcDbLine
 10
200.8742323653
 20
461.6745676187
 30
0.0
 11
171.6232265276
 21
465.2661395264
 31
0.0
  0
LINE
  5
103
330
CC
100
AcDbEntity
  8
DV2_Default
  6
Continuous
 62
     7
100
AcDbLine
 10
139.2088113671
 20
400.4351802271
 30
0.0
 11
127.8384389511
 21
400.4351802271
 31
0.0
  0
LINE
  5
104
330
CC
100
AcDbEntity
  8
DV2_Default
  6
Continuous
 62
     7
100
AcDbLine
 10
127.8384389511
 20
396.4351802271
 30
0.0
 11
139.2088113671
 21
396.4351802271
 31
0.0
  0
ARC
  5
105
330
CC
100
AcDbEntity
  8
DV2_Default
  6
Continuous
 62
     7
100
AcDbCircle
 10
139.2088113671
 20
395.4351802271
 30
0.0
 40
1.000000000000001
100
AcDbArc
 50
18.0
 51
90.0
  0
ARC
  5
106
330
CC
100
AcDbEntity
  8
DV2_Default
  6
Continuous
 62
     7
100
AcDbCircle
 10
139.2088113671
 20
395.4351802271
 30
0.0
 40
5.000000000000004
100
AcDbArc
 50
18.0
 51
90.0
  0
LINE
  5
107
330
CC
100
AcDbEntity
  8
DV2_Default
  6
Continuous
 62
     7
100
AcDbLine
 10
150.4799290211
 20
376.9265868654
 30
0.0
 11
143.9640939486
 21
396.980265199
 31
0.0
  0
LINE
  5
108
330
CC
100
AcDbEntity
  8
DV2_Default
  6
Continuous
 62
     7
100
AcDbLine
 10
140.1598678834
 20
395.7441972215
 30
0.0
 11
149.3260559789
 21
367.5335710212
 31
0.0
  0
ARC
  5
109
330
CC
100
AcDbEntity
  8
DV2_Default
  6
Continuous
 62
     7
100
AcDbCircle
 10
127.8384389511
 20
398.4351802271
 30
0.0
 40
2.000000000000002
100
AcDbArc
 50
90.0
 51
270.0
  0
SPLINE
  5
10A
330
CC
100
AcDbEntity
  8
DV2_Default
  6
Continuous
 62
     7
100
AcDbSpline
210
0.0
220
0.0
230
1.0
 70
     8
 71
     3
 72
    10
 73
     6
 74
     0
 42
0.0000000060961972
 43
0.0000000001
 40
0.0
 40
0.0
 40
0.0
 40
0.0
 40
0.5
 40
0.5
 40
1.0
 40
1.0
 40
1.0
 40
1.0
 10
193.1685133609553
 20
468.4029174352328
 30
0.0
 10
193.7053824766681
 20
468.2427978433738
 30
0.0
 10
194.0984462834919
 20
468.1257999666052
 30
0.0
 10
194.6147727482316
 20
467.9725146790901
 30
0.0
 10
194.7401020070997
 20
467.9356055695183
 30
0.0
 10
194.7397017933097
 20
467.9362649651996
 30
0.0
  0
ARC
  5
10B
330
CC
100
AcDbEntity
  8
DV2_Default
  6
Continuous
 62
     7
100
AcDbCircle
 10
154.0772344035
 20
480.0934880427
 30
0.0
 40
42.44095106360863
100
AcDbArc
 50
340.6733596412
 51
343.3544406182
  0
ARC
  5
10C
330
CC
100
AcDbEntity
  8
DV2_Default
  6
Continuous
 62
     7
100
AcDbCircle
 10
524.2122814117
 20
1573.7452214583
 30
0.0
 40
1155.83338296398
100
AcDbArc
 50
253.2171838796
 51
253.40633067
  0
LINE
  5
10D
330
CC
100
AcDbEntity
  8
DV2_Default
  6
Continuous
 62
     7
100
AcDbLine
 10
190.4715535897
 20
467.1432443379
 30
0.0
 11
191.0429125842
 21
469.0432865003
 31
0.0
  0
ARC
  5
10E
330
CC
100
AcDbEntity
  8
DV2_Default
  6
Continuous
 62
     7
100
AcDbCircle
 10
322.5866198019
 20
910.0494929968
 30
0.0
 40
460.2067155931572
100
AcDbArc
 50
253.1346166893
 51
253.391165348
  0
LINE
  5
10F
330
CC
100
AcDbEntity
  8
DV2_Default
  6
Continuous
 62
     7
100
AcDbLine
 10
188.9160037133
 20
469.6815313216
 30
0.0
 11
189.0697024523
 21
469.6371031077
 31
0.0
  0
ARC
  5
110
330
CC
100
AcDbEntity
  8
DV2_Default
  6
Continuous
 62
     7
100
AcDbCircle
 10
264.2027692602
 20
720.0864126861
 30
0.0
 40
261.4774203276031
100
AcDbArc
 50
252.9062168366
 51
253.2660619176
  0
SPLINE
  5
111
330
CC
100
AcDbEntity
  8
DV2_Default
  6
Continuous
 62
     7
100
AcDbSpline
210
0.0
220
0.0
230
1.0
 70
     8
 71
     3
 72
     9
 73
     5
 74
     0
 42
0.00001
 43
0.0000000001
 40
0.0
 40
0.0
 40
0.0
 40
0.0
 40
0.0410654045074763
 40
1.0
 40
1.0
 40
1.0
 40
1.0
 10
186.814921988294
 20
468.2460414560429
 30
0.0
 10
186.8149138987961
 20
468.2460437163319
 30
0.0
 10
186.8149140047911
 20
468.2460433752072
 30
0.0
 10
186.8149141598568
 20
468.246043019308
 30
0.0
 10
186.8149143536901
 20
468.2460426644345
 30
0.0
  0
SPLINE
  5
112
330
CC
100
AcDbEntity
  8
DV2_Default
  6
Continuous
 62
     7
100
AcDbSpline
210
0.0
220
0.0
230
1.0
 70
     8
 71
     3
 72
    26
 73
    22
 74
     0
 42
0.0000000026181976
 43
0.0000000001
 40
0.0
 40
0.0
 40
0.0
 40
0.0
 40
0.1701842326800613
 40
0.3405601698574067
 40
0.5109361070347518
 40
0.5961240756234244
 40
0.6387180599177606
 40
0.681312044212097
 40
0.681312044212097
 40
0.6831302312531814
 40
0.6885847923764359
 40
0.7104030368694527
 40
0.7104030368694527
 40
0.7285028470651118
 40
0.7466026572607709
 40
0.7828022776520897
 40
0.8552015184347264
 40
0.8914011388260449
 40
0.927600759217363
 40
0.9638003796086815
 40
0.9999999999999999
 40
0.9999999999999999
 40
0.9999999999999999
 40
0.9999999999999999
 10
186.8149143536901
 20
468.2460426644345
 30
0.0
 10
186.8150864277596
 20
468.2457276281191
 30
0.0
 10
186.8866121534576
 20
468.2236656751139
 30
0.0
 10
187.259217728805
 20
468.1107888994097
 30
0.0
 10
187.7930743704165
 20
467.9496467439909
 30
0.0
 10
188.2561801928078
 20
467.8100484432596
 30
0.0
 10
188.5392402931635
 20
467.7247642748672
 30
0.0
 10
188.6859043724753
 20
467.6805881426799
 30
0.0
 10
188.7634420533687
 20
467.6572365386708
 30
0.0
 10
188.7761448841184
 20
467.6534109149828
 30
0.0
 10
188.8270466847041
 20
467.6380814813967
 30
0.0
 10
188.8750961312748
 20
467.6236121771158
 30
0.0
 10
188.9458604845823
 20
467.6023041245297
 30
0.0
 10
189.0103066167158
 20
467.5828995938747
 30
0.0
 10
189.1401145575875
 20
467.5438188328154
 30
0.0
 10
189.3692129772684
 20
467.47485534888
 30
0.0
 10
189.6333169249967
 20
467.3953770070992
 30
0.0
 10
189.8956660750313
 20
467.3164471646161
 30
0.0
 10
190.0906847763093
 20
467.2577839772713
 30
0.0
 10
190.2831090997361
 20
467.1999105239465
 30
0.0
 10
190.4091824659967
 20
467.1619986910633
 30
0.0
 10
190.471553589653
 20
467.1432443379467
 30
0.0
  0
ARC
  5
113
330
CC
100
AcDbEntity
  8
DV2_Default
  6
Continuous
 62
     7
100
AcDbCircle
 10
228.3344697024
 20
457.7764083162
 30
0.0
 40
42.81922536043419
100
AcDbArc
 50
163.1898605466
 51
165.8472538885
  0
SPLINE
  5
114
330
CC
100
AcDbEntity
  8
DV2_Default
  6
Continuous
 62
     7
100
AcDbSpline
210
0.0
220
0.0
230
1.0
 70
     8
 71
     3
 72
    12
 73
     8
 74
     0
 42
0.0000000048541794
 43
0.0000000001
 40
0.0
 40
0.0
 40
0.0
 40
0.0
 40
0.1425252596301151
 40
0.3953414540599477
 40
0.6481576484897792
 40
0.900973842919611
 40
1.0
 40
1.0
 40
1.0
 40
1.0
 10
191.0429125842052
 20
469.0432865002943
 30
0.0
 10
191.1383004678827
 20
469.0146310929452
 30
0.0
 10
191.3891900756922
 20
468.9390673619482
 30
0.0
 10
191.8042837942261
 20
468.814247101641
 30
0.0
 10
192.2992055875469
 20
468.6656154685591
 30
0.0
 10
192.7050245669552
 20
468.543625094438
 30
0.0
 10
192.9472055385753
 20
468.4711595017505
 30
0.0
 10
193.0158203941469
 20
468.4503578890047
 30
0.0
  0
LINE
  5
115
330
CC
100
AcDbEntity
  8
DV2_Default
  6
Continuous
 62
     7
100
AcDbLine
 10
193.0158688911
 20
468.4505315537
 30
0.0
 11
193.1684911184
 21
468.402852212
 31
0.0
  0
ARC
  5
116
330
CC
100
AcDbEntity
  8
DV2_Default
  6
Continuous
 62
     7
100
AcDbCircle
 10
54.2271135092
 20
582.6826845729
 30
0.0
 40
163.4636310449466
100
AcDbArc
 50
343.4905330007
 51
346.0511680097
  0
ARC
  5
117
330
CC
100
AcDbEntity
  8
DV2_Default
  6
Continuous
 62
     7
100
AcDbCircle
 10
54.2271135092
 20
582.6826845729
 30
0.0
 40
163.4636310449466
100
AcDbArc
 50
346.0511680097
 51
346.0587966646
  0
ARC
  5
118
330
CC
100
AcDbEntity
  8
DV2_Default
  6
Continuous
 62
     7
100
AcDbCircle
 10
370.5182731766
 20
487.6428069971
 30
0.0
 40
166.2350189357955
100
AcDbArc
 50
160.546037569
 51
163.0639104608
  0
ARC
  5
119
330
CC
100
AcDbEntity
  8
DV2_Default
  6
Continuous
 62
     7
100
AcDbCircle
 10
370.5182731766
 20
487.6428069971
 30
0.0
 40
166.2350189357955
100
AcDbArc
 50
160.5385395937
 51
160.546037569
  0
ARC
  5
11A
330
CC
100
AcDbEntity
  8
DV2_Default
  6
Continuous
 62
     7
100
AcDbCircle
 10
-13432.5484948218
 20
4662.3767389785
 30
0.0
 40
14254.34278666051
100
AcDbArc
 50
342.8916652027
 51
343.1733338002
  0
ARC
  5
11B
330
CC
100
AcDbEntity
  8
DV2_Default
  6
Continuous
 62
     7
100
AcDbCircle
 10
13870.9919987325
 20
-3548.0021432951
 30
0.0
 40
14257.54750946492
100
AcDbArc
 50
163.3537945969
 51
163.6353998445
  0
ARC
  5
11C
330
CC
100
AcDbEntity
  8
DV2_Default
  6
Continuous
 62
     7
100
AcDbCircle
 10
7112.6945901463
 20
-1509.2729332182
 30
0.0
 40
7200.879574524759
100
AcDbArc
 50
164.0490076862
 51
164.0490109767
  0
ARC
  5
11D
330
CC
100
AcDbEntity
  8
DV2_Default
  6
Continuous
 62
     7
100
AcDbCircle
 10
7112.6945901463
 20
-1509.2729332182
 30
0.0
 40
7200.879574524759
100
AcDbArc
 50
163.5001386149
 51
164.0490076862
  0
ARC
  5
11E
330
CC
100
AcDbEntity
  8
DV2_Default
  6
Continuous
 62
     7
100
AcDbCircle
 10
57.3944106373
 20
578.9005229178
 30
0.0
 40
156.9630770790791
100
AcDbArc
 50
344.0892269042
 51
346.1496420292
  0
ARC
  5
11F
330
CC
100
AcDbEntity
  8
DV2_Default
  6
Continuous
 62
     7
100
AcDbCircle
 10
57.3944106373
 20
578.9005229178
 30
0.0
 40
156.9630770790791
100
AcDbArc
 50
346.1496420292
 51
346.1496923506
  0
SPLINE
  5
120
330
CC
100
AcDbEntity
  8
DV2_Default
  6
Continuous
 62
     7
100
AcDbSpline
210
0.0
220
0.0
230
1.0
 70
     8
 71
     3
 72
    12
 73
     8
 74
     0
 42
0.0000000037781903
 43
0.0000000001
 40
0.0
 40
0.0
 40
0.0
 40
0.0
 40
0.1104445393204492
 40
0.3710955813945871
 40
0.6317466234687239
 40
0.892397665542861
 40
1.0
 40
1.0
 40
1.0
 40
1.0
 10
210.9515957369162
 20
536.2306087867253
 30
0.0
 10
210.8636103558153
 20
536.2425783379941
 30
0.0
 10
210.5613576381592
 20
536.2655000326444
 30
0.0
 10
210.0190324270946
 20
536.2123572604082
 30
0.0
 10
209.3230344520716
 20
536.0640195492563
 30
0.0
 10
208.7607129297101
 20
535.93665422769
 30
0.0
 10
208.4379598665218
 20
535.8836053921204
 30
0.0
 10
208.3441978734491
 20
535.8706577135424
 30
0.0
  0
ARC
  5
121
330
CC
100
AcDbEntity
  8
DV2_Default
  6
Continuous
 62
     7
100
AcDbCircle
 10
46.3451027981
 20
585.41678435
 30
0.0
 40
169.1864500066516
100
AcDbArc
 50
343.0058417729
 51
344.801760356
  0
ARC
  5
122
330
CC
100
AcDbEntity
  8
DV2_Default
  6
Continuous
 62
     7
100
AcDbCircle
 10
208.6011784136
 20
536.6542894865
 30
0.0
 40
0.8246925206307035
100
AcDbArc
 50
236.3292041304
 51
251.8438552599
  0
ARC
  5
123
330
CC
100
AcDbEntity
  8
DV2_Default
  6
Continuous
 62
     7
100
AcDbCircle
 10
5709.0015079711
 20
-1095.6176579754
 30
0.0
 40
5737.726504961113
100
AcDbArc
 50
163.4793441245
 51
164.1685517421
  0
ARC
  5
124
330
CC
100
AcDbEntity
  8
DV2_Default
  6
Continuous
 62
     7
100
AcDbCircle
 10
-6434.6837695863
 20
2562.1126610459
 30
0.0
 40
6950.526864539626
100
AcDbArc
 50
342.4688934393
 51
342.468894925
  0
ARC
  5
125
330
CC
100
AcDbEntity
  8
DV2_Default
  6
Continuous
 62
     7
100
AcDbCircle
 10
-6434.6837695863
 20
2562.1126610459
 30
0.0
 40
6950.526864539626
100
AcDbArc
 50
342.468894925
 51
343.0375341123
  0
ARC
  5
126
330
CC
100
AcDbEntity
  8
DV2_Default
  6
Continuous
 62
     7
100
AcDbCircle
 10
355.4594038878
 20
489.6708874192
 30
0.0
 40
148.8489560465578
100
AcDbArc
 50
160.3678250428
 51
162.5406107125
  0
SPLINE
  5
127
330
CC
100
AcDbEntity
  8
DV2_Default
  6
Continuous
 62
     7
100
AcDbSpline
210
0.0
220
0.0
230
1.0
 70
     8
 71
     3
 72
     8
 73
     4
 74
     0
 42
0.0000000037234524
 43
0.0000000001
 40
0.0
 40
0.0
 40
0.0
 40
0.0
 40
1.0
 40
1.0
 40
1.0
 40
1.0
 10
211.4928194039187
 20
536.0678684113378
 30
0.0
 10
212.220830401632
 20
535.7194707236555
 30
0.0
 10
212.8095478738015
 20
534.9082922024039
 30
0.0
 10
213.4679417788112
 20
534.3300007589658
 30
0.0
  0
SPLINE
  5
128
330
CC
100
AcDbEntity
  8
DV2_Default
  6
Continuous
 62
     7
100
AcDbSpline
210
0.0
220
0.0
230
1.0
 70
     8
 71
     3
 72
    23
 73
    19
 74
     0
 42
0.000000000937538
 43
0.0000000001
 40
0.0
 40
0.0
 40
0.0
 40
0.0
 40
0.031311458590096
 40
0.0626187176086317
 40
0.1252375354644956
 40
0.2495240070298057
 40
0.3121409266256474
 40
0.3747604232654589
 40
0.437379033773584
 40
0.4999980017236857
 40
0.5626178650244344
 40
0.6252370398076839
 40
0.6878564674378083
 40
0.7504760163163676
 40
0.8747614129596355
 40
0.9373808488700754
 40
0.9686903907041159
 40
1.0
 40
1.0
 40
1.0
 40
1.0
 10
213.6862607186972
 20
534.3089631024222
 30
0.0
 10
213.7336290609185
 20
534.4655865149692
 30
0.0
 10
213.8283619625132
 20
534.7788208272584
 30
0.0
 10
214.0188106054895
 20
535.4051104512761
 30
0.0
 10
214.3556242517285
 20
536.4913213915326
 30
0.0
 10
214.7242870768377
 20
537.6918035268837
 30
0.0
 10
214.9999532408732
 20
538.55655889604
 30
0.0
 10
215.1604643240696
 20
539.0203656569968
 30
0.0
 10
215.251371018555
 20
539.2989444601618
 30
0.0
 10
215.2759177548428
 20
539.3954068969284
 30
0.0
 10
215.2518529815845
 20
539.2973654088161
 30
0.0
 10
215.1613050649866
 20
539.0167768903267
 30
0.0
 10
215.0011772615431
 20
538.5514104041023
 30
0.0
 10
214.7259331656109
 20
537.6849203960364
 30
0.0
 10
214.3575041589976
 20
536.4834164919143
 30
0.0
 10
214.0207244432461
 20
535.3970293279817
 30
0.0
 10
213.8302772758106
 20
534.7707126926568
 30
0.0
 10
213.7355482692537
 20
534.4574805612225
 30
0.0
 10
213.68825196089
 20
534.3008362211443
 30
0.0
  0
ARC
  5
129
330
CC
100
AcDbEntity
  8
DV2_Default
  6
Continuous
 62
     7
100
AcDbCircle
 10
213.6846767192
 20
535.1205272886
 30
0.0
 40
0.8196988645211074
100
AcDbArc
 50
254.6682207468
 51
270.2499050814
  0
ARC
  5
12A
330
CC
100
AcDbEntity
  8
DV2_Default
  6
Continuous
 62
     7
100
AcDbCircle
 10
-5248.2462532718
 20
2198.9311103191
 30
0.0
 40
5709.966942889893
100
AcDbArc
 50
342.3578222788
 51
343.050385006
  0
ARC
  5
12B
330
CC
100
AcDbEntity
  8
DV2_Default
  6
Continuous
 62
     7
100
AcDbCircle
 10
216.7143074396
 20
554.4142476581
 30
0.0
 40
19.07494610138166
100
AcDbArc
 50
252.4156850693
 51
254.1133334583
  0
SPLINE
  5
12C
330
CC
100
AcDbEntity
  8
DV2_Default
  6
Continuous
 62
     7
100
AcDbSpline
210
0.0
220
0.0
230
1.0
 70
     8
 71
     3
 72
    10
 73
     6
 74
     0
 42
0.000000002721688
 43
0.0000000001
 40
0.0
 40
0.0
 40
0.0
 40
0.0
 40
0.1988151608754359
 40
0.1988151608754359
 40
1.0
 40
1.0
 40
1.0
 40
1.0
 10
190.0516601902921
 20
463.0018562461522
 30
0.0
 10
189.8036519382734
 20
463.0763841631427
 30
0.0
 10
189.5509840153798
 20
463.1523351815352
 30
0.0
 10
188.278200212444
 20
463.5350472156858
 30
0.0
 10
187.2631980701094
 20
463.8406275118877
 30
0.0
 10
186.5333624188471
 20
464.0607492449831
 30
0.0
  0
SPLINE
  5
12D
330
CC
100
AcDbEntity
  8
DV2_Default
  6
Continuous
 62
     7
100
AcDbSpline
210
0.0
220
0.0
230
1.0
 70
     8
 71
     3
 72
    25
 73
    21
 74
     0
 42
0.0000000001397591
 43
0.0000000001
 40
0.0
 40
0.0
 40
0.0
 40
0.0
 40
0.0828709211392239
 40
0.1654931285397891
 40
0.241720103756461
 40
0.3115518467866857
 40
0.374988357628183
 40
0.4310671226568185
 40
0.4809770173469883
 40
0.5278490927172085
 40
0.5756519892565536
 40
0.6878070772558306
 40
0.8048404367889547
 40
0.8442876333845761
 40
0.8810779321423831
 40
0.915457900871364
 40
0.9401033775764982
 40
0.964167095352566
 40
0.9880428033809964
 40
1.0
 40
1.0
 40
1.0
 40
1.0
 10
194.7399328859097
 20
467.9361910048123
 30
0.0
 10
195.3638366141069
 20
470.0508531206313
 30
0.0
 10
196.4134570246399
 20
473.6084412480564
 30
0.0
 10
198.1006300760394
 20
479.3269533675121
 30
0.0
 10
199.6577832200984
 20
484.604774685742
 30
0.0
 10
201.0934866652644
 20
489.470956172208
 30
0.0
 10
202.3889830789387
 20
493.8619117043099
 30
0.0
 10
203.5486558486564
 20
497.7925298700528
 30
0.0
 10
204.5948580498957
 20
501.3384744629336
 30
0.0
 10
205.5843807222885
 20
504.6925661421731
 30
0.0
 10
207.0002406162517
 20
509.4904014480676
 30
0.0
 10
208.8934789442519
 20
515.9173998675366
 30
0.0
 10
210.7406950992333
 20
522.1443508969086
 30
0.0
 10
212.0382221047718
 20
526.6386997252416
 30
0.0
 10
212.7559287539617
 20
529.205815778903
 30
0.0
 10
213.3278711279232
 20
531.3863249390453
 30
0.0
 10
213.7555992825112
 20
533.213274280935
 30
0.0
 10
214.066679281105
 20
534.711465176333
 30
0.0
 10
214.2573803939621
 20
535.9201239148329
 30
0.0
 10
214.392218290311
 20
536.4822763876963
 30
0.0
 10
214.4442137083815
 20
536.7016111669733
 30
0.0
  0
ARC
  5
12E
330
CC
100
AcDbEntity
  8
DV2_Default
  6
Continuous
 62
     7
100
AcDbCircle
 10
214.6569617088
 20
539.5126941349
 30
0.0
 40
0.6289409804041884
100
AcDbArc
 50
346.2243117577
 51
15.7311058357
  0
ARC
  5
12F
330
CC
100
AcDbEntity
  8
DV2_Default
  6
Continuous
 62
     7
100
AcDbCircle
 10
200.5695654534
 20
535.0966448583
 30
0.0
 40
15.39244709701608
100
AcDbArc
 50
17.234424666
 51
30.9533616856
  0
SPLINE
  5
130
330
CC
100
AcDbEntity
  8
DV2_Default
  6
Continuous
 62
     7
100
AcDbSpline
210
0.0
220
0.0
230
1.0
 70
     8
 71
     3
 72
    29
 73
    25
 74
     0
 42
0.0000000001390429
 43
0.0000000001
 40
0.0
 40
0.0
 40
0.0
 40
0.0
 40
0.0037271154481163
 40
0.0165898485446384
 40
0.0391459412978309
 40
0.0587685605580969
 40
0.077503464030837
 40
0.0961641945464349
 40
0.1150821868776914
 40
0.1338290133470485
 40
0.1524056280666065
 40
0.2096877803012032
 40
0.2429942954125359
 40
0.2766660840878028
 40
0.3164984502411193
 40
0.364389548111491
 40
0.4196812295149497
 40
0.4823734944621263
 40
0.5524663429601541
 40
0.629959775014032
 40
0.7132729293639231
 40
0.8037247206001732
 40
0.9013151487248195
 40
1.0
 40
1.0
 40
1.0
 40
1.0
 10
208.94422985955
 20
538.729463763493
 30
0.0
 10
208.9313796284444
 20
538.6988633448183
 30
0.0
 10
208.8823198704626
 20
538.5813017375754
 30
0.0
 10
208.6547465523915
 20
538.210606119743
 30
0.0
 10
208.3248929858478
 20
537.5510912692479
 30
0.0
 10
207.9012089636241
 20
536.4700861008378
 30
0.0
 10
207.4522422066962
 20
535.1999968087782
 30
0.0
 10
206.9991533212675
 20
533.8792747518761
 30
0.0
 10
206.5587659626943
 20
532.5689524353123
 30
0.0
 10
206.1255466610994
 20
531.254392497816
 30
0.0
 10
205.4085438467668
 20
529.0410424388148
 30
0.0
 10
204.6038055931885
 20
526.4792230562758
 30
0.0
 10
203.7038774625803
 20
523.5584869413404
 30
0.0
 10
202.9346426439383
 20
521.0465337004588
 30
0.0
 10
202.0599346624313
 20
518.1917313612907
 30
0.0
 10
201.0295968836789
 20
514.8284574817311
 30
0.0
 10
199.8345083409397
 20
510.9275800717349
 30
0.0
 10
198.4795153322954
 20
506.5047003814009
 30
0.0
 10
196.9644014091676
 20
501.5591834973169
 30
0.0
 10
195.3014168461868
 20
496.1309929274591
 30
0.0
 10
193.4888249370133
 20
490.2144670320748
 30
0.0
 10
191.5437568301956
 20
483.865521811422
 30
0.0
 10
189.4372276520132
 20
476.9895476788796
 30
0.0
 10
188.1269531155262
 20
472.7126480445523
 30
0.0
 10
187.3448649973821
 20
470.1598148130962
 30
0.0
  0
ARC
  5
131
330
CC
100
AcDbEntity
  8
DV2_Default
  6
Continuous
 62
     7
100
AcDbCircle
 10
210.2062079829
 20
540.8510427989
 30
0.0
 40
0.6288156862245844
100
AcDbArc
 50
130.7961729223
 51
160.3065001602
  0
ARC
  5
132
330
CC
100
AcDbEntity
  8
DV2_Default
  6
Continuous
 62
     7
100
AcDbCircle
 10
219.5224156231
 20
529.3972616021
 30
0.0
 40
15.39315416310448
100
AcDbArc
 50
115.5753953651
 51
129.2944390248
  0
ARC
  5
133
330
CC
100
AcDbEntity
  8
DV2_Default
  6
Continuous
 62
     7
100
AcDbCircle
 10
213.1804032979
 20
542.6919238959
 30
0.0
 40
0.6771491598617552
100
AcDbArc
 50
28.3856097214
 51
117.3451887544
  0
LINE
  5
134
330
CC
100
AcDbEntity
  8
DV2_Default
  6
Continuous
 62
     7
100
AcDbLine
 10
186.8152490297
 20
468.2472588247
 30
0.0
 11
185.9072275775
 21
464.7780311906
 31
0.0
  0
LINE
  5
135
330
CC
100
AcDbEntity
  8
DV2_Default
  6
Continuous
 62
     7
100
AcDbLine
 10
192.9714869912
 20
462.6553794484
 30
0.0
 11
194.1269156265
 21
466.0487129522
 31
0.0
  0
ARC
  5
136
330
CC
100
AcDbEntity
  8
DV2_Default
  6
Continuous
 62
     7
100
AcDbCircle
 10
184.09780638
 20
445.952490979
 30
0.0
 40
18.5
100
AcDbArc
 50
85.8412533289
 51
100.441662086
  0
SPLINE
  5
137
330
CC
100
AcDbEntity
  8
DV2_Default
  6
Continuous
 62
     7
100
AcDbSpline
210
0.0
220
0.0
230
1.0
 70
     8
 71
     3
 72
    12
 73
     8
 74
     0
 42
0.00000002016948
 43
0.0000000001
 40
0.0
 40
0.0
 40
0.0
 40
0.0
 40
0.0377948583005113
 40
0.4183972369613708
 40
0.7171482131468023
 40
0.9666456324859406
 40
1.0
 40
1.0
 40
1.0
 40
1.0
 10
185.9030723789333
 20
464.7728658129839
 30
0.0
 10
185.9023295116161
 20
464.7661627199619
 30
0.0
 10
185.8951068152152
 20
464.7022127875042
 30
0.0
 10
185.8247169174678
 20
464.5948949732403
 30
0.0
 10
185.7171801590687
 20
464.4946487487349
 30
0.0
 10
185.6303264297375
 20
464.4450438716601
 30
0.0
 10
185.5882250482892
 20
464.4346333200676
 30
0.0
 10
185.5824454417357
 20
464.4332212897074
 30
0.0
  0
ENDBLK
  5
139
330
CC
100
AcDbEntity
  8
0
100
AcDbBlockEnd
  0
BLOCK
  5
260
330
13A
100
AcDbEntity
  8
0
100
AcDbBlockBegin
  2
SE2
 70
     0
 10
0.0
 20
0.0
 30
0.0
  3
SE2
  1

  0
ELLIPSE
  5
13D
330
13A
100
AcDbEntity
  8
DV3_Default
  6
Continuous
 62
     7
100
AcDbEllipse
 10
31.35
 20
427.6690447638
 30
0.0
 11
9.0
 21
-1.387778780781446E-14
 31
0.0
210
0.0
220
0.0
230
1.0
 40
0.2588190451
 41
0.0
 42
6.283185307179586
  0
ELLIPSE
  5
13E
330
13A
100
AcDbEntity
  8
DV3_Default
  6
Continuous
 62
     7
100
AcDbEllipse
 10
31.35
 20
427.6690447638
 30
0.0
 11
5.250000000000002
 21
0.0
 31
0.0
210
0.0
220
0.0
230
1.0
 40
0.2588190451
 41
0.0
 42
6.283185307179586
  0
ELLIPSE
  5
13F
330
13A
100
AcDbEntity
  8
DV3_Default
  6
Continuous
 62
     7
100
AcDbEllipse
 10
31.35
 20
427.6690447638
 30
0.0
 11
6.249999999999999
 21
-1.387778780781446E-14
 31
0.0
210
0.0
220
0.0
230
1.0
 40
0.2588190451
 41
0.0
 42
6.283185307179586
  0
ELLIPSE
  5
140
330
13A
100
AcDbEntity
  8
DV3_Default
  6
Continuous
 62
     7
100
AcDbEllipse
 10
31.35
 20
427.6690447638
 30
0.0
 11
2.750000000000002
 21
-1.387778780781446E-14
 31
0.0
210
0.0
220
0.0
230
1.0
 40
0.2588190451
 41
0.0
 42
6.283185307179586
  0
ELLIPSE
  5
141
330
13A
100
AcDbEntity
  8
DV3_Default
  6
Continuous
 62
     7
100
AcDbEllipse
 10
31.35
 20
427.6690447638
 30
0.0
 11
2.15
 21
0.0
 31
0.0
210
0.0
220
0.0
230
1.0
 40
0.2588190451
 41
0.0
 42
6.283185307179586
  0
ELLIPSE
  5
142
330
13A
100
AcDbEntity
  8
DV3_Default
  6
Continuous
 62
     7
100
AcDbEllipse
 10
31.35
 20
427.862229929
 30
0.0
 11
-0.5196299438963558
 21
0.0
 31
0.0
210
0.0
220
0.0
230
1.0
 40
0.2588190451
 41
0.0
 42
6.283185307179586
  0
ELLIPSE
  5
143
330
13A
100
AcDbEntity
  8
DV3_Default
  6
Continuous
 62
     7
100
AcDbEllipse
 10
31.35
 20
427.6690447638
 30
0.0
 11
8.700000000000001
 21
-1.387778780781446E-14
 31
0.0
210
0.0
220
0.0
230
1.0
 40
0.2588190451
 41
0.0
 42
6.283185307179586
  0
ARC
  5
144
330
13A
100
AcDbEntity
  8
DV3_Default
  6
Continuous
 62
     7
100
AcDbCircle
 10
31.35
 20
458.5016255466
 30
0.0
 40
32.83935750582691
100
AcDbArc
 50
269.82552683
 51
270.17447317
  0
ELLIPSE
  5
145
330
13A
100
AcDbEntity
  8
DV3_Default
  6
Continuous
 62
     7
100
AcDbEllipse
 10
31.35
 20
427.862229929
 30
0.0
 11
8.500000000001048
 21
-1.110223024625157E-13
 31
0.0
210
0.0
220
0.0
230
1.0
 40
0.2588190451
 41
4.72415395767284
 42
4.962423390895785
  0
LINE
  5
146
330
13A
100
AcDbEntity
  8
DV3_Default
  6
Continuous
 62
     7
100
AcDbLine
 10
31.25
 20
426.0516328004
 30
0.0
 11
31.25
 21
425.6624202974
 31
0.0
  0
LINE
  5
147
330
13A
100
AcDbEntity
  8
DV3_Default
  6
Continuous
 62
     7
100
AcDbLine
 10
31.45
 20
426.0516328004
 30
0.0
 11
31.45
 21
425.6624202974
 31
0.0
  0
LINE
  5
148
330
13A
100
AcDbEntity
  8
DV3_Default
  6
Continuous
 62
     7
100
AcDbLine
 10
31.6
 20
427.5484152466
 30
0.0
 11
31.6
 21
427.7443279026
 31
0.0
  0
LINE
  5
149
330
13A
100
AcDbEntity
  8
DV3_Default
  6
Continuous
 62
     7
100
AcDbLine
 10
31.1
 20
427.5484152466
 30
0.0
 11
31.1
 21
427.7443279026
 31
0.0
  0
ELLIPSE
  5
14A
330
13A
100
AcDbEntity
  8
DV3_Default
  6
Continuous
 62
     7
100
AcDbEllipse
 10
31.35
 20
428.1011014861
 30
0.0
 11
-2.149999999998476
 21
-2.775557561562891E-14
 31
0.0
210
0.0
220
0.0
230
1.0
 40
0.2588190451
 41
1.454253618345476
 42
1.687339035244332
  0
LINE
  5
14B
330
13A
100
AcDbEntity
  8
DV3_Default
  6
Continuous
 62
     7
100
AcDbLine
 10
31.0804921307
 20
428.2160884663
 30
0.0
 11
31.0804921307
 21
428.2211164957
 31
0.0
  0
ELLIPSE
  5
14C
330
13A
100
AcDbEntity
  8
DV3_Default
  6
Continuous
 62
     7
100
AcDbEllipse
 10
31.35
 20
428.1011014861
 30
0.0
 11
-0.5196299438963571
 21
-2.775557561562892E-14
 31
0.0
210
0.0
220
0.0
230
1.0
 40
0.2588190451
 41
5.257664250556943
 42
6.261508812605681
  0
LINE
  5
14D
330
13A
100
AcDbEntity
  8
DV3_Default
  6
Continuous
 62
     7
100
AcDbLine
 10
30.4003892914
 20
428.168286475
 30
0.0
 11
30.8304921307
 21
428.1040165323
 31
0.0
  0
LINE
  5
14E
330
13A
100
AcDbEntity
  8
DV3_Default
  6
Continuous
 62
     7
100
AcDbLine
 10
31.0531390637
 20
428.2201758145
 30
0.0
 11
31.0804921307
 21
428.2160884663
 31
0.0
  0
ELLIPSE
  5
14F
330
13A
100
AcDbEntity
  8
DV3_Default
  6
Continuous
 62
     7
100
AcDbEllipse
 10
31.35
 20
428.1011014861
 30
0.0
 11
0.5196299438963579
 21
-4.163336342344337E-14
 31
0.0
210
0.0
220
0.0
230
1.0
 40
0.2588190451
 41
0.0216764945739875
 42
1.025521056622539
  0
LINE
  5
150
330
13A
100
AcDbEntity
  8
DV3_Default
  6
Continuous
 62
     7
100
AcDbLine
 10
31.6468609363
 20
428.2201758145
 30
0.0
 11
31.6195078693
 21
428.2160884663
 31
0.0
  0
LINE
  5
151
330
13A
100
AcDbEntity
  8
DV3_Default
  6
Continuous
 62
     7
100
AcDbLine
 10
31.6195078693
 20
428.2160884663
 30
0.0
 11
31.6195078693
 21
428.2211164957
 31
0.0
  0
LINE
  5
152
330
13A
100
AcDbEntity
  8
DV3_Default
  6
Continuous
 62
     7
100
AcDbLine
 10
32.2996107086
 20
428.168286475
 30
0.0
 11
31.8695078693
 21
428.1040165323
 31
0.0
  0
ELLIPSE
  5
153
330
13A
100
AcDbEntity
  8
DV3_Default
  6
Continuous
 62
     7
100
AcDbEllipse
 10
31.349999878
 20
427.8622298111
 30
0.0
 11
-8.499999748470966
 21
3.271653781222739E-8
 31
0.0
210
0.0
220
0.0
230
1.0
 40
0.2588190389
 41
1.297231969312309
 42
1.3207619245411
  0
ELLIPSE
  5
154
330
13A
100
AcDbEntity
  8
DV3_Default
  6
Continuous
 62
     7
100
AcDbEllipse
 10
31.35
 20
427.862229929
 30
0.0
 11
-8.499999999997019
 21
6.938893903907228E-14
 31
0.0
210
0.0
220
0.0
230
1.0
 40
0.2588190451
 41
1.320761916283838
 42
1.55903134950689
  0
LINE
  5
155
330
13A
100
AcDbEntity
  8
DV3_Default
  6
Continuous
 62
     7
100
AcDbLine
 10
29.0535977858
 20
425.7440757228
 30
0.0
 11
29.0535977858
 21
426.1645726685
 31
0.0
  0
LINE
  5
156
330
13A
100
AcDbEntity
  8
DV3_Default
  6
Continuous
 62
     7
100
AcDbLine
 10
29.4509666212
 20
426.1279045435
 30
0.0
 11
29.0535977858
 21
425.7440757228
 31
0.0
  0
LINE
  5
157
330
13A
100
AcDbEntity
  8
DV3_Default
  6
Continuous
 62
     7
100
AcDbLine
 10
29.6425508162
 20
426.1129606654
 30
0.0
 11
29.246782951
 21
425.7306782631
 31
0.0
  0
ELLIPSE
  5
158
330
13A
100
AcDbEntity
  8
DV3_Default
  6
Continuous
 62
     7
100
AcDbEllipse
 10
31.3499997639
 20
427.8622298232
 30
0.0
 11
-8.499999704951934
 21
5.672673442091991E-8
 31
0.0
210
0.0
220
0.0
230
1.0
 40
0.2588190415
 41
1.035432587336482
 42
1.058962542566048
  0
ELLIPSE
  5
159
330
13A
100
AcDbEntity
  8
DV3_Default
  6
Continuous
 62
     7
100
AcDbEllipse
 10
31.35
 20
427.862229929
 30
0.0
 11
-8.499999999985985
 21
2.664535259100376E-12
 31
0.0
210
0.0
220
0.0
230
1.0
 40
0.2588190451
 41
1.058962528485111
 42
1.297231961708423
  0
LINE
  5
15A
330
13A
100
AcDbEntity
  8
DV3_Default
  6
Continuous
 62
     7
100
AcDbLine
 10
27.0136915874
 20
425.9700798568
 30
0.0
 11
27.0136915874
 21
426.5041023018
 31
0.0
  0
LINE
  5
15B
330
13A
100
AcDbEntity
  8
DV3_Default
  6
Continuous
 62
     7
100
AcDbLine
 10
27.824162174
 20
426.3334038812
 30
0.0
 11
27.0136915874
 21
425.9700798568
 31
0.0
  0
LINE
  5
15C
330
13A
100
AcDbEntity
  8
DV3_Default
  6
Continuous
 62
     7
100
AcDbLine
 10
27.9913845279
 20
426.3048399937
 30
0.0
 11
27.1868966682
 21
425.9441979523
 31
0.0
  0
ELLIPSE
  5
15D
330
13A
100
AcDbEntity
  8
DV3_Default
  6
Continuous
 62
     7
100
AcDbEllipse
 10
31.3499996668
 20
427.8622298428
 30
0.0
 11
-8.499999646556514
 21
6.538344865525403E-8
 31
0.0
210
0.0
220
0.0
230
1.0
 40
0.2588190451
 41
0.7736332016365048
 42
0.797163156864957
  0
ELLIPSE
  5
15E
330
13A
100
AcDbEntity
  8
DV3_Default
  6
Continuous
 62
     7
100
AcDbEllipse
 10
31.35
 20
427.862229929
 30
0.0
 11
-8.500000000008379
 21
-2.040034807748725E-12
 31
0.0
210
0.0
220
0.0
230
1.0
 40
0.2588190451
 41
0.7971631406852036
 42
1.035432573908
  0
LINE
  5
15F
330
13A
100
AcDbEntity
  8
DV3_Default
  6
Continuous
 62
     7
100
AcDbLine
 10
25.2692976414
 20
426.3250308914
 30
0.0
 11
25.2692976414
 21
426.9237093153
 31
0.0
  0
LINE
  5
160
330
13A
100
AcDbEntity
  8
DV3_Default
  6
Continuous
 62
     7
100
AcDbLine
 10
26.5090183104
 20
426.6458942112
 30
0.0
 11
25.2692976414
 21
426.3250308914
 31
0.0
  0
LINE
  5
161
330
13A
100
AcDbEntity
  8
DV3_Default
  6
Continuous
 62
     7
100
AcDbLine
 10
26.6384527358
 20
426.6061892248
 30
0.0
 11
25.4107189976
 21
426.288428351
 31
0.0
  0
ELLIPSE
  5
162
330
13A
100
AcDbEntity
  8
DV3_Default
  6
Continuous
 62
     7
100
AcDbEllipse
 10
31.3499995914
 20
427.862229868
 30
0.0
 11
-8.499999587129324
 21
5.665549973610240E-8
 31
0.0
210
0.0
220
0.0
230
1.0
 40
0.2588190487
 41
0.5118338117287127
 42
0.5353637669579873
  0
ELLIPSE
  5
163
330
13A
100
AcDbEntity
  8
DV3_Default
  6
Continuous
 62
     7
100
AcDbEllipse
 10
31.35
 20
427.8622299291
 30
0.0
 11
-8.500000000020515
 21
-3.552713678800501E-12
 31
0.0
210
0.0
220
0.0
230
1.0
 40
0.2588190451
 41
0.5353637528857492
 42
0.773633186108362
  0
LINE
  5
164
330
13A
100
AcDbEntity
  8
DV3_Default
  6
Continuous
 62
     7
100
AcDbLine
 10
23.9392935122
 20
426.7847395
 30
0.0
 11
23.9392935122
 21
427.3214998906
 31
0.0
  0
LINE
  5
165
330
13A
100
AcDbEntity
  8
DV3_Default
  6
Continuous
 62
     7
100
AcDbLine
 10
25.6028737342
 20
427.0333270372
 30
0.0
 11
23.9392935122
 21
426.7847395
 31
0.0
  0
LINE
  5
166
330
13A
100
AcDbEntity
  8
DV3_Default
  6
Continuous
 62
     7
100
AcDbLine
 10
25.6848609479
 20
426.9858066265
 30
0.0
 11
24.0392935122
 21
426.7399107264
 31
0.0
  0
ELLIPSE
  5
167
330
13A
100
AcDbEntity
  8
DV3_Default
  6
Continuous
 62
     7
100
AcDbEllipse
 10
31.3499996099
 20
427.8622299019
 30
0.0
 11
-8.499999609630319
 21
2.808707433299418E-8
 31
0.0
210
0.0
220
0.0
230
1.0
 40
0.2588190504
 41
0.2500344170261179
 42
0.2735643721613875
  0
ELLIPSE
  5
168
330
13A
100
AcDbEntity
  8
DV3_Default
  6
Continuous
 62
     7
100
AcDbEllipse
 10
31.35
 20
427.862229929
 30
0.0
 11
-8.500000000028294
 21
-3.261280134836397E-12
 31
0.0
210
0.0
220
0.0
230
1.0
 40
0.2588190451
 41
0.2735643650867254
 42
0.5118337983092611
  0
LINE
  5
169
330
13A
100
AcDbEntity
  8
DV3_Default
  6
Continuous
 62
     7
100
AcDbLine
 10
23.1143167834
 20
427.3178773008
 30
0.0
 11
23.1143167834
 21
427.8363480245
 31
0.0
  0
LINE
  5
16A
330
13A
100
AcDbEntity
  8
DV3_Default
  6
Continuous
 62
     7
100
AcDbLine
 10
25.1527887179
 20
427.4592460513
 30
0.0
 11
23.1143167834
 21
427.3178773008
 31
0.0
  0
LINE
  5
16B
330
13A
100
AcDbEntity
  8
DV3_Default
  6
Continuous
 62
     7
100
AcDbLine
 10
25.1821146802
 20
427.4076899787
 30
0.0
 11
23.1660805924
 21
427.2678773008
 31
0.0
  0
ARC
  5
16C
330
13A
100
AcDbEntity
  8
DV3_Default
  6
Continuous
 62
     7
100
AcDbCircle
 10
23.4199408839
 20
427.862229929
 30
0.0
 40
0.5699406006649891
100
AcDbArc
 50
177.3972128852
 51
182.6027871148
  0
ELLIPSE
  5
16D
330
13A
100
AcDbEntity
  8
DV3_Default
  6
Continuous
 62
     7
100
AcDbEllipse
 10
31.35
 20
427.862229929
 30
0.0
 11
-8.500000000029988
 21
-3.608224830031759E-13
 31
0.0
210
0.0
220
0.0
230
1.0
 40
0.2588190451
 41
0.0117649772880459
 42
0.2500344105106037
  0
ARC
  5
16E
330
13A
100
AcDbEntity
  8
DV3_Default
  6
Continuous
 62
     7
100
AcDbCircle
 10
25.5194170711
 20
427.862229929
 30
0.0
 40
0.419416359164763
100
AcDbArc
 50
176.462067702
 51
180.0
  0
LINE
  5
16F
330
13A
100
AcDbEntity
  8
DV3_Default
  6
Continuous
 62
     7
100
AcDbLine
 10
25.1008000512
 20
427.8881118336
 30
0.0
 11
25.1008000512
 21
428.2688192392
 31
0.0
  0
LINE
  5
170
330
13A
100
AcDbEntity
  8
DV3_Default
  6
Continuous
 62
     7
100
AcDbLine
 10
25.1008000512
 20
427.8881118336
 30
0.0
 11
22.8505882556
 21
427.8881118336
 31
0.0
  0
LINE
  5
171
330
13A
100
AcDbEntity
  8
DV3_Default
  6
Continuous
 62
     7
100
AcDbLine
 10
25.1
 20
427.8363480245
 30
0.0
 11
22.8505882556
 21
427.8363480245
 31
0.0
  0
ELLIPSE
  5
172
330
13A
100
AcDbEntity
  8
DV3_Default
  6
Continuous
 62
     7
100
AcDbEllipse
 10
31.35
 20
427.862229929
 30
0.0
 11
-8.500000000024398
 21
1.665334536937735E-13
 31
0.0
210
0.0
220
0.0
230
1.0
 40
0.2588190451
 41
6.053988861975437
 42
6.271420329891503
  0
ELLIPSE
  5
173
330
13A
100
AcDbEntity
  8
DV3_Default
  6
Continuous
 62
     7
100
AcDbEllipse
 10
31.3500000556
 20
427.8622299252
 30
0.0
 11
-6.250000055677205
 21
3.980149543281186E-9
 31
0.0
210
0.0
220
0.0
230
1.0
 40
0.2588190441
 41
-0.2778000691535496
 42
-0.2457987038103733
  0
LINE
  5
174
330
13A
100
AcDbEntity
  8
DV3_Default
  6
Continuous
 62
     7
100
AcDbLine
 10
25.3396182803
 20
428.305846949
 30
0.0
 11
25.3396182803
 21
428.7304708847
 31
0.0
  0
LINE
  5
175
330
13A
100
AcDbEntity
  8
DV3_Default
  6
Continuous
 62
     7
100
AcDbLine
 10
25.3396182803
 20
428.305846949
 30
0.0
 11
23.1964293379
 21
428.4544778611
 31
0.0
  0
LINE
  5
176
330
13A
100
AcDbEntity
  8
DV3_Default
  6
Continuous
 62
     7
100
AcDbLine
 10
25.2878544713
 20
428.255846949
 30
0.0
 11
23.1285997659
 21
428.4055920274
 31
0.0
  0
ELLIPSE
  5
177
330
13A
100
AcDbEntity
  8
DV3_Default
  6
Continuous
 62
     7
100
AcDbEllipse
 10
31.3500000499
 20
427.8622299216
 30
0.0
 11
-6.250000050452933
 21
6.914621653031360E-9
 31
0.0
210
0.0
220
0.0
230
1.0
 40
0.2588190445
 41
-0.5395994559856474
 42
-0.5075980906426132
  0
LINE
  5
178
330
13A
100
AcDbEntity
  8
DV3_Default
  6
Continuous
 62
     7
100
AcDbLine
 10
25.988034091
 20
428.6933502976
 30
0.0
 11
25.988034091
 21
429.2134062851
 31
0.0
  0
LINE
  5
179
330
13A
100
AcDbEntity
  8
DV3_Default
  6
Continuous
 62
     7
100
AcDbLine
 10
25.988034091
 20
428.6933502976
 30
0.0
 11
24.2165644271
 21
428.9580596726
 31
0.0
  0
LINE
  5
17A
330
13A
100
AcDbEntity
  8
DV3_Default
  6
Continuous
 62
     7
100
AcDbLine
 10
25.888034091
 20
428.6485215239
 30
0.0
 11
24.1036587546
 21
428.9151593839
 31
0.0
  0
ELLIPSE
  5
17B
330
13A
100
AcDbEntity
  8
DV3_Default
  6
Continuous
 62
     7
100
AcDbEllipse
 10
31.3499999663
 20
427.8622299378
 30
0.0
 11
-6.249999964234639
 21
-6.602760005414154E-9
 31
0.0
210
0.0
220
0.0
230
1.0
 40
0.2588190451
 41
-0.8013988483846317
 42
-0.7693974827718852
  0
LINE
  5
17C
330
13A
100
AcDbEntity
  8
DV3_Default
  6
Continuous
 62
     7
100
AcDbLine
 10
27.0018590173
 20
429.0242141665
 30
0.0
 11
27.0018590173
 21
429.6193741282
 31
0.0
  0
LINE
  5
17D
330
13A
100
AcDbEntity
  8
DV3_Default
  6
Continuous
 62
     7
100
AcDbLine
 10
27.0018590173
 20
429.0242141665
 30
0.0
 11
25.6581241393
 21
429.3719983445
 31
0.0
  0
LINE
  5
17E
330
13A
100
AcDbEntity
  8
DV3_Default
  6
Continuous
 62
     7
100
AcDbLine
 10
26.8604376611
 20
428.9876116262
 30
0.0
 11
25.5081069526
 21
429.3376205688
 31
0.0
  0
ELLIPSE
  5
17F
330
13A
100
AcDbEntity
  8
DV3_Default
  6
Continuous
 62
     7
100
AcDbEllipse
 10
31.3500000159
 20
427.8622299219
 30
0.0
 11
-6.25000001989253
 21
3.824607297531202E-9
 31
0.0
210
0.0
220
0.0
230
1.0
 40
0.2588190454
 41
-1.063198232639111
 42
-1.031196867229929
  0
LINE
  5
180
330
13A
100
AcDbEntity
  8
DV3_Default
  6
Continuous
 62
     7
100
AcDbLine
 10
28.312002566
 20
429.27589073
 30
0.0
 11
28.312002566
 21
429.7790244134
 31
0.0
  0
LINE
  5
181
330
13A
100
AcDbEntity
  8
DV3_Default
  6
Continuous
 62
     7
100
AcDbLine
 10
28.312002566
 20
429.27589073
 30
0.0
 11
27.4162469576
 21
429.6774469838
 31
0.0
  0
LINE
  5
182
330
13A
100
AcDbEntity
  8
DV3_Default
  6
Continuous
 62
     7
100
AcDbLine
 10
28.1387974852
 20
429.2500088255
 30
0.0
 11
27.2387479262
 21
429.6534900047
 31
0.0
  0
ELLIPSE
  5
183
330
13A
100
AcDbEntity
  8
DV3_Default
  6
Continuous
 62
     7
100
AcDbEllipse
 10
31.3500000147
 20
427.8622299149
 30
0.0
 11
-6.250000030348568
 21
3.941499904236423E-9
 31
0.0
210
0.0
220
0.0
230
1.0
 40
0.2588190461
 41
-1.324997620366596
 42
-1.292996255021556
  0
LINE
  5
184
330
13A
100
AcDbEntity
  8
DV3_Default
  6
Continuous
 62
     7
100
AcDbLine
 10
29.8291806192
 20
429.4312286461
 30
0.0
 11
29.8291806192
 21
429.886100071
 31
0.0
  0
LINE
  5
185
330
13A
100
AcDbEntity
  8
DV3_Default
  6
Continuous
 62
     7
100
AcDbLine
 10
29.8291806192
 20
429.4312286461
 30
0.0
 11
29.3827483828
 21
429.8624490729
 31
0.0
  0
LINE
  5
186
330
13A
100
AcDbEntity
  8
DV3_Default
  6
Continuous
 62
     7
100
AcDbLine
 10
29.635995454
 20
429.4178311864
 30
0.0
 11
29.1884134328
 21
429.8501622201
 31
0.0
  0
ARC
  5
187
330
13A
100
AcDbEntity
  8
DV3_Default
  6
Continuous
 62
     7
100
AcDbCircle
 10
31.35
 20
405.3345873953
 30
0.0
 40
24.14526157799515
100
AcDbArc
 50
89.7627031576
 51
90.2372968424
  0
LINE
  5
188
330
13A
100
AcDbEntity
  8
DV3_Default
  6
Continuous
 62
     7
100
AcDbLine
 10
31.45
 20
429.4796418924
 30
0.0
 11
31.45
 21
429.9206217047
 31
0.0
  0
LINE
  5
189
330
13A
100
AcDbEntity
  8
DV3_Default
  6
Continuous
 62
     7
100
AcDbLine
 10
31.25
 20
429.4796418924
 30
0.0
 11
31.25
 21
429.9206217047
 31
0.0
  0
ELLIPSE
  5
18A
330
13A
100
AcDbEntity
  8
DV3_Default
  6
Continuous
 62
     7
100
AcDbEllipse
 10
31.3499999849
 20
427.8622299144
 30
0.0
 11
6.250000031208401
 21
4.062750136313298E-9
 31
0.0
210
0.0
220
0.0
230
1.0
 40
0.2588190462
 41
1.29299625498826
 42
1.324997620329104
  0
LINE
  5
18B
330
13A
100
AcDbEntity
  8
DV3_Default
  6
Continuous
 62
     7
100
AcDbLine
 10
33.064004546
 20
429.4178311864
 30
0.0
 11
33.5115865672
 21
429.8501622201
 31
0.0
  0
LINE
  5
18C
330
13A
100
AcDbEntity
  8
DV3_Default
  6
Continuous
 62
     7
100
AcDbLine
 10
32.8708193808
 20
429.4312286461
 30
0.0
 11
33.3172516172
 21
429.8624490729
 31
0.0
  0
LINE
  5
18D
330
13A
100
AcDbEntity
  8
DV3_Default
  6
Continuous
 62
     7
100
AcDbLine
 10
32.8708193808
 20
429.4312286461
 30
0.0
 11
32.8708193808
 21
429.886100071
 31
0.0
  0
ELLIPSE
  5
18E
330
13A
100
AcDbEntity
  8
DV3_Default
  6
Continuous
 62
     7
100
AcDbEllipse
 10
31.3499999712
 20
427.8622299161
 30
0.0
 11
6.250000036030426
 21
6.923725481833288E-9
 31
0.0
210
0.0
220
0.0
230
1.0
 40
0.2588190457
 41
1.031196866241641
 42
1.063198231584659
  0
LINE
  5
18F
330
13A
100
AcDbEntity
  8
DV3_Default
  6
Continuous
 62
     7
100
AcDbLine
 10
34.5612025148
 20
429.2500088255
 30
0.0
 11
35.4612520738
 21
429.6534900047
 31
0.0
  0
LINE
  5
190
330
13A
100
AcDbEntity
  8
DV3_Default
  6
Continuous
 62
     7
100
AcDbLine
 10
34.387997434
 20
429.27589073
 30
0.0
 11
35.2837530424
 21
429.6774469838
 31
0.0
  0
LINE
  5
191
330
13A
100
AcDbEntity
  8
DV3_Default
  6
Continuous
 62
     7
100
AcDbLine
 10
34.387997434
 20
429.27589073
 30
0.0
 11
34.387997434
 21
429.7790244134
 31
0.0
  0
ELLIPSE
  5
192
330
13A
100
AcDbEntity
  8
DV3_Default
  6
Continuous
 62
     7
100
AcDbEllipse
 10
31.3499999777
 20
427.8622299233
 30
0.0
 11
6.250000023634636
 21
4.362510352962090E-9
 31
0.0
210
0.0
220
0.0
230
1.0
 40
0.2588190451
 41
0.769397479251227
 42
0.801398844661174
  0
LINE
  5
193
330
13A
100
AcDbEntity
  8
DV3_Default
  6
Continuous
 62
     7
100
AcDbLine
 10
35.8395623389
 20
428.9876116262
 30
0.0
 11
37.1918930474
 21
429.3376205688
 31
0.0
  0
LINE
  5
194
330
13A
100
AcDbEntity
  8
DV3_Default
  6
Continuous
 62
     7
100
AcDbLine
 10
35.6981409827
 20
429.0242141665
 30
0.0
 11
37.0418758607
 21
429.3719983445
 31
0.0
  0
LINE
  5
195
330
13A
100
AcDbEntity
  8
DV3_Default
  6
Continuous
 62
     7
100
AcDbLine
 10
35.6981409827
 20
429.0242141665
 30
0.0
 11
35.6981409827
 21
429.6193741282
 31
0.0
  0
ELLIPSE
  5
196
330
13A
100
AcDbEntity
  8
DV3_Default
  6
Continuous
 62
     7
100
AcDbEllipse
 10
31.349999938
 20
427.8622299198
 30
0.0
 11
6.250000062665876
 21
8.590905764549461E-9
 31
0.0
210
0.0
220
0.0
230
1.0
 40
0.2588190444
 41
0.5075980901090297
 42
0.5395994554162471
  0
LINE
  5
197
330
13A
100
AcDbEntity
  8
DV3_Default
  6
Continuous
 62
     7
100
AcDbLine
 10
36.811965909
 20
428.6485215239
 30
0.0
 11
38.5963412454
 21
428.9151593839
 31
0.0
  0
LINE
  5
198
330
13A
100
AcDbEntity
  8
DV3_Default
  6
Continuous
 62
     7
100
AcDbLine
 10
36.711965909
 20
428.6933502976
 30
0.0
 11
38.4834355729
 21
428.9580596726
 31
0.0
  0
LINE
  5
199
330
13A
100
AcDbEntity
  8
DV3_Default
  6
Continuous
 62
     7
100
AcDbLine
 10
36.711965909
 20
428.6933502976
 30
0.0
 11
36.711965909
 21
429.2134062851
 31
0.0
  0
ELLIPSE
  5
19A
330
13A
100
AcDbEntity
  8
DV3_Default
  6
Continuous
 62
     7
100
AcDbEllipse
 10
31.3499999442
 20
427.8622299252
 30
0.0
 11
6.250000055784142
 21
3.987796204363292E-9
 31
0.0
210
0.0
220
0.0
230
1.0
 40
0.2588190441
 41
0.2457987038080879
 42
0.277800069150974
  0
LINE
  5
19B
330
13A
100
AcDbEntity
  8
DV3_Default
  6
Continuous
 62
     7
100
AcDbLine
 10
37.4121455287
 20
428.255846949
 30
0.0
 11
39.5714002341
 21
428.4055920274
 31
0.0
  0
LINE
  5
19C
330
13A
100
AcDbEntity
  8
DV3_Default
  6
Continuous
 62
     7
100
AcDbLine
 10
37.3603817197
 20
428.305846949
 30
0.0
 11
39.5035706621
 21
428.4544778611
 31
0.0
  0
LINE
  5
19D
330
13A
100
AcDbEntity
  8
DV3_Default
  6
Continuous
 62
     7
100
AcDbLine
 10
37.3603817197
 20
428.305846949
 30
0.0
 11
37.3603817197
 21
428.7304708847
 31
0.0
  0
ARC
  5
19E
330
13A
100
AcDbEntity
  8
DV3_Default
  6
Continuous
 62
     7
100
AcDbCircle
 10
39.2800591161
 20
427.862229929
 30
0.0
 40
0.5699406006661343
100
AcDbArc
 50
357.3972128852
 51
2.6027871148
  0
ELLIPSE
  5
19F
330
13A
100
AcDbEntity
  8
DV3_Default
  6
Continuous
 62
     7
100
AcDbEllipse
 10
31.35
 20
427.862229929
 30
0.0
 11
8.500000000026093
 21
1.262878690511116E-12
 31
0.0
210
0.0
220
0.0
230
1.0
 40
0.2588190451
 41
0.0117649772880837
 42
0.2291964452041002
  0
ARC
  5
1A0
330
13A
100
AcDbEntity
  8
DV3_Default
  6
Continuous
 62
     7
100
AcDbCircle
 10
37.1805829289
 20
427.862229929
 30
0.0
 40
0.4194163591648756
100
AcDbArc
 50
0.0
 51
3.537932298
  0
LINE
  5
1A1
330
13A
100
AcDbEntity
  8
DV3_Default
  6
Continuous
 62
     7
100
AcDbLine
 10
37.6
 20
427.8363480245
 30
0.0
 11
39.8494117444
 21
427.8363480245
 31
0.0
  0
LINE
  5
1A2
330
13A
100
AcDbEntity
  8
DV3_Default
  6
Continuous
 62
     7
100
AcDbLine
 10
37.5991999488
 20
427.8881118336
 30
0.0
 11
39.8494117444
 21
427.8881118336
 31
0.0
  0
LINE
  5
1A3
330
13A
100
AcDbEntity
  8
DV3_Default
  6
Continuous
 62
     7
100
AcDbLine
 10
37.5991999488
 20
427.8881118336
 30
0.0
 11
37.5991999488
 21
428.2688192392
 31
0.0
  0
ELLIPSE
  5
1A4
330
13A
100
AcDbEntity
  8
DV3_Default
  6
Continuous
 62
     7
100
AcDbEllipse
 10
31.3500004555
 20
427.8622298974
 30
0.0
 11
8.499999544198454
 21
3.278258220440478E-8
 31
0.0
210
0.0
220
0.0
230
1.0
 40
0.2588190513
 41
-0.27356437334765
 42
-0.2500344181187462
  0
ELLIPSE
  5
1A5
330
13A
100
AcDbEntity
  8
DV3_Default
  6
Continuous
 62
     7
100
AcDbEllipse
 10
31.35
 20
427.862229929
 30
0.0
 11
8.500000000026603
 21
-1.276756478318930E-12
 31
0.0
210
0.0
220
0.0
230
1.0
 40
0.2588190451
 41
6.03315089666896
 42
6.27142032989155
  0
LINE
  5
1A6
330
13A
100
AcDbEntity
  8
DV3_Default
  6
Continuous
 62
     7
100
AcDbLine
 10
39.5856832166
 20
427.3178773008
 30
0.0
 11
39.5856832166
 21
427.8363480245
 31
0.0
  0
LINE
  5
1A7
330
13A
100
AcDbEntity
  8
DV3_Default
  6
Continuous
 62
     7
100
AcDbLine
 10
37.5178853198
 20
427.4076899787
 30
0.0
 11
39.5339194076
 21
427.2678773008
 31
0.0
  0
LINE
  5
1A8
330
13A
100
AcDbEntity
  8
DV3_Default
  6
Continuous
 62
     7
100
AcDbLine
 10
37.5472112821
 20
427.4592460513
 30
0.0
 11
39.5856832166
 21
427.3178773008
 31
0.0
  0
ELLIPSE
  5
1A9
330
13A
100
AcDbEntity
  8
DV3_Default
  6
Continuous
 62
     7
100
AcDbEllipse
 10
31.3500003792
 20
427.8622298724
 30
0.0
 11
8.499999616907425
 21
5.261409363743752E-8
 31
0.0
210
0.0
220
0.0
230
1.0
 40
0.2588190484
 41
-0.5353637659454975
 42
-0.5118338107633935
  0
ELLIPSE
  5
1AA
330
13A
100
AcDbEntity
  8
DV3_Default
  6
Continuous
 62
     7
100
AcDbEllipse
 10
31.35
 20
427.862229929
 30
0.0
 11
8.499999999996371
 21
1.387778780781446E-13
 31
0.0
210
0.0
220
0.0
230
1.0
 40
0.2588190451
 41
-0.5118337983103345
 42
-0.273564365087303
  0
LINE
  5
1AB
330
13A
100
AcDbEntity
  8
DV3_Default
  6
Continuous
 62
     7
100
AcDbLine
 10
38.7607064878
 20
426.7847395
 30
0.0
 11
38.7607064878
 21
427.3214998906
 31
0.0
  0
LINE
  5
1AC
330
13A
100
AcDbEntity
  8
DV3_Default
  6
Continuous
 62
     7
100
AcDbLine
 10
37.0151390521
 20
426.9858066265
 30
0.0
 11
38.6607064878
 21
426.7399107264
 31
0.0
  0
LINE
  5
1AD
330
13A
100
AcDbEntity
  8
DV3_Default
  6
Continuous
 62
     7
100
AcDbLine
 10
37.0971262658
 20
427.0333270372
 30
0.0
 11
38.7607064878
 21
426.7847395
 31
0.0
  0
ELLIPSE
  5
1AE
330
13A
100
AcDbEntity
  8
DV3_Default
  6
Continuous
 62
     7
100
AcDbEllipse
 10
31.3500003338
 20
427.8622298426
 30
0.0
 11
8.499999645972389
 21
6.549022435464735E-8
 31
0.0
210
0.0
220
0.0
230
1.0
 40
0.2588190451
 41
-0.7971631568906687
 42
-0.7736332016611271
  0
ELLIPSE
  5
1AF
330
13A
100
AcDbEntity
  8
DV3_Default
  6
Continuous
 62
     7
100
AcDbEllipse
 10
31.35
 20
427.862229929
 30
0.0
 11
8.49999999999031
 21
1.457167719820518E-12
 31
0.0
210
0.0
220
0.0
230
1.0
 40
0.2588190451
 41
-0.7736331861098238
 42
-0.5353637528866857
  0
LINE
  5
1B0
330
13A
100
AcDbEntity
  8
DV3_Default
  6
Continuous
 62
     7
100
AcDbLine
 10
37.4307023586
 20
426.3250308914
 30
0.0
 11
37.4307023586
 21
426.9237093153
 31
0.0
  0
LINE
  5
1B1
330
13A
100
AcDbEntity
  8
DV3_Default
  6
Continuous
 62
     7
100
AcDbLine
 10
36.0615472642
 20
426.6061892248
 30
0.0
 11
37.2892810024
 21
426.288428351
 31
0.0
  0
LINE
  5
1B2
330
13A
100
AcDbEntity
  8
DV3_Default
  6
Continuous
 62
     7
100
AcDbLine
 10
36.1909816896
 20
426.6458942112
 30
0.0
 11
37.4307023586
 21
426.3250308914
 31
0.0
  0
ELLIPSE
  5
1B3
330
13A
100
AcDbEntity
  8
DV3_Default
  6
Continuous
 62
     7
100
AcDbEllipse
 10
31.3500002356
 20
427.8622298234
 30
0.0
 11
8.499999705558366
 21
5.660696911213847E-8
 31
0.0
210
0.0
220
0.0
230
1.0
 40
0.2588190415
 41
-1.058962542535291
 42
-1.035432587307034
  0
ELLIPSE
  5
1B4
330
13A
100
AcDbEntity
  8
DV3_Default
  6
Continuous
 62
     7
100
AcDbEllipse
 10
31.35
 20
427.8622299291
 30
0.0
 11
8.500000000020339
 21
-3.747002708109903E-12
 31
0.0
210
0.0
220
0.0
230
1.0
 40
0.2588190451
 41
-1.03543257390734
 42
-0.7971631406847983
  0
LINE
  5
1B5
330
13A
100
AcDbEntity
  8
DV3_Default
  6
Continuous
 62
     7
100
AcDbLine
 10
35.6863084126
 20
425.9700798568
 30
0.0
 11
35.6863084126
 21
426.5041023018
 31
0.0
  0
LINE
  5
1B6
330
13A
100
AcDbEntity
  8
DV3_Default
  6
Continuous
 62
     7
100
AcDbLine
 10
34.7086154721
 20
426.3048399937
 30
0.0
 11
35.5131033318
 21
425.9441979523
 31
0.0
  0
LINE
  5
1B7
330
13A
100
AcDbEntity
  8
DV3_Default
  6
Continuous
 62
     7
100
AcDbLine
 10
34.875837826
 20
426.3334038812
 30
0.0
 11
35.6863084126
 21
425.9700798568
 31
0.0
  0
ELLIPSE
  5
1B8
330
13A
100
AcDbEntity
  8
DV3_Default
  6
Continuous
 62
     7
100
AcDbEllipse
 10
31.3500001222
 20
427.862229811
 30
0.0
 11
8.499999748082573
 21
3.273457893637755E-8
 31
0.0
210
0.0
220
0.0
230
1.0
 40
0.2588190389
 41
-1.32076192455072
 42
-1.29723196932087
  0
ELLIPSE
  5
1B9
330
13A
100
AcDbEntity
  8
DV3_Default
  6
Continuous
 62
     7
100
AcDbEllipse
 10
31.35
 20
427.862229929
 30
0.0
 11
8.499999999999782
 21
6.938893903907228E-14
 31
0.0
210
0.0
220
0.0
230
1.0
 40
0.2588190451
 41
-1.297231961707698
 42
-1.05896252848473
  0
LINE
  5
1BA
330
13A
100
AcDbEntity
  8
DV3_Default
  6
Continuous
 62
     7
100
AcDbLine
 10
33.6464022142
 20
425.7440757228
 30
0.0
 11
33.6464022142
 21
426.1645726685
 31
0.0
  0
LINE
  5
1BB
330
13A
100
AcDbEntity
  8
DV3_Default
  6
Continuous
 62
     7
100
AcDbLine
 10
33.0574491838
 20
426.1129606654
 30
0.0
 11
33.453217049
 21
425.7306782631
 31
0.0
  0
LINE
  5
1BC
330
13A
100
AcDbEntity
  8
DV3_Default
  6
Continuous
 62
     7
100
AcDbLine
 10
33.2490333788
 20
426.1279045435
 30
0.0
 11
33.6464022142
 21
425.7440757228
 31
0.0
  0
ARC
  5
1BD
330
13A
100
AcDbEntity
  8
DV3_Default
  6
Continuous
 62
     7
100
AcDbCircle
 10
31.35
 20
446.7773551263
 30
0.0
 40
20.27392537993478
100
AcDbArc
 50
269.5054294744
 51
270.4945705256
  0
LINE
  5
1BE
330
13A
100
AcDbEntity
  8
DV3_Default
  6
Continuous
 62
     7
100
AcDbLine
 10
31.175
 20
426.9587350032
 30
0.0
 11
31.175
 21
426.5041850409
 31
0.0
  0
LINE
  5
1BF
330
13A
100
AcDbEntity
  8
DV3_Default
  6
Continuous
 62
     7
100
AcDbLine
 10
31.525
 20
426.9587350032
 30
0.0
 11
31.525
 21
426.5041850409
 31
0.0
  0
ELLIPSE
  5
1C0
330
13A
100
AcDbEntity
  8
DV3_Default
  6
Continuous
 62
     7
100
AcDbEllipse
 10
31.3499999989
 20
427.8622299285
 30
0.0
 11
-5.249999998568973
 21
2.717409630648149E-10
 31
0.0
210
0.0
220
0.0
230
1.0
 40
0.2588190451
 41
1.013858042036281
 42
1.080537060573403
  0
LINE
  5
1C1
330
13A
100
AcDbEntity
  8
DV3_Default
  6
Continuous
 62
     7
100
AcDbLine
 10
29.5278382332
 20
427.1359638216
 30
0.0
 11
28.574904293
 21
426.7087752229
 31
0.0
  0
LINE
  5
1C2
330
13A
100
AcDbEntity
  8
DV3_Default
  6
Continuous
 62
     7
100
AcDbLine
 10
29.8069254018
 20
427.079901845
 30
0.0
 11
28.8780131843
 21
426.66348189
 31
0.0
  0
LINE
  5
1C3
330
13A
100
AcDbEntity
  8
DV3_Default
  6
Continuous
 62
     7
100
AcDbLine
 10
28.574904293
 20
427.3952492359
 30
0.0
 11
28.574904293
 21
426.7087752229
 31
0.0
  0
ELLIPSE
  5
1C4
330
13A
100
AcDbEntity
  8
DV3_Default
  6
Continuous
 62
     7
100
AcDbEllipse
 10
31.3499999981
 20
427.8622299288
 30
0.0
 11
-5.24999999805388
 21
2.678690602664346E-10
 31
0.0
210
0.0
220
0.0
230
1.0
 40
0.2588190451
 41
0.4902592664349706
 42
0.5569382849716872
  0
LINE
  5
1C5
330
13A
100
AcDbEntity
  8
DV3_Default
  6
Continuous
 62
     7
100
AcDbLine
 10
28.6664467039
 20
427.513528821
 30
0.0
 11
26.7183932396
 21
427.2224326619
 31
0.0
  0
LINE
  5
1C6
330
13A
100
AcDbEntity
  8
DV3_Default
  6
Continuous
 62
     7
100
AcDbLine
 10
28.7679777317
 20
427.4241000541
 30
0.0
 11
26.8933932396
 21
427.1439823081
 31
0.0
  0
LINE
  5
1C7
330
13A
100
AcDbEntity
  8
DV3_Default
  6
Continuous
 62
     7
100
AcDbLine
 10
26.7183932396
 20
427.8169365962
 30
0.0
 11
26.7183932396
 21
427.2224326619
 31
0.0
  0
LINE
  5
1C8
330
13A
100
AcDbEntity
  8
DV3_Default
  6
Continuous
 62
     7
100
AcDbLine
 10
28.6055738305
 20
428.2200272246
 30
0.0
 11
28.6055738305
 21
427.9075232619
 31
0.0
  0
ELLIPSE
  5
1C9
330
13A
100
AcDbEntity
  8
DV3_Default
  6
Continuous
 62
     7
100
AcDbEllipse
 10
31.35
 20
427.862229929
 30
0.0
 11
2.749999999995182
 21
-1.387778780781446E-14
 31
0.0
210
0.0
220
0.0
230
1.0
 40
0.2588190451
 41
3.077913261332748
 42
3.141592653589793
  0
LINE
  5
1CA
330
13A
100
AcDbEntity
  8
DV3_Default
  6
Continuous
 62
     7
100
AcDbLine
 10
28.6055738305
 20
427.9075232619
 30
0.0
 11
26.1814892557
 21
427.9075232619
 31
0.0
  0
LINE
  5
1CB
330
13A
100
AcDbEntity
  8
DV3_Default
  6
Continuous
 62
     7
100
AcDbLine
 10
28.6
 20
427.8169365962
 30
0.0
 11
26.1311887918
 21
427.8169365962
 31
0.0
  0
LINE
  5
1CC
330
13A
100
AcDbEntity
  8
DV3_Default
  6
Continuous
 62
     7
100
AcDbLine
 10
29.0607572184
 20
428.7978827272
 30
0.0
 11
29.0607572184
 21
428.2566099862
 31
0.0
  0
ELLIPSE
  5
1CD
330
13A
100
AcDbEntity
  8
DV3_Default
  6
Continuous
 62
     7
100
AcDbEllipse
 10
31.35
 20
427.862229929
 30
0.0
 11
-2.749999999997511
 21
-2.914335439641036E-13
 31
0.0
210
0.0
220
0.0
230
1.0
 40
0.2588190451
 41
-0.587278167855585
 42
-0.4599193833414548
  0
LINE
  5
1CE
330
13A
100
AcDbEntity
  8
DV3_Default
  6
Continuous
 62
     7
100
AcDbLine
 10
29.0607572184
 20
428.2566099862
 30
0.0
 11
27.2700660383
 21
428.5241916179
 31
0.0
  0
LINE
  5
1CF
330
13A
100
AcDbEntity
  8
DV3_Default
  6
Continuous
 62
     7
100
AcDbLine
 10
28.8857572184
 20
428.1781596324
 30
0.0
 11
27.0574378244
 21
428.4513640197
 31
0.0
  0
LINE
  5
1D0
330
13A
100
AcDbEntity
  8
DV3_Default
  6
Continuous
 62
     7
100
AcDbLine
 10
30.1293413609
 20
428.9906066529
 30
0.0
 11
30.1293413609
 21
428.5000228927
 31
0.0
  0
ELLIPSE
  5
1D1
330
13A
100
AcDbEntity
  8
DV3_Default
  6
Continuous
 62
     7
100
AcDbEllipse
 10
31.3500000001
 20
427.862229929
 30
0.0
 11
-2.750000000069061
 21
1.261490911730334E-11
 31
0.0
210
0.0
220
0.0
230
1.0
 40
0.2588190451
 41
-1.110876943442379
 42
-0.9835181589309068
  0
LINE
  5
1D2
330
13A
100
AcDbEntity
  8
DV3_Default
  6
Continuous
 62
     7
100
AcDbLine
 10
30.1293413609
 20
428.5000228927
 30
0.0
 11
29.2141096461
 21
428.9103100461
 31
0.0
  0
LINE
  5
1D3
330
13A
100
AcDbEntity
  8
DV3_Default
  6
Continuous
 62
     7
100
AcDbLine
 10
29.8262324696
 20
428.4547295598
 30
0.0
 11
28.8985220285
 21
428.8706107731
 31
0.0
  0
ARC
  5
1D4
330
13A
100
AcDbEntity
  8
DV3_Default
  6
Continuous
 62
     7
100
AcDbCircle
 10
31.35
 20
417.9688912276
 30
0.0
 40
10.60509244207729
100
AcDbArc
 50
89.0544904184
 51
90.9455095816
  0
LINE
  5
1D5
330
13A
100
AcDbEntity
  8
DV3_Default
  6
Continuous
 62
     7
100
AcDbLine
 10
31.525
 20
428.5725396896
 30
0.0
 11
31.525
 21
429.0270896519
 31
0.0
  0
LINE
  5
1D6
330
13A
100
AcDbEntity
  8
DV3_Default
  6
Continuous
 62
     7
100
AcDbLine
 10
31.175
 20
428.5725396896
 30
0.0
 11
31.175
 21
429.0270896519
 31
0.0
  0
ELLIPSE
  5
1D7
330
13A
100
AcDbEntity
  8
DV3_Default
  6
Continuous
 62
     7
100
AcDbEllipse
 10
31.35
 20
427.862229929
 30
0.0
 11
2.749999999998013
 21
7.355227538141663E-13
 31
0.0
210
0.0
220
0.0
230
1.0
 40
0.2588190451
 41
0.9835181589397282
 42
1.110876943453838
  0
LINE
  5
1D8
330
13A
100
AcDbEntity
  8
DV3_Default
  6
Continuous
 62
     7
100
AcDbLine
 10
32.5706586391
 20
428.9906066529
 30
0.0
 11
32.5706586391
 21
428.5000228927
 31
0.0
  0
LINE
  5
1D9
330
13A
100
AcDbEntity
  8
DV3_Default
  6
Continuous
 62
     7
100
AcDbLine
 10
32.8737675304
 20
428.4547295598
 30
0.0
 11
33.8014779715
 21
428.8706107731
 31
0.0
  0
LINE
  5
1DA
330
13A
100
AcDbEntity
  8
DV3_Default
  6
Continuous
 62
     7
100
AcDbLine
 10
32.5706586391
 20
428.5000228927
 30
0.0
 11
33.4858903539
 21
428.9103100461
 31
0.0
  0
ELLIPSE
  5
1DB
330
13A
100
AcDbEntity
  8
DV3_Default
  6
Continuous
 62
     7
100
AcDbEllipse
 10
31.35
 20
427.862229929
 30
0.0
 11
2.750000000006945
 21
9.992007221626409E-13
 31
0.0
210
0.0
220
0.0
230
1.0
 40
0.2588190451
 41
0.4599193833406571
 42
0.5872781678544712
  0
LINE
  5
1DC
330
13A
100
AcDbEntity
  8
DV3_Default
  6
Continuous
 62
     7
100
AcDbLine
 10
33.6392427816
 20
428.7978827272
 30
0.0
 11
33.6392427816
 21
428.2566099862
 31
0.0
  0
LINE
  5
1DD
330
13A
100
AcDbEntity
  8
DV3_Default
  6
Continuous
 62
     7
100
AcDbLine
 10
33.8142427816
 20
428.1781596324
 30
0.0
 11
35.6425621756
 21
428.4513640197
 31
0.0
  0
LINE
  5
1DE
330
13A
100
AcDbEntity
  8
DV3_Default
  6
Continuous
 62
     7
100
AcDbLine
 10
33.6392427816
 20
428.2566099862
 30
0.0
 11
35.4299339617
 21
428.5241916179
 31
0.0
  0
ELLIPSE
  5
1DF
330
13A
100
AcDbEntity
  8
DV3_Default
  6
Continuous
 62
     7
100
AcDbEllipse
 10
31.35
 20
427.862229929
 30
0.0
 11
-2.749999999998231
 21
0.0
 31
0.0
210
0.0
220
0.0
230
1.0
 40
0.2588190451
 41
3.141592653589793
 42
3.205272045846832
  0
LINE
  5
1E0
330
13A
100
AcDbEntity
  8
DV3_Default
  6
Continuous
 62
     7
100
AcDbLine
 10
34.0944261695
 20
428.2200272246
 30
0.0
 11
34.0944261695
 21
427.9075232619
 31
0.0
  0
LINE
  5
1E1
330
13A
100
AcDbEntity
  8
DV3_Default
  6
Continuous
 62
     7
100
AcDbLine
 10
34.1
 20
427.8169365962
 30
0.0
 11
36.5688112082
 21
427.8169365962
 31
0.0
  0
LINE
  5
1E2
330
13A
100
AcDbEntity
  8
DV3_Default
  6
Continuous
 62
     7
100
AcDbLine
 10
34.0944261695
 20
427.9075232619
 30
0.0
 11
36.5185107443
 21
427.9075232619
 31
0.0
  0
ELLIPSE
  5
1E3
330
13A
100
AcDbEntity
  8
DV3_Default
  6
Continuous
 62
     7
100
AcDbEllipse
 10
31.3500000009
 20
427.8622299289
 30
0.0
 11
5.249999999133618
 21
1.194877530252825E-10
 31
0.0
210
0.0
220
0.0
230
1.0
 40
0.2588190451
 41
-0.5569382849094051
 42
-0.4902592663804981
  0
LINE
  5
1E4
330
13A
100
AcDbEntity
  8
DV3_Default
  6
Continuous
 62
     7
100
AcDbLine
 10
33.9320222683
 20
427.4241000541
 30
0.0
 11
35.8066067604
 21
427.1439823081
 31
0.0
  0
LINE
  5
1E5
330
13A
100
AcDbEntity
  8
DV3_Default
  6
Continuous
 62
     7
100
AcDbLine
 10
34.0335532961
 20
427.513528821
 30
0.0
 11
35.9816067604
 21
427.2224326619
 31
0.0
  0
LINE
  5
1E6
330
13A
100
AcDbEntity
  8
DV3_Default
  6
Continuous
 62
     7
100
AcDbLine
 10
35.9816067604
 20
427.8169365962
 30
0.0
 11
35.9816067604
 21
427.2224326619
 31
0.0
  0
ELLIPSE
  5
1E7
330
13A
100
AcDbEntity
  8
DV3_Default
  6
Continuous
 62
     7
100
AcDbEllipse
 10
31.3500000018
 20
427.8622299283
 30
0.0
 11
5.249999997811771
 21
4.233419170773800E-10
 31
0.0
210
0.0
220
0.0
230
1.0
 40
0.2588190451
 41
-1.080537060634388
 42
-1.013858042089534
  0
LINE
  5
1E8
330
13A
100
AcDbEntity
  8
DV3_Default
  6
Continuous
 62
     7
100
AcDbLine
 10
32.8930745982
 20
427.079901845
 30
0.0
 11
33.8219868157
 21
426.66348189
 31
0.0
  0
LINE
  5
1E9
330
13A
100
AcDbEntity
  8
DV3_Default
  6
Continuous
 62
     7
100
AcDbLine
 10
33.1721617668
 20
427.1359638216
 30
0.0
 11
34.125095707
 21
426.7087752229
 31
0.0
  0
LINE
  5
1EA
330
13A
100
AcDbEntity
  8
DV3_Default
  6
Continuous
 62
     7
100
AcDbLine
 10
34.125095707
 20
427.3952492359
 30
0.0
 11
34.125095707
 21
426.7087752229
 31
0.0
  0
LINE
  5
1EB
330
13A
100
AcDbEntity
  8
DV3_Default
  6
Continuous
 62
     7
100
AcDbLine
 10
22.35
 20
429.1791326317
 30
0.0
 11
22.35
 21
427.6690447638
 31
0.0
  0
LINE
  5
1EC
330
13A
100
AcDbEntity
  8
DV3_Default
  6
Continuous
 62
     7
100
AcDbLine
 10
40.35
 20
427.6690447638
 30
0.0
 11
40.35
 21
429.1791326317
 31
0.0
  0
LINE
  5
1ED
330
13A
100
AcDbEntity
  8
DV3_Default
  6
Continuous
 62
     7
100
AcDbLine
 10
25.1
 20
427.862229929
 30
0.0
 11
25.1
 21
427.6690447638
 31
0.0
  0
LINE
  5
1EE
330
13A
100
AcDbEntity
  8
DV3_Default
  6
Continuous
 62
     7
100
AcDbLine
 10
37.6
 20
427.6690447638
 30
0.0
 11
37.6
 21
427.862229929
 31
0.0
  0
LINE
  5
1EF
330
13A
100
AcDbEntity
  8
DV3_Default
  6
Continuous
 62
     7
100
AcDbLine
 10
28.6
 20
427.862229929
 30
0.0
 11
28.6
 21
427.6690447638
 31
0.0
  0
LINE
  5
1F0
330
13A
100
AcDbEntity
  8
DV3_Default
  6
Continuous
 62
     7
100
AcDbLine
 10
34.1
 20
427.6690447638
 30
0.0
 11
34.1
 21
427.862229929
 31
0.0
  0
LINE
  5
1F1
330
13A
100
AcDbEntity
  8
DV3_Default
  6
Continuous
 62
     7
100
AcDbLine
 10
30.8303700561
 20
428.1040347738
 30
0.0
 11
30.8303700561
 21
427.862229929
 31
0.0
  0
LINE
  5
1F2
330
13A
100
AcDbEntity
  8
DV3_Default
  6
Continuous
 62
     7
100
AcDbLine
 10
31.8696299439
 20
427.862229929
 30
0.0
 11
31.8696299439
 21
428.1040347738
 31
0.0
  0
ELLIPSE
  5
1F3
330
13A
100
AcDbEntity
  8
DV3_Default
  6
Continuous
 62
     7
100
AcDbEllipse
 10
31.35
 20
428.6261408678
 30
0.0
 11
11.85999999999213
 21
-9.298117831235686E-12
 31
0.0
210
0.0
220
0.0
230
1.0
 40
0.2588190451
 41
-0.4826201134292569
 42
-0.3887609383041832
  0
ELLIPSE
  5
1F4
330
13A
100
AcDbEntity
  8
DV3_Default
  6
Continuous
 62
     7
100
AcDbEllipse
 10
31.35
 20
428.6261408678
 30
0.0
 11
11.85999999999213
 21
-9.298117831235686E-12
 31
0.0
210
0.0
220
0.0
230
1.0
 40
0.2588190451
 41
3.530353591894388
 42
3.624212767019467
  0
ELLIPSE
  5
1F5
330
13A
100
AcDbEntity
  8
DV3_Default
  6
Continuous
 62
     7
100
AcDbEllipse
 10
31.35
 20
428.0265302314
 30
0.0
 11
10.78480762113533
 21
-1.387778780781446E-14
 31
0.0
210
0.0
220
0.0
230
1.0
 40
0.2588190451
 41
3.401249541446218
 42
6.043682242282271
  0
ELLIPSE
  5
1F6
330
13A
100
AcDbEntity
  8
DV3_Default
  6
Continuous
 62
     7
100
AcDbEllipse
 10
31.35
 20
428.007118803
 30
0.0
 11
10.70980762113533
 21
-1.387778780781446E-14
 31
0.0
210
0.0
220
0.0
230
1.0
 40
0.2588190451
 41
4.055506338374181
 42
5.243580366991267
  0
ELLIPSE
  5
1F7
330
13A
100
AcDbEntity
  8
DV3_Default
  6
Continuous
 62
     7
100
AcDbEllipse
 10
31.35
 20
428.007118803
 30
0.0
 11
10.70980762113533
 21
-1.387778780781446E-14
 31
0.0
210
0.0
220
0.0
230
1.0
 40
0.2588190451
 41
0.6924660840914612
 42
2.45576225967175
  0
ELLIPSE
  5
1F8
330
13A
100
AcDbEntity
  8
DV3_Default
  6
Continuous
 62
     7
100
AcDbEllipse
 10
31.35
 20
428.007118803
 30
0.0
 11
10.075
 21
-1.387778780781446E-14
 31
0.0
210
0.0
220
0.0
230
1.0
 40
0.2588190451
 41
5.278663968717018
 42
6.283185307179586
  0
ELLIPSE
  5
1F9
330
13A
100
AcDbEntity
  8
DV3_Default
  6
Continuous
 62
     7
100
AcDbEllipse
 10
31.35
 20
428.007118803
 30
0.0
 11
10.075
 21
-1.387778780781446E-14
 31
0.0
210
0.0
220
0.0
230
1.0
 40
0.2588190451
 41
0.0000000000000053
 42
4.146113992052362
  0
ELLIPSE
  5
1FA
330
13A
100
AcDbEntity
  8
DV3_Default
  6
Continuous
 62
     7
100
AcDbEllipse
 10
31.35
 20
425.5571259872
 30
0.0
 11
-11.85751994883343
 21
-6.964080309298113
 31
0.0
210
0.0
220
0.0
230
0.9999999999999999
 40
0.1949626412
 41
2.623758922500287
 42
3.43141110082186
  0
LINE
  5
1FB
330
13A
100
AcDbEntity
  8
DV3_Default
  6
Continuous
 62
     7
100
AcDbLine
 10
42.325
 20
429.9654106513
 30
0.0
 11
42.325
 21
432.8914292808
 31
0.0
  0
LINE
  5
1FC
330
13A
100
AcDbEntity
  8
DV3_Default
  6
Continuous
 62
     7
100
AcDbLine
 10
42.325
 20
429.7896461891
 30
0.0
 11
42.325
 21
429.9654106513
 31
0.0
  0
LINE
  5
1FD
330
13A
100
AcDbEntity
  8
DV3_Default
  6
Continuous
 62
     7
100
AcDbLine
 10
42.325
 20
427.4626355464
 30
0.0
 11
42.325
 21
429.7896461891
 31
0.0
  0
ELLIPSE
  5
1FE
330
13A
100
AcDbEntity
  8
DV3_Default
  6
Continuous
 62
     7
100
AcDbEllipse
 10
31.35
 20
425.5571259872
 30
0.0
 11
11.85751994883357
 21
-6.964080309298224
 31
0.0
210
0.0
220
0.0
230
1.0
 40
0.1949626412
 41
2.851774206357719
 42
3.659426384679285
  0
LINE
  5
1FF
330
13A
100
AcDbEntity
  8
DV3_Default
  6
Continuous
 62
     7
100
AcDbLine
 10
20.375
 20
429.9654106513
 30
0.0
 11
20.375
 21
432.8914292808
 31
0.0
  0
LINE
  5
200
330
13A
100
AcDbEntity
  8
DV3_Default
  6
Continuous
 62
     7
100
AcDbLine
 10
20.375
 20
429.7896461891
 30
0.0
 11
20.375
 21
429.9654106513
 31
0.0
  0
LINE
  5
201
330
13A
100
AcDbEntity
  8
DV3_Default
  6
Continuous
 62
     7
100
AcDbLine
 10
20.375
 20
427.4626355464
 30
0.0
 11
20.375
 21
429.7896461891
 31
0.0
  0
LINE
  5
202
330
13A
100
AcDbEntity
  8
DV3_Default
  6
Continuous
 62
     7
100
AcDbLine
 10
19.415
 20
435.0267797182
 30
0.0
 11
19.415
 21
432.2130073773
 31
0.0
  0
LINE
  5
203
330
13A
100
AcDbEntity
  8
DV3_Default
  6
Continuous
 62
     7
100
AcDbLine
 10
43.285
 20
432.2130073773
 30
0.0
 11
43.285
 21
435.0269921205
 31
0.0
  0
LINE
  5
204
330
13A
100
AcDbEntity
  8
DV3_Default
  6
Continuous
 62
     7
100
AcDbLine
 10
20.8446258863
 20
427.2015373926
 30
0.0
 11
21.7970119052
 21
426.7310770766
 31
0.0
  0
LINE
  5
205
330
13A
100
AcDbEntity
  8
DV3_Default
  6
Continuous
 62
     7
100
AcDbLine
 10
40.9029880948
 20
426.7310770766
 30
0.0
 11
41.8553741137
 21
427.2015373926
 31
0.0
  0
ELLIPSE
  5
206
330
13A
100
AcDbEntity
  8
DV3_Default
  6
Continuous
 62
     7
100
AcDbEllipse
 10
31.35
 20
461.1880744067
 30
0.0
 11
-12.67540333075852
 21
0.0
 31
0.0
210
0.0
220
0.0
230
1.0
 40
0.1218693434
 41
3.954906721732645
 42
5.535781308610648
  0
ARC
  5
207
330
13A
100
AcDbEntity
  8
DV3_Default
  6
Continuous
 62
     7
100
AcDbCircle
 10
31.3500229042
 20
452.8964791018
 30
0.0
 40
17.0267308840828
100
AcDbArc
 50
220.9373943547
 51
319.0621588771
  0
SPLINE
  5
208
330
13A
100
AcDbEntity
  8
DV3_Default
  6
Continuous
 62
     7
100
AcDbSpline
210
0.0
220
0.0
230
1.0
 70
     8
 71
     3
 72
    20
 73
    16
 74
     0
 42
0.0000000006346783
 43
0.0000000001
 40
0.0
 40
0.0
 40
0.0
 40
0.0
 40
0.5000000000000003
 40
0.5000000000000003
 40
0.7500000000000002
 40
0.7500000000000002
 40
0.8125000000000003
 40
0.8125000000000003
 40
0.8750000000000003
 40
0.8750000000000003
 40
0.9375000000000004
 40
0.9375000000000004
 40
0.9687500000000002
 40
0.9687500000000002
 40
1.0
 40
1.0
 40
1.0
 40
1.0
 10
56.28423992992012
 20
450.8064888680451
 30
0.0
 10
54.89752273204137
 20
449.2999319913104
 30
0.0
 10
53.50707630607324
 20
447.7899872592113
 30
0.0
 10
51.40610127180877
 20
445.5177165913902
 30
0.0
 10
50.70197143629724
 20
444.7597472933082
 30
0.0
 10
49.81941129564222
 20
443.809712570254
 30
0.0
 10
49.64315451097243
 20
443.6191940688837
 30
0.0
 10
49.27863825652134
 20
443.2382955349374
 30
0.0
 10
49.14281456387845
 20
443.0473712141718
 30
0.0
 10
48.71405638466374
 20
442.6551876887158
 30
0.0
 10
48.38435526440292
 20
442.4533546013768
 30
0.0
 10
47.27518453235349
 20
442.1628960775445
 30
0.0
 10
46.81193335786825
 20
442.068672909316
 30
0.0
 10
45.68575660193572
 20
441.8916824507183
 30
0.0
 10
45.00936890717484
 20
441.8013253856885
 30
0.0
 10
44.21237092100493
 20
441.7398860692641
 30
0.0
  0
SPLINE
  5
209
330
13A
100
AcDbEntity
  8
DV3_Default
  6
Continuous
 62
     7
100
AcDbSpline
210
0.0
220
0.0
230
1.0
 70
     8
 71
     3
 72
    24
 73
    20
 74
     0
 42
0.0000000006346997
 43
0.0000000001
 40
0.0
 40
0.0
 40
0.0
 40
0.0
 40
0.0312499999999999
 40
0.0312499999999999
 40
0.0624999999999999
 40
0.0624999999999999
 40
0.1249999999999997
 40
0.1249999999999997
 40
0.1874999999999996
 40
0.1874999999999996
 40
0.2499999999999994
 40
0.2499999999999994
 40
0.4999999999999996
 40
0.4999999999999996
 40
0.7499999999999996
 40
0.7499999999999996
 40
0.8749999999999998
 40
0.8749999999999998
 40
1.0
 40
1.0
 40
1.0
 40
1.0
 10
18.48758789332102
 20
441.7399863647417
 30
0.0
 10
17.69451319569322
 20
441.7997714525245
 30
0.0
 10
17.0120244307824
 20
441.8924309542736
 30
0.0
 10
15.87834119583475
 20
442.0696581504585
 30
0.0
 10
15.41255857215217
 20
442.1650864922933
 30
0.0
 10
14.31550369548094
 20
442.4555972312864
 30
0.0
 10
13.98428388688049
 20
442.6560115428392
 30
0.0
 10
13.55608997943403
 20
443.0491465002179
 30
0.0
 10
13.42031201147758
 20
443.2393873559396
 30
0.0
 10
13.05575315377567
 20
443.6203873491276
 30
0.0
 10
12.87961442079783
 20
443.8107726490317
 30
0.0
 10
11.9970735148997
 20
444.7608384229723
 30
0.0
 10
11.29313509097941
 20
445.5184940498903
 30
0.0
 10
9.892667570882537
 20
447.0331962580761
 30
0.0
 10
9.19511414506815
 20
447.7892889284377
 30
0.0
 10
8.151213630018916
 20
448.9218792660439
 30
0.0
 10
7.80365693332831
 20
449.2992125390184
 30
0.0
 10
7.109230784761666
 20
450.0531550334567
 30
0.0
 10
6.760887103815374
 20
450.4314583437513
 30
0.0
 10
6.415766781549127
 20
450.806487563533
 30
0.0
  0
ARC
  5
20A
330
13A
100
AcDbEntity
  8
DV3_Default
  6
Continuous
 62
     7
100
AcDbCircle
 10
31.3494198669
 20
624.7087567474
 30
0.0
 40
182.9534109737824
100
AcDbArc
 50
265.9881237326
 51
274.0120684943
  0
ELLIPSE
  5
20B
330
13A
100
AcDbEntity
  8
DV3_Default
  6
Continuous
 62
     7
100
AcDbEllipse
 10
31.3500029596
 20
462.825773613
 30
0.0
 11
24.49999999999996
 21
-1.387778780781444E-14
 31
0.0
210
0.0
220
0.0
230
1.0
 40
0.1218693913
 41
-0.0948219397294956
 42
3.235494702038475
  0
SPLINE
  5
20C
330
13A
100
AcDbEntity
  8
DV3_Default
  6
Continuous
 62
     7
100
AcDbSpline
210
0.0
220
0.0
230
1.0
 70
     8
 71
     3
 72
    36
 73
    32
 74
     0
 42
0.0000000001644254
 43
0.0000000001
 40
0.0
 40
0.0
 40
0.0
 40
0.0
 40
0.2499999999999999
 40
0.2499999999999999
 40
0.375
 40
0.375
 40
0.40625
 40
0.40625
 40
0.4375
 40
0.4375
 40
0.4531249999999999
 40
0.4531249999999999
 40
0.4687499999999999
 40
0.4687499999999999
 40
0.4999999999999999
 40
0.4999999999999999
 40
0.5312499999999999
 40
0.5312499999999999
 40
0.546875
 40
0.546875
 40
0.5625
 40
0.5625
 40
0.578125
 40
0.578125
 40
0.59375
 40
0.59375
 40
0.625
 40
0.625
 40
0.75
 40
0.75
 40
1.0
 40
1.0
 40
1.0
 40
1.0
 10
6.958061157929789
 20
462.5458141219268
 30
0.0
 10
8.805060872634323
 20
460.1541183378647
 30
0.0
 10
10.64861454962072
 20
457.7623831152376
 30
0.0
 10
13.40590801618237
 20
454.1746883075509
 30
0.0
 10
14.32454145906175
 20
452.9787847559147
 30
0.0
 10
15.4684579802526
 20
451.4838554517008
 30
0.0
 10
15.65280958549604
 20
451.183823967232
 30
0.0
 10
16.31196710737912
 20
450.5906031911957
 30
0.0
 10
16.78785545402715
 20
450.2974400004604
 30
0.0
 10
18.41778751585563
 20
449.879279417718
 30
0.0
 10
19.12151605729956
 20
449.7494416733665
 30
0.0
 10
20.8207465298598
 20
449.5226326649278
 30
0.0
 10
21.7981377693784
 20
449.4207719178853
 30
0.0
 10
24.99100912881293
 20
449.1641641011954
 30
0.0
 10
27.46528269904321
 20
449.0589759922032
 30
0.0
 10
32.5374637742046
 20
449.0056778763776
 30
0.0
 10
35.12449528152856
 20
449.0557774746551
 30
0.0
 10
38.63516981853621
 20
449.2406590790816
 30
0.0
 10
39.73499875385433
 20
449.3193085730753
 30
0.0
 10
41.73379389411336
 20
449.5067799870706
 30
0.0
 10
42.66204728969514
 20
449.6158378820543
 30
0.0
 10
44.18840984913169
 20
449.8586748713527
 30
0.0
 10
44.79284737147117
 20
449.9962946843294
 30
0.0
 10
45.71741580300419
 20
450.2830675794869
 30
0.0
 10
46.04551265204084
 20
450.4309449188534
 30
0.0
 10
46.80373063077176
 20
450.8821429803559
 30
0.0
 10
47.0089498488262
 20
451.1911470000193
 30
0.0
 10
48.1773737465363
 20
452.7253253067227
 30
0.0
 10
49.12353383743569
 20
453.9525337395281
 30
0.0
 10
51.95252373219073
 20
457.6342713913158
 30
0.0
 10
53.84431319339973
 20
460.0886968497392
 30
0.0
 10
55.73980801716952
 20
462.5430798978672
 30
0.0
  0
SPLINE
  5
20D
330
13A
100
AcDbEntity
  8
DV3_Default
  6
Continuous
 62
     7
100
AcDbSpline
210
0.0
220
0.0
230
1.0
 70
     8
 71
     3
 72
    42
 73
    38
 74
     0
 42
0.0000000001258145
 43
0.0000000001
 40
0.0
 40
0.0
 40
0.0
 40
0.0
 40
0.0312499999999998
 40
0.0312499999999998
 40
0.0624999999999997
 40
0.0624999999999997
 40
0.1249999999999997
 40
0.1249999999999997
 40
0.2499999999999996
 40
0.2499999999999996
 40
0.3749999999999994
 40
0.3749999999999994
 40
0.4374999999999993
 40
0.4374999999999993
 40
0.4687499999999993
 40
0.4687499999999993
 40
0.4999999999999992
 40
0.4999999999999992
 40
0.5312499999999991
 40
0.5312499999999991
 40
0.5624999999999991
 40
0.5624999999999991
 40
0.6249999999999992
 40
0.6249999999999992
 40
0.6874999999999993
 40
0.6874999999999993
 40
0.7499999999999994
 40
0.7499999999999994
 40
0.8124999999999996
 40
0.8124999999999996
 40
0.8749999999999997
 40
0.8749999999999997
 40
0.9374999999999998
 40
0.9374999999999998
 40
0.9687499999999998
 40
0.9687499999999998
 40
1.0
 40
1.0
 40
1.0
 40
1.0
 10
6.415766781549127
 20
450.806487563533
 30
0.0
 10
6.469734314984245
 20
450.085806223491
 30
0.0
 10
6.549626108443992
 20
449.3381339210747
 30
0.0
 10
6.758770882421293
 20
447.8863967898994
 30
0.0
 10
6.888475872343126
 20
447.1645151558552
 30
0.0
 10
7.352237216959725
 20
445.0128420527435
 30
0.0
 10
7.761348044049668
 20
443.5974172577429
 30
0.0
 10
9.307501410924866
 20
439.4096958972543
 30
0.0
 10
10.78167467854521
 20
436.6687223385281
 30
0.0
 10
14.72472108378976
 20
431.6817150160219
 30
0.0
 10
17.23062128620388
 20
429.379786945747
 30
0.0
 10
21.91816432188271
 20
426.760336750245
 30
0.0
 10
23.65683507992314
 20
426.0242433090945
 30
0.0
 10
26.42870040346875
 20
425.2621079809464
 30
0.0
 10
27.39719617445027
 20
425.0615571266613
 30
0.0
 10
29.34990416424567
 20
424.7933290076445
 30
0.0
 10
30.33142737394149
 20
424.7255420222884
 30
0.0
 10
32.30492280544232
 20
424.722817854898
 30
0.0
 10
33.30755638891389
 20
424.7894470998286
 30
0.0
 10
35.26669017643854
 20
425.0544930248165
 30
0.0
 10
36.21915516621958
 20
425.250318162992
 30
0.0
 10
39.00304665887432
 20
426.0086010811697
 30
0.0
 10
40.73965896129867
 20
426.7410129614053
 30
0.0
 10
43.86592246014565
 20
428.4797151872782
 30
0.0
 10
45.29340142470723
 20
429.5058765861833
 30
0.0
 10
47.81394448899715
 20
431.7051102891315
 30
0.0
 10
48.92535086422628
 20
432.8879033743144
 30
0.0
 10
50.90865451430812
 20
435.3871170362091
 30
0.0
 10
51.77586266545536
 20
436.7036823847075
 30
0.0
 10
53.25990227232108
 20
439.3799692028727
 30
0.0
 10
53.88349485887307
 20
440.7493726929908
 30
0.0
 10
54.92256770622268
 20
443.5441193200184
 30
0.0
 10
55.33713815910678
 20
444.9688191836411
 30
0.0
 10
55.8082296126084
 20
447.1459019679087
 30
0.0
 10
55.93927107156477
 20
447.8747182779133
 30
0.0
 10
56.15005745734668
 20
449.336807737787
 30
0.0
 10
56.23059935935272
 20
450.0789307901779
 30
0.0
 10
56.28423992992012
 20
450.8064888680451
 30
0.0
  0
SPLINE
  5
20E
330
13A
100
AcDbEntity
  8
DV3_Default
  6
Continuous
 62
     7
100
AcDbSpline
210
0.0
220
0.0
230
1.0
 70
     8
 71
     3
 72
    40
 73
    36
 74
     0
 42
0.0000000001153287
 43
0.0000000001
 40
0.0
 40
0.0
 40
0.0
 40
0.0
 40
0.03125
 40
0.03125
 40
0.0625
 40
0.0625
 40
0.1250000000000001
 40
0.1250000000000001
 40
0.1875000000000002
 40
0.1875000000000002
 40
0.2500000000000003
 40
0.2500000000000003
 40
0.3750000000000005
 40
0.3750000000000005
 40
0.4375000000000005
 40
0.4375000000000005
 40
0.5000000000000004
 40
0.5000000000000004
 40
0.5625000000000003
 40
0.5625000000000003
 40
0.6250000000000002
 40
0.6250000000000002
 40
0.6875000000000002
 40
0.6875000000000002
 40
0.7500000000000001
 40
0.7500000000000001
 40
0.8125
 40
0.8125
 40
0.8749999999999999
 40
0.8749999999999999
 40
0.9374999999999999
 40
0.9374999999999999
 40
0.96875
 40
0.96875
 40
1.0
 40
1.0
 40
1.0
 40
1.0
 10
56.28423992992012
 20
450.8064888680451
 30
0.0
 10
56.23819453629399
 20
449.9752730187402
 30
0.0
 10
56.16603884446052
 20
449.1251545166332
 30
0.0
 10
55.97371880333458
 20
447.4561876333565
 30
0.0
 10
55.85295989731863
 20
446.6261911267454
 30
0.0
 10
55.41625920547003
 20
444.149516401552
 30
0.0
 10
55.02643311754117
 20
442.5162258540897
 30
0.0
 10
54.03318801008725
 20
439.289354033615
 30
0.0
 10
53.43047824462596
 20
437.6950685068166
 30
0.0
 10
51.97408737521292
 20
434.5533617389664
 30
0.0
 10
51.12122633574808
 20
433.0105030765272
 30
0.0
 10
48.18419838811072
 20
428.6093396931908
 30
0.0
 10
45.67105676456717
 20
425.8788799330008
 30
0.0
 10
40.92790821065139
 20
422.7640099777714
 30
0.0
 10
39.16547244772372
 20
421.888229016625
 30
0.0
 10
35.41883506540127
 20
420.6808703959541
 30
0.0
 10
33.40217558638432
 20
420.3431412935465
 30
0.0
 10
29.33646244252314
 20
420.338651711996
 30
0.0
 10
27.3672440038809
 20
420.6596623659125
 30
0.0
 10
23.57350788550223
 20
421.8691420476334
 30
0.0
 10
21.83462553651688
 20
422.7284487632011
 30
0.0
 10
18.64037136122385
 20
424.8152137609238
 30
0.0
 10
17.23310032652798
 20
426.008553560779
 30
0.0
 10
14.69653985980869
 20
428.6143573355523
 30
0.0
 10
13.56715910625878
 20
430.0362137979552
 30
0.0
 10
11.60736809387567
 20
432.962664003455
 30
0.0
 10
10.76493861277561
 20
434.4793277706858
 30
0.0
 10
9.308392104700927
 20
437.6017351506987
 30
0.0
 10
8.69198444178712
 20
439.2150362350727
 30
0.0
 10
7.682920266279945
 20
442.4792850796273
 30
0.0
 10
7.288669811929313
 20
444.1257292129876
 30
0.0
 10
6.848555270982895
 20
446.6163289472766
 30
0.0
 10
6.72699510428626
 20
447.4492327218796
 30
0.0
 10
6.533986962998791
 20
449.1231438143574
 30
0.0
 10
6.462193917018196
 20
449.9789998132815
 30
0.0
 10
6.415766781549127
 20
450.806487563533
 30
0.0
  0
SPLINE
  5
20F
330
13A
100
AcDbEntity
  8
DV3_Default
  6
Continuous
 62
     7
100
AcDbSpline
210
0.0
220
0.0
230
1.0
 70
     8
 71
     3
 72
    26
 73
    22
 74
     0
 42
0.0000000003828632
 43
0.0000000001
 40
0.0
 40
0.0
 40
0.0
 40
0.0
 40
0.1160131797047128
 40
0.1160131797047128
 40
0.2320263594094255
 40
0.2320263594094255
 40
0.3480395391141383
 40
0.3480395391141383
 40
0.4640527188188511
 40
0.4640527188188511
 40
0.5220593086712074
 40
0.5220593086712074
 40
0.5800658985235638
 40
0.5800658985235638
 40
0.6960790782282759
 40
0.6960790782282759
 40
0.8120922579329887
 40
0.8120922579329887
 40
0.9281054376377013
 40
0.9281054376377013
 40
1.0
 40
1.0
 40
1.0
 40
1.0
 10
43.59999999999999
 20
434.8924179363388
 30
0.0
 10
43.6
 20
435.1303708599006
 30
0.0
 10
43.26913429609763
 20
435.052880363741
 30
0.0
 10
42.09065380186304
 20
434.6825937509973
 30
0.0
 10
41.23558683980885
 20
434.3994024937209
 30
0.0
 10
39.09286058168522
 20
433.8896327176521
 30
0.0
 10
37.76841336575971
 20
433.6544636447986
 30
0.0
 10
34.83828992859318
 20
433.3313933458003
 30
0.0
 10
33.18765283889979
 20
433.239812807359
 30
0.0
 10
30.71657909455742
 20
433.2303325355051
 30
0.0
 10
29.87727232395716
 20
433.2484343528839
 30
0.0
 10
28.26469749310185
 20
433.3238533583886
 30
0.0
 10
27.47936248729334
 20
433.3816664965564
 30
0.0
 10
25.20848012769879
 20
433.6122325159519
 30
0.0
 10
23.86821277771197
 20
433.8389303335953
 30
0.0
 10
21.6512190096262
 20
434.3461522137576
 30
0.0
 10
20.7647460477752
 20
434.6314973042465
 30
0.0
 10
19.52230185618539
 20
435.026468037434
 30
0.0
 10
19.14838628381794
 20
435.1318454365174
 30
0.0
 10
19.07714083655686
 20
434.8142187437022
 30
0.0
 10
19.1827142661304
 20
434.5651297331002
 30
0.0
 10
19.40920029848987
 20
434.2252901550965
 30
0.0
  0
SPLINE
  5
210
330
13A
100
AcDbEntity
  8
DV3_Default
  6
Continuous
 62
     7
100
AcDbSpline
210
0.0
220
0.0
230
1.0
 70
     8
 71
     3
 72
     8
 73
     4
 74
     0
 42
0.0000000133809959
 43
0.0000000001
 40
0.0
 40
0.0
 40
0.0
 40
0.0
 40
1.0
 40
1.0
 40
1.0
 40
1.0
 10
43.29306749147796
 20
434.2289903852988
 30
0.0
 10
43.49417295297719
 20
434.5312449966433
 30
0.0
 10
43.59999999999999
 20
434.7619828157485
 30
0.0
 10
43.59999999999999
 20
434.8924179363388
 30
0.0
  0
LINE
  5
211
330
13A
100
AcDbEntity
  8
DV3_Default
  6
Continuous
 62
     7
100
AcDbLine
 10
56.0500029596
 20
339.758969783
 30
0.0
 11
6.6500029596
 21
339.758969783
 31
0.0
  0
SPLINE
  5
212
330
13A
100
AcDbEntity
  8
DV3_Default
  6
Continuous
 62
     7
100
AcDbSpline
210
0.0
220
0.0
230
1.0
 70
     8
 71
     3
 72
     8
 73
     4
 74
     0
 42
0.0000000320257136
 43
0.0000000001
 40
0.0
 40
0.0
 40
0.0
 40
0.0
 40
1.0
 40
1.0
 40
1.0
 40
1.0
 10
54.39763895680027
 20
462.3694709089506
 30
0.0
 10
54.38703132036528
 20
462.4592947051457
 30
0.0
 10
54.34071299247618
 20
462.5490499534379
 30
0.0
 10
54.25934328054088
 20
462.6383327103119
 30
0.0
  0
SPLINE
  5
213
330
13A
100
AcDbEntity
  8
DV3_Default
  6
Continuous
 62
     7
100
AcDbSpline
210
0.0
220
0.0
230
1.0
 70
     8
 71
     3
 72
     8
 73
     4
 74
     0
 42
0.0000000279194863
 43
0.0000000001
 40
0.0
 40
0.0
 40
0.0
 40
0.0
 40
1.0
 40
1.0
 40
1.0
 40
1.0
 10
8.442494160992817
 20
462.6403422646461
 30
0.0
 10
8.347837396899326
 20
462.5371555408826
 30
0.0
 10
8.300000000000006
 20
462.433333555784
 30
0.0
 10
8.300000000000002
 20
462.3295000343268
 30
0.0
  0
SPLINE
  5
214
330
13A
100
AcDbEntity
  8
DV3_Default
  6
Continuous
 62
     7
100
AcDbSpline
210
0.0
220
0.0
230
1.0
 70
    11
 71
     3
 72
    39
 73
    35
 74
     0
 42
0.0000000001042664
 43
0.0000000001
 40
0.0
 40
0.0
 40
0.0
 40
0.0
 40
0.0312516194623507
 40
0.0624997957625654
 40
0.0937463536526066
 40
0.1249997957556357
 40
0.1562463536455329
 40
0.1874997957487112
 40
0.2187463536387537
 40
0.2499997957417925
 40
0.2812463536319673
 40
0.3124997957348681
 40
0.3437463536251555
 40
0.3749997957279483
 40
0.4062463536181214
 40
0.4374997957210155
 40
0.4687463536111577
 40
0.4999997957140987
 40
0.531246353604355
 40
0.562499795707172
 40
0.5937463535974191
 40
0.6249997957002498
 40
0.6562463535905916
 40
0.687499795693327
 40
0.7187463535835332
 40
0.7499997956863961
 40
0.7812463535764566
 40
0.8124997956794726
 40
0.843746353569357
 40
0.8749997956725408
 40
0.9062463535623948
 40
0.9374997956656227
 40
0.9687516183413132
 40
1.0
 40
1.0
 40
1.0
 40
1.0
 10
31.35000000000001
 20
459.9815041025136
 30
0.0
 10
29.8218565974006
 20
459.9815138552831
 30
0.0
 10
26.76577530711128
 20
460.0171675589385
 30
0.0
 10
22.36279496247806
 20
460.1815427882723
 30
0.0
 10
18.29547376007769
 20
460.4447163922602
 30
0.0
 10
14.74392740640621
 20
460.8019441410888
 30
0.0
 10
11.81239392247571
 20
461.2347912282229
 30
0.0
 10
9.65294073488495
 20
461.730463441508
 30
0.0
 10
8.303741433666987
 20
462.2670805795333
 30
0.0
 10
7.865133598643798
 20
462.8257334063447
 30
0.0
 10
8.303673179075814
 20
463.3844261032022
 30
0.0
 10
9.652684405536537
 20
463.9210095533339
 30
0.0
 10
11.81219928776118
 20
464.4167219537651
 30
0.0
 10
14.74345481959953
 20
464.8495460494776
 30
0.0
 10
18.29517844574415
 20
465.2068104372667
 30
0.0
 10
22.36242119827619
 20
465.4699816327176
 30
0.0
 10
26.76563584319915
 20
465.6344077436607
 30
0.0
 10
31.34966497689179
 20
465.6878606099324
 30
0.0
 10
35.93402112618614
 20
465.6344160591769
 30
0.0
 10
40.33695975973521
 20
465.4700128819309
 30
0.0
 10
44.40453074696926
 20
465.206834117852
 30
0.0
 10
47.95607138612135
 20
464.8496037905189
 30
0.0
 10
50.88760640124733
 20
464.4167573941658
 30
0.0
 10
53.04705917798977
 20
463.921084996006
 30
0.0
 10
54.39625859122008
 20
463.3844679066289
 30
0.0
 10
54.83486638890877
 20
462.8258150700888
 30
0.0
 10
54.3963268458243
 20
462.2671223635014
 30
0.0
 10
53.04731550731331
 20
461.7305389620288
 30
0.0
 10
50.8878010359309
 20
461.2348263767182
 30
0.0
 10
47.95654397260927
 20
460.8020029719355
 30
0.0
 10
44.40482606108292
 20
460.4447360055574
 30
0.0
 10
40.3373335628394
 20
460.1815596553714
 30
0.0
 10
35.93416064730533
 20
460.0171055864175
 30
0.0
 10
32.87798508029827
 20
459.9814943507544
 30
0.0
 10
31.35000000000001
 20
459.9815041025136
 30
0.0
  0
SPLINE
  5
215
330
13A
100
AcDbEntity
  8
DV3_Default
  6
Continuous
 62
     7
100
AcDbSpline
210
0.0
220
0.0
230
1.0
 70
     8
 71
     3
 72
    43
 73
    39
 74
     0
 42
0.0000000004526965
 43
0.0000000001
 40
0.0
 40
0.0
 40
0.0
 40
0.0
 40
0.0120367797239925
 40
0.0313684197814
 40
0.0510805008470752
 40
0.0721965600705923
 40
0.0958055365673733
 40
0.1228634479129599
 40
0.1532880033993638
 40
0.1852173564058235
 40
0.2166442048172786
 40
0.247396149521255
 40
0.2776358598067279
 40
0.3075167384536225
 40
0.3371459553538816
 40
0.3665952728537029
 40
0.3959131255323914
 40
0.4251328627698139
 40
0.4542779601977592
 40
0.4833652990321075
 40
0.5124072602104486
 40
0.5414130890212869
 40
0.570389803359397
 40
0.5993428107026071
 40
0.6282763353218
 40
0.6571937193846041
 40
0.6860976386823646
 40
0.7149902595473075
 40
0.7438733546081153
 40
0.7727483893099509
 40
0.8016165873880562
 40
0.8304789810028483
 40
0.8593364495714039
 40
0.8881897501859043
 40
0.9170395417164905
 40
0.9458864041398065
 40
0.9747308542403149
 40
1.0
 40
1.0
 40
1.0
 40
1.0
 10
56.34496243120693
 20
462.3276623801986
 30
0.0
 10
56.34569664054275
 20
462.3710465249389
 30
0.0
 10
56.34659232517338
 20
462.4664099293311
 30
0.0
 10
56.30241867749852
 20
462.6304962422662
 30
0.0
 10
56.22395622852811
 20
462.7977456489564
 30
0.0
 10
56.11242366327996
 20
462.9546997912033
 30
0.0
 10
55.96635975555172
 20
463.1053609971523
 30
0.0
 10
55.77684357865294
 20
463.25502088813
 30
0.0
 10
55.53742884698421
 20
463.4040037744551
 30
0.0
 10
55.24921427779969
 20
463.5493500622359
 30
0.0
 10
54.91992062253071
 20
463.6880238786925
 30
0.0
 10
54.55652079420622
 20
463.8192041290372
 30
0.0
 10
54.15990787818804
 20
463.9442885575979
 30
0.0
 10
53.7297192888032
 20
464.0644720384752
 30
0.0
 10
53.26567117109097
 20
464.180495799841
 30
0.0
 10
52.76775621010082
 20
464.2927785367431
 30
0.0
 10
52.2362179355975
 20
464.4015373584126
 30
0.0
 10
51.67150097547015
 20
464.5068648672361
 30
0.0
 10
51.07421048192144
 20
464.608775801404
 30
0.0
 10
50.44508253666173
 20
464.707235587013
 30
0.0
 10
49.78496285783252
 20
464.8021782617555
 30
0.0
 10
49.09479123576585
 20
464.8935180532985
 30
0.0
 10
48.37558985241867
 20
464.9811570713508
 30
0.0
 10
47.62845423845419
 20
465.0649905567766
 30
0.0
 10
46.85454603775661
 20
465.1449105555877
 30
0.0
 10
46.05508702318117
 20
465.2208085529215
 30
0.0
 10
45.2313539868811
 20
465.2925774047636
 30
0.0
 10
44.38467424685538
 20
465.3601127852799
 30
0.0
 10
43.5164215902673
 20
465.4233142931525
 30
0.0
 10
42.6280125274418
 20
465.4820863129704
 30
0.0
 10
41.72090276705995
 20
465.5363386971429
 30
0.0
 10
40.79658384853269
 20
465.5859873135799
 30
0.0
 10
39.85657988549428
 20
465.6309544908707
 30
0.0
 10
38.90244438717318
 20
465.6711693834631
 30
0.0
 10
37.93575713365598
 20
465.7065682729914
 30
0.0
 10
36.95812108781157
 20
465.7370948174307
 30
0.0
 10
36.01191528528015
 20
465.761642896394
 30
0.0
 10
35.390174423739
 20
465.7747451580402
 30
0.0
 10
35.0990384991601
 20
465.7802250612739
 30
0.0
  0
SPLINE
  5
216
330
13A
100
AcDbEntity
  8
DV3_Default
  6
Continuous
 62
     7
100
AcDbSpline
210
0.0
220
0.0
230
1.0
 70
     8
 71
     3
 72
    16
 73
    12
 74
     0
 42
0.0000000013275295
 43
0.0000000001
 40
0.0
 40
0.0
 40
0.0
 40
0.0
 40
0.016481434384361
 40
0.1498620706042736
 40
0.2832375192352264
 40
0.4166095139771
 40
0.5499797199054539
 40
0.6833497643777772
 40
0.8167207852221552
 40
0.9500943557156362
 40
1.0
 40
1.0
 40
1.0
 40
1.0
 10
35.09870783041066
 20
465.7802312850023
 30
0.0
 10
35.05764787568824
 20
465.7810040658272
 30
0.0
 10
34.68415316169315
 20
465.787915333252
 30
0.0
 10
33.97583333439908
 20
465.7989916635465
 30
0.0
 10
32.97078846820575
 20
465.8096193724602
 30
0.0
 10
31.96305058174273
 20
465.815209643065
 30
0.0
 10
30.95429778578088
 20
465.8157535347898
 30
0.0
 10
29.94621132913011
 20
465.8112502652081
 30
0.0
 10
28.94047152165685
 20
465.801707239303
 30
0.0
 10
28.14772929033901
 20
465.7901789944075
 30
0.0
 10
27.69068591059373
 20
465.7819328001787
 30
0.0
 10
27.56638431547881
 20
465.7795710334624
 30
0.0
  0
SPLINE
  5
217
330
13A
100
AcDbEntity
  8
DV3_Default
  6
Continuous
 62
     7
100
AcDbSpline
210
0.0
220
0.0
230
1.0
 70
     8
 71
     3
 72
    43
 73
    39
 74
     0
 42
0.0000000004534462
 43
0.0000000001
 40
0.0
 40
0.0
 40
0.0
 40
0.0
 40
0.0180493472357779
 40
0.0469245365646452
 40
0.0758014173405018
 40
0.104680420441137
 40
0.1335620167009453
 40
0.162446727667865
 40
0.1913351384150397
 40
0.2202279130490715
 40
0.249125813749999
 40
0.2780297244463243
 40
0.3069406806013616
 40
0.3358599071117203
 40
0.3647888670622602
 40
0.3937293251491953
 40
0.4226834311331779
 40
0.4516538309666963
 40
0.4806438166488768
 40
0.5096575310301626
 40
0.5387002517543856
 40
0.5677787910034904
 40
0.596902067584685
 40
0.626081940057623
 40
0.6553344423053956
 40
0.6846816498151661
 40
0.71415454627005
 40
0.7437974758918992
 40
0.7736750215812463
 40
0.8038820465980927
 40
0.8345548408940773
 40
0.8658632693907529
 40
0.8978682726440639
 40
0.9237568065034631
 40
0.9461520599440739
 40
0.9662539213222241
 40
0.9850772932195216
 40
1.0
 40
1.0
 40
1.0
 40
1.0
 10
27.56566380190676
 20
465.7795573421585
 30
0.0
 10
27.35799816372215
 20
465.7756108646478
 30
0.0
 10
26.81918578349151
 20
465.7645063135969
 30
0.0
 10
25.95405048981848
 20
465.7430358361136
 30
0.0
 10
24.97436553398641
 20
465.7135702225283
 30
0.0
 10
24.00530187845053
 20
465.6792229876518
 30
0.0
 10
23.04846880893451
 20
465.6400493219663
 30
0.0
 10
22.10545348657573
 20
465.5961119300601
 30
0.0
 10
21.17781793657053
 20
465.5474808176404
 30
0.0
 10
20.26709602298386
 20
465.4942330360635
 30
0.0
 10
19.37479039938235
 20
465.4364523762659
 30
0.0
 10
18.5023694207013
 20
465.3742290009767
 30
0.0
 10
17.65126399600815
 20
465.3076589998804
 30
0.0
 10
16.82286435401402
 20
465.2368438463826
 30
0.0
 10
16.01851668245006
 20
465.1618897259745
 30
0.0
 10
15.23951958753992
 20
465.0829066934975
 30
0.0
 10
14.48712029890645
 20
465.0000075977638
 30
0.0
 10
13.76251051557829
 20
464.9133066835292
 30
0.0
 10
13.06682174606702
 20
464.8229177370396
 30
0.0
 10
12.40111993324845
 20
464.7289515728436
 30
0.0
 10
11.76639906273622
 20
464.6315125498414
 30
0.0
 10
11.16357331582917
 20
464.5306936251011
 30
0.0
 10
10.59346711869548
 20
464.4265691526008
 30
0.0
 10
10.05680212298632
 20
464.3191841155317
 30
0.0
 10
9.554179657164694
 20
464.20853755715
 30
0.0
 10
9.086056494203666
 20
464.0945562978455
 30
0.0
 10
8.652710648215752
 20
463.9770518118266
 30
0.0
 10
8.254193367002442
 20
463.8556470945786
 30
0.0
 10
7.890262387013874
 20
463.7296478386259
 30
0.0
 10
7.560309282330549
 20
463.5978115768256
 30
0.0
 10
7.263328831312039
 20
463.4579322204847
 30
0.0
 10
6.998357399742937
 20
463.3062360493847
 30
0.0
 10
6.781014428422938
 20
463.1478761557581
 30
0.0
 10
6.612631345122105
 20
462.9847038654667
 30
0.0
 10
6.490673178389257
 20
462.8223525689226
 30
0.0
 10
6.406753813451981
 20
462.6550168386939
 30
0.0
 10
6.356560939668785
 20
462.4848686347671
 30
0.0
 10
6.354675122050561
 20
462.3826824600325
 30
0.0
 10
6.354157200409265
 20
462.3289007789681
 30
0.0
  0
LINE
  5
218
330
13A
100
AcDbEntity
  8
DV3_Default
  6
Continuous
 62
     7
100
AcDbLine
 10
6.3500029596
 20
462.3295005402
 30
0.0
 11
6.3500029596
 21
340.058969783
 31
0.0
  0
LINE
  5
219
330
13A
100
AcDbEntity
  8
DV3_Default
  6
Continuous
 62
     7
100
AcDbLine
 10
56.3500029596
 20
340.058969783
 30
0.0
 11
56.3500029596
 21
462.3295005402
 31
0.0
  0
ARC
  5
21A
330
13A
100
AcDbEntity
  8
DV3_Default
  6
Continuous
 62
     7
100
AcDbCircle
 10
56.0500029596
 20
340.058969783
 30
0.0
 40
0.2999999999999984
100
AcDbArc
 50
270.0
 51
0.6952724236
  0
ARC
  5
21B
330
13A
100
AcDbEntity
  8
DV3_Default
  6
Continuous
 62
     7
100
AcDbCircle
 10
6.6500029596
 20
340.058969783
 30
0.0
 40
0.2999999999999989
100
AcDbArc
 50
179.4489157188
 51
270.0
  0
ARC
  5
21C
330
13A
100
AcDbEntity
  8
DV3_Default
  6
Continuous
 62
     7
100
AcDbCircle
 10
52.35
 20
340.508969783
 30
0.0
 40
1.5
100
AcDbArc
 50
278.6407759947
 51
330.0
  0
ARC
  5
21D
330
13A
100
AcDbEntity
  8
DV3_Default
  6
Continuous
 62
     7
100
AcDbCircle
 10
10.35
 20
340.508969783
 30
0.0
 40
1.5
100
AcDbArc
 50
210.0
 51
261.3592240053
  0
ELLIPSE
  5
21E
330
13A
100
AcDbEntity
  8
DV3_Default
  6
Continuous
 62
     7
100
AcDbEllipse
 10
31.35
 20
462.5700357377
 30
0.0
 11
22.9
 21
0.0
 31
0.0
210
0.0
220
0.0
230
1.0
 40
0.1218693434
 41
3.139804715112974
 42
3.141592653589793
  0
ELLIPSE
  5
21F
330
13A
100
AcDbEntity
  8
DV3_Default
  6
Continuous
 62
     7
100
AcDbEllipse
 10
31.35
 20
462.8644913176
 30
0.0
 11
-22.64459547552666
 21
0.0
 31
0.0
210
0.0
220
0.0
230
1.0
 40
0.1218693434
 41
0.0
 42
3.544299342173872
  0
ELLIPSE
  5
220
330
13A
100
AcDbEntity
  8
DV3_Default
  6
Continuous
 62
     7
100
AcDbEllipse
 10
31.35
 20
462.8644913176
 30
0.0
 11
-22.64459547552666
 21
0.0
 31
0.0
210
0.0
220
0.0
230
1.0
 40
0.1218693434
 41
3.544299342173872
 42
4.098299335729218
  0
ELLIPSE
  5
221
330
13A
100
AcDbEntity
  8
DV3_Default
  6
Continuous
 62
     7
100
AcDbEllipse
 10
31.35
 20
462.8644913176
 30
0.0
 11
-22.64459547552666
 21
0.0
 31
0.0
210
0.0
220
0.0
230
1.0
 40
0.1218693434
 41
-0.9581730600809495
 42
-0.3960804230638821
  0
ELLIPSE
  5
222
330
13A
100
AcDbEntity
  8
DV3_Default
  6
Continuous
 62
     7
100
AcDbEllipse
 10
31.35
 20
462.8644913176
 30
0.0
 11
-22.64459547552666
 21
0.0
 31
0.0
210
0.0
220
0.0
230
1.0
 40
0.1218693434
 41
5.887104884115704
 42
6.283185307179586
  0
ELLIPSE
  5
223
330
13A
100
AcDbEntity
  8
DV3_Default
  6
Continuous
 62
     7
100
AcDbEllipse
 10
31.35
 20
463.4104957154
 30
0.0
 11
14.39331774965501
 21
0.0
 31
0.0
210
0.0
220
0.0
230
1.0
 40
0.1218693434
 41
0.0
 42
1.290728392216849
  0
ELLIPSE
  5
224
330
13A
100
AcDbEntity
  8
DV3_Default
  6
Continuous
 62
     7
100
AcDbEllipse
 10
31.35
 20
463.4104957154
 30
0.0
 11
14.39331774965501
 21
0.0
 31
0.0
210
0.0
220
0.0
230
1.0
 40
0.1218693434
 41
1.850863597241047
 42
3.660005521238743
  0
ELLIPSE
  5
225
330
13A
100
AcDbEntity
  8
DV3_Default
  6
Continuous
 62
     7
100
AcDbEllipse
 10
31.35
 20
463.4104957154
 30
0.0
 11
14.39331774965501
 21
0.0
 31
0.0
210
0.0
220
0.0
230
1.0
 40
0.1218693434
 41
3.661464854280051
 42
3.767524467852299
  0
ELLIPSE
  5
226
330
13A
100
AcDbEntity
  8
DV3_Default
  6
Continuous
 62
     7
100
AcDbEllipse
 10
31.35
 20
463.4104957154
 30
0.0
 11
14.39331774965501
 21
0.0
 31
0.0
210
0.0
220
0.0
230
1.0
 40
0.1218693434
 41
5.661971448431673
 42
6.283185307179586
  0
ARC
  5
227
330
13A
100
AcDbEntity
  8
DV3_Default
  6
Continuous
 62
     7
100
AcDbCircle
 10
31.3492841061
 20
302.723260986
 30
0.0
 40
162.9185122394919
100
AcDbArc
 50
85.4077407405
 51
88.6835387733
  0
ARC
  5
228
330
13A
100
AcDbEntity
  8
DV3_Default
  6
Continuous
 62
     7
100
AcDbCircle
 10
31.3492841061
 20
302.723260986
 30
0.0
 40
162.9185122394919
100
AcDbArc
 50
91.3282675464
 51
94.5805222492
  0
LINE
  5
229
330
13A
100
AcDbEntity
  8
DV3_Default
  6
Continuous
 62
     7
100
AcDbLine
 10
54.25
 20
462.2854422318
 30
0.0
 11
54.25
 21
462.5700357377
 31
0.0
  0
LINE
  5
22A
330
13A
100
AcDbEntity
  8
DV3_Default
  6
Continuous
 62
     7
100
AcDbLine
 10
8.45
 20
462.5700357377
 30
0.0
 11
8.45
 21
462.2854422318
 31
0.0
  0
ARC
  5
22B
330
13A
100
AcDbEntity
  8
DV3_Default
  6
Continuous
 62
     7
100
AcDbCircle
 10
37.470484255
 20
443.5377787102
 30
0.0
 40
19.66134242185742
100
AcDbArc
 50
70.9087665238
 51
88.2619293576
  0
ARC
  5
22C
330
13A
100
AcDbEntity
  8
DV3_Default
  6
Continuous
 62
     7
100
AcDbCircle
 10
26.0890351968
 20
439.3543227809
 30
0.0
 40
23.90229141890179
100
AcDbArc
 50
88.874765214
 51
107.7581546811
  0
SPLINE
  5
22D
330
13A
100
AcDbEntity
  8
DV3_Default
  6
Continuous
 62
     7
100
AcDbSpline
210
0.0
220
0.0
230
1.0
 70
     8
 71
     3
 72
     9
 73
     5
 74
     0
 42
0.0000001937754807
 43
0.0000000001
 40
0.0
 40
0.0
 40
0.0
 40
0.0
 40
0.4766607573718675
 40
1.0
 40
1.0
 40
1.0
 40
1.0
 10
18.87699068833225
 20
462.5222337197381
 30
0.0
 10
18.86464970959283
 20
462.5324149174434
 30
0.0
 10
18.84635371998334
 20
462.5508619218645
 30
0.0
 10
18.84125859376104
 20
462.5588801126133
 30
0.0
 10
18.84126916414345
 20
462.5587546113867
 30
0.0
  0
SPLINE
  5
22E
330
13A
100
AcDbEntity
  8
DV3_Default
  6
Continuous
 62
     7
100
AcDbSpline
210
0.0
220
0.0
230
1.0
 70
     8
 71
     3
 72
    18
 73
    14
 74
     0
 42
0.0000000038500018
 43
0.0000000001
 40
0.0
 40
0.0
 40
0.0
 40
0.0
 40
0.0467500960217104
 40
0.1248876658863645
 40
0.2051824039926987
 40
0.2928178494247379
 40
0.3915385418365095
 40
0.5006299730380807
 40
0.6139543500058037
 40
0.7259737604388398
 40
0.8362478333935308
 40
0.9451915215360951
 40
1.0
 40
1.0
 40
1.0
 40
1.0
 10
54.24478949311551
 20
462.5698426906199
 30
0.0
 10
54.24561899218813
 20
462.6056496695405
 30
0.0
 10
54.24682262199674
 20
462.6863625070231
 30
0.0
 10
54.20323993147042
 20
462.8259279154994
 30
0.0
 10
54.12485192646831
 20
462.9700800244159
 30
0.0
 10
54.01004316298295
 20
463.108469730528
 30
0.0
 10
53.85514065523648
 20
463.2444622585809
 30
0.0
 10
53.6533783577427
 20
463.3799449493922
 30
0.0
 10
53.40521785674229
 20
463.5125997319806
 30
0.0
 10
53.11545658560009
 20
463.6405738859979
 30
0.0
 10
52.79104831986841
 20
463.761786016003
 30
0.0
 10
52.48478218975053
 20
463.8629041460955
 30
0.0
 10
52.29534141361846
 20
463.9163325140373
 30
0.0
 10
52.220466903134
 20
463.9373442841083
 30
0.0
  0
SPLINE
  5
22F
330
13A
100
AcDbEntity
  8
DV3_Default
  6
Continuous
 62
     7
100
AcDbSpline
210
0.0
220
0.0
230
1.0
 70
     8
 71
     3
 72
    18
 73
    14
 74
     0
 42
0.0000000039915895
 43
0.0000000001
 40
0.0
 40
0.0
 40
0.0
 40
0.0
 40
0.0065999771103963
 40
0.1167187843097084
 40
0.2274627342690601
 40
0.3390919227617183
 40
0.4519787725121792
 40
0.5665764965617964
 40
0.6829973580002453
 40
0.7797105079746164
 40
0.8651120050058176
 40
0.9436241179950706
 40
1.0
 40
1.0
 40
1.0
 40
1.0
 10
10.39961281120023
 20
463.9155549156737
 30
0.0
 10
10.39073504438395
 20
463.9130952069769
 30
0.0
 10
10.25554662240382
 20
463.8756189810079
 30
0.0
 10
10.00287612975555
 20
463.7932887464993
 30
0.0
 10
9.674044251603336
 20
463.6760457738457
 30
0.0
 10
9.380506916805546
 20
463.552605483138
 30
0.0
 10
9.122575899469986
 20
463.4234996896929
 30
0.0
 10
8.899595405075372
 20
463.285309904069
 30
0.0
 10
8.723276796906951
 20
463.142533589375
 30
0.0
 10
8.592555034251763
 20
462.9953213472217
 30
0.0
 10
8.506956414231617
 20
462.8494595195552
 30
0.0
 10
8.4571047521766
 20
462.7059600550702
 30
0.0
 10
8.455418253932868
 20
462.6211709272643
 30
0.0
 10
8.454969762614132
 20
462.5790556864961
 30
0.0
  0
ARC
  5
230
330
13A
100
AcDbEntity
  8
DV3_Default
  6
Continuous
 62
     7
100
AcDbCircle
 10
31.3707216706
 20
544.9503898858
 30
0.0
 40
83.23545591851624
100
AcDbArc
 50
260.5829027789
 51
279.3627148388
  0
ARC
  5
231
330
13A
100
AcDbEntity
  8
DV3_Default
  6
Continuous
 62
     7
100
AcDbCircle
 10
31.0303969037
 20
477.154867594
 30
0.0
 40
9.223516185299243
100
AcDbArc
 50
251.5995455488
 51
271.8702800119
  0
ARC
  5
232
330
13A
100
AcDbEntity
  8
DV3_Default
  6
Continuous
 62
     7
100
AcDbCircle
 10
-53.045159109
 20
466.9080260402
 30
0.0
 40
84.38284656642242
100
AcDbArc
 50
359.4157080145
 51
0.6981893974
  0
SPLINE
  5
233
330
13A
100
AcDbEntity
  8
DV3_Default
  6
Continuous
 62
     7
100
AcDbSpline
210
0.0
220
0.0
230
1.0
 70
     8
 71
     3
 72
    14
 73
    10
 74
     0
 42
0.0000000023945878
 43
0.0000000001
 40
0.0
 40
0.0
 40
0.0
 40
0.0
 40
0.251703507538608
 40
0.251703507538608
 40
0.5034070150772161
 40
0.5034070150772161
 40
0.7551105226158241
 40
0.7551105226158241
 40
1.0
 40
1.0
 40
1.0
 40
1.0
 10
31.33329977677642
 20
466.047519964202
 30
0.0
 10
30.83358889484397
 20
466.0470595046492
 30
0.0
 10
30.33403118776133
 20
466.0752075284075
 30
0.0
 10
29.41051097518721
 20
466.1844827915379
 30
0.0
 10
28.98691183546321
 20
466.2655670357604
 30
0.0
 10
28.27988306683148
 20
466.468407212465
 30
0.0
 10
27.99673162355264
 20
466.5900833359994
 30
0.0
 10
27.61901586883008
 20
466.8520137543248
 30
0.0
 10
27.51969631408146
 20
466.9915770413481
 30
0.0
 10
27.51423633070586
 20
467.1315586499977
 30
0.0
  0
SPLINE
  5
234
330
13A
100
AcDbEntity
  8
DV3_Default
  6
Continuous
 62
     7
100
AcDbSpline
210
0.0
220
0.0
230
1.0
 70
     8
 71
     3
 72
     8
 73
     4
 74
     0
 42
0.0000082900553128
 43
0.0000000001
 40
0.0
 40
0.0
 40
0.0
 40
0.0
 40
1.0
 40
1.0
 40
1.0
 40
1.0
 10
27.51423633070586
 20
467.1315586499977
 30
0.0
 10
27.51422065817523
 20
467.1319604581897
 30
0.0
 10
27.5142057589912
 20
467.1323622698285
 30
0.0
 10
27.51419163331726
 20
467.1327640846781
 30
0.0
  0
SPLINE
  5
235
330
13A
100
AcDbEntity
  8
DV3_Default
  6
Continuous
 62
     7
100
AcDbSpline
210
0.0
220
0.0
230
1.0
 70
     8
 71
     3
 72
     8
 73
     4
 74
     0
 42
0.0000009539246388
 43
0.0000000001
 40
0.0
 40
0.0
 40
0.0
 40
0.0
 40
1.0
 40
1.0
 40
1.0
 40
1.0
 10
27.51419163331726
 20
467.1327640846781
 30
0.0
 10
27.51406883003512
 20
467.1362573114471
 30
0.0
 10
27.51400448793292
 20
467.1397507808826
 30
0.0
 10
27.51399871443231
 20
467.1432443379467
 30
0.0
  0
ARC
  5
236
330
13A
100
AcDbEntity
  8
DV3_Default
  6
Continuous
 62
     7
100
AcDbCircle
 10
493.1070449357
 20
485.8026086477
 30
0.0
 40
465.966797707751
100
AcDbArc
 50
182.0611888673
 51
182.2949891761
  0
ARC
  5
237
330
13A
100
AcDbEntity
  8
DV3_Default
  6
Continuous
 62
     7
100
AcDbCircle
 10
34.1354951408
 20
469.4174627319
 30
0.0
 40
1.086674132055167
100
AcDbArc
 50
291.9749444602
 51
297.8012847091
  0
ARC
  5
238
330
13A
100
AcDbEntity
  8
DV3_Default
  6
Continuous
 62
     7
100
AcDbCircle
 10
1.903458738
 20
468.3322113615
 30
0.0
 40
32.73910312431757
100
AcDbArc
 50
356.9308740795
 51
0.2170294912
  0
ARC
  5
239
330
13A
100
AcDbEntity
  8
DV3_Default
  6
Continuous
 62
     7
100
AcDbCircle
 10
31.628222296
 20
474.5102248218
 30
0.0
 40
8.467842275242813
100
AcDbArc
 50
268.004068427
 51
290.5135804292
  0
SPLINE
  5
23A
330
13A
100
AcDbEntity
  8
DV3_Default
  6
Continuous
 62
     7
100
AcDbSpline
210
0.0
220
0.0
230
1.0
 70
     8
 71
     3
 72
    12
 73
     8
 74
     0
 42
0.0000000114677798
 43
0.0000000001
 40
0.0
 40
0.0
 40
0.0
 40
0.0
 40
0.0990304797095115
 40
0.351845461310655
 40
0.6046604429117981
 40
0.8574754245129423
 40
1.0
 40
1.0
 40
1.0
 40
1.0
 10
34.64232699184942
 20
468.4562228325389
 30
0.0
 10
34.68232817162892
 20
468.4773669966171
 30
0.0
 10
34.81631983138827
 20
468.5500820696398
 30
0.0
 10
34.99944573818477
 20
468.6724130671359
 30
0.0
 10
35.14680943853532
 20
468.8213181799041
 30
0.0
 10
35.2099686448038
 20
468.9462558389176
 30
0.0
 10
35.21726705525879
 20
469.0218333229785
 30
0.0
 10
35.21795360272433
 20
469.0504896759427
 30
0.0
  0
SPLINE
  5
23B
330
13A
100
AcDbEntity
  8
DV3_Default
  6
Continuous
 62
     7
100
AcDbSpline
210
0.0
220
0.0
230
1.0
 70
     8
 71
     3
 72
     8
 73
     4
 74
     0
 42
0.0000000116124824
 43
0.0000000001
 40
0.0
 40
0.0
 40
0.0
 40
0.0
 40
1.0
 40
1.0
 40
1.0
 40
1.0
 10
35.14874157783238
 20
467.138173205026
 30
0.0
 10
35.14138019561953
 20
466.9423073896452
 30
0.0
 10
34.94835065298249
 20
466.7471019930859
 30
0.0
 10
34.59560305226184
 20
466.5793355748965
 30
0.0
  0
SPLINE
  5
23C
330
13A
100
AcDbEntity
  8
DV3_Default
  6
Continuous
 62
     7
100
AcDbSpline
210
0.0
220
0.0
230
1.0
 70
     8
 71
     3
 72
    12
 73
     8
 74
     0
 42
0.0000000125570477
 43
0.0000000001
 40
0.0
 40
0.0
 40
0.0
 40
0.0
 40
0.0181781597308352
 40
0.3076566126563074
 40
0.5971350655817783
 40
0.8866135185072496
 40
1.0
 40
1.0
 40
1.0
 40
1.0
 10
27.44989886396008
 20
468.9692011792259
 30
0.0
 10
27.45055627170642
 20
468.9661582625421
 30
0.0
 10
27.46248530676274
 20
468.9146776087338
 30
0.0
 10
27.51363529893292
 20
468.814247101641
 30
0.0
 10
27.66149079859341
 20
468.6656154685591
 30
0.0
 10
27.84501884158544
 20
468.543625094438
 30
0.0
 10
27.97924857513584
 20
468.4711595017505
 30
0.0
 10
28.01930862734082
 20
468.4503578890047
 30
0.0
  0
ARC
  5
23D
330
13A
100
AcDbEntity
  8
DV3_Default
  6
Continuous
 62
     7
100
AcDbCircle
 10
31.6025641475
 20
477.2205352816
 30
0.0
 40
9.288228739431993
100
AcDbArc
 50
268.3271857997
 51
288.4503588651
  0
LINE
  5
23E
330
13A
100
AcDbEntity
  8
DV3_Default
  6
Continuous
 62
     7
100
AcDbLine
 10
28.0193169593
 20
468.4505315537
 30
0.0
 11
28.1189365346
 21
468.402852212
 31
0.0
  0
SPLINE
  5
23F
330
13A
100
AcDbEntity
  8
DV3_Default
  6
Continuous
 62
     7
100
AcDbSpline
210
0.0
220
0.0
230
1.0
 70
     8
 71
     3
 72
    20
 73
    16
 74
     0
 42
0.0000000004650263
 43
0.0000000001
 40
0.0
 40
0.0
 40
0.0
 40
0.0
 40
0.1259500079378781
 40
0.1259500079378781
 40
0.2519000158757562
 40
0.2519000158757562
 40
0.5038000317515123
 40
0.5038000317515123
 40
0.6297500396893905
 40
0.6297500396893905
 40
0.7557000476272685
 40
0.7557000476272685
 40
0.8816500555651465
 40
0.8816500555651465
 40
1.0
 40
1.0
 40
1.0
 40
1.0
 10
37.57119247377236
 20
536.0794381553501
 30
0.0
 10
37.60178940587895
 20
536.9599454764302
 30
0.0
 10
37.59116882504019
 20
537.8341007021419
 30
0.0
 10
37.15097700628941
 20
539.5313379962462
 30
0.0
 10
36.73709113903737
 20
540.3164312895259
 30
0.0
 10
34.95070084349521
 20
542.3049823906026
 30
0.0
 10
33.10315625968756
 20
543.0307896096426
 30
0.0
 10
30.34055673502057
 20
543.0266018293956
 30
0.0
 10
29.42917329275319
 20
542.8533923363711
 30
0.0
 10
27.75128988147708
 20
542.1593046477606
 30
0.0
 10
26.98896996917439
 20
541.6339570143136
 30
0.0
 10
25.80768184348234
 20
540.3179407511838
 30
0.0
 10
25.38644146682457
 20
539.5197537197098
 30
0.0
 10
24.9631334452738
 20
537.8777936301498
 30
0.0
 10
24.94196095199363
 20
537.0531921693796
 30
0.0
 10
24.96691474434898
 20
536.2270391818579
 30
0.0
  0
SPLINE
  5
240
330
13A
100
AcDbEntity
  8
DV3_Default
  6
Continuous
 62
     7
100
AcDbSpline
210
0.0
220
0.0
230
1.0
 70
     8
 71
     3
 72
     8
 73
     4
 74
     0
 42
0.000000062790039
 43
0.0000000001
 40
0.0
 40
0.0
 40
0.0
 40
0.0
 40
1.0
 40
1.0
 40
1.0
 40
1.0
 10
24.96691474434898
 20
536.2270391818579
 30
0.0
 10
24.96851719889552
 20
536.1739862193207
 30
0.0
 10
24.97030986933899
 20
536.1209268585867
 30
0.0
 10
24.97225627150096
 20
536.0678684113378
 30
0.0
  0
ARC
  5
241
330
13A
100
AcDbEntity
  8
DV3_Default
  6
Continuous
 62
     7
100
AcDbCircle
 10
52949.5715335961
 20
2452.4831000245
 30
0.0
 40
52959.28488948227
100
AcDbArc
 50
182.0737908894
 51
182.146352889
  0
ARC
  5
242
330
13A
100
AcDbEntity
  8
DV3_Default
  6
Continuous
 62
     7
100
AcDbCircle
 10
57958.9778236241
 20
2632.1945960889
 30
0.0
 40
57971.90782850308
100
AcDbArc
 50
182.1334715584
 51
182.1384188255
  0
ARC
  5
243
330
13A
100
AcDbEntity
  8
DV3_Default
  6
Continuous
 62
     7
100
AcDbCircle
 10
-50458.4468526355
 20
2275.3277227826
 30
0.0
 40
50525.96187117649
100
AcDbArc
 50
357.9512687103
 51
358.0273254951
  0
ARC
  5
244
330
13A
100
AcDbEntity
  8
DV3_Default
  6
Continuous
 62
     7
100
AcDbCircle
 10
-55220.6807829685
 20
2437.6806387681
 30
0.0
 40
55290.95631158977
100
AcDbArc
 50
357.9595570085
 51
357.9661469267
  0
ARC
  5
245
330
13A
100
AcDbEntity
  8
DV3_Default
  6
Continuous
 62
     7
100
AcDbCircle
 10
-5918.7435311137
 20
361.1603404428
 30
0.0
 40
5947.73061091106
100
AcDbArc
 50
1.0336040786
 51
1.6684166877
  0
SPLINE
  5
246
330
13A
100
AcDbEntity
  8
DV3_Default
  6
Continuous
 62
     7
100
AcDbSpline
210
0.0
220
0.0
230
1.0
 70
     8
 71
     3
 72
    23
 73
    19
 74
     0
 42
0.0000000006030789
 43
0.0000000001
 40
0.0
 40
0.0
 40
0.0
 40
0.0
 40
0.0637026542757738
 40
0.1250350024656459
 40
0.1875567061753473
 40
0.2500782902767049
 40
0.2858157583887845
 40
0.3215452724081577
 40
0.3929430081108751
 40
0.5001191607024629
 40
0.6248134490788122
 40
0.6748926736945489
 40
0.7124054569253276
 40
0.7499187345759037
 40
0.8124403409615545
 40
0.874962038129244
 40
0.9354240897514631
 40
1.0
 40
1.0
 40
1.0
 40
1.0
 10
26.46560639479594
 20
534.3300007589658
 30
0.0
 10
26.45630993094841
 20
534.6726541825913
 30
0.0
 10
26.43877309813455
 20
535.3453823604341
 30
0.0
 10
26.55026527607264
 20
536.3467922106962
 30
0.0
 10
26.88714833355339
 20
537.2969244444566
 30
0.0
 10
27.39041809266017
 20
538.0234133187076
 30
0.0
 10
27.92122927427257
 20
538.5338715307204
 30
0.0
 10
28.56082726122412
 20
538.9989030041338
 30
0.0
 10
29.64984325748986
 20
539.5157964497257
 30
0.0
 10
31.36666570340753
 20
539.7964455488802
 30
0.0
 10
32.97329853836879
 20
539.4939480248106
 30
0.0
 10
34.03169111835592
 20
538.9609016750823
 30
0.0
 10
34.59718404845817
 20
538.5598651269898
 30
0.0
 10
35.14509322407126
 20
538.0386140343747
 30
0.0
 10
35.65512947463007
 20
537.3050421102595
 30
0.0
 10
35.99217938626445
 20
536.3600321809039
 30
0.0
 10
36.10667386091842
 20
535.3589768101385
 30
0.0
 10
36.09050825487456
 20
534.6862329191767
 30
0.0
 10
36.08235265867092
 20
534.3389450610196
 30
0.0
  0
ARC
  5
247
330
13A
100
AcDbEntity
  8
DV3_Default
  6
Continuous
 62
     7
100
AcDbCircle
 10
6021.8085176417
 20
370.5493758353
 30
0.0
 40
5987.966661993807
100
AcDbArc
 50
178.4325861851
 51
179.0631378873
  0
SPLINE
  5
248
330
13A
100
AcDbEntity
  8
DV3_Default
  6
Continuous
 62
     7
100
AcDbSpline
210
0.0
220
0.0
230
1.0
 70
     8
 71
     3
 72
     8
 73
     4
 74
     0
 42
0.0000012251806725
 43
0.0000000001
 40
0.0
 40
0.0
 40
0.0
 40
0.0
 40
1.0
 40
1.0
 40
1.0
 40
1.0
 10
24.97225627150096
 20
536.0678684113378
 30
0.0
 10
24.97419405382604
 20
536.0659765104792
 30
0.0
 10
24.97613599583553
 20
536.0640709631111
 30
0.0
 10
24.97808209746849
 20
536.0621518806299
 30
0.0
  0
SPLINE
  5
249
330
13A
100
AcDbEntity
  8
DV3_Default
  6
Continuous
 62
     7
100
AcDbSpline
210
0.0
220
0.0
230
1.0
 70
     8
 71
     3
 72
     8
 73
     4
 74
     0
 42
0.0000000043414295
 43
0.0000000001
 40
0.0
 40
0.0
 40
0.0
 40
0.0
 40
0.9999999999999999
 40
0.9999999999999999
 40
0.9999999999999999
 40
0.9999999999999999
 10
24.97808209746849
 20
536.0621518806299
 30
0.0
 10
25.33451487486694
 20
535.7106677200543
 30
0.0
 10
25.8304810777718
 20
534.9051519115322
 30
0.0
 10
26.46560639479594
 20
534.3300007589658
 30
0.0
  0
SPLINE
  5
24A
330
13A
100
AcDbEntity
  8
DV3_Default
  6
Continuous
 62
     7
100
AcDbSpline
210
0.0
220
0.0
230
1.0
 70
     8
 71
     3
 72
     8
 73
     4
 74
     0
 42
0.0000000043440612
 43
0.0000000001
 40
0.0
 40
0.0
 40
0.0
 40
0.0
 40
0.9999999999999999
 40
0.9999999999999999
 40
0.9999999999999999
 40
0.9999999999999999
 10
36.08235265867092
 20
534.3389450610196
 30
0.0
 10
36.71552909169596
 20
534.9151973587411
 30
0.0
 10
37.20960176229323
 20
535.7211887231332
 30
0.0
 10
37.56511704045937
 20
536.073449409118
 30
0.0
  0
SPLINE
  5
24B
330
13A
100
AcDbEntity
  8
DV3_Default
  6
Continuous
 62
     7
100
AcDbSpline
210
0.0
220
0.0
230
1.0
 70
     8
 71
     3
 72
     8
 73
     4
 74
     0
 42
0.0000011722088942
 43
0.0000000001
 40
0.0
 40
0.0
 40
0.0
 40
0.0
 40
1.0
 40
1.0
 40
1.0
 40
1.0
 10
37.56511704045937
 20
536.073449409118
 30
0.0
 10
37.56714670092569
 20
536.0754604889001
 30
0.0
 10
37.56917184532947
 20
536.0774567800372
 30
0.0
 10
37.57119247377236
 20
536.0794381553501
 30
0.0
  0
ARC
  5
24C
330
13A
100
AcDbEntity
  8
DV3_Default
  6
Continuous
 62
     7
100
AcDbCircle
 10
3289.010330045
 20
446.2153897354
 30
0.0
 40
3254.543878262945
100
AcDbArc
 50
178.4489357977
 51
179.6092686426
  0
ARC
  5
24D
330
13A
100
AcDbEntity
  8
DV3_Default
  6
Continuous
 62
     7
100
AcDbCircle
 10
35.7549294657
 20
535.9580818371
 30
0.0
 40
1.651910968216411
100
AcDbArc
 50
266.6681811965
 51
281.4322305821
  0
SPLINE
  5
24E
330
13A
100
AcDbEntity
  8
DV3_Default
  6
Continuous
 62
     7
100
AcDbSpline
210
0.0
220
0.0
230
1.0
 70
     8
 71
     3
 72
    23
 73
    19
 74
     0
 42
0.0000000006458792
 43
0.0000000001
 40
0.0
 40
0.0
 40
0.0
 40
0.0
 40
0.031311458590096
 40
0.0626187176086317
 40
0.1252375354644956
 40
0.2495240070298057
 40
0.3121409266256474
 40
0.3747604232654589
 40
0.437379033773584
 40
0.4999980017236857
 40
0.5626178650244344
 40
0.6252370398076839
 40
0.6878564674378083
 40
0.7504760163163676
 40
0.8747614129596355
 40
0.9373808488700754
 40
0.9686903907041159
 40
1.0
 40
1.0
 40
1.0
 40
1.0
 10
35.65892297712019
 20
534.3089631024222
 30
0.0
 10
35.66030085223426
 20
534.4655865149692
 30
0.0
 10
35.6630564914873
 20
534.7788208272584
 30
0.0
 10
35.65169757449856
 20
535.4051104512761
 30
0.0
 10
35.5503325871089
 20
536.4913213915326
 30
0.0
 10
35.01291488527786
 20
537.6918035268837
 30
0.0
 10
34.05742297298723
 20
538.55655889604
 30
0.0
 10
33.19712238043739
 20
539.0203656569968
 30
0.0
 10
32.25281198752727
 20
539.2989444601618
 30
0.0
 10
31.26943693440593
 20
539.3954068969284
 30
0.0
 10
30.28617083283788
 20
539.2973654088161
 30
0.0
 10
29.34240532516553
 20
539.0167768903267
 30
0.0
 10
28.48288350553594
 20
538.5514104041023
 30
0.0
 10
27.52880847483216
 20
537.6849203960364
 30
0.0
 10
26.99352213463656
 20
536.4834164919143
 30
0.0
 10
26.89388939731972
 20
535.3970293279817
 30
0.0
 10
26.88362008444327
 20
534.7707126926568
 30
0.0
 10
26.88696299562408
 20
534.4574805612225
 30
0.0
 10
26.88918231440277
 20
534.3008362211443
 30
0.0
  0
ARC
  5
24F
330
13A
100
AcDbEntity
  8
DV3_Default
  6
Continuous
 62
     7
100
AcDbCircle
 10
26.7907056161
 20
535.9611130696
 30
0.0
 40
1.663194779192319
100
AcDbArc
 50
258.7280108823
 51
273.3944317408
  0
ARC
  5
250
330
13A
100
AcDbEntity
  8
DV3_Default
  6
Continuous
 62
     7
100
AcDbCircle
 10
-3265.2918019649
 20
439.9035088454
 30
0.0
 40
3293.534042433102
100
AcDbArc
 50
0.4957945441
 51
1.6424027085
  0
SPLINE
  5
251
330
13A
100
AcDbEntity
  8
DV3_Default
  6
Continuous
 62
     7
100
AcDbSpline
210
0.0
220
0.0
230
1.0
 70
     8
 71
     3
 72
     8
 73
     4
 74
     0
 42
0.0000000946721062
 43
0.0000000001
 40
0.0
 40
0.0
 40
0.0
 40
0.0
 40
0.9999999999999999
 40
0.9999999999999999
 40
0.9999999999999999
 40
0.9999999999999999
 10
24.91334585218078
 20
536.1456004657413
 30
0.0
 10
24.91414590375252
 20
536.1182692568975
 30
0.0
 10
24.9337742254693
 20
536.091621153637
 30
0.0
 10
24.97222713160743
 20
536.0678863949303
 30
0.0
  0
SPLINE
  5
252
330
13A
100
AcDbEntity
  8
DV3_Default
  6
Continuous
 62
     7
100
AcDbSpline
210
0.0
220
0.0
230
1.0
 70
     8
 71
     3
 72
     8
 73
     4
 74
     0
 42
0.0000000052438374
 43
0.0000000001
 40
0.0
 40
0.0
 40
0.0
 40
0.0
 40
1.0
 40
1.0
 40
1.0
 40
1.0
 10
27.4419255511469
 20
469.0371875016015
 30
0.0
 10
27.46593373180683
 20
468.3987819341859
 30
0.0
 10
27.49003640120187
 20
467.7635722809594
 30
0.0
 10
27.51423355933201
 20
467.1315585419217
 30
0.0
  0
ARC
  5
253
330
13A
100
AcDbEntity
  8
DV3_Default
  6
Continuous
 62
     7
100
AcDbCircle
 10
-1694.6657263732
 20
530.7494494642
 30
0.0
 40
1730.983680434465
100
AcDbArc
 50
357.8939836972
 51
357.9570515233
  0
LINE
  5
254
330
13A
100
AcDbEntity
  8
DV3_Default
  6
Continuous
 62
     7
100
AcDbLine
 10
35.2095832639
 20
468.9743060212
 30
0.0
 11
35.237123787
 21
469.5820677209
 31
0.0
  0
LINE
  5
255
330
13A
100
AcDbEntity
  8
DV3_Default
  6
Continuous
 62
     7
100
AcDbLine
 10
27.4235057108
 20
469.5263221511
 30
0.0
 11
27.4503102916
 21
468.9673239797
 31
0.0
  0
SPLINE
  5
256
330
13A
100
AcDbEntity
  8
DV3_Default
  6
Continuous
 62
     7
100
AcDbSpline
210
0.0
220
0.0
230
1.0
 70
     8
 71
     3
 72
    10
 73
     6
 74
     0
 42
0.0000000001672687
 43
0.0000000001
 40
0.0
 40
0.0
 40
0.0
 40
0.0
 40
0.251148808926072
 40
0.9654197460973389
 40
1.0
 40
1.0
 40
1.0
 40
1.0
 10
24.91371075065311
 20
536.145193174002
 30
0.0
 10
25.11958756007106
 20
530.6436635148528
 30
0.0
 10
25.79011278457051
 20
512.7470879145312
 30
0.0
 10
26.59405700642028
 20
491.2825467492412
 30
0.0
 10
27.1324428095096
 20
477.1609029299608
 30
0.0
 10
27.1613208434102
 20
476.403423789062
 30
0.0
  0
SPLINE
  5
257
330
13A
100
AcDbEntity
  8
DV3_Default
  6
Continuous
 62
     7
100
AcDbSpline
210
0.0
220
0.0
230
1.0
 70
     8
 71
     3
 72
    50
 73
    46
 74
     0
 42
0.0000000004550945
 43
0.0000000001
 40
0.0
 40
0.0
 40
0.0
 40
0.0
 40
0.0332236272583922
 40
0.061553095230754
 40
0.0869217872943992
 40
0.1100772947754931
 40
0.1317118506114106
 40
0.1524550650212831
 40
0.174430179651368
 40
0.1962383376634709
 40
0.2182067971677155
 40
0.2403001611760347
 40
0.262475869145629
 40
0.2846805276185269
 40
0.3068609966913143
 40
0.3289823906607618
 40
0.3508385849968739
 40
0.3729557369790404
 40
0.395657701728445
 40
0.4187141894070874
 40
0.442106189897909
 40
0.4657869276226256
 40
0.489686242875606
 40
0.5137143619394656
 40
0.5377652491923719
 40
0.5618048009287677
 40
0.5857019144739363
 40
0.6093894789177585
 40
0.6328265423810957
 40
0.6559946130240922
 40
0.6788985266858936
 40
0.7015658057570132
 40
0.7240501680929219
 40
0.7454516355363734
 40
0.7669470906749172
 40
0.7886768608000121
 40
0.8106658562259932
 40
0.8329219336051138
 40
0.8554348475006727
 40
0.8781772048148844
 40
0.9009166941081944
 40
0.9234615371060441
 40
0.9491419096899657
 40
0.9770960003731622
 40
1.0
 40
1.0
 40
1.0
 40
1.0
 10
37.62981276715319
 20
536.1568969546
 30
0.0
 10
37.63790926020143
 20
536.4183678268581
 30
0.0
 10
37.6484999135242
 20
536.8257921550046
 30
0.0
 10
37.63577827895397
 20
537.4613392634158
 30
0.0
 10
37.59347253416912
 20
538.0101082941974
 30
0.0
 10
37.52134011654542
 20
538.5114127448857
 30
0.0
 10
37.41966596026109
 20
538.9737606913048
 30
0.0
 10
37.28381739941896
 20
539.4196952005119
 30
0.0
 10
37.10950728317687
 20
539.8543024471986
 30
0.0
 10
36.89432133796964
 20
540.2811605577718
 30
0.0
 10
36.64287080517393
 20
540.6900025425549
 30
0.0
 10
36.35571411969547
 20
541.0794445426419
 30
0.0
 10
36.03500619382832
 20
541.4458022175687
 30
0.0
 10
35.68338704777607
 20
541.7855021302947
 30
0.0
 10
35.30388574711103
 20
542.0952870314911
 30
0.0
 10
34.90076160215423
 20
542.3715564142171
 30
0.0
 10
34.47549682669251
 20
542.6136732164157
 30
0.0
 10
34.02810071085489
 20
542.8246852534114
 30
0.0
 10
33.55664504530249
 20
543.0044104674614
 30
0.0
 10
33.06312554073296
 20
543.1510532035875
 30
0.0
 10
32.5522958578273
 20
543.2623095701977
 30
0.0
 10
32.02795581687733
 20
543.3366306111349
 30
0.0
 10
31.49454344686687
 20
543.3726922162575
 30
0.0
 10
30.95705907178061
 20
543.3695329603851
 30
0.0
 10
30.42034520298573
 20
543.3266273215708
 30
0.0
 10
29.88959952100665
 20
543.2440981924339
 30
0.0
 10
29.3697622647552
 20
543.1224497974989
 30
0.0
 10
28.86577346987789
 20
542.9628222876546
 30
0.0
 10
28.38168266034606
 20
542.7666330209365
 30
0.0
 10
27.92092545771533
 20
542.5355490632662
 30
0.0
 10
27.4864054945714
 20
542.2712744652014
 30
0.0
 10
27.08028860950839
 20
541.9758439138182
 30
0.0
 10
26.71022011569963
 20
541.6546811660207
 30
0.0
 10
26.3769254694291
 20
541.309454412284
 30
0.0
 10
26.07808858819485
 20
540.9428678975422
 30
0.0
 10
25.8092317961766
 20
540.5501352205863
 30
0.0
 10
25.57178433732716
 20
540.1327039880774
 30
0.0
 10
25.36770924827396
 20
539.6929358316795
 30
0.0
 10
25.19910025433614
 20
539.2336736306054
 30
0.0
 10
25.06776400177411
 20
538.7594605607109
 30
0.0
 10
24.97707456530579
 20
538.2766961300621
 30
0.0
 10
24.91637547055749
 20
537.7686318054626
 30
0.0
 10
24.88446880550599
 20
537.22477550585
 30
0.0
 10
24.88088425226532
 20
536.6633424010173
 30
0.0
 10
24.89340416388555
 20
536.3251329407577
 30
0.0
 10
24.90073046518838
 20
536.1448818866457
 30
0.0
  0
SPLINE
  5
258
330
13A
100
AcDbEntity
  8
DV3_Default
  6
Continuous
 62
     7
100
AcDbSpline
210
0.0
220
0.0
230
1.0
 70
     8
 71
     3
 72
    10
 73
     6
 74
     0
 42
0.0000000001603595
 43
0.0000000001
 40
0.0
 40
0.0
 40
0.0
 40
0.0
 40
0.2198344134242702
 40
0.8117060286147995
 40
1.0
 40
1.0
 40
1.0
 40
1.0
 10
35.39135724501462
 20
473.8368915899511
 30
0.0
 10
35.57381558760897
 20
478.8601689925987
 30
0.0
 10
36.14460108414674
 20
494.5724735476501
 30
0.0
 10
36.93593113909845
 20
516.7154517225185
 30
0.0
 10
37.47698295132108
 20
531.8539133870399
 30
0.0
 10
37.63064261412952
 20
536.1565608315808
 30
0.0
  0
LINE
  5
259
330
13A
100
AcDbEntity
  8
DV3_Default
  6
Continuous
 62
     7
100
AcDbLine
 10
27.5141872511
 20
467.1327639306
 30
0.0
 11
27.6465079757
 21
463.702410714
 31
0.0
  0
LINE
  5
25A
330
13A
100
AcDbEntity
  8
DV3_Default
  6
Continuous
 62
     7
100
AcDbLine
 10
35.0223794582
 20
463.7089004355
 30
0.0
 11
35.1487897884
 21
467.139335016
 31
0.0
  0
ARC
  5
25B
330
13A
100
AcDbEntity
  8
DV3_Default
  6
Continuous
 62
     7
100
AcDbCircle
 10
31.35
 20
445.952490979
 30
0.0
 40
18.5
100
AcDbArc
 50
60.7072446179
 51
78.5069388976
  0
ARC
  5
25C
330
13A
100
AcDbEntity
  8
DV3_Default
  6
Continuous
 62
     7
100
AcDbCircle
 10
31.35
 20
445.952490979
 30
0.0
 40
18.5
100
AcDbArc
 50
101.5934391233
 51
119.3170385167
  0
SPLINE
  5
25D
330
13A
100
AcDbEntity
  8
DV3_Default
  6
Continuous
 62
     7
100
AcDbSpline
210
0.0
220
0.0
230
1.0
 70
     8
 71
     3
 72
    10
 73
     6
 74
     0
 42
0.0000001544603717
 43
0.0000000001
 40
0.0
 40
0.0
 40
0.0
 40
0.0
 40
0.2503968763974659
 40
0.7662636211547484
 40
1.0
 40
1.0
 40
1.0
 40
1.0
 10
27.6445333602798
 20
463.7032327643566
 30
0.0
 10
27.64525499383754
 20
463.6940311488197
 30
0.0
 10
27.64743407066161
 20
463.6709882597465
 30
0.0
 10
27.63790986081822
 20
463.6451958039977
 30
0.0
 10
27.63554239553567
 20
463.6409539192541
 30
0.0
 10
27.63555125938967
 20
463.6409639485795
 30
0.0
  0
SPLINE
  5
25E
330
13A
100
AcDbEntity
  8
DV3_Default
  6
Continuous
 62
     7
100
AcDbSpline
210
0.0
220
0.0
230
1.0
 70
     8
 71
     3
 72
    10
 73
     6
 74
     0
 42
0.0000001566161394
 43
0.0000000001
 40
0.0
 40
0.0
 40
0.0
 40
0.0
 40
0.3364252601275411
 40
0.8446964425401623
 40
1.0
 40
1.0
 40
1.0
 40
1.0
 10
35.03350107271007
 20
463.6472789462091
 30
0.0
 10
35.03353836791321
 20
463.6471778855304
 30
0.0
 10
35.02970438081289
 20
463.6539455499041
 30
0.0
 10
35.0205719750259
 20
463.6864657021985
 30
0.0
 10
35.02329175746235
 20
463.7035446758123
 30
0.0
 10
35.02400486444336
 20
463.7083845652945
 30
0.0
  0
LINE
  5
25F
330
13A
100
AcDbEntity
  8
DV3_Default
  6
Continuous
 62
     7
100
AcDbLine
 10
26.35
 20
423.9581226658
 30
0.0
 11
26.35
 21
424.148013122
 31
0.0
  0
ENDBLK
  5
261
330
13A
100
AcDbEntity
  8
0
100
AcDbBlockEnd
  0
ENDSEC
  0
SECTION
  2
ENTITIES
  0
INSERT
  5
5F
330
1F
100
AcDbEntity
  8
Default
100
AcDbBlockReference
  2
SEANNOT_GROUP
 10
0.0
 20
0.0
 30
0.0
  0
INSERT
  5
66
330
1F
100
AcDbEntity
  8
Default
100
AcDbBlockReference
  2
SEANNOT_GROUP1
 10
0.0
 20
0.0
 30
0.0
  0
INSERT
  5
6C
330
1F
100
AcDbEntity
  8
Default
100
AcDbBlockReference
  2
SEANNOT_GROUP2
 10
0.0
 20
0.0
 30
0.0
  0
INSERT
  5
76
330
1F
100
AcDbEntity
  8
Default
100
AcDbBlockReference
  2
SE
 10
0.0
 20
0.0
 30
0.0
  0
INSERT
  5
CD
330
1F
100
AcDbEntity
  8
Default
100
AcDbBlockReference
  2
SE1
 10
0.0
 20
0.0
 30
0.0
  0
INSERT
  5
13B
330
1F
100
AcDbEntity
  8
Default
100
AcDbBlockReference
  2
SE2
 10
0.0
 20
0.0
 30
0.0
  0
TEXT
  5
263
330
1F
100
AcDbEntity
  8
Default
  6
Continuous
 62
     7
100
AcDbText
 10
5.9362635081
 20
53.4225120485
 30
0.0
 40
10.0
  1
Grohe AG^J
  7
SEACAD_seiso_ttf
 11
5.9362635081
 21
63.4225120485
 31
0.0
100
AcDbText
 73
     3
  0
TEXT
  5
264
330
1F
100
AcDbEntity
  8
Default
  6
Continuous
 62
     7
100
AcDbText
 10
5.9362635081
 20
37.0588756849
 30
0.0
 40
10.0
  1
 
  7
SEACAD_seiso_ttf
 11
5.9362635081
 21
47.0588756849
 31
0.0
100
AcDbText
 73
     3
  0
TEXT
  5
265
330
1F
100
AcDbEntity
  8
Default
  6
Continuous
 62
     7
100
AcDbText
 10
5.9362635081
 20
20.6952393213
 30
0.0
 40
10.0
  1
ecn:
  7
SEACAD_seiso_ttf
 11
5.9362635081
 21
30.6952393213
 31
0.0
100
AcDbText
 73
     3
  0
TEXT
  5
266
330
1F
100
AcDbEntity
  8
Default
  6
Continuous
 62
     7
100
AcDbText
 10
5.9362635081
 20
4.3316029576
 30
0.0
 40
10.0
  1
unit: mm
  7
SEACAD_seiso_ttf
 11
5.9362635081
 21
14.3316029576
 31
0.0
100
AcDbText
 73
     3
  0
LINE
  5
267
330
1F
100
AcDbEntity
  8
Default
  6
Continuous
 62
     7
100
AcDbLine
 10
0.0
 20
0.0
 30
0.0
 11
100.0
 21
0.0
 31
0.0
  0
LINE
  5
268
330
1F
100
AcDbEntity
  8
Default
  6
Continuous
 62
     7
100
AcDbLine
 10
0.0
 20
0.0
 30
0.0
 11
0.0
 21
100.0
 31
0.0
  0
TEXT
  5
269
330
1F
100
AcDbEntity
  8
Default
  6
Continuous
 62
     7
100
AcDbText
 10
24.3923665681
 20
-18.2375342018
 30
0.0
 40
10.0
  1
100 mm
  7
SEACAD_seiso_ttf
 11
24.3923665681
 21
-8.2375342018
 31
0.0
100
AcDbText
 73
     3
  0
TEXT
  5
26A
330
1F
100
AcDbEntity
  8
Default
  6
Continuous
 62
     7
100
AcDbText
 10
-7.6150308803
 20
24.6231930421
 30
0.0
 40
10.0
  1
100 mm
 50
90.0
  7
SEACAD_seiso_ttf
 11
-17.6150308803
 21
24.6231930421
 31
0.0
100
AcDbText
 73
     3
  0
TEXT
  5
26B
330
1F
100
AcDbEntity
  8
Default
  6
Continuous
 62
     7
100
AcDbText
 10
28.4878128572
 20
20.0907663715
 30
0.0
 40
10.0
  1
230070
  7
SEACAD_seiso_ttf
 11
28.4878128572
 21
30.0907663715
 31
0.0
100
AcDbText
 73
     3
  0
TEXT
  5
26C
330
1F
100
AcDbEntity
  8
Default
  6
Continuous
 62
     7
100
AcDbText
 10
5.9012241913
 20
36.7242780188
 30
0.0
 40
10.0
  1
23425000
  7
SEACAD_seiso_ttf
 11
5.9012241913
 21
46.7242780188
 31
0.0
100
AcDbText
 73
     3
  0
ENDSEC
  0
SECTION
  2
OBJECTS
  0
DICTIONARY
  5
C
330
0
100
AcDbDictionary
281
     1
  3
ACAD_GROUP
350
D
  3
ACAD_LAYOUT
350
1A
  3
ACAD_MLEADERSTYLE
350
270
  3
ACAD_MLINESTYLE
350
17
  3
ACAD_PLOTSETTINGS
350
19
  3
ACAD_PLOTSTYLENAME
350
E
  3
ACAD_SCALELIST
350
3B
  3
ACAD_TABLESTYLE
350
26F
  3
ACAD_VISUALSTYLE
350
2A
  3
AcDbVariableDictionary
350
26D
  0
DICTIONARY
  5
D
102
{ACAD_REACTORS
330
C
102
}
330
C
100
AcDbDictionary
281
     1
  0
DICTIONARY
  5
1A
102
{ACAD_REACTORS
330
C
102
}
330
C
100
AcDbDictionary
281
     1
  3
Layout1
350
1E
  3
Model
350
22
  0
DICTIONARY
  5
270
102
{ACAD_REACTORS
330
C
102
}
330
C
100
AcDbDictionary
281
     1
  0
DICTIONARY
  5
17
102
{ACAD_REACTORS
330
C
102
}
330
C
100
AcDbDictionary
281
     1
  3
Standard
350
18
  0
DICTIONARY
  5
19
102
{ACAD_REACTORS
330
C
102
}
330
C
100
AcDbDictionary
281
     1
  0
ACDBDICTIONARYWDFLT
  5
E
102
{ACAD_REACTORS
330
C
102
}
330
C
100
AcDbDictionary
281
     1
  3
Normal
350
F
100
AcDbDictionaryWithDefault
340
F
  0
DICTIONARY
  5
3B
102
{ACAD_REACTORS
330
C
102
}
330
C
100
AcDbDictionary
281
     1
  3
A0
350
3C
  3
A1
350
3D
  3
A2
350
3E
  3
A3
350
3F
  3
A4
350
40
  3
A5
350
41
  3
A6
350
42
  3
A7
350
43
  3
A8
350
44
  3
A9
350
45
  3
B0
350
46
  3
B1
350
47
  3
B2
350
48
  3
B3
350
49
  3
B4
350
4A
  3
B5
350
4B
  3
B6
350
4C
  3
B7
350
4D
  3
B8
350
4E
  3
B9
350
4F
  3
C0
350
50
  3
C1
350
51
  3
C2
350
52
  3
C3
350
53
  3
C4
350
54
  3
C5
350
55
  3
C6
350
56
  3
C7
350
57
  3
C8
350
58
  3
C9
350
59
  3
D0
350
5A
  3
D1
350
5B
  3
D2
350
5C
  0
DICTIONARY
  5
26F
102
{ACAD_REACTORS
330
C
102
}
330
C
100
AcDbDictionary
281
     1
  0
DICTIONARY
  5
2A
102
{ACAD_REACTORS
330
C
102
}
330
C
100
AcDbDictionary
281
     1
  3
2dWireframe
350
2F
  3
3D Hidden
350
31
  3
3dWireframe
350
30
  3
Basic
350
32
  3
Brighten
350
36
  3
ColorChange
350
3A
  3
Conceptual
350
34
  3
Dim
350
35
  3
Facepattern
350
39
  3
Flat
350
2B
  3
FlatWithEdges
350
2C
  3
Gouraud
350
2D
  3
GouraudWithEdges
350
2E
  3
Linepattern
350
38
  3
Realistic
350
33
  3
Thicken
350
37
  0
DICTIONARY
  5
26D
102
{ACAD_REACTORS
330
C
102
}
330
C
100
AcDbDictionary
281
     1
  3
CANNOSCALE
350
26E
  3
PSOLHEIGHT
350
272
  3
PSOLWIDTH
350
271
  0
LAYOUT
  5
1E
102
{ACAD_REACTORS
330
1A
102
}
330
1A
100
AcDbPlotSettings
  1

  2
none_device
  4

  6

 40
0.0
 41
0.0
 42
0.0
 43
0.0
 44
0.0
 45
0.0
 46
0.0
 47
0.0
 48
0.0
 49
0.0
140
0.0
141
0.0
142
1.0
143
1.0
 70
   688
 72
     0
 73
     0
 74
     5
  7

 75
    16
147
1.0
148
0.0
149
0.0
100
AcDbLayout
  1
Layout1
 70
     1
 71
     1
 10
0.0
 20
0.0
 11
3000.0
 21
4500.0
 12
0.0
 22
0.0
 32
0.0
 14
0.0
 24
0.0
 34
0.0
 15
3000.0
 25
4500.0
 35
0.0
146
0.0
 13
0.0
 23
0.0
 33
0.0
 16
1.0
 26
0.0
 36
0.0
 17
0.0
 27
1.0
 37
0.0
 76
     0
330
1B
  0
LAYOUT
  5
22
102
{ACAD_REACTORS
330
1A
102
}
330
1A
100
AcDbPlotSettings
  1

  2
none_device
  4

  6

 40
0.0
 41
0.0
 42
0.0
 43
0.0
 44
0.0
 45
0.0
 46
0.0
 47
0.0
 48
0.0
 49
0.0
140
0.0
141
0.0
142
1.0
143
1.0
 70
  1712
 72
     0
 73
     0
 74
     0
  7

 75
     0
147
1.0
148
0.0
149
0.0
100
AcDbLayout
  1
Model
 70
     1
 71
     0
 10
0.0
 20
0.0
 11
3000.0
 21
4500.0
 12
0.0
 22
0.0
 32
0.0
 14
0.0
 24
0.0
 34
0.0
 15
3000.0
 25
4500.0
 35
0.0
146
0.0
 13
0.0
 23
0.0
 33
0.0
 16
1.0
 26
0.0
 36
0.0
 17
0.0
 27
1.0
 37
0.0
 76
     0
330
1F
331
29
  0
MLINESTYLE
  5
18
102
{ACAD_REACTORS
330
17
102
}
330
17
100
AcDbMlineStyle
  2
Standard
 70
     0
  3

 62
   256
 51
90.0
 52
90.0
 71
     2
 49
0.5
 62
   256
  6
BYLAYER
 49
-0.5
 62
   256
  6
BYLAYER
  0
ACDBPLACEHOLDER
  5
F
102
{ACAD_REACTORS
330
E
102
}
330
E
  0
SCALE
  5
3C
102
{ACAD_REACTORS
330
3B
102
}
330
3B
100
AcDbScale
 70
     0
300
1:1
140
1.0
141
1.0
290
     1
  0
SCALE
  5
3D
102
{ACAD_REACTORS
330
3B
102
}
330
3B
100
AcDbScale
 70
     0
300
1:2
140
1.0
141
2.0
290
     0
  0
SCALE
  5
3E
102
{ACAD_REACTORS
330
3B
102
}
330
3B
100
AcDbScale
 70
     0
300
1:4
140
1.0
141
4.0
290
     0
  0
SCALE
  5
3F
102
{ACAD_REACTORS
330
3B
102
}
330
3B
100
AcDbScale
 70
     0
300
1:5
140
1.0
141
5.0
290
     0
  0
SCALE
  5
40
102
{ACAD_REACTORS
330
3B
102
}
330
3B
100
AcDbScale
 70
     0
300
1:8
140
1.0
141
8.0
290
     0
  0
SCALE
  5
41
102
{ACAD_REACTORS
330
3B
102
}
330
3B
100
AcDbScale
 70
     0
300
1:10
140
1.0
141
10.0
290
     0
  0
SCALE
  5
42
102
{ACAD_REACTORS
330
3B
102
}
330
3B
100
AcDbScale
 70
     0
300
1:16
140
1.0
141
16.0
290
     0
  0
SCALE
  5
43
102
{ACAD_REACTORS
330
3B
102
}
330
3B
100
AcDbScale
 70
     0
300
1:20
140
1.0
141
20.0
290
     0
  0
SCALE
  5
44
102
{ACAD_REACTORS
330
3B
102
}
330
3B
100
AcDbScale
 70
     0
300
1:30
140
1.0
141
30.0
290
     0
  0
SCALE
  5
45
102
{ACAD_REACTORS
330
3B
102
}
330
3B
100
AcDbScale
 70
     0
300
1:40
140
1.0
141
40.0
290
     0
  0
SCALE
  5
46
102
{ACAD_REACTORS
330
3B
102
}
330
3B
100
AcDbScale
 70
     0
300
1:50
140
1.0
141
50.0
290
     0
  0
SCALE
  5
47
102
{ACAD_REACTORS
330
3B
102
}
330
3B
100
AcDbScale
 70
     0
300
1:100
140
1.0
141
100.0
290
     0
  0
SCALE
  5
48
102
{ACAD_REACTORS
330
3B
102
}
330
3B
100
AcDbScale
 70
     0
300
2:1
140
2.0
141
1.0
290
     0
  0
SCALE
  5
49
102
{ACAD_REACTORS
330
3B
102
}
330
3B
100
AcDbScale
 70
     0
300
4:1
140
4.0
141
1.0
290
     0
  0
SCALE
  5
4A
102
{ACAD_REACTORS
330
3B
102
}
330
3B
100
AcDbScale
 70
     0
300
8:1
140
8.0
141
1.0
290
     0
  0
SCALE
  5
4B
102
{ACAD_REACTORS
330
3B
102
}
330
3B
100
AcDbScale
 70
     0
300
10:1
140
10.0
141
1.0
290
     0
  0
SCALE
  5
4C
102
{ACAD_REACTORS
330
3B
102
}
330
3B
100
AcDbScale
 70
     0
300
100:1
140
100.0
141
1.0
290
     0
  0
SCALE
  5
4D
102
{ACAD_REACTORS
330
3B
102
}
330
3B
100
AcDbScale
 70
     0
300
1/128" = 1'-0"
140
0.0078125
141
12.0
290
     0
  0
SCALE
  5
4E
102
{ACAD_REACTORS
330
3B
102
}
330
3B
100
AcDbScale
 70
     0
300
1/64" = 1'-0"
140
0.015625
141
12.0
290
     0
  0
SCALE
  5
4F
102
{ACAD_REACTORS
330
3B
102
}
330
3B
100
AcDbScale
 70
     0
300
1/32" = 1'-0"
140
0.03125
141
12.0
290
     0
  0
SCALE
  5
50
102
{ACAD_REACTORS
330
3B
102
}
330
3B
100
AcDbScale
 70
     0
300
1/16" = 1'-0"
140
0.0625
141
12.0
290
     0
  0
SCALE
  5
51
102
{ACAD_REACTORS
330
3B
102
}
330
3B
100
AcDbScale
 70
     0
300
3/32" = 1'-0"
140
0.09375
141
12.0
290
     0
  0
SCALE
  5
52
102
{ACAD_REACTORS
330
3B
102
}
330
3B
100
AcDbScale
 70
     0
300
1/8" = 1'-0"
140
0.125
141
12.0
290
     0
  0
SCALE
  5
53
102
{ACAD_REACTORS
330
3B
102
}
330
3B
100
AcDbScale
 70
     0
300
3/16" = 1'-0"
140
0.1875
141
12.0
290
     0
  0
SCALE
  5
54
102
{ACAD_REACTORS
330
3B
102
}
330
3B
100
AcDbScale
 70
     0
300
1/4" = 1'-0"
140
0.25
141
12.0
290
     0
  0
SCALE
  5
55
102
{ACAD_REACTORS
330
3B
102
}
330
3B
100
AcDbScale
 70
     0
300
3/8" = 1'-0"
140
0.375
141
12.0
290
     0
  0
SCALE
  5
56
102
{ACAD_REACTORS
330
3B
102
}
330
3B
100
AcDbScale
 70
     0
300
1/2" = 1'-0"
140
0.5
141
12.0
290
     0
  0
SCALE
  5
57
102
{ACAD_REACTORS
330
3B
102
}
330
3B
100
AcDbScale
 70
     0
300
3/4" = 1'-0"
140
0.75
141
12.0
290
     0
  0
SCALE
  5
58
102
{ACAD_REACTORS
330
3B
102
}
330
3B
100
AcDbScale
 70
     0
300
1" = 1'-0"
140
1.0
141
12.0
290
     0
  0
SCALE
  5
59
102
{ACAD_REACTORS
330
3B
102
}
330
3B
100
AcDbScale
 70
     0
300
1-1/2" = 1'-0"
140
1.5
141
12.0
290
     0
  0
SCALE
  5
5A
102
{ACAD_REACTORS
330
3B
102
}
330
3B
100
AcDbScale
 70
     0
300
3" = 1'-0"
140
3.0
141
12.0
290
     0
  0
SCALE
  5
5B
102
{ACAD_REACTORS
330
3B
102
}
330
3B
100
AcDbScale
 70
     0
300
6" = 1'-0"
140
6.0
141
12.0
290
     0
  0
SCALE
  5
5C
102
{ACAD_REACTORS
330
3B
102
}
330
3B
100
AcDbScale
 70
     0
300
1'-0" = 1'-0"
140
12.0
141
12.0
290
     0
  0
VISUALSTYLE
  5
2F
102
{ACAD_REACTORS
330
2A
102
}
330
2A
100
AcDbVisualStyle
  2
2dWireframe
 70
     4
 71
     0
 72
     2
 73
     0
 90
        0
 40
-0.6
 41
-30.0
 62
     5
 63
     7
 74
     1
 91
        4
 64
     7
 65
   257
 75
     1
175
     1
 42
1.0
 92
        0
 66
   257
 43
1.0
 76
     1
 77
     6
 78
     2
 67
     7
 79
     5
170
     0
171
     0
290
     0
174
     0
 93
        1
 44
0.0
173
     0
291
     0
 45
0.0
1001
ACAD
1000
AcDbSavedByObjectVersion
1070
     0
  0
VISUALSTYLE
  5
31
102
{ACAD_REACTORS
330
2A
102
}
330
2A
100
AcDbVisualStyle
  2
3D Hidden
 70
     6
 71
     1
 72
     2
 73
     2
 90
        0
 40
-0.6
 41
-30.0
 62
     5
 63
     7
 74
     2
 91
        2
 64
     7
 65
   257
 75
     2
175
     1
 42
40.0
 92
        0
 66
   257
 43
1.0
 76
     1
 77
     6
 78
     2
 67
     7
 79
     3
170
     0
171
     0
290
     0
174
     0
 93
        1
 44
0.0
173
     0
291
     0
 45
0.0
1001
ACAD
1000
AcDbSavedByObjectVersion
1070
     0
  0
VISUALSTYLE
  5
30
102
{ACAD_REACTORS
330
2A
102
}
330
2A
100
AcDbVisualStyle
  2
3dWireframe
 70
     5
 71
     0
 72
     2
 73
     0
 90
        0
 40
-0.6
 41
-30.0
 62
     5
 63
     7
 74
     1
 91
        4
 64
     7
 65
   257
 75
     1
175
     1
 42
1.0
 92
        0
 66
   257
 43
1.0
 76
     1
 77
     6
 78
     2
 67
     7
 79
     5
170
     0
171
     0
290
     0
174
     0
 93
        1
 44
0.0
173
     0
291
     0
 45
0.0
1001
ACAD
1000
AcDbSavedByObjectVersion
1070
     0
  0
VISUALSTYLE
  5
32
102
{ACAD_REACTORS
330
2A
102
}
330
2A
100
AcDbVisualStyle
  2
Basic
 70
     7
 71
     1
 72
     0
 73
     1
 90
        0
 40
-0.6
 41
-30.0
 62
     5
 63
     7
 74
     0
 91
        4
 64
     7
 65
   257
 75
     1
175
     1
 42
1.0
 92
        8
 66
     7
 43
1.0
 76
     1
 77
     6
 78
     2
 67
     7
 79
     5
170
     0
171
     0
290
     0
174
     0
 93
        1
 44
0.0
173
     0
291
     1
 45
0.0
1001
ACAD
1000
AcDbSavedByObjectVersion
1070
     0
  0
VISUALSTYLE
  5
36
102
{ACAD_REACTORS
330
2A
102
}
330
2A
100
AcDbVisualStyle
  2
Brighten
 70
    12
 71
     2
 72
     2
 73
     0
 90
        0
 40
-0.6
 41
-30.0
 62
     5
 63
     7
 74
     1
 91
        4
 64
     7
 65
   257
 75
     1
175
     1
 42
1.0
 92
        8
 66
     7
 43
1.0
 76
     1
 77
     6
 78
     2
 67
     7
 79
     5
170
     0
171
     0
290
     0
174
     0
 93
        1
 44
50.0
173
     0
291
     1
 45
0.0
1001
ACAD
1000
AcDbSavedByObjectVersion
1070
     0
  0
VISUALSTYLE
  5
3A
102
{ACAD_REACTORS
330
2A
102
}
330
2A
100
AcDbVisualStyle
  2
ColorChange
 70
    16
 71
     2
 72
     2
 73
     3
 90
        0
 40
-0.6
 41
-30.0
 62
     5
 63
     8
 74
     1
 91
        4
 64
     7
 65
   257
 75
     1
175
     1
 42
1.0
 92
        8
 66
     8
 43
1.0
 76
     1
 77
     6
 78
     2
 67
     7
 79
     5
170
     0
171
     0
290
     0
174
     0
 93
        1
 44
0.0
173
     0
291
     1
 45
0.0
1001
ACAD
1000
AcDbSavedByObjectVersion
1070
     0
  0
VISUALSTYLE
  5
34
102
{ACAD_REACTORS
330
2A
102
}
330
2A
100
AcDbVisualStyle
  2
Conceptual
 70
     9
 71
     3
 72
     2
 73
     0
 90
        0
 40
-0.6
 41
-30.0
 62
     5
 63
     7
 74
     2
 91
        2
 64
     7
 65
   257
 75
     1
175
     1
 42
40.0
 92
        8
 66
     7
 43
1.0
 76
     1
 77
     6
 78
     2
 67
     7
 79
     3
170
     0
171
     0
290
     0
174
     0
 93
        1
 44
0.0
173
     0
291
     0
 45
0.0
1001
ACAD
1000
AcDbSavedByObjectVersion
1070
     0
  0
VISUALSTYLE
  5
35
102
{ACAD_REACTORS
330
2A
102
}
330
2A
100
AcDbVisualStyle
  2
Dim
 70
    11
 71
     2
 72
     2
 73
     0
 90
        0
 40
-0.6
 41
-30.0
 62
     5
 63
     7
 74
     1
 91
        4
 64
     7
 65
   257
 75
     1
175
     1
 42
1.0
 92
        8
 66
     7
 43
1.0
 76
     1
 77
     6
 78
     2
 67
     7
 79
     5
170
     0
171
     0
290
     0
174
     0
 93
        1
 44
-50.0
173
     0
291
     1
 45
0.0
1001
ACAD
1000
AcDbSavedByObjectVersion
1070
     0
  0
VISUALSTYLE
  5
39
102
{ACAD_REACTORS
330
2A
102
}
330
2A
100
AcDbVisualStyle
  2
Facepattern
 70
    15
 71
     2
 72
     2
 73
     0
 90
        0
 40
-0.6
 41
-30.0
 62
     5
 63
     7
 74
     1
 91
        4
 64
     7
 65
   257
 75
     1
175
     1
 42
1.0
 92
        8
 66
     7
 43
1.0
 76
     1
 77
     6
 78
     2
 67
     7
 79
     5
170
     0
171
     0
290
     0
174
     0
 93
        1
 44
0.0
173
     0
291
     1
 45
0.0
1001
ACAD
1000
AcDbSavedByObjectVersion
1070
     0
  0
VISUALSTYLE
  5
2B
102
{ACAD_REACTORS
330
2A
102
}
330
2A
100
AcDbVisualStyle
  2
Flat
 70
     0
 71
     2
 72
     1
 73
     1
 90
        2
 40
-0.6
 41
30.0
 62
     5
 63
     7
 74
     0
 91
        4
 64
     7
 65
   257
 75
     1
175
     1
 42
1.0
 92
        8
 66
     7
 43
1.0
 76
     1
 77
     6
 78
     2
 67
     7
 79
     5
170
     0
171
     0
290
     0
174
     0
 93
       13
 44
0.0
173
     0
291
     1
 45
0.0
1001
ACAD
1000
AcDbSavedByObjectVersion
1070
     0
  0
VISUALSTYLE
  5
2C
102
{ACAD_REACTORS
330
2A
102
}
330
2A
100
AcDbVisualStyle
  2
FlatWithEdges
 70
     1
 71
     2
 72
     1
 73
     1
 90
        2
 40
-0.6
 41
30.0
 62
     5
 63
     7
 74
     1
 91
        4
 64
     7
 65
   257
 75
     1
175
     1
 42
1.0
 92
        0
 66
   257
 43
1.0
 76
     1
 77
     6
 78
     2
 67
     7
 79
     5
170
     0
171
     0
290
     0
174
     0
 93
       13
 44
0.0
173
     0
291
     1
 45
0.0
1001
ACAD
1000
AcDbSavedByObjectVersion
1070
     0
  0
VISUALSTYLE
  5
2D
102
{ACAD_REACTORS
330
2A
102
}
330
2A
100
AcDbVisualStyle
  2
Gouraud
 70
     2
 71
     2
 72
     2
 73
     1
 90
        2
 40
-0.6
 41
30.0
 62
     5
 63
     7
 74
     0
 91
        4
 64
     7
 65
   257
 75
     1
175
     1
 42
1.0
 92
        0
 66
     7
 43
1.0
 76
     1
 77
     6
 78
     2
 67
     7
 79
     5
170
     0
171
     0
290
     0
174
     0
 93
       13
 44
0.0
173
     0
291
     1
 45
0.0
1001
ACAD
1000
AcDbSavedByObjectVersion
1070
     0
  0
VISUALSTYLE
  5
2E
102
{ACAD_REACTORS
330
2A
102
}
330
2A
100
AcDbVisualStyle
  2
GouraudWithEdges
 70
     3
 71
     2
 72
     2
 73
     1
 90
        2
 40
-0.6
 41
30.0
 62
     5
 63
     7
 74
     1
 91
        4
 64
     7
 65
   257
 75
     1
175
     1
 42
1.0
 92
        0
 66
   257
 43
1.0
 76
     1
 77
     6
 78
     2
 67
     7
 79
     5
170
     0
171
     0
290
     0
174
     0
 93
       13
 44
0.0
173
     0
291
     1
 45
0.0
1001
ACAD
1000
AcDbSavedByObjectVersion
1070
     0
  0
VISUALSTYLE
  5
38
102
{ACAD_REACTORS
330
2A
102
}
330
2A
100
AcDbVisualStyle
  2
Linepattern
 70
    14
 71
     2
 72
     2
 73
     0
 90
        0
 40
-0.6
 41
-30.0
 62
     5
 63
     7
 74
     1
 91
        4
 64
     7
 65
   257
 75
     7
175
     7
 42
1.0
 92
        8
 66
     7
 43
1.0
 76
     1
 77
     6
 78
     2
 67
     7
 79
     5
170
     0
171
     0
290
     0
174
     0
 93
        1
 44
0.0
173
     0
291
     1
 45
0.0
1001
ACAD
1000
AcDbSavedByObjectVersion
1070
     0
  0
VISUALSTYLE
  5
33
102
{ACAD_REACTORS
330
2A
102
}
330
2A
100
AcDbVisualStyle
  2
Realistic
 70
     8
 71
     2
 72
     2
 73
     0
 90
        0
 40
-0.6
 41
-30.0
 62
     5
 63
     7
 74
     1
 91
        0
 64
     7
 65
   257
 75
     1
175
     1
 42
1.0
 92
        8
 66
     8
 43
1.0
 76
     1
 77
     6
 78
     2
 67
     7
 79
     5
170
     0
171
     0
290
     0
174
     0
 93
       13
 44
0.0
173
     0
291
     0
 45
0.0
1001
ACAD
1000
AcDbSavedByObjectVersion
1070
     0
  0
VISUALSTYLE
  5
37
102
{ACAD_REACTORS
330
2A
102
}
330
2A
100
AcDbVisualStyle
  2
Thicken
 70
    13
 71
     2
 72
     2
 73
     0
 90
        0
 40
-0.6
 41
-30.0
 62
     5
 63
     7
 74
     1
 91
        4
 64
     7
 65
   257
 75
     1
175
     1
 42
1.0
 92
       12
 66
     7
 43
1.0
 76
     1
 77
     6
 78
     2
 67
     7
 79
     5
170
     0
171
     0
290
     0
174
     0
 93
        1
 44
0.0
173
     0
291
     1
 45
0.0
1001
ACAD
1000
AcDbSavedByObjectVersion
1070
     0
  0
DICTIONARYVAR
  5
26E
102
{ACAD_REACTORS
330
26D
102
}
330
26D
100
DictionaryVariables
280
     0
  1
1:1
  0
DICTIONARYVAR
  5
272
102
{ACAD_REACTORS
330
26D
102
}
330
26D
100
DictionaryVariables
280
     0
  1
80.000000
  0
DICTIONARYVAR
  5
271
102
{ACAD_REACTORS
330
26D
102
}
330
26D
100
DictionaryVariables
280
     0
  1
5.000000
  0
ENDSEC
  0
EOF
