  0
SECTION
  2
HEADER
  9
$ACADVER
  1
AC1015
  9
$ACADMAINTVER
 70
     6
  9
$DWGCODEPAGE
  3
ANSI_1252
  9
$INSBASE
 10
0.0
 20
0.0
 30
0.0
  9
$EXTMIN
 10
0.0
 20
0.0
 30
0.0
  9
$EXTMAX
 10
3000.0
 20
4500.0
 30
0.0
  9
$LIMMIN
 10
0.0
 20
0.0
  9
$LIMMAX
 10
3000.0
 20
4500.0
  9
$ORTHOMODE
 70
     0
  9
$REGENMODE
 70
     1
  9
$FILLMODE
 70
     1
  9
$QTEXTMODE
 70
     0
  9
$MIRRTEXT
 70
     1
  9
$LTSCALE
 40
1.0
  9
$ATTMODE
 70
     1
  9
$TEXTSIZE
 40
2.5
  9
$TRACEWID
 40
1.0
  9
$TEXTSTYLE
  7
Standard
  9
$CLAYER
  8
0
  9
$CELTYPE
  6
ByLayer
  9
$CECOLOR
 62
   256
  9
$CELTSCALE
 40
1.0
  9
$DISPSILH
 70
     0
  9
$DIMSCALE
 40
1.0
  9
$DIMASZ
 40
2.5
  9
$DIMEXO
 40
0.625
  9
$DIMDLI
 40
3.75
  9
$DIMRND
 40
0.0
  9
$DIMDLE
 40
0.0
  9
$DIMEXE
 40
1.25
  9
$DIMTP
 40
0.0
  9
$DIMTM
 40
0.0
  9
$DIMTXT
 40
2.5
  9
$DIMCEN
 40
2.5
  9
$DIMTSZ
 40
0.0
  9
$DIMTOL
 70
     0
  9
$DIMLIM
 70
     0
  9
$DIMTIH
 70
     0
  9
$DIMTOH
 70
     0
  9
$DIMSE1
 70
     0
  9
$DIMSE2
 70
     0
  9
$DIMTAD
 70
     1
  9
$DIMZIN
 70
     8
  9
$DIMBLK
  1

  9
$DIMASO
 70
     1
  9
$DIMSHO
 70
     1
  9
$DIMPOST
  1

  9
$DIMAPOST
  1

  9
$DIMALT
 70
     0
  9
$DIMALTD
 70
     3
  9
$DIMALTF
 40
0.0393700787
  9
$DIMLFAC
 40
1.0
  9
$DIMTOFL
 70
     1
  9
$DIMTVP
 40
0.0
  9
$DIMTIX
 70
     0
  9
$DIMSOXD
 70
     0
  9
$DIMSAH
 70
     0
  9
$DIMBLK1
  1

  9
$DIMBLK2
  1

  9
$DIMSTYLE
  2
ISO-25
  9
$DIMCLRD
 70
     0
  9
$DIMCLRE
 70
     0
  9
$DIMCLRT
 70
     0
  9
$DIMTFAC
 40
1.0
  9
$DIMGAP
 40
0.625
  9
$DIMJUST
 70
     0
  9
$DIMSD1
 70
     0
  9
$DIMSD2
 70
     0
  9
$DIMTOLJ
 70
     0
  9
$DIMTZIN
 70
     8
  9
$DIMALTZ
 70
     0
  9
$DIMALTTZ
 70
     0
  9
$DIMUPT
 70
     0
  9
$DIMDEC
 70
     2
  9
$DIMTDEC
 70
     2
  9
$DIMALTU
 70
     2
  9
$DIMALTTD
 70
     3
  9
$DIMTXSTY
  7
Standard
  9
$DIMAUNIT
 70
     0
  9
$DIMADEC
 70
     0
  9
$DIMALTRND
 40
0.0
  9
$DIMAZIN
 70
     0
  9
$DIMDSEP
 70
    44
  9
$DIMATFIT
 70
     3
  9
$DIMFRAC
 70
     0
  9
$DIMLDRBLK
  1

  9
$DIMLUNIT
 70
     2
  9
$DIMLWD
 70
    -2
  9
$DIMLWE
 70
    -2
  9
$DIMTMOVE
 70
     0
  9
$LUNITS
 70
     2
  9
$LUPREC
 70
     4
  9
$SKETCHINC
 40
1.0
  9
$FILLETRAD
 40
10.0
  9
$AUNITS
 70
     0
  9
$AUPREC
 70
     0
  9
$MENU
  1
.
  9
$ELEVATION
 40
0.0
  9
$PELEVATION
 40
0.0
  9
$THICKNESS
 40
0.0
  9
$LIMCHECK
 70
     0
  9
$CHAMFERA
 40
10.0
  9
$CHAMFERB
 40
10.0
  9
$CHAMFERC
 40
20.0
  9
$CHAMFERD
 40
0.0
  9
$SKPOLY
 70
     0
  9
$TDCREATE
 40
2456765.537587373
  9
$TDUCREATE
 40
2456765.45425404
  9
$TDUPDATE
 40
2456765.537587384
  9
$TDUUPDATE
 40
2456765.454254051
  9
$TDINDWG
 40
0.0000000116
  9
$TDUSRTIMER
 40
0.0000000116
  9
$USRTIMER
 70
     1
  9
$ANGBASE
 50
0.0
  9
$ANGDIR
 70
     0
  9
$PDMODE
 70
     0
  9
$PDSIZE
 40
0.0
  9
$PLINEWID
 40
0.0
  9
$SPLFRAME
 70
     0
  9
$SPLINETYPE
 70
     6
  9
$SPLINESEGS
 70
     8
  9
$HANDSEED
  5
117
  9
$SURFTAB1
 70
     6
  9
$SURFTAB2
 70
     6
  9
$SURFTYPE
 70
     6
  9
$SURFU
 70
     6
  9
$SURFV
 70
     6
  9
$UCSBASE
  2

  9
$UCSNAME
  2

  9
$UCSORG
 10
0.0
 20
0.0
 30
0.0
  9
$UCSXDIR
 10
1.0
 20
0.0
 30
0.0
  9
$UCSYDIR
 10
0.0
 20
1.0
 30
0.0
  9
$UCSORTHOREF
  2

  9
$UCSORTHOVIEW
 70
     0
  9
$UCSORGTOP
 10
0.0
 20
0.0
 30
0.0
  9
$UCSORGBOTTOM
 10
0.0
 20
0.0
 30
0.0
  9
$UCSORGLEFT
 10
0.0
 20
0.0
 30
0.0
  9
$UCSORGRIGHT
 10
0.0
 20
0.0
 30
0.0
  9
$UCSORGFRONT
 10
0.0
 20
0.0
 30
0.0
  9
$UCSORGBACK
 10
0.0
 20
0.0
 30
0.0
  9
$PUCSBASE
  2

  9
$PUCSNAME
  2

  9
$PUCSORG
 10
0.0
 20
0.0
 30
0.0
  9
$PUCSXDIR
 10
1.0
 20
0.0
 30
0.0
  9
$PUCSYDIR
 10
0.0
 20
1.0
 30
0.0
  9
$PUCSORTHOREF
  2

  9
$PUCSORTHOVIEW
 70
     0
  9
$PUCSORGTOP
 10
0.0
 20
0.0
 30
0.0
  9
$PUCSORGBOTTOM
 10
0.0
 20
0.0
 30
0.0
  9
$PUCSORGLEFT
 10
0.0
 20
0.0
 30
0.0
  9
$PUCSORGRIGHT
 10
0.0
 20
0.0
 30
0.0
  9
$PUCSORGFRONT
 10
0.0
 20
0.0
 30
0.0
  9
$PUCSORGBACK
 10
0.0
 20
0.0
 30
0.0
  9
$USERI1
 70
     0
  9
$USERI2
 70
     0
  9
$USERI3
 70
     0
  9
$USERI4
 70
     0
  9
$USERI5
 70
     0
  9
$USERR1
 40
0.0
  9
$USERR2
 40
0.0
  9
$USERR3
 40
0.0
  9
$USERR4
 40
0.0
  9
$USERR5
 40
0.0
  9
$WORLDVIEW
 70
     1
  9
$SHADEDGE
 70
     3
  9
$SHADEDIF
 70
    70
  9
$TILEMODE
 70
     1
  9
$MAXACTVP
 70
    64
  9
$PINSBASE
 10
0.0
 20
0.0
 30
0.0
  9
$PLIMCHECK
 70
     0
  9
$PEXTMIN
 10
0.0
 20
0.0
 30
0.0
  9
$PEXTMAX
 10
3000.0
 20
4500.0
 30
0.0
  9
$PLIMMIN
 10
0.0
 20
0.0
  9
$PLIMMAX
 10
3000.0
 20
4500.0
  9
$UNITMODE
 70
     0
  9
$VISRETAIN
 70
     1
  9
$PLINEGEN
 70
     0
  9
$PSLTSCALE
 70
     1
  9
$TREEDEPTH
 70
  3020
  9
$CMLSTYLE
  2
Standard
  9
$CMLJUST
 70
     0
  9
$CMLSCALE
 40
20.0
  9
$PROXYGRAPHICS
 70
     1
  9
$MEASUREMENT
 70
     1
  9
$CELWEIGHT
370
    -1
  9
$ENDCAPS
280
     0
  9
$JOINSTYLE
280
     0
  9
$LWDISPLAY
290
     0
  9
$INSUNITS
 70
     4
  9
$HYPERLINKBASE
  1

  9
$STYLESHEET
  1

  9
$XEDIT
290
     1
  9
$CEPSNTYPE
380
     0
  9
$PSTYLEMODE
290
     1
  9
$FINGERPRINTGUID
  2
{87FEB1C9-75D4-4B32-A504-17322B3E1161}
  9
$VERSIONGUID
  2
{FAEB1C32-E019-11D5-929B-00C0DF256EC4}
  9
$EXTNAMES
290
     1
  9
$PSVPSCALE
 40
0.0
  9
$OLESTARTUP
290
     0
  0
ENDSEC
  0
SECTION
  2
CLASSES
  0
CLASS
  1
ACDBDICTIONARYWDFLT
  2
AcDbDictionaryWithDefault
  3
ObjectDBX Classes
 90
        0
280
     0
281
     0
  0
CLASS
  1
VISUALSTYLE
  2
AcDbVisualStyle
  3
ObjectDBX Classes
 90
     4095
280
     0
281
     0
  0
CLASS
  1
SCALE
  2
AcDbScale
  3
ObjectDBX Classes
 90
     1153
280
     0
281
     0
  0
CLASS
  1
DICTIONARYVAR
  2
AcDbDictionaryVar
  3
ObjectDBX Classes
 90
        0
280
     0
281
     0
  0
CLASS
  1
ACDBPLACEHOLDER
  2
AcDbPlaceHolder
  3
ObjectDBX Classes
 90
        0
280
     0
281
     0
  0
CLASS
  1
LAYOUT
  2
AcDbLayout
  3
ObjectDBX Classes
 90
        0
280
     0
281
     0
  0
ENDSEC
  0
SECTION
  2
TABLES
  0
TABLE
  2
VPORT
  5
8
330
0
100
AcDbSymbolTable
 70
     1
  0
VPORT
  5
29
330
8
100
AcDbSymbolTableRecord
100
AcDbViewportTableRecord
  2
*Active
 70
     0
 10
0.0
 20
0.0
 11
1.0
 21
1.0
 12
344.1869158879
 22
148.5
 13
0.0
 23
0.0
 14
10.0
 24
10.0
 15
10.0
 25
10.0
 16
0.0
 26
0.0
 36
1.0
 17
0.0
 27
0.0
 37
0.0
 40
297.0
 41
1.9729729729
 42
50.0
 43
0.0
 44
0.0
 50
0.0
 51
0.0
 71
     0
 72
   100
 73
     1
 74
     3
 75
     0
 76
     0
 77
     0
 78
     0
281
     0
 65
     1
110
0.0
120
0.0
130
0.0
111
1.0
121
0.0
131
0.0
112
0.0
122
1.0
132
0.0
 79
     0
146
0.0
  0
ENDTAB
  0
TABLE
  2
LTYPE
  5
5
330
0
100
AcDbSymbolTable
 70
     2
  0
LTYPE
  5
14
330
5
100
AcDbSymbolTableRecord
100
AcDbLinetypeTableRecord
  2
ByBlock
 70
     0
  3

 72
    65
 73
     0
 40
0.0
  0
LTYPE
  5
15
330
5
100
AcDbSymbolTableRecord
100
AcDbLinetypeTableRecord
  2
ByLayer
 70
     0
  3

 72
    65
 73
     0
 40
0.0
  0
LTYPE
  5
16
330
5
100
AcDbSymbolTableRecord
100
AcDbLinetypeTableRecord
  2
Continuous
 70
     0
  3
Solid line
 72
    65
 73
     0
 40
0.0
  0
LTYPE
  5
60
330
5
100
AcDbSymbolTableRecord
100
AcDbLinetypeTableRecord
  2
CENTER2
 70
     0
  3
Center (.5x) ___ _ ___ _ ___ _ ___ _ ___ _ ___
 72
    65
 73
     4
 40
28.575
 49
19.05
 74
     4
 75
     0
340
0
 46
0.0
 50
0.0
 44
0.0
 45
0.0
 49
-3.175
 74
     4
 75
     0
340
0
 46
0.0
 50
0.0
 44
0.0
 45
0.0
 49
3.175
 74
     4
 75
     0
340
0
 46
0.0
 50
0.0
 44
0.0
 45
0.0
 49
-3.175
 74
     4
 75
     0
340
0
 46
0.0
 50
0.0
 44
0.0
 45
0.0
  0
ENDTAB
  0
TABLE
  2
LAYER
  5
2
330
0
100
AcDbSymbolTable
 70
     8
  0
LAYER
  5
10
330
2
100
AcDbSymbolTableRecord
100
AcDbLayerTableRecord
  2
0
 70
     0
 62
     7
  6
Continuous
370
    -3
390
F
  0
LAYER
  5
5D
330
2
100
AcDbSymbolTableRecord
100
AcDbLayerTableRecord
  2
Default
 70
     0
 62
     7
  6
Continuous
370
    -3
390
F
  0
LAYER
  5
79
330
2
100
AcDbSymbolTableRecord
100
AcDbLayerTableRecord
  2
$DDT_AUDIT_GENERATED_(79)
 70
     0
 62
     7
  6
Continuous
370
    -3
390
F
  0
LAYER
  5
87
330
2
100
AcDbSymbolTableRecord
100
AcDbLayerTableRecord
  2
$DDT_AUDIT_GENERATED_(87)
 70
     0
 62
     7
  6
Continuous
370
    -3
390
F
  0
LAYER
  5
8F
330
2
100
AcDbSymbolTableRecord
100
AcDbLayerTableRecord
  2
$DDT_AUDIT_GENERATED_(8F)
 70
     0
 62
     7
  6
Continuous
370
    -3
390
F
  0
LAYER
  5
9C
330
2
100
AcDbSymbolTableRecord
100
AcDbLayerTableRecord
  2
$DDT_AUDIT_GENERATED_(9C)
 70
     0
 62
     7
  6
Continuous
370
    -3
390
F
  0
LAYER
  5
A2
330
2
100
AcDbSymbolTableRecord
100
AcDbLayerTableRecord
  2
$DDT_AUDIT_GENERATED_(A2)
 70
     0
 62
     7
  6
Continuous
370
    -3
390
F
  0
LAYER
  5
BA
330
2
100
AcDbSymbolTableRecord
100
AcDbLayerTableRecord
  2
$DDT_AUDIT_GENERATED_(BA)
 70
     0
 62
     7
  6
Continuous
370
    -3
390
F
  0
ENDTAB
  0
TABLE
  2
STYLE
  5
3
330
0
100
AcDbSymbolTable
 70
     2
  0
STYLE
  5
11
330
3
100
AcDbSymbolTableRecord
100
AcDbTextStyleTableRecord
  2
Standard
 70
     0
 40
0.0
 41
1.0
 50
0.0
 71
     0
 42
2.5
  3
txt
  4

  0
STYLE
  5
106
330
3
100
AcDbSymbolTableRecord
100
AcDbTextStyleTableRecord
  2
SEACAD_seiso_ttf
 70
     0
 40
0.0
 41
1.0
 50
0.0
 71
     0
 42
0.2
  3
seiso.ttf
  4

  0
ENDTAB
  0
TABLE
  2
VIEW
  5
6
330
0
100
AcDbSymbolTable
 70
     0
  0
ENDTAB
  0
TABLE
  2
UCS
  5
7
330
0
100
AcDbSymbolTable
 70
     0
  0
ENDTAB
  0
TABLE
  2
APPID
  5
9
330
0
100
AcDbSymbolTable
 70
     1
  0
APPID
  5
12
330
9
100
AcDbSymbolTableRecord
100
AcDbRegAppTableRecord
  2
ACAD
 70
     0
  0
ENDTAB
  0
TABLE
  2
DIMSTYLE
  5
A
330
0
100
AcDbSymbolTable
 70
     1
100
AcDbDimStyleTable
  0
DIMSTYLE
105
27
330
A
100
AcDbSymbolTableRecord
100
AcDbDimStyleTableRecord
  2
ISO-25
 70
     0
 41
2.5
 42
0.625
 43
3.75
 44
1.25
 73
     0
 74
     0
 77
     1
 78
     8
140
2.5
141
2.5
143
0.0393700787
147
0.625
171
     3
172
     1
271
     2
272
     2
274
     3
278
    44
283
     0
284
     8
340
11
  0
ENDTAB
  0
TABLE
  2
BLOCK_RECORD
  5
1
330
0
100
AcDbSymbolTable
 70
     7
  0
BLOCK_RECORD
  5
1F
330
1
100
AcDbSymbolTableRecord
100
AcDbBlockTableRecord
  2
*Model_Space
340
22
  0
BLOCK_RECORD
  5
1B
330
1
100
AcDbSymbolTableRecord
100
AcDbBlockTableRecord
  2
*Paper_Space
340
1E
  0
BLOCK_RECORD
  5
5E
330
1
100
AcDbSymbolTableRecord
100
AcDbBlockTableRecord
  2
SEANNOT_GROUP
340
0
102
{BLKREFS
331
5F
102
}
  0
BLOCK_RECORD
  5
6A
330
1
100
AcDbSymbolTableRecord
100
AcDbBlockTableRecord
  2
SEANNOT_GROUP1
340
0
102
{BLKREFS
331
6B
102
}
  0
BLOCK_RECORD
  5
71
330
1
100
AcDbSymbolTableRecord
100
AcDbBlockTableRecord
  2
SEANNOT_GROUP2
340
0
102
{BLKREFS
331
72
102
}
  0
BLOCK_RECORD
  5
77
330
1
100
AcDbSymbolTableRecord
100
AcDbBlockTableRecord
  2
SE
340
0
102
{BLKREFS
331
78
102
}
  0
BLOCK_RECORD
  5
8D
330
1
100
AcDbSymbolTableRecord
100
AcDbBlockTableRecord
  2
SE1
340
0
102
{BLKREFS
331
8E
102
}
  0
BLOCK_RECORD
  5
D0
330
1
100
AcDbSymbolTableRecord
100
AcDbBlockTableRecord
  2
SE2
340
0
102
{BLKREFS
331
D1
102
}
  0
ENDTAB
  0
ENDSEC
  0
SECTION
  2
BLOCKS
  0
BLOCK
  5
20
330
1F
100
AcDbEntity
  8
0
100
AcDbBlockBegin
  2
*Model_Space
 70
     0
 10
0.0
 20
0.0
 30
0.0
  3
*Model_Space
  1

  0
ENDBLK
  5
21
330
1F
100
AcDbEntity
  8
0
100
AcDbBlockEnd
  0
BLOCK
  5
1C
330
1B
100
AcDbEntity
 67
     1
  8
0
100
AcDbBlockBegin
  2
*Paper_Space
 70
     0
 10
0.0
 20
0.0
 30
0.0
  3
*Paper_Space
  1

  0
ENDBLK
  5
1D
330
1B
100
AcDbEntity
 67
     1
  8
0
100
AcDbBlockEnd
  0
BLOCK
  5
67
330
5E
100
AcDbEntity
  8
0
100
AcDbBlockBegin
  2
SEANNOT_GROUP
 70
     0
 10
0.0
 20
0.0
 30
0.0
  3
SEANNOT_GROUP
  1

  0
LINE
  5
61
330
5E
100
AcDbEntity
  8
Default
  6
CENTER2
 62
     7
100
AcDbLine
 10
128.1109643077
 20
328.7321446677
 30
0.0
 11
88.1109652018
 21
328.7321446677
 31
0.0
  0
LINE
  5
62
330
5E
100
AcDbEntity
  8
Default
  6
CENTER2
 62
     7
100
AcDbLine
 10
108.1109647548
 20
348.7321442207
 30
0.0
 11
108.1109647548
 21
308.7321451148
 31
0.0
  0
LINE
  5
63
330
5E
100
AcDbEntity
  8
Default
  6
CENTER2
 62
     7
100
AcDbLine
 10
133.110964196
 20
328.7321446677
 30
0.0
 11
138.5911141842
 21
328.7321446677
 31
0.0
  0
LINE
  5
64
330
5E
100
AcDbEntity
  8
Default
  6
CENTER2
 62
     7
100
AcDbLine
 10
108.1109647548
 20
353.7321441089
 30
0.0
 11
108.1109647548
 21
359.2122940971
 31
0.0
  0
LINE
  5
65
330
5E
100
AcDbEntity
  8
Default
  6
CENTER2
 62
     7
100
AcDbLine
 10
83.1109653135
 20
328.7321446677
 30
0.0
 11
77.6308153253
 21
328.7321446677
 31
0.0
  0
LINE
  5
66
330
5E
100
AcDbEntity
  8
Default
  6
CENTER2
 62
     7
100
AcDbLine
 10
108.1109647548
 20
303.7321452265
 30
0.0
 11
108.1109647548
 21
298.2519952383
 31
0.0
  0
ENDBLK
  5
68
330
5E
100
AcDbEntity
  8
0
100
AcDbBlockEnd
  0
BLOCK
  5
6E
330
6A
100
AcDbEntity
  8
0
100
AcDbBlockBegin
  2
SEANNOT_GROUP1
 70
     0
 10
0.0
 20
0.0
 30
0.0
  3
SEANNOT_GROUP1
  1

  0
LINE
  5
6C
330
6A
100
AcDbEntity
  8
Default
  6
CENTER2
 62
     7
100
AcDbLine
 10
308.8822253439
 20
328.3349374833
 30
0.0
 11
268.882226238
 21
328.3349374833
 31
0.0
  0
LINE
  5
6D
330
6A
100
AcDbEntity
  8
Default
  6
CENTER2
 62
     7
100
AcDbLine
 10
288.882225791
 20
348.3349370363
 30
0.0
 11
288.882225791
 21
308.3349379304
 31
0.0
  0
ENDBLK
  5
6F
330
6A
100
AcDbEntity
  8
0
100
AcDbBlockEnd
  0
BLOCK
  5
75
330
71
100
AcDbEntity
  8
0
100
AcDbBlockBegin
  2
SEANNOT_GROUP2
 70
     0
 10
0.0
 20
0.0
 30
0.0
  3
SEANNOT_GROUP2
  1

  0
LINE
  5
73
330
71
100
AcDbEntity
  8
Default
  6
CENTER2
 62
     7
100
AcDbLine
 10
128.1092370508
 20
181.7749644991
 30
0.0
 11
88.1092379448
 21
181.7749644991
 31
0.0
  0
LINE
  5
74
330
71
100
AcDbEntity
  8
Default
  6
CENTER2
 62
     7
100
AcDbLine
 10
108.1092374978
 20
201.7749640521
 30
0.0
 11
108.1092374978
 21
161.7749649462
 31
0.0
  0
ENDBLK
  5
76
330
71
100
AcDbEntity
  8
0
100
AcDbBlockEnd
  0
BLOCK
  5
8B
330
77
100
AcDbEntity
  8
0
100
AcDbBlockBegin
  2
SE
 70
     0
 10
0.0
 20
0.0
 30
0.0
  3
SE
  1

  0
SPLINE
  5
7A
330
77
100
AcDbEntity
  8
$DDT_AUDIT_GENERATED_(79)
  6
Continuous
 62
     7
100
AcDbSpline
210
0.0
220
0.0
230
1.0
 70
     8
 71
     3
 72
     9
 73
     5
 74
     0
 42
0.0000000001067548
 43
0.0000000001
 40
0.1878377233297171
 40
0.1878377233297171
 40
0.1878377233297171
 40
0.1878377233297171
 40
0.1936904612479695
 40
0.199076709463082
 40
0.199076709463082
 40
0.199076709463082
 40
0.199076709463082
 10
129.7822271042494
 20
312.1473715026118
 30
0.0
 10
129.7228057916921
 20
311.9748471875092
 30
0.0
 10
129.6083890010641
 20
311.6433638787212
 30
0.0
 10
129.4935234229571
 20
311.3114722152833
 30
0.0
 10
129.4383827726439
 20
311.1523202055104
 30
0.0
  0
SPLINE
  5
7B
330
77
100
AcDbEntity
  8
$DDT_AUDIT_GENERATED_(79)
  6
Continuous
 62
     7
100
AcDbSpline
210
0.0
220
0.0
230
1.0
 70
     8
 71
     3
 72
     9
 73
     5
 74
     0
 42
0.0000000001067146
 43
0.0000000001
 40
0.8016099765661083
 40
0.8016099765661083
 40
0.8016099765661083
 40
0.8016099765661083
 40
0.8076395151091805
 40
0.8104623432216751
 40
0.8104623432216751
 40
0.8104623432216751
 40
0.8104623432216751
 10
86.86330639710103
 20
311.2355316054433
 30
0.0
 10
86.8014779301965
 20
311.4136280558063
 30
0.0
 10
86.71083135256164
 20
311.6749582886684
 30
0.0
 10
86.62041299133743
 20
311.9360709719728
 30
0.0
 10
86.59160948892158
 20
312.0193122741672
 30
0.0
  0
ARC
  5
7C
330
77
100
AcDbEntity
  8
$DDT_AUDIT_GENERATED_(79)
  6
Continuous
 62
     7
100
AcDbCircle
 10
108.1109645988
 20
328.7936676651
 30
0.0
 40
26.98018713736107
100
AcDbArc
 50
180.1005882068
 51
213.9053186104
  0
ARC
  5
7D
330
77
100
AcDbEntity
  8
$DDT_AUDIT_GENERATED_(79)
  6
Continuous
 62
     7
100
AcDbCircle
 10
108.1109645988
 20
328.7936676651
 30
0.0
 40
26.98018713736107
100
AcDbArc
 50
324.4867388812
 51
359.8997023436
  0
ARC
  5
7E
330
77
100
AcDbEntity
  8
$DDT_AUDIT_GENERATED_(79)
  6
Continuous
 62
     7
100
AcDbCircle
 10
108.1109647548
 20
328.7321446677
 30
0.0
 40
26.98014942942523
100
AcDbArc
 50
0.0303541675
 51
179.969936383
  0
SPLINE
  5
7F
330
77
100
AcDbEntity
  8
$DDT_AUDIT_GENERATED_(79)
  6
Continuous
 62
     7
100
AcDbSpline
210
0.0
220
0.0
230
1.0
 70
     8
 71
     3
 72
    13
 73
     9
 74
     0
 42
0.0000000009115662
 43
0.0000000001
 40
0.0
 40
0.0
 40
0.0
 40
0.0
 40
0.0033604038773863
 40
0.0235882515642917
 40
0.0497483476416083
 40
0.070757240221403
 40
0.0895092408369774
 40
0.0971629647158114
 40
0.0971629647158114
 40
0.0971629647158114
 40
0.0971629647158114
 10
129.7796512878441
 20
312.140595077334
 30
0.0
 10
129.7796911382418
 20
312.1393076822925
 30
0.0
 10
129.7800961190184
 20
312.1320669870989
 30
0.0
 10
129.8351794998723
 20
312.2858214800571
 30
0.0
 10
129.9367639328141
 20
312.5843163322117
 30
0.0
 10
130.0568847950387
 20
312.9245461948472
 30
0.0
 10
130.1301992663121
 20
313.1140202102019
 30
0.0
 10
130.1340063634761
 20
313.1261646547599
 30
0.0
 10
130.1330169194511
 20
313.1244073472009
 30
0.0
  0
SPLINE
  5
80
330
77
100
AcDbEntity
  8
$DDT_AUDIT_GENERATED_(79)
  6
Continuous
 62
     7
100
AcDbSpline
210
0.0
220
0.0
230
1.0
 70
     8
 71
     3
 72
    14
 73
    10
 74
     0
 42
0.0000000013533813
 43
0.0000000001
 40
0.1575696616060223
 40
0.1575696616060223
 40
0.1575696616060223
 40
0.1575696616060223
 40
0.1645218941154091
 40
0.198127799761692
 40
0.2393674384181577
 40
0.2893093411040549
 40
0.3370053525040853
 40
0.3821980047582885
 40
0.405518120886778
 40
0.405518120886778
 40
0.405518120886778
 40
0.405518120886778
 10
130.0464161543057
 20
312.9175326860281
 30
0.0
 10
130.0463650958164
 20
312.9167589772371
 30
0.0
 10
130.0512565611761
 20
312.9233627229768
 30
0.0
 10
130.1367468267379
 20
313.097285972021
 30
0.0
 10
130.3648075877279
 20
313.5582685344938
 30
0.0
 10
130.5873581969569
 20
314.0141910445757
 30
0.0
 10
130.7373239473107
 20
314.3281769315457
 30
0.0
 10
130.8326084231291
 20
314.5255658694844
 30
0.0
 10
130.8497956537434
 20
314.5611860074964
 30
0.0
 10
130.8499962988212
 20
314.5620918859589
 30
0.0
  0
SPLINE
  5
81
330
77
100
AcDbEntity
  8
$DDT_AUDIT_GENERATED_(79)
  6
Continuous
 62
     7
100
AcDbSpline
210
0.0
220
0.0
230
1.0
 70
     8
 71
     3
 72
    16
 73
    12
 74
     0
 42
0.0000000013464252
 43
0.0000000001
 40
0.5812187151593475
 40
0.5812187151593475
 40
0.5812187151593475
 40
0.5812187151593475
 40
0.608311558510947
 40
0.6459849192572259
 40
0.6972306066142616
 40
0.7497097853024475
 40
0.8022665194060422
 40
0.8517808175180915
 40
0.8995802521577917
 40
0.9441985430341124
 40
0.9630705190255769
 40
0.9630705190255769
 40
0.9630705190255769
 40
0.9630705190255769
 10
85.43927558625353
 20
314.2644862295941
 30
0.0
 10
85.43930233942424
 20
314.2634134670707
 30
0.0
 10
85.45929320214964
 20
314.2222103294486
 30
0.0
 10
85.56719072180972
 20
314.0017151899973
 30
0.0
 10
85.73794518554485
 20
313.6497297535262
 30
0.0
 10
86.02209336128644
 20
313.0768631572034
 30
0.0
 10
86.37290926923767
 20
312.3857425620739
 30
0.0
 10
86.57268569628346
 20
311.9959432500688
 30
0.0
 10
86.63968301856758
 20
311.8438846449757
 30
0.0
 10
86.643707202882
 20
311.8391859070132
 30
0.0
 10
86.68771945197857
 20
311.7294477195297
 30
0.0
 10
86.69203294816089
 20
311.721149843806
 30
0.0
  0
SPLINE
  5
82
330
77
100
AcDbEntity
  8
$DDT_AUDIT_GENERATED_(79)
  6
Continuous
 62
     7
100
AcDbSpline
210
0.0
220
0.0
230
1.0
 70
     8
 71
     3
 72
    33
 73
    29
 74
     0
 42
0.0000000001276553
 43
0.0000000001
 40
0.0
 40
0.0
 40
0.0
 40
0.0
 40
0.0469160944522036
 40
0.086642767263489
 40
0.1191624763543462
 40
0.1446119074880335
 40
0.1635688813107033
 40
0.1811103972201116
 40
0.2225996298859649
 40
0.2685478615855473
 40
0.3069439221875529
 40
0.3445630484582445
 40
0.3805366413470688
 40
0.4142357520303325
 40
0.4438334596561238
 40
0.4701835681926944
 40
0.504158039178798
 40
0.5444062258816983
 40
0.5893198293515435
 40
0.6326195587803617
 40
0.6736857089388618
 40
0.7125347367905718
 40
0.7431787944776534
 40
0.7803134234219207
 40
0.8245341398440338
 40
0.8758637285073029
 40
0.9343331938245271
 40
1.0
 40
1.0
 40
1.0
 40
1.0
 10
86.66317281392871
 20
311.8126156952604
 30
0.0
 10
87.08564845370849
 20
310.5964326847354
 30
0.0
 10
87.73912340785233
 20
308.7060453428431
 30
0.0
 10
88.72028364651973
 20
305.8022856491491
 30
0.0
 10
89.47409075404309
 20
303.4465619460472
 30
0.0
 10
90.03121893978329
 20
301.5572236073835
 30
0.0
 10
90.44641512585744
 20
300.017258775209
 30
0.0
 10
90.92908540467425
 20
298.0621902182083
 30
0.0
 10
91.51705121929005
 20
295.4077021865641
 30
0.0
 10
92.10269386339235
 20
292.1781609034527
 30
0.0
 10
92.51843082160397
 20
289.0106767184873
 30
0.0
 10
92.81871762004101
 20
286.0847390698604
 30
0.0
 10
93.06448586844604
 20
283.2708914596017
 30
0.0
 10
93.2845032223901
 20
280.6622067295105
 30
0.0
 10
93.46951070827666
 20
278.3026547311343
 30
0.0
 10
93.6284905978351
 20
275.931865730589
 30
0.0
 10
93.76914616195913
 20
273.2763277774096
 30
0.0
 10
93.8877306356982
 20
270.1272729197344
 30
0.0
 10
93.96877851183336
 20
266.7304170456633
 30
0.0
 10
94.01756289826315
 20
263.3130474907177
 30
0.0
 10
94.04665837888925
 20
260.058517339613
 30
0.0
 10
94.0692307670593
 20
257.1414624655629
 30
0.0
 10
94.09561941160376
 20
254.3311323591787
 30
0.0
 10
94.12986574960726
 20
251.3840136495193
 30
0.0
 10
94.18463554189249
 20
247.8935567710539
 30
0.0
 10
94.27499630245065
 20
243.8755010476515
 30
0.0
 10
94.42461813669334
 20
239.2033700547902
 30
0.0
 10
94.5782903237608
 20
236.2178020476039
 30
0.0
 10
94.67640100376364
 20
234.341020406641
 30
0.0
  0
ARC
  5
83
330
77
100
AcDbEntity
  8
$DDT_AUDIT_GENERATED_(79)
  6
Continuous
 62
     7
100
AcDbCircle
 10
96.8625726594
 20
234.23774118
 30
0.0
 40
2.188949333370434
100
AcDbArc
 50
177.2160769177
 51
247.4709061162
  0
ARC
  5
84
330
77
100
AcDbEntity
  8
$DDT_AUDIT_GENERATED_(79)
  6
Continuous
 62
     7
100
AcDbCircle
 10
108.1112312073
 20
260.1035298155
 30
0.0
 40
30.39456387260422
100
AcDbArc
 50
246.5665601839
 51
293.387342002
  0
ARC
  5
85
330
77
100
AcDbEntity
  8
$DDT_AUDIT_GENERATED_(79)
  6
Continuous
 62
     7
100
AcDbCircle
 10
119.3443197315
 20
234.2319690105
 30
0.0
 40
2.189975928259879
100
AcDbArc
 50
292.323339681
 51
2.5107701853
  0
SPLINE
  5
86
330
77
100
AcDbEntity
  8
$DDT_AUDIT_GENERATED_(79)
  6
Continuous
 62
     7
100
AcDbSpline
210
0.0
220
0.0
230
1.0
 70
     8
 71
     3
 72
    37
 73
    33
 74
     0
 42
0.000000000127641
 43
0.0000000001
 40
0.0
 40
0.0
 40
0.0
 40
0.0
 40
0.0633089429923074
 40
0.1198908844456993
 40
0.1698083948374452
 40
0.2130931416834485
 40
0.2497627805090472
 40
0.279975728798172
 40
0.3085054657445166
 40
0.3376489989514185
 40
0.4332634054160692
 40
0.5335571495427681
 40
0.5663380524202164
 40
0.5982427753386798
 40
0.6252751547199096
 40
0.6470745358514898
 40
0.6596077212868617
 40
0.6762634325818198
 40
0.6973238604016019
 40
0.7227211471321431
 40
0.7497378196348752
 40
0.78331021691129
 40
0.8110211326538219
 40
0.8326478290511603
 40
0.8519977783452332
 40
0.8614643103158632
 40
0.8707839004181185
 40
0.8804342808565934
 40
0.8942399198555735
 40
0.9204696101469155
 40
0.9557314168241586
 40
1.0
 40
1.0
 40
1.0
 40
1.0
 10
121.5320079989408
 20
234.3252711457874
 30
0.0
 10
121.628639059683
 20
236.1348498564921
 30
0.0
 10
121.7803101899491
 20
239.0187212397479
 30
0.0
 10
121.931235388205
 20
243.5401291406472
 30
0.0
 10
122.0241316866947
 20
247.4473123339262
 30
0.0
 10
122.0815884594063
 20
250.8634896773197
 30
0.0
 10
122.1179621983128
 20
253.7621613968407
 30
0.0
 10
122.1433174155946
 20
256.2767461695387
 30
0.0
 10
122.1633030236833
 20
258.595099257364
 30
0.0
 10
122.1966989203896
 20
262.6421514046987
 30
0.0
 10
122.2681232565748
 20
268.5936793046001
 30
0.0
 10
122.5036305236681
 20
274.6435455448474
 30
0.0
 10
122.8185214407726
 20
278.9918239801993
 30
0.0
 10
123.0211080110661
 20
281.4045884185769
 30
0.0
 10
123.2059134337134
 20
283.5254821546005
 30
0.0
 10
123.3524159774617
 20
285.135222250142
 30
0.0
 10
123.4826815935757
 20
286.4704957320303
 30
0.0
 10
123.6199398179076
 20
287.7834995921911
 30
0.0
 10
123.8099570769345
 20
289.4282092070124
 30
0.0
 10
124.0708960761728
 20
291.3340519391836
 30
0.0
 10
124.4343809471273
 20
293.5503689339697
 30
0.0
 10
124.8911933252722
 20
295.8034961569014
 30
0.0
 10
125.3605517889437
 20
297.9016527648434
 30
0.0
 10
125.777908074343
 20
299.6255767453422
 30
0.0
 10
126.1130750351719
 20
300.8804996498507
 30
0.0
 10
126.3805031417539
 20
301.8238846497068
 30
0.0
 10
126.5858678433108
 20
302.5247150419339
 30
0.0
 10
126.8287668040179
 20
303.3294614045008
 30
0.0
 10
127.2064933973083
 20
304.5392773770596
 30
0.0
 10
127.7968349945345
 20
306.3470287181578
 30
0.0
 10
128.6669515943305
 20
308.9165577704039
 30
0.0
 10
129.2633450037249
 20
310.6466042038606
 30
0.0
 10
129.6595816193499
 20
311.7919509970523
 30
0.0
  0
ARC
  5
88
330
77
100
AcDbEntity
  8
$DDT_AUDIT_GENERATED_(87)
  6
Continuous
 62
     7
100
AcDbCircle
 10
108.1092374978
 20
341.3349374833
 30
0.0
 40
81.80000000000003
100
AcDbArc
 50
279.9161059305
 51
360.0
  0
ARC
  5
89
330
77
100
AcDbEntity
  8
$DDT_AUDIT_GENERATED_(87)
  6
Continuous
 62
     7
100
AcDbCircle
 10
108.1092374978
 20
341.3349374833
 30
0.0
 40
81.80000000000003
100
AcDbArc
 50
0.0
 51
260.0950709441
  0
CIRCLE
  5
8A
330
77
100
AcDbEntity
  8
$DDT_AUDIT_GENERATED_(87)
  6
Continuous
 62
     7
100
AcDbCircle
 10
108.1092374968
 20
383.3349374837
 30
0.0
 40
6.350000000000001
  0
ENDBLK
  5
8C
330
77
100
AcDbEntity
  8
0
100
AcDbBlockEnd
  0
BLOCK
  5
CE
330
8D
100
AcDbEntity
  8
0
100
AcDbBlockBegin
  2
SE1
 70
     0
 10
0.0
 20
0.0
 30
0.0
  3
SE1
  1

  0
ARC
  5
90
330
8D
100
AcDbEntity
  8
$DDT_AUDIT_GENERATED_(8F)
  6
Continuous
 62
     7
100
AcDbCircle
 10
274.9294665156
 20
383.3349374833
 30
0.0
 40
50.00000000000001
100
AcDbArc
 50
354.1432980901
 51
5.8567019099
  0
LINE
  5
91
330
8D
100
AcDbEntity
  8
$DDT_AUDIT_GENERATED_(8F)
  6
Continuous
 62
     7
100
AcDbLine
 10
320.9216232572
 20
377.3349374833
 30
0.0
 11
323.6736969434
 21
377.3349374833
 31
0.0
  0
LINE
  5
92
330
8D
100
AcDbEntity
  8
$DDT_AUDIT_GENERATED_(8F)
  6
Continuous
 62
     7
100
AcDbLine
 10
323.6736969434
 20
389.3349374833
 30
0.0
 11
320.9216232572
 21
389.3349374833
 31
0.0
  0
ARC
  5
93
330
8D
100
AcDbEntity
  8
$DDT_AUDIT_GENERATED_(8F)
  6
Continuous
 62
     7
100
AcDbCircle
 10
320.9216232572
 20
378.3349374833
 30
0.0
 40
1.000000000000001
100
AcDbArc
 50
180.0
 51
270.0
  0
ARC
  5
94
330
8D
100
AcDbEntity
  8
$DDT_AUDIT_GENERATED_(8F)
  6
Continuous
 62
     7
100
AcDbCircle
 10
320.9216232572
 20
388.3349374833
 30
0.0
 40
1.000000000000001
100
AcDbArc
 50
90.0
 51
180.0
  0
LINE
  5
95
330
8D
100
AcDbEntity
  8
$DDT_AUDIT_GENERATED_(8F)
  6
Continuous
 62
     7
100
AcDbLine
 10
319.9216232572
 20
388.3349374833
 30
0.0
 11
319.9216232572
 21
378.3349374833
 31
0.0
  0
ARC
  5
96
330
8D
100
AcDbEntity
  8
$DDT_AUDIT_GENERATED_(8F)
  6
Continuous
 62
     7
100
AcDbCircle
 10
318.9373097739
 20
378.5849374833
 30
0.0
 40
1.000000000000008
100
AcDbArc
 50
10.1617906177
 51
90.0
  0
ARC
  5
97
330
8D
100
AcDbEntity
  8
$DDT_AUDIT_GENERATED_(8F)
  6
Continuous
 62
     7
100
AcDbCircle
 10
318.9373097739
 20
388.0849374833
 30
0.0
 40
1.000000000000001
100
AcDbArc
 50
270.0
 51
349.8382093823
  0
LINE
  5
98
330
8D
100
AcDbEntity
  8
$DDT_AUDIT_GENERATED_(8F)
  6
Continuous
 62
     7
100
AcDbLine
 10
306.2794665156
 20
379.5849374833
 30
0.0
 11
318.9373097739
 21
379.5849374833
 31
0.0
  0
LINE
  5
99
330
8D
100
AcDbEntity
  8
$DDT_AUDIT_GENERATED_(8F)
  6
Continuous
 62
     7
100
AcDbLine
 10
318.9373097739
 20
387.0849374833
 30
0.0
 11
306.2794665156
 21
387.0849374833
 31
0.0
  0
ARC
  5
9A
330
8D
100
AcDbEntity
  8
$DDT_AUDIT_GENERATED_(8F)
  6
Continuous
 62
     7
100
AcDbCircle
 10
323.6736969434
 20
378.3349374833
 30
0.0
 40
1.000000000000001
100
AcDbArc
 50
270.0
 51
354.1432980901
  0
ARC
  5
9B
330
8D
100
AcDbEntity
  8
$DDT_AUDIT_GENERATED_(8F)
  6
Continuous
 62
     7
100
AcDbCircle
 10
323.6736969434
 20
388.3349374833
 30
0.0
 40
1.000000000000009
100
AcDbArc
 50
5.8567019099
 51
90.0
  0
LINE
  5
9D
330
8D
100
AcDbEntity
  8
$DDT_AUDIT_GENERATED_(9C)
  6
Continuous
 62
     7
100
AcDbLine
 10
306.2794665156
 20
389.0349374833
 30
0.0
 11
306.2794665156
 21
377.6349374833
 31
0.0
  0
LINE
  5
9E
330
8D
100
AcDbEntity
  8
$DDT_AUDIT_GENERATED_(9C)
  6
Continuous
 62
     7
100
AcDbLine
 10
299.9763211902
 20
377.3349374833
 30
0.0
 11
305.9794665156
 21
377.3349374833
 31
0.0
  0
LINE
  5
9F
330
8D
100
AcDbEntity
  8
$DDT_AUDIT_GENERATED_(9C)
  6
Continuous
 62
     7
100
AcDbLine
 10
305.9794665156
 20
389.3349374833
 30
0.0
 11
299.4720169466
 21
389.3349374833
 31
0.0
  0
ARC
  5
A0
330
8D
100
AcDbEntity
  8
$DDT_AUDIT_GENERATED_(9C)
  6
Continuous
 62
     7
100
AcDbCircle
 10
305.9794665156
 20
377.6349374833
 30
0.0
 40
0.2999999999999947
100
AcDbArc
 50
270.0
 51
0.0
  0
ARC
  5
A1
330
8D
100
AcDbEntity
  8
$DDT_AUDIT_GENERATED_(9C)
  6
Continuous
 62
     7
100
AcDbCircle
 10
305.9794665156
 20
389.0349374833
 30
0.0
 40
0.3000000000000017
100
AcDbArc
 50
0.0
 51
90.0
  0
LINE
  5
A3
330
8D
100
AcDbEntity
  8
$DDT_AUDIT_GENERATED_(A2)
  6
Continuous
 62
     7
100
AcDbLine
 10
312.008024897
 20
354.2089522426
 30
0.0
 11
312.008024897
 21
328.3349374833
 31
0.0
  0
LINE
  5
A4
330
8D
100
AcDbEntity
  8
$DDT_AUDIT_GENERATED_(A2)
  6
Continuous
 62
     7
100
AcDbLine
 10
312.008024897
 20
328.3349374833
 30
0.0
 11
312.008024897
 21
302.460922724
 31
0.0
  0
ARC
  5
A5
330
8D
100
AcDbEntity
  8
$DDT_AUDIT_GENERATED_(A2)
  6
Continuous
 62
     7
100
AcDbCircle
 10
311.782225791
 20
328.3349374833
 30
0.0
 40
25.87500000000016
100
AcDbArc
 50
64.7415308842
 51
89.5
  0
LINE
  5
A6
330
8D
100
AcDbEntity
  8
$DDT_AUDIT_GENERATED_(A2)
  6
Continuous
 62
     7
100
AcDbLine
 10
299.8500734652
 20
302.3548218893
 30
0.0
 11
312.008024897
 21
302.460922724
 31
0.0
  0
LINE
  5
A7
330
8D
100
AcDbEntity
  8
$DDT_AUDIT_GENERATED_(A2)
  6
Continuous
 62
     7
100
AcDbLine
 10
312.008024897
 20
354.2089522426
 30
0.0
 11
300.5203803776
 21
354.3092033976
 31
0.0
  0
ARC
  5
A8
330
8D
100
AcDbEntity
  8
$DDT_AUDIT_GENERATED_(A2)
  6
Continuous
 62
     7
100
AcDbCircle
 10
311.782225791
 20
328.3349374833
 30
0.0
 40
25.87500000000026
100
AcDbArc
 50
270.5
 51
295.2560619984
  0
SPLINE
  5
A9
330
8D
100
AcDbEntity
  8
$DDT_AUDIT_GENERATED_(79)
  6
Continuous
 62
     7
100
AcDbSpline
210
0.0
220
0.0
230
1.0
 70
     8
 71
     3
 72
    29
 73
    25
 74
     0
 42
0.000000000103764
 43
0.0000000001
 40
0.0
 40
0.0
 40
0.0
 40
0.0
 40
0.040725872359045
 40
0.0827848038072027
 40
0.1255527438315539
 40
0.1867408174712373
 40
0.2504651206851107
 40
0.300525023036771
 40
0.3747408648614146
 40
0.4367235802663911
 40
0.4988629608414582
 40
0.5812457471391306
 40
0.6219469809882866
 40
0.6527308464391035
 40
0.6834015470138493
 40
0.7451258571424063
 40
0.7813965598704806
 40
0.8076395151091805
 40
0.8408068957277502
 40
0.8709812741026967
 40
0.9043530471624966
 40
0.9355653891276758
 40
0.9671928509463205
 40
1.0
 40
1.0
 40
1.0
 40
1.0
 10
357.4227423783275
 20
234.5748659414113
 30
0.0
 10
357.6647665070436
 20
235.876963124919
 30
0.0
 10
358.1552308665822
 20
238.525232492437
 30
0.0
 10
358.8048411514737
 20
242.5613105119613
 30
0.0
 10
359.4781719190303
 20
247.2688339835824
 30
0.0
 10
360.1174226001082
 20
252.6942744545132
 30
0.0
 10
360.6202852236375
 20
258.3732749614778
 30
0.0
 10
360.9622490668019
 20
264.4890020686199
 30
0.0
 10
361.1092581735684
 20
270.5561042494703
 30
0.0
 10
360.9827050256995
 20
277.0113027213137
 30
0.0
 10
360.5816545450867
 20
283.7004801247157
 30
0.0
 10
359.9618115560759
 20
289.685165990003
 30
0.0
 10
359.2367334023119
 20
294.5650582232196
 30
0.0
 10
358.6687693248089
 20
297.7592398460309
 30
0.0
 10
357.9085723755894
 20
301.5700177610134
 30
0.0
 10
356.997302827727
 20
305.4521234290044
 30
0.0
 10
355.9549830114735
 20
309.1462746706394
 30
0.0
 10
355.0957268125554
 20
311.9762385319796
 30
0.0
 10
354.2256957994566
 20
314.6111157724632
 30
0.0
 10
353.1779460383334
 20
317.4408333749714
 30
0.0
 10
352.0985794496016
 20
320.2309751049553
 30
0.0
 10
350.942593214774
 20
323.0870696701494
 30
0.0
 10
349.7669521663311
 20
325.9537836215858
 30
0.0
 10
348.9278987995517
 20
327.8780733683195
 30
0.0
 10
348.5006235517981
 20
328.857733336752
 30
0.0
  0
ARC
  5
AA
330
8D
100
AcDbEntity
  8
$DDT_AUDIT_GENERATED_(79)
  6
Continuous
 62
     7
100
AcDbCircle
 10
362.5061093251
 20
233.0134609265
 30
0.0
 40
5.317763170338763
100
AcDbArc
 50
162.9251567884
 51
181.0162201709
  0
SPLINE
  5
AB
330
8D
100
AcDbEntity
  8
$DDT_AUDIT_GENERATED_(79)
  6
Continuous
 62
     7
100
AcDbSpline
210
0.0
220
0.0
230
1.0
 70
     8
 71
     3
 72
    16
 73
    12
 74
     0
 42
0.0000000020076948
 43
0.0000000001
 40
0.4997067628523802
 40
0.4997067628523802
 40
0.4997067628523802
 40
0.4997067628523802
 40
0.500490105288519
 40
0.6262687473455648
 40
0.7498282785462814
 40
0.792650209956502
 40
0.8349537789986075
 40
0.8767941288770158
 40
0.9182204262064464
 40
0.9592762448407661
 40
0.9999554781794063
 40
0.9999554781794063
 40
0.9999554781794063
 40
0.9999554781794063
 10
357.3761607486533
 20
230.4341586336868
 30
0.0
 10
357.3761606374598
 20
230.4341594731108
 30
0.0
 10
357.3761144899743
 20
230.4346178788123
 30
0.0
 10
357.3670279442391
 20
230.5385688869419
 30
0.0
 10
357.3346251599917
 20
230.9041910407001
 30
0.0
 10
357.3048699932883
 20
231.2785133890915
 30
0.0
 10
357.2844918960323
 20
231.5426575329056
 30
0.0
 10
357.2625184030727
 20
231.8389090624934
 30
0.0
 10
357.2391895719095
 20
232.1671556886782
 30
0.0
 10
357.2148663680379
 20
232.5233450093072
 30
0.0
 10
357.1977532271891
 20
232.7870239564334
 30
0.0
 10
357.189210611081
 20
232.9187155655837
 30
0.0
  0
ARC
  5
AC
330
8D
100
AcDbEntity
  8
$DDT_AUDIT_GENERATED_(79)
  6
Continuous
 62
     7
100
AcDbCircle
 10
739.0101706019
 20
513.1892499491
 30
0.0
 40
431.8284687567677
100
AcDbArc
 50
201.5849067431
 51
205.2686316128
  0
LINE
  5
AD
330
8D
100
AcDbEntity
  8
$DDT_AUDIT_GENERATED_(79)
  6
Continuous
 62
     7
100
AcDbLine
 10
322.7935348509
 20
328.7462027544
 30
0.0
 11
322.7935348509
 21
355.3836523246
 31
0.0
  0
LINE
  5
AE
330
8D
100
AcDbEntity
  8
$DDT_AUDIT_GENERATED_(79)
  6
Continuous
 62
     7
100
AcDbLine
 10
322.7935348509
 20
328.7462027544
 30
0.0
 11
322.7935348509
 21
302.0841561355
 31
0.0
  0
ARC
  5
AF
330
8D
100
AcDbEntity
  8
$DDT_AUDIT_GENERATED_(79)
  6
Continuous
 62
     7
100
AcDbCircle
 10
333.9731197469
 20
273.7326538038
 30
0.0
 40
27.98308501825832
100
AcDbArc
 50
80.2712313514
 51
95.592538308
  0
LINE
  5
B0
330
8D
100
AcDbEntity
  8
$DDT_AUDIT_GENERATED_(79)
  6
Continuous
 62
     7
100
AcDbLine
 10
337.4697545467
 20
354.3693244536
 30
0.0
 11
323.1234118174
 21
355.6833247988
 31
0.0
  0
SPLINE
  5
B1
330
8D
100
AcDbEntity
  8
$DDT_AUDIT_GENERATED_(79)
  6
Continuous
 62
     7
100
AcDbSpline
210
0.0
220
0.0
230
1.0
 70
     8
 71
     3
 72
    44
 73
    40
 74
     0
 42
0.0000000001415014
 43
0.0000000001
 40
0.0
 40
0.0
 40
0.0
 40
0.0
 40
0.0125706242911651
 40
0.0304192786178203
 40
0.0446993780259529
 40
0.0663167728015912
 40
0.0833411584222927
 40
0.0974864058982669
 40
0.109386045685876
 40
0.1285520994701133
 40
0.1442636450275177
 40
0.1581710052843812
 40
0.1706077682498179
 40
0.1914299012219715
 40
0.207073961335844
 40
0.2230655962986419
 40
0.241981084565821
 40
0.2563100672759516
 40
0.2723910352728341
 40
0.2911983522003369
 40
0.3079170260945881
 40
0.3277016031782278
 40
0.3514674521786245
 40
0.3803034109935635
 40
0.4029672592340272
 40
0.428877472029881
 40
0.4585177822802038
 40
0.4926174920219356
 40
0.5321690619791949
 40
0.5783049582848411
 40
0.6136417290221065
 40
0.6529536107601156
 40
0.6967005082665246
 40
0.7453759301313294
 40
0.7995078769292365
 40
0.8585294069449567
 40
0.9239254624660661
 40
0.9962984700306998
 40
1.0
 40
1.0
 40
1.0
 40
1.0
 10
338.7018117653394
 20
301.3112922872631
 30
0.0
 10
339.0270493201889
 20
301.2957277695628
 30
0.0
 10
339.6930675282558
 20
301.2632487066109
 30
0.0
 10
340.7681912363284
 20
301.1963517119853
 30
0.0
 10
342.023700867279
 20
301.1009653000243
 30
0.0
 10
343.265822319567
 20
300.9727215545518
 30
0.0
 10
344.4971504794316
 20
300.8052274045446
 30
0.0
 10
345.4965376458318
 20
300.6294391650925
 30
0.0
 10
346.5341715441489
 20
300.3903212950478
 30
0.0
 10
347.5845371164718
 20
300.0442265886637
 30
0.0
 10
348.6077543801758
 20
299.5125595901258
 30
0.0
 10
349.4182621756518
 20
298.9390614943715
 30
0.0
 10
350.2471206154169
 20
298.1970255968043
 30
0.0
 10
350.9998257219079
 20
297.3191424435742
 30
0.0
 10
351.6908170135688
 20
296.2936214267604
 30
0.0
 10
352.2736788561163
 20
295.254391102303
 30
0.0
 10
352.7662821532863
 20
294.2038438330403
 30
0.0
 10
353.2057303673428
 20
293.1283996920789
 30
0.0
 10
353.5961768718873
 20
292.0366748963075
 30
0.0
 10
353.9419244200992
 20
290.8709937716084
 30
0.0
 10
354.2538794551355
 20
289.6061603731212
 30
0.0
 10
354.5419192976687
 20
288.216194470299
 30
0.0
 10
354.8336865966114
 20
286.5365779655575
 30
0.0
 10
355.0905598799247
 20
284.7827907838038
 30
0.0
 10
355.3241803811919
 20
282.974957631607
 30
0.0
 10
355.5380219159562
 20
281.1456130037358
 30
0.0
 10
355.7644365620021
 20
279.0467019757133
 30
0.0
 10
355.9899436727386
 20
276.6247550486094
 30
0.0
 10
356.1865647300121
 20
273.8106034095262
 30
0.0
 10
356.3079108305638
 20
270.9629433923744
 30
0.0
 10
356.3611109205106
 20
268.119084867269
 30
0.0
 10
356.3576974682377
 20
265.3309310747103
 30
0.0
 10
356.2923134415512
 20
262.2295073243342
 30
0.0
 10
356.1524647193626
 20
258.7805960740097
 30
0.0
 10
355.9262169529468
 20
254.97868231356
 30
0.0
 10
355.6015948805404
 20
250.7768327517529
 30
0.0
 10
355.1643937952327
 20
246.2057363840385
 30
0.0
 10
354.7994038259838
 20
242.7745247618099
 30
0.0
 10
354.5866187129953
 20
241.08992498866
 30
0.0
 10
354.5745973081656
 20
240.9948029683341
 30
0.0
  0
ARC
  5
B2
330
8D
100
AcDbEntity
  8
$DDT_AUDIT_GENERATED_(79)
  6
Continuous
 62
     7
100
AcDbCircle
 10
297.8446820002
 20
-884.8409702889
 30
0.0
 40
1186.892973941508
100
AcDbArc
 50
88.3914657558
 51
88.7814348041
  0
ARC
  5
B3
330
8D
100
AcDbEntity
  8
$DDT_AUDIT_GENERATED_(79)
  6
Continuous
 62
     7
100
AcDbCircle
 10
386.7323684209
 20
244.5870808045
 30
0.0
 40
32.59017392588466
100
AcDbArc
 50
189.7763170079
 51
205.8420720638
  0
SPLINE
  5
B4
330
8D
100
AcDbEntity
  8
$DDT_AUDIT_GENERATED_(79)
  6
Continuous
 62
     7
100
AcDbSpline
210
0.0
220
0.0
230
1.0
 70
     8
 71
     3
 72
    24
 73
    20
 74
     0
 42
0.0000000000781185
 43
0.0000000001
 40
0.0
 40
0.0
 40
0.0
 40
0.0
 40
0.0498878997642798
 40
0.107221217251237
 40
0.1662845739614188
 40
0.2265179247896526
 40
0.2874359887501202
 40
0.3475268692403324
 40
0.4075307071436531
 40
0.4671519754761306
 40
0.5261366433978374
 40
0.5921152285418277
 40
0.6567219611889314
 40
0.719733540384695
 40
0.7809674083088883
 40
0.8402774416178276
 40
0.8975508750681657
 40
0.9527063742836824
 40
1.0
 40
1.0
 40
1.0
 40
1.0
 10
359.7510861502653
 20
230.7030969048486
 30
0.0
 10
360.2484916132304
 20
232.9901514769863
 30
0.0
 10
361.1405038058141
 20
237.1425039437182
 30
0.0
 10
362.3407224833321
 20
244.2841708919511
 30
0.0
 10
363.3012710874289
 20
251.7148823553851
 30
0.0
 10
363.9729887641843
 20
259.3858821056484
 30
0.0
 10
364.3184299975617
 20
267.1074480912546
 30
0.0
 10
364.3271950769831
 20
274.8310583047414
 30
0.0
 10
363.9945294207231
 20
282.4911967612563
 30
0.0
 10
363.3157828660921
 20
290.0815333069023
 30
0.0
 10
362.2461880419171
 20
297.8840567181998
 30
0.0
 10
360.7359702148023
 20
305.8314418592088
 30
0.0
 10
358.7372699212373
 20
313.8472877090271
 30
0.0
 10
356.3341715105248
 20
321.5410457752187
 30
0.0
 10
353.5537885448673
 20
328.8610306739849
 30
0.0
 10
350.4168163213765
 20
335.7847560745791
 30
0.0
 10
346.9826782243561
 20
342.2122030425524
 30
0.0
 10
343.3165531415729
 20
348.1308676657446
 30
0.0
 10
340.8867601884585
 20
351.384861055837
 30
0.0
 10
339.5517373997609
 20
353.1570969920859
 30
0.0
  0
ARC
  5
B5
330
8D
100
AcDbEntity
  8
$DDT_AUDIT_GENERATED_(79)
  6
Continuous
 62
     7
100
AcDbCircle
 10
361.6040269139
 20
240.1651281072
 30
0.0
 40
7.076316551177548
100
AcDbArc
 50
173.2206071609
 51
189.4685882332
  0
ARC
  5
B6
330
8D
100
AcDbEntity
  8
$DDT_AUDIT_GENERATED_(79)
  6
Continuous
 62
     7
100
AcDbCircle
 10
358.5230912889
 20
230.9772047123
 30
0.0
 40
1.268995187259792
100
AcDbArc
 50
205.336504766
 51
347.3757653234
  0
ARC
  5
B7
330
8D
100
AcDbEntity
  8
$DDT_AUDIT_GENERATED_(79)
  6
Continuous
 62
     7
100
AcDbCircle
 10
337.1929966261
 20
351.3381851002
 30
0.0
 40
3.002394678355329
100
AcDbArc
 50
37.6703343347
 51
84.8150724189
  0
ARC
  5
B8
330
8D
100
AcDbEntity
  8
$DDT_AUDIT_GENERATED_(79)
  6
Continuous
 62
     7
100
AcDbCircle
 10
323.0935348509
 20
355.3836571328
 30
0.0
 40
0.3000000000297916
100
AcDbArc
 50
84.1742780573
 51
180.0000677115
  0
ARC
  5
B9
330
8D
100
AcDbEntity
  8
$DDT_AUDIT_GENERATED_(79)
  6
Continuous
 62
     7
100
AcDbCircle
 10
323.0935348516
 20
302.0841561172
 30
0.0
 40
0.2999999462785872
100
AcDbArc
 50
179.9991552199
 51
270.4094748764
  0
LINE
  5
BB
330
8D
100
AcDbEntity
  8
$DDT_AUDIT_GENERATED_(BA)
  6
Continuous
 62
     7
100
AcDbLine
 10
331.0809646913
 20
301.4077256987
 30
0.0
 11
336.9355188164
 21
301.5610325939
 31
0.0
  0
LINE
  5
BC
330
8D
100
AcDbEntity
  8
$DDT_AUDIT_GENERATED_(BA)
  6
Continuous
 62
     7
100
AcDbLine
 10
331.1613955753
 20
301.5842151659
 30
0.0
 11
331.0809646913
 21
301.4077256987
 31
0.0
  0
LINE
  5
BD
330
8D
100
AcDbEntity
  8
$DDT_AUDIT_GENERATED_(87)
  6
Continuous
 62
     7
100
AcDbLine
 10
288.882225791
 20
259.5349374833
 30
0.0
 11
288.882225791
 21
423.1349374833
 31
0.0
  0
LINE
  5
BE
330
8D
100
AcDbEntity
  8
$DDT_AUDIT_GENERATED_(87)
  6
Continuous
 62
     7
100
AcDbLine
 10
291.3508066741
 20
259.5349374853
 30
0.0
 11
291.3504982743
 21
260.3122291241
 31
0.0
  0
ARC
  5
BF
330
8D
100
AcDbEntity
  8
$DDT_AUDIT_GENERATED_(87)
  6
Continuous
 62
     7
100
AcDbCircle
 10
292.632225791
 20
256.1035592805
 30
0.0
 40
4.399514436764107
100
AcDbArc
 50
73.0621709289
 51
106.9378290711
  0
LINE
  5
C0
330
8D
100
AcDbEntity
  8
$DDT_AUDIT_GENERATED_(87)
  6
Continuous
 62
     7
100
AcDbLine
 10
293.9136449078
 20
259.5349374853
 30
0.0
 11
293.9139533076
 21
260.3122291241
 31
0.0
  0
LINE
  5
C1
330
8D
100
AcDbEntity
  8
$DDT_AUDIT_GENERATED_(87)
  6
Continuous
 62
     7
100
AcDbLine
 10
296.3563106974
 20
259.5349374833
 30
0.0
 11
296.3563106974
 21
423.1349374833
 31
0.0
  0
LINE
  5
C2
330
8D
100
AcDbEntity
  8
$DDT_AUDIT_GENERATED_(87)
  6
Continuous
 62
     7
100
AcDbLine
 10
300.5317010712
 20
355.1869506315
 30
0.0
 11
299.8413214299
 21
301.6766959299
 31
0.0
  0
LINE
  5
C3
330
8D
100
AcDbEntity
  8
$DDT_AUDIT_GENERATED_(87)
  6
Continuous
 62
     7
100
AcDbLine
 10
299.9991338769
 20
376.7919637249
 30
0.0
 11
299.4485398138
 21
389.8934341199
 31
0.0
  0
ARC
  5
C4
330
8D
100
AcDbEntity
  8
$DDT_AUDIT_GENERATED_(87)
  6
Continuous
 62
     7
100
AcDbCircle
 10
-699.8723829268
 20
341.3349374833
 30
0.0
 40
1000.5
100
AcDbArc
 50
2.7816693476
 51
4.6368747388
  0
ARC
  5
C5
330
8D
100
AcDbEntity
  8
$DDT_AUDIT_GENERATED_(87)
  6
Continuous
 62
     7
100
AcDbCircle
 10
-699.8723829268
 20
341.3349374833
 30
0.0
 40
1000.5
100
AcDbArc
 50
0.7930011884
 51
2.0321505576
  0
ARC
  5
C6
330
8D
100
AcDbEntity
  8
$DDT_AUDIT_GENERATED_(87)
  6
Continuous
 62
     7
100
AcDbCircle
 10
-699.8723829268
 20
341.3349374833
 30
0.0
 40
1000.5
100
AcDbArc
 50
355.3631252612
 51
357.7294696495
  0
LINE
  5
C7
330
8D
100
AcDbEntity
  8
$DDT_AUDIT_GENERATED_(87)
  6
Continuous
 62
     7
100
AcDbLine
 10
293.913648463
 20
259.5349374833
 30
0.0
 11
296.3563106974
 21
259.5349374833
 31
0.0
  0
LINE
  5
C8
330
8D
100
AcDbEntity
  8
$DDT_AUDIT_GENERATED_(87)
  6
Continuous
 62
     7
100
AcDbLine
 10
288.882225791
 20
259.5349374833
 30
0.0
 11
291.3508031189
 21
259.5349374833
 31
0.0
  0
LINE
  5
C9
330
8D
100
AcDbEntity
  8
$DDT_AUDIT_GENERATED_(87)
  6
Continuous
 62
     7
100
AcDbLine
 10
296.3563106974
 20
423.1349374833
 30
0.0
 11
288.882225791
 21
423.1349374833
 31
0.0
  0
LINE
  5
CA
330
8D
100
AcDbEntity
  8
$DDT_AUDIT_GENERATED_(87)
  6
Continuous
 62
     7
100
AcDbLine
 10
293.8993633309
 20
260.3531284769
 30
0.0
 11
293.9141437708
 21
259.5063576435
 31
0.0
  0
LINE
  5
CB
330
8D
100
AcDbEntity
  8
$DDT_AUDIT_GENERATED_(87)
  6
Continuous
 62
     7
100
AcDbLine
 10
291.3503078111
 20
259.5063576435
 30
0.0
 11
291.3651043193
 21
260.3540490293
 31
0.0
  0
ARC
  5
CC
330
8D
100
AcDbEntity
  8
$DDT_AUDIT_GENERATED_(87)
  6
Continuous
 62
     7
100
AcDbCircle
 10
296.3563106974
 20
260.5349374833
 30
0.0
 40
1.000000000000015
100
AcDbArc
 50
270.0
 51
355.3631252611
  0
ARC
  5
CD
330
8D
100
AcDbEntity
  8
$DDT_AUDIT_GENERATED_(87)
  6
Continuous
 62
     7
100
AcDbCircle
 10
296.3563106974
 20
422.1349374833
 30
0.0
 40
0.9999999999997862
100
AcDbArc
 50
4.6368747389
 51
90.0
  0
ENDBLK
  5
CF
330
8D
100
AcDbEntity
  8
0
100
AcDbBlockEnd
  0
BLOCK
  5
104
330
D0
100
AcDbEntity
  8
0
100
AcDbBlockBegin
  2
SE2
 70
     0
 10
0.0
 20
0.0
 30
0.0
  3
SE2
  1

  0
ARC
  5
D2
330
D0
100
AcDbEntity
  8
$DDT_AUDIT_GENERATED_(8F)
  6
Continuous
 62
     7
100
AcDbCircle
 10
108.1092374978
 20
195.7277237745
 30
0.0
 40
50.00000000000001
100
AcDbArc
 50
264.1432980901
 51
275.8567019099
  0
LINE
  5
D3
330
D0
100
AcDbEntity
  8
$DDT_AUDIT_GENERATED_(8F)
  6
Continuous
 62
     7
100
AcDbLine
 10
102.1092374978
 20
149.7355670329
 30
0.0
 11
102.1092374978
 21
146.9834933467
 31
0.0
  0
LINE
  5
D4
330
D0
100
AcDbEntity
  8
$DDT_AUDIT_GENERATED_(8F)
  6
Continuous
 62
     7
100
AcDbLine
 10
114.1092374978
 20
146.9834933467
 30
0.0
 11
114.1092374978
 21
149.7355670329
 31
0.0
  0
ARC
  5
D5
330
D0
100
AcDbEntity
  8
$DDT_AUDIT_GENERATED_(8F)
  6
Continuous
 62
     7
100
AcDbCircle
 10
103.1092374978
 20
149.7355670329
 30
0.0
 40
1.000000000000001
100
AcDbArc
 50
90.0
 51
180.0
  0
ARC
  5
D6
330
D0
100
AcDbEntity
  8
$DDT_AUDIT_GENERATED_(8F)
  6
Continuous
 62
     7
100
AcDbCircle
 10
113.1092374978
 20
149.7355670329
 30
0.0
 40
1.0
100
AcDbArc
 50
0.0
 51
90.0
  0
LINE
  5
D7
330
D0
100
AcDbEntity
  8
$DDT_AUDIT_GENERATED_(8F)
  6
Continuous
 62
     7
100
AcDbLine
 10
113.1092374978
 20
150.7355670329
 30
0.0
 11
103.1092374978
 21
150.7355670329
 31
0.0
  0
ARC
  5
D8
330
D0
100
AcDbEntity
  8
$DDT_AUDIT_GENERATED_(8F)
  6
Continuous
 62
     7
100
AcDbCircle
 10
103.3592374978
 20
151.7198805162
 30
0.0
 40
1.000000000000003
100
AcDbArc
 50
280.1617906177
 51
0.0
  0
ARC
  5
D9
330
D0
100
AcDbEntity
  8
$DDT_AUDIT_GENERATED_(8F)
  6
Continuous
 62
     7
100
AcDbCircle
 10
112.8592374978
 20
151.7198805162
 30
0.0
 40
1.000000000000001
100
AcDbArc
 50
180.0
 51
259.8382093823
  0
LINE
  5
DA
330
D0
100
AcDbEntity
  8
$DDT_AUDIT_GENERATED_(8F)
  6
Continuous
 62
     7
100
AcDbLine
 10
104.3592374978
 20
164.3777237745
 30
0.0
 11
104.3592374978
 21
151.7198805162
 31
0.0
  0
LINE
  5
DB
330
D0
100
AcDbEntity
  8
$DDT_AUDIT_GENERATED_(8F)
  6
Continuous
 62
     7
100
AcDbLine
 10
111.8592374978
 20
151.7198805162
 30
0.0
 11
111.8592374978
 21
164.3777237745
 31
0.0
  0
ARC
  5
DC
330
D0
100
AcDbEntity
  8
$DDT_AUDIT_GENERATED_(8F)
  6
Continuous
 62
     7
100
AcDbCircle
 10
103.1092374978
 20
146.9834933467
 30
0.0
 40
1.000000000000001
100
AcDbArc
 50
180.0
 51
264.1432980901
  0
ARC
  5
DD
330
D0
100
AcDbEntity
  8
$DDT_AUDIT_GENERATED_(8F)
  6
Continuous
 62
     7
100
AcDbCircle
 10
113.1092374978
 20
146.9834933467
 30
0.0
 40
1.000000000000009
100
AcDbArc
 50
275.8567019099
 51
0.0
  0
LINE
  5
DE
330
D0
100
AcDbEntity
  8
$DDT_AUDIT_GENERATED_(9C)
  6
Continuous
 62
     7
100
AcDbLine
 10
102.4092374978
 20
164.3777237745
 30
0.0
 11
113.8092374978
 21
164.3777237745
 31
0.0
  0
LINE
  5
DF
330
D0
100
AcDbEntity
  8
$DDT_AUDIT_GENERATED_(9C)
  6
Continuous
 62
     7
100
AcDbLine
 10
114.1092374978
 20
164.6777237745
 30
0.0
 11
114.1092374978
 21
171.0410975798
 31
0.0
  0
ARC
  5
E0
330
D0
100
AcDbEntity
  8
$DDT_AUDIT_GENERATED_(9C)
  6
Continuous
 62
     7
100
AcDbCircle
 10
102.4092374978
 20
164.6777237745
 30
0.0
 40
0.2999999999999999
100
AcDbArc
 50
180.0
 51
270.0
  0
ARC
  5
E1
330
D0
100
AcDbEntity
  8
$DDT_AUDIT_GENERATED_(9C)
  6
Continuous
 62
     7
100
AcDbCircle
 10
113.8092374978
 20
164.6777237745
 30
0.0
 40
0.3000000000000017
100
AcDbArc
 50
270.0
 51
0.0
  0
ARC
  5
E2
330
D0
100
AcDbEntity
  8
$DDT_AUDIT_GENERATED_(A2)
  6
Continuous
 62
     7
100
AcDbCircle
 10
108.1109747679
 20
158.8749644991
 30
0.0
 40
25.87500000000042
100
AcDbArc
 50
180.5
 51
205.1944933243
  0
ARC
  5
E3
330
D0
100
AcDbEntity
  8
$DDT_AUDIT_GENERATED_(A2)
  6
Continuous
 62
     7
100
AcDbCircle
 10
108.1109747679
 20
158.8749644991
 30
0.0
 40
25.87500000000077
100
AcDbArc
 50
334.7938927488
 51
359.5
  0
LINE
  5
E4
330
D0
100
AcDbEntity
  8
$DDT_AUDIT_GENERATED_(A2)
  6
Continuous
 62
     7
100
AcDbLine
 10
82.2369600086
 20
158.6491653931
 30
0.0
 11
82.1347017631
 21
170.3667997178
 31
0.0
  0
LINE
  5
E5
330
D0
100
AcDbEntity
  8
$DDT_AUDIT_GENERATED_(A2)
  6
Continuous
 62
     7
100
AcDbLine
 10
134.0872485605
 20
170.3668899791
 30
0.0
 11
133.9849895272
 21
158.6491653931
 31
0.0
  0
ARC
  5
E6
330
D0
100
AcDbEntity
  8
$DDT_AUDIT_GENERATED_(79)
  6
Continuous
 62
     7
100
AcDbCircle
 10
-946.6591094212
 20
213.0890143082
 30
0.0
 40
1083.734057920633
100
AcDbArc
 50
356.3429366537
 51
356.5326661841
  0
SPLINE
  5
E7
330
D0
100
AcDbEntity
  8
$DDT_AUDIT_GENERATED_(79)
  6
Continuous
 62
     7
100
AcDbSpline
210
0.0
220
0.0
230
1.0
 70
     8
 71
     3
 72
     9
 73
     5
 74
     0
 42
0.0000000002575938
 43
0.0000000001
 40
0.0168004702047804
 40
0.0168004702047804
 40
0.0168004702047804
 40
0.0168004702047804
 40
0.022887018130834
 40
0.0232470895583957
 40
0.0232470895583957
 40
0.0232470895583957
 40
0.0232470895583957
 10
133.2146136532164
 20
121.4985921460993
 30
0.0
 10
133.2082659835787
 20
121.4197823367829
 30
0.0
 10
133.2005490445981
 20
121.3366743626314
 30
0.0
 10
133.1913766033938
 20
121.2540896837588
 30
0.0
 10
133.1908597364045
 20
121.2494785939603
 30
0.0
  0
SPLINE
  5
E8
330
D0
100
AcDbEntity
  8
$DDT_AUDIT_GENERATED_(79)
  6
Continuous
 62
     7
100
AcDbSpline
210
0.0
220
0.0
230
1.0
 70
     8
 71
     3
 72
     8
 73
     4
 74
     0
 42
0.0000000002564335
 43
0.0000000001
 40
0.9786967615299837
 40
0.9786967615299837
 40
0.9786967615299837
 40
0.9786967615299837
 40
0.9887842135221542
 40
0.9887842135221542
 40
0.9887842135221542
 40
0.9887842135221542
 10
83.0439574183641
 20
121.3276237242369
 30
0.0
 10
83.02795637079532
 20
121.4574012733802
 30
0.0
 10
83.01490364271231
 20
121.587929983062
 30
0.0
 10
83.00336181662848
 20
121.7188571987703
 30
0.0
  0
SPLINE
  5
E9
330
D0
100
AcDbEntity
  8
$DDT_AUDIT_GENERATED_(79)
  6
Continuous
 62
     7
100
AcDbSpline
210
0.0
220
0.0
230
1.0
 70
     8
 71
     3
 72
    25
 73
    21
 74
     0
 42
0.0000000001679549
 43
0.0000000001
 40
0.0
 40
0.0
 40
0.0
 40
0.0
 40
0.0154737985287266
 40
0.0361771056719343
 40
0.0625495084376851
 40
0.0907737379717599
 40
0.1244497526858629
 40
0.1849170053317006
 40
0.2494005406954019
 40
0.3328835237842098
 40
0.4168932079047601
 40
0.5014519254478346
 40
0.626826119668616
 40
0.7521581955428988
 40
0.8164421501885812
 40
0.8763877889105893
 40
0.9099273420698915
 40
0.9379746127821659
 40
0.9751010201300409
 40
1.0
 40
1.0
 40
1.0
 40
1.0
 10
82.96849099772477
 20
122.1565667382893
 30
0.0
 10
82.96878718968898
 20
122.3242043118783
 30
0.0
 10
82.97163844482921
 20
122.71597995067
 30
0.0
 10
83.0902417792286
 20
123.4014588133858
 30
0.0
 10
83.3593462926977
 20
124.2305010408178
 30
0.0
 10
83.85584482199279
 20
125.1944699232972
 30
0.0
 10
84.81628615582429
 20
126.5181601823487
 30
0.0
 10
86.59765382838059
 20
128.1897195632779
 30
0.0
 10
89.87339354751234
 20
130.1572874236087
 30
0.0
 10
94.72411838234966
 20
131.8630416735443
 30
0.0
 10
101.1437239814756
 20
132.9565797074144
 30
0.0
 10
109.310843389437
 20
133.3715332563038
 30
0.0
 10
118.6912839965304
 20
132.6529318748686
 30
0.0
 10
125.7791110957332
 20
130.5149947576699
 30
0.0
 10
129.6673451174355
 20
128.1501956836528
 30
0.0
 10
131.4287390864538
 20
126.4868197633384
 30
0.0
 10
132.3780142781903
 20
125.171671252988
 30
0.0
 10
132.9255770938816
 20
124.0943425488174
 30
0.0
 10
133.2254536041148
 20
123.0991624401557
 30
0.0
 10
133.2458511059112
 20
122.4265560584698
 30
0.0
 10
133.2532860540237
 20
122.1564766982753
 30
0.0
  0
LINE
  5
EA
330
D0
100
AcDbEntity
  8
$DDT_AUDIT_GENERATED_(79)
  6
Continuous
 62
     7
100
AcDbLine
 10
81.4302615372
 20
147.8636554392
 30
0.0
 11
102.1078272071
 21
147.8636554392
 31
0.0
  0
LINE
  5
EB
330
D0
100
AcDbEntity
  8
$DDT_AUDIT_GENERATED_(79)
  6
Continuous
 62
     7
100
AcDbLine
 10
114.114293125
 20
147.8636554392
 30
0.0
 11
134.7916685982
 21
147.8636554392
 31
0.0
  0
ARC
  5
EC
330
D0
100
AcDbEntity
  8
$DDT_AUDIT_GENERATED_(79)
  6
Continuous
 62
     7
100
AcDbCircle
 10
1117.0032150398
 20
209.7621349541
 30
0.0
 40
1037.739151283779
100
AcDbArc
 50
183.4371805735
 51
183.6490797861
  0
ARC
  5
ED
330
D0
100
AcDbEntity
  8
$DDT_AUDIT_GENERATED_(79)
  6
Continuous
 62
     7
100
AcDbCircle
 10
134.7916211471
 20
147.5636107946
 30
0.0
 40
0.3000446484005816
100
AcDbArc
 50
356.5133071755
 51
89.9909388575
  0
ARC
  5
EE
330
D0
100
AcDbEntity
  8
$DDT_AUDIT_GENERATED_(79)
  6
Continuous
 62
     7
100
AcDbCircle
 10
81.4303416529
 20
147.5635800481
 30
0.0
 40
0.3000754018266584
100
AcDbArc
 50
90.0152971253
 51
183.478312348
  0
ARC
  5
EF
330
D0
100
AcDbEntity
  8
$DDT_AUDIT_GENERATED_(79)
  6
Continuous
 62
     7
100
AcDbCircle
 10
-819.6096961179
 20
202.7583719733
 30
0.0
 40
956.2844693462271
100
AcDbArc
 50
355.1259646141
 51
356.475093149
  0
ARC
  5
F0
330
D0
100
AcDbEntity
  8
$DDT_AUDIT_GENERATED_(79)
  6
Continuous
 62
     7
100
AcDbCircle
 10
1123.1855297844
 20
209.419864648
 30
0.0
 40
1043.882625078221
100
AcDbArc
 50
183.6087405657
 51
184.819106982
  0
ARC
  5
F1
330
D0
100
AcDbEntity
  8
$DDT_AUDIT_GENERATED_(79)
  6
Continuous
 62
     7
100
AcDbCircle
 10
108.1083014859
 20
198.2249809232
 30
0.0
 40
91.8748678750444
100
AcDbArc
 50
261.7496428954
 51
278.2604298371
  0
SPLINE
  5
F2
330
D0
100
AcDbEntity
  8
$DDT_AUDIT_GENERATED_(79)
  6
Continuous
 62
     7
100
AcDbSpline
210
0.0
220
0.0
230
1.0
 70
     8
 71
     3
 72
    38
 73
    34
 74
     0
 42
0.0000000005303098
 43
0.0000000001
 40
0.0
 40
0.0
 40
0.0
 40
0.0
 40
0.0371583072522454
 40
0.068323197563612
 40
0.0933965113523156
 40
0.1122991213990478
 40
0.1380781009407125
 40
0.1647793628447037
 40
0.1954602040146363
 40
0.226746103486165
 40
0.2547953372378537
 40
0.2796484997529641
 40
0.3013880318032861
 40
0.3266160508653668
 40
0.3563916811716791
 40
0.3906839062066558
 40
0.4294082212047694
 40
0.4709433116509735
 40
0.5212545291729606
 40
0.5716690672210206
 40
0.6219728375509063
 40
0.6719156426172712
 40
0.7180665259744504
 40
0.7589514462018996
 40
0.7783592341611933
 40
0.7962507881995399
 40
0.8126786631747542
 40
0.8319279557070353
 40
0.8566882039877396
 40
0.8863608900037918
 40
0.9213234629825507
 40
0.961643851195698
 40
1.0
 40
1.0
 40
1.0
 40
1.0
 10
83.03449226477714
 20
121.3455020317141
 30
0.0
 10
83.09581799538972
 20
120.9486729010554
 30
0.0
 10
83.19591899899557
 20
120.3361595434118
 30
0.0
 10
83.47765903570057
 20
119.430455135783
 30
0.0
 10
83.76728416778624
 20
118.7352240321328
 30
0.0
 10
84.08583493238272
 20
118.1003560238936
 30
0.0
 10
84.44405288137588
 20
117.4879116921176
 30
0.0
 10
84.89172236086476
 20
116.8207031054965
 30
0.0
 10
85.40250642388808
 20
116.1458886330619
 30
0.0
 10
85.94601683444901
 20
115.4944279076321
 30
0.0
 10
86.46613939613223
 20
114.9141876606944
 30
0.0
 10
86.92651953662411
 20
114.4250477613713
 30
0.0
 10
87.35450465671191
 20
113.9846932188394
 30
0.0
 10
87.80898264942881
 20
113.531940226482
 30
0.0
 10
88.34144525310765
 20
113.0182324229369
 30
0.0
 10
88.95044991075355
 20
112.450779912138
 30
0.0
 10
89.61792698118687
 20
111.8480979357912
 30
0.0
 10
90.34291334739228
 20
111.2044541984437
 30
0.0
 10
91.04550242352066
 20
110.5721510418117
 30
0.0
 10
91.68675109960577
 20
109.9780689772656
 30
0.0
 10
92.25029251282986
 20
109.4615807259908
 30
0.0
 10
92.66560012380249
 20
109.0450421320704
 30
0.0
 10
92.97700232201204
 20
108.7074172701132
 30
0.0
 10
93.18821110007977
 20
108.4738936976754
 30
0.0
 10
93.3371264763318
 20
108.3149827899155
 30
0.0
 10
93.44014595018432
 20
108.2092825365033
 30
0.0
 10
93.54158218518717
 20
108.1099941535752
 30
0.0
 10
93.67848730400921
 20
107.9852973609187
 30
0.0
 10
93.8640743978049
 20
107.8314524065518
 30
0.0
 10
94.09989285958842
 20
107.6603552176992
 30
0.0
 10
94.37373752464384
 20
107.4949482277152
 30
0.0
 10
94.66241333680102
 20
107.3607547198361
 30
0.0
 10
94.82242724431612
 20
107.3248859987362
 30
0.0
 10
94.91452141464245
 20
107.3055258822301
 30
0.0
  0
SPLINE
  5
F3
330
D0
100
AcDbEntity
  8
$DDT_AUDIT_GENERATED_(79)
  6
Continuous
 62
     7
100
AcDbSpline
210
0.0
220
0.0
230
1.0
 70
     8
 71
     3
 72
    31
 73
    27
 74
     0
 42
0.000000000531963
 43
0.0000000001
 40
0.0
 40
0.0
 40
0.0
 40
0.0
 40
0.0674663589360636
 40
0.1378494517668943
 40
0.207328083989794
 40
0.2797184707290662
 40
0.3384900245779054
 40
0.3970684420560668
 40
0.4497037278118627
 40
0.4954411345003514
 40
0.5416656408908369
 40
0.5911021043385348
 40
0.6453599268615252
 40
0.7057137879020554
 40
0.7380931784219494
 40
0.7684359885120745
 40
0.7950289747365957
 40
0.8178485045265316
 40
0.8278374075695838
 40
0.8386116997141764
 40
0.8538657618803543
 40
0.8737652057129386
 40
0.8983565063001151
 40
0.9276788737744303
 40
0.9616384962255194
 40
1.0
 40
1.0
 40
1.0
 40
1.0
 10
121.3185916637179
 20
107.3113384719168
 30
0.0
 10
121.5115878359031
 20
107.3641745678917
 30
0.0
 10
121.8408077242853
 20
107.4560690421514
 30
0.0
 10
122.3450024216821
 20
107.7987296690339
 30
0.0
 10
122.7745093193541
 20
108.1642308146031
 30
0.0
 10
123.1857884526376
 20
108.6021015498235
 30
0.0
 10
123.6532564297509
 20
109.0870019245632
 30
0.0
 10
124.1973607565837
 20
109.5947123352192
 30
0.0
 10
124.8275727616316
 20
110.1531186719074
 30
0.0
 10
125.4565963716545
 20
110.7313041400501
 30
0.0
 10
126.1715038942195
 20
111.3660036357688
 30
0.0
 10
126.9993264216788
 20
112.1049340148686
 30
0.0
 10
127.9612291718531
 20
112.9947854689303
 30
0.0
 10
128.8627718297876
 20
113.8827989509875
 30
0.0
 10
129.626268357698
 20
114.6824981590906
 30
0.0
 10
130.1789257822886
 20
115.2906565772297
 30
0.0
 10
130.6617039511424
 20
115.8567826981099
 30
0.0
 10
131.0113144915296
 20
116.2959194592152
 30
0.0
 10
131.2604743992368
 20
116.6265072739031
 30
0.0
 10
131.4657279761359
 20
116.9099814984931
 30
0.0
 10
131.7262643242332
 20
117.2912645522642
 30
0.0
 10
132.0449653546787
 20
117.8023228874784
 30
0.0
 10
132.3989392218836
 20
118.4549940949677
 30
0.0
 10
132.7470896647476
 20
119.2497895166868
 30
0.0
 10
133.0385543326832
 20
120.2112869039913
 30
0.0
 10
133.1337149705777
 20
120.8488625578737
 30
0.0
 10
133.1894233749071
 20
121.2512163178425
 30
0.0
  0
LINE
  5
F4
330
D0
100
AcDbEntity
  8
$DDT_AUDIT_GENERATED_(87)
  6
Continuous
 62
     7
100
AcDbLine
 10
26.3092374978
 20
181.7749644991
 30
0.0
 11
189.9092374978
 21
181.7749644991
 31
0.0
  0
LINE
  5
F5
330
D0
100
AcDbEntity
  8
$DDT_AUDIT_GENERATED_(87)
  6
Continuous
 62
     7
100
AcDbLine
 10
26.3092374978
 20
174.3008795927
 30
0.0
 11
189.9092374978
 21
174.3008795927
 31
0.0
  0
SPLINE
  5
F6
330
D0
100
AcDbEntity
  8
$DDT_AUDIT_GENERATED_(87)
  6
Continuous
 62
     7
100
AcDbSpline
210
0.0
220
0.0
230
1.0
 70
     8
 71
     3
 72
     8
 73
     4
 74
     0
 42
0.0000000001067844
 43
0.0000000001
 40
0.0
 40
0.0
 40
0.0
 40
0.0
 40
0.0281625340389904
 40
0.0281625340389904
 40
0.0281625340389904
 40
0.0281625340389904
 10
128.9082887407828
 20
170.2534988193995
 30
0.0
 10
129.9102986748155
 20
170.2694718997357
 30
0.0
 10
130.7877093752978
 20
170.2863476247169
 30
0.0
 10
131.5451183027967
 20
170.3040928366468
 30
0.0
  0
SPLINE
  5
F7
330
D0
100
AcDbEntity
  8
$DDT_AUDIT_GENERATED_(87)
  6
Continuous
 62
     7
100
AcDbSpline
210
0.0
220
0.0
230
1.0
 70
     8
 71
     3
 72
    16
 73
    12
 74
     0
 42
0.0000000000767388
 43
0.0000000001
 40
0.6886201385571425
 40
0.6886201385571425
 40
0.6886201385571425
 40
0.6886201385571425
 40
0.7187500000000003
 40
0.7187500000000003
 40
0.7500000000000002
 40
0.7500000000000002
 40
0.7812500000000002
 40
0.7812500000000002
 40
0.8125000000000002
 40
0.8125000000000002
 40
0.8223761554127045
 40
0.8223761554127045
 40
0.8223761554127045
 40
0.8223761554127045
 10
84.67608758044605
 20
170.3040302926358
 30
0.0
 10
85.49183837440552
 20
170.2849395854604
 30
0.0
 10
86.45755993626565
 20
170.2666863678845
 30
0.0
 10
88.64674499331448
 20
170.2327076040096
 30
0.0
 10
89.88692085898849
 20
170.2168661670734
 30
0.0
 10
92.627369681441
 20
170.1882019064384
 30
0.0
 10
94.09322675672105
 20
170.1757605627965
 30
0.0
 10
97.17671937308775
 20
170.1548006913457
 30
0.0
 10
98.81652268612639
 20
170.1461700473661
 30
0.0
 10
101.0323992297973
 20
170.1376922854223
 30
0.0
 10
101.5673306778081
 20
170.1358758182684
 30
0.0
 10
102.1050524483906
 20
170.1342776573054
 30
0.0
  0
SPLINE
  5
F8
330
D0
100
AcDbEntity
  8
$DDT_AUDIT_GENERATED_(87)
  6
Continuous
 62
     7
100
AcDbSpline
210
0.0
220
0.0
230
1.0
 70
     8
 71
     3
 72
    12
 73
     8
 74
     0
 42
0.0000000000713
 43
0.0000000001
 40
0.8945152211199838
 40
0.8945152211199838
 40
0.8945152211199838
 40
0.8945152211199838
 40
0.9062500000000001
 40
0.9062500000000001
 40
0.9375000000000001
 40
0.9375000000000001
 40
1.0
 40
1.0
 40
1.0
 40
1.0
 10
114.1143860788691
 20
170.1342799773689
 30
0.0
 10
114.7529114970405
 20
170.1361777062992
 30
0.0
 10
115.3872468615853
 20
170.1383828425218
 30
0.0
 10
117.6953889775083
 20
170.1475933663062
 30
0.0
 10
119.3268626398368
 20
170.1564686143795
 30
0.0
 10
123.9232661966555
 20
170.1886024091759
 30
0.0
 10
126.6845676512553
 20
170.2180503927902
 30
0.0
 10
128.9082887407828
 20
170.2534988193995
 30
0.0
  0
SPLINE
  5
F9
330
D0
100
AcDbEntity
  8
$DDT_AUDIT_GENERATED_(87)
  6
Continuous
 62
     7
100
AcDbSpline
210
0.0
220
0.0
230
1.0
 70
     8
 71
     3
 72
     8
 73
     4
 74
     0
 42
0.0000000003965335
 43
0.0000000001
 40
0.0
 40
0.0
 40
0.0
 40
0.0
 40
0.0075514269347328
 40
0.0075514269347328
 40
0.0075514269347328
 40
0.0075514269347328
 10
113.2173052773657
 20
171.1057498048919
 30
0.0
 10
113.2827862089988
 20
171.1023225162239
 30
0.0
 10
113.346178094518
 20
171.0988376569806
 30
0.0
 10
113.4074538327114
 20
171.0952980734748
 30
0.0
  0
SPLINE
  5
FA
330
D0
100
AcDbEntity
  8
$DDT_AUDIT_GENERATED_(87)
  6
Continuous
 62
     7
100
AcDbSpline
210
0.0
220
0.0
230
1.0
 70
     8
 71
     3
 72
    10
 73
     6
 74
     0
 42
0.0000000010092084
 43
0.0000000001
 40
0.1185796520621276
 40
0.1185796520621276
 40
0.1185796520621276
 40
0.1185796520621276
 40
0.125
 40
0.125
 40
0.172272593564375
 40
0.172272593564375
 40
0.172272593564375
 40
0.172272593564375
 10
114.6451609614006
 20
170.9145232376886
 30
0.0
 10
114.6391942853682
 20
170.9108404197096
 30
0.0
 10
114.6314555544269
 20
170.9071640589539
 30
0.0
 10
114.5518850222329
 20
170.8764989033292
 30
0.0
 10
114.3811874736299
 20
170.8499528877032
 30
0.0
 10
114.1239738724126
 20
170.8249436328846
 30
0.0
  0
SPLINE
  5
FB
330
D0
100
AcDbEntity
  8
$DDT_AUDIT_GENERATED_(87)
  6
Continuous
 62
     7
100
AcDbSpline
210
0.0
220
0.0
230
1.0
 70
     8
 71
     3
 72
     8
 73
     4
 74
     0
 42
0.0000000010124096
 43
0.0000000001
 40
0.542943423014521
 40
0.542943423014521
 40
0.542943423014521
 40
0.542943423014521
 40
0.597333811939822
 40
0.597333811939822
 40
0.597333811939822
 40
0.597333811939822
 10
102.1002056566846
 20
170.8243235372489
 30
0.0
 10
101.8069096827571
 20
170.8531405518633
 30
0.0
 10
101.6279361946672
 20
170.8840600155046
 30
0.0
 10
101.5756395325193
 20
170.915274883659
 30
0.0
  0
SPLINE
  5
FC
330
D0
100
AcDbEntity
  8
$DDT_AUDIT_GENERATED_(87)
  6
Continuous
 62
     7
100
AcDbSpline
210
0.0
220
0.0
230
1.0
 70
     8
 71
     3
 72
    14
 73
    10
 74
     0
 42
0.0000000003288901
 43
0.0000000001
 40
0.6160559929317655
 40
0.6160559929317655
 40
0.6160559929317655
 40
0.6160559929317655
 40
0.6250000000000001
 40
0.6250000000000001
 40
0.7500000000000001
 40
0.7500000000000001
 40
0.8750000000000001
 40
0.8750000000000001
 40
1.0
 40
1.0
 40
1.0
 40
1.0
 10
101.5671674107949
 20
170.9475403974886
 30
0.0
 10
101.5731491454087
 20
170.9526716334166
 30
0.0
 10
101.5826713195406
 20
170.9577940374397
 30
0.0
 10
101.7791176127213
 20
171.0342537341636
 30
0.0
 10
102.6541703962085
 20
171.1022251788911
 30
0.0
 10
105.3450336184923
 20
171.1933334706764
 30
0.0
 10
107.1124107280001
 20
171.2148452740686
 30
0.0
 10
110.5159985455056
 20
171.1993593455163
 30
0.0
 10
112.1333887507432
 20
171.1624822724371
 30
0.0
 10
113.2173052773657
 20
171.1057498048919
 30
0.0
  0
ARC
  5
FD
330
D0
100
AcDbEntity
  8
$DDT_AUDIT_GENERATED_(87)
  6
Continuous
 62
     7
100
AcDbCircle
 10
108.1092374978
 20
1170.5295732168
 30
0.0
 40
1000.5
100
AcDbArc
 50
265.3631252612
 51
268.6589578143
  0
ARC
  5
FE
330
D0
100
AcDbEntity
  8
$DDT_AUDIT_GENERATED_(87)
  6
Continuous
 62
     7
100
AcDbCircle
 10
108.1092374978
 20
1170.5295732168
 30
0.0
 40
1000.5
100
AcDbArc
 50
271.3416916173
 51
274.6368747388
  0
LINE
  5
FF
330
D0
100
AcDbEntity
  8
$DDT_AUDIT_GENERATED_(87)
  6
Continuous
 62
     7
100
AcDbLine
 10
26.3092374978
 20
181.7749644991
 30
0.0
 11
26.3092374978
 21
174.3008795927
 31
0.0
  0
LINE
  5
100
330
D0
100
AcDbEntity
  8
$DDT_AUDIT_GENERATED_(87)
  6
Continuous
 62
     7
100
AcDbLine
 10
189.9092374978
 20
174.3008795927
 30
0.0
 11
189.9092374978
 21
181.7749644991
 31
0.0
  0
ARC
  5
101
330
D0
100
AcDbEntity
  8
$DDT_AUDIT_GENERATED_(87)
  6
Continuous
 62
     7
100
AcDbCircle
 10
27.3092374978
 20
174.3008795927
 30
0.0
 40
1.000000000000001
100
AcDbArc
 50
180.0
 51
265.3631252611
  0
ARC
  5
102
330
D0
100
AcDbEntity
  8
$DDT_AUDIT_GENERATED_(87)
  6
Continuous
 62
     7
100
AcDbCircle
 10
188.9092374978
 20
174.3008795927
 30
0.0
 40
0.9999999999997862
100
AcDbArc
 50
274.6368747389
 51
0.0
  0
SPLINE
  5
103
330
D0
100
AcDbEntity
  8
$DDT_AUDIT_GENERATED_(87)
  6
Continuous
 62
     7
100
AcDbSpline
210
0.0
220
0.0
230
1.0
 70
     8
 71
     3
 72
    13
 73
     9
 74
     0
 42
0.0000000071657383
 43
0.0000000001
 40
0.0
 40
0.0
 40
0.0
 40
0.0
 40
0.0327904848150316
 40
0.243243878215265
 40
0.4545139144039975
 40
0.660600836476993
 40
0.7971000299777371
 40
0.8350987916228966
 40
0.8350987916228966
 40
0.8350987916228966
 40
0.8350987916228966
 10
113.3919438810142
 20
171.0953333751127
 30
0.0
 10
113.4218741980058
 20
171.0936753883416
 30
0.0
 10
113.6119429560331
 20
171.0831017612981
 30
0.0
 10
113.9367346061664
 20
171.0597166621911
 30
0.0
 10
114.2754907839729
 20
171.0268965340178
 30
0.0
 10
114.4723490862162
 20
170.9978538857804
 30
0.0
 10
114.5419478984245
 20
170.9784750594711
 30
0.0
 10
114.5493351254243
 20
170.9762457845305
 30
0.0
 10
114.5493119256089
 20
170.9763836064775
 30
0.0
  0
ENDBLK
  5
105
330
D0
100
AcDbEntity
  8
0
100
AcDbBlockEnd
  0
ENDSEC
  0
SECTION
  2
ENTITIES
  0
INSERT
  5
5F
330
1F
100
AcDbEntity
  8
Default
100
AcDbBlockReference
  2
SEANNOT_GROUP
 10
0.0
 20
0.0
 30
0.0
  0
LINE
  5
69
330
1F
100
AcDbEntity
  8
Default
  6
Continuous
 62
     7
100
AcDbLine
 10
288.882225791
 20
354.2593169938
 30
0.0
 11
288.882225791
 21
302.4105579728
 31
0.0
  0
INSERT
  5
6B
330
1F
100
AcDbEntity
  8
Default
100
AcDbBlockReference
  2
SEANNOT_GROUP1
 10
0.0
 20
0.0
 30
0.0
  0
LINE
  5
70
330
1F
100
AcDbEntity
  8
Default
  6
Continuous
 62
     7
100
AcDbLine
 10
102.1092374978
 20
164.6777237745
 30
0.0
 11
102.1092374978
 21
171.0433716843
 31
0.0
  0
INSERT
  5
72
330
1F
100
AcDbEntity
  8
Default
100
AcDbBlockReference
  2
SEANNOT_GROUP2
 10
0.0
 20
0.0
 30
0.0
  0
INSERT
  5
78
330
1F
100
AcDbEntity
  8
Default
100
AcDbBlockReference
  2
SE
 10
0.0
 20
0.0
 30
0.0
  0
INSERT
  5
8E
330
1F
100
AcDbEntity
  8
Default
100
AcDbBlockReference
  2
SE1
 10
0.0
 20
0.0
 30
0.0
  0
INSERT
  5
D1
330
1F
100
AcDbEntity
  8
Default
100
AcDbBlockReference
  2
SE2
 10
0.0
 20
0.0
 30
0.0
  0
TEXT
  5
107
330
1F
100
AcDbEntity
  8
Default
  6
Continuous
 62
     7
100
AcDbText
 10
5.9362635081
 20
53.4225120485
 30
0.0
 40
10.0
  1
Grohe AG^J
  7
SEACAD_seiso_ttf
 11
5.9362635081
 21
63.4225120485
 31
0.0
100
AcDbText
 73
     3
  0
TEXT
  5
108
330
1F
100
AcDbEntity
  8
Default
  6
Continuous
 62
     7
100
AcDbText
 10
5.9362635081
 20
37.0588756849
 30
0.0
 40
10.0
  1
 
  7
SEACAD_seiso_ttf
 11
5.9362635081
 21
47.0588756849
 31
0.0
100
AcDbText
 73
     3
  0
TEXT
  5
109
330
1F
100
AcDbEntity
  8
Default
  6
Continuous
 62
     7
100
AcDbText
 10
5.9362635081
 20
20.6952393213
 30
0.0
 40
10.0
  1
ecn:
  7
SEACAD_seiso_ttf
 11
5.9362635081
 21
30.6952393213
 31
0.0
100
AcDbText
 73
     3
  0
TEXT
  5
10A
330
1F
100
AcDbEntity
  8
Default
  6
Continuous
 62
     7
100
AcDbText
 10
5.9362635081
 20
4.3316029576
 30
0.0
 40
10.0
  1
unit: mm
  7
SEACAD_seiso_ttf
 11
5.9362635081
 21
14.3316029576
 31
0.0
100
AcDbText
 73
     3
  0
LINE
  5
10B
330
1F
100
AcDbEntity
  8
Default
  6
Continuous
 62
     7
100
AcDbLine
 10
0.0
 20
0.0
 30
0.0
 11
100.0
 21
0.0
 31
0.0
  0
LINE
  5
10C
330
1F
100
AcDbEntity
  8
Default
  6
Continuous
 62
     7
100
AcDbLine
 10
0.0
 20
0.0
 30
0.0
 11
0.0
 21
100.0
 31
0.0
  0
TEXT
  5
10D
330
1F
100
AcDbEntity
  8
Default
  6
Continuous
 62
     7
100
AcDbText
 10
24.3923665681
 20
-18.2375342018
 30
0.0
 40
10.0
  1
100 mm
  7
SEACAD_seiso_ttf
 11
24.3923665681
 21
-8.2375342018
 31
0.0
100
AcDbText
 73
     3
  0
TEXT
  5
10E
330
1F
100
AcDbEntity
  8
Default
  6
Continuous
 62
     7
100
AcDbText
 10
-7.6150308803
 20
24.6231930421
 30
0.0
 40
10.0
  1
100 mm
 50
90.0
  7
SEACAD_seiso_ttf
 11
-17.6150308803
 21
24.6231930421
 31
0.0
100
AcDbText
 73
     3
  0
TEXT
  5
10F
330
1F
100
AcDbEntity
  8
Default
  6
Continuous
 62
     7
100
AcDbText
 10
28.4878128572
 20
20.0907663715
 30
0.0
 40
10.0
  1
231550
  7
SEACAD_seiso_ttf
 11
28.4878128572
 21
30.0907663715
 31
0.0
100
AcDbText
 73
     3
  0
TEXT
  5
110
330
1F
100
AcDbEntity
  8
Default
  6
Continuous
 62
     7
100
AcDbText
 10
5.9012241913
 20
36.7242780188
 30
0.0
 40
10.0
  1
19450002
  7
SEACAD_seiso_ttf
 11
5.9012241913
 21
46.7242780188
 31
0.0
100
AcDbText
 73
     3
  0
ENDSEC
  0
SECTION
  2
OBJECTS
  0
DICTIONARY
  5
C
330
0
100
AcDbDictionary
281
     1
  3
ACAD_GROUP
350
D
  3
ACAD_LAYOUT
350
1A
  3
ACAD_MLEADERSTYLE
350
114
  3
ACAD_MLINESTYLE
350
17
  3
ACAD_PLOTSETTINGS
350
19
  3
ACAD_PLOTSTYLENAME
350
E
  3
ACAD_SCALELIST
350
3B
  3
ACAD_TABLESTYLE
350
113
  3
ACAD_VISUALSTYLE
350
2A
  3
AcDbVariableDictionary
350
111
  0
DICTIONARY
  5
D
102
{ACAD_REACTORS
330
C
102
}
330
C
100
AcDbDictionary
281
     1
  0
DICTIONARY
  5
1A
102
{ACAD_REACTORS
330
C
102
}
330
C
100
AcDbDictionary
281
     1
  3
Layout1
350
1E
  3
Model
350
22
  0
DICTIONARY
  5
114
102
{ACAD_REACTORS
330
C
102
}
330
C
100
AcDbDictionary
281
     1
  0
DICTIONARY
  5
17
102
{ACAD_REACTORS
330
C
102
}
330
C
100
AcDbDictionary
281
     1
  3
Standard
350
18
  0
DICTIONARY
  5
19
102
{ACAD_REACTORS
330
C
102
}
330
C
100
AcDbDictionary
281
     1
  0
ACDBDICTIONARYWDFLT
  5
E
102
{ACAD_REACTORS
330
C
102
}
330
C
100
AcDbDictionary
281
     1
  3
Normal
350
F
100
AcDbDictionaryWithDefault
340
F
  0
DICTIONARY
  5
3B
102
{ACAD_REACTORS
330
C
102
}
330
C
100
AcDbDictionary
281
     1
  3
A0
350
3C
  3
A1
350
3D
  3
A2
350
3E
  3
A3
350
3F
  3
A4
350
40
  3
A5
350
41
  3
A6
350
42
  3
A7
350
43
  3
A8
350
44
  3
A9
350
45
  3
B0
350
46
  3
B1
350
47
  3
B2
350
48
  3
B3
350
49
  3
B4
350
4A
  3
B5
350
4B
  3
B6
350
4C
  3
B7
350
4D
  3
B8
350
4E
  3
B9
350
4F
  3
C0
350
50
  3
C1
350
51
  3
C2
350
52
  3
C3
350
53
  3
C4
350
54
  3
C5
350
55
  3
C6
350
56
  3
C7
350
57
  3
C8
350
58
  3
C9
350
59
  3
D0
350
5A
  3
D1
350
5B
  3
D2
350
5C
  0
DICTIONARY
  5
113
102
{ACAD_REACTORS
330
C
102
}
330
C
100
AcDbDictionary
281
     1
  0
DICTIONARY
  5
2A
102
{ACAD_REACTORS
330
C
102
}
330
C
100
AcDbDictionary
281
     1
  3
2dWireframe
350
2F
  3
3D Hidden
350
31
  3
3dWireframe
350
30
  3
Basic
350
32
  3
Brighten
350
36
  3
ColorChange
350
3A
  3
Conceptual
350
34
  3
Dim
350
35
  3
Facepattern
350
39
  3
Flat
350
2B
  3
FlatWithEdges
350
2C
  3
Gouraud
350
2D
  3
GouraudWithEdges
350
2E
  3
Linepattern
350
38
  3
Realistic
350
33
  3
Thicken
350
37
  0
DICTIONARY
  5
111
102
{ACAD_REACTORS
330
C
102
}
330
C
100
AcDbDictionary
281
     1
  3
CANNOSCALE
350
112
  3
PSOLHEIGHT
350
116
  3
PSOLWIDTH
350
115
  0
LAYOUT
  5
1E
102
{ACAD_REACTORS
330
1A
102
}
330
1A
100
AcDbPlotSettings
  1

  2
none_device
  4

  6

 40
0.0
 41
0.0
 42
0.0
 43
0.0
 44
0.0
 45
0.0
 46
0.0
 47
0.0
 48
0.0
 49
0.0
140
0.0
141
0.0
142
1.0
143
1.0
 70
   688
 72
     0
 73
     0
 74
     5
  7

 75
    16
147
1.0
148
0.0
149
0.0
100
AcDbLayout
  1
Layout1
 70
     1
 71
     1
 10
0.0
 20
0.0
 11
3000.0
 21
4500.0
 12
0.0
 22
0.0
 32
0.0
 14
0.0
 24
0.0
 34
0.0
 15
3000.0
 25
4500.0
 35
0.0
146
0.0
 13
0.0
 23
0.0
 33
0.0
 16
1.0
 26
0.0
 36
0.0
 17
0.0
 27
1.0
 37
0.0
 76
     0
330
1B
  0
LAYOUT
  5
22
102
{ACAD_REACTORS
330
1A
102
}
330
1A
100
AcDbPlotSettings
  1

  2
none_device
  4

  6

 40
0.0
 41
0.0
 42
0.0
 43
0.0
 44
0.0
 45
0.0
 46
0.0
 47
0.0
 48
0.0
 49
0.0
140
0.0
141
0.0
142
1.0
143
1.0
 70
  1712
 72
     0
 73
     0
 74
     0
  7

 75
     0
147
1.0
148
0.0
149
0.0
100
AcDbLayout
  1
Model
 70
     1
 71
     0
 10
0.0
 20
0.0
 11
3000.0
 21
4500.0
 12
0.0
 22
0.0
 32
0.0
 14
0.0
 24
0.0
 34
0.0
 15
3000.0
 25
4500.0
 35
0.0
146
0.0
 13
0.0
 23
0.0
 33
0.0
 16
1.0
 26
0.0
 36
0.0
 17
0.0
 27
1.0
 37
0.0
 76
     0
330
1F
331
29
  0
MLINESTYLE
  5
18
102
{ACAD_REACTORS
330
17
102
}
330
17
100
AcDbMlineStyle
  2
Standard
 70
     0
  3

 62
   256
 51
90.0
 52
90.0
 71
     2
 49
0.5
 62
   256
  6
BYLAYER
 49
-0.5
 62
   256
  6
BYLAYER
  0
ACDBPLACEHOLDER
  5
F
102
{ACAD_REACTORS
330
E
102
}
330
E
  0
SCALE
  5
3C
102
{ACAD_REACTORS
330
3B
102
}
330
3B
100
AcDbScale
 70
     0
300
1:1
140
1.0
141
1.0
290
     1
  0
SCALE
  5
3D
102
{ACAD_REACTORS
330
3B
102
}
330
3B
100
AcDbScale
 70
     0
300
1:2
140
1.0
141
2.0
290
     0
  0
SCALE
  5
3E
102
{ACAD_REACTORS
330
3B
102
}
330
3B
100
AcDbScale
 70
     0
300
1:4
140
1.0
141
4.0
290
     0
  0
SCALE
  5
3F
102
{ACAD_REACTORS
330
3B
102
}
330
3B
100
AcDbScale
 70
     0
300
1:5
140
1.0
141
5.0
290
     0
  0
SCALE
  5
40
102
{ACAD_REACTORS
330
3B
102
}
330
3B
100
AcDbScale
 70
     0
300
1:8
140
1.0
141
8.0
290
     0
  0
SCALE
  5
41
102
{ACAD_REACTORS
330
3B
102
}
330
3B
100
AcDbScale
 70
     0
300
1:10
140
1.0
141
10.0
290
     0
  0
SCALE
  5
42
102
{ACAD_REACTORS
330
3B
102
}
330
3B
100
AcDbScale
 70
     0
300
1:16
140
1.0
141
16.0
290
     0
  0
SCALE
  5
43
102
{ACAD_REACTORS
330
3B
102
}
330
3B
100
AcDbScale
 70
     0
300
1:20
140
1.0
141
20.0
290
     0
  0
SCALE
  5
44
102
{ACAD_REACTORS
330
3B
102
}
330
3B
100
AcDbScale
 70
     0
300
1:30
140
1.0
141
30.0
290
     0
  0
SCALE
  5
45
102
{ACAD_REACTORS
330
3B
102
}
330
3B
100
AcDbScale
 70
     0
300
1:40
140
1.0
141
40.0
290
     0
  0
SCALE
  5
46
102
{ACAD_REACTORS
330
3B
102
}
330
3B
100
AcDbScale
 70
     0
300
1:50
140
1.0
141
50.0
290
     0
  0
SCALE
  5
47
102
{ACAD_REACTORS
330
3B
102
}
330
3B
100
AcDbScale
 70
     0
300
1:100
140
1.0
141
100.0
290
     0
  0
SCALE
  5
48
102
{ACAD_REACTORS
330
3B
102
}
330
3B
100
AcDbScale
 70
     0
300
2:1
140
2.0
141
1.0
290
     0
  0
SCALE
  5
49
102
{ACAD_REACTORS
330
3B
102
}
330
3B
100
AcDbScale
 70
     0
300
4:1
140
4.0
141
1.0
290
     0
  0
SCALE
  5
4A
102
{ACAD_REACTORS
330
3B
102
}
330
3B
100
AcDbScale
 70
     0
300
8:1
140
8.0
141
1.0
290
     0
  0
SCALE
  5
4B
102
{ACAD_REACTORS
330
3B
102
}
330
3B
100
AcDbScale
 70
     0
300
10:1
140
10.0
141
1.0
290
     0
  0
SCALE
  5
4C
102
{ACAD_REACTORS
330
3B
102
}
330
3B
100
AcDbScale
 70
     0
300
100:1
140
100.0
141
1.0
290
     0
  0
SCALE
  5
4D
102
{ACAD_REACTORS
330
3B
102
}
330
3B
100
AcDbScale
 70
     0
300
1/128" = 1'-0"
140
0.0078125
141
12.0
290
     0
  0
SCALE
  5
4E
102
{ACAD_REACTORS
330
3B
102
}
330
3B
100
AcDbScale
 70
     0
300
1/64" = 1'-0"
140
0.015625
141
12.0
290
     0
  0
SCALE
  5
4F
102
{ACAD_REACTORS
330
3B
102
}
330
3B
100
AcDbScale
 70
     0
300
1/32" = 1'-0"
140
0.03125
141
12.0
290
     0
  0
SCALE
  5
50
102
{ACAD_REACTORS
330
3B
102
}
330
3B
100
AcDbScale
 70
     0
300
1/16" = 1'-0"
140
0.0625
141
12.0
290
     0
  0
SCALE
  5
51
102
{ACAD_REACTORS
330
3B
102
}
330
3B
100
AcDbScale
 70
     0
300
3/32" = 1'-0"
140
0.09375
141
12.0
290
     0
  0
SCALE
  5
52
102
{ACAD_REACTORS
330
3B
102
}
330
3B
100
AcDbScale
 70
     0
300
1/8" = 1'-0"
140
0.125
141
12.0
290
     0
  0
SCALE
  5
53
102
{ACAD_REACTORS
330
3B
102
}
330
3B
100
AcDbScale
 70
     0
300
3/16" = 1'-0"
140
0.1875
141
12.0
290
     0
  0
SCALE
  5
54
102
{ACAD_REACTORS
330
3B
102
}
330
3B
100
AcDbScale
 70
     0
300
1/4" = 1'-0"
140
0.25
141
12.0
290
     0
  0
SCALE
  5
55
102
{ACAD_REACTORS
330
3B
102
}
330
3B
100
AcDbScale
 70
     0
300
3/8" = 1'-0"
140
0.375
141
12.0
290
     0
  0
SCALE
  5
56
102
{ACAD_REACTORS
330
3B
102
}
330
3B
100
AcDbScale
 70
     0
300
1/2" = 1'-0"
140
0.5
141
12.0
290
     0
  0
SCALE
  5
57
102
{ACAD_REACTORS
330
3B
102
}
330
3B
100
AcDbScale
 70
     0
300
3/4" = 1'-0"
140
0.75
141
12.0
290
     0
  0
SCALE
  5
58
102
{ACAD_REACTORS
330
3B
102
}
330
3B
100
AcDbScale
 70
     0
300
1" = 1'-0"
140
1.0
141
12.0
290
     0
  0
SCALE
  5
59
102
{ACAD_REACTORS
330
3B
102
}
330
3B
100
AcDbScale
 70
     0
300
1-1/2" = 1'-0"
140
1.5
141
12.0
290
     0
  0
SCALE
  5
5A
102
{ACAD_REACTORS
330
3B
102
}
330
3B
100
AcDbScale
 70
     0
300
3" = 1'-0"
140
3.0
141
12.0
290
     0
  0
SCALE
  5
5B
102
{ACAD_REACTORS
330
3B
102
}
330
3B
100
AcDbScale
 70
     0
300
6" = 1'-0"
140
6.0
141
12.0
290
     0
  0
SCALE
  5
5C
102
{ACAD_REACTORS
330
3B
102
}
330
3B
100
AcDbScale
 70
     0
300
1'-0" = 1'-0"
140
12.0
141
12.0
290
     0
  0
VISUALSTYLE
  5
2F
102
{ACAD_REACTORS
330
2A
102
}
330
2A
100
AcDbVisualStyle
  2
2dWireframe
 70
     4
 71
     0
 72
     2
 73
     0
 90
        0
 40
-0.6
 41
-30.0
 62
     5
 63
     7
 74
     1
 91
        4
 64
     7
 65
   257
 75
     1
175
     1
 42
1.0
 92
        0
 66
   257
 43
1.0
 76
     1
 77
     6
 78
     2
 67
     7
 79
     5
170
     0
171
     0
290
     0
174
     0
 93
        1
 44
0.0
173
     0
291
     0
 45
0.0
1001
ACAD
1000
AcDbSavedByObjectVersion
1070
     0
  0
VISUALSTYLE
  5
31
102
{ACAD_REACTORS
330
2A
102
}
330
2A
100
AcDbVisualStyle
  2
3D Hidden
 70
     6
 71
     1
 72
     2
 73
     2
 90
        0
 40
-0.6
 41
-30.0
 62
     5
 63
     7
 74
     2
 91
        2
 64
     7
 65
   257
 75
     2
175
     1
 42
40.0
 92
        0
 66
   257
 43
1.0
 76
     1
 77
     6
 78
     2
 67
     7
 79
     3
170
     0
171
     0
290
     0
174
     0
 93
        1
 44
0.0
173
     0
291
     0
 45
0.0
1001
ACAD
1000
AcDbSavedByObjectVersion
1070
     0
  0
VISUALSTYLE
  5
30
102
{ACAD_REACTORS
330
2A
102
}
330
2A
100
AcDbVisualStyle
  2
3dWireframe
 70
     5
 71
     0
 72
     2
 73
     0
 90
        0
 40
-0.6
 41
-30.0
 62
     5
 63
     7
 74
     1
 91
        4
 64
     7
 65
   257
 75
     1
175
     1
 42
1.0
 92
        0
 66
   257
 43
1.0
 76
     1
 77
     6
 78
     2
 67
     7
 79
     5
170
     0
171
     0
290
     0
174
     0
 93
        1
 44
0.0
173
     0
291
     0
 45
0.0
1001
ACAD
1000
AcDbSavedByObjectVersion
1070
     0
  0
VISUALSTYLE
  5
32
102
{ACAD_REACTORS
330
2A
102
}
330
2A
100
AcDbVisualStyle
  2
Basic
 70
     7
 71
     1
 72
     0
 73
     1
 90
        0
 40
-0.6
 41
-30.0
 62
     5
 63
     7
 74
     0
 91
        4
 64
     7
 65
   257
 75
     1
175
     1
 42
1.0
 92
        8
 66
     7
 43
1.0
 76
     1
 77
     6
 78
     2
 67
     7
 79
     5
170
     0
171
     0
290
     0
174
     0
 93
        1
 44
0.0
173
     0
291
     1
 45
0.0
1001
ACAD
1000
AcDbSavedByObjectVersion
1070
     0
  0
VISUALSTYLE
  5
36
102
{ACAD_REACTORS
330
2A
102
}
330
2A
100
AcDbVisualStyle
  2
Brighten
 70
    12
 71
     2
 72
     2
 73
     0
 90
        0
 40
-0.6
 41
-30.0
 62
     5
 63
     7
 74
     1
 91
        4
 64
     7
 65
   257
 75
     1
175
     1
 42
1.0
 92
        8
 66
     7
 43
1.0
 76
     1
 77
     6
 78
     2
 67
     7
 79
     5
170
     0
171
     0
290
     0
174
     0
 93
        1
 44
50.0
173
     0
291
     1
 45
0.0
1001
ACAD
1000
AcDbSavedByObjectVersion
1070
     0
  0
VISUALSTYLE
  5
3A
102
{ACAD_REACTORS
330
2A
102
}
330
2A
100
AcDbVisualStyle
  2
ColorChange
 70
    16
 71
     2
 72
     2
 73
     3
 90
        0
 40
-0.6
 41
-30.0
 62
     5
 63
     8
 74
     1
 91
        4
 64
     7
 65
   257
 75
     1
175
     1
 42
1.0
 92
        8
 66
     8
 43
1.0
 76
     1
 77
     6
 78
     2
 67
     7
 79
     5
170
     0
171
     0
290
     0
174
     0
 93
        1
 44
0.0
173
     0
291
     1
 45
0.0
1001
ACAD
1000
AcDbSavedByObjectVersion
1070
     0
  0
VISUALSTYLE
  5
34
102
{ACAD_REACTORS
330
2A
102
}
330
2A
100
AcDbVisualStyle
  2
Conceptual
 70
     9
 71
     3
 72
     2
 73
     0
 90
        0
 40
-0.6
 41
-30.0
 62
     5
 63
     7
 74
     2
 91
        2
 64
     7
 65
   257
 75
     1
175
     1
 42
40.0
 92
        8
 66
     7
 43
1.0
 76
     1
 77
     6
 78
     2
 67
     7
 79
     3
170
     0
171
     0
290
     0
174
     0
 93
        1
 44
0.0
173
     0
291
     0
 45
0.0
1001
ACAD
1000
AcDbSavedByObjectVersion
1070
     0
  0
VISUALSTYLE
  5
35
102
{ACAD_REACTORS
330
2A
102
}
330
2A
100
AcDbVisualStyle
  2
Dim
 70
    11
 71
     2
 72
     2
 73
     0
 90
        0
 40
-0.6
 41
-30.0
 62
     5
 63
     7
 74
     1
 91
        4
 64
     7
 65
   257
 75
     1
175
     1
 42
1.0
 92
        8
 66
     7
 43
1.0
 76
     1
 77
     6
 78
     2
 67
     7
 79
     5
170
     0
171
     0
290
     0
174
     0
 93
        1
 44
-50.0
173
     0
291
     1
 45
0.0
1001
ACAD
1000
AcDbSavedByObjectVersion
1070
     0
  0
VISUALSTYLE
  5
39
102
{ACAD_REACTORS
330
2A
102
}
330
2A
100
AcDbVisualStyle
  2
Facepattern
 70
    15
 71
     2
 72
     2
 73
     0
 90
        0
 40
-0.6
 41
-30.0
 62
     5
 63
     7
 74
     1
 91
        4
 64
     7
 65
   257
 75
     1
175
     1
 42
1.0
 92
        8
 66
     7
 43
1.0
 76
     1
 77
     6
 78
     2
 67
     7
 79
     5
170
     0
171
     0
290
     0
174
     0
 93
        1
 44
0.0
173
     0
291
     1
 45
0.0
1001
ACAD
1000
AcDbSavedByObjectVersion
1070
     0
  0
VISUALSTYLE
  5
2B
102
{ACAD_REACTORS
330
2A
102
}
330
2A
100
AcDbVisualStyle
  2
Flat
 70
     0
 71
     2
 72
     1
 73
     1
 90
        2
 40
-0.6
 41
30.0
 62
     5
 63
     7
 74
     0
 91
        4
 64
     7
 65
   257
 75
     1
175
     1
 42
1.0
 92
        8
 66
     7
 43
1.0
 76
     1
 77
     6
 78
     2
 67
     7
 79
     5
170
     0
171
     0
290
     0
174
     0
 93
       13
 44
0.0
173
     0
291
     1
 45
0.0
1001
ACAD
1000
AcDbSavedByObjectVersion
1070
     0
  0
VISUALSTYLE
  5
2C
102
{ACAD_REACTORS
330
2A
102
}
330
2A
100
AcDbVisualStyle
  2
FlatWithEdges
 70
     1
 71
     2
 72
     1
 73
     1
 90
        2
 40
-0.6
 41
30.0
 62
     5
 63
     7
 74
     1
 91
        4
 64
     7
 65
   257
 75
     1
175
     1
 42
1.0
 92
        0
 66
   257
 43
1.0
 76
     1
 77
     6
 78
     2
 67
     7
 79
     5
170
     0
171
     0
290
     0
174
     0
 93
       13
 44
0.0
173
     0
291
     1
 45
0.0
1001
ACAD
1000
AcDbSavedByObjectVersion
1070
     0
  0
VISUALSTYLE
  5
2D
102
{ACAD_REACTORS
330
2A
102
}
330
2A
100
AcDbVisualStyle
  2
Gouraud
 70
     2
 71
     2
 72
     2
 73
     1
 90
        2
 40
-0.6
 41
30.0
 62
     5
 63
     7
 74
     0
 91
        4
 64
     7
 65
   257
 75
     1
175
     1
 42
1.0
 92
        0
 66
     7
 43
1.0
 76
     1
 77
     6
 78
     2
 67
     7
 79
     5
170
     0
171
     0
290
     0
174
     0
 93
       13
 44
0.0
173
     0
291
     1
 45
0.0
1001
ACAD
1000
AcDbSavedByObjectVersion
1070
     0
  0
VISUALSTYLE
  5
2E
102
{ACAD_REACTORS
330
2A
102
}
330
2A
100
AcDbVisualStyle
  2
GouraudWithEdges
 70
     3
 71
     2
 72
     2
 73
     1
 90
        2
 40
-0.6
 41
30.0
 62
     5
 63
     7
 74
     1
 91
        4
 64
     7
 65
   257
 75
     1
175
     1
 42
1.0
 92
        0
 66
   257
 43
1.0
 76
     1
 77
     6
 78
     2
 67
     7
 79
     5
170
     0
171
     0
290
     0
174
     0
 93
       13
 44
0.0
173
     0
291
     1
 45
0.0
1001
ACAD
1000
AcDbSavedByObjectVersion
1070
     0
  0
VISUALSTYLE
  5
38
102
{ACAD_REACTORS
330
2A
102
}
330
2A
100
AcDbVisualStyle
  2
Linepattern
 70
    14
 71
     2
 72
     2
 73
     0
 90
        0
 40
-0.6
 41
-30.0
 62
     5
 63
     7
 74
     1
 91
        4
 64
     7
 65
   257
 75
     7
175
     7
 42
1.0
 92
        8
 66
     7
 43
1.0
 76
     1
 77
     6
 78
     2
 67
     7
 79
     5
170
     0
171
     0
290
     0
174
     0
 93
        1
 44
0.0
173
     0
291
     1
 45
0.0
1001
ACAD
1000
AcDbSavedByObjectVersion
1070
     0
  0
VISUALSTYLE
  5
33
102
{ACAD_REACTORS
330
2A
102
}
330
2A
100
AcDbVisualStyle
  2
Realistic
 70
     8
 71
     2
 72
     2
 73
     0
 90
        0
 40
-0.6
 41
-30.0
 62
     5
 63
     7
 74
     1
 91
        0
 64
     7
 65
   257
 75
     1
175
     1
 42
1.0
 92
        8
 66
     8
 43
1.0
 76
     1
 77
     6
 78
     2
 67
     7
 79
     5
170
     0
171
     0
290
     0
174
     0
 93
       13
 44
0.0
173
     0
291
     0
 45
0.0
1001
ACAD
1000
AcDbSavedByObjectVersion
1070
     0
  0
VISUALSTYLE
  5
37
102
{ACAD_REACTORS
330
2A
102
}
330
2A
100
AcDbVisualStyle
  2
Thicken
 70
    13
 71
     2
 72
     2
 73
     0
 90
        0
 40
-0.6
 41
-30.0
 62
     5
 63
     7
 74
     1
 91
        4
 64
     7
 65
   257
 75
     1
175
     1
 42
1.0
 92
       12
 66
     7
 43
1.0
 76
     1
 77
     6
 78
     2
 67
     7
 79
     5
170
     0
171
     0
290
     0
174
     0
 93
        1
 44
0.0
173
     0
291
     1
 45
0.0
1001
ACAD
1000
AcDbSavedByObjectVersion
1070
     0
  0
DICTIONARYVAR
  5
112
102
{ACAD_REACTORS
330
111
102
}
330
111
100
DictionaryVariables
280
     0
  1
1:1
  0
DICTIONARYVAR
  5
116
102
{ACAD_REACTORS
330
111
102
}
330
111
100
DictionaryVariables
280
     0
  1
80.000000
  0
DICTIONARYVAR
  5
115
102
{ACAD_REACTORS
330
111
102
}
330
111
100
DictionaryVariables
280
     0
  1
5.000000
  0
ENDSEC
  0
EOF
