  0
SECTION
  2
HEADER
  9
$ACADVER
  1
AC1015
  9
$ACADMAINTVER
 70
     6
  9
$DWGCODEPAGE
  3
ANSI_1252
  9
$INSBASE
 10
0.0
 20
0.0
 30
0.0
  9
$EXTMIN
 10
0.0
 20
0.0
 30
0.0
  9
$EXTMAX
 10
3000.0
 20
4500.0
 30
0.0
  9
$LIMMIN
 10
0.0
 20
0.0
  9
$LIMMAX
 10
3000.0
 20
4500.0
  9
$ORTHOMODE
 70
     0
  9
$REGENMODE
 70
     1
  9
$FILLMODE
 70
     1
  9
$QTEXTMODE
 70
     0
  9
$MIRRTEXT
 70
     1
  9
$LTSCALE
 40
1.0
  9
$ATTMODE
 70
     1
  9
$TEXTSIZE
 40
2.5
  9
$TRACEWID
 40
1.0
  9
$TEXTSTYLE
  7
Standard
  9
$CLAYER
  8
0
  9
$CELTYPE
  6
ByLayer
  9
$CECOLOR
 62
   256
  9
$CELTSCALE
 40
1.0
  9
$DISPSILH
 70
     0
  9
$DIMSCALE
 40
1.0
  9
$DIMASZ
 40
2.5
  9
$DIMEXO
 40
0.625
  9
$DIMDLI
 40
3.75
  9
$DIMRND
 40
0.0
  9
$DIMDLE
 40
0.0
  9
$DIMEXE
 40
1.25
  9
$DIMTP
 40
0.0
  9
$DIMTM
 40
0.0
  9
$DIMTXT
 40
2.5
  9
$DIMCEN
 40
2.5
  9
$DIMTSZ
 40
0.0
  9
$DIMTOL
 70
     0
  9
$DIMLIM
 70
     0
  9
$DIMTIH
 70
     0
  9
$DIMTOH
 70
     0
  9
$DIMSE1
 70
     0
  9
$DIMSE2
 70
     0
  9
$DIMTAD
 70
     1
  9
$DIMZIN
 70
     8
  9
$DIMBLK
  1

  9
$DIMASO
 70
     1
  9
$DIMSHO
 70
     1
  9
$DIMPOST
  1

  9
$DIMAPOST
  1

  9
$DIMALT
 70
     0
  9
$DIMALTD
 70
     3
  9
$DIMALTF
 40
0.0393700787
  9
$DIMLFAC
 40
1.0
  9
$DIMTOFL
 70
     1
  9
$DIMTVP
 40
0.0
  9
$DIMTIX
 70
     0
  9
$DIMSOXD
 70
     0
  9
$DIMSAH
 70
     0
  9
$DIMBLK1
  1

  9
$DIMBLK2
  1

  9
$DIMSTYLE
  2
ISO-25
  9
$DIMCLRD
 70
     0
  9
$DIMCLRE
 70
     0
  9
$DIMCLRT
 70
     0
  9
$DIMTFAC
 40
1.0
  9
$DIMGAP
 40
0.625
  9
$DIMJUST
 70
     0
  9
$DIMSD1
 70
     0
  9
$DIMSD2
 70
     0
  9
$DIMTOLJ
 70
     0
  9
$DIMTZIN
 70
     8
  9
$DIMALTZ
 70
     0
  9
$DIMALTTZ
 70
     0
  9
$DIMUPT
 70
     0
  9
$DIMDEC
 70
     2
  9
$DIMTDEC
 70
     2
  9
$DIMALTU
 70
     2
  9
$DIMALTTD
 70
     3
  9
$DIMTXSTY
  7
Standard
  9
$DIMAUNIT
 70
     0
  9
$DIMADEC
 70
     0
  9
$DIMALTRND
 40
0.0
  9
$DIMAZIN
 70
     0
  9
$DIMDSEP
 70
    44
  9
$DIMATFIT
 70
     3
  9
$DIMFRAC
 70
     0
  9
$DIMLDRBLK
  1

  9
$DIMLUNIT
 70
     2
  9
$DIMLWD
 70
    -2
  9
$DIMLWE
 70
    -2
  9
$DIMTMOVE
 70
     0
  9
$LUNITS
 70
     2
  9
$LUPREC
 70
     4
  9
$SKETCHINC
 40
1.0
  9
$FILLETRAD
 40
10.0
  9
$AUNITS
 70
     0
  9
$AUPREC
 70
     0
  9
$MENU
  1
.
  9
$ELEVATION
 40
0.0
  9
$PELEVATION
 40
0.0
  9
$THICKNESS
 40
0.0
  9
$LIMCHECK
 70
     0
  9
$CHAMFERA
 40
10.0
  9
$CHAMFERB
 40
10.0
  9
$CHAMFERC
 40
20.0
  9
$CHAMFERD
 40
0.0
  9
$SKPOLY
 70
     0
  9
$TDCREATE
 40
2456764.555741319
  9
$TDUCREATE
 40
2456764.472407986
  9
$TDUPDATE
 40
2456764.555741331
  9
$TDUUPDATE
 40
2456764.472407998
  9
$TDINDWG
 40
0.0000000116
  9
$TDUSRTIMER
 40
0.0000000116
  9
$USRTIMER
 70
     1
  9
$ANGBASE
 50
0.0
  9
$ANGDIR
 70
     0
  9
$PDMODE
 70
     0
  9
$PDSIZE
 40
0.0
  9
$PLINEWID
 40
0.0
  9
$SPLFRAME
 70
     0
  9
$SPLINETYPE
 70
     6
  9
$SPLINESEGS
 70
     8
  9
$HANDSEED
  5
EA
  9
$SURFTAB1
 70
     6
  9
$SURFTAB2
 70
     6
  9
$SURFTYPE
 70
     6
  9
$SURFU
 70
     6
  9
$SURFV
 70
     6
  9
$UCSBASE
  2

  9
$UCSNAME
  2

  9
$UCSORG
 10
0.0
 20
0.0
 30
0.0
  9
$UCSXDIR
 10
1.0
 20
0.0
 30
0.0
  9
$UCSYDIR
 10
0.0
 20
1.0
 30
0.0
  9
$UCSORTHOREF
  2

  9
$UCSORTHOVIEW
 70
     0
  9
$UCSORGTOP
 10
0.0
 20
0.0
 30
0.0
  9
$UCSORGBOTTOM
 10
0.0
 20
0.0
 30
0.0
  9
$UCSORGLEFT
 10
0.0
 20
0.0
 30
0.0
  9
$UCSORGRIGHT
 10
0.0
 20
0.0
 30
0.0
  9
$UCSORGFRONT
 10
0.0
 20
0.0
 30
0.0
  9
$UCSORGBACK
 10
0.0
 20
0.0
 30
0.0
  9
$PUCSBASE
  2

  9
$PUCSNAME
  2

  9
$PUCSORG
 10
0.0
 20
0.0
 30
0.0
  9
$PUCSXDIR
 10
1.0
 20
0.0
 30
0.0
  9
$PUCSYDIR
 10
0.0
 20
1.0
 30
0.0
  9
$PUCSORTHOREF
  2

  9
$PUCSORTHOVIEW
 70
     0
  9
$PUCSORGTOP
 10
0.0
 20
0.0
 30
0.0
  9
$PUCSORGBOTTOM
 10
0.0
 20
0.0
 30
0.0
  9
$PUCSORGLEFT
 10
0.0
 20
0.0
 30
0.0
  9
$PUCSORGRIGHT
 10
0.0
 20
0.0
 30
0.0
  9
$PUCSORGFRONT
 10
0.0
 20
0.0
 30
0.0
  9
$PUCSORGBACK
 10
0.0
 20
0.0
 30
0.0
  9
$USERI1
 70
     0
  9
$USERI2
 70
     0
  9
$USERI3
 70
     0
  9
$USERI4
 70
     0
  9
$USERI5
 70
     0
  9
$USERR1
 40
0.0
  9
$USERR2
 40
0.0
  9
$USERR3
 40
0.0
  9
$USERR4
 40
0.0
  9
$USERR5
 40
0.0
  9
$WORLDVIEW
 70
     1
  9
$SHADEDGE
 70
     3
  9
$SHADEDIF
 70
    70
  9
$TILEMODE
 70
     1
  9
$MAXACTVP
 70
    64
  9
$PINSBASE
 10
0.0
 20
0.0
 30
0.0
  9
$PLIMCHECK
 70
     0
  9
$PEXTMIN
 10
0.0
 20
0.0
 30
0.0
  9
$PEXTMAX
 10
3000.0
 20
4500.0
 30
0.0
  9
$PLIMMIN
 10
0.0
 20
0.0
  9
$PLIMMAX
 10
3000.0
 20
4500.0
  9
$UNITMODE
 70
     0
  9
$VISRETAIN
 70
     1
  9
$PLINEGEN
 70
     0
  9
$PSLTSCALE
 70
     1
  9
$TREEDEPTH
 70
  3020
  9
$CMLSTYLE
  2
Standard
  9
$CMLJUST
 70
     0
  9
$CMLSCALE
 40
20.0
  9
$PROXYGRAPHICS
 70
     1
  9
$MEASUREMENT
 70
     1
  9
$CELWEIGHT
370
    -1
  9
$ENDCAPS
280
     0
  9
$JOINSTYLE
280
     0
  9
$LWDISPLAY
290
     0
  9
$INSUNITS
 70
     4
  9
$HYPERLINKBASE
  1

  9
$STYLESHEET
  1

  9
$XEDIT
290
     1
  9
$CEPSNTYPE
380
     0
  9
$PSTYLEMODE
290
     1
  9
$FINGERPRINTGUID
  2
{29FD7BB7-7041-4EBF-B926-9F2AD7B96F2E}
  9
$VERSIONGUID
  2
{FAEB1C32-E019-11D5-929B-00C0DF256EC4}
  9
$EXTNAMES
290
     1
  9
$PSVPSCALE
 40
0.0
  9
$OLESTARTUP
290
     0
  0
ENDSEC
  0
SECTION
  2
CLASSES
  0
CLASS
  1
ACDBDICTIONARYWDFLT
  2
AcDbDictionaryWithDefault
  3
ObjectDBX Classes
 90
        0
280
     0
281
     0
  0
CLASS
  1
VISUALSTYLE
  2
AcDbVisualStyle
  3
ObjectDBX Classes
 90
     4095
280
     0
281
     0
  0
CLASS
  1
SCALE
  2
AcDbScale
  3
ObjectDBX Classes
 90
     1153
280
     0
281
     0
  0
CLASS
  1
DICTIONARYVAR
  2
AcDbDictionaryVar
  3
ObjectDBX Classes
 90
        0
280
     0
281
     0
  0
CLASS
  1
ACDBPLACEHOLDER
  2
AcDbPlaceHolder
  3
ObjectDBX Classes
 90
        0
280
     0
281
     0
  0
CLASS
  1
LAYOUT
  2
AcDbLayout
  3
ObjectDBX Classes
 90
        0
280
     0
281
     0
  0
ENDSEC
  0
SECTION
  2
TABLES
  0
TABLE
  2
VPORT
  5
8
330
0
100
AcDbSymbolTable
 70
     1
  0
VPORT
  5
29
330
8
100
AcDbSymbolTableRecord
100
AcDbViewportTableRecord
  2
*Active
 70
     0
 10
0.0
 20
0.0
 11
1.0
 21
1.0
 12
344.1869158879
 22
148.5
 13
0.0
 23
0.0
 14
10.0
 24
10.0
 15
10.0
 25
10.0
 16
0.0
 26
0.0
 36
1.0
 17
0.0
 27
0.0
 37
0.0
 40
297.0
 41
1.9729729729
 42
50.0
 43
0.0
 44
0.0
 50
0.0
 51
0.0
 71
     0
 72
   100
 73
     1
 74
     3
 75
     0
 76
     0
 77
     0
 78
     0
281
     0
 65
     1
110
0.0
120
0.0
130
0.0
111
1.0
121
0.0
131
0.0
112
0.0
122
1.0
132
0.0
 79
     0
146
0.0
  0
ENDTAB
  0
TABLE
  2
LTYPE
  5
5
330
0
100
AcDbSymbolTable
 70
     2
  0
LTYPE
  5
14
330
5
100
AcDbSymbolTableRecord
100
AcDbLinetypeTableRecord
  2
ByBlock
 70
     0
  3

 72
    65
 73
     0
 40
0.0
  0
LTYPE
  5
15
330
5
100
AcDbSymbolTableRecord
100
AcDbLinetypeTableRecord
  2
ByLayer
 70
     0
  3

 72
    65
 73
     0
 40
0.0
  0
LTYPE
  5
16
330
5
100
AcDbSymbolTableRecord
100
AcDbLinetypeTableRecord
  2
Continuous
 70
     0
  3
Solid line
 72
    65
 73
     0
 40
0.0
  0
LTYPE
  5
60
330
5
100
AcDbSymbolTableRecord
100
AcDbLinetypeTableRecord
  2
CENTER2
 70
     0
  3
Center (.5x) ___ _ ___ _ ___ _ ___ _ ___ _ ___
 72
    65
 73
     4
 40
28.575
 49
19.05
 74
     4
 75
     0
340
0
 46
0.0
 50
0.0
 44
0.0
 45
0.0
 49
-3.175
 74
     4
 75
     0
340
0
 46
0.0
 50
0.0
 44
0.0
 45
0.0
 49
3.175
 74
     4
 75
     0
340
0
 46
0.0
 50
0.0
 44
0.0
 45
0.0
 49
-3.175
 74
     4
 75
     0
340
0
 46
0.0
 50
0.0
 44
0.0
 45
0.0
  0
ENDTAB
  0
TABLE
  2
LAYER
  5
2
330
0
100
AcDbSymbolTable
 70
     6
  0
LAYER
  5
10
330
2
100
AcDbSymbolTableRecord
100
AcDbLayerTableRecord
  2
0
 70
     0
 62
     7
  6
Continuous
370
    -3
390
F
  0
LAYER
  5
5D
330
2
100
AcDbSymbolTableRecord
100
AcDbLayerTableRecord
  2
Default
 70
     0
 62
     7
  6
Continuous
370
    -3
390
F
  0
LAYER
  5
7A
330
2
100
AcDbSymbolTableRecord
100
AcDbLayerTableRecord
  2
$DDT_AUDIT_GENERATED_(7A)
 70
     0
 62
     7
  6
Continuous
370
    -3
390
F
  0
LAYER
  5
8B
330
2
100
AcDbSymbolTableRecord
100
AcDbLayerTableRecord
  2
$DDT_AUDIT_GENERATED_(8B)
 70
     0
 62
     7
  6
Continuous
370
    -3
390
F
  0
LAYER
  5
A1
330
2
100
AcDbSymbolTableRecord
100
AcDbLayerTableRecord
  2
$DDT_AUDIT_GENERATED_(A1)
 70
     0
 62
     7
  6
Continuous
370
    -3
390
F
  0
LAYER
  5
B5
330
2
100
AcDbSymbolTableRecord
100
AcDbLayerTableRecord
  2
$DDT_AUDIT_GENERATED_(B5)
 70
     0
 62
     7
  6
Continuous
370
    -3
390
F
  0
ENDTAB
  0
TABLE
  2
STYLE
  5
3
330
0
100
AcDbSymbolTable
 70
     2
  0
STYLE
  5
11
330
3
100
AcDbSymbolTableRecord
100
AcDbTextStyleTableRecord
  2
Standard
 70
     0
 40
0.0
 41
1.0
 50
0.0
 71
     0
 42
2.5
  3
txt
  4

  0
STYLE
  5
D9
330
3
100
AcDbSymbolTableRecord
100
AcDbTextStyleTableRecord
  2
SEACAD_seiso_ttf
 70
     0
 40
0.0
 41
1.0
 50
0.0
 71
     0
 42
0.2
  3
seiso.ttf
  4

  0
ENDTAB
  0
TABLE
  2
VIEW
  5
6
330
0
100
AcDbSymbolTable
 70
     0
  0
ENDTAB
  0
TABLE
  2
UCS
  5
7
330
0
100
AcDbSymbolTable
 70
     0
  0
ENDTAB
  0
TABLE
  2
APPID
  5
9
330
0
100
AcDbSymbolTable
 70
     1
  0
APPID
  5
12
330
9
100
AcDbSymbolTableRecord
100
AcDbRegAppTableRecord
  2
ACAD
 70
     0
  0
ENDTAB
  0
TABLE
  2
DIMSTYLE
  5
A
330
0
100
AcDbSymbolTable
 70
     1
100
AcDbDimStyleTable
  0
DIMSTYLE
105
27
330
A
100
AcDbSymbolTableRecord
100
AcDbDimStyleTableRecord
  2
ISO-25
 70
     0
 41
2.5
 42
0.625
 43
3.75
 44
1.25
 73
     0
 74
     0
 77
     1
 78
     8
140
2.5
141
2.5
143
0.0393700787
147
0.625
171
     3
172
     1
271
     2
272
     2
274
     3
278
    44
283
     0
284
     8
340
11
  0
ENDTAB
  0
TABLE
  2
BLOCK_RECORD
  5
1
330
0
100
AcDbSymbolTable
 70
     7
  0
BLOCK_RECORD
  5
1F
330
1
100
AcDbSymbolTableRecord
100
AcDbBlockTableRecord
  2
*Model_Space
340
22
  0
BLOCK_RECORD
  5
1B
330
1
100
AcDbSymbolTableRecord
100
AcDbBlockTableRecord
  2
*Paper_Space
340
1E
  0
BLOCK_RECORD
  5
5E
330
1
100
AcDbSymbolTableRecord
100
AcDbBlockTableRecord
  2
SEANNOT_GROUP
340
0
102
{BLKREFS
331
5F
102
}
  0
BLOCK_RECORD
  5
69
330
1
100
AcDbSymbolTableRecord
100
AcDbBlockTableRecord
  2
SEANNOT_GROUP1
340
0
102
{BLKREFS
331
6A
102
}
  0
BLOCK_RECORD
  5
72
330
1
100
AcDbSymbolTableRecord
100
AcDbBlockTableRecord
  2
SEANNOT_GROUP2
340
0
102
{BLKREFS
331
73
102
}
  0
BLOCK_RECORD
  5
78
330
1
100
AcDbSymbolTableRecord
100
AcDbBlockTableRecord
  2
SE
340
0
102
{BLKREFS
331
79
102
}
  0
BLOCK_RECORD
  5
90
330
1
100
AcDbSymbolTableRecord
100
AcDbBlockTableRecord
  2
SE1
340
0
102
{BLKREFS
331
91
102
}
  0
BLOCK_RECORD
  5
BA
330
1
100
AcDbSymbolTableRecord
100
AcDbBlockTableRecord
  2
SE2
340
0
102
{BLKREFS
331
BB
102
}
  0
ENDTAB
  0
ENDSEC
  0
SECTION
  2
BLOCKS
  0
BLOCK
  5
20
330
1F
100
AcDbEntity
  8
0
100
AcDbBlockBegin
  2
*Model_Space
 70
     0
 10
0.0
 20
0.0
 30
0.0
  3
*Model_Space
  1

  0
ENDBLK
  5
21
330
1F
100
AcDbEntity
  8
0
100
AcDbBlockEnd
  0
BLOCK
  5
1C
330
1B
100
AcDbEntity
 67
     1
  8
0
100
AcDbBlockBegin
  2
*Paper_Space
 70
     0
 10
0.0
 20
0.0
 30
0.0
  3
*Paper_Space
  1

  0
ENDBLK
  5
1D
330
1B
100
AcDbEntity
 67
     1
  8
0
100
AcDbBlockEnd
  0
BLOCK
  5
67
330
5E
100
AcDbEntity
  8
0
100
AcDbBlockBegin
  2
SEANNOT_GROUP
 70
     0
 10
0.0
 20
0.0
 30
0.0
  3
SEANNOT_GROUP
  1

  0
LINE
  5
61
330
5E
100
AcDbEntity
  8
Default
  6
CENTER2
 62
     7
100
AcDbLine
 10
128.1109641517
 20
437.1536465167
 30
0.0
 11
88.1109650458
 21
437.1536465167
 31
0.0
  0
LINE
  5
62
330
5E
100
AcDbEntity
  8
Default
  6
CENTER2
 62
     7
100
AcDbLine
 10
108.1109645988
 20
457.1536460697
 30
0.0
 11
108.1109645988
 21
417.1536469637
 31
0.0
  0
LINE
  5
63
330
5E
100
AcDbEntity
  8
Default
  6
CENTER2
 62
     7
100
AcDbLine
 10
133.11096404
 20
437.1536465167
 30
0.0
 11
138.5911517361
 21
437.1536465167
 31
0.0
  0
LINE
  5
64
330
5E
100
AcDbEntity
  8
Default
  6
CENTER2
 62
     7
100
AcDbLine
 10
108.1109645988
 20
462.1536459579
 30
0.0
 11
108.1109645988
 21
467.6338336541
 31
0.0
  0
LINE
  5
65
330
5E
100
AcDbEntity
  8
Default
  6
CENTER2
 62
     7
100
AcDbLine
 10
83.1109651576
 20
437.1536465167
 30
0.0
 11
77.6307774614
 21
437.1536465167
 31
0.0
  0
LINE
  5
66
330
5E
100
AcDbEntity
  8
Default
  6
CENTER2
 62
     7
100
AcDbLine
 10
108.1109645988
 20
412.1536470755
 30
0.0
 11
108.1109645988
 21
406.6734593793
 31
0.0
  0
ENDBLK
  5
68
330
5E
100
AcDbEntity
  8
0
100
AcDbBlockEnd
  0
BLOCK
  5
6D
330
69
100
AcDbEntity
  8
0
100
AcDbBlockBegin
  2
SEANNOT_GROUP1
 70
     0
 10
0.0
 20
0.0
 30
0.0
  3
SEANNOT_GROUP1
  1

  0
LINE
  5
6B
330
69
100
AcDbEntity
  8
Default
  6
CENTER2
 62
     7
100
AcDbLine
 10
128.1092370534
 20
211.7777237745
 30
0.0
 11
88.1092379474
 21
211.7777237745
 31
0.0
  0
LINE
  5
6C
330
69
100
AcDbEntity
  8
Default
  6
CENTER2
 62
     7
100
AcDbLine
 10
108.1092375004
 20
231.7777233275
 30
0.0
 11
108.1092375004
 21
191.7777242216
 31
0.0
  0
ENDBLK
  5
6E
330
69
100
AcDbEntity
  8
0
100
AcDbBlockEnd
  0
BLOCK
  5
76
330
72
100
AcDbEntity
  8
0
100
AcDbBlockBegin
  2
SEANNOT_GROUP2
 70
     0
 10
0.0
 20
0.0
 30
0.0
  3
SEANNOT_GROUP2
  1

  0
LINE
  5
74
330
72
100
AcDbEntity
  8
Default
  6
CENTER2
 62
     7
100
AcDbLine
 10
357.5530649842
 20
436.6918021315
 30
0.0
 11
317.5530658783
 21
436.6918021315
 31
0.0
  0
LINE
  5
75
330
72
100
AcDbEntity
  8
Default
  6
CENTER2
 62
     7
100
AcDbLine
 10
337.5530654312
 20
456.6918016845
 30
0.0
 11
337.5530654312
 21
416.6918025786
 31
0.0
  0
ENDBLK
  5
77
330
72
100
AcDbEntity
  8
0
100
AcDbBlockEnd
  0
BLOCK
  5
8E
330
78
100
AcDbEntity
  8
0
100
AcDbBlockBegin
  2
SE
 70
     0
 10
0.0
 20
0.0
 30
0.0
  3
SE
  1

  0
SPLINE
  5
7B
330
78
100
AcDbEntity
  8
$DDT_AUDIT_GENERATED_(7A)
  6
Continuous
 62
     7
100
AcDbSpline
210
0.0
220
0.0
230
1.0
 70
     8
 71
     3
 72
    14
 73
    10
 74
     0
 42
0.0000000001094124
 43
0.0000000001
 40
0.0
 40
0.0
 40
0.0
 40
0.0
 40
0.022887018130834
 40
0.0442004770581489
 40
0.0650150724848769
 40
0.0962687997422648
 40
0.1300952517656666
 40
0.1620398611736029
 40
0.1878377233297177
 40
0.1878377233297177
 40
0.1878377233297177
 40
0.1878377233297177
 10
133.2532860540237
 20
437.2174886837949
 30
0.0
 10
133.2386027167033
 20
436.5347786230275
 30
0.0
 10
133.2116998609853
 20
435.2161184191339
 30
0.0
 10
133.0714836421079
 20
433.2648184424679
 30
0.0
 10
132.7965571757854
 20
431.0652629964582
 30
0.0
 10
132.2800712567582
 20
428.507675418458
 30
0.0
 10
131.4898084394616
 20
425.6529145272668
 30
0.0
 10
130.6233628226108
 20
422.9657096848799
 30
0.0
 10
130.0441460303828
 20
421.2678078634558
 30
0.0
 10
129.7822271042494
 20
420.5073503542077
 30
0.0
  0
SPLINE
  5
7C
330
78
100
AcDbEntity
  8
$DDT_AUDIT_GENERATED_(7A)
  6
Continuous
 62
     7
100
AcDbSpline
210
0.0
220
0.0
230
1.0
 70
     8
 71
     3
 72
     9
 73
     5
 74
     0
 42
0.0000000001067548
 43
0.0000000001
 40
0.1878377233297177
 40
0.1878377233297177
 40
0.1878377233297177
 40
0.1878377233297177
 40
0.1936904612479695
 40
0.199076709463082
 40
0.199076709463082
 40
0.199076709463082
 40
0.199076709463082
 10
129.7822271042494
 20
420.5073503542077
 30
0.0
 10
129.7228057916921
 20
420.3348260391051
 30
0.0
 10
129.6083890010641
 20
420.0033427303171
 30
0.0
 10
129.4935234229571
 20
419.6714510668792
 30
0.0
 10
129.4383827726439
 20
419.5122990571064
 30
0.0
  0
SPLINE
  5
7D
330
78
100
AcDbEntity
  8
$DDT_AUDIT_GENERATED_(7A)
  6
Continuous
 62
     7
100
AcDbSpline
210
0.0
220
0.0
230
1.0
 70
     8
 71
     3
 72
     9
 73
     5
 74
     0
 42
0.0000000001067146
 43
0.0000000001
 40
0.8016099765661083
 40
0.8016099765661083
 40
0.8016099765661083
 40
0.8016099765661083
 40
0.8076395151091805
 40
0.8104623432216751
 40
0.8104623432216751
 40
0.8104623432216751
 40
0.8104623432216751
 10
86.86330639710101
 20
419.5955104570393
 30
0.0
 10
86.80147793019647
 20
419.7736069074023
 30
0.0
 10
86.71083135256161
 20
420.0349371402643
 30
0.0
 10
86.6204129913374
 20
420.2960498235688
 30
0.0
 10
86.59160948892156
 20
420.3792911257632
 30
0.0
  0
SPLINE
  5
7E
330
78
100
AcDbEntity
  8
$DDT_AUDIT_GENERATED_(7A)
  6
Continuous
 62
     7
100
AcDbSpline
210
0.0
220
0.0
230
1.0
 70
     8
 71
     3
 72
    13
 73
     9
 74
     0
 42
0.0000000001094341
 43
0.0000000001
 40
0.8104623432216751
 40
0.8104623432216751
 40
0.8104623432216751
 40
0.8104623432216751
 40
0.8408068957277502
 40
0.8709812741026967
 40
0.9043530471624966
 40
0.9355653891276758
 40
0.9671928509463205
 40
1.0
 40
1.0
 40
1.0
 40
1.0
 10
86.59160948892156
 20
420.3792911257632
 30
0.0
 10
86.2819805081317
 20
421.2741100677781
 30
0.0
 10
85.67113224116729
 20
423.0536870620478
 30
0.0
 10
84.78817062969927
 20
425.8008122265674
 30
0.0
 10
84.01882069321579
 20
428.5909539565513
 30
0.0
 10
83.43226778029202
 20
431.4470485217454
 30
0.0
 10
83.06268079754508
 20
434.3137624731818
 30
0.0
 10
83.00088033606751
 20
436.2380522199155
 30
0.0
 10
82.96849099772474
 20
437.217712188348
 30
0.0
  0
ARC
  5
7F
330
78
100
AcDbEntity
  8
$DDT_AUDIT_GENERATED_(7A)
  6
Continuous
 62
     7
100
AcDbCircle
 10
108.1108901656
 20
437.5865100643
 30
0.0
 40
25.14510385323188
100
AcDbArc
 50
359.1591155554
 51
180.8403751111
  0
ARC
  5
80
330
78
100
AcDbEntity
  8
$DDT_AUDIT_GENERATED_(7A)
  6
Continuous
 62
     7
100
AcDbCircle
 10
108.1109645988
 20
437.1536465167
 30
0.0
 40
26.98018713736107
100
AcDbArc
 50
180.1005882068
 51
213.9053186104
  0
ARC
  5
81
330
78
100
AcDbEntity
  8
$DDT_AUDIT_GENERATED_(7A)
  6
Continuous
 62
     7
100
AcDbCircle
 10
108.1109645988
 20
437.1536465167
 30
0.0
 40
26.98018713736107
100
AcDbArc
 50
324.4867388812
 51
359.8997023436
  0
ARC
  5
82
330
78
100
AcDbEntity
  8
$DDT_AUDIT_GENERATED_(7A)
  6
Continuous
 62
     7
100
AcDbCircle
 10
108.1109647548
 20
437.0921235193
 30
0.0
 40
26.98014942942523
100
AcDbArc
 50
0.0303541675
 51
179.969936383
  0
SPLINE
  5
83
330
78
100
AcDbEntity
  8
$DDT_AUDIT_GENERATED_(7A)
  6
Continuous
 62
     7
100
AcDbSpline
210
0.0
220
0.0
230
1.0
 70
     8
 71
     3
 72
    13
 73
     9
 74
     0
 42
0.0000000009115662
 43
0.0000000001
 40
0.0
 40
0.0
 40
0.0
 40
0.0
 40
0.0033604038773901
 40
0.023588251564296
 40
0.0497483476416109
 40
0.0707572402214052
 40
0.0895092408369788
 40
0.0971629647158198
 40
0.0971629647158198
 40
0.0971629647158198
 40
0.0971629647158198
 10
129.779651287844
 20
420.5005739289299
 30
0.0
 10
129.7796911382417
 20
420.4992865338884
 30
0.0
 10
129.7800961190183
 20
420.4920458386948
 30
0.0
 10
129.8351794998722
 20
420.6458003316528
 30
0.0
 10
129.936763932814
 20
420.9442951838073
 30
0.0
 10
130.0568847950385
 20
421.2845250464429
 30
0.0
 10
130.130199266312
 20
421.4739990617978
 30
0.0
 10
130.134006363476
 20
421.4861435063557
 30
0.0
 10
130.133016919451
 20
421.4843861987969
 30
0.0
  0
SPLINE
  5
84
330
78
100
AcDbEntity
  8
$DDT_AUDIT_GENERATED_(7A)
  6
Continuous
 62
     7
100
AcDbSpline
210
0.0
220
0.0
230
1.0
 70
     8
 71
     3
 72
    14
 73
    10
 74
     0
 42
0.0000000013533813
 43
0.0000000001
 40
0.1575696616060252
 40
0.1575696616060252
 40
0.1575696616060252
 40
0.1575696616060252
 40
0.1645218941154099
 40
0.1981277997616931
 40
0.2393674384181582
 40
0.2893093411040554
 40
0.3370053525040853
 40
0.382198004758289
 40
0.405518120886778
 40
0.405518120886778
 40
0.405518120886778
 40
0.405518120886778
 10
130.0464161543057
 20
421.2775115376241
 30
0.0
 10
130.0463650958164
 20
421.2767378288331
 30
0.0
 10
130.0512565611761
 20
421.2833415745728
 30
0.0
 10
130.1367468267378
 20
421.4572648236169
 30
0.0
 10
130.3648075877278
 20
421.9182473860897
 30
0.0
 10
130.5873581969569
 20
422.3741698961717
 30
0.0
 10
130.7373239473107
 20
422.6881557831416
 30
0.0
 10
130.832608423129
 20
422.8855447210802
 30
0.0
 10
130.8497956537433
 20
422.9211648590924
 30
0.0
 10
130.8499962988211
 20
422.9220707375549
 30
0.0
  0
SPLINE
  5
85
330
78
100
AcDbEntity
  8
$DDT_AUDIT_GENERATED_(7A)
  6
Continuous
 62
     7
100
AcDbSpline
210
0.0
220
0.0
230
1.0
 70
     8
 71
     3
 72
    16
 73
    12
 74
     0
 42
0.0000000013464252
 43
0.0000000001
 40
0.5812187151593473
 40
0.5812187151593473
 40
0.5812187151593473
 40
0.5812187151593473
 40
0.6083115585109462
 40
0.6459849192572251
 40
0.6972306066142631
 40
0.7497097853024525
 40
0.8022665194060489
 40
0.8517808175180948
 40
0.8995802521577915
 40
0.9441985430341121
 40
0.9630705190255777
 40
0.9630705190255777
 40
0.9630705190255777
 40
0.9630705190255777
 10
85.4392755862535
 20
422.6244650811901
 30
0.0
 10
85.4393023394242
 20
422.6233923186666
 30
0.0
 10
85.4592932021496
 20
422.5821891810446
 30
0.0
 10
85.56719072180971
 20
422.3616940415932
 30
0.0
 10
85.73794518554486
 20
422.0097086051222
 30
0.0
 10
86.02209336128644
 20
421.4368420087994
 30
0.0
 10
86.37290926923771
 20
420.7457214136697
 30
0.0
 10
86.57268569628351
 20
420.3559221016645
 30
0.0
 10
86.63968301856754
 20
420.2038634965717
 30
0.0
 10
86.64370720288197
 20
420.1991647586092
 30
0.0
 10
86.68771945197854
 20
420.0894265711257
 30
0.0
 10
86.69203294816087
 20
420.081128695402
 30
0.0
  0
SPLINE
  5
86
330
78
100
AcDbEntity
  8
$DDT_AUDIT_GENERATED_(7A)
  6
Continuous
 62
     7
100
AcDbSpline
210
0.0
220
0.0
230
1.0
 70
     8
 71
     3
 72
    33
 73
    29
 74
     0
 42
0.0000000001276553
 43
0.0000000001
 40
0.0
 40
0.0
 40
0.0
 40
0.0
 40
0.0469160944522036
 40
0.086642767263489
 40
0.119162476354346
 40
0.1446119074880334
 40
0.1635688813107031
 40
0.1811103972201117
 40
0.222599629885965
 40
0.2685478615855476
 40
0.3069439221875529
 40
0.3445630484582447
 40
0.380536641347069
 40
0.4142357520303325
 40
0.4438334596561236
 40
0.4701835681926943
 40
0.5041580391787979
 40
0.5444062258816982
 40
0.5893198293515434
 40
0.6326195587803619
 40
0.673685708938862
 40
0.7125347367905718
 40
0.7431787944776536
 40
0.7803134234219207
 40
0.8245341398440335
 40
0.8758637285073027
 40
0.9343331938245267
 40
1.0
 40
1.0
 40
1.0
 40
1.0
 10
86.66317281392868
 20
420.1725945468564
 30
0.0
 10
87.08564845370846
 20
418.9564115363314
 30
0.0
 10
87.73912340785233
 20
417.0660241944392
 30
0.0
 10
88.72028364651969
 20
414.162264500745
 30
0.0
 10
89.47409075404306
 20
411.8065407976432
 30
0.0
 10
90.03121893978324
 20
409.9172024589796
 30
0.0
 10
90.4464151258574
 20
408.377237626805
 30
0.0
 10
90.92908540467421
 20
406.4221690698044
 30
0.0
 10
91.51705121929004
 20
403.76768103816
 30
0.0
 10
92.1026938633923
 20
400.5381397550488
 30
0.0
 10
92.51843082160396
 20
397.3706555700832
 30
0.0
 10
92.81871762004099
 20
394.4447179214564
 30
0.0
 10
93.06448586844601
 20
391.6308703111977
 30
0.0
 10
93.28450322239006
 20
389.0221855811064
 30
0.0
 10
93.46951070827664
 20
386.6626335827304
 30
0.0
 10
93.62849059783505
 20
384.291844582185
 30
0.0
 10
93.76914616195909
 20
381.6363066290056
 30
0.0
 10
93.88773063569819
 20
378.4872517713305
 30
0.0
 10
93.96877851183334
 20
375.090395897259
 30
0.0
 10
94.01756289826314
 20
371.6730263423138
 30
0.0
 10
94.0466583788892
 20
368.418496191209
 30
0.0
 10
94.06923076705927
 20
365.5014413171589
 30
0.0
 10
94.09561941160375
 20
362.6911112107747
 30
0.0
 10
94.12986574960722
 20
359.7439925011154
 30
0.0
 10
94.18463554189243
 20
356.2535356226498
 30
0.0
 10
94.27499630245063
 20
352.2354798992475
 30
0.0
 10
94.4246181366933
 20
347.5633489063862
 30
0.0
 10
94.57829032376077
 20
344.5777808991999
 30
0.0
 10
94.67640100376362
 20
342.700999258237
 30
0.0
  0
ARC
  5
87
330
78
100
AcDbEntity
  8
$DDT_AUDIT_GENERATED_(7A)
  6
Continuous
 62
     7
100
AcDbCircle
 10
96.8625726594
 20
342.5977200316
 30
0.0
 40
2.188949333370378
100
AcDbArc
 50
177.2160769177
 51
247.4709061162
  0
ARC
  5
88
330
78
100
AcDbEntity
  8
$DDT_AUDIT_GENERATED_(7A)
  6
Continuous
 62
     7
100
AcDbCircle
 10
108.1112312073
 20
368.4635086671
 30
0.0
 40
30.39456387260401
100
AcDbArc
 50
246.5665601839
 51
293.387342002
  0
ARC
  5
89
330
78
100
AcDbEntity
  8
$DDT_AUDIT_GENERATED_(7A)
  6
Continuous
 62
     7
100
AcDbCircle
 10
119.3443197315
 20
342.5919478621
 30
0.0
 40
2.189975928259856
100
AcDbArc
 50
292.323339681
 51
2.5107701853
  0
SPLINE
  5
8A
330
78
100
AcDbEntity
  8
$DDT_AUDIT_GENERATED_(7A)
  6
Continuous
 62
     7
100
AcDbSpline
210
0.0
220
0.0
230
1.0
 70
     8
 71
     3
 72
    37
 73
    33
 74
     0
 42
0.000000000127641
 43
0.0000000001
 40
0.0
 40
0.0
 40
0.0
 40
0.0
 40
0.0633089429923074
 40
0.1198908844456992
 40
0.1698083948374451
 40
0.2130931416834484
 40
0.2497627805090473
 40
0.279975728798172
 40
0.3085054657445165
 40
0.3376489989514185
 40
0.4332634054160691
 40
0.5335571495427679
 40
0.5663380524202164
 40
0.5982427753386799
 40
0.6252751547199095
 40
0.6470745358514898
 40
0.6596077212868616
 40
0.6762634325818196
 40
0.6973238604016019
 40
0.7227211471321431
 40
0.7497378196348751
 40
0.7833102169112899
 40
0.8110211326538219
 40
0.8326478290511603
 40
0.8519977783452332
 40
0.8614643103158633
 40
0.8707839004181185
 40
0.8804342808565934
 40
0.8942399198555735
 40
0.9204696101469155
 40
0.9557314168241586
 40
1.0
 40
1.0
 40
1.0
 40
1.0
 10
121.5320079989408
 20
342.6852499973834
 30
0.0
 10
121.6286390596829
 20
344.4948287080881
 30
0.0
 10
121.780310189949
 20
347.3787000913439
 30
0.0
 10
121.931235388205
 20
351.9001079922434
 30
0.0
 10
122.0241316866947
 20
355.807291185522
 30
0.0
 10
122.0815884594063
 20
359.2234685289158
 30
0.0
 10
122.1179621983127
 20
362.1221402484367
 30
0.0
 10
122.1433174155945
 20
364.6367250211346
 30
0.0
 10
122.1633030236832
 20
366.9550781089599
 30
0.0
 10
122.1966989203896
 20
371.0021302562947
 30
0.0
 10
122.2681232565748
 20
376.9536581561961
 30
0.0
 10
122.5036305236681
 20
383.0035243964434
 30
0.0
 10
122.8185214407726
 20
387.3518028317953
 30
0.0
 10
123.0211080110661
 20
389.7645672701728
 30
0.0
 10
123.2059134337134
 20
391.8854610061964
 30
0.0
 10
123.3524159774616
 20
393.4952011017381
 30
0.0
 10
123.4826815935757
 20
394.8304745836263
 30
0.0
 10
123.6199398179076
 20
396.1434784437871
 30
0.0
 10
123.8099570769345
 20
397.7881880586085
 30
0.0
 10
124.0708960761728
 20
399.6940307907795
 30
0.0
 10
124.4343809471272
 20
401.9103477855655
 30
0.0
 10
124.8911933252721
 20
404.1634750084974
 30
0.0
 10
125.3605517889437
 20
406.2616316164394
 30
0.0
 10
125.7779080743429
 20
407.9855555969382
 30
0.0
 10
126.1130750351719
 20
409.2404785014465
 30
0.0
 10
126.3805031417539
 20
410.1838635013028
 30
0.0
 10
126.5858678433108
 20
410.8846938935299
 30
0.0
 10
126.8287668040179
 20
411.6894402560968
 30
0.0
 10
127.2064933973082
 20
412.8992562286556
 30
0.0
 10
127.7968349945345
 20
414.7070075697538
 30
0.0
 10
128.6669515943305
 20
417.2765366219999
 30
0.0
 10
129.2633450037249
 20
419.0065830554566
 30
0.0
 10
129.6595816193499
 20
420.1519298486483
 30
0.0
  0
ARC
  5
8C
330
78
100
AcDbEntity
  8
$DDT_AUDIT_GENERATED_(8B)
  6
Continuous
 62
     7
100
AcDbCircle
 10
108.1092374978
 20
449.6949163349
 30
0.0
 40
81.80000000000003
100
AcDbArc
 50
279.9161059305
 51
0.0
  0
ARC
  5
8D
330
78
100
AcDbEntity
  8
$DDT_AUDIT_GENERATED_(8B)
  6
Continuous
 62
     7
100
AcDbCircle
 10
108.1092374978
 20
449.6949163349
 30
0.0
 40
81.80000000000003
100
AcDbArc
 50
0.0
 51
260.0950709441
  0
ENDBLK
  5
8F
330
78
100
AcDbEntity
  8
0
100
AcDbBlockEnd
  0
BLOCK
  5
B8
330
90
100
AcDbEntity
  8
0
100
AcDbBlockBegin
  2
SE1
 70
     0
 10
0.0
 20
0.0
 30
0.0
  3
SE1
  1

  0
LINE
  5
92
330
90
100
AcDbEntity
  8
$DDT_AUDIT_GENERATED_(8B)
  6
Continuous
 62
     7
100
AcDbLine
 10
337.5530654312
 20
367.7949163342
 30
0.0
 11
337.5530654312
 21
531.3949163342
 31
0.0
  0
LINE
  5
93
330
90
100
AcDbEntity
  8
$DDT_AUDIT_GENERATED_(8B)
  6
Continuous
 62
     7
100
AcDbLine
 10
340.0216463144
 20
367.7949163362
 30
0.0
 11
340.0213379146
 21
368.572207975
 31
0.0
  0
ARC
  5
94
330
90
100
AcDbEntity
  8
$DDT_AUDIT_GENERATED_(8B)
  6
Continuous
 62
     7
100
AcDbCircle
 10
341.3030654312
 20
364.3635381314
 30
0.0
 40
4.399514436764114
100
AcDbArc
 50
73.0621709289
 51
106.9378290711
  0
LINE
  5
95
330
90
100
AcDbEntity
  8
$DDT_AUDIT_GENERATED_(8B)
  6
Continuous
 62
     7
100
AcDbLine
 10
342.5844845481
 20
367.7949163362
 30
0.0
 11
342.5847929479
 21
368.572207975
 31
0.0
  0
LINE
  5
96
330
90
100
AcDbEntity
  8
$DDT_AUDIT_GENERATED_(8B)
  6
Continuous
 62
     7
100
AcDbLine
 10
345.0271503376
 20
367.7949163342
 30
0.0
 11
345.0271503376
 21
531.3949163342
 31
0.0
  0
LINE
  5
97
330
90
100
AcDbEntity
  8
$DDT_AUDIT_GENERATED_(8B)
  6
Continuous
 62
     7
100
AcDbLine
 10
349.2025407115
 20
463.4469294823
 30
0.0
 11
348.5121610702
 21
409.9366747807
 31
0.0
  0
ARC
  5
98
330
90
100
AcDbEntity
  8
$DDT_AUDIT_GENERATED_(8B)
  6
Continuous
 62
     7
100
AcDbCircle
 10
-651.2015432865
 20
449.5949163342
 30
0.0
 40
1000.5
100
AcDbArc
 50
0.7930091408
 51
4.6368747388
  0
ARC
  5
99
330
90
100
AcDbEntity
  8
$DDT_AUDIT_GENERATED_(8B)
  6
Continuous
 62
     7
100
AcDbCircle
 10
-651.2015432865
 20
449.5949163342
 30
0.0
 40
1000.5
100
AcDbArc
 50
355.3631252612
 51
357.7294733399
  0
LINE
  5
9A
330
90
100
AcDbEntity
  8
$DDT_AUDIT_GENERATED_(8B)
  6
Continuous
 62
     7
100
AcDbLine
 10
342.5844881033
 20
367.7949163342
 30
0.0
 11
345.0271503376
 21
367.7949163342
 31
0.0
  0
LINE
  5
9B
330
90
100
AcDbEntity
  8
$DDT_AUDIT_GENERATED_(8B)
  6
Continuous
 62
     7
100
AcDbLine
 10
337.5530654312
 20
367.7949163342
 30
0.0
 11
340.0216427592
 21
367.7949163342
 31
0.0
  0
LINE
  5
9C
330
90
100
AcDbEntity
  8
$DDT_AUDIT_GENERATED_(8B)
  6
Continuous
 62
     7
100
AcDbLine
 10
345.0271503376
 20
531.3949163342
 30
0.0
 11
337.5530654312
 21
531.3949163342
 31
0.0
  0
LINE
  5
9D
330
90
100
AcDbEntity
  8
$DDT_AUDIT_GENERATED_(8B)
  6
Continuous
 62
     7
100
AcDbLine
 10
342.5702325191
 20
368.6114145281
 30
0.0
 11
342.5849834111
 21
367.7663364944
 31
0.0
  0
LINE
  5
9E
330
90
100
AcDbEntity
  8
$DDT_AUDIT_GENERATED_(8B)
  6
Continuous
 62
     7
100
AcDbLine
 10
340.0211474514
 20
367.7663364944
 30
0.0
 11
340.0358716697
 21
368.6098863953
 31
0.0
  0
ARC
  5
9F
330
90
100
AcDbEntity
  8
$DDT_AUDIT_GENERATED_(8B)
  6
Continuous
 62
     7
100
AcDbCircle
 10
345.0271503376
 20
368.7949163342
 30
0.0
 40
1.000000000000015
100
AcDbArc
 50
270.0
 51
355.3631252611
  0
ARC
  5
A0
330
90
100
AcDbEntity
  8
$DDT_AUDIT_GENERATED_(8B)
  6
Continuous
 62
     7
100
AcDbCircle
 10
345.0271503376
 20
530.3949163342
 30
0.0
 40
0.9999999999997862
100
AcDbArc
 50
4.6368747389
 51
90.0
  0
ARC
  5
A2
330
90
100
AcDbEntity
  8
$DDT_AUDIT_GENERATED_(A1)
  6
Continuous
 62
     7
100
AcDbCircle
 10
390.4558247066
 20
436.6949163349
 30
0.0
 40
25.87500000000042
100
AcDbArc
 50
270.5
 51
295.2353768819
  0
ARC
  5
A3
330
90
100
AcDbEntity
  8
$DDT_AUDIT_GENERATED_(A1)
  6
Continuous
 62
     7
100
AcDbCircle
 10
390.4558247066
 20
436.6949163349
 30
0.0
 40
25.87500000000077
100
AcDbArc
 50
64.7651141859
 51
89.5
  0
SPLINE
  5
A4
330
90
100
AcDbEntity
  8
$DDT_AUDIT_GENERATED_(7A)
  6
Continuous
 62
     7
100
AcDbSpline
210
0.0
220
0.0
230
1.0
 70
     8
 71
     3
 72
    29
 73
    25
 74
     0
 42
0.000000000103764
 43
0.0000000001
 40
0.0
 40
0.0
 40
0.0
 40
0.0
 40
0.040725872359045
 40
0.0827848038072027
 40
0.1255527438315539
 40
0.1867408174712373
 40
0.2504651206851107
 40
0.300525023036771
 40
0.3747408648614146
 40
0.4367235802663911
 40
0.4988629608414582
 40
0.5812457471391306
 40
0.6219469809882866
 40
0.6527308464391035
 40
0.6834015470138493
 40
0.7451258571424063
 40
0.7813965598704806
 40
0.8076395151091805
 40
0.8408068957277502
 40
0.8709812741026967
 40
0.9043530471624966
 40
0.9355653891276758
 40
0.9671928509463205
 40
1.0
 40
1.0
 40
1.0
 40
1.0
 10
436.0963412940084
 20
342.9348447930073
 30
0.0
 10
436.3383654227244
 20
344.236941976515
 30
0.0
 10
436.8288297822631
 20
346.885211344033
 30
0.0
 10
437.4784400671545
 20
350.9212893635573
 30
0.0
 10
438.1517708347111
 20
355.6288128351785
 30
0.0
 10
438.791021515789
 20
361.0542533061092
 30
0.0
 10
439.2938841393184
 20
366.7332538130738
 30
0.0
 10
439.6358479824828
 20
372.8489809202159
 30
0.0
 10
439.7828570892493
 20
378.9160831010662
 30
0.0
 10
439.6563039413804
 20
385.3712815729097
 30
0.0
 10
439.2552534607675
 20
392.0604589763116
 30
0.0
 10
438.6354104717568
 20
398.045144841599
 30
0.0
 10
437.9103323179928
 20
402.9250370748156
 30
0.0
 10
437.3423682404897
 20
406.1192186976269
 30
0.0
 10
436.5821712912702
 20
409.9299966126094
 30
0.0
 10
435.6709017434078
 20
413.8121022806004
 30
0.0
 10
434.6285819271544
 20
417.5062535222353
 30
0.0
 10
433.7693257282363
 20
420.3362173835755
 30
0.0
 10
432.8992947151374
 20
422.9710946240591
 30
0.0
 10
431.8515449540142
 20
425.8008122265674
 30
0.0
 10
430.7721783652823
 20
428.5909539565513
 30
0.0
 10
429.6161921304549
 20
431.4470485217454
 30
0.0
 10
428.440551082012
 20
434.3137624731818
 30
0.0
 10
427.6014977152326
 20
436.2380522199155
 30
0.0
 10
427.1742224674789
 20
437.217712188348
 30
0.0
  0
ARC
  5
A5
330
90
100
AcDbEntity
  8
$DDT_AUDIT_GENERATED_(7A)
  6
Continuous
 62
     7
100
AcDbCircle
 10
441.1797082407
 20
341.3734397781
 30
0.0
 40
5.31776317033794
100
AcDbArc
 50
162.9251567884
 51
181.0162201709
  0
SPLINE
  5
A6
330
90
100
AcDbEntity
  8
$DDT_AUDIT_GENERATED_(7A)
  6
Continuous
 62
     7
100
AcDbSpline
210
0.0
220
0.0
230
1.0
 70
     8
 71
     3
 72
    16
 73
    12
 74
     0
 42
0.0000000020078999
 43
0.0000000001
 40
0.49965563986955
 40
0.49965563986955
 40
0.49965563986955
 40
0.49965563986955
 40
0.500490105288519
 40
0.6262687473455648
 40
0.7498282785462814
 40
0.792650209956502
 40
0.8349537789986075
 40
0.8767941288770158
 40
0.9182204262064464
 40
0.9592762448407661
 40
0.9999554781794063
 40
0.9999554781794063
 40
0.9999554781794063
 40
0.9999554781794063
 10
436.0497596838756
 20
338.7941373464615
 30
0.0
 10
436.0497595896793
 20
338.7941379628809
 30
0.0
 10
436.0497152628777
 20
338.7945754835932
 30
0.0
 10
436.0406268599199
 20
338.8985477385379
 30
0.0
 10
436.0082240756726
 20
339.264169892296
 30
0.0
 10
435.9784689089691
 20
339.6384922406875
 30
0.0
 10
435.9580908117131
 20
339.9026363845016
 30
0.0
 10
435.9361173187536
 20
340.1988879140894
 30
0.0
 10
435.9127884875903
 20
340.5271345402742
 30
0.0
 10
435.8884652837187
 20
340.8833238609032
 30
0.0
 10
435.87135214287
 20
341.1470028080294
 30
0.0
 10
435.8628095267618
 20
341.2786944171797
 30
0.0
  0
ARC
  5
A7
330
90
100
AcDbEntity
  8
$DDT_AUDIT_GENERATED_(7A)
  6
Continuous
 62
     7
100
AcDbCircle
 10
817.6837695176
 20
621.5492288006
 30
0.0
 40
431.828468756751
100
AcDbArc
 50
201.5849067431
 51
205.2686316128
  0
LINE
  5
A8
330
90
100
AcDbEntity
  8
$DDT_AUDIT_GENERATED_(7A)
  6
Continuous
 62
     7
100
AcDbLine
 10
401.4671337666
 20
437.106181606
 30
0.0
 11
401.4671337666
 21
463.7436311762
 31
0.0
  0
LINE
  5
A9
330
90
100
AcDbEntity
  8
$DDT_AUDIT_GENERATED_(7A)
  6
Continuous
 62
     7
100
AcDbLine
 10
401.4671337666
 20
437.106181606
 30
0.0
 11
401.4671337666
 21
410.4441349871
 31
0.0
  0
ARC
  5
AA
330
90
100
AcDbEntity
  8
$DDT_AUDIT_GENERATED_(7A)
  6
Continuous
 62
     7
100
AcDbCircle
 10
412.6467186626
 20
382.0926326554
 30
0.0
 40
27.98308501825847
100
AcDbArc
 50
80.2712313514
 51
95.592538308
  0
ARC
  5
AB
330
90
100
AcDbEntity
  8
$DDT_AUDIT_GENERATED_(7A)
  6
Continuous
 62
     7
100
AcDbCircle
 10
563.4716689768
 20
2105.3831606251
 30
0.0
 40
1649.283990713746
100
AcDbArc
 50
264.3744684763
 51
264.8748957292
  0
SPLINE
  5
AC
330
90
100
AcDbEntity
  8
$DDT_AUDIT_GENERATED_(7A)
  6
Continuous
 62
     7
100
AcDbSpline
210
0.0
220
0.0
230
1.0
 70
     8
 71
     3
 72
    53
 73
    49
 74
     0
 42
0.0000000001415157
 43
0.0000000001
 40
0.0
 40
0.0
 40
0.0
 40
0.0
 40
0.0042014013074955
 40
0.0202050993044736
 40
0.0335297201130416
 40
0.0447000099394468
 40
0.0598395844546024
 40
0.0723546023866935
 40
0.0833414405994886
 40
0.0930506863405059
 40
0.1016742210168537
 40
0.1093869804917301
 40
0.1226951132035184
 40
0.13405674196647
 40
0.1442804364208637
 40
0.1581872614363757
 40
0.1706235457546837
 40
0.1877115090173077
 40
0.20136572623166
 40
0.2131556731046539
 40
0.22663245711357
 40
0.2420053845866105
 40
0.2563338158237501
 40
0.2724141649251324
 40
0.2912207580348794
 40
0.3043766313803818
 40
0.3193869326716569
 40
0.3366947997196332
 40
0.3568119603915187
 40
0.380323694991879
 40
0.3970341308411747
 40
0.415507113751565
 40
0.4359349370812138
 40
0.4585352409310966
 40
0.4836392534051701
 40
0.5116601664110906
 40
0.5430533921858575
 40
0.5783191444992749
 40
0.6075013629992526
 40
0.6393924064328114
 40
0.6742536102529764
 40
0.7123623706686527
 40
0.7540125042870969
 40
0.7995146031166852
 40
0.8462389438218058
 40
0.8969677333714919
 40
0.9520040145591838
 40
1.0
 40
1.0
 40
1.0
 40
1.0
 10
417.3753101792741
 20
409.6723662919665
 30
0.0
 10
417.4840236438575
 20
409.667315955138
 30
0.0
 10
417.9310915593665
 20
409.6464313711178
 30
0.0
 10
418.7436387017196
 20
409.6001627726897
 30
0.0
 10
419.6882148639009
 20
409.5382312483151
 30
0.0
 10
420.6203057476935
 20
409.4650267144509
 30
0.0
 10
421.5298445978784
 20
409.3763237864887
 30
0.0
 10
422.4332898682904
 20
409.2661322060031
 30
0.0
 10
423.2075480648782
 20
409.1555299516729
 30
0.0
 10
423.8882700117576
 20
409.0395280436705
 30
0.0
 10
424.4894070558935
 20
408.9170923145231
 30
0.0
 10
425.167782867062
 20
408.7519318543932
 30
0.0
 10
425.8973435904008
 20
408.5258470269442
 30
0.0
 10
426.6544404054297
 20
408.2026701937344
 30
0.0
 10
427.3868988829464
 20
407.7976554956613
 30
0.0
 10
428.0919130523728
 20
407.2990637816046
 30
0.0
 10
428.8551035693436
 20
406.6156982318413
 30
0.0
 10
429.5302410914197
 20
405.8515360879503
 30
0.0
 10
430.1140708805241
 20
405.0364588234731
 30
0.0
 10
430.5937457010971
 20
404.2548115218975
 30
0.0
 10
431.0445521679589
 20
403.4099979250798
 30
0.0
 10
431.471414986225
 20
402.486614802488
 30
0.0
 10
431.8793359057208
 20
401.4883728352243
 30
0.0
 10
432.2697729510859
 20
400.3966578377295
 30
0.0
 10
432.5916601933005
 20
399.3114272194215
 30
0.0
 10
432.8615809578627
 20
398.2385728896707
 30
0.0
 10
433.0909967283432
 20
397.1924211184044
 30
0.0
 10
433.3220927353076
 20
395.9793257368709
 30
0.0
 10
433.5566085763134
 20
394.5635255597209
 30
0.0
 10
433.7601829420678
 20
393.1571941749041
 30
0.0
 10
433.9399218583004
 20
391.7867262094429
 30
0.0
 10
434.0980959647529
 20
390.4867293097786
 30
0.0
 10
434.2611198800967
 20
389.0476592451099
 30
0.0
 10
434.4311032905369
 20
387.4522568694832
 30
0.0
 10
434.6002136355316
 20
385.6770172465233
 30
0.0
 10
434.7575032130355
 20
383.6928575317197
 30
0.0
 10
434.8917414543349
 20
381.4671788993956
 30
0.0
 10
434.9805752064495
 20
379.2118232324576
 30
0.0
 10
435.0271144351808
 20
376.9435575789875
 30
0.0
 10
435.0359858163219
 20
374.684352695327
 30
0.0
 10
435.0047075124989
 20
372.2150966572518
 30
0.0
 10
434.926261143873
 20
369.5170432491363
 30
0.0
 10
434.7931482912426
 20
366.5699281476201
 30
0.0
 10
434.601812156655
 20
363.4241780446246
 30
0.0
 10
434.3479294148993
 20
360.0625897147953
 30
0.0
 10
434.0297846841838
 20
356.5052564193814
 30
0.0
 10
433.6543640788826
 20
352.826952110174
 30
0.0
 10
433.3919716573857
 20
350.5896736580791
 30
0.0
 10
433.2460552872934
 20
349.3550054492401
 30
0.0
  0
ARC
  5
AD
330
90
100
AcDbEntity
  8
$DDT_AUDIT_GENERATED_(7A)
  6
Continuous
 62
     7
100
AcDbCircle
 10
374.6052214929
 20
-855.2523203258
 30
0.0
 40
1265.68745570855
100
AcDbArc
 50
88.4049846136
 51
88.7706535638
  0
ARC
  5
AE
330
90
100
AcDbEntity
  8
$DDT_AUDIT_GENERATED_(7A)
  6
Continuous
 62
     7
100
AcDbCircle
 10
465.3952929272
 20
352.9436305885
 30
0.0
 40
32.57907230302842
100
AcDbArc
 50
189.7735616437
 51
205.844827428
  0
SPLINE
  5
AF
330
90
100
AcDbEntity
  8
$DDT_AUDIT_GENERATED_(7A)
  6
Continuous
 62
     7
100
AcDbSpline
210
0.0
220
0.0
230
1.0
 70
     8
 71
     3
 72
    27
 73
    23
 74
     0
 42
0.0000000000781261
 43
0.0000000001
 40
0.0
 40
0.0
 40
0.0
 40
0.0
 40
0.0405436714713887
 40
0.08788639819477
 40
0.1365713644838181
 40
0.1862550425671583
 40
0.2366322222303972
 40
0.2874322608778518
 40
0.3475211416392304
 40
0.4075229827103561
 40
0.4671422669419447
 40
0.526124971947811
 40
0.579010361450777
 40
0.631048975726588
 40
0.6821198385464319
 40
0.7321194852316577
 40
0.7809603412191144
 40
0.828569436274706
 40
0.8748874375451472
 40
0.9198679839284639
 40
0.9634773034108544
 40
1.0
 40
1.0
 40
1.0
 40
1.0
 10
438.4266710524786
 20
339.0626874745457
 30
0.0
 10
438.8337800346015
 20
340.9208047624562
 30
0.0
 10
439.5719460800788
 20
344.3235026820055
 30
0.0
 10
440.614999543018
 20
350.1795834460924
 30
0.0
 10
441.5093777795757
 20
356.2950147959249
 30
0.0
 10
442.2164780170194
 20
362.6109103632172
 30
0.0
 10
442.7099220081187
 20
369.0251279117867
 30
0.0
 10
442.9926039656814
 20
375.8998362653896
 30
0.0
 10
443.0007699763964
 20
383.1908183263045
 30
0.0
 10
442.6681333539466
 20
390.8512417625531
 30
0.0
 10
441.9893855120362
 20
398.4414653815769
 30
0.0
 10
440.9956278625958
 20
405.6907657198113
 30
0.0
 10
439.7271922200931
 20
412.5679788790918
 30
0.0
 10
438.2266784895878
 20
419.0524132494794
 30
0.0
 10
436.4619316255663
 20
425.3423687602042
 30
0.0
 10
434.4447635947985
 20
431.4122258119843
 30
0.0
 10
432.1880691952601
 20
437.2401790446634
 30
0.0
 10
429.70857312179
 20
442.8018107128569
 30
0.0
 10
427.0155765124231
 20
448.092693925627
 30
0.0
 10
424.1499853166739
 20
453.0469295357832
 30
0.0
 10
421.1790191370148
 20
457.6194138279945
 30
0.0
 10
419.2661522012559
 20
460.1555541263785
 30
0.0
 10
418.2297010029679
 20
461.520101159663
 30
0.0
  0
ARC
  5
B0
330
90
100
AcDbEntity
  8
$DDT_AUDIT_GENERATED_(7A)
  6
Continuous
 62
     7
100
AcDbCircle
 10
440.2776258296
 20
348.5251069588
 30
0.0
 40
7.076316551178917
100
AcDbArc
 50
173.2206071609
 51
189.4685882332
  0
ARC
  5
B1
330
90
100
AcDbEntity
  8
$DDT_AUDIT_GENERATED_(7A)
  6
Continuous
 62
     7
100
AcDbCircle
 10
437.1966902045
 20
339.3371835639
 30
0.0
 40
1.268995187259772
100
AcDbArc
 50
205.3365047659
 51
347.3757653234
  0
ARC
  5
B2
330
90
100
AcDbEntity
  8
$DDT_AUDIT_GENERATED_(7A)
  6
Continuous
 62
     7
100
AcDbCircle
 10
415.8665955418
 20
459.6981639518
 30
0.0
 40
3.002394678355491
100
AcDbArc
 50
37.6703343347
 51
84.8150724189
  0
ARC
  5
B3
330
90
100
AcDbEntity
  8
$DDT_AUDIT_GENERATED_(7A)
  6
Continuous
 62
     7
100
AcDbCircle
 10
401.7671337666
 20
463.7436359844
 30
0.0
 40
0.3000000000330529
100
AcDbArc
 50
83.5350041124
 51
180.0000677115
  0
ARC
  5
B4
330
90
100
AcDbEntity
  8
$DDT_AUDIT_GENERATED_(7A)
  6
Continuous
 62
     7
100
AcDbCircle
 10
401.7671337656
 20
410.4441349688
 30
0.0
 40
0.2999999462770063
100
AcDbArc
 50
179.9991552198
 51
269.485452266
  0
LINE
  5
B6
330
90
100
AcDbEntity
  8
$DDT_AUDIT_GENERATED_(B5)
  6
Continuous
 62
     7
100
AcDbLine
 10
409.7545636069
 20
409.7677045503
 30
0.0
 11
415.6268480332
 21
409.9214757297
 31
0.0
  0
LINE
  5
B7
330
90
100
AcDbEntity
  8
$DDT_AUDIT_GENERATED_(B5)
  6
Continuous
 62
     7
100
AcDbLine
 10
409.8536574958
 20
409.9851462439
 30
0.0
 11
409.7545636069
 21
409.7677045503
 31
0.0
  0
ENDBLK
  5
B9
330
90
100
AcDbEntity
  8
0
100
AcDbBlockEnd
  0
BLOCK
  5
D7
330
BA
100
AcDbEntity
  8
0
100
AcDbBlockBegin
  2
SE2
 70
     0
 10
0.0
 20
0.0
 30
0.0
  3
SE2
  1

  0
LINE
  5
BC
330
BA
100
AcDbEntity
  8
$DDT_AUDIT_GENERATED_(8B)
  6
Continuous
 62
     7
100
AcDbLine
 10
26.3092375004
 20
211.7777237745
 30
0.0
 11
189.9092375004
 21
211.7777237745
 31
0.0
  0
LINE
  5
BD
330
BA
100
AcDbEntity
  8
$DDT_AUDIT_GENERATED_(8B)
  6
Continuous
 62
     7
100
AcDbLine
 10
26.3092375004
 20
204.3036388681
 30
0.0
 11
189.9092375004
 21
204.3036388681
 31
0.0
  0
SPLINE
  5
BE
330
BA
100
AcDbEntity
  8
$DDT_AUDIT_GENERATED_(8B)
  6
Continuous
 62
     7
100
AcDbSpline
210
0.0
220
0.0
230
1.0
 70
     8
 71
     3
 72
     8
 73
     4
 74
     0
 42
0.0000000001067842
 43
0.0000000001
 40
0.0
 40
0.0
 40
0.0
 40
0.0
 40
0.0281622458964671
 40
0.0281622458964671
 40
0.0281622458964671
 40
0.0281622458964671
 10
128.9082887433811
 20
200.2562580947917
 30
0.0
 10
129.910288425436
 20
200.2722310117007
 30
0.0
 10
130.7876914235802
 20
200.2891065547841
 30
0.0
 10
131.5450950572661
 20
200.3068515673634
 30
0.0
  0
SPLINE
  5
BF
330
BA
100
AcDbEntity
  8
$DDT_AUDIT_GENERATED_(8B)
  6
Continuous
 62
     7
100
AcDbSpline
210
0.0
220
0.0
230
1.0
 70
     8
 71
     3
 72
    24
 73
    20
 74
     0
 42
0.0000000000703939
 43
0.0000000001
 40
0.6886201206267918
 40
0.6886201206267918
 40
0.6886201206267918
 40
0.6886201206267918
 40
0.7187500000000002
 40
0.7187500000000002
 40
0.7500000000000002
 40
0.7500000000000002
 40
0.7812500000000002
 40
0.7812500000000002
 40
0.8125000000000001
 40
0.8125000000000001
 40
0.8437500000000001
 40
0.8437500000000001
 40
0.8750000000000001
 40
0.8750000000000001
 40
0.9062500000000001
 40
0.9062500000000001
 40
0.9375
 40
0.9375
 40
1.0
 40
1.0
 40
1.0
 40
1.0
 10
84.67608612667887
 20
200.3067896021107
 30
0.0
 10
85.49183722759754
 20
200.2876988825775
 30
0.0
 10
86.45755929935683
 20
200.2694456532026
 30
0.0
 10
88.64674499591275
 20
200.2354668794017
 30
0.0
 10
89.88692086158674
 20
200.2196254424655
 30
0.0
 10
92.62736968403925
 20
200.1909611818306
 30
0.0
 10
94.09322675931931
 20
200.1785198381887
 30
0.0
 10
97.176719375686
 20
200.1575599667379
 30
0.0
 10
98.81652268872466
 20
200.1489293227583
 30
0.0
 10
102.1840216097799
 20
200.136045548037
 30
0.0
 10
103.8958485893335
 20
200.1318003849117
 30
0.0
 10
107.3747678642854
 20
200.127633732492
 30
0.0
 10
109.1567619838322
 20
200.1277680865998
 30
0.0
 10
112.6314211421276
 20
200.1324580700414
 30
0.0
 10
114.3393432819804
 20
200.136960511937
 30
0.0
 10
117.6953889801065
 20
200.1503526416983
 30
0.0
 10
119.326862642435
 20
200.1592278897717
 30
0.0
 10
123.9232661992538
 20
200.1913616845681
 30
0.0
 10
126.6845676538535
 20
200.2208096681823
 30
0.0
 10
128.9082887433811
 20
200.2562580947917
 30
0.0
  0
ARC
  5
C0
330
BA
100
AcDbEntity
  8
$DDT_AUDIT_GENERATED_(8B)
  6
Continuous
 62
     7
100
AcDbCircle
 10
108.1092375004
 20
1200.5323324922
 30
0.0
 40
1000.5
100
AcDbArc
 50
265.3631252612
 51
268.6589580034
  0
ARC
  5
C1
330
BA
100
AcDbEntity
  8
$DDT_AUDIT_GENERATED_(8B)
  6
Continuous
 62
     7
100
AcDbCircle
 10
108.1092375004
 20
1200.5323324922
 30
0.0
 40
1000.5
100
AcDbArc
 50
271.3416881536
 51
274.6368747388
  0
LINE
  5
C2
330
BA
100
AcDbEntity
  8
$DDT_AUDIT_GENERATED_(8B)
  6
Continuous
 62
     7
100
AcDbLine
 10
26.3092375004
 20
211.7777237745
 30
0.0
 11
26.3092375004
 21
204.3036388681
 31
0.0
  0
LINE
  5
C3
330
BA
100
AcDbEntity
  8
$DDT_AUDIT_GENERATED_(8B)
  6
Continuous
 62
     7
100
AcDbLine
 10
189.9092375004
 20
204.3036388681
 30
0.0
 11
189.9092375004
 21
211.7777237745
 31
0.0
  0
ARC
  5
C4
330
BA
100
AcDbEntity
  8
$DDT_AUDIT_GENERATED_(8B)
  6
Continuous
 62
     7
100
AcDbCircle
 10
27.3092375004
 20
204.3036388681
 30
0.0
 40
1.000000000000001
100
AcDbArc
 50
180.0
 51
265.3631252611
  0
ARC
  5
C5
330
BA
100
AcDbEntity
  8
$DDT_AUDIT_GENERATED_(8B)
  6
Continuous
 62
     7
100
AcDbCircle
 10
188.9092375004
 20
204.3036388681
 30
0.0
 40
0.9999999999997862
100
AcDbArc
 50
274.6368747389
 51
0.0
  0
ARC
  5
C6
330
BA
100
AcDbEntity
  8
$DDT_AUDIT_GENERATED_(A1)
  6
Continuous
 62
     7
100
AcDbCircle
 10
108.1092374978
 20
158.8749644991
 30
0.0
 40
25.87500000000016
100
AcDbArc
 50
180.5
 51
205.2391689443
  0
LINE
  5
C7
330
BA
100
AcDbEntity
  8
$DDT_AUDIT_GENERATED_(A1)
  6
Continuous
 62
     7
100
AcDbLine
 10
133.9832522571
 20
158.6491653931
 30
0.0
 11
134.347400668
 21
200.3764402466
 31
0.0
  0
LINE
  5
C8
330
BA
100
AcDbEntity
  8
$DDT_AUDIT_GENERATED_(A1)
  6
Continuous
 62
     7
100
AcDbLine
 10
81.8710743276
 20
200.3764402468
 30
0.0
 11
82.2352227385
 21
158.6491653931
 31
0.0
  0
ARC
  5
C9
330
BA
100
AcDbEntity
  8
$DDT_AUDIT_GENERATED_(A1)
  6
Continuous
 62
     7
100
AcDbCircle
 10
108.1092374978
 20
158.8749644991
 30
0.0
 40
25.87500000000014
100
AcDbArc
 50
334.7562746732
 51
359.5
  0
ARC
  5
CA
330
BA
100
AcDbEntity
  8
$DDT_AUDIT_GENERATED_(7A)
  6
Continuous
 62
     7
100
AcDbCircle
 10
-946.6591094212
 20
213.0890143082
 30
0.0
 40
1083.734057920642
100
AcDbArc
 50
356.3466569075
 51
356.5326661841
  0
SPLINE
  5
CB
330
BA
100
AcDbEntity
  8
$DDT_AUDIT_GENERATED_(7A)
  6
Continuous
 62
     7
100
AcDbSpline
210
0.0
220
0.0
230
1.0
 70
     8
 71
     3
 72
     9
 73
     5
 74
     0
 42
0.0000000002575682
 43
0.0000000001
 40
0.0166380931937765
 40
0.0166380931937765
 40
0.0166380931937765
 40
0.0166380931937765
 40
0.022887018130834
 40
0.0232470895583959
 40
0.0232470895583959
 40
0.0232470895583959
 40
0.0232470895583959
 10
133.2151196864024
 20
121.5049003453739
 30
0.0
 10
133.2086538076328
 20
121.4239693048096
 30
0.0
 10
133.200780079425
 20
121.3387544999211
 30
0.0
 10
133.1913766033938
 20
121.2540896837588
 30
0.0
 10
133.1908597364045
 20
121.2494785939602
 30
0.0
  0
SPLINE
  5
CC
330
BA
100
AcDbEntity
  8
$DDT_AUDIT_GENERATED_(7A)
  6
Continuous
 62
     7
100
AcDbSpline
210
0.0
220
0.0
230
1.0
 70
     8
 71
     3
 72
     8
 73
     4
 74
     0
 42
0.0000000002564232
 43
0.0000000001
 40
0.9786967615299837
 40
0.9786967615299837
 40
0.9786967615299837
 40
0.9786967615299837
 40
0.9889467316173013
 40
0.9889467316173013
 40
0.9889467316173013
 40
0.9889467316173013
 10
83.04395741836407
 20
121.3276237242368
 30
0.0
 10
83.02769857925654
 20
121.4594921086174
 30
0.0
 10
83.01448382516253
 20
121.5921360522782
 30
0.0
 10
83.00280513895063
 20
121.7251855798636
 30
0.0
  0
SPLINE
  5
CD
330
BA
100
AcDbEntity
  8
$DDT_AUDIT_GENERATED_(7A)
  6
Continuous
 62
     7
100
AcDbSpline
210
0.0
220
0.0
230
1.0
 70
     8
 71
     3
 72
    25
 73
    21
 74
     0
 42
0.0000000001679549
 43
0.0000000001
 40
0.0
 40
0.0
 40
0.0
 40
0.0
 40
0.0154737985287266
 40
0.0361771056719343
 40
0.0625495084376851
 40
0.0907737379717599
 40
0.1244497526858629
 40
0.1849170053317006
 40
0.2494005406954019
 40
0.3328835237842098
 40
0.4168932079047601
 40
0.5014519254478346
 40
0.626826119668616
 40
0.7521581955428988
 40
0.8164421501885812
 40
0.8763877889105893
 40
0.9099273420698915
 40
0.9379746127821659
 40
0.9751010201300409
 40
1.0
 40
1.0
 40
1.0
 40
1.0
 10
82.96849099772474
 20
122.1565667382893
 30
0.0
 10
82.96878718968897
 20
122.3242043118783
 30
0.0
 10
82.9716384448292
 20
122.71597995067
 30
0.0
 10
83.09024177922858
 20
123.4014588133858
 30
0.0
 10
83.35934629269767
 20
124.2305010408178
 30
0.0
 10
83.85584482199278
 20
125.1944699232972
 30
0.0
 10
84.81628615582427
 20
126.5181601823486
 30
0.0
 10
86.59765382838056
 20
128.1897195632779
 30
0.0
 10
89.87339354751231
 20
130.1572874236087
 30
0.0
 10
94.72411838234963
 20
131.8630416735443
 30
0.0
 10
101.1437239814756
 20
132.9565797074144
 30
0.0
 10
109.310843389437
 20
133.3715332563038
 30
0.0
 10
118.6912839965304
 20
132.6529318748686
 30
0.0
 10
125.7791110957332
 20
130.5149947576699
 30
0.0
 10
129.6673451174354
 20
128.1501956836528
 30
0.0
 10
131.4287390864538
 20
126.4868197633384
 30
0.0
 10
132.3780142781903
 20
125.171671252988
 30
0.0
 10
132.9255770938815
 20
124.0943425488174
 30
0.0
 10
133.2254536041148
 20
123.0991624401557
 30
0.0
 10
133.2458511059112
 20
122.4265560584698
 30
0.0
 10
133.2532860540237
 20
122.1564766982753
 30
0.0
  0
LINE
  5
CE
330
BA
100
AcDbEntity
  8
$DDT_AUDIT_GENERATED_(7A)
  6
Continuous
 62
     7
100
AcDbLine
 10
81.4302615372
 20
147.8636554392
 30
0.0
 11
134.7916685982
 21
147.8636554392
 31
0.0
  0
ARC
  5
CF
330
BA
100
AcDbEntity
  8
$DDT_AUDIT_GENERATED_(7A)
  6
Continuous
 62
     7
100
AcDbCircle
 10
1117.0032150398
 20
209.7621349541
 30
0.0
 40
1037.739151283769
100
AcDbArc
 50
183.4371805735
 51
183.6515114063
  0
ARC
  5
D0
330
BA
100
AcDbEntity
  8
$DDT_AUDIT_GENERATED_(7A)
  6
Continuous
 62
     7
100
AcDbCircle
 10
134.7916211471
 20
147.5636107946
 30
0.0
 40
0.3000446484005699
100
AcDbArc
 50
356.5133071755
 51
89.9909388575
  0
ARC
  5
D1
330
BA
100
AcDbEntity
  8
$DDT_AUDIT_GENERATED_(7A)
  6
Continuous
 62
     7
100
AcDbCircle
 10
81.4303416529
 20
147.5635800481
 30
0.0
 40
0.3000754018266805
100
AcDbArc
 50
90.0152971253
 51
183.478312348
  0
ARC
  5
D2
330
BA
100
AcDbEntity
  8
$DDT_AUDIT_GENERATED_(7A)
  6
Continuous
 62
     7
100
AcDbCircle
 10
-795.0588584179
 20
200.9827880563
 30
0.0
 40
931.6714961816311
100
AcDbArc
 50
355.1068701514
 51
356.4955806394
  0
ARC
  5
D3
330
BA
100
AcDbEntity
  8
$DDT_AUDIT_GENERATED_(7A)
  6
Continuous
 62
     7
100
AcDbCircle
 10
1144.5342248061
 20
211.0194813657
 30
0.0
 40
1065.290432535126
100
AcDbArc
 50
183.6246978629
 51
184.8080359897
  0
ARC
  5
D4
330
BA
100
AcDbEntity
  8
$DDT_AUDIT_GENERATED_(7A)
  6
Continuous
 62
     7
100
AcDbCircle
 10
108.1144850619
 20
198.1038891587
 30
0.0
 40
91.75264955953793
100
AcDbArc
 50
261.7347675782
 51
278.2677145991
  0
SPLINE
  5
D5
330
BA
100
AcDbEntity
  8
$DDT_AUDIT_GENERATED_(7A)
  6
Continuous
 62
     7
100
AcDbSpline
210
0.0
220
0.0
230
1.0
 70
     8
 71
     3
 72
    39
 73
    35
 74
     0
 42
0.0000000005303188
 43
0.0000000001
 40
0.0
 40
0.0
 40
0.0
 40
0.0
 40
0.0371582578417878
 40
0.0683231067123134
 40
0.0933963871603188
 40
0.1122989720717129
 40
0.1350240911478633
 40
0.1577286008140448
 40
0.183490846558008
 40
0.2115095996527033
 40
0.2376426285840623
 40
0.2613073681765699
 40
0.2825333449710952
 40
0.3013889607674839
 40
0.3266169462831507
 40
0.356392536995961
 40
0.3906847164315909
 40
0.4294089799368817
 40
0.470944015152694
 40
0.5212551657744239
 40
0.5716696367848386
 40
0.6219733402243705
 40
0.6719160788803673
 40
0.7180669008694044
 40
0.7589517667310128
 40
0.7783595288832192
 40
0.7962510591306575
 40
0.8126789122612592
 40
0.8319281791972085
 40
0.8566883945535066
 40
0.8863610411129447
 40
0.9213235676009763
 40
0.9616439021989569
 40
1.0
 40
1.0
 40
1.0
 40
1.0
 10
83.03449226477713
 20
121.3455020317141
 30
0.0
 10
83.0958179953897
 20
120.9486729010553
 30
0.0
 10
83.19592253441026
 20
120.3361542075927
 30
0.0
 10
83.47764963160017
 20
119.4304693289062
 30
0.0
 10
83.76730894132656
 20
118.7351866427077
 30
0.0
 10
84.07181538882308
 20
118.1282612235811
 30
0.0
 10
84.39308072026391
 20
117.5733894454458
 30
0.0
 10
84.77086801655426
 20
116.996098333954
 30
0.0
 10
85.203049051925
 20
116.4032920325444
 30
0.0
 10
85.67612664073732
 20
115.8131267255931
 30
0.0
 10
86.15253377708775
 20
115.2612918214167
 30
0.0
 10
86.59153447314202
 20
114.7798926856336
 30
0.0
 10
86.98303818069822
 20
114.3666886486971
 30
0.0
 10
87.37141084552633
 20
113.9678529497318
 30
0.0
 10
87.80904443234796
 20
113.5318780504851
 30
0.0
 10
88.34142464491903
 20
113.0182531622397
 30
0.0
 10
88.95045658309881
 20
112.4507731973416
 30
0.0
 10
89.61792496322258
 20
111.8480999665943
 30
0.0
 10
90.34291403591193
 20
111.2044535055435
 30
0.0
 10
91.04550222387451
 20
110.572151242728
 30
0.0
 10
91.68675115304076
 20
109.9780689234907
 30
0.0
 10
92.25029249859612
 20
109.461580740315
 30
0.0
 10
92.66560012730577
 20
109.0450421285447
 30
0.0
 10
92.97700232119921
 20
108.7074172709311
 30
0.0
 10
93.18821110017014
 20
108.4738936975843
 30
0.0
 10
93.3371264763167
 20
108.3149827899305
 30
0.0
 10
93.4401459501878
 20
108.2092825364998
 30
0.0
 10
93.54158218518607
 20
108.1099941535763
 30
0.0
 10
93.67848730400958
 20
107.9852973609183
 30
0.0
 10
93.86407439780473
 20
107.8314524065519
 30
0.0
 10
94.09989285958845
 20
107.6603552176989
 30
0.0
 10
94.37373752464379
 20
107.4949482277152
 30
0.0
 10
94.66241333680101
 20
107.3607547198361
 30
0.0
 10
94.82242724431609
 20
107.3248859987362
 30
0.0
 10
94.91452141464244
 20
107.3055258822301
 30
0.0
  0
SPLINE
  5
D6
330
BA
100
AcDbEntity
  8
$DDT_AUDIT_GENERATED_(7A)
  6
Continuous
 62
     7
100
AcDbSpline
210
0.0
220
0.0
230
1.0
 70
     8
 71
     3
 72
    33
 73
    29
 74
     0
 42
0.00000000053197
 43
0.0000000001
 40
0.0
 40
0.0
 40
0.0
 40
0.0
 40
0.0674656713825078
 40
0.1378480469351797
 40
0.2073259710973308
 40
0.2797156201019971
 40
0.3265920313896323
 40
0.374259778077052
 40
0.4188939994290133
 40
0.4594086458080939
 40
0.4954420038056885
 40
0.5322803884353478
 40
0.5708278948624663
 40
0.6121037975033601
 40
0.6569396399788009
 40
0.7057167869898187
 40
0.7380958475294763
 40
0.7684383483942737
 40
0.7950310636081382
 40
0.8178503608429297
 40
0.8278391620884946
 40
0.8386133444316546
 40
0.853867251142805
 40
0.8737664921790089
 40
0.8983575421548228
 40
0.9276796108031992
 40
0.9616388871698174
 40
1.0
 40
1.0
 40
1.0
 40
1.0
 10
121.3185916637178
 20
107.3113384719168
 30
0.0
 10
121.5115878359031
 20
107.3641745678916
 30
0.0
 10
121.8408120932341
 20
107.4560740254109
 30
0.0
 10
122.3449865095367
 20
107.7987115195079
 30
0.0
 10
122.7745685295212
 20
108.1642983502142
 30
0.0
 10
123.1612096951382
 20
108.5759186910487
 30
0.0
 10
123.5668793817476
 20
108.9976328446055
 30
0.0
 10
123.9758514943897
 20
109.3923456410618
 30
0.0
 10
124.4655055409765
 20
109.8299030028276
 30
0.0
 10
124.9614588866227
 20
110.2774976096998
 30
0.0
 10
125.4643430610054
 20
110.7368792631671
 30
0.0
 10
126.0195352671838
 20
111.2313649726647
 30
0.0
 10
126.6485163101564
 20
111.7911394260592
 30
0.0
 10
127.3576298585396
 20
112.4334347847574
 30
0.0
 10
128.1611858033533
 20
113.1901660179115
 30
0.0
 10
128.9345028126744
 20
113.9579305595202
 30
0.0
 10
129.6262851603895
 20
114.6825158902283
 30
0.0
 10
130.1789219750722
 20
115.2906525596425
 30
0.0
 10
130.6617047853559
 20
115.8567835784185
 30
0.0
 10
131.0113144088172
 20
116.2959193719326
 30
0.0
 10
131.2604744147389
 20
116.6265072902618
 30
0.0
 10
131.465727969881
 20
116.9099814918926
 30
0.0
 10
131.726264326779
 20
117.2912645549508
 30
0.0
 10
132.0449653537283
 20
117.8023228864754
 30
0.0
 10
132.3989392222185
 20
118.4549940953212
 30
0.0
 10
132.7470896646342
 20
119.2497895165672
 30
0.0
 10
133.0385543327223
 20
120.2112869040327
 30
0.0
 10
133.1337149705777
 20
120.8488625578737
 30
0.0
 10
133.189423374907
 20
121.2512163178424
 30
0.0
  0
ENDBLK
  5
D8
330
BA
100
AcDbEntity
  8
0
100
AcDbBlockEnd
  0
ENDSEC
  0
SECTION
  2
ENTITIES
  0
INSERT
  5
5F
330
1F
100
AcDbEntity
  8
Default
100
AcDbBlockReference
  2
SEANNOT_GROUP
 10
0.0
 20
0.0
 30
0.0
  0
INSERT
  5
6A
330
1F
100
AcDbEntity
  8
Default
100
AcDbBlockReference
  2
SEANNOT_GROUP1
 10
0.0
 20
0.0
 30
0.0
  0
LINE
  5
6F
330
1F
100
AcDbEntity
  8
Default
  6
Continuous
 62
     7
100
AcDbLine
 10
348.5188219905
 20
410.4529523784
 30
0.0
 11
390.6816238127
 21
410.8209015756
 31
0.0
  0
LINE
  5
70
330
1F
100
AcDbEntity
  8
Default
  6
Continuous
 62
     7
100
AcDbLine
 10
349.1958839169
 20
462.9309716615
 30
0.0
 11
390.6816238127
 21
462.5689310942
 31
0.0
  0
LINE
  5
71
330
1F
100
AcDbEntity
  8
Default
  6
Continuous
 62
     7
100
AcDbLine
 10
348.8573508908
 20
436.6918021315
 30
0.0
 11
337.5530654312
 21
436.6918021315
 31
0.0
  0
INSERT
  5
73
330
1F
100
AcDbEntity
  8
Default
100
AcDbBlockReference
  2
SEANNOT_GROUP2
 10
0.0
 20
0.0
 30
0.0
  0
INSERT
  5
79
330
1F
100
AcDbEntity
  8
Default
100
AcDbBlockReference
  2
SE
 10
0.0
 20
0.0
 30
0.0
  0
INSERT
  5
91
330
1F
100
AcDbEntity
  8
Default
100
AcDbBlockReference
  2
SE1
 10
0.0
 20
0.0
 30
0.0
  0
INSERT
  5
BB
330
1F
100
AcDbEntity
  8
Default
100
AcDbBlockReference
  2
SE2
 10
0.0
 20
0.0
 30
0.0
  0
TEXT
  5
DA
330
1F
100
AcDbEntity
  8
Default
  6
Continuous
 62
     7
100
AcDbText
 10
5.9362635081
 20
53.4225120485
 30
0.0
 40
10.0
  1
Grohe AG^J
  7
SEACAD_seiso_ttf
 11
5.9362635081
 21
63.4225120485
 31
0.0
100
AcDbText
 73
     3
  0
TEXT
  5
DB
330
1F
100
AcDbEntity
  8
Default
  6
Continuous
 62
     7
100
AcDbText
 10
5.9362635081
 20
37.0588756849
 30
0.0
 40
10.0
  1
 
  7
SEACAD_seiso_ttf
 11
5.9362635081
 21
47.0588756849
 31
0.0
100
AcDbText
 73
     3
  0
TEXT
  5
DC
330
1F
100
AcDbEntity
  8
Default
  6
Continuous
 62
     7
100
AcDbText
 10
5.9362635081
 20
20.6952393213
 30
0.0
 40
10.0
  1
ecn:
  7
SEACAD_seiso_ttf
 11
5.9362635081
 21
30.6952393213
 31
0.0
100
AcDbText
 73
     3
  0
TEXT
  5
DD
330
1F
100
AcDbEntity
  8
Default
  6
Continuous
 62
     7
100
AcDbText
 10
5.9362635081
 20
4.3316029576
 30
0.0
 40
10.0
  1
unit: mm
  7
SEACAD_seiso_ttf
 11
5.9362635081
 21
14.3316029576
 31
0.0
100
AcDbText
 73
     3
  0
LINE
  5
DE
330
1F
100
AcDbEntity
  8
Default
  6
Continuous
 62
     7
100
AcDbLine
 10
0.0
 20
0.0
 30
0.0
 11
100.0
 21
0.0
 31
0.0
  0
LINE
  5
DF
330
1F
100
AcDbEntity
  8
Default
  6
Continuous
 62
     7
100
AcDbLine
 10
0.0
 20
0.0
 30
0.0
 11
0.0
 21
100.0
 31
0.0
  0
TEXT
  5
E0
330
1F
100
AcDbEntity
  8
Default
  6
Continuous
 62
     7
100
AcDbText
 10
24.3923665681
 20
-18.2375342018
 30
0.0
 40
10.0
  1
100 mm
  7
SEACAD_seiso_ttf
 11
24.3923665681
 21
-8.2375342018
 31
0.0
100
AcDbText
 73
     3
  0
TEXT
  5
E1
330
1F
100
AcDbEntity
  8
Default
  6
Continuous
 62
     7
100
AcDbText
 10
-7.6150308803
 20
24.6231930421
 30
0.0
 40
10.0
  1
100 mm
 50
90.0
  7
SEACAD_seiso_ttf
 11
-17.6150308803
 21
24.6231930421
 31
0.0
100
AcDbText
 73
     3
  0
TEXT
  5
E2
330
1F
100
AcDbEntity
  8
Default
  6
Continuous
 62
     7
100
AcDbText
 10
28.4878128572
 20
20.0907663715
 30
0.0
 40
10.0
  1
231550
  7
SEACAD_seiso_ttf
 11
28.4878128572
 21
30.0907663715
 31
0.0
100
AcDbText
 73
     3
  0
TEXT
  5
E3
330
1F
100
AcDbEntity
  8
Default
  6
Continuous
 62
     7
100
AcDbText
 10
5.9012241913
 20
36.7242780188
 30
0.0
 40
10.0
  1
19451002
  7
SEACAD_seiso_ttf
 11
5.9012241913
 21
46.7242780188
 31
0.0
100
AcDbText
 73
     3
  0
ENDSEC
  0
SECTION
  2
OBJECTS
  0
DICTIONARY
  5
C
330
0
100
AcDbDictionary
281
     1
  3
ACAD_GROUP
350
D
  3
ACAD_LAYOUT
350
1A
  3
ACAD_MLEADERSTYLE
350
E7
  3
ACAD_MLINESTYLE
350
17
  3
ACAD_PLOTSETTINGS
350
19
  3
ACAD_PLOTSTYLENAME
350
E
  3
ACAD_SCALELIST
350
3B
  3
ACAD_TABLESTYLE
350
E6
  3
ACAD_VISUALSTYLE
350
2A
  3
AcDbVariableDictionary
350
E4
  0
DICTIONARY
  5
D
102
{ACAD_REACTORS
330
C
102
}
330
C
100
AcDbDictionary
281
     1
  0
DICTIONARY
  5
1A
102
{ACAD_REACTORS
330
C
102
}
330
C
100
AcDbDictionary
281
     1
  3
Layout1
350
1E
  3
Model
350
22
  0
DICTIONARY
  5
E7
102
{ACAD_REACTORS
330
C
102
}
330
C
100
AcDbDictionary
281
     1
  0
DICTIONARY
  5
17
102
{ACAD_REACTORS
330
C
102
}
330
C
100
AcDbDictionary
281
     1
  3
Standard
350
18
  0
DICTIONARY
  5
19
102
{ACAD_REACTORS
330
C
102
}
330
C
100
AcDbDictionary
281
     1
  0
ACDBDICTIONARYWDFLT
  5
E
102
{ACAD_REACTORS
330
C
102
}
330
C
100
AcDbDictionary
281
     1
  3
Normal
350
F
100
AcDbDictionaryWithDefault
340
F
  0
DICTIONARY
  5
3B
102
{ACAD_REACTORS
330
C
102
}
330
C
100
AcDbDictionary
281
     1
  3
A0
350
3C
  3
A1
350
3D
  3
A2
350
3E
  3
A3
350
3F
  3
A4
350
40
  3
A5
350
41
  3
A6
350
42
  3
A7
350
43
  3
A8
350
44
  3
A9
350
45
  3
B0
350
46
  3
B1
350
47
  3
B2
350
48
  3
B3
350
49
  3
B4
350
4A
  3
B5
350
4B
  3
B6
350
4C
  3
B7
350
4D
  3
B8
350
4E
  3
B9
350
4F
  3
C0
350
50
  3
C1
350
51
  3
C2
350
52
  3
C3
350
53
  3
C4
350
54
  3
C5
350
55
  3
C6
350
56
  3
C7
350
57
  3
C8
350
58
  3
C9
350
59
  3
D0
350
5A
  3
D1
350
5B
  3
D2
350
5C
  0
DICTIONARY
  5
E6
102
{ACAD_REACTORS
330
C
102
}
330
C
100
AcDbDictionary
281
     1
  0
DICTIONARY
  5
2A
102
{ACAD_REACTORS
330
C
102
}
330
C
100
AcDbDictionary
281
     1
  3
2dWireframe
350
2F
  3
3D Hidden
350
31
  3
3dWireframe
350
30
  3
Basic
350
32
  3
Brighten
350
36
  3
ColorChange
350
3A
  3
Conceptual
350
34
  3
Dim
350
35
  3
Facepattern
350
39
  3
Flat
350
2B
  3
FlatWithEdges
350
2C
  3
Gouraud
350
2D
  3
GouraudWithEdges
350
2E
  3
Linepattern
350
38
  3
Realistic
350
33
  3
Thicken
350
37
  0
DICTIONARY
  5
E4
102
{ACAD_REACTORS
330
C
102
}
330
C
100
AcDbDictionary
281
     1
  3
CANNOSCALE
350
E5
  3
PSOLHEIGHT
350
E9
  3
PSOLWIDTH
350
E8
  0
LAYOUT
  5
1E
102
{ACAD_REACTORS
330
1A
102
}
330
1A
100
AcDbPlotSettings
  1

  2
none_device
  4

  6

 40
0.0
 41
0.0
 42
0.0
 43
0.0
 44
0.0
 45
0.0
 46
0.0
 47
0.0
 48
0.0
 49
0.0
140
0.0
141
0.0
142
1.0
143
1.0
 70
   688
 72
     0
 73
     0
 74
     5
  7

 75
    16
147
1.0
148
0.0
149
0.0
100
AcDbLayout
  1
Layout1
 70
     1
 71
     1
 10
0.0
 20
0.0
 11
3000.0
 21
4500.0
 12
0.0
 22
0.0
 32
0.0
 14
0.0
 24
0.0
 34
0.0
 15
3000.0
 25
4500.0
 35
0.0
146
0.0
 13
0.0
 23
0.0
 33
0.0
 16
1.0
 26
0.0
 36
0.0
 17
0.0
 27
1.0
 37
0.0
 76
     0
330
1B
  0
LAYOUT
  5
22
102
{ACAD_REACTORS
330
1A
102
}
330
1A
100
AcDbPlotSettings
  1

  2
none_device
  4

  6

 40
0.0
 41
0.0
 42
0.0
 43
0.0
 44
0.0
 45
0.0
 46
0.0
 47
0.0
 48
0.0
 49
0.0
140
0.0
141
0.0
142
1.0
143
1.0
 70
  1712
 72
     0
 73
     0
 74
     0
  7

 75
     0
147
1.0
148
0.0
149
0.0
100
AcDbLayout
  1
Model
 70
     1
 71
     0
 10
0.0
 20
0.0
 11
3000.0
 21
4500.0
 12
0.0
 22
0.0
 32
0.0
 14
0.0
 24
0.0
 34
0.0
 15
3000.0
 25
4500.0
 35
0.0
146
0.0
 13
0.0
 23
0.0
 33
0.0
 16
1.0
 26
0.0
 36
0.0
 17
0.0
 27
1.0
 37
0.0
 76
     0
330
1F
331
29
  0
MLINESTYLE
  5
18
102
{ACAD_REACTORS
330
17
102
}
330
17
100
AcDbMlineStyle
  2
Standard
 70
     0
  3

 62
   256
 51
90.0
 52
90.0
 71
     2
 49
0.5
 62
   256
  6
BYLAYER
 49
-0.5
 62
   256
  6
BYLAYER
  0
ACDBPLACEHOLDER
  5
F
102
{ACAD_REACTORS
330
E
102
}
330
E
  0
SCALE
  5
3C
102
{ACAD_REACTORS
330
3B
102
}
330
3B
100
AcDbScale
 70
     0
300
1:1
140
1.0
141
1.0
290
     1
  0
SCALE
  5
3D
102
{ACAD_REACTORS
330
3B
102
}
330
3B
100
AcDbScale
 70
     0
300
1:2
140
1.0
141
2.0
290
     0
  0
SCALE
  5
3E
102
{ACAD_REACTORS
330
3B
102
}
330
3B
100
AcDbScale
 70
     0
300
1:4
140
1.0
141
4.0
290
     0
  0
SCALE
  5
3F
102
{ACAD_REACTORS
330
3B
102
}
330
3B
100
AcDbScale
 70
     0
300
1:5
140
1.0
141
5.0
290
     0
  0
SCALE
  5
40
102
{ACAD_REACTORS
330
3B
102
}
330
3B
100
AcDbScale
 70
     0
300
1:8
140
1.0
141
8.0
290
     0
  0
SCALE
  5
41
102
{ACAD_REACTORS
330
3B
102
}
330
3B
100
AcDbScale
 70
     0
300
1:10
140
1.0
141
10.0
290
     0
  0
SCALE
  5
42
102
{ACAD_REACTORS
330
3B
102
}
330
3B
100
AcDbScale
 70
     0
300
1:16
140
1.0
141
16.0
290
     0
  0
SCALE
  5
43
102
{ACAD_REACTORS
330
3B
102
}
330
3B
100
AcDbScale
 70
     0
300
1:20
140
1.0
141
20.0
290
     0
  0
SCALE
  5
44
102
{ACAD_REACTORS
330
3B
102
}
330
3B
100
AcDbScale
 70
     0
300
1:30
140
1.0
141
30.0
290
     0
  0
SCALE
  5
45
102
{ACAD_REACTORS
330
3B
102
}
330
3B
100
AcDbScale
 70
     0
300
1:40
140
1.0
141
40.0
290
     0
  0
SCALE
  5
46
102
{ACAD_REACTORS
330
3B
102
}
330
3B
100
AcDbScale
 70
     0
300
1:50
140
1.0
141
50.0
290
     0
  0
SCALE
  5
47
102
{ACAD_REACTORS
330
3B
102
}
330
3B
100
AcDbScale
 70
     0
300
1:100
140
1.0
141
100.0
290
     0
  0
SCALE
  5
48
102
{ACAD_REACTORS
330
3B
102
}
330
3B
100
AcDbScale
 70
     0
300
2:1
140
2.0
141
1.0
290
     0
  0
SCALE
  5
49
102
{ACAD_REACTORS
330
3B
102
}
330
3B
100
AcDbScale
 70
     0
300
4:1
140
4.0
141
1.0
290
     0
  0
SCALE
  5
4A
102
{ACAD_REACTORS
330
3B
102
}
330
3B
100
AcDbScale
 70
     0
300
8:1
140
8.0
141
1.0
290
     0
  0
SCALE
  5
4B
102
{ACAD_REACTORS
330
3B
102
}
330
3B
100
AcDbScale
 70
     0
300
10:1
140
10.0
141
1.0
290
     0
  0
SCALE
  5
4C
102
{ACAD_REACTORS
330
3B
102
}
330
3B
100
AcDbScale
 70
     0
300
100:1
140
100.0
141
1.0
290
     0
  0
SCALE
  5
4D
102
{ACAD_REACTORS
330
3B
102
}
330
3B
100
AcDbScale
 70
     0
300
1/128" = 1'-0"
140
0.0078125
141
12.0
290
     0
  0
SCALE
  5
4E
102
{ACAD_REACTORS
330
3B
102
}
330
3B
100
AcDbScale
 70
     0
300
1/64" = 1'-0"
140
0.015625
141
12.0
290
     0
  0
SCALE
  5
4F
102
{ACAD_REACTORS
330
3B
102
}
330
3B
100
AcDbScale
 70
     0
300
1/32" = 1'-0"
140
0.03125
141
12.0
290
     0
  0
SCALE
  5
50
102
{ACAD_REACTORS
330
3B
102
}
330
3B
100
AcDbScale
 70
     0
300
1/16" = 1'-0"
140
0.0625
141
12.0
290
     0
  0
SCALE
  5
51
102
{ACAD_REACTORS
330
3B
102
}
330
3B
100
AcDbScale
 70
     0
300
3/32" = 1'-0"
140
0.09375
141
12.0
290
     0
  0
SCALE
  5
52
102
{ACAD_REACTORS
330
3B
102
}
330
3B
100
AcDbScale
 70
     0
300
1/8" = 1'-0"
140
0.125
141
12.0
290
     0
  0
SCALE
  5
53
102
{ACAD_REACTORS
330
3B
102
}
330
3B
100
AcDbScale
 70
     0
300
3/16" = 1'-0"
140
0.1875
141
12.0
290
     0
  0
SCALE
  5
54
102
{ACAD_REACTORS
330
3B
102
}
330
3B
100
AcDbScale
 70
     0
300
1/4" = 1'-0"
140
0.25
141
12.0
290
     0
  0
SCALE
  5
55
102
{ACAD_REACTORS
330
3B
102
}
330
3B
100
AcDbScale
 70
     0
300
3/8" = 1'-0"
140
0.375
141
12.0
290
     0
  0
SCALE
  5
56
102
{ACAD_REACTORS
330
3B
102
}
330
3B
100
AcDbScale
 70
     0
300
1/2" = 1'-0"
140
0.5
141
12.0
290
     0
  0
SCALE
  5
57
102
{ACAD_REACTORS
330
3B
102
}
330
3B
100
AcDbScale
 70
     0
300
3/4" = 1'-0"
140
0.75
141
12.0
290
     0
  0
SCALE
  5
58
102
{ACAD_REACTORS
330
3B
102
}
330
3B
100
AcDbScale
 70
     0
300
1" = 1'-0"
140
1.0
141
12.0
290
     0
  0
SCALE
  5
59
102
{ACAD_REACTORS
330
3B
102
}
330
3B
100
AcDbScale
 70
     0
300
1-1/2" = 1'-0"
140
1.5
141
12.0
290
     0
  0
SCALE
  5
5A
102
{ACAD_REACTORS
330
3B
102
}
330
3B
100
AcDbScale
 70
     0
300
3" = 1'-0"
140
3.0
141
12.0
290
     0
  0
SCALE
  5
5B
102
{ACAD_REACTORS
330
3B
102
}
330
3B
100
AcDbScale
 70
     0
300
6" = 1'-0"
140
6.0
141
12.0
290
     0
  0
SCALE
  5
5C
102
{ACAD_REACTORS
330
3B
102
}
330
3B
100
AcDbScale
 70
     0
300
1'-0" = 1'-0"
140
12.0
141
12.0
290
     0
  0
VISUALSTYLE
  5
2F
102
{ACAD_REACTORS
330
2A
102
}
330
2A
100
AcDbVisualStyle
  2
2dWireframe
 70
     4
 71
     0
 72
     2
 73
     0
 90
        0
 40
-0.6
 41
-30.0
 62
     5
 63
     7
 74
     1
 91
        4
 64
     7
 65
   257
 75
     1
175
     1
 42
1.0
 92
        0
 66
   257
 43
1.0
 76
     1
 77
     6
 78
     2
 67
     7
 79
     5
170
     0
171
     0
290
     0
174
     0
 93
        1
 44
0.0
173
     0
291
     0
 45
0.0
1001
ACAD
1000
AcDbSavedByObjectVersion
1070
     0
  0
VISUALSTYLE
  5
31
102
{ACAD_REACTORS
330
2A
102
}
330
2A
100
AcDbVisualStyle
  2
3D Hidden
 70
     6
 71
     1
 72
     2
 73
     2
 90
        0
 40
-0.6
 41
-30.0
 62
     5
 63
     7
 74
     2
 91
        2
 64
     7
 65
   257
 75
     2
175
     1
 42
40.0
 92
        0
 66
   257
 43
1.0
 76
     1
 77
     6
 78
     2
 67
     7
 79
     3
170
     0
171
     0
290
     0
174
     0
 93
        1
 44
0.0
173
     0
291
     0
 45
0.0
1001
ACAD
1000
AcDbSavedByObjectVersion
1070
     0
  0
VISUALSTYLE
  5
30
102
{ACAD_REACTORS
330
2A
102
}
330
2A
100
AcDbVisualStyle
  2
3dWireframe
 70
     5
 71
     0
 72
     2
 73
     0
 90
        0
 40
-0.6
 41
-30.0
 62
     5
 63
     7
 74
     1
 91
        4
 64
     7
 65
   257
 75
     1
175
     1
 42
1.0
 92
        0
 66
   257
 43
1.0
 76
     1
 77
     6
 78
     2
 67
     7
 79
     5
170
     0
171
     0
290
     0
174
     0
 93
        1
 44
0.0
173
     0
291
     0
 45
0.0
1001
ACAD
1000
AcDbSavedByObjectVersion
1070
     0
  0
VISUALSTYLE
  5
32
102
{ACAD_REACTORS
330
2A
102
}
330
2A
100
AcDbVisualStyle
  2
Basic
 70
     7
 71
     1
 72
     0
 73
     1
 90
        0
 40
-0.6
 41
-30.0
 62
     5
 63
     7
 74
     0
 91
        4
 64
     7
 65
   257
 75
     1
175
     1
 42
1.0
 92
        8
 66
     7
 43
1.0
 76
     1
 77
     6
 78
     2
 67
     7
 79
     5
170
     0
171
     0
290
     0
174
     0
 93
        1
 44
0.0
173
     0
291
     1
 45
0.0
1001
ACAD
1000
AcDbSavedByObjectVersion
1070
     0
  0
VISUALSTYLE
  5
36
102
{ACAD_REACTORS
330
2A
102
}
330
2A
100
AcDbVisualStyle
  2
Brighten
 70
    12
 71
     2
 72
     2
 73
     0
 90
        0
 40
-0.6
 41
-30.0
 62
     5
 63
     7
 74
     1
 91
        4
 64
     7
 65
   257
 75
     1
175
     1
 42
1.0
 92
        8
 66
     7
 43
1.0
 76
     1
 77
     6
 78
     2
 67
     7
 79
     5
170
     0
171
     0
290
     0
174
     0
 93
        1
 44
50.0
173
     0
291
     1
 45
0.0
1001
ACAD
1000
AcDbSavedByObjectVersion
1070
     0
  0
VISUALSTYLE
  5
3A
102
{ACAD_REACTORS
330
2A
102
}
330
2A
100
AcDbVisualStyle
  2
ColorChange
 70
    16
 71
     2
 72
     2
 73
     3
 90
        0
 40
-0.6
 41
-30.0
 62
     5
 63
     8
 74
     1
 91
        4
 64
     7
 65
   257
 75
     1
175
     1
 42
1.0
 92
        8
 66
     8
 43
1.0
 76
     1
 77
     6
 78
     2
 67
     7
 79
     5
170
     0
171
     0
290
     0
174
     0
 93
        1
 44
0.0
173
     0
291
     1
 45
0.0
1001
ACAD
1000
AcDbSavedByObjectVersion
1070
     0
  0
VISUALSTYLE
  5
34
102
{ACAD_REACTORS
330
2A
102
}
330
2A
100
AcDbVisualStyle
  2
Conceptual
 70
     9
 71
     3
 72
     2
 73
     0
 90
        0
 40
-0.6
 41
-30.0
 62
     5
 63
     7
 74
     2
 91
        2
 64
     7
 65
   257
 75
     1
175
     1
 42
40.0
 92
        8
 66
     7
 43
1.0
 76
     1
 77
     6
 78
     2
 67
     7
 79
     3
170
     0
171
     0
290
     0
174
     0
 93
        1
 44
0.0
173
     0
291
     0
 45
0.0
1001
ACAD
1000
AcDbSavedByObjectVersion
1070
     0
  0
VISUALSTYLE
  5
35
102
{ACAD_REACTORS
330
2A
102
}
330
2A
100
AcDbVisualStyle
  2
Dim
 70
    11
 71
     2
 72
     2
 73
     0
 90
        0
 40
-0.6
 41
-30.0
 62
     5
 63
     7
 74
     1
 91
        4
 64
     7
 65
   257
 75
     1
175
     1
 42
1.0
 92
        8
 66
     7
 43
1.0
 76
     1
 77
     6
 78
     2
 67
     7
 79
     5
170
     0
171
     0
290
     0
174
     0
 93
        1
 44
-50.0
173
     0
291
     1
 45
0.0
1001
ACAD
1000
AcDbSavedByObjectVersion
1070
     0
  0
VISUALSTYLE
  5
39
102
{ACAD_REACTORS
330
2A
102
}
330
2A
100
AcDbVisualStyle
  2
Facepattern
 70
    15
 71
     2
 72
     2
 73
     0
 90
        0
 40
-0.6
 41
-30.0
 62
     5
 63
     7
 74
     1
 91
        4
 64
     7
 65
   257
 75
     1
175
     1
 42
1.0
 92
        8
 66
     7
 43
1.0
 76
     1
 77
     6
 78
     2
 67
     7
 79
     5
170
     0
171
     0
290
     0
174
     0
 93
        1
 44
0.0
173
     0
291
     1
 45
0.0
1001
ACAD
1000
AcDbSavedByObjectVersion
1070
     0
  0
VISUALSTYLE
  5
2B
102
{ACAD_REACTORS
330
2A
102
}
330
2A
100
AcDbVisualStyle
  2
Flat
 70
     0
 71
     2
 72
     1
 73
     1
 90
        2
 40
-0.6
 41
30.0
 62
     5
 63
     7
 74
     0
 91
        4
 64
     7
 65
   257
 75
     1
175
     1
 42
1.0
 92
        8
 66
     7
 43
1.0
 76
     1
 77
     6
 78
     2
 67
     7
 79
     5
170
     0
171
     0
290
     0
174
     0
 93
       13
 44
0.0
173
     0
291
     1
 45
0.0
1001
ACAD
1000
AcDbSavedByObjectVersion
1070
     0
  0
VISUALSTYLE
  5
2C
102
{ACAD_REACTORS
330
2A
102
}
330
2A
100
AcDbVisualStyle
  2
FlatWithEdges
 70
     1
 71
     2
 72
     1
 73
     1
 90
        2
 40
-0.6
 41
30.0
 62
     5
 63
     7
 74
     1
 91
        4
 64
     7
 65
   257
 75
     1
175
     1
 42
1.0
 92
        0
 66
   257
 43
1.0
 76
     1
 77
     6
 78
     2
 67
     7
 79
     5
170
     0
171
     0
290
     0
174
     0
 93
       13
 44
0.0
173
     0
291
     1
 45
0.0
1001
ACAD
1000
AcDbSavedByObjectVersion
1070
     0
  0
VISUALSTYLE
  5
2D
102
{ACAD_REACTORS
330
2A
102
}
330
2A
100
AcDbVisualStyle
  2
Gouraud
 70
     2
 71
     2
 72
     2
 73
     1
 90
        2
 40
-0.6
 41
30.0
 62
     5
 63
     7
 74
     0
 91
        4
 64
     7
 65
   257
 75
     1
175
     1
 42
1.0
 92
        0
 66
     7
 43
1.0
 76
     1
 77
     6
 78
     2
 67
     7
 79
     5
170
     0
171
     0
290
     0
174
     0
 93
       13
 44
0.0
173
     0
291
     1
 45
0.0
1001
ACAD
1000
AcDbSavedByObjectVersion
1070
     0
  0
VISUALSTYLE
  5
2E
102
{ACAD_REACTORS
330
2A
102
}
330
2A
100
AcDbVisualStyle
  2
GouraudWithEdges
 70
     3
 71
     2
 72
     2
 73
     1
 90
        2
 40
-0.6
 41
30.0
 62
     5
 63
     7
 74
     1
 91
        4
 64
     7
 65
   257
 75
     1
175
     1
 42
1.0
 92
        0
 66
   257
 43
1.0
 76
     1
 77
     6
 78
     2
 67
     7
 79
     5
170
     0
171
     0
290
     0
174
     0
 93
       13
 44
0.0
173
     0
291
     1
 45
0.0
1001
ACAD
1000
AcDbSavedByObjectVersion
1070
     0
  0
VISUALSTYLE
  5
38
102
{ACAD_REACTORS
330
2A
102
}
330
2A
100
AcDbVisualStyle
  2
Linepattern
 70
    14
 71
     2
 72
     2
 73
     0
 90
        0
 40
-0.6
 41
-30.0
 62
     5
 63
     7
 74
     1
 91
        4
 64
     7
 65
   257
 75
     7
175
     7
 42
1.0
 92
        8
 66
     7
 43
1.0
 76
     1
 77
     6
 78
     2
 67
     7
 79
     5
170
     0
171
     0
290
     0
174
     0
 93
        1
 44
0.0
173
     0
291
     1
 45
0.0
1001
ACAD
1000
AcDbSavedByObjectVersion
1070
     0
  0
VISUALSTYLE
  5
33
102
{ACAD_REACTORS
330
2A
102
}
330
2A
100
AcDbVisualStyle
  2
Realistic
 70
     8
 71
     2
 72
     2
 73
     0
 90
        0
 40
-0.6
 41
-30.0
 62
     5
 63
     7
 74
     1
 91
        0
 64
     7
 65
   257
 75
     1
175
     1
 42
1.0
 92
        8
 66
     8
 43
1.0
 76
     1
 77
     6
 78
     2
 67
     7
 79
     5
170
     0
171
     0
290
     0
174
     0
 93
       13
 44
0.0
173
     0
291
     0
 45
0.0
1001
ACAD
1000
AcDbSavedByObjectVersion
1070
     0
  0
VISUALSTYLE
  5
37
102
{ACAD_REACTORS
330
2A
102
}
330
2A
100
AcDbVisualStyle
  2
Thicken
 70
    13
 71
     2
 72
     2
 73
     0
 90
        0
 40
-0.6
 41
-30.0
 62
     5
 63
     7
 74
     1
 91
        4
 64
     7
 65
   257
 75
     1
175
     1
 42
1.0
 92
       12
 66
     7
 43
1.0
 76
     1
 77
     6
 78
     2
 67
     7
 79
     5
170
     0
171
     0
290
     0
174
     0
 93
        1
 44
0.0
173
     0
291
     1
 45
0.0
1001
ACAD
1000
AcDbSavedByObjectVersion
1070
     0
  0
DICTIONARYVAR
  5
E5
102
{ACAD_REACTORS
330
E4
102
}
330
E4
100
DictionaryVariables
280
     0
  1
1:1
  0
DICTIONARYVAR
  5
E9
102
{ACAD_REACTORS
330
E4
102
}
330
E4
100
DictionaryVariables
280
     0
  1
80.000000
  0
DICTIONARYVAR
  5
E8
102
{ACAD_REACTORS
330
E4
102
}
330
E4
100
DictionaryVariables
280
     0
  1
5.000000
  0
ENDSEC
  0
EOF
