  0
SECTION
  2
HEADER
  9
$ACADVER
  1
AC1015
  9
$ACADMAINTVER
 70
     6
  9
$DWGCODEPAGE
  3
ANSI_1252
  9
$INSBASE
 10
0.0
 20
0.0
 30
0.0
  9
$EXTMIN
 10
0.0
 20
0.0
 30
0.0
  9
$EXTMAX
 10
3000.0
 20
4500.0
 30
0.0
  9
$LIMMIN
 10
0.0
 20
0.0
  9
$LIMMAX
 10
3000.0
 20
4500.0
  9
$ORTHOMODE
 70
     0
  9
$REGENMODE
 70
     1
  9
$FILLMODE
 70
     1
  9
$QTEXTMODE
 70
     0
  9
$MIRRTEXT
 70
     1
  9
$LTSCALE
 40
1.0
  9
$ATTMODE
 70
     1
  9
$TEXTSIZE
 40
2.5
  9
$TRACEWID
 40
1.0
  9
$TEXTSTYLE
  7
Standard
  9
$CLAYER
  8
0
  9
$CELTYPE
  6
ByLayer
  9
$CECOLOR
 62
   256
  9
$CELTSCALE
 40
1.0
  9
$DISPSILH
 70
     0
  9
$DIMSCALE
 40
1.0
  9
$DIMASZ
 40
2.5
  9
$DIMEXO
 40
0.625
  9
$DIMDLI
 40
3.75
  9
$DIMRND
 40
0.0
  9
$DIMDLE
 40
0.0
  9
$DIMEXE
 40
1.25
  9
$DIMTP
 40
0.0
  9
$DIMTM
 40
0.0
  9
$DIMTXT
 40
2.5
  9
$DIMCEN
 40
2.5
  9
$DIMTSZ
 40
0.0
  9
$DIMTOL
 70
     0
  9
$DIMLIM
 70
     0
  9
$DIMTIH
 70
     0
  9
$DIMTOH
 70
     0
  9
$DIMSE1
 70
     0
  9
$DIMSE2
 70
     0
  9
$DIMTAD
 70
     1
  9
$DIMZIN
 70
     8
  9
$DIMBLK
  1

  9
$DIMASO
 70
     1
  9
$DIMSHO
 70
     1
  9
$DIMPOST
  1

  9
$DIMAPOST
  1

  9
$DIMALT
 70
     0
  9
$DIMALTD
 70
     3
  9
$DIMALTF
 40
0.0393700787
  9
$DIMLFAC
 40
1.0
  9
$DIMTOFL
 70
     1
  9
$DIMTVP
 40
0.0
  9
$DIMTIX
 70
     0
  9
$DIMSOXD
 70
     0
  9
$DIMSAH
 70
     0
  9
$DIMBLK1
  1

  9
$DIMBLK2
  1

  9
$DIMSTYLE
  2
ISO-25
  9
$DIMCLRD
 70
     0
  9
$DIMCLRE
 70
     0
  9
$DIMCLRT
 70
     0
  9
$DIMTFAC
 40
1.0
  9
$DIMGAP
 40
0.625
  9
$DIMJUST
 70
     0
  9
$DIMSD1
 70
     0
  9
$DIMSD2
 70
     0
  9
$DIMTOLJ
 70
     0
  9
$DIMTZIN
 70
     8
  9
$DIMALTZ
 70
     0
  9
$DIMALTTZ
 70
     0
  9
$DIMUPT
 70
     0
  9
$DIMDEC
 70
     2
  9
$DIMTDEC
 70
     2
  9
$DIMALTU
 70
     2
  9
$DIMALTTD
 70
     3
  9
$DIMTXSTY
  7
Standard
  9
$DIMAUNIT
 70
     0
  9
$DIMADEC
 70
     0
  9
$DIMALTRND
 40
0.0
  9
$DIMAZIN
 70
     0
  9
$DIMDSEP
 70
    44
  9
$DIMATFIT
 70
     3
  9
$DIMFRAC
 70
     0
  9
$DIMLDRBLK
  1

  9
$DIMLUNIT
 70
     2
  9
$DIMLWD
 70
    -2
  9
$DIMLWE
 70
    -2
  9
$DIMTMOVE
 70
     0
  9
$LUNITS
 70
     2
  9
$LUPREC
 70
     4
  9
$SKETCHINC
 40
1.0
  9
$FILLETRAD
 40
10.0
  9
$AUNITS
 70
     0
  9
$AUPREC
 70
     0
  9
$MENU
  1
.
  9
$ELEVATION
 40
0.0
  9
$PELEVATION
 40
0.0
  9
$THICKNESS
 40
0.0
  9
$LIMCHECK
 70
     0
  9
$CHAMFERA
 40
10.0
  9
$CHAMFERB
 40
10.0
  9
$CHAMFERC
 40
20.0
  9
$CHAMFERD
 40
0.0
  9
$SKPOLY
 70
     0
  9
$TDCREATE
 40
2456759.538868484
  9
$TDUCREATE
 40
2456759.455535151
  9
$TDUPDATE
 40
2456759.538868495
  9
$TDUUPDATE
 40
2456759.455535162
  9
$TDINDWG
 40
0.0000000116
  9
$TDUSRTIMER
 40
0.0000000116
  9
$USRTIMER
 70
     1
  9
$ANGBASE
 50
0.0
  9
$ANGDIR
 70
     0
  9
$PDMODE
 70
     0
  9
$PDSIZE
 40
0.0
  9
$PLINEWID
 40
0.0
  9
$SPLFRAME
 70
     0
  9
$SPLINETYPE
 70
     6
  9
$SPLINESEGS
 70
     8
  9
$HANDSEED
  5
295
  9
$SURFTAB1
 70
     6
  9
$SURFTAB2
 70
     6
  9
$SURFTYPE
 70
     6
  9
$SURFU
 70
     6
  9
$SURFV
 70
     6
  9
$UCSBASE
  2

  9
$UCSNAME
  2

  9
$UCSORG
 10
0.0
 20
0.0
 30
0.0
  9
$UCSXDIR
 10
1.0
 20
0.0
 30
0.0
  9
$UCSYDIR
 10
0.0
 20
1.0
 30
0.0
  9
$UCSORTHOREF
  2

  9
$UCSORTHOVIEW
 70
     0
  9
$UCSORGTOP
 10
0.0
 20
0.0
 30
0.0
  9
$UCSORGBOTTOM
 10
0.0
 20
0.0
 30
0.0
  9
$UCSORGLEFT
 10
0.0
 20
0.0
 30
0.0
  9
$UCSORGRIGHT
 10
0.0
 20
0.0
 30
0.0
  9
$UCSORGFRONT
 10
0.0
 20
0.0
 30
0.0
  9
$UCSORGBACK
 10
0.0
 20
0.0
 30
0.0
  9
$PUCSBASE
  2

  9
$PUCSNAME
  2

  9
$PUCSORG
 10
0.0
 20
0.0
 30
0.0
  9
$PUCSXDIR
 10
1.0
 20
0.0
 30
0.0
  9
$PUCSYDIR
 10
0.0
 20
1.0
 30
0.0
  9
$PUCSORTHOREF
  2

  9
$PUCSORTHOVIEW
 70
     0
  9
$PUCSORGTOP
 10
0.0
 20
0.0
 30
0.0
  9
$PUCSORGBOTTOM
 10
0.0
 20
0.0
 30
0.0
  9
$PUCSORGLEFT
 10
0.0
 20
0.0
 30
0.0
  9
$PUCSORGRIGHT
 10
0.0
 20
0.0
 30
0.0
  9
$PUCSORGFRONT
 10
0.0
 20
0.0
 30
0.0
  9
$PUCSORGBACK
 10
0.0
 20
0.0
 30
0.0
  9
$USERI1
 70
     0
  9
$USERI2
 70
     0
  9
$USERI3
 70
     0
  9
$USERI4
 70
     0
  9
$USERI5
 70
     0
  9
$USERR1
 40
0.0
  9
$USERR2
 40
0.0
  9
$USERR3
 40
0.0
  9
$USERR4
 40
0.0
  9
$USERR5
 40
0.0
  9
$WORLDVIEW
 70
     1
  9
$SHADEDGE
 70
     3
  9
$SHADEDIF
 70
    70
  9
$TILEMODE
 70
     1
  9
$MAXACTVP
 70
    64
  9
$PINSBASE
 10
0.0
 20
0.0
 30
0.0
  9
$PLIMCHECK
 70
     0
  9
$PEXTMIN
 10
0.0
 20
0.0
 30
0.0
  9
$PEXTMAX
 10
3000.0
 20
4500.0
 30
0.0
  9
$PLIMMIN
 10
0.0
 20
0.0
  9
$PLIMMAX
 10
3000.0
 20
4500.0
  9
$UNITMODE
 70
     0
  9
$VISRETAIN
 70
     1
  9
$PLINEGEN
 70
     0
  9
$PSLTSCALE
 70
     1
  9
$TREEDEPTH
 70
  3020
  9
$CMLSTYLE
  2
Standard
  9
$CMLJUST
 70
     0
  9
$CMLSCALE
 40
20.0
  9
$PROXYGRAPHICS
 70
     1
  9
$MEASUREMENT
 70
     1
  9
$CELWEIGHT
370
    -1
  9
$ENDCAPS
280
     0
  9
$JOINSTYLE
280
     0
  9
$LWDISPLAY
290
     0
  9
$INSUNITS
 70
     4
  9
$HYPERLINKBASE
  1

  9
$STYLESHEET
  1

  9
$XEDIT
290
     1
  9
$CEPSNTYPE
380
     0
  9
$PSTYLEMODE
290
     1
  9
$FINGERPRINTGUID
  2
{4D4DD3B2-8F4F-427E-9412-9D3B85A04253}
  9
$VERSIONGUID
  2
{FAEB1C32-E019-11D5-929B-00C0DF256EC4}
  9
$EXTNAMES
290
     1
  9
$PSVPSCALE
 40
0.0
  9
$OLESTARTUP
290
     0
  0
ENDSEC
  0
SECTION
  2
CLASSES
  0
CLASS
  1
ACDBDICTIONARYWDFLT
  2
AcDbDictionaryWithDefault
  3
ObjectDBX Classes
 90
        0
280
     0
281
     0
  0
CLASS
  1
VISUALSTYLE
  2
AcDbVisualStyle
  3
ObjectDBX Classes
 90
     4095
280
     0
281
     0
  0
CLASS
  1
SCALE
  2
AcDbScale
  3
ObjectDBX Classes
 90
     1153
280
     0
281
     0
  0
CLASS
  1
DICTIONARYVAR
  2
AcDbDictionaryVar
  3
ObjectDBX Classes
 90
        0
280
     0
281
     0
  0
CLASS
  1
ACDBPLACEHOLDER
  2
AcDbPlaceHolder
  3
ObjectDBX Classes
 90
        0
280
     0
281
     0
  0
CLASS
  1
LAYOUT
  2
AcDbLayout
  3
ObjectDBX Classes
 90
        0
280
     0
281
     0
  0
ENDSEC
  0
SECTION
  2
TABLES
  0
TABLE
  2
VPORT
  5
8
330
0
100
AcDbSymbolTable
 70
     1
  0
VPORT
  5
29
330
8
100
AcDbSymbolTableRecord
100
AcDbViewportTableRecord
  2
*Active
 70
     0
 10
0.0
 20
0.0
 11
1.0
 21
1.0
 12
344.1869158879
 22
148.5
 13
0.0
 23
0.0
 14
10.0
 24
10.0
 15
10.0
 25
10.0
 16
0.0
 26
0.0
 36
1.0
 17
0.0
 27
0.0
 37
0.0
 40
297.0
 41
1.9729729729
 42
50.0
 43
0.0
 44
0.0
 50
0.0
 51
0.0
 71
     0
 72
   100
 73
     1
 74
     3
 75
     0
 76
     0
 77
     0
 78
     0
281
     0
 65
     1
110
0.0
120
0.0
130
0.0
111
1.0
121
0.0
131
0.0
112
0.0
122
1.0
132
0.0
 79
     0
146
0.0
  0
ENDTAB
  0
TABLE
  2
LTYPE
  5
5
330
0
100
AcDbSymbolTable
 70
     2
  0
LTYPE
  5
14
330
5
100
AcDbSymbolTableRecord
100
AcDbLinetypeTableRecord
  2
ByBlock
 70
     0
  3

 72
    65
 73
     0
 40
0.0
  0
LTYPE
  5
15
330
5
100
AcDbSymbolTableRecord
100
AcDbLinetypeTableRecord
  2
ByLayer
 70
     0
  3

 72
    65
 73
     0
 40
0.0
  0
LTYPE
  5
16
330
5
100
AcDbSymbolTableRecord
100
AcDbLinetypeTableRecord
  2
Continuous
 70
     0
  3
Solid line
 72
    65
 73
     0
 40
0.0
  0
LTYPE
  5
60
330
5
100
AcDbSymbolTableRecord
100
AcDbLinetypeTableRecord
  2
CENTER2
 70
     0
  3
Center (.5x) ___ _ ___ _ ___ _ ___ _ ___ _ ___
 72
    65
 73
     4
 40
28.575
 49
19.05
 74
     4
 75
     0
340
0
 46
0.0
 50
0.0
 44
0.0
 45
0.0
 49
-3.175
 74
     4
 75
     0
340
0
 46
0.0
 50
0.0
 44
0.0
 45
0.0
 49
3.175
 74
     4
 75
     0
340
0
 46
0.0
 50
0.0
 44
0.0
 45
0.0
 49
-3.175
 74
     4
 75
     0
340
0
 46
0.0
 50
0.0
 44
0.0
 45
0.0
  0
ENDTAB
  0
TABLE
  2
LAYER
  5
2
330
0
100
AcDbSymbolTable
 70
    16
  0
LAYER
  5
10
330
2
100
AcDbSymbolTableRecord
100
AcDbLayerTableRecord
  2
0
 70
     0
 62
     7
  6
Continuous
370
    -3
390
F
  0
LAYER
  5
5D
330
2
100
AcDbSymbolTableRecord
100
AcDbLayerTableRecord
  2
Default
 70
     0
 62
     7
  6
Continuous
370
    -3
390
F
  0
LAYER
  5
7F
330
2
100
AcDbSymbolTableRecord
100
AcDbLayerTableRecord
  2
$DDT_AUDIT_GENERATED_(7F)
 70
     0
 62
     7
  6
Continuous
370
    -3
390
F
  0
LAYER
  5
8F
330
2
100
AcDbSymbolTableRecord
100
AcDbLayerTableRecord
  2
$DDT_AUDIT_GENERATED_(8F)
 70
     0
 62
     7
  6
Continuous
370
    -3
390
F
  0
LAYER
  5
9E
330
2
100
AcDbSymbolTableRecord
100
AcDbLayerTableRecord
  2
$DDT_AUDIT_GENERATED_(9E)
 70
     0
 62
     7
  6
Continuous
370
    -3
390
F
  0
LAYER
  5
C5
330
2
100
AcDbSymbolTableRecord
100
AcDbLayerTableRecord
  2
$DDT_AUDIT_GENERATED_(C5)
 70
     0
 62
     7
  6
Continuous
370
    -3
390
F
  0
LAYER
  5
CC
330
2
100
AcDbSymbolTableRecord
100
AcDbLayerTableRecord
  2
$DDT_AUDIT_GENERATED_(CC)
 70
     0
 62
     7
  6
Continuous
370
    -3
390
F
  0
LAYER
  5
D1
330
2
100
AcDbSymbolTableRecord
100
AcDbLayerTableRecord
  2
$DDT_AUDIT_GENERATED_(D1)
 70
     0
 62
     7
  6
Continuous
370
    -3
390
F
  0
LAYER
  5
D3
330
2
100
AcDbSymbolTableRecord
100
AcDbLayerTableRecord
  2
$DDT_AUDIT_GENERATED_(D3)
 70
     0
 62
     7
  6
Continuous
370
    -3
390
F
  0
LAYER
  5
E8
330
2
100
AcDbSymbolTableRecord
100
AcDbLayerTableRecord
  2
$DDT_AUDIT_GENERATED_(E8)
 70
     0
 62
     7
  6
Continuous
370
    -3
390
F
  0
LAYER
  5
F0
330
2
100
AcDbSymbolTableRecord
100
AcDbLayerTableRecord
  2
$DDT_AUDIT_GENERATED_(F0)
 70
     0
 62
     7
  6
Continuous
370
    -3
390
F
  0
LAYER
  5
140
330
2
100
AcDbSymbolTableRecord
100
AcDbLayerTableRecord
  2
$DDT_AUDIT_GENERATED_(140)
 70
     0
 62
     7
  6
Continuous
370
    -3
390
F
  0
LAYER
  5
197
330
2
100
AcDbSymbolTableRecord
100
AcDbLayerTableRecord
  2
$DDT_AUDIT_GENERATED_(197)
 70
     0
 62
     7
  6
Continuous
370
    -3
390
F
  0
LAYER
  5
19B
330
2
100
AcDbSymbolTableRecord
100
AcDbLayerTableRecord
  2
$DDT_AUDIT_GENERATED_(19B)
 70
     0
 62
     7
  6
Continuous
370
    -3
390
F
  0
LAYER
  5
1A1
330
2
100
AcDbSymbolTableRecord
100
AcDbLayerTableRecord
  2
$DDT_AUDIT_GENERATED_(1A1)
 70
     0
 62
     7
  6
Continuous
370
    -3
390
F
  0
LAYER
  5
27C
330
2
100
AcDbSymbolTableRecord
100
AcDbLayerTableRecord
  2
$DDT_AUDIT_GENERATED_(27C)
 70
     0
 62
     7
  6
Continuous
370
    -3
390
F
  0
ENDTAB
  0
TABLE
  2
STYLE
  5
3
330
0
100
AcDbSymbolTable
 70
     2
  0
STYLE
  5
11
330
3
100
AcDbSymbolTableRecord
100
AcDbTextStyleTableRecord
  2
Standard
 70
     0
 40
0.0
 41
1.0
 50
0.0
 71
     0
 42
2.5
  3
txt
  4

  0
STYLE
  5
284
330
3
100
AcDbSymbolTableRecord
100
AcDbTextStyleTableRecord
  2
SEACAD_seiso_ttf
 70
     0
 40
0.0
 41
1.0
 50
0.0
 71
     0
 42
0.2
  3
seiso.ttf
  4

  0
ENDTAB
  0
TABLE
  2
VIEW
  5
6
330
0
100
AcDbSymbolTable
 70
     0
  0
ENDTAB
  0
TABLE
  2
UCS
  5
7
330
0
100
AcDbSymbolTable
 70
     0
  0
ENDTAB
  0
TABLE
  2
APPID
  5
9
330
0
100
AcDbSymbolTable
 70
     1
  0
APPID
  5
12
330
9
100
AcDbSymbolTableRecord
100
AcDbRegAppTableRecord
  2
ACAD
 70
     0
  0
ENDTAB
  0
TABLE
  2
DIMSTYLE
  5
A
330
0
100
AcDbSymbolTable
 70
     1
100
AcDbDimStyleTable
  0
DIMSTYLE
105
27
330
A
100
AcDbSymbolTableRecord
100
AcDbDimStyleTableRecord
  2
ISO-25
 70
     0
 41
2.5
 42
0.625
 43
3.75
 44
1.25
 73
     0
 74
     0
 77
     1
 78
     8
140
2.5
141
2.5
143
0.0393700787
147
0.625
171
     3
172
     1
271
     2
272
     2
274
     3
278
    44
283
     0
284
     8
340
11
  0
ENDTAB
  0
TABLE
  2
BLOCK_RECORD
  5
1
330
0
100
AcDbSymbolTable
 70
     9
  0
BLOCK_RECORD
  5
1F
330
1
100
AcDbSymbolTableRecord
100
AcDbBlockTableRecord
  2
*Model_Space
340
22
  0
BLOCK_RECORD
  5
1B
330
1
100
AcDbSymbolTableRecord
100
AcDbBlockTableRecord
  2
*Paper_Space
340
1E
  0
BLOCK_RECORD
  5
5E
330
1
100
AcDbSymbolTableRecord
100
AcDbBlockTableRecord
  2
SEANNOT_GROUP
340
0
102
{BLKREFS
331
5F
102
}
  0
BLOCK_RECORD
  5
65
330
1
100
AcDbSymbolTableRecord
100
AcDbBlockTableRecord
  2
SEANNOT_GROUP1
340
0
102
{BLKREFS
331
66
102
}
  0
BLOCK_RECORD
  5
6B
330
1
100
AcDbSymbolTableRecord
100
AcDbBlockTableRecord
  2
SEANNOT_GROUP2
340
0
102
{BLKREFS
331
6C
102
}
  0
BLOCK_RECORD
  5
71
330
1
100
AcDbSymbolTableRecord
100
AcDbBlockTableRecord
  2
SEANNOT_GROUP3
340
0
102
{BLKREFS
331
72
102
}
  0
BLOCK_RECORD
  5
77
330
1
100
AcDbSymbolTableRecord
100
AcDbBlockTableRecord
  2
SEANNOT_GROUP4
340
0
102
{BLKREFS
331
78
102
}
  0
BLOCK_RECORD
  5
7D
330
1
100
AcDbSymbolTableRecord
100
AcDbBlockTableRecord
  2
SE
340
0
102
{BLKREFS
331
7E
102
}
  0
BLOCK_RECORD
  5
148
330
1
100
AcDbSymbolTableRecord
100
AcDbBlockTableRecord
  2
SE1
340
0
102
{BLKREFS
331
149
102
}
  0
BLOCK_RECORD
  5
1BE
330
1
100
AcDbSymbolTableRecord
100
AcDbBlockTableRecord
  2
SE2
340
0
102
{BLKREFS
331
1BF
102
}
  0
ENDTAB
  0
ENDSEC
  0
SECTION
  2
BLOCKS
  0
BLOCK
  5
20
330
1F
100
AcDbEntity
  8
0
100
AcDbBlockBegin
  2
*Model_Space
 70
     0
 10
0.0
 20
0.0
 30
0.0
  3
*Model_Space
  1

  0
ENDBLK
  5
21
330
1F
100
AcDbEntity
  8
0
100
AcDbBlockEnd
  0
BLOCK
  5
1C
330
1B
100
AcDbEntity
 67
     1
  8
0
100
AcDbBlockBegin
  2
*Paper_Space
 70
     0
 10
0.0
 20
0.0
 30
0.0
  3
*Paper_Space
  1

  0
ENDBLK
  5
1D
330
1B
100
AcDbEntity
 67
     1
  8
0
100
AcDbBlockEnd
  0
BLOCK
  5
63
330
5E
100
AcDbEntity
  8
0
100
AcDbBlockBegin
  2
SEANNOT_GROUP
 70
     0
 10
0.0
 20
0.0
 30
0.0
  3
SEANNOT_GROUP
  1

  0
LINE
  5
61
330
5E
100
AcDbEntity
  8
Default
  6
CENTER2
 62
     7
100
AcDbLine
 10
263.4999650109
 20
234.1467100242
 30
0.0
 11
223.499965905
 21
234.1467100242
 31
0.0
  0
LINE
  5
62
330
5E
100
AcDbEntity
  8
Default
  6
CENTER2
 62
     7
100
AcDbLine
 10
243.499965458
 20
254.1467095772
 30
0.0
 11
243.499965458
 21
214.1467104713
 31
0.0
  0
ENDBLK
  5
64
330
5E
100
AcDbEntity
  8
0
100
AcDbBlockEnd
  0
BLOCK
  5
69
330
65
100
AcDbEntity
  8
0
100
AcDbBlockBegin
  2
SEANNOT_GROUP1
 70
     0
 10
0.0
 20
0.0
 30
0.0
  3
SEANNOT_GROUP1
  1

  0
LINE
  5
67
330
65
100
AcDbEntity
  8
Default
  6
CENTER2
 62
     7
100
AcDbLine
 10
455.698078671
 20
234.1467100242
 30
0.0
 11
415.698079565
 21
234.1467100242
 31
0.0
  0
LINE
  5
68
330
65
100
AcDbEntity
  8
Default
  6
CENTER2
 62
     7
100
AcDbLine
 10
435.698079118
 20
254.1467095772
 30
0.0
 11
435.698079118
 21
214.1467104713
 31
0.0
  0
ENDBLK
  5
6A
330
65
100
AcDbEntity
  8
0
100
AcDbBlockEnd
  0
BLOCK
  5
6F
330
6B
100
AcDbEntity
  8
0
100
AcDbBlockBegin
  2
SEANNOT_GROUP2
 70
     0
 10
0.0
 20
0.0
 30
0.0
  3
SEANNOT_GROUP2
  1

  0
LINE
  5
6D
330
6B
100
AcDbEntity
  8
Default
  6
CENTER2
 62
     7
100
AcDbLine
 10
399.798078671
 20
265.5467100242
 30
0.0
 11
359.798079565
 21
265.5467100242
 31
0.0
  0
LINE
  5
6E
330
6B
100
AcDbEntity
  8
Default
  6
CENTER2
 62
     7
100
AcDbLine
 10
379.798079118
 20
285.5467095772
 30
0.0
 11
379.798079118
 21
245.5467104713
 31
0.0
  0
ENDBLK
  5
70
330
6B
100
AcDbEntity
  8
0
100
AcDbBlockEnd
  0
BLOCK
  5
75
330
71
100
AcDbEntity
  8
0
100
AcDbBlockBegin
  2
SEANNOT_GROUP3
 70
     0
 10
0.0
 20
0.0
 30
0.0
  3
SEANNOT_GROUP3
  1

  0
LINE
  5
73
330
71
100
AcDbEntity
  8
Default
  6
CENTER2
 62
     7
100
AcDbLine
 10
259.9999650109
 20
185.2791776976
 30
0.0
 11
219.999965905
 21
185.2791776976
 31
0.0
  0
LINE
  5
74
330
71
100
AcDbEntity
  8
Default
  6
CENTER2
 62
     7
100
AcDbLine
 10
239.999965458
 20
205.2791772506
 30
0.0
 11
239.999965458
 21
165.2791781446
 31
0.0
  0
ENDBLK
  5
76
330
71
100
AcDbEntity
  8
0
100
AcDbBlockEnd
  0
BLOCK
  5
7B
330
77
100
AcDbEntity
  8
0
100
AcDbBlockBegin
  2
SEANNOT_GROUP4
 70
     0
 10
0.0
 20
0.0
 30
0.0
  3
SEANNOT_GROUP4
  1

  0
LINE
  5
79
330
77
100
AcDbEntity
  8
Default
  6
CENTER2
 62
     7
100
AcDbLine
 10
109.9999650109
 20
185.2791776976
 30
0.0
 11
69.999965905
 21
185.2791776976
 31
0.0
  0
LINE
  5
7A
330
77
100
AcDbEntity
  8
Default
  6
CENTER2
 62
     7
100
AcDbLine
 10
89.999965458
 20
205.2791772506
 30
0.0
 11
89.999965458
 21
165.2791781446
 31
0.0
  0
ENDBLK
  5
7C
330
77
100
AcDbEntity
  8
0
100
AcDbBlockEnd
  0
BLOCK
  5
146
330
7D
100
AcDbEntity
  8
0
100
AcDbBlockBegin
  2
SE
 70
     0
 10
0.0
 20
0.0
 30
0.0
  3
SE
  1

  0
LINE
  5
80
330
7D
100
AcDbEntity
  8
$DDT_AUDIT_GENERATED_(7F)
  6
Continuous
 62
     7
100
AcDbLine
 10
258.499965458
 20
247.0394759622
 30
0.0
 11
258.499965458
 21
247.0395303057
 31
0.0
  0
LINE
  5
81
330
7D
100
AcDbEntity
  8
$DDT_AUDIT_GENERATED_(7F)
  6
Continuous
 62
     7
100
AcDbLine
 10
258.999965458
 20
290.5467100245
 30
0.0
 11
258.999965458
 21
249.1250722865
 31
0.0
  0
LINE
  5
82
330
7D
100
AcDbEntity
  8
$DDT_AUDIT_GENERATED_(7F)
  6
Continuous
 62
     7
100
AcDbLine
 10
258.999965458
 20
249.1250722865
 30
0.0
 11
258.999965458
 21
247.5395232839
 31
0.0
  0
LINE
  5
83
330
7D
100
AcDbEntity
  8
$DDT_AUDIT_GENERATED_(7F)
  6
Continuous
 62
     7
100
AcDbLine
 10
70.999965458
 20
249.1250722865
 30
0.0
 11
70.999965458
 21
290.5467100245
 31
0.0
  0
LINE
  5
84
330
7D
100
AcDbEntity
  8
$DDT_AUDIT_GENERATED_(7F)
  6
Continuous
 62
     7
100
AcDbLine
 10
70.999965458
 20
247.5395754619
 30
0.0
 11
70.999965458
 21
249.1250722865
 31
0.0
  0
ARC
  5
85
330
7D
100
AcDbEntity
  8
$DDT_AUDIT_GENERATED_(7F)
  6
Continuous
 62
     7
100
AcDbCircle
 10
243.4999654569
 20
225.3854338039
 30
0.0
 40
24.21756075264689
100
AcDbArc
 50
73.778290899
 51
106.2217091691
  0
SPLINE
  5
86
330
7D
100
AcDbEntity
  8
$DDT_AUDIT_GENERATED_(7F)
  6
Continuous
 62
     7
100
AcDbSpline
210
0.0
220
0.0
230
1.0
 70
     8
 71
     3
 72
    10
 73
     6
 74
     0
 42
0.0000000006669614
 43
0.0000000001
 40
0.0
 40
0.0
 40
0.0
 40
0.0
 40
0.125
 40
0.125
 40
0.1806936755451884
 40
0.1806936755451884
 40
0.1806936755451884
 40
0.1806936755451884
 10
250.2652606093975
 20
248.6388428078848
 30
0.0
 10
251.413494717859
 20
248.3291104857558
 30
0.0
 10
252.1680635456649
 20
248.0263565774005
 30
0.0
 10
252.558004662818
 20
247.696969532315
 30
0.0
 10
252.5785953964021
 20
247.6094838296922
 30
0.0
 10
252.5024805164385
 20
247.5348865576385
 30
0.0
  0
SPLINE
  5
87
330
7D
100
AcDbEntity
  8
$DDT_AUDIT_GENERATED_(7F)
  6
Continuous
 62
     7
100
AcDbSpline
210
0.0
220
0.0
230
1.0
 70
     8
 71
     3
 72
    10
 73
     6
 74
     0
 42
0.0000000006651172
 43
0.0000000001
 40
0.8198258719777441
 40
0.8198258719777441
 40
0.8198258719777441
 40
0.8198258719777441
 40
0.875
 40
0.875
 40
1.0
 40
1.0
 40
1.0
 40
1.0
 10
234.4942728960386
 20
247.534882925709
 30
0.0
 10
234.4199067068434
 20
247.6085065508489
 30
0.0
 10
234.4407942644329
 20
247.6950180881172
 30
0.0
 10
234.8284372562648
 20
248.0256787203264
 30
0.0
 10
235.5863878748344
 20
248.3290974501881
 30
0.0
 10
236.7346702767376
 20
248.6388427998486
 30
0.0
  0
ARC
  5
88
330
7D
100
AcDbEntity
  8
$DDT_AUDIT_GENERATED_(7F)
  6
Continuous
 62
     7
100
AcDbCircle
 10
258.4999654585
 20
247.5395851672
 30
0.0
 40
0.4999999994326848
100
AcDbArc
 50
270.1304276972
 51
359.9831924915
  0
ARC
  5
89
330
7D
100
AcDbEntity
  8
$DDT_AUDIT_GENERATED_(7F)
  6
Continuous
 62
     7
100
AcDbCircle
 10
258.499965458
 20
290.5467100245
 30
0.0
 40
0.5000000000000004
100
AcDbArc
 50
0.0
 51
90.0
  0
ARC
  5
8A
330
7D
100
AcDbEntity
  8
$DDT_AUDIT_GENERATED_(7F)
  6
Continuous
 62
     7
100
AcDbCircle
 10
71.499965458
 20
290.5467100245
 30
0.0
 40
0.5000000000000004
100
AcDbArc
 50
90.0
 51
180.0
  0
ARC
  5
8B
330
7D
100
AcDbEntity
  8
$DDT_AUDIT_GENERATED_(7F)
  6
Continuous
 62
     7
100
AcDbCircle
 10
71.4999654581
 20
247.5396688641
 30
0.0
 40
0.4999997749172738
100
AcDbArc
 50
180.0311842437
 51
270.0224434597
  0
LINE
  5
8C
330
7D
100
AcDbEntity
  8
$DDT_AUDIT_GENERATED_(7F)
  6
Continuous
 62
     7
100
AcDbLine
 10
258.499965458
 20
291.0467100245
 30
0.0
 11
71.499965458
 21
291.0467100245
 31
0.0
  0
LINE
  5
8D
330
7D
100
AcDbEntity
  8
$DDT_AUDIT_GENERATED_(7F)
  6
Continuous
 62
     7
100
AcDbLine
 10
71.499965458
 20
247.0394800633
 30
0.0
 11
234.499965458
 21
247.0394800633
 31
0.0
  0
LINE
  5
8E
330
7D
100
AcDbEntity
  8
$DDT_AUDIT_GENERATED_(7F)
  6
Continuous
 62
     7
100
AcDbLine
 10
252.499965458
 20
247.0394800633
 30
0.0
 11
258.499965458
 21
247.0394800633
 31
0.0
  0
LINE
  5
90
330
7D
100
AcDbEntity
  8
$DDT_AUDIT_GENERATED_(8F)
  6
Continuous
 62
     7
100
AcDbLine
 10
252.499965458
 20
243.0467100242
 30
0.0
 11
234.499965458
 21
243.0467100242
 31
0.0
  0
LINE
  5
91
330
7D
100
AcDbEntity
  8
$DDT_AUDIT_GENERATED_(8F)
  6
Continuous
 62
     7
100
AcDbLine
 10
233.019965458
 20
241.5667100242
 30
0.0
 11
253.979965458
 21
241.5667100242
 31
0.0
  0
LINE
  5
92
330
7D
100
AcDbEntity
  8
$DDT_AUDIT_GENERATED_(8F)
  6
Continuous
 62
     7
100
AcDbLine
 10
234.219965458
 20
234.1467100242
 30
0.0
 11
252.779965458
 21
234.1467100242
 31
0.0
  0
LINE
  5
93
330
7D
100
AcDbEntity
  8
$DDT_AUDIT_GENERATED_(8F)
  6
Continuous
 62
     7
100
AcDbLine
 10
233.019965458
 20
235.3467100242
 30
0.0
 11
253.979965458
 21
235.3467100242
 31
0.0
  0
LINE
  5
94
330
7D
100
AcDbEntity
  8
$DDT_AUDIT_GENERATED_(8F)
  6
Continuous
 62
     7
100
AcDbLine
 10
233.019965458
 20
241.5667100242
 30
0.0
 11
233.019965458
 21
235.3467100242
 31
0.0
  0
LINE
  5
95
330
7D
100
AcDbEntity
  8
$DDT_AUDIT_GENERATED_(8F)
  6
Continuous
 62
     7
100
AcDbLine
 10
253.979965458
 20
235.3467100242
 30
0.0
 11
253.979965458
 21
241.5667100242
 31
0.0
  0
LINE
  5
96
330
7D
100
AcDbEntity
  8
$DDT_AUDIT_GENERATED_(8F)
  6
Continuous
 62
     7
100
AcDbLine
 10
234.499965458
 20
247.7357789399
 30
0.0
 11
234.499965458
 21
243.0467100242
 31
0.0
  0
LINE
  5
97
330
7D
100
AcDbEntity
  8
$DDT_AUDIT_GENERATED_(8F)
  6
Continuous
 62
     7
100
AcDbLine
 10
252.499965458
 20
243.0467100242
 30
0.0
 11
252.499965458
 21
247.7283294173
 31
0.0
  0
LINE
  5
98
330
7D
100
AcDbEntity
  8
$DDT_AUDIT_GENERATED_(8F)
  6
Continuous
 62
     7
100
AcDbLine
 10
253.979965458
 20
241.5667100242
 30
0.0
 11
252.499965458
 21
243.0467100242
 31
0.0
  0
LINE
  5
99
330
7D
100
AcDbEntity
  8
$DDT_AUDIT_GENERATED_(8F)
  6
Continuous
 62
     7
100
AcDbLine
 10
234.499965458
 20
243.0467100242
 30
0.0
 11
233.019965458
 21
241.5667100242
 31
0.0
  0
LINE
  5
9A
330
7D
100
AcDbEntity
  8
$DDT_AUDIT_GENERATED_(8F)
  6
Continuous
 62
     7
100
AcDbLine
 10
233.019965458
 20
235.3467100242
 30
0.0
 11
234.219965458
 21
234.1467100242
 31
0.0
  0
LINE
  5
9B
330
7D
100
AcDbEntity
  8
$DDT_AUDIT_GENERATED_(8F)
  6
Continuous
 62
     7
100
AcDbLine
 10
252.779965458
 20
234.1467100242
 30
0.0
 11
253.979965458
 21
235.3467100242
 31
0.0
  0
LINE
  5
9C
330
7D
100
AcDbEntity
  8
$DDT_AUDIT_GENERATED_(8F)
  6
Continuous
 62
     7
100
AcDbLine
 10
252.814965458
 20
242.7317100242
 30
0.0
 11
252.814965458
 21
234.1817100242
 31
0.0
  0
LINE
  5
9D
330
7D
100
AcDbEntity
  8
$DDT_AUDIT_GENERATED_(8F)
  6
Continuous
 62
     7
100
AcDbLine
 10
234.184965458
 20
242.7317100242
 30
0.0
 11
234.184965458
 21
234.1817100242
 31
0.0
  0
SPLINE
  5
9F
330
7D
100
AcDbEntity
  8
$DDT_AUDIT_GENERATED_(9E)
  6
Continuous
 62
     7
100
AcDbSpline
210
0.0
220
0.0
230
1.0
 70
     8
 71
     3
 72
     9
 73
     5
 74
     0
 42
0.0000011011775549
 43
0.0000000001
 40
0.2159447396304185
 40
0.2159447396304185
 40
0.2159447396304185
 40
0.2159447396304185
 40
0.7111146945082065
 40
1.0
 40
1.0
 40
1.0
 40
1.0
 10
9.731849793058439
 20
281.4479634616362
 30
0.0
 10
9.728905038419612
 20
281.4480556823083
 30
0.0
 10
9.72583929968493
 20
281.4480578021036
 30
0.0
 10
9.725007465002628
 20
281.4480600685046
 30
0.0
 10
9.725056825692496
 20
281.447788134726
 30
0.0
  0
SPLINE
  5
A0
330
7D
100
AcDbEntity
  8
$DDT_AUDIT_GENERATED_(9E)
  6
Continuous
 62
     7
100
AcDbSpline
210
0.0
220
0.0
230
1.0
 70
     8
 71
     3
 72
     9
 73
     5
 74
     0
 42
0.0000011929593192
 43
0.0000000001
 40
0.1217631003761254
 40
0.1217631003761254
 40
0.1217631003761254
 40
0.1217631003761254
 40
0.4855150493923575
 40
1.0
 40
1.0
 40
1.0
 40
1.0
 10
9.732274450887813
 20
257.6505836172506
 30
0.0
 10
9.730396045992324
 20
257.6507055800864
 30
0.0
 10
9.726168401931801
 20
257.6506279141012
 30
0.0
 10
9.725512852703593
 20
257.6506406616398
 30
0.0
 10
9.724993068206484
 20
257.6503501839974
 30
0.0
  0
SPLINE
  5
A1
330
7D
100
AcDbEntity
  8
$DDT_AUDIT_GENERATED_(9E)
  6
Continuous
 62
     7
100
AcDbSpline
210
0.0
220
0.0
230
1.0
 70
     8
 71
     3
 72
     8
 73
     4
 74
     0
 42
0.0000082813513966
 43
0.0000000001
 40
0.0
 40
0.0
 40
0.0
 40
0.0
 40
1.0
 40
1.0
 40
1.0
 40
1.0
 10
9.724993068206484
 20
257.6503501839974
 30
0.0
 10
9.725373472022902
 20
257.6506916141365
 30
0.0
 10
9.725672394218094
 20
257.650687228286
 30
0.0
 10
9.725887596602977
 20
257.6503531155797
 30
0.0
  0
ARC
  5
A2
330
7D
100
AcDbEntity
  8
$DDT_AUDIT_GENERATED_(9E)
  6
Continuous
 62
     7
100
AcDbCircle
 10
39.2104171531
 20
-28178.9025699378
 30
0.0
 40
28459.28839274991
100
AcDbArc
 50
90.0610470794
 51
90.0610520769
  0
ARC
  5
A3
330
7D
100
AcDbEntity
  8
$DDT_AUDIT_GENERATED_(9E)
  6
Continuous
 62
     7
100
AcDbCircle
 10
34.4294513152
 20
270.0413478026
 30
0.0
 40
27.93768837271409
100
AcDbArc
 50
195.8916642673
 51
203.89506331
  0
ARC
  5
A4
330
7D
100
AcDbEntity
  8
$DDT_AUDIT_GENERATED_(9E)
  6
Continuous
 62
     7
100
AcDbCircle
 10
24.8120251329
 20
2183.2441162358
 30
0.0
 40
1924.585179675356
100
AcDbArc
 50
269.5258794952
 51
270.5370586251
  0
SPLINE
  5
A5
330
7D
100
AcDbEntity
  8
$DDT_AUDIT_GENERATED_(9E)
  6
Continuous
 62
     7
100
AcDbSpline
210
0.0
220
0.0
230
1.0
 70
     8
 71
     3
 72
    14
 73
    10
 74
     0
 42
0.0000000061984959
 43
0.0000000001
 40
0.0
 40
0.0
 40
0.0
 40
0.0
 40
0.1301678137601338
 40
0.2499852345023594
 40
0.3454734950519138
 40
0.500156225945735
 40
0.750116550049017
 40
0.8490898065826252
 40
1.0
 40
1.0
 40
1.0
 40
1.0
 10
42.85174714230608
 20
258.7434843170294
 30
0.0
 10
42.9216964602896
 20
258.745711177339
 30
0.0
 10
43.05600333950122
 20
258.749777348967
 30
0.0
 10
43.24177046824837
 20
258.7496963046251
 30
0.0
 10
43.44060879123132
 20
258.7435357514806
 30
0.0
 10
43.70925341017988
 20
258.732888215014
 30
0.0
 10
43.98001369363699
 20
258.7234854837881
 30
0.0
 10
44.24866343759107
 20
258.7293813631207
 30
0.0
 10
44.38287665262541
 20
258.7340913589532
 30
0.0
 10
44.46409987452489
 20
258.7401817537001
 30
0.0
  0
SPLINE
  5
A6
330
7D
100
AcDbEntity
  8
$DDT_AUDIT_GENERATED_(9E)
  6
Continuous
 62
     7
100
AcDbSpline
210
0.0
220
0.0
230
1.0
 70
     8
 71
     3
 72
    27
 73
    23
 74
     0
 42
0.0000000002995595
 43
0.0000000001
 40
0.0
 40
0.0
 40
0.0
 40
0.0
 40
0.0156538427502327
 40
0.0313056767288581
 40
0.062604398106661
 40
0.0939013703415039
 40
0.1251929263296808
 40
0.1875639950187409
 40
0.2500816781977534
 40
0.3127029645011682
 40
0.3753331524590425
 40
0.5000592951446732
 40
0.6247859529383222
 40
0.6874160149468631
 40
0.7500376373586356
 40
0.8000945447978959
 40
0.8748110858339673
 40
0.9061013767976649
 40
0.9373970538682806
 40
0.968695164627571
 40
0.9843467527799886
 40
1.0
 40
1.0
 40
1.0
 40
1.0
 10
44.46409987452489
 20
258.7401817537001
 30
0.0
 10
44.64025011111323
 20
258.7408372929045
 30
0.0
 10
44.99286568899363
 20
258.7486397169111
 30
0.0
 10
45.69798402264954
 20
258.7606976176814
 30
0.0
 10
46.57845352071396
 20
258.8021890426272
 30
0.0
 10
47.6250835495252
 20
258.9408313132396
 30
0.0
 10
48.96905737138488
 20
259.3174694643811
 30
0.0
 10
50.4496050008727
 20
260.2177134883317
 30
0.0
 10
51.79941292223261
 20
261.7241062123617
 30
0.0
 10
52.85064866605283
 20
263.4675929099961
 30
0.0
 10
53.89221822407917
 20
266.0120826916458
 30
0.0
 10
54.47099206919773
 20
269.5476273788287
 30
0.0
 10
53.89065660944856
 20
273.0838778285873
 30
0.0
 10
52.84982433499426
 20
275.6279648361428
 30
0.0
 10
51.86769562625679
 20
277.256928303217
 30
0.0
 10
50.55306749725683
 20
278.7806525049047
 30
0.0
 10
49.10184803258931
 20
279.7410880365647
 30
0.0
 10
47.62489836760749
 20
280.1542980856673
 30
0.0
 10
46.57834141081635
 20
280.2929423446821
 30
0.0
 10
45.69789013491486
 20
280.3344105858009
 30
0.0
 10
44.99279114930954
 20
280.3464938068641
 30
0.0
 10
44.64020371864844
 20
280.3549119750857
 30
0.0
 10
44.46407981943848
 20
280.3558250631214
 30
0.0
  0
SPLINE
  5
A7
330
7D
100
AcDbEntity
  8
$DDT_AUDIT_GENERATED_(9E)
  6
Continuous
 62
     7
100
AcDbSpline
210
0.0
220
0.0
230
1.0
 70
     8
 71
     3
 72
    14
 73
    10
 74
     0
 42
0.0000000061975185
 43
0.0000000001
 40
0.0
 40
0.0
 40
0.0
 40
0.0
 40
0.1543393841533697
 40
0.2498386949674562
 40
0.499767721179865
 40
0.6581032552288099
 40
0.7500138041807909
 40
0.8711264650213348
 40
1.0
 40
1.0
 40
1.0
 40
1.0
 10
44.46407981943848
 20
280.3558250631214
 30
0.0
 10
44.38101747491291
 20
280.3624910380533
 30
0.0
 10
44.24684934295456
 20
280.3679458699024
 30
0.0
 10
43.97825313091565
 20
280.3755051167129
 30
0.0
 10
43.70734913064479
 20
280.3652038301459
 30
0.0
 10
43.43872212002703
 20
280.3531822843937
 30
0.0
 10
43.23915888705992
 20
280.3458723317113
 30
0.0
 10
43.05527589818607
 20
280.3454911495579
 30
0.0
 10
42.92097199196315
 20
280.3500844863906
 30
0.0
 10
42.85173498491249
 20
280.3525120920872
 30
0.0
  0
ARC
  5
A8
330
7D
100
AcDbEntity
  8
$DDT_AUDIT_GENERATED_(9E)
  6
Continuous
 62
     7
100
AcDbCircle
 10
25.263756646
 20
-917.1576942505
 30
0.0
 40
1197.639357768769
100
AcDbArc
 50
89.1585504037
 51
90.7835771225
  0
SPLINE
  5
A9
330
7D
100
AcDbEntity
  8
$DDT_AUDIT_GENERATED_(9E)
  6
Continuous
 62
     7
100
AcDbSpline
210
0.0
220
0.0
230
1.0
 70
     8
 71
     5
 72
    14
 73
     8
 74
     0
 42
0.0000000001596394
 43
0.0000000001
 40
0.0
 40
0.0
 40
0.0
 40
0.0
 40
0.0
 40
0.0
 40
0.1934442953479642
 40
0.4133816909284858
 40
1.0
 40
1.0
 40
1.0
 40
1.0
 40
1.0
 40
1.0
 10
69.99984393345127
 20
248.0470675444814
 30
0.0
 10
66.22154196968889
 20
248.0485980656173
 30
0.0
 10
59.20930355049158
 20
248.0632604055832
 30
0.0
 10
44.27654515149247
 20
248.2808094561398
 30
0.0
 10
31.82811814626566
 20
248.8595434849497
 30
0.0
 10
19.48935140244731
 20
250.8892380654372
 30
0.0
 10
13.95424498848366
 20
253.920344635869
 30
0.0
 10
9.724993068206484
 20
257.6503501839974
 30
0.0
  0
LINE
  5
AA
330
7D
100
AcDbEntity
  8
$DDT_AUDIT_GENERATED_(9E)
  6
Continuous
 62
     7
100
AcDbLine
 10
70.299965458
 20
269.5490935412
 30
0.0
 11
70.299965458
 21
248.3470675199
 31
0.0
  0
LINE
  5
AB
330
7D
100
AcDbEntity
  8
$DDT_AUDIT_GENERATED_(9E)
  6
Continuous
 62
     7
100
AcDbLine
 10
70.299965458
 20
290.7511195625
 30
0.0
 11
70.299965458
 21
269.5490935412
 31
0.0
  0
SPLINE
  5
AC
330
7D
100
AcDbEntity
  8
$DDT_AUDIT_GENERATED_(9E)
  6
Continuous
 62
     7
100
AcDbSpline
210
0.0
220
0.0
230
1.0
 70
     8
 71
     5
 72
    14
 73
     8
 74
     0
 42
0.0000000001596395
 43
0.0000000001
 40
0.0
 40
0.0
 40
0.0
 40
0.0
 40
0.0
 40
0.0
 40
0.1934448870532459
 40
0.4133829553758527
 40
1.0
 40
1.0
 40
1.0
 40
1.0
 40
1.0
 40
1.0
 10
69.99984393345127
 20
291.0511195378971
 30
0.0
 10
66.22154196968887
 20
291.0495890167613
 30
0.0
 10
59.20930355049158
 20
291.0349266767953
 30
0.0
 10
44.27659082750981
 20
290.8173782916734
 30
0.0
 10
31.828194300279
 20
290.2386471378651
 30
0.0
 10
19.48946462715587
 20
288.2089676420659
 30
0.0
 10
13.95432895415422
 20
285.17788842703
 30
0.0
 10
9.725056825692496
 20
281.447788134726
 30
0.0
  0
ARC
  5
AD
330
7D
100
AcDbEntity
  8
$DDT_AUDIT_GENERATED_(9E)
  6
Continuous
 62
     7
100
AcDbCircle
 10
69.999965458
 20
290.7511195625
 30
0.0
 40
0.2999999999999947
100
AcDbArc
 50
0.0
 51
90.0232094728
  0
ARC
  5
AE
330
7D
100
AcDbEntity
  8
$DDT_AUDIT_GENERATED_(9E)
  6
Continuous
 62
     7
100
AcDbCircle
 10
69.999965458
 20
248.3470675199
 30
0.0
 40
0.2999999999999947
100
AcDbArc
 50
269.9767905272
 51
0.0
  0
ARC
  5
AF
330
7D
100
AcDbEntity
  8
$DDT_AUDIT_GENERATED_(9E)
  6
Continuous
 62
     7
100
AcDbCircle
 10
35.6678371067
 20
268.6241264611
 30
0.0
 40
29.24481654105495
100
AcDbArc
 50
156.3200023268
 51
163.9659650723
  0
ARC
  5
B0
330
7D
100
AcDbEntity
  8
$DDT_AUDIT_GENERATED_(9E)
  6
Continuous
 62
     7
100
AcDbCircle
 10
7.7390224119
 20
276.6484380303
 30
0.0
 40
0.1861238055479945
100
AcDbArc
 50
163.3432660376
 51
178.414346075
  0
ARC
  5
B1
330
7D
100
AcDbEntity
  8
$DDT_AUDIT_GENERATED_(9E)
  6
Continuous
 62
     7
100
AcDbCircle
 10
7.6391981718
 20
262.4288426468
 30
0.0
 40
0.0880175712683156
100
AcDbArc
 50
172.8346625424
 51
205.1258816702
  0
SPLINE
  5
B2
330
7D
100
AcDbEntity
  8
$DDT_AUDIT_GENERATED_(9E)
  6
Continuous
 62
     7
100
AcDbSpline
210
0.0
220
0.0
230
1.0
 70
     8
 71
     3
 72
    12
 73
     8
 74
     0
 42
0.0000000020226554
 43
0.0000000001
 40
0.0
 40
0.0
 40
0.0
 40
0.0
 40
0.2499999999999993
 40
0.2499999999999993
 40
0.4999999999999987
 40
0.4999999999999987
 40
1.0
 40
1.0
 40
1.0
 40
1.0
 10
33.19064836071908
 20
276.5999839938668
 30
0.0
 10
32.77865032550914
 20
276.5999836412569
 30
0.0
 10
32.35994475906104
 20
276.5508100478856
 30
0.0
 10
31.61146274180368
 20
276.2182860864648
 30
0.0
 10
31.27483518490082
 20
275.9696035643494
 30
0.0
 10
30.37487906803246
 20
275.1348830480222
 30
0.0
 10
29.90688058755617
 20
274.4518311345399
 30
0.0
 10
29.56182957694708
 20
273.7108276650752
 30
0.0
  0
LINE
  5
B3
330
7D
100
AcDbEntity
  8
$DDT_AUDIT_GENERATED_(9E)
  6
Continuous
 62
     7
100
AcDbLine
 10
45.6387806046
 20
276.5999839939
 30
0.0
 11
42.8437647276
 21
276.5999840446
 31
0.0
  0
LINE
  5
B4
330
7D
100
AcDbEntity
  8
$DDT_AUDIT_GENERATED_(9E)
  6
Continuous
 62
     7
100
AcDbLine
 10
42.8437647643
 20
276.5999840446
 30
0.0
 11
33.1906483607
 21
276.5999839939
 31
0.0
  0
SPLINE
  5
B5
330
7D
100
AcDbEntity
  8
$DDT_AUDIT_GENERATED_(9E)
  6
Continuous
 62
     7
100
AcDbSpline
210
0.0
220
0.0
230
1.0
 70
     8
 71
     3
 72
    12
 73
     8
 74
     0
 42
0.0000000020288328
 43
0.0000000001
 40
0.0
 40
0.0
 40
0.0
 40
0.0
 40
0.5
 40
0.5
 40
0.75
 40
0.75
 40
1.0
 40
1.0
 40
1.0
 40
1.0
 10
49.24378684173409
 20
273.7108280221461
 30
0.0
 10
48.90252999342427
 20
274.4544972473415
 30
0.0
 10
48.43997633548736
 20
275.1365454545548
 30
0.0
 10
47.55044700049616
 20
275.9688296143765
 30
0.0
 10
47.21879793714324
 20
276.2170618697331
 30
0.0
 10
46.46401205184822
 20
276.5532994639827
 30
0.0
 10
46.05398848559107
 20
276.5999839415778
 30
0.0
 10
45.63878060458408
 20
276.5999839939058
 30
0.0
  0
ARC
  5
B6
330
7D
100
AcDbEntity
  8
$DDT_AUDIT_GENERATED_(9E)
  6
Continuous
 62
     7
100
AcDbCircle
 10
40.1411952564
 20
269.6742607622
 30
0.0
 40
9.957461966477853
100
AcDbArc
 50
359.2797706948
 51
23.9150133889
  0
ARC
  5
B7
330
7D
100
AcDbEntity
  8
$DDT_AUDIT_GENERATED_(9E)
  6
Continuous
 62
     7
100
AcDbCircle
 10
40.0574475496
 20
269.4409814132
 30
0.0
 40
10.0410050312316
100
AcDbArc
 50
336.1908957132
 51
0.6169277655
  0
SPLINE
  5
B8
330
7D
100
AcDbEntity
  8
$DDT_AUDIT_GENERATED_(9E)
  6
Continuous
 62
     7
100
AcDbSpline
210
0.0
220
0.0
230
1.0
 70
     8
 71
     3
 72
    12
 73
     8
 74
     0
 42
0.0000000020291316
 43
0.0000000001
 40
0.0
 40
0.0
 40
0.0
 40
0.0
 40
0.2499999999999999
 40
0.2499999999999999
 40
0.4999999999999998
 40
0.4999999999999998
 40
1.0
 40
1.0
 40
1.0
 40
1.0
 10
45.63881309571349
 20
262.4982029012353
 30
0.0
 10
46.05195554487979
 20
262.4982029527944
 30
0.0
 10
46.47529747726496
 20
262.5487232491736
 30
0.0
 10
47.22110520887755
 20
262.8839486304381
 30
0.0
 10
47.55392421202412
 20
263.1330516560911
 30
0.0
 10
48.44272308202903
 20
263.9667662734401
 30
0.0
 10
48.90437433309295
 20
264.6475449958011
 30
0.0
 10
49.24391819988128
 20
265.3875212828629
 30
0.0
  0
LINE
  5
B9
330
7D
100
AcDbEntity
  8
$DDT_AUDIT_GENERATED_(9E)
  6
Continuous
 62
     7
100
AcDbLine
 10
33.1912692422
 20
262.4982026755
 30
0.0
 11
42.8438101247
 21
262.4982028506
 31
0.0
  0
LINE
  5
BA
330
7D
100
AcDbEntity
  8
$DDT_AUDIT_GENERATED_(9E)
  6
Continuous
 62
     7
100
AcDbLine
 10
42.8438100939
 20
262.4982028506
 30
0.0
 11
45.6388130957
 21
262.4982029012
 31
0.0
  0
ARC
  5
BB
330
7D
100
AcDbEntity
  8
$DDT_AUDIT_GENERATED_(9E)
  6
Continuous
 62
     7
100
AcDbCircle
 10
38.4998184597
 20
269.6682601167
 30
0.0
 40
9.788967622306345
100
AcDbArc
 50
155.6083443443
 51
180.6975097367
  0
SPLINE
  5
BC
330
7D
100
AcDbEntity
  8
$DDT_AUDIT_GENERATED_(9E)
  6
Continuous
 62
     7
100
AcDbSpline
210
0.0
220
0.0
230
1.0
 70
     8
 71
     3
 72
    18
 73
    14
 74
     0
 42
0.0000000020286936
 43
0.0000000001
 40
0.0
 40
0.0
 40
0.0
 40
0.0
 40
0.1249999999999992
 40
0.1249999999999992
 40
0.2499999999999983
 40
0.2499999999999983
 40
0.3749999999999975
 40
0.3749999999999975
 40
0.4999999999999967
 40
0.4999999999999967
 40
0.7499999999999983
 40
0.7499999999999983
 40
1.0
 40
1.0
 40
1.0
 40
1.0
 10
33.22390663345068
 20
262.4982026754976
 30
0.0
 10
33.01557484941298
 20
262.4982026717169
 30
0.0
 10
32.80768189041819
 20
262.5020189308386
 30
0.0
 10
32.39886367765605
 20
262.5702159885515
 30
0.0
 10
32.19571390426124
 20
262.6337993909215
 30
0.0
 10
31.81918176582013
 20
262.802768098289
 30
0.0
 10
31.64206063463873
 20
262.9075162251309
 30
0.0
 10
31.30387241646418
 20
263.1450882631061
 30
0.0
 10
31.1467520121517
 20
263.275076469593
 30
0.0
 10
30.70035605321772
 20
263.6892195527958
 30
0.0
 10
30.4338237152886
 20
263.9989461370407
 30
0.0
 10
29.96076397894107
 20
264.6628073875312
 30
0.0
 10
29.75839683777165
 20
265.0158346751924
 30
0.0
 10
29.58447612433568
 20
265.3875209257893
 30
0.0
  0
ARC
  5
BD
330
7D
100
AcDbEntity
  8
$DDT_AUDIT_GENERATED_(9E)
  6
Continuous
 62
     7
100
AcDbCircle
 10
38.6148813605
 20
269.4540030124
 30
0.0
 40
9.903761673710674
100
AcDbArc
 50
179.4498676242
 51
204.2425158496
  0
SPLINE
  5
BE
330
7D
100
AcDbEntity
  8
$DDT_AUDIT_GENERATED_(9E)
  6
Continuous
 62
     7
100
AcDbSpline
210
0.0
220
0.0
230
1.0
 70
     8
 71
     3
 72
    12
 73
     8
 74
     0
 42
0.0000000020198732
 43
0.0000000001
 40
0.0
 40
0.0
 40
0.0
 40
0.0
 40
0.5000000000000017
 40
0.5000000000000017
 40
0.7500000000000008
 40
0.7500000000000008
 40
1.0
 40
1.0
 40
1.0
 40
1.0
 10
29.58457675082901
 20
273.7108276650752
 30
0.0
 10
29.9327457891575
 20
274.4548490515801
 30
0.0
 10
30.39541666448092
 20
275.1266067475591
 30
0.0
 10
31.29400129833282
 20
275.9611367449845
 30
0.0
 10
31.62941323571073
 20
276.2104734123117
 30
0.0
 10
32.38202122596439
 20
276.5483405931034
 30
0.0
 10
32.80625490934322
 20
276.5999836397186
 30
0.0
 10
33.22332883495805
 20
276.5999837680791
 30
0.0
  0
ARC
  5
BF
330
7D
100
AcDbEntity
  8
$DDT_AUDIT_GENERATED_(9E)
  6
Continuous
 62
     7
100
AcDbCircle
 10
120.8923979133
 20
269.5379184081
 30
0.0
 40
113.5625761675276
100
AcDbArc
 50
183.5823036279
 51
183.5835421323
  0
ARC
  5
C0
330
7D
100
AcDbEntity
  8
$DDT_AUDIT_GENERATED_(9E)
  6
Continuous
 62
     7
100
AcDbCircle
 10
120.8923979133
 20
269.5379184081
 30
0.0
 40
113.5625761675276
100
AcDbArc
 50
183.3803232088
 51
183.5774948739
  0
ARC
  5
C1
330
7D
100
AcDbEntity
  8
$DDT_AUDIT_GENERATED_(9E)
  6
Continuous
 62
     7
100
AcDbCircle
 10
120.8923979133
 20
269.5379184081
 30
0.0
 40
113.5625761675276
100
AcDbArc
 50
176.4785106166
 51
176.6114651061
  0
ARC
  5
C2
330
7D
100
AcDbEntity
  8
$DDT_AUDIT_GENERATED_(9E)
  6
Continuous
 62
     7
100
AcDbCircle
 10
261.186963191
 20
269.5270423875
 30
0.0
 40
253.7340935329605
100
AcDbArc
 50
178.3905406523
 51
181.6005758949
  0
ARC
  5
C3
330
7D
100
AcDbEntity
  8
$DDT_AUDIT_GENERATED_(9E)
  6
Continuous
 62
     7
100
AcDbCircle
 10
11.5163470522
 20
259.9123467419
 30
0.0
 40
2.881356280397399
100
AcDbArc
 50
204.3130877207
 51
231.7352711697
  0
ARC
  5
C4
330
7D
100
AcDbEntity
  8
$DDT_AUDIT_GENERATED_(9E)
  6
Continuous
 62
     7
100
AcDbCircle
 10
11.5880861553
 20
279.1272250805
 30
0.0
 40
2.971895513282381
100
AcDbArc
 50
128.6545975421
 51
155.2964274442
  0
LINE
  5
C6
330
7D
100
AcDbEntity
  8
$DDT_AUDIT_GENERATED_(C5)
  6
Continuous
 62
     7
100
AcDbLine
 10
49.1662623125
 20
273.6878147459
 30
0.0
 11
49.2534132891
 21
273.6878147459
 31
0.0
  0
LINE
  5
C7
330
7D
100
AcDbEntity
  8
$DDT_AUDIT_GENERATED_(C5)
  6
Continuous
 62
     7
100
AcDbLine
 10
35.499965458
 20
262.4985895857
 30
0.0
 11
35.499965458
 21
262.596421109
 31
0.0
  0
LINE
  5
C8
330
7D
100
AcDbEntity
  8
$DDT_AUDIT_GENERATED_(C5)
  6
Continuous
 62
     7
100
AcDbLine
 10
39.499965458
 20
262.5958018684
 30
0.0
 11
39.499965458
 21
262.4978709348
 31
0.0
  0
LINE
  5
C9
330
7D
100
AcDbEntity
  8
$DDT_AUDIT_GENERATED_(C5)
  6
Continuous
 62
     7
100
AcDbLine
 10
49.899965458
 20
267.4861476737
 30
0.0
 11
49.899965458
 21
267.9820737144
 31
0.0
  0
LINE
  5
CA
330
7D
100
AcDbEntity
  8
$DDT_AUDIT_GENERATED_(C5)
  6
Continuous
 62
     7
100
AcDbLine
 10
49.899965458
 20
271.1846569894
 30
0.0
 11
49.899965458
 21
271.6432279727
 31
0.0
  0
LINE
  5
CB
330
7D
100
AcDbEntity
  8
$DDT_AUDIT_GENERATED_(C5)
  6
Continuous
 62
     7
100
AcDbLine
 10
49.3760551405
 20
273.1701766557
 30
0.0
 11
49.4526765541
 21
273.1701766557
 31
0.0
  0
LINE
  5
CD
330
7D
100
AcDbEntity
  8
$DDT_AUDIT_GENERATED_(CC)
  6
Continuous
 62
     7
100
AcDbLine
 10
39.749965458
 20
262.4933654363
 30
0.0
 11
39.749965458
 21
262.5898605685
 31
0.0
  0
LINE
  5
CE
330
7D
100
AcDbEntity
  8
$DDT_AUDIT_GENERATED_(CC)
  6
Continuous
 62
     7
100
AcDbLine
 10
49.639556535
 20
272.671159919
 30
0.0
 11
49.5522551308
 21
272.671159919
 31
0.0
  0
LINE
  5
CF
330
7D
100
AcDbEntity
  8
$DDT_AUDIT_GENERATED_(CC)
  6
Continuous
 62
     7
100
AcDbLine
 10
49.749965458
 20
272.244041969
 30
0.0
 11
49.749965458
 21
271.9635768323
 31
0.0
  0
LINE
  5
D0
330
7D
100
AcDbEntity
  8
$DDT_AUDIT_GENERATED_(CC)
  6
Continuous
 62
     7
100
AcDbLine
 10
49.749965458
 20
267.1913840679
 30
0.0
 11
49.749965458
 21
266.8606032424
 31
0.0
  0
LINE
  5
D2
330
7D
100
AcDbEntity
  8
$DDT_AUDIT_GENERATED_(D1)
  6
Continuous
 62
     7
100
AcDbLine
 10
39.749965458
 20
262.5467100242
 30
0.0
 11
39.499965458
 21
262.5467100242
 31
0.0
  0
LINE
  5
D4
330
7D
100
AcDbEntity
  8
$DDT_AUDIT_GENERATED_(D3)
  6
Continuous
 62
     7
100
AcDbLine
 10
45.609767954
 20
276.4975996366
 30
0.0
 11
33.16166391
 21
276.4975998624
 31
0.0
  0
LINE
  5
D5
330
7D
100
AcDbEntity
  8
$DDT_AUDIT_GENERATED_(D3)
  6
Continuous
 62
     7
100
AcDbLine
 10
33.161084469
 20
262.5958183182
 30
0.0
 11
45.6085755259
 21
262.595818544
 31
0.0
  0
SPLINE
  5
D6
330
7D
100
AcDbEntity
  8
$DDT_AUDIT_GENERATED_(D3)
  6
Continuous
 62
     7
100
AcDbSpline
210
0.0
220
0.0
230
1.0
 70
     8
 71
     5
 72
    22
 73
    16
 74
     0
 42
0.0000000020739278
 43
0.0000000001
 40
0.0
 40
0.0
 40
0.0
 40
0.0
 40
0.0
 40
0.0
 40
0.0062170727794191
 40
0.0545574702013685
 40
0.1507334047118342
 40
0.2722807902039555
 40
0.4717008751628371
 40
0.5745902925666964
 40
0.7309841839950737
 40
0.8095115744880595
 40
0.8852471554960726
 40
0.9352882574655317
 40
1.0
 40
1.0
 40
1.0
 40
1.0
 40
1.0
 40
1.0
 10
29.61468892631555
 20
265.4271594519188
 30
0.0
 10
29.6172686695477
 20
265.4217317236998
 30
0.0
 10
29.63967679805016
 20
265.3739444880795
 30
0.0
 10
29.70275694842994
 20
265.2423423892183
 30
0.0
 10
29.82283235115013
 20
265.0068516335094
 30
0.0
 10
30.05388940803758
 20
264.6071316213082
 30
0.0
 10
30.36273514043497
 20
264.1568355774403
 30
0.0
 10
30.79080134527679
 20
263.6659742271869
 30
0.0
 10
31.23084536780577
 20
263.2558073022597
 30
0.0
 10
31.71435778438658
 20
262.923094229263
 30
0.0
 10
32.10188062149516
 20
262.7374139608831
 30
0.0
 10
32.52454676002073
 20
262.6226138752326
 30
0.0
 10
32.80534479274155
 20
262.5996639030913
 30
0.0
 10
32.98994240692668
 20
262.5965088650555
 30
0.0
 10
33.09948209601235
 20
262.5960063011013
 30
0.0
 10
33.16108355786456
 20
262.5958344903951
 30
0.0
  0
ARC
  5
D7
330
7D
100
AcDbEntity
  8
$DDT_AUDIT_GENERATED_(D3)
  6
Continuous
 62
     7
100
AcDbCircle
 10
38.549511012
 20
269.4464473065
 30
0.0
 40
9.797230249441549
100
AcDbArc
 50
179.4136372398
 51
204.2203745761
  0
ARC
  5
D8
330
7D
100
AcDbEntity
  8
$DDT_AUDIT_GENERATED_(D3)
  6
Continuous
 62
     7
100
AcDbCircle
 10
38.4177794661
 20
269.6729726863
 30
0.0
 40
9.665810364521018
100
AcDbArc
 50
155.5970270696
 51
180.7484652607
  0
SPLINE
  5
D9
330
7D
100
AcDbEntity
  8
$DDT_AUDIT_GENERATED_(D3)
  6
Continuous
 62
     7
100
AcDbSpline
210
0.0
220
0.0
230
1.0
 70
     8
 71
     5
 72
    21
 73
    15
 74
     0
 42
0.0000000020739623
 43
0.0000000001
 40
0.0
 40
0.0
 40
0.0
 40
0.0
 40
0.0
 40
0.0
 40
0.040904719844417
 40
0.1036554317045457
 40
0.1405864197663607
 40
0.2421613562992847
 40
0.3719878463177203
 40
0.4503985698611482
 40
0.5543662362200318
 40
0.8038841353367168
 40
0.9473167444814544
 40
1.0
 40
1.0
 40
1.0
 40
1.0
 40
1.0
 40
1.0
 10
33.16166369028378
 20
276.497586442559
 30
0.0
 10
33.12260518049195
 20
276.497334189043
 30
0.0
 10
33.02339011198418
 20
276.4965430520892
 30
0.0
 10
32.88755325590068
 20
276.4944465780561
 30
0.0
 10
32.6473769238664
 20
276.485871869698
 30
0.0
 10
32.24951198823858
 20
276.4083520006672
 30
0.0
 10
31.88588488992378
 20
276.2584751262247
 30
0.0
 10
31.51053200387677
 20
276.0368081421877
 30
0.0
 10
31.03222276794718
 20
275.6612795000174
 30
0.0
 10
30.57716312341277
 20
275.1982645711666
 30
0.0
 10
30.20972700545369
 20
274.7337478472987
 30
0.0
 10
29.92077112977354
 20
274.2741959334589
 30
0.0
 10
29.72045849299845
 20
273.886914153106
 30
0.0
 10
29.63746004450604
 20
273.7132768714175
 30
0.0
 10
29.61549109640438
 20
273.6664184991557
 30
0.0
  0
LINE
  5
DA
330
7D
100
AcDbEntity
  8
$DDT_AUDIT_GENERATED_(D3)
  6
Continuous
 62
     7
100
AcDbLine
 10
45.6619524319
 20
276.4975996366
 30
0.0
 11
45.6097671435
 21
276.4975996366
 31
0.0
  0
ARC
  5
DB
330
7D
100
AcDbEntity
  8
$DDT_AUDIT_GENERATED_(D3)
  6
Continuous
 62
     7
100
AcDbCircle
 10
41.6390476174
 20
268.9192341452
 30
0.0
 40
8.308303790648218
100
AcDbArc
 50
335.1457544521
 51
335.6383532497
  0
ARC
  5
DC
330
7D
100
AcDbEntity
  8
$DDT_AUDIT_GENERATED_(D3)
  6
Continuous
 62
     7
100
AcDbCircle
 10
43.7574963262
 20
267.8326638516
 30
0.0
 40
5.930137498307199
100
AcDbArc
 50
307.4592164039
 51
336.0687284866
  0
ARC
  5
DD
330
7D
100
AcDbEntity
  8
$DDT_AUDIT_GENERATED_(D3)
  6
Continuous
 62
     7
100
AcDbCircle
 10
45.7788491696
 20
265.2125892902
 30
0.0
 40
2.621001032888253
100
AcDbArc
 50
278.1963213247
 51
307.2187050072
  0
ARC
  5
DE
330
7D
100
AcDbEntity
  8
$DDT_AUDIT_GENERATED_(D3)
  6
Continuous
 62
     7
100
AcDbCircle
 10
45.7148630522
 20
266.7497322181
 30
0.0
 40
4.15448765607018
100
AcDbArc
 50
269.0475701435
 51
276.0469833248
  0
SPLINE
  5
DF
330
7D
100
AcDbEntity
  8
$DDT_AUDIT_GENERATED_(D3)
  6
Continuous
 62
     7
100
AcDbSpline
210
0.0
220
0.0
230
1.0
 70
     8
 71
     3
 72
    16
 73
    12
 74
     0
 42
0.0000000029860285
 43
0.0000000001
 40
0.0
 40
0.0
 40
0.0
 40
0.0
 40
0.2499999999999998
 40
0.2499999999999998
 40
0.4999999999999997
 40
0.4999999999999997
 40
0.7499999999999996
 40
0.7499999999999996
 40
0.8749999999999998
 40
0.8749999999999998
 40
1.0
 40
1.0
 40
1.0
 40
1.0
 10
48.43931328717484
 20
274.9015332852769
 30
0.0
 10
48.27514219306006
 20
275.1188847915713
 30
0.0
 10
48.0960944367647
 20
275.3254151919571
 30
0.0
 10
47.70263092994544
 20
275.7138362696704
 30
0.0
 10
47.49315869126623
 20
275.8928426290901
 30
0.0
 10
47.033396660756
 20
276.1998744940592
 30
0.0
 10
46.77986557291528
 20
276.3282502815862
 30
0.0
 10
46.37566104212543
 20
276.4440665930659
 30
0.0
 10
46.23482642693824
 20
276.4702066949979
 30
0.0
 10
45.94931146978325
 20
276.4958697763792
 30
0.0
 10
45.80569893644689
 20
276.497599634024
 30
0.0
 10
45.66195243187163
 20
276.4975996366326
 30
0.0
  0
ARC
  5
E0
330
7D
100
AcDbEntity
  8
$DDT_AUDIT_GENERATED_(D3)
  6
Continuous
 62
     7
100
AcDbCircle
 10
48.827738559
 20
274.7095694093
 30
0.0
 40
0.2027051613011095
100
AcDbArc
 50
166.0267976365
 51
213.0685377682
  0
ELLIPSE
  5
E1
330
7D
100
AcDbEntity
  8
$DDT_AUDIT_GENERATED_(D3)
  6
Continuous
 62
     7
100
AcDbEllipse
 10
34.3317235332
 20
269.5467099486
 30
0.0
 11
-3.700872941436728E-9
 21
-18.53079121753498
 31
0.0
210
0.0
220
0.0
230
1.0
 40
0.0524079512
 41
1.180561003378222
 42
1.186250711461176
  0
ARC
  5
E2
330
7D
100
AcDbEntity
  8
$DDT_AUDIT_GENERATED_(D3)
  6
Continuous
 62
     7
100
AcDbCircle
 10
41.7588110344
 20
269.84577771
 30
0.0
 40
8.37793380171315
100
AcDbArc
 50
34.5653612217
 51
37.1181714403
  0
ARC
  5
E3
330
7D
100
AcDbEntity
  8
$DDT_AUDIT_GENERATED_(D3)
  6
Continuous
 62
     7
100
AcDbCircle
 10
39.9866561735
 20
269.4504457014
 30
0.0
 40
10.03463576221499
100
AcDbArc
 50
336.7671986655
 51
0.5496889642
  0
ARC
  5
E4
330
7D
100
AcDbEntity
  8
$DDT_AUDIT_GENERATED_(D3)
  6
Continuous
 62
     7
100
AcDbCircle
 10
40.1548865085
 20
269.6746201051
 30
0.0
 40
9.866772685081555
100
AcDbArc
 50
359.2572436008
 51
23.8641745563
  0
ARC
  5
E5
330
7D
100
AcDbEntity
  8
$DDT_AUDIT_GENERATED_(D3)
  6
Continuous
 62
     7
100
AcDbCircle
 10
43.0089949967
 20
270.8564585915
 30
0.0
 40
6.778936661173762
100
AcDbArc
 50
24.488678353
 51
33.5234866939
  0
ARC
  5
E6
330
7D
100
AcDbEntity
  8
$DDT_AUDIT_GENERATED_(D3)
  6
Continuous
 62
     7
100
AcDbCircle
 10
48.8304010768
 20
274.7109117701
 30
0.0
 40
0.2028739152968382
100
AcDbArc
 50
189.0033275949
 51
213.0327899603
  0
LINE
  5
E7
330
7D
100
AcDbEntity
  8
$DDT_AUDIT_GENERATED_(D3)
  6
Continuous
 62
     7
100
AcDbLine
 10
33.2097041332
 20
262.5965925144
 30
0.0
 11
33.3823837025
 21
262.5960268346
 31
0.0
  0
LINE
  5
E9
330
7D
100
AcDbEntity
  8
$DDT_AUDIT_GENERATED_(E8)
  6
Continuous
 62
     7
100
AcDbLine
 10
70.999965458
 20
275.942119346
 30
0.0
 11
70.299965458
 21
275.942119346
 31
0.0
  0
LINE
  5
EA
330
7D
100
AcDbEntity
  8
$DDT_AUDIT_GENERATED_(E8)
  6
Continuous
 62
     7
100
AcDbLine
 10
70.999965458
 20
287.3157582987
 30
0.0
 11
70.299965458
 21
287.3157582987
 31
0.0
  0
LINE
  5
EB
330
7D
100
AcDbEntity
  8
$DDT_AUDIT_GENERATED_(E8)
  6
Continuous
 62
     7
100
AcDbLine
 10
70.999965458
 20
251.7776617497
 30
0.0
 11
70.299965458
 21
251.7776617497
 31
0.0
  0
LINE
  5
EC
330
7D
100
AcDbEntity
  8
$DDT_AUDIT_GENERATED_(E8)
  6
Continuous
 62
     7
100
AcDbLine
 10
70.999965458
 20
258.1730710715
 30
0.0
 11
70.299965458
 21
258.1730710715
 31
0.0
  0
LINE
  5
ED
330
7D
100
AcDbEntity
  8
$DDT_AUDIT_GENERATED_(E8)
  6
Continuous
 62
     7
100
AcDbLine
 10
70.299965458
 20
269.2916641038
 30
0.0
 11
70.999965458
 21
269.2916641038
 31
0.0
  0
LINE
  5
EE
330
7D
100
AcDbEntity
  8
$DDT_AUDIT_GENERATED_(E8)
  6
Continuous
 62
     7
100
AcDbLine
 10
70.299965458
 20
253.8322946963
 30
0.0
 11
70.999965458
 21
253.8322946963
 31
0.0
  0
LINE
  5
EF
330
7D
100
AcDbEntity
  8
$DDT_AUDIT_GENERATED_(E8)
  6
Continuous
 62
     7
100
AcDbLine
 10
70.299965458
 20
285.0060794318
 30
0.0
 11
70.999965458
 21
285.0060794318
 31
0.0
  0
ARC
  5
F1
330
7D
100
AcDbEntity
  8
$DDT_AUDIT_GENERATED_(F0)
  6
Continuous
 62
     7
100
AcDbCircle
 10
7.6347547296
 20
263.0564066002
 30
0.0
 40
0.2596966194086457
100
AcDbArc
 50
194.8136820347
 51
242.7623550687
  0
ARC
  5
F2
330
7D
100
AcDbEntity
  8
$DDT_AUDIT_GENERATED_(F0)
  6
Continuous
 62
     7
100
AcDbCircle
 10
7.6327247933
 20
276.0381670093
 30
0.0
 40
0.2585430650925671
100
AcDbArc
 50
115.9915611054
 51
165.3861347691
  0
ARC
  5
F3
330
7D
100
AcDbEntity
  8
$DDT_AUDIT_GENERATED_(F0)
  6
Continuous
 62
     7
100
AcDbCircle
 10
282.4950667046
 20
269.5706982653
 30
0.0
 40
275.1900709992426
100
AcDbArc
 50
181.3645535761
 51
181.3702591359
  0
ARC
  5
F4
330
7D
100
AcDbEntity
  8
$DDT_AUDIT_GENERATED_(F0)
  6
Continuous
 62
     7
100
AcDbCircle
 10
282.4950667046
 20
269.5706982653
 30
0.0
 40
275.1900709992426
100
AcDbArc
 50
178.639735419
 51
178.647616174
  0
SPLINE
  5
F5
330
7D
100
AcDbEntity
  8
$DDT_AUDIT_GENERATED_(F0)
  6
Continuous
 62
     7
100
AcDbSpline
210
0.0
220
0.0
230
1.0
 70
     8
 71
     3
 72
    11
 73
     7
 74
     0
 42
0.0000000007514615
 43
0.0000000001
 40
0.0
 40
0.0
 40
0.0
 40
0.0
 40
0.1456535438383238
 40
0.5793263566616987
 40
0.940720367347847
 40
1.0
 40
1.0
 40
1.0
 40
1.0
 10
7.382546076528135
 20
276.1033983374306
 30
0.0
 10
7.217120237071439
 20
275.472961604562
 30
0.0
 10
6.651325583099083
 20
272.9555226071411
 30
0.0
 10
6.349999999999994
 20
268.8152226579241
 30
0.0
 10
6.865328065496085
 20
265.07034436654
 30
0.0
 10
7.316427077736693
 20
263.2466158602146
 30
0.0
 10
7.383689812583555
 20
262.9900082450606
 30
0.0
  0
ARC
  5
F6
330
7D
100
AcDbEntity
  8
$DDT_AUDIT_GENERATED_(F0)
  6
Continuous
 62
     7
100
AcDbCircle
 10
7.6516517047
 20
276.0239337583
 30
0.0
 40
0.2760003325178372
100
AcDbArc
 50
119.9281046385
 51
169.626569923
  0
ARC
  5
F7
330
7D
100
AcDbEntity
  8
$DDT_AUDIT_GENERATED_(F0)
  6
Continuous
 62
     7
100
AcDbCircle
 10
7.6522136372
 20
263.0690771373
 30
0.0
 40
0.2754253103150169
100
AcDbArc
 50
190.462697222
 51
241.740784268
  0
ARC
  5
F8
330
7D
100
AcDbEntity
  8
$DDT_AUDIT_GENERATED_(9E)
  6
Continuous
 62
     7
100
AcDbCircle
 10
300.1235661562
 20
23.7676820772
 30
0.0
 40
258.5156595840749
100
AcDbArc
 50
85.442676009
 51
85.4458751581
  0
SPLINE
  5
F9
330
7D
100
AcDbEntity
  8
$DDT_AUDIT_GENERATED_(9E)
  6
Continuous
 62
     7
100
AcDbSpline
210
0.0
220
0.0
230
1.0
 70
     8
 71
     3
 72
    10
 73
     6
 74
     0
 42
0.0000000031478802
 43
0.0000000001
 40
0.006144068892276
 40
0.006144068892276
 40
0.006144068892276
 40
0.006144068892276
 40
0.01125401695292
 40
0.0186974348886685
 40
0.0193345658454082
 40
0.0193345658454082
 40
0.0193345658454082
 40
0.0193345658454082
 10
320.6922064745881
 20
257.6372769563731
 30
0.0
 10
320.6906979759611
 20
257.633027772697
 30
0.0
 10
320.6854280515686
 20
257.6225916146289
 30
0.0
 10
320.6757318793345
 20
257.611634410744
 30
0.0
 10
320.6679768162338
 20
257.6049258534076
 30
0.0
 10
320.6673539711131
 20
257.604396924827
 30
0.0
  0
SPLINE
  5
FA
330
7D
100
AcDbEntity
  8
$DDT_AUDIT_GENERATED_(9E)
  6
Continuous
 62
     7
100
AcDbSpline
210
0.0
220
0.0
230
1.0
 70
     8
 71
     3
 72
     9
 73
     5
 74
     0
 42
0.0000000039609519
 43
0.0000000001
 40
0.0
 40
0.0
 40
0.0
 40
0.0
 40
0.0077917640137522
 40
0.0102945547544602
 40
0.0102945547544602
 40
0.0102945547544602
 40
0.0102945547544602
 10
321.5345804407332
 20
258.7303173828187
 30
0.0
 10
321.5344912834827
 20
258.7239594129251
 30
0.0
 10
321.5339705498283
 20
258.7158964327734
 30
0.0
 10
321.5301490983355
 20
258.7075085205044
 30
0.0
 10
321.5290339608323
 20
258.7054577792661
 30
0.0
  0
ARC
  5
FB
330
7D
100
AcDbEntity
  8
$DDT_AUDIT_GENERATED_(9E)
  6
Continuous
 62
     7
100
AcDbCircle
 10
299.5452103037
 20
5.4765306129
 30
0.0
 40
275.7634731063254
100
AcDbArc
 50
85.4285455403
 51
92.4892673203
  0
SPLINE
  5
FC
330
7D
100
AcDbEntity
  8
$DDT_AUDIT_GENERATED_(9E)
  6
Continuous
 62
     7
100
AcDbSpline
210
0.0
220
0.0
230
1.0
 70
     8
 71
     3
 72
    14
 73
    10
 74
     0
 42
0.0000000061984647
 43
0.0000000001
 40
0.0
 40
0.0
 40
0.0
 40
0.0
 40
0.1301678137601338
 40
0.2499852345023594
 40
0.3454734950519138
 40
0.500156225945735
 40
0.750116550049017
 40
0.8490898065826252
 40
1.0
 40
1.0
 40
1.0
 40
1.0
 10
287.5681837736206
 20
280.9797863743876
 30
0.0
 10
287.4982344556371
 20
280.9776003427946
 30
0.0
 10
287.3639275764255
 20
280.9736490677089
 30
0.0
 10
287.1781604476783
 20
280.9738192424089
 30
0.0
 10
286.9793221246953
 20
280.9800023919522
 30
0.0
 10
286.7106775057468
 20
280.9906522027591
 30
0.0
 10
286.4399172222897
 20
281.0000751485644
 30
0.0
 10
286.1712674783357
 20
280.9943855548781
 30
0.0
 10
286.0370542633013
 20
280.9898043950705
 30
0.0
 10
285.9558310414018
 20
280.98344983312
 30
0.0
  0
SPLINE
  5
FD
330
7D
100
AcDbEntity
  8
$DDT_AUDIT_GENERATED_(9E)
  6
Continuous
 62
     7
100
AcDbSpline
210
0.0
220
0.0
230
1.0
 70
     8
 71
     3
 72
    27
 73
    23
 74
     0
 42
0.0000000002996546
 43
0.0000000001
 40
0.0
 40
0.0
 40
0.0
 40
0.0
 40
0.0156538427502327
 40
0.0313056767288581
 40
0.062604398106661
 40
0.0939013703415039
 40
0.1251929263296808
 40
0.1875639950187409
 40
0.2500816781977534
 40
0.3127029645011682
 40
0.3753331524590425
 40
0.5000592951446732
 40
0.6247859529383222
 40
0.6874160149468631
 40
0.7500376373586356
 40
0.8000945447978959
 40
0.8748110858339673
 40
0.9061013767976649
 40
0.9373970538682806
 40
0.968695164627571
 40
0.9843467527799886
 40
1.0
 40
1.0
 40
1.0
 40
1.0
 10
285.9558310414018
 20
280.98344983312
 30
0.0
 10
285.7796808048135
 20
280.9832859087329
 30
0.0
 10
285.4270652269331
 20
280.9757827468487
 30
0.0
 10
284.7219468932771
 20
280.9644253883165
 30
0.0
 10
283.8414773952127
 20
280.9244566299612
 30
0.0
 10
282.7948473664015
 20
280.7895400544948
 30
0.0
 10
281.4508735445418
 20
280.421371368537
 30
0.0
 10
279.970325915054
 20
279.5384492839383
 30
0.0
 10
278.6205179936941
 20
278.0561745455782
 30
0.0
 10
277.5692822498739
 20
276.3351006754907
 30
0.0
 10
276.5277126918475
 20
273.8149728586388
 30
0.0
 10
275.948938846729
 20
270.295338193641
 30
0.0
 10
276.5292743064781
 20
266.74764314413
 30
0.0
 10
277.5701065809325
 20
264.1822930186926
 30
0.0
 10
278.5522352896699
 20
262.5343019643285
 30
0.0
 10
279.8668634186698
 20
260.9885746940112
 30
0.0
 10
281.3180828833374
 20
260.0110543509954
 30
0.0
 10
282.7950325483192
 20
259.5890385836697
 30
0.0
 10
283.8415895051103
 20
259.4468344074686
 30
0.0
 10
284.7220407810118
 20
259.4038925281359
 30
0.0
 10
285.4271397666171
 20
259.3911220503551
 30
0.0
 10
285.7797271972783
 20
259.382407152468
 30
0.0
 10
285.9558510964882
 20
259.380982925707
 30
0.0
  0
SPLINE
  5
FE
330
7D
100
AcDbEntity
  8
$DDT_AUDIT_GENERATED_(9E)
  6
Continuous
 62
     7
100
AcDbSpline
210
0.0
220
0.0
230
1.0
 70
     8
 71
     3
 72
    14
 73
    10
 74
     0
 42
0.0000000061975424
 43
0.0000000001
 40
0.0
 40
0.0
 40
0.0
 40
0.0
 40
0.1543393841533697
 40
0.2498386949674562
 40
0.499767721179865
 40
0.6581032552288099
 40
0.7500138041807909
 40
0.8711264650213348
 40
1.0
 40
1.0
 40
1.0
 40
1.0
 10
285.9558510964882
 20
259.380982925707
 30
0.0
 10
286.0389134410138
 20
259.3745987339021
 30
0.0
 10
286.1730815729721
 20
259.3690128100263
 30
0.0
 10
286.4416777850111
 20
259.3612365591206
 30
0.0
 10
286.7125817852819
 20
259.3715153043355
 30
0.0
 10
286.9812087958996
 20
259.3835359544458
 30
0.0
 10
287.1807720288668
 20
259.3908274825868
 30
0.0
 10
287.3646550177406
 20
259.3911234134979
 30
0.0
 10
287.4989589239635
 20
259.3864144227919
 30
0.0
 10
287.5681959310143
 20
259.3839301220913
 30
0.0
  0
SPLINE
  5
FF
330
7D
100
AcDbEntity
  8
$DDT_AUDIT_GENERATED_(9E)
  6
Continuous
 62
     7
100
AcDbSpline
210
0.0
220
0.0
230
1.0
 70
     8
 71
     3
 72
    26
 73
    22
 74
     0
 42
0.0000000002937683
 43
0.0000000001
 40
0.0
 40
0.0
 40
0.0
 40
0.0
 40
0.0080569210562611
 40
0.0161101456242893
 40
0.0322196710422493
 40
0.0644389606831225
 40
0.1288769539663393
 40
0.2577421416756586
 40
0.3221799271353364
 40
0.3866168641996609
 40
0.4323069054467842
 40
0.5154667447441489
 40
0.6331671270430762
 40
0.7190801576696852
 40
0.7725106697236338
 40
0.84867391756156
 40
0.8755069169531907
 40
0.9527722412480357
 40
0.97486423506604
 40
0.9969609663067589
 40
1.0
 40
1.0
 40
1.0
 40
1.0
 10
287.5681959310143
 20
259.3839301220913
 30
0.0
 10
287.6871490593309
 20
259.3774656915368
 30
0.0
 10
287.9249998030604
 20
259.3644280925145
 30
0.0
 10
288.4014588853178
 20
259.3546603737386
 30
0.0
 10
289.2353644992282
 20
259.3565068151087
 30
0.0
 10
290.9030599015103
 20
259.3456748300499
 30
0.0
 10
294.2377185472847
 20
259.3343423064838
 30
0.0
 10
298.0460643641886
 20
259.328338550798
 30
0.0
 10
301.8420314783104
 20
259.3393890117541
 30
0.0
 10
304.4104849729247
 20
259.3320017025781
 30
0.0
 10
307.2454462443795
 20
259.3194153139269
 30
0.0
 10
310.8274360648896
 20
259.2958722427531
 30
0.0
 10
314.8803419806502
 20
259.2432614111419
 30
0.0
 10
317.7823203040215
 20
259.1537281203939
 30
0.0
 10
319.6041289025645
 20
259.0618950454494
 30
0.0
 10
320.5240718403209
 20
258.9871166979848
 30
0.0
 10
321.2097896579695
 20
258.8966013600509
 30
0.0
 10
321.4452123371818
 20
258.8335747610664
 30
0.0
 10
321.5223017061718
 20
258.76774063869
 30
0.0
 10
321.5332361858186
 20
258.7437595496959
 30
0.0
 10
321.534063517221
 20
258.7318683056777
 30
0.0
 10
321.5345804407332
 20
258.7303173828187
 30
0.0
  0
LINE
  5
100
330
7D
100
AcDbEntity
  8
$DDT_AUDIT_GENERATED_(9E)
  6
Continuous
 62
     7
100
AcDbLine
 10
260.119965458
 20
270.2842723471
 30
0.0
 11
260.119965458
 21
290.745812542
 31
0.0
  0
LINE
  5
101
330
7D
100
AcDbEntity
  8
$DDT_AUDIT_GENERATED_(9E)
  6
Continuous
 62
     7
100
AcDbLine
 10
260.119965458
 20
248.3552176396
 30
0.0
 11
260.119965458
 21
270.2842723471
 31
0.0
  0
ARC
  5
102
330
7D
100
AcDbEntity
  8
$DDT_AUDIT_GENERATED_(9E)
  6
Continuous
 62
     7
100
AcDbCircle
 10
294.7933634811
 20
270.4659255169
 30
0.0
 40
29.20303379377185
100
AcDbArc
 50
336.3053274116
 51
343.9580655407
  0
ARC
  5
103
330
7D
100
AcDbEntity
  8
$DDT_AUDIT_GENERATED_(9E)
  6
Continuous
 62
     7
100
AcDbCircle
 10
322.6819487708
 20
262.4491265079
 30
0.0
 40
0.1850817903593823
100
AcDbArc
 50
343.2979921211
 51
358.4295145826
  0
ARC
  5
104
330
7D
100
AcDbEntity
  8
$DDT_AUDIT_GENERATED_(9E)
  6
Continuous
 62
     7
100
AcDbCircle
 10
322.7807824314
 20
276.6601891586
 30
0.0
 40
0.087961432779604
100
AcDbArc
 50
352.8661311971
 51
25.1241339033
  0
SPLINE
  5
105
330
7D
100
AcDbEntity
  8
$DDT_AUDIT_GENERATED_(9E)
  6
Continuous
 62
     7
100
AcDbSpline
210
0.0
220
0.0
230
1.0
 70
     8
 71
     3
 72
    12
 73
     8
 74
     0
 42
0.000000002019677
 43
0.0000000001
 40
0.0
 40
0.0
 40
0.0
 40
0.0
 40
0.2499999999999993
 40
0.2499999999999993
 40
0.4999999999999987
 40
0.4999999999999987
 40
1.0
 40
1.0
 40
1.0
 40
1.0
 10
297.2292825552076
 20
263.1519063037414
 30
0.0
 10
297.6412805904176
 20
263.1510703879714
 30
0.0
 10
298.0599861568657
 20
263.1996405188812
 30
0.0
 10
298.808468174123
 20
263.5328585892661
 30
0.0
 10
299.1450957310259
 20
263.7824893102679
 30
0.0
 10
300.0450518478942
 20
264.6204277269526
 30
0.0
 10
300.5130503283705
 20
265.306207461602
 30
0.0
 10
300.8581013389796
 20
266.049495308246
 30
0.0
  0
LINE
  5
106
330
7D
100
AcDbEntity
  8
$DDT_AUDIT_GENERATED_(9E)
  6
Continuous
 62
     7
100
AcDbLine
 10
284.7811503113
 20
263.1616924702
 30
0.0
 11
287.5761661883
 21
263.1605623717
 31
0.0
  0
ARC
  5
107
330
7D
100
AcDbEntity
  8
$DDT_AUDIT_GENERATED_(9E)
  6
Continuous
 62
     7
100
AcDbCircle
 10
287.6735192758
 20
-5010.8907941291
 30
0.0
 40
5274.051357220634
100
AcDbArc
 50
89.8961888748
 51
90.0010576164
  0
SPLINE
  5
108
330
7D
100
AcDbEntity
  8
$DDT_AUDIT_GENERATED_(9E)
  6
Continuous
 62
     7
100
AcDbSpline
210
0.0
220
0.0
230
1.0
 70
     8
 71
     3
 72
    12
 73
     8
 74
     0
 42
0.000000002021711
 43
0.0000000001
 40
0.0
 40
0.0
 40
0.0
 40
0.0
 40
0.5
 40
0.5
 40
0.75
 40
0.75
 40
1.0
 40
1.0
 40
1.0
 40
1.0
 10
281.1761440741926
 20
266.0765145336253
 30
0.0
 10
281.5174009225024
 20
265.3282997609507
 30
0.0
 10
281.9799545804393
 20
264.6406082944417
 30
0.0
 10
282.8694839154305
 20
263.8005210215583
 30
0.0
 10
283.2011329787834
 20
263.5497538449153
 30
0.0
 10
283.9559188640785
 20
263.2096528795964
 30
0.0
 10
284.3659424303356
 20
263.1620518164468
 30
0.0
 10
284.7811503113426
 20
263.1616924701818
 30
0.0
  0
ARC
  5
109
330
7D
100
AcDbEntity
  8
$DDT_AUDIT_GENERATED_(9E)
  6
Continuous
 62
     7
100
AcDbCircle
 10
290.3602759507
 20
270.1301300171
 30
0.0
 40
10.03892807090206
100
AcDbArc
 50
179.3173579131
 51
203.8153040383
  0
ARC
  5
10A
330
7D
100
AcDbEntity
  8
$DDT_AUDIT_GENERATED_(9E)
  6
Continuous
 62
     7
100
AcDbCircle
 10
290.2574493333
 20
270.3632446647
 30
0.0
 40
9.936037336166178
100
AcDbArc
 50
156.0626678989
 51
180.6545662049
  0
SPLINE
  5
10B
330
7D
100
AcDbEntity
  8
$DDT_AUDIT_GENERATED_(9E)
  6
Continuous
 62
     7
100
AcDbSpline
210
0.0
220
0.0
230
1.0
 70
     8
 71
     3
 72
    12
 73
     8
 74
     0
 42
0.0000000020373129
 43
0.0000000001
 40
0.0
 40
0.0
 40
0.0
 40
0.0
 40
0.2499999999999999
 40
0.2499999999999999
 40
0.4999999999999998
 40
0.4999999999999998
 40
1.0
 40
1.0
 40
1.0
 40
1.0
 10
284.7811178202132
 20
277.2548741268463
 30
0.0
 10
284.3679753710469
 20
277.2552274337858
 30
0.0
 10
283.9446334386617
 20
277.205728711558
 30
0.0
 10
283.1988257070491
 20
276.8747398326265
 30
0.0
 10
282.8660067039026
 20
276.6284742066352
 30
0.0
 10
281.9772078338977
 20
275.8035576275282
 30
0.0
 10
281.5155565828337
 20
275.129217500377
 30
0.0
 10
281.1760127160454
 20
274.3946646269756
 30
0.0
  0
ARC
  5
10C
330
7D
100
AcDbEntity
  8
$DDT_AUDIT_GENERATED_(9E)
  6
Continuous
 62
     7
100
AcDbCircle
 10
291.8334346688
 20
270.0755846436
 30
0.0
 40
9.875568814300646
100
AcDbArc
 50
335.7182460599
 51
0.6567563842
  0
SPLINE
  5
10D
330
7D
100
AcDbEntity
  8
$DDT_AUDIT_GENERATED_(9E)
  6
Continuous
 62
     7
100
AcDbSpline
210
0.0
220
0.0
230
1.0
 70
     8
 71
     3
 72
     8
 73
     4
 74
     0
 42
0.0000000020543213
 43
0.0000000001
 40
0.8333421248265938
 40
0.8333421248265938
 40
0.8333421248265938
 40
0.8333421248265938
 40
1.0
 40
1.0
 40
1.0
 40
1.0
 10
300.4480136936699
 20
275.0444653709391
 30
0.0
 10
300.5909312161814
 20
274.8160757901546
 30
0.0
 10
300.7195137653915
 20
274.578624411254
 30
0.0
 10
300.835454791591
 20
274.3327886874052
 30
0.0
  0
ARC
  5
10E
330
7D
100
AcDbEntity
  8
$DDT_AUDIT_GENERATED_(9E)
  6
Continuous
 62
     7
100
AcDbCircle
 10
291.9146808136
 20
270.2897653354
 30
0.0
 40
9.79419451468706
100
AcDbArc
 50
359.4092366282
 51
24.3807188325
  0
SPLINE
  5
10F
330
7D
100
AcDbEntity
  8
$DDT_AUDIT_GENERATED_(9E)
  6
Continuous
 62
     7
100
AcDbSpline
210
0.0
220
0.0
230
1.0
 70
     8
 71
     3
 72
     8
 73
     4
 74
     0
 42
0.0000000020302054
 43
0.0000000001
 40
0.0
 40
0.0
 40
0.0
 40
0.0
 40
0.1995367593861083
 40
0.1995367593861083
 40
0.1995367593861083
 40
0.1995367593861083
 10
300.8353541650977
 20
266.0145127668245
 30
0.0
 10
300.6964091218443
 20
265.7156251330854
 30
0.0
 10
300.5392285534293
 20
265.4280895699611
 30
0.0
 10
300.3624216117991
 20
265.1547449812864
 30
0.0
  0
SPLINE
  5
110
330
7D
100
AcDbEntity
  8
$DDT_AUDIT_GENERATED_(9E)
  6
Continuous
 62
     7
100
AcDbSpline
210
0.0
220
0.0
230
1.0
 70
     8
 71
     3
 72
    12
 73
     8
 74
     0
 42
0.0000000020420795
 43
0.0000000001
 40
0.1983345073165385
 40
0.1983345073165385
 40
0.1983345073165385
 40
0.1983345073165385
 40
0.4999999999999998
 40
0.4999999999999998
 40
0.7499999999999999
 40
0.7499999999999999
 40
1.0
 40
1.0
 40
1.0
 40
1.0
 10
281.619619116928
 20
275.2086529316288
 30
0.0
 10
281.8821059675866
 20
275.614527446168
 30
0.0
 10
282.1889355735656
 20
275.9869512477368
 30
0.0
 10
282.8390688776065
 20
276.5908747251551
 30
0.0
 10
283.1690143199129
 20
276.8356332744836
 30
0.0
 10
283.9134752210653
 20
277.1675153998355
 30
0.0
 10
284.3375665136504
 20
277.2185416459204
 30
0.0
 10
284.7569927878134
 20
277.2177725972408
 30
0.0
  0
LINE
  5
111
330
7D
100
AcDbEntity
  8
$DDT_AUDIT_GENERATED_(9E)
  6
Continuous
 62
     7
100
AcDbLine
 10
284.7569927878
 20
277.2177725972
 30
0.0
 11
297.1960242825
 21
277.19490726
 31
0.0
  0
ARC
  5
112
330
7D
100
AcDbEntity
  8
$DDT_AUDIT_GENERATED_(9E)
  6
Continuous
 62
     7
100
AcDbCircle
 10
209.7478317329
 20
269.5615061114
 30
0.0
 40
113.3420620840513
100
AcDbArc
 50
3.5840581957
 51
3.5852316711
  0
ARC
  5
113
330
7D
100
AcDbEntity
  8
$DDT_AUDIT_GENERATED_(9E)
  6
Continuous
 62
     7
100
AcDbCircle
 10
209.7478317329
 20
269.5615061114
 30
0.0
 40
113.3420620840513
100
AcDbArc
 50
3.5708286404
 51
3.5721340374
  0
ARC
  5
114
330
7D
100
AcDbEntity
  8
$DDT_AUDIT_GENERATED_(9E)
  6
Continuous
 62
     7
100
AcDbCircle
 10
209.7478317329
 20
269.5615061114
 30
0.0
 40
113.3420620840513
100
AcDbArc
 50
3.3811409371
 51
3.4390221753
  0
ARC
  5
115
330
7D
100
AcDbEntity
  8
$DDT_AUDIT_GENERATED_(9E)
  6
Continuous
 62
     7
100
AcDbCircle
 10
209.7478317329
 20
269.5615061114
 30
0.0
 40
113.3420620840513
100
AcDbArc
 50
356.4266323325
 51
356.6051823752
  0
ARC
  5
116
330
7D
100
AcDbEntity
  8
$DDT_AUDIT_GENERATED_(9E)
  6
Continuous
 62
     7
100
AcDbCircle
 10
209.7478317329
 20
269.5615061114
 30
0.0
 40
113.3420620840513
100
AcDbArc
 50
356.3975948939
 51
356.3977349665
  0
ARC
  5
117
330
7D
100
AcDbEntity
  8
$DDT_AUDIT_GENERATED_(9E)
  6
Continuous
 62
     7
100
AcDbCircle
 10
69.3985197688
 20
269.5685184571
 30
0.0
 40
253.5685483512324
100
AcDbArc
 50
358.3899601399
 51
1.6011111793
  0
SPLINE
  5
118
330
7D
100
AcDbEntity
  8
$DDT_AUDIT_GENERATED_(9E)
  6
Continuous
 62
     7
100
AcDbSpline
210
0.0
220
0.0
230
1.0
 70
     8
 71
     3
 72
    32
 73
    28
 74
     0
 42
0.0000000001608952
 43
0.0000000001
 40
0.0
 40
0.0
 40
0.0
 40
0.0
 40
0.0313372360408752
 40
0.0697182665890397
 40
0.1061999639108919
 40
0.1412055787476671
 40
0.1750416146576967
 40
0.2079218207558924
 40
0.2579922078305067
 40
0.3064184846148312
 40
0.3534722492510846
 40
0.4147106479547469
 40
0.4742278960813017
 40
0.532178826951762
 40
0.5885042041655126
 40
0.6299540291375875
 40
0.6701986394434503
 40
0.7090937624692452
 40
0.7465156229195616
 40
0.7823871013239481
 40
0.8167048119144312
 40
0.8495663499230713
 40
0.8811957834221464
 40
0.9119638249576333
 40
0.9423980094825276
 40
0.973179908778791
 40
1.0
 40
1.0
 40
1.0
 40
1.0
 10
260.4200987604993
 20
248.043169171504
 30
0.0
 10
261.1342872236141
 20
248.0434346609073
 30
0.0
 10
262.4765428134841
 20
248.0441140940634
 30
0.0
 10
264.7243840088573
 20
248.0484710595471
 30
0.0
 10
266.9878580746092
 20
248.0573372805932
 30
0.0
 10
269.1731865313602
 20
248.0713517563588
 30
0.0
 10
271.279814632385
 20
248.0909432506322
 30
0.0
 10
273.6995158909767
 20
248.1211167482378
 30
0.0
 10
276.4209931114252
 20
248.1669562199262
 30
0.0
 10
279.4358320158198
 20
248.2361186399356
 30
0.0
 10
282.6813248872754
 20
248.3337774905691
 30
0.0
 10
286.1553107366169
 20
248.4727499240473
 30
0.0
 10
289.8522816888708
 20
248.6739749628637
 30
0.0
 10
293.4433422208512
 20
248.9342476403582
 30
0.0
 10
296.6549998212761
 20
249.2383680072166
 30
0.0
 10
299.4938722516598
 20
249.5757366558379
 30
0.0
 10
301.9662420005489
 20
249.9301054927789
 30
0.0
 10
304.3451598569092
 20
250.3403504904493
 30
0.0
 10
306.6200514079496
 20
250.8121810572849
 30
0.0
 10
308.7821116283775
 20
251.3520917437208
 30
0.0
 10
310.8254270735024
 20
251.9675121357
 30
0.0
 10
312.7487193741552
 20
252.6673652236585
 30
0.0
 10
314.5545982049216
 20
253.461109744119
 30
0.0
 10
316.257358578078
 20
254.362794939197
 30
0.0
 10
317.8601746605038
 20
255.376255316701
 30
0.0
 10
319.3590450976774
 20
256.4844288614421
 30
0.0
 10
320.199215705226
 20
257.2075550751259
 30
0.0
 10
320.6603817560637
 20
257.608521343854
 30
0.0
  0
SPLINE
  5
119
330
7D
100
AcDbEntity
  8
$DDT_AUDIT_GENERATED_(9E)
  6
Continuous
 62
     7
100
AcDbSpline
210
0.0
220
0.0
230
1.0
 70
     8
 71
     3
 72
    31
 73
    27
 74
     0
 42
0.000000000160904
 43
0.0000000001
 40
0.0
 40
0.0
 40
0.0
 40
0.0
 40
0.0264903724091746
 40
0.0570916594583221
 40
0.0873953245487514
 40
0.118061033476966
 40
0.1496133355587432
 40
0.1824323199484122
 40
0.2167482757451086
 40
0.2526608229325434
 40
0.2901614281624248
 40
0.3291604473326116
 40
0.3695160091671348
 40
0.411071499611912
 40
0.4685647642111854
 40
0.5277202386735359
 40
0.5884781353416796
 40
0.6510121736382628
 40
0.7157157670924734
 40
0.7648791854569085
 40
0.8158292256822329
 40
0.8690381147540565
 40
0.9017725753520976
 40
0.9358410269865655
 40
0.9715987104426766
 40
1.0
 40
1.0
 40
1.0
 40
1.0
 10
320.6571536757785
 20
281.4830418187421
 30
0.0
 10
320.2017394790946
 20
281.8791503059829
 30
0.0
 10
319.3691392634004
 20
282.5961396942538
 30
0.0
 10
317.8852862329765
 20
283.6961075518295
 30
0.0
 10
316.2954553939823
 20
284.7056449718108
 30
0.0
 10
314.6036814192425
 20
285.6062311162114
 30
0.0
 10
312.8052059429298
 20
286.4011817231221
 30
0.0
 10
310.8853465911494
 20
287.1036064832531
 30
0.0
 10
308.8418608037369
 20
287.7221320529356
 30
0.0
 10
306.6765062797603
 20
288.2651741834899
 30
0.0
 10
304.3959202544938
 20
288.7398421478769
 30
0.0
 10
302.0098669408005
 20
289.1524514633352
 30
0.0
 10
299.5299242306611
 20
289.5086614615975
 30
0.0
 10
296.661657510378
 20
289.850091087996
 30
0.0
 10
293.398049489804
 20
290.1587071913073
 30
0.0
 10
289.7316391789979
 20
290.4226316588984
 30
0.0
 10
285.9568097179446
 20
290.6254203909617
 30
0.0
 10
282.0646477553357
 20
290.7779604426274
 30
0.0
 10
278.4111228989952
 20
290.8795013598454
 30
0.0
 10
274.9970717362821
 20
290.9478754938771
 30
0.0
 10
271.8202925977543
 20
290.9932491972838
 30
0.0
 10
268.9855254440376
 20
291.0192774953898
 30
0.0
 10
266.4955747240244
 20
291.0335591238923
 30
0.0
 10
264.3826979009311
 20
291.0409906784127
 30
0.0
 10
262.3030900246336
 20
291.044671810796
 30
0.0
 10
261.0673884912577
 20
291.0452714944639
 30
0.0
 10
260.4200973431616
 20
291.0455102480532
 30
0.0
  0
ARC
  5
11A
330
7D
100
AcDbEntity
  8
$DDT_AUDIT_GENERATED_(9E)
  6
Continuous
 62
     7
100
AcDbCircle
 10
318.8491952761
 20
279.187537002
 30
0.0
 40
2.929340430241276
100
AcDbArc
 50
23.6133250952
 51
51.9609301694
  0
ARC
  5
11B
330
7D
100
AcDbEntity
  8
$DDT_AUDIT_GENERATED_(9E)
  6
Continuous
 62
     7
100
AcDbCircle
 10
318.9367202107
 20
259.8677230201
 30
0.0
 40
2.838190646936749
100
AcDbArc
 50
308.211967034
 51
335.589898813
  0
ARC
  5
11C
330
7D
100
AcDbEntity
  8
$DDT_AUDIT_GENERATED_(9E)
  6
Continuous
 62
     7
100
AcDbCircle
 10
296.4197580873
 20
269.2446810936
 30
0.0
 40
27.46356831073792
100
AcDbArc
 50
15.7336442503
 51
23.9285431215
  0
ARC
  5
11D
330
7D
100
AcDbEntity
  8
$DDT_AUDIT_GENERATED_(9E)
  6
Continuous
 62
     7
100
AcDbCircle
 10
260.4199654583
 20
248.342959448
 30
0.0
 40
0.2999999859278641
100
AcDbArc
 50
180.0185455233
 51
270.6099530114
  0
ELLIPSE
  5
11E
330
7D
100
AcDbEntity
  8
$DDT_AUDIT_GENERATED_(9E)
  6
Continuous
 62
     7
100
AcDbEllipse
 10
260.419965458
 20
290.7447719148
 30
0.0
 11
0.2999999999998143
 21
-8.505696147409481E-11
 31
0.0
210
0.0
220
0.0
230
1.0
 40
0.999954285
 41
1.580486729586132
 42
3.147755448764264
  0
ARC
  5
11F
330
7D
100
AcDbEntity
  8
$DDT_AUDIT_GENERATED_(9E)
  6
Continuous
 62
     7
100
AcDbCircle
 10
296.0507761776
 20
269.9574052514
 30
0.0
 40
27.84983215478063
100
AcDbArc
 50
336.1641680127
 51
342.4063331452
  0
LINE
  5
120
330
7D
100
AcDbEntity
  8
$DDT_AUDIT_GENERATED_(C5)
  6
Continuous
 62
     7
100
AcDbLine
 10
281.3157997697
 20
265.947493155
 30
0.0
 11
281.2459454385
 21
265.947493155
 31
0.0
  0
LINE
  5
121
330
7D
100
AcDbEntity
  8
$DDT_AUDIT_GENERATED_(C5)
  6
Continuous
 62
     7
100
AcDbLine
 10
280.519965458
 20
272.3078333663
 30
0.0
 11
280.519965458
 21
271.7776332027
 31
0.0
  0
LINE
  5
122
330
7D
100
AcDbEntity
  8
$DDT_AUDIT_GENERATED_(C5)
  6
Continuous
 62
     7
100
AcDbLine
 10
280.519965458
 20
268.57693821
 30
0.0
 11
280.519965458
 21
268.1533184044
 31
0.0
  0
LINE
  5
123
330
7D
100
AcDbEntity
  8
$DDT_AUDIT_GENERATED_(C5)
  6
Continuous
 62
     7
100
AcDbLine
 10
281.1169503387
 20
266.3973952637
 30
0.0
 11
281.0528220803
 21
266.3973952637
 31
0.0
  0
LINE
  5
124
330
7D
100
AcDbEntity
  8
$DDT_AUDIT_GENERATED_(CC)
  6
Continuous
 62
     7
100
AcDbLine
 10
280.8047786811
 20
267.0428182584
 30
0.0
 11
280.879717435
 21
267.0428182584
 31
0.0
  0
LINE
  5
125
330
7D
100
AcDbEntity
  8
$DDT_AUDIT_GENERATED_(CC)
  6
Continuous
 62
     7
100
AcDbLine
 10
280.669965458
 20
267.5507835169
 30
0.0
 11
280.669965458
 21
267.7960456533
 31
0.0
  0
LINE
  5
126
330
7D
100
AcDbEntity
  8
$DDT_AUDIT_GENERATED_(CC)
  6
Continuous
 62
     7
100
AcDbLine
 10
280.669965458
 20
272.564562505
 30
0.0
 11
280.669965458
 21
272.9198793325
 31
0.0
  0
SPLINE
  5
127
330
7D
100
AcDbEntity
  8
$DDT_AUDIT_GENERATED_(D3)
  6
Continuous
 62
     7
100
AcDbSpline
210
0.0
220
0.0
230
1.0
 70
     8
 71
     5
 72
    20
 73
    14
 74
     0
 42
0.0000000020974595
 43
0.0000000001
 40
0.0
 40
0.0
 40
0.0
 40
0.0
 40
0.0
 40
0.0
 40
0.0403396661957891
 40
0.1019823680672687
 40
0.1509172987586179
 40
0.1885693625512597
 40
0.2654166559915799
 40
0.3429153804563871
 40
0.4470081937129474
 40
0.7033683636985043
 40
0.8028540246346346
 40
0.8028540246346346
 40
0.8028540246346346
 40
0.8028540246346346
 40
0.8028540246346346
 40
0.8028540246346346
 10
284.8113557963803
 20
277.2038653454174
 30
0.0
 10
284.7720456977969
 20
277.2040829022665
 30
0.0
 10
284.6725409898734
 20
277.2037104104932
 30
0.0
 10
284.524401454776
 20
277.2015182145483
 30
0.0
 10
284.335118103346
 20
277.1919512477053
 30
0.0
 10
284.0491393340952
 20
277.1462888516318
 30
0.0
 10
283.7627479452511
 20
277.0559533333353
 30
0.0
 10
283.4552329008603
 20
276.9189807873349
 30
0.0
 10
283.011255782808
 20
276.6463212533532
 30
0.0
 10
282.5876019728849
 20
276.2805506117135
 30
0.0
 10
282.2568131655072
 20
275.9271800957234
 30
0.0
 10
281.9928134048517
 20
275.5892172565954
 30
0.0
 10
281.8042322606066
 20
275.3103604685224
 30
0.0
 10
281.7528108885022
 20
275.2311277594516
 30
0.0
  0
LINE
  5
128
330
7D
100
AcDbEntity
  8
$DDT_AUDIT_GENERATED_(D3)
  6
Continuous
 62
     7
100
AcDbLine
 10
297.258846447
 20
277.1938138527
 30
0.0
 11
284.81135539
 21
277.2036693847
 31
0.0
  0
SPLINE
  5
129
330
7D
100
AcDbEntity
  8
$DDT_AUDIT_GENERATED_(D3)
  6
Continuous
 62
     7
100
AcDbSpline
210
0.0
220
0.0
230
1.0
 70
     8
 71
     5
 72
    22
 73
    16
 74
     0
 42
0.0000000020812998
 43
0.0000000001
 40
0.0
 40
0.0
 40
0.0
 40
0.0
 40
0.0
 40
0.0
 40
0.0062170727794191
 40
0.0545574702013685
 40
0.1507334047118342
 40
0.2722807902039555
 40
0.4717008751628371
 40
0.5745902925666964
 40
0.7309841839950737
 40
0.8095115744880595
 40
0.8852471554960726
 40
0.9352882574655317
 40
1.0
 40
1.0
 40
1.0
 40
1.0
 40
1.0
 40
1.0
 10
300.8052419896111
 20
274.3861464204796
 30
0.0
 10
300.802662246379
 20
274.3915363929692
 30
0.0
 10
300.7802541178766
 20
274.439000587441
 30
0.0
 10
300.7171739674968
 20
274.5697019121482
 30
0.0
 10
300.5970985647766
 20
274.8035256932053
 30
0.0
 10
300.3660415078891
 20
275.2002407257367
 30
0.0
 10
300.0571957754917
 20
275.6468151080388
 30
0.0
 10
299.6291295706499
 20
276.1332758193523
 30
0.0
 10
299.1890855481209
 20
276.5395346252525
 30
0.0
 10
298.7055731315401
 20
276.868991647766
 30
0.0
 10
298.3180502944315
 20
277.0529507231506
 30
0.0
 10
297.895384155906
 20
277.1668124424141
 30
0.0
 10
297.6145861231851
 20
277.1897466368582
 30
0.0
 10
297.4299885090001
 20
277.1930044945771
 30
0.0
 10
297.3204488199144
 20
277.1935819018316
 30
0.0
 10
297.2588473580622
 20
277.1937991026805
 30
0.0
  0
ARC
  5
12A
330
7D
100
AcDbEntity
  8
$DDT_AUDIT_GENERATED_(D3)
  6
Continuous
 62
     7
100
AcDbCircle
 10
291.9634296763
 20
270.3867224491
 30
0.0
 40
9.704279318270466
100
AcDbArc
 50
359.3779667181
 51
24.3387041788
  0
ARC
  5
12B
330
7D
100
AcDbEntity
  8
$DDT_AUDIT_GENERATED_(D3)
  6
Continuous
 62
     7
100
AcDbCircle
 10
291.9260998747
 20
270.1604630971
 30
0.0
 40
9.741787554999336
100
AcDbArc
 50
335.6948960017
 51
0.71112387
  0
SPLINE
  5
12C
330
7D
100
AcDbEntity
  8
$DDT_AUDIT_GENERATED_(D3)
  6
Continuous
 62
     7
100
AcDbSpline
210
0.0
220
0.0
230
1.0
 70
     8
 71
     5
 72
    14
 73
     8
 74
     0
 42
0.0000000020352959
 43
0.0000000001
 40
0.8001450992700659
 40
0.8001450992700659
 40
0.8001450992700659
 40
0.8001450992700659
 40
0.8001450992700659
 40
0.8001450992700659
 40
0.8038841353367168
 40
0.9473167444814544
 40
1.0
 40
1.0
 40
1.0
 40
1.0
 40
1.0
 40
1.0
 10
300.3304185237109
 20
265.2921577652391
 30
0.0
 10
300.3324067837947
 20
265.2952067827863
 30
0.0
 10
300.4105953864878
 20
265.4152942074987
 30
0.0
 10
300.5129679515601
 20
265.5823918501205
 30
0.0
 10
300.6096375284668
 20
265.7542405395894
 30
0.0
 10
300.6994724229283
 20
265.9290008311035
 30
0.0
 10
300.7824708714206
 20
266.1036565321112
 30
0.0
 10
300.8044398195223
 20
266.1507867273211
 30
0.0
  0
SPLINE
  5
12D
330
7D
100
AcDbEntity
  8
$DDT_AUDIT_GENERATED_(D3)
  6
Continuous
 62
     7
100
AcDbSpline
210
0.0
220
0.0
230
1.0
 70
     8
 71
     3
 72
    18
 73
    14
 74
     0
 42
0.000000002068062
 43
0.0000000001
 40
0.0
 40
0.0
 40
0.0
 40
0.0
 40
0.125
 40
0.125
 40
0.25
 40
0.25
 40
0.375
 40
0.375
 40
0.5
 40
0.5
 40
0.75
 40
0.75
 40
0.7974247909865654
 40
0.7974247909865654
 40
0.7974247909865654
 40
0.7974247909865654
 10
297.1976376905548
 20
263.2054119582683
 30
0.0
 10
297.4010286982972
 20
263.205038023011
 30
0.0
 10
297.6040263848173
 20
263.2081255394614
 30
0.0
 10
298.0030872283143
 20
263.2752697905594
 30
0.0
 10
298.2013710781707
 20
263.3385605071686
 30
0.0
 10
298.568220687297
 20
263.5067701127587
 30
0.0
 10
298.7407495640537
 20
263.6109642523439
 30
0.0
 10
299.0700314886878
 20
263.8465713110976
 30
0.0
 10
299.2229508863769
 20
263.9754018017443
 30
0.0
 10
299.6578009642133
 20
264.3850706662692
 30
0.0
 10
299.9172861306233
 20
264.6909445011348
 30
0.0
 10
300.1913862891573
 20
265.0806307210876
 30
0.0
 10
300.2338926993052
 20
265.1434998673092
 30
0.0
 10
300.2752417444009
 20
265.2070826612373
 30
0.0
  0
LINE
  5
12E
330
7D
100
AcDbEntity
  8
$DDT_AUDIT_GENERATED_(D3)
  6
Continuous
 62
     7
100
AcDbLine
 10
284.7579784841
 20
263.2282283555
 30
0.0
 11
297.1976376811
 21
263.2054115007
 31
0.0
  0
ARC
  5
12F
330
7D
100
AcDbEntity
  8
$DDT_AUDIT_GENERATED_(D3)
  6
Continuous
 62
     7
100
AcDbCircle
 10
288.7730946476
 20
270.8263164821
 30
0.0
 40
8.300627099428988
100
AcDbArc
 50
155.1322425386
 51
155.6250450901
  0
ARC
  5
130
330
7D
100
AcDbEntity
  8
$DDT_AUDIT_GENERATED_(D3)
  6
Continuous
 62
     7
100
AcDbCircle
 10
286.6587635417
 20
271.9113569604
 30
0.0
 40
5.926814424758471
100
AcDbArc
 50
146.7550362009
 51
156.0536318369
  0
SPLINE
  5
131
330
7D
100
AcDbEntity
  8
$DDT_AUDIT_GENERATED_(D3)
  6
Continuous
 62
     7
100
AcDbSpline
210
0.0
220
0.0
230
1.0
 70
     8
 71
     3
 72
    16
 73
    12
 74
     0
 42
0.00000000297456
 43
0.0000000001
 40
0.0
 40
0.0
 40
0.0
 40
0.0
 40
0.2499999999999998
 40
0.2499999999999998
 40
0.4999999999999997
 40
0.4999999999999997
 40
0.7499999999999996
 40
0.7499999999999996
 40
0.8749999999999998
 40
0.8749999999999998
 40
1.0
 40
1.0
 40
1.0
 40
1.0
 10
281.9806176287519
 20
264.8470161143713
 30
0.0
 10
282.1447887228666
 20
264.6273308683531
 30
0.0
 10
282.323836479162
 20
264.418395362118
 30
0.0
 10
282.7172999859813
 20
264.0251195000253
 30
0.0
 10
282.9267722246605
 20
263.8437004385466
 30
0.0
 10
283.3865342551707
 20
263.5322064876082
 30
0.0
 10
283.6400653430114
 20
263.4017702107974
 30
0.0
 10
284.0442698738013
 20
263.2837531499167
 30
0.0
 10
284.1851044889885
 20
263.2570206882511
 30
0.0
 10
284.4706194461434
 20
263.2305064725913
 30
0.0
 10
284.6142319794798
 20
263.228491374082
 30
0.0
 10
284.7579784840551
 20
263.2282283555352
 30
0.0
  0
ARC
  5
132
330
7D
100
AcDbEntity
  8
$DDT_AUDIT_GENERATED_(D3)
  6
Continuous
 62
     7
100
AcDbCircle
 10
281.5863701298
 20
265.0338651317
 30
0.0
 40
0.2086254016273752
100
AcDbArc
 50
354.2208089311
 51
32.632646908
  0
ARC
  5
133
330
7D
100
AcDbEntity
  8
$DDT_AUDIT_GENERATED_(D3)
  6
Continuous
 62
     7
100
AcDbCircle
 10
292.7085965207
 20
272.9089309717
 30
0.0
 40
13.419538079712
100
AcDbArc
 50
215.3417684204
 51
216.9243115213
  0
ARC
  5
134
330
7D
100
AcDbEntity
  8
$DDT_AUDIT_GENERATED_(D3)
  6
Continuous
 62
     7
100
AcDbCircle
 10
290.3070121573
 20
270.3195521322
 30
0.0
 40
9.908446102334539
100
AcDbArc
 50
156.616588224
 51
180.59525564
  0
ARC
  5
135
330
7D
100
AcDbEntity
  8
$DDT_AUDIT_GENERATED_(D3)
  6
Continuous
 62
     7
100
AcDbCircle
 10
290.3688713527
 20
270.0955932341
 30
0.0
 40
9.970505056995966
100
AcDbArc
 50
179.3045369768
 51
203.7365429298
  0
ARC
  5
136
330
7D
100
AcDbEntity
  8
$DDT_AUDIT_GENERATED_(D3)
  6
Continuous
 62
     7
100
AcDbCircle
 10
287.5281760816
 20
268.9230903977
 30
0.0
 40
6.898502588878256
100
AcDbArc
 50
204.3192173045
 51
213.2584378185
  0
ARC
  5
137
330
7D
100
AcDbEntity
  8
$DDT_AUDIT_GENERATED_(D3)
  6
Continuous
 62
     7
100
AcDbCircle
 10
281.5832812202
 20
265.027223315
 30
0.0
 40
0.2092232595313639
100
AcDbArc
 50
357.5166333714
 51
32.5648595437
  0
LINE
  5
138
330
7D
100
AcDbEntity
  8
$DDT_AUDIT_GENERATED_(D3)
  6
Continuous
 62
     7
100
AcDbLine
 10
300.2752293624
 20
265.2070772037
 30
0.0
 11
300.3351226537
 21
265.2991862083
 31
0.0
  0
LINE
  5
139
330
7D
100
AcDbEntity
  8
$DDT_AUDIT_GENERATED_(D3)
  6
Continuous
 62
     7
100
AcDbLine
 10
281.7564482679
 20
275.2368877758
 30
0.0
 11
281.7055893793
 21
275.1586726451
 31
0.0
  0
ARC
  5
13A
330
7D
100
AcDbEntity
  8
$DDT_AUDIT_GENERATED_(F0)
  6
Continuous
 62
     7
100
AcDbCircle
 10
322.787258787
 20
263.0593387904
 30
0.0
 40
0.2585149068826311
100
AcDbArc
 50
293.5526228383
 51
345.3638238872
  0
ARC
  5
13B
330
7D
100
AcDbEntity
  8
$DDT_AUDIT_GENERATED_(F0)
  6
Continuous
 62
     7
100
AcDbCircle
 10
298.474977651
 20
269.5445744846
 30
0.0
 40
25.42088999447432
100
AcDbArc
 50
359.9369010513
 51
0.0048496383
  0
ARC
  5
13C
330
7D
100
AcDbEntity
  8
$DDT_AUDIT_GENERATED_(F0)
  6
Continuous
 62
     7
100
AcDbCircle
 10
322.7877233072
 20
263.0780709785
 30
0.0
 40
0.2629533555177496
100
AcDbArc
 50
293.1051463979
 51
345.5084388612
  0
ARC
  5
13D
330
7D
100
AcDbEntity
  8
$DDT_AUDIT_GENERATED_(F0)
  6
Continuous
 62
     7
100
AcDbCircle
 10
322.7866008405
 20
276.016494662
 30
0.0
 40
0.2615598381799486
100
AcDbArc
 50
14.5905331156
 51
63.8879690634
  0
ARC
  5
13E
330
7D
100
AcDbEntity
  8
$DDT_AUDIT_GENERATED_(F0)
  6
Continuous
 62
     7
100
AcDbCircle
 10
298.3726177655
 20
269.5229197853
 30
0.0
 40
25.52372339281032
100
AcDbArc
 50
359.9381507658
 51
14.9076432516
  0
ARC
  5
13F
330
7D
100
AcDbEntity
  8
$DDT_AUDIT_GENERATED_(F0)
  6
Continuous
 62
     7
100
AcDbCircle
 10
298.3498638583
 20
269.5696567064
 30
0.0
 40
25.54669089449138
100
AcDbArc
 50
345.1362352985
 51
359.8232451477
  0
LINE
  5
141
330
7D
100
AcDbEntity
  8
$DDT_AUDIT_GENERATED_(140)
  6
Continuous
 62
     7
100
AcDbLine
 10
260.119965458
 20
265.6347561322
 30
0.0
 11
258.999965458
 21
265.6347561322
 31
0.0
  0
LINE
  5
142
330
7D
100
AcDbEntity
  8
$DDT_AUDIT_GENERATED_(140)
  6
Continuous
 62
     7
100
AcDbLine
 10
260.119965458
 20
265.5202284886
 30
0.0
 11
258.999965458
 21
265.5202284886
 31
0.0
  0
LINE
  5
143
330
7D
100
AcDbEntity
  8
$DDT_AUDIT_GENERATED_(140)
  6
Continuous
 62
     7
100
AcDbLine
 10
260.119965458
 20
270.5012019791
 30
0.0
 11
258.999965458
 21
270.5012019791
 31
0.0
  0
LINE
  5
144
330
7D
100
AcDbEntity
  8
$DDT_AUDIT_GENERATED_(140)
  6
Continuous
 62
     7
100
AcDbLine
 10
258.999965458
 20
251.7467100242
 30
0.0
 11
260.119965458
 21
251.7467100242
 31
0.0
  0
LINE
  5
145
330
7D
100
AcDbEntity
  8
$DDT_AUDIT_GENERATED_(140)
  6
Continuous
 62
     7
100
AcDbLine
 10
260.119965458
 20
287.3467100242
 30
0.0
 11
258.999965458
 21
287.3467100242
 31
0.0
  0
ENDBLK
  5
147
330
7D
100
AcDbEntity
  8
0
100
AcDbBlockEnd
  0
BLOCK
  5
1BC
330
148
100
AcDbEntity
  8
0
100
AcDbBlockBegin
  2
SE1
 70
     0
 10
0.0
 20
0.0
 30
0.0
  3
SE1
  1

  0
ARC
  5
14A
330
148
100
AcDbEntity
  8
$DDT_AUDIT_GENERATED_(7F)
  6
Continuous
 62
     7
100
AcDbCircle
 10
398.898079118
 20
281.1193301094
 30
0.0
 40
0.5000000000000491
100
AcDbArc
 50
112.650442375
 51
180.0
  0
ARC
  5
14B
330
148
100
AcDbEntity
  8
$DDT_AUDIT_GENERATED_(7F)
  6
Continuous
 62
     7
100
AcDbCircle
 10
398.898079118
 20
248.4964810014
 30
0.0
 40
0.5000000000000029
100
AcDbArc
 50
180.0
 51
261.8642795887
  0
SPLINE
  5
14C
330
148
100
AcDbEntity
  8
$DDT_AUDIT_GENERATED_(7F)
  6
Continuous
 62
     7
100
AcDbSpline
210
0.0
220
0.0
230
1.0
 70
     8
 71
     3
 72
    16
 73
    12
 74
     0
 42
0.0000000002323396
 43
0.0000000001
 40
0.0
 40
0.0
 40
0.0
 40
0.0
 40
0.125
 40
0.125
 40
0.25
 40
0.25
 40
0.5
 40
0.5
 40
0.75
 40
0.75
 40
1.0
 40
1.0
 40
1.0
 40
1.0
 10
441.7091756858355
 20
248.6388428165356
 30
0.0
 10
439.9699623126485
 20
248.2219965606007
 30
0.0
 10
438.1771432681828
 20
247.9228272338875
 30
0.0
 10
434.6230358563849
 20
247.4904653263271
 30
0.0
 10
432.8399088710034
 20
247.3523258986243
 30
0.0
 10
427.4804555993977
 20
247.0673366780193
 30
0.0
 10
423.8943411168279
 20
247.0387939902817
 30
0.0
 10
416.7200480229196
 20
247.0401823051346
 30
0.0
 10
413.1327442275809
 20
247.0697246792789
 30
0.0
 10
405.9620496653889
 20
247.2942885343715
 30
0.0
 10
402.3831560353194
 20
247.493180817464
 30
0.0
 10
398.82731990618
 20
248.0015131904049
 30
0.0
  0
LINE
  5
14D
330
148
100
AcDbEntity
  8
$DDT_AUDIT_GENERATED_(7F)
  6
Continuous
 62
     7
100
AcDbLine
 10
398.398079118
 20
248.4964810014
 30
0.0
 11
398.398079118
 21
281.1193301094
 31
0.0
  0
SPLINE
  5
14E
330
148
100
AcDbEntity
  8
$DDT_AUDIT_GENERATED_(7F)
  6
Continuous
 62
     7
100
AcDbSpline
210
0.0
220
0.0
230
1.0
 70
     8
 71
     3
 72
    10
 73
     6
 74
     0
 42
0.000000000256583
 43
0.0000000001
 40
0.0
 40
0.0
 40
0.0
 40
0.0
 40
0.5
 40
0.5
 40
1.0
 40
1.0
 40
1.0
 40
1.0
 10
398.7055251407265
 20
281.5807658750193
 30
0.0
 10
404.6914919769366
 20
284.0786687433709
 30
0.0
 10
410.7665582803838
 20
286.3409567118366
 30
0.0
 10
423.2903281132298
 20
289.7555526158132
 30
0.0
 10
429.7182728214128
 20
290.8945168932646
 30
0.0
 10
436.2125033751656
 20
291.0412259808855
 30
0.0
  0
ARC
  5
14F
330
148
100
AcDbEntity
  8
$DDT_AUDIT_GENERATED_(7F)
  6
Continuous
 62
     7
100
AcDbCircle
 10
436.6980791179
 20
269.5467100245
 30
0.0
 40
21.50000000000002
100
AcDbArc
 50
86.9849949376
 51
91.2941305313
  0
ARC
  5
150
330
148
100
AcDbEntity
  8
$DDT_AUDIT_GENERATED_(7F)
  6
Continuous
 62
     7
100
AcDbCircle
 10
436.6980791179
 20
269.5467100245
 30
0.0
 40
21.50000000000002
100
AcDbArc
 50
283.4781340726
 51
306.8279571059
  0
LINE
  5
151
330
148
100
AcDbEntity
  8
$DDT_AUDIT_GENERATED_(8F)
  6
Continuous
 62
     7
100
AcDbLine
 10
426.698079118
 20
243.0467100242
 30
0.0
 11
444.698079118
 21
243.0467100242
 31
0.0
  0
LINE
  5
152
330
148
100
AcDbEntity
  8
$DDT_AUDIT_GENERATED_(8F)
  6
Continuous
 62
     7
100
AcDbLine
 10
446.178079118
 20
241.5667100242
 30
0.0
 11
425.218079118
 21
241.5667100242
 31
0.0
  0
LINE
  5
153
330
148
100
AcDbEntity
  8
$DDT_AUDIT_GENERATED_(8F)
  6
Continuous
 62
     7
100
AcDbLine
 10
444.978079118
 20
234.1467100242
 30
0.0
 11
426.418079118
 21
234.1467100242
 31
0.0
  0
LINE
  5
154
330
148
100
AcDbEntity
  8
$DDT_AUDIT_GENERATED_(8F)
  6
Continuous
 62
     7
100
AcDbLine
 10
446.178079118
 20
235.3467100242
 30
0.0
 11
425.218079118
 21
235.3467100242
 31
0.0
  0
LINE
  5
155
330
148
100
AcDbEntity
  8
$DDT_AUDIT_GENERATED_(8F)
  6
Continuous
 62
     7
100
AcDbLine
 10
425.218079118
 20
241.5667100242
 30
0.0
 11
425.218079118
 21
235.3467100242
 31
0.0
  0
LINE
  5
156
330
148
100
AcDbEntity
  8
$DDT_AUDIT_GENERATED_(8F)
  6
Continuous
 62
     7
100
AcDbLine
 10
446.178079118
 20
235.3467100242
 30
0.0
 11
446.178079118
 21
241.5667100242
 31
0.0
  0
LINE
  5
157
330
148
100
AcDbEntity
  8
$DDT_AUDIT_GENERATED_(8F)
  6
Continuous
 62
     7
100
AcDbLine
 10
426.698079118
 20
247.1050292955
 30
0.0
 11
426.698079118
 21
243.0467100242
 31
0.0
  0
LINE
  5
158
330
148
100
AcDbEntity
  8
$DDT_AUDIT_GENERATED_(8F)
  6
Continuous
 62
     7
100
AcDbLine
 10
444.698079118
 20
243.0467100242
 30
0.0
 11
444.698079118
 21
249.5905079811
 31
0.0
  0
LINE
  5
159
330
148
100
AcDbEntity
  8
$DDT_AUDIT_GENERATED_(8F)
  6
Continuous
 62
     7
100
AcDbLine
 10
446.178079118
 20
241.5667100242
 30
0.0
 11
444.698079118
 21
243.0467100242
 31
0.0
  0
LINE
  5
15A
330
148
100
AcDbEntity
  8
$DDT_AUDIT_GENERATED_(8F)
  6
Continuous
 62
     7
100
AcDbLine
 10
426.698079118
 20
243.0467100242
 30
0.0
 11
425.218079118
 21
241.5667100242
 31
0.0
  0
LINE
  5
15B
330
148
100
AcDbEntity
  8
$DDT_AUDIT_GENERATED_(8F)
  6
Continuous
 62
     7
100
AcDbLine
 10
425.218079118
 20
235.3467100242
 30
0.0
 11
426.418079118
 21
234.1467100242
 31
0.0
  0
LINE
  5
15C
330
148
100
AcDbEntity
  8
$DDT_AUDIT_GENERATED_(8F)
  6
Continuous
 62
     7
100
AcDbLine
 10
444.978079118
 20
234.1467100242
 30
0.0
 11
446.178079118
 21
235.3467100242
 31
0.0
  0
LINE
  5
15D
330
148
100
AcDbEntity
  8
$DDT_AUDIT_GENERATED_(8F)
  6
Continuous
 62
     7
100
AcDbLine
 10
445.013079118
 20
242.7317100242
 30
0.0
 11
445.013079118
 21
234.1817100242
 31
0.0
  0
LINE
  5
15E
330
148
100
AcDbEntity
  8
$DDT_AUDIT_GENERATED_(8F)
  6
Continuous
 62
     7
100
AcDbLine
 10
426.383079118
 20
242.7317100242
 30
0.0
 11
426.383079118
 21
234.1817100242
 31
0.0
  0
SPLINE
  5
15F
330
148
100
AcDbEntity
  8
$DDT_AUDIT_GENERATED_(9E)
  6
Continuous
 62
     7
100
AcDbSpline
210
0.0
220
0.0
230
1.0
 70
     8
 71
     3
 72
     9
 73
     5
 74
     0
 42
0.0000001736981994
 43
0.0000000001
 40
0.9083610577082482
 40
0.9083610577082482
 40
0.9083610577082482
 40
0.9083610577082482
 40
0.9193510051142261
 40
1.0
 40
1.0
 40
1.0
 40
1.0
 10
418.8098313251633
 20
281.4473547283189
 30
0.0
 10
418.8093667755724
 20
281.4473547854247
 30
0.0
 10
418.8058138455215
 20
281.4473599468324
 30
0.0
 10
418.8047222130617
 20
281.4473990191807
 30
0.0
 10
418.8046035164396
 20
281.4475149836937
 30
0.0
  0
SPLINE
  5
160
330
148
100
AcDbEntity
  8
$DDT_AUDIT_GENERATED_(9E)
  6
Continuous
 62
     7
100
AcDbSpline
210
0.0
220
0.0
230
1.0
 70
     8
 71
     3
 72
    12
 73
     8
 74
     0
 42
0.0000000913852094
 43
0.0000000001
 40
0.0
 40
0.0
 40
0.0
 40
0.0
 40
0.1182636914109173
 40
0.2500099030770413
 40
0.500012809526338
 40
0.7607804504222356
 40
1.0
 40
1.0
 40
1.0
 40
1.0
 10
454.4168098001976
 20
257.6579605343745
 30
0.0
 10
454.424224350088
 20
257.6465740272156
 30
0.0
 10
454.4130557038856
 20
257.639778800212
 30
0.0
 10
454.3966095488148
 20
257.6364046468399
 30
0.0
 10
454.3808699962312
 20
257.6423230592626
 30
0.0
 10
454.3602284973962
 20
257.6493036080469
 30
0.0
 10
454.3416763551269
 20
257.6502284062699
 30
0.0
 10
454.3328837823624
 20
257.6504884332851
 30
0.0
  0
SPLINE
  5
161
330
148
100
AcDbEntity
  8
$DDT_AUDIT_GENERATED_(9E)
  6
Continuous
 62
     7
100
AcDbSpline
210
0.0
220
0.0
230
1.0
 70
     8
 71
     3
 72
    23
 73
    19
 74
     0
 42
0.0000001127521714
 43
0.0000000001
 40
0.0
 40
0.0
 40
0.0
 40
0.0
 40
0.0234943674768762
 40
0.059446172548849
 40
0.0953979776207851
 40
0.131349782692758
 40
0.2032533928367405
 40
0.347060613124632
 40
0.418964223268541
 40
0.4908678334125235
 40
0.5627714435564325
 40
0.634675053700415
 40
0.6706268587723878
 40
0.7065786638443607
 40
0.7425304689162968
 40
0.7784822739883065
 40
0.922289494276198
 40
1.0
 40
1.0
 40
1.0
 40
1.0
 10
454.4167512925769
 20
281.4401842974675
 30
0.0
 10
454.4028019677684
 20
281.4326979759368
 30
0.0
 10
454.3998707148022
 20
281.4344295862792
 30
0.0
 10
454.395505824728
 20
281.4368124327478
 30
0.0
 10
454.3910303087495
 20
281.4390304468113
 30
0.0
 10
454.3856524458458
 20
281.4414338435252
 30
0.0
 10
454.3777282631237
 20
281.4443975001358
 30
0.0
 10
454.3717952553793
 20
281.4459134569016
 30
0.0
 10
454.3683065710358
 20
281.4466978768526
 30
0.0
 10
454.3663986482796
 20
281.4470373283061
 30
0.0
 10
454.3646857448258
 20
281.4472448211478
 30
0.0
 10
454.3628667168526
 20
281.4473536515248
 30
0.0
 10
454.3608440547088
 20
281.4474297987431
 30
0.0
 10
454.3590295030318
 20
281.4474813905508
 30
0.0
 10
454.3569035610993
 20
281.4475274036881
 30
0.0
 10
454.3520012263497
 20
281.4476081524934
 30
0.0
 10
454.3441263749517
 20
281.4476705231278
 30
0.0
 10
454.3359954771614
 20
281.4477000858307
 30
0.0
 10
454.3329212462719
 20
281.4476021118412
 30
0.0
  0
ARC
  5
162
330
148
100
AcDbEntity
  8
$DDT_AUDIT_GENERATED_(9E)
  6
Continuous
 62
     7
100
AcDbCircle
 10
427.4088726355
 20
678.2614679836
 30
0.0
 40
398.0002004571282
100
AcDbArc
 50
268.6657667828
 51
271.3372662276
  0
ARC
  5
163
330
148
100
AcDbEntity
  8
$DDT_AUDIT_GENERATED_(9E)
  6
Continuous
 62
     7
100
AcDbCircle
 10
1157.108324541
 20
260.7032027809
 30
0.0
 40
720.4138205097668
100
AcDbArc
 50
179.8657290412
 51
180.1573437322
  0
ARC
  5
164
330
148
100
AcDbEntity
  8
$DDT_AUDIT_GENERATED_(9E)
  6
Continuous
 62
     7
100
AcDbCircle
 10
446.4554328252
 20
-366.6463978901
 30
0.0
 40
625.447355397899
100
AcDbArc
 50
89.2232554228
 51
90.8939634363
  0
SPLINE
  5
165
330
148
100
AcDbEntity
  8
$DDT_AUDIT_GENERATED_(9E)
  6
Continuous
 62
     7
100
AcDbSpline
210
0.0
220
0.0
230
1.0
 70
     8
 71
     3
 72
    14
 73
    10
 74
     0
 42
0.000000165181669
 43
0.0000000001
 40
0.0
 40
0.0
 40
0.0
 40
0.0
 40
0.1301678137601338
 40
0.2499852345023594
 40
0.3454734950519138
 40
0.500156225945735
 40
0.750116550049017
 40
0.8490898065826252
 40
1.0
 40
1.0
 40
1.0
 40
1.0
 10
454.9342067418497
 20
258.7434843170294
 30
0.0
 10
454.9353377659949
 20
258.745711177339
 30
0.0
 10
454.93855900272
 20
258.749777348967
 30
0.0
 10
454.9411143326396
 20
258.7496963046251
 30
0.0
 10
454.9418693361168
 20
258.7435357514806
 30
0.0
 10
454.9421203578397
 20
258.732888215014
 30
0.0
 10
454.9428637057854
 20
258.7234854837881
 30
0.0
 10
454.9486716415739
 20
258.7293813631207
 30
0.0
 10
454.9522810581699
 20
258.7340913589532
 30
0.0
 10
454.9446053799326
 20
258.7401817537001
 30
0.0
  0
ARC
  5
166
330
148
100
AcDbEntity
  8
$DDT_AUDIT_GENERATED_(9E)
  6
Continuous
 62
     7
100
AcDbCircle
 10
446.2207301526
 20
710.8219480105
 30
0.0
 40
430.5576196893325
100
AcDbArc
 50
268.7325723374
 51
271.159641466
  0
ARC
  5
167
330
148
100
AcDbEntity
  8
$DDT_AUDIT_GENERATED_(9E)
  6
Continuous
 62
     7
100
AcDbCircle
 10
436.7369485927
 20
269.5908224147
 30
0.0
 40
21.54378993459695
100
AcDbArc
 50
213.6572336766
 51
269.8966264523
  0
ARC
  5
168
330
148
100
AcDbEntity
  8
$DDT_AUDIT_GENERATED_(9E)
  6
Continuous
 62
     7
100
AcDbCircle
 10
435.5985884566
 20
270.3785382414
 30
0.0
 40
20.11368132124775
100
AcDbArc
 50
146.6109775744
 51
150.2175247812
  0
ARC
  5
169
330
148
100
AcDbEntity
  8
$DDT_AUDIT_GENERATED_(9E)
  6
Continuous
 62
     7
100
AcDbCircle
 10
435.7394464881
 20
268.8134903199
 30
0.0
 40
20.28290420705734
100
AcDbArc
 50
209.8261560952
 51
213.3911689722
  0
ARC
  5
16A
330
148
100
AcDbEntity
  8
$DDT_AUDIT_GENERATED_(9E)
  6
Continuous
 62
     7
100
AcDbCircle
 10
436.6839123205
 20
269.5487107839
 30
0.0
 40
21.46859930165914
100
AcDbArc
 50
149.7341104844
 51
158.0654504376
  0
ARC
  5
16B
330
148
100
AcDbEntity
  8
$DDT_AUDIT_GENERATED_(9E)
  6
Continuous
 62
     7
100
AcDbCircle
 10
436.6839123205
 20
269.5487107839
 30
0.0
 40
21.46859930165914
100
AcDbArc
 50
201.2677598401
 51
210.2747436564
  0
ARC
  5
16C
330
148
100
AcDbEntity
  8
$DDT_AUDIT_GENERATED_(9E)
  6
Continuous
 62
     7
100
AcDbCircle
 10
436.7373874251
 20
269.5064791027
 30
0.0
 40
21.54467629426646
100
AcDbArc
 50
90.1045363248
 51
146.3412503844
  0
ARC
  5
16D
330
148
100
AcDbEntity
  8
$DDT_AUDIT_GENERATED_(9E)
  6
Continuous
 62
     7
100
AcDbCircle
 10
436.6667894783
 20
269.5176790532
 30
0.0
 40
21.53346321773107
100
AcDbArc
 50
18.9185756328
 51
89.9167451621
  0
ARC
  5
16E
330
148
100
AcDbEntity
  8
$DDT_AUDIT_GENERATED_(9E)
  6
Continuous
 62
     7
100
AcDbCircle
 10
436.6667835995
 20
269.580513908
 30
0.0
 40
21.53346910511525
100
AcDbArc
 50
270.0832704574
 51
341.0488981243
  0
SPLINE
  5
16F
330
148
100
AcDbEntity
  8
$DDT_AUDIT_GENERATED_(9E)
  6
Continuous
 62
     7
100
AcDbSpline
210
0.0
220
0.0
230
1.0
 70
     8
 71
     3
 72
    31
 73
    27
 74
     0
 42
0.0000000005378921
 43
0.0000000001
 40
0.0
 40
0.0
 40
0.0
 40
0.0
 40
0.0625136525588684
 40
0.1250273115243551
 40
0.250054468264626
 40
0.350080729976093
 40
0.5001071455291839
 40
0.5626255630917114
 40
0.6251328372332653
 40
0.6876152921897395
 40
0.7188822443929335
 40
0.7501021601965128
 40
0.7813268062367643
 40
0.8125455217055664
 40
0.8437677183135763
 40
0.8749952270070935
 40
0.8906127765822655
 40
0.9062363984754065
 40
0.921869854778921
 40
0.9375040467435176
 40
0.9531291302294783
 40
0.9687553284591813
 40
0.9765690091074846
 40
0.9843830226673675
 40
0.99219755961696
 40
1.0
 40
1.0
 40
1.0
 40
1.0
 10
418.1432464120365
 20
258.7253811831242
 30
0.0
 10
418.1411957873302
 20
258.7290190661386
 30
0.0
 10
418.1407479730723
 20
258.7366887274179
 30
0.0
 10
418.1468251068272
 20
258.763954760193
 30
0.0
 10
418.1916358446859
 20
258.763931486546
 30
0.0
 10
418.3111581099889
 20
258.766624456395
 30
0.0
 10
418.5508627808368
 20
258.7701736070732
 30
0.0
 10
418.9884654613912
 20
258.7624449273303
 30
0.0
 10
419.4364059014295
 20
258.7396719439352
 30
0.0
 10
420.0246394768587
 20
258.7252988682467
 30
0.0
 10
420.8096173365117
 20
258.7247600950365
 30
0.0
 10
421.6387195187012
 20
258.7273991773446
 30
0.0
 10
422.7734554221901
 20
258.7245352977436
 30
0.0
 10
424.2408596479606
 20
258.722953669946
 30
0.0
 10
425.9956291489904
 20
258.7258698149229
 30
0.0
 10
427.6241427496252
 20
258.7279279521169
 30
0.0
 10
428.9948583244066
 20
258.7253113639151
 30
0.0
 10
430.0533341896653
 20
258.7234095453043
 30
0.0
 10
431.1359860735349
 20
258.7234441503307
 30
0.0
 10
432.2356472197409
 20
258.7252359825618
 30
0.0
 10
433.3456080192472
 20
258.726382804656
 30
0.0
 10
434.2750109527788
 20
258.7263310605911
 30
0.0
 10
435.019830287107
 20
258.725818108047
 30
0.0
 10
435.5789887850013
 20
258.7253605408965
 30
0.0
 10
436.1381879511293
 20
258.7252744134246
 30
0.0
 10
436.5109726990828
 20
258.7248946699048
 30
0.0
 10
436.6972205042699
 20
258.724829195441
 30
0.0
  0
ARC
  5
170
330
148
100
AcDbEntity
  8
$DDT_AUDIT_GENERATED_(9E)
  6
Continuous
 62
     7
100
AcDbCircle
 10
1178.2170422249
 20
278.3844668215
 30
0.0
 40
741.5224655821712
100
AcDbArc
 50
179.8466079067
 51
180.1300169319
  0
ARC
  5
171
330
148
100
AcDbEntity
  8
$DDT_AUDIT_GENERATED_(9E)
  6
Continuous
 62
     7
100
AcDbCircle
 10
437.1132319155
 20
276.6649290497
 30
0.0
 40
0.4183729000487401
100
AcDbArc
 50
174.9456443338
 51
181.5532916716
  0
ARC
  5
172
330
148
100
AcDbEntity
  8
$DDT_AUDIT_GENERATED_(9E)
  6
Continuous
 62
     7
100
AcDbCircle
 10
436.86068258
 20
262.4106326486
 30
0.0
 40
0.1653147739402996
100
AcDbArc
 50
169.8302939551
 51
186.6565933779
  0
SPLINE
  5
173
330
148
100
AcDbEntity
  8
$DDT_AUDIT_GENERATED_(9E)
  6
Continuous
 62
     7
100
AcDbSpline
210
0.0
220
0.0
230
1.0
 70
     8
 71
     3
 72
    16
 73
    12
 74
     0
 42
0.0000000028626717
 43
0.0000000001
 40
0.145638161640226
 40
0.145638161640226
 40
0.145638161640226
 40
0.145638161640226
 40
0.2500000000000002
 40
0.2500000000000002
 40
0.3750000000000002
 40
0.3750000000000002
 40
0.5000000000000003
 40
0.5000000000000003
 40
0.7500000000000001
 40
0.7500000000000001
 40
1.0
 40
1.0
 40
1.0
 40
1.0
 10
455.6043123800347
 20
262.3097914522339
 30
0.0
 10
455.6011861895899
 20
262.3456701574933
 30
0.0
 10
455.6021104339194
 20
262.4004711094273
 30
0.0
 10
455.6123833517328
 20
262.5587048172162
 30
0.0
 10
455.6228704545326
 20
262.6659961154733
 30
0.0
 10
455.6496963608263
 20
262.9099327983496
 30
0.0
 10
455.6661656909475
 20
263.0475095783848
 30
0.0
 10
455.7195002383689
 20
263.483591501319
 30
0.0
 10
455.7603124235031
 20
263.8070830619905
 30
0.0
 10
455.8440111766694
 20
264.5062590930791
 30
0.0
 10
455.8873874768432
 20
264.8836711439881
 30
0.0
 10
455.9278833390293
 20
265.2754641513989
 30
0.0
  0
ARC
  5
174
330
148
100
AcDbEntity
  8
$DDT_AUDIT_GENERATED_(9E)
  6
Continuous
 62
     7
100
AcDbCircle
 10
415.1152153698
 20
269.6123186599
 30
0.0
 40
41.0424435650965
100
AcDbArc
 50
353.9343716043
 51
359.9117596738
  0
ARC
  5
175
330
148
100
AcDbEntity
  8
$DDT_AUDIT_GENERATED_(9E)
  6
Continuous
 62
     7
100
AcDbCircle
 10
414.8276052019
 20
269.4703832696
 30
0.0
 40
41.33008003981298
100
AcDbArc
 50
0.1091385347
 51
6.0450658265
  0
SPLINE
  5
176
330
148
100
AcDbEntity
  8
$DDT_AUDIT_GENERATED_(9E)
  6
Continuous
 62
     7
100
AcDbSpline
210
0.0
220
0.0
230
1.0
 70
     8
 71
     3
 72
    16
 73
    12
 74
     0
 42
0.0000000027909473
 43
0.0000000001
 40
0.0
 40
0.0
 40
0.0
 40
0.0
 40
0.25
 40
0.25
 40
0.5
 40
0.5
 40
0.625
 40
0.625
 40
0.75
 40
0.75
 40
0.8209840798085491
 40
0.8209840798085491
 40
0.8209840798085491
 40
0.8209840798085491
 10
455.9278640078892
 20
273.8228816533222
 30
0.0
 10
455.8874451102087
 20
274.2140654886834
 30
0.0
 10
455.84473033488
 20
274.5853247837343
 30
0.0
 10
455.7614245557702
 20
275.2811019014077
 30
0.0
 10
455.7198635782777
 20
275.6106144372901
 30
0.0
 10
455.6664893243405
 20
276.0468713955919
 30
0.0
 10
455.6502143308561
 20
276.1826879295116
 30
0.0
 10
455.6231572088087
 20
276.4282440247608
 30
0.0
 10
455.6125722992293
 20
276.5364858770911
 30
0.0
 10
455.603711767531
 20
276.6709846832499
 30
0.0
 10
455.6021669239231
 20
276.7125849814784
 30
0.0
 10
455.6024688911494
 20
276.7458177201992
 30
0.0
  0
LINE
  5
177
330
148
100
AcDbEntity
  8
$DDT_AUDIT_GENERATED_(9E)
  6
Continuous
 62
     7
100
AcDbLine
 10
455.7229881896
 20
276.5999839939
 30
0.0
 11
455.6906081287
 21
276.5999840446
 31
0.0
  0
LINE
  5
178
330
148
100
AcDbEntity
  8
$DDT_AUDIT_GENERATED_(9E)
  6
Continuous
 62
     7
100
AcDbLine
 10
455.6906030085
 20
276.5999840446
 30
0.0
 11
455.6125836896
 21
276.5999840286
 31
0.0
  0
ARC
  5
179
330
148
100
AcDbEntity
  8
$DDT_AUDIT_GENERATED_(9E)
  6
Continuous
 62
     7
100
AcDbCircle
 10
437.9033667887
 20
268.5723963442
 30
0.0
 40
19.09002341279399
100
AcDbArc
 50
340.7393993161
 51
341.7483549933
  0
ARC
  5
17A
330
148
100
AcDbEntity
  8
$DDT_AUDIT_GENERATED_(9E)
  6
Continuous
 62
     7
100
AcDbCircle
 10
438.0653443708
 20
270.5542623589
 30
0.0
 40
18.92800990432533
100
AcDbArc
 50
18.3124781819
 51
19.2868853346
  0
LINE
  5
17B
330
148
100
AcDbEntity
  8
$DDT_AUDIT_GENERATED_(9E)
  6
Continuous
 62
     7
100
AcDbLine
 10
455.616493043
 20
262.4982027982
 30
0.0
 11
455.6906080807
 21
262.4982028506
 31
0.0
  0
LINE
  5
17C
330
148
100
AcDbEntity
  8
$DDT_AUDIT_GENERATED_(9E)
  6
Continuous
 62
     7
100
AcDbLine
 10
455.6906124507
 20
262.4982028506
 30
0.0
 11
455.7227299629
 21
262.4982029012
 31
0.0
  0
ARC
  5
17D
330
148
100
AcDbEntity
  8
$DDT_AUDIT_GENERATED_(9E)
  6
Continuous
 62
     7
100
AcDbCircle
 10
436.6963547522
 20
269.5467048072
 30
0.0
 40
7.106883646638513
100
AcDbArc
 50
90.0108192483
 51
270.0129822388
  0
ARC
  5
17E
330
148
100
AcDbEntity
  8
$DDT_AUDIT_GENERATED_(9E)
  6
Continuous
 62
     7
100
AcDbCircle
 10
436.698596346
 20
269.5467052728
 30
0.0
 40
7.106883957839363
100
AcDbArc
 50
269.9949104832
 51
90.0288910039
  0
ELLIPSE
  5
17F
330
148
100
AcDbEntity
  8
$DDT_AUDIT_GENERATED_(9E)
  6
Continuous
 62
     7
100
AcDbEllipse
 10
430.896780523
 20
266.0963409756
 30
0.0
 11
0.1942950815207534
 21
0.2285813231582175
 31
0.0
210
0.0
220
0.0
230
1.0
 40
0.9996370094
 41
1.216060698538864
 42
1.579455151961679
  0
ELLIPSE
  5
180
330
148
100
AcDbEntity
  8
$DDT_AUDIT_GENERATED_(9E)
  6
Continuous
 62
     7
100
AcDbEllipse
 10
430.896780523
 20
272.9970790728
 30
0.0
 11
-0.1942950812902642
 21
0.2285813233543046
 31
0.0
210
0.0
220
0.0
230
1.0
 40
0.9996370094
 41
1.231614286785765
 42
2.002062202032719
  0
ARC
  5
181
330
148
100
AcDbEntity
  8
$DDT_AUDIT_GENERATED_(9E)
  6
Continuous
 62
     7
100
AcDbCircle
 10
425.0203954104
 20
277.1099201838
 30
0.0
 40
7.574897563525063
100
AcDbArc
 50
145.0678229419
 51
147.9293343157
  0
ARC
  5
182
330
148
100
AcDbEntity
  8
$DDT_AUDIT_GENERATED_(9E)
  6
Continuous
 62
     7
100
AcDbCircle
 10
426.8748083231
 20
263.2183210376
 30
0.0
 40
9.79955994262287
100
AcDbArc
 50
211.7643491641
 51
214.6200110701
  0
SPLINE
  5
183
330
148
100
AcDbEntity
  8
$DDT_AUDIT_GENERATED_(9E)
  6
Continuous
 62
     7
100
AcDbSpline
210
0.0
220
0.0
230
1.0
 70
     8
 71
     3
 72
    18
 73
    14
 74
     0
 42
0.0000000004650678
 43
0.0000000001
 40
0.0
 40
0.0
 40
0.0
 40
0.0
 40
0.0157238890024418
 40
0.0307843261069218
 40
0.0455107314482387
 40
0.060321265556398
 40
0.0756443142810625
 40
0.0918610526585473
 40
0.1092790544289584
 40
0.1272210256992061
 40
0.1614056505587618
 40
0.1934096759928793
 40
0.2025820726302126
 40
0.2025820726302126
 40
0.2025820726302126
 40
0.2025820726302126
 10
413.8938214584417
 20
265.0502060911687
 30
0.0
 10
414.1345885722873
 20
264.834003820651
 30
0.0
 10
414.5297426765678
 20
264.477223381132
 30
0.0
 10
415.074934221225
 20
263.9125018494988
 30
0.0
 10
415.5042908197068
 20
263.4178908789078
 30
0.0
 10
415.8407458970067
 20
262.9883366908046
 30
0.0
 10
416.092236372605
 20
262.6362508007913
 30
0.0
 10
416.2736085340913
 20
262.3605466197378
 30
0.0
 10
416.3913549133221
 20
262.1683920557751
 30
0.0
 10
416.4993051741018
 20
261.9823653368427
 30
0.0
 10
416.5960595037952
 20
261.804068154918
 30
0.0
 10
416.6446287102958
 20
261.726173099821
 30
0.0
 10
416.6574328445689
 20
261.7192587442937
 30
0.0
 10
416.6593515708983
 20
261.7200873810989
 30
0.0
  0
SPLINE
  5
184
330
148
100
AcDbEntity
  8
$DDT_AUDIT_GENERATED_(9E)
  6
Continuous
 62
     7
100
AcDbSpline
210
0.0
220
0.0
230
1.0
 70
     8
 71
     3
 72
    47
 73
    43
 74
     0
 42
0.0000000002348077
 43
0.0000000001
 40
0.5661520957118962
 40
0.5661520957118962
 40
0.5661520957118962
 40
0.5661520957118962
 40
0.5784935464440482
 40
0.5951653088443696
 40
0.6107984455914133
 40
0.6251590684508559
 40
0.6382599321456683
 40
0.6528870257025823
 40
0.6657339662834241
 40
0.6776258904223756
 40
0.6887241543168647
 40
0.6990666020884883
 40
0.7089602761966817
 40
0.7193285574208559
 40
0.7305645126858904
 40
0.7429624902543434
 40
0.7565139086517888
 40
0.7714324334488992
 40
0.7879664175079506
 40
0.7983878886202166
 40
0.8094170200059069
 40
0.8208499987763281
 40
0.8324159270204216
 40
0.8437782037661661
 40
0.8544930054652516
 40
0.863459608934067
 40
0.8697981419578554
 40
0.8749821526042215
 40
0.879302778805471
 40
0.8831260591646337
 40
0.88745970212388
 40
0.8930544359594342
 40
0.8999866094736367
 40
0.9073457060043725
 40
0.9148509160772491
 40
0.9221903330249915
 40
0.9301386233424216
 40
0.9399336074550565
 40
0.951773809108857
 40
0.965756798152587
 40
0.9818730367509299
 40
1.0
 40
1.0
 40
1.0
 40
1.0
 10
416.7597674889723
 20
277.6013233585828
 30
0.0
 10
416.7584791414001
 20
277.6018783939333
 30
0.0
 10
416.7441165440612
 20
277.5779068403969
 30
0.0
 10
416.6809707977792
 20
277.4564586075302
 30
0.0
 10
416.6211524939503
 20
277.3440965077352
 30
0.0
 10
416.5631952916747
 20
277.2373575760132
 30
0.0
 10
416.5030078295555
 20
277.1300956664132
 30
0.0
 10
416.4374314939388
 20
277.0176827161844
 30
0.0
 10
416.3594056135136
 20
276.8897522021593
 30
0.0
 10
416.2707537133541
 20
276.7504021193092
 30
0.0
 10
416.1677059930001
 20
276.5950030969531
 30
0.0
 10
416.0496171709352
 20
276.4241914095335
 30
0.0
 10
415.9009617962185
 20
276.2176339515827
 30
0.0
 10
415.6702871841481
 20
275.9146931841121
 30
0.0
 10
415.3550410393295
 20
275.5309776638132
 30
0.0
 10
414.9495315326083
 20
275.0782000704362
 30
0.0
 10
414.4230473825149
 20
274.5454049484799
 30
0.0
 10
413.770618327214
 20
273.9522794991603
 30
0.0
 10
413.1165257970401
 20
273.417505709074
 30
0.0
 10
412.5050695111742
 20
272.952538667519
 30
0.0
 10
411.9654789095173
 20
272.5605452647522
 30
0.0
 10
411.4001487503971
 20
272.1628296951214
 30
0.0
 10
410.8266595909228
 20
271.7634829904159
 30
0.0
 10
410.2689143009537
 20
271.3661234653094
 30
0.0
 10
409.7667688261988
 20
270.9813788720106
 30
0.0
 10
409.3693410191622
 20
270.629840152678
 30
0.0
 10
409.0893213388398
 20
270.3196960496623
 30
0.0
 10
408.9104429341186
 20
270.050049962117
 30
0.0
 10
408.8078454206174
 20
269.7972983741518
 30
0.0
 10
408.7708724534519
 20
269.5442097163276
 30
0.0
 10
408.8104752870559
 20
269.2611866918951
 30
0.0
 10
408.9558549604676
 20
268.9494063080771
 30
0.0
 10
409.2030204874948
 20
268.6321358325018
 30
0.0
 10
409.5205372036045
 20
268.32271098051
 30
0.0
 10
409.8683740301947
 20
268.033588841714
 30
0.0
 10
410.2390827848877
 20
267.7522946465255
 30
0.0
 10
410.65479649437
 20
267.4543122835732
 30
0.0
 10
411.1414965741677
 20
267.1167259582882
 30
0.0
 10
411.720613092985
 20
266.7173321319371
 30
0.0
 10
412.3841388463505
 20
266.2481681333104
 30
0.0
 10
413.1431349028143
 20
265.6825832844218
 30
0.0
 10
413.6044648560468
 20
265.2946241898419
 30
0.0
 10
413.8938214584417
 20
265.0502060911687
 30
0.0
  0
SPLINE
  5
185
330
148
100
AcDbEntity
  8
$DDT_AUDIT_GENERATED_(9E)
  6
Continuous
 62
     7
100
AcDbSpline
210
0.0
220
0.0
230
1.0
 70
     8
 71
     3
 72
    10
 73
     6
 74
     0
 42
0.0000000946975906
 43
0.0000000001
 40
0.0
 40
0.0
 40
0.0
 40
0.0
 40
0.0264468083995559
 40
0.2921777242495177
 40
0.3579742725895216
 40
0.3579742725895216
 40
0.3579742725895216
 40
0.3579742725895216
 10
455.6082869511531
 20
276.6977881116848
 30
0.0
 10
455.6082346783708
 20
276.7002309621981
 30
0.0
 10
455.6077164099767
 20
276.7233435140005
 30
0.0
 10
455.6097222723596
 20
276.7335729763312
 30
0.0
 10
455.6102926827752
 20
276.7352435265202
 30
0.0
 10
455.6103022796017
 20
276.7351939006763
 30
0.0
  0
SPLINE
  5
186
330
148
100
AcDbEntity
  8
$DDT_AUDIT_GENERATED_(9E)
  6
Continuous
 62
     7
100
AcDbSpline
210
0.0
220
0.0
230
1.0
 70
     8
 71
     3
 72
     9
 73
     5
 74
     0
 42
0.0000001545515652
 43
0.0000000001
 40
0.7675021191972897
 40
0.7675021191972897
 40
0.7675021191972897
 40
0.7675021191972897
 40
0.8889580157167672
 40
1.0
 40
1.0
 40
1.0
 40
1.0
 10
455.6103809976797
 20
262.359663665083
 30
0.0
 10
455.6103894447884
 20
262.3594910997506
 30
0.0
 10
455.6100471133315
 20
262.361597571627
 30
0.0
 10
455.6096662133608
 20
262.3696524300364
 30
0.0
 10
455.6093803928954
 20
262.3743163270857
 30
0.0
  0
ARC
  5
187
330
148
100
AcDbEntity
  8
$DDT_AUDIT_GENERATED_(9E)
  6
Continuous
 62
     7
100
AcDbCircle
 10
430.8786560157
 20
273.0002260077
 30
0.0
 40
0.2818614934390632
100
AcDbArc
 50
155.2772431428
 51
202.8087803531
  0
LINE
  5
188
330
148
100
AcDbEntity
  8
$DDT_AUDIT_GENERATED_(D3)
  6
Continuous
 62
     7
100
AcDbLine
 10
455.6177997019
 20
262.5958183182
 30
0.0
 11
456.7685069487
 21
262.5958183182
 31
0.0
  0
LINE
  5
189
330
148
100
AcDbEntity
  8
$DDT_AUDIT_GENERATED_(D3)
  6
Continuous
 62
     7
100
AcDbLine
 10
455.6179228687
 20
276.4975994108
 30
0.0
 11
456.7155130363
 21
276.4975994108
 31
0.0
  0
SPLINE
  5
18A
330
148
100
AcDbEntity
  8
$DDT_AUDIT_GENERATED_(D3)
  6
Continuous
 62
     7
100
AcDbSpline
210
0.0
220
0.0
230
1.0
 70
    11
 71
     5
 72
    90
 73
    84
 74
     0
 42
0.0000000003721144
 43
0.0000000001
 40
0.0
 40
0.0
 40
0.0
 40
0.0
 40
0.0
 40
0.0
 40
0.0029633526909103
 40
0.0070581807407832
 40
0.0113118627504885
 40
0.0209827752370866
 40
0.0294197557052849
 40
0.0541504042528234
 40
0.0668019195143923
 40
0.0716672929971858
 40
0.0732806736514613
 40
0.0749168868358079
 40
0.0749168868358079
 40
0.0749168868358079
 40
0.0749168868358079
 40
0.0749168868358079
 40
0.0854778425654559
 40
0.0968709675542429
 40
0.1210593115285309
 40
0.1368847659100658
 40
0.1475066261641759
 40
0.1654693136780479
 40
0.1860582584007319
 40
0.1973698609181579
 40
0.2107414266568309
 40
0.22053985589106
 40
0.2365524973424779
 40
0.25751422875214
 40
0.2660255571432978
 40
0.2723623740010578
 40
0.2786459254776629
 40
0.281724611407249
 40
0.2857258604068899
 40
0.290766182232502
 40
0.302879546778102
 40
0.3184421970468019
 40
0.3558107103473599
 40
0.447662371197514
 40
0.4746125758232149
 40
0.484362793709021
 40
0.4903141239902138
 40
0.4923194139714219
 40
0.4983294728860719
 40
0.502292253292397
 40
0.508289792608445
 40
0.514508416742569
 40
0.526893328829428
 40
0.5350411943091901
 40
0.55083337262263
 40
0.5604587721184721
 40
0.568074993461293
 40
0.571903094206448
 40
0.581505740342835
 40
0.6047020715523289
 40
0.6284729938747474
 40
0.6404471989866615
 40
0.6524743663567735
 40
0.6762715350423539
 40
0.69387927896099
 40
0.708410593007636
 40
0.713277470848953
 40
0.7191538510743559
 40
0.7309282975754424
 40
0.751411332582135
 40
0.759946084426119
 40
0.7663828554991595
 40
0.7770403696464715
 40
0.7853787012377995
 40
0.7884103824277254
 40
0.7935616161960285
 40
0.797727898894285
 40
0.8139953172633
 40
0.825722844539403
 40
0.8746037865488064
 40
0.933959129250415
 40
0.9640627687715204
 40
0.9756412206062655
 40
0.9875366882925221
 40
0.9916198384781116
 40
0.9978335575790434
 40
1.0
 40
1.0
 40
1.0
 40
1.0
 40
1.0
 40
1.0
 10
457.65778588237
 20
276.0149397522729
 30
0.0
 10
457.659007664708
 20
276.0131718737162
 30
0.0
 10
457.6621008068998
 20
276.0082533799502
 30
0.0
 10
457.6677808469333
 20
275.997554635479
 30
0.0
 10
457.6806371573564
 20
275.9686431358987
 30
0.0
 10
457.7103425223929
 20
275.8891072180362
 30
0.0
 10
457.7800789242284
 20
275.6879860602509
 30
0.0
 10
457.900679675363
 20
275.30638408928
 30
0.0
 10
458.0282098366202
 20
274.8555092893784
 30
0.0
 10
458.1457302867474
 20
274.3972874959479
 30
0.0
 10
458.2589857457648
 20
273.8863214970065
 30
0.0
 10
458.3124696211759
 20
273.6218064606949
 30
0.0
 10
458.3320904357494
 20
273.5217794738026
 30
0.0
 10
458.339765507701
 20
273.4821492920539
 30
0.0
 10
458.3435864304844
 20
273.4622906889932
 30
0.0
 10
458.368248617996
 20
273.3341131203342
 30
0.0
 10
458.4157423652814
 20
273.0759472361849
 30
0.0
 10
458.5053230503385
 20
272.5401225385311
 30
0.0
 10
458.5966596408825
 20
271.8535715171617
 30
0.0
 10
458.6695827131323
 20
271.0738174015748
 30
0.0
 10
458.7191429936074
 20
270.163580214808
 30
0.0
 10
458.7263958310737
 20
269.0941132981143
 30
0.0
 10
458.6922348768419
 20
268.1691435690776
 30
0.0
 10
458.6197587274308
 20
267.2770564433929
 30
0.0
 10
458.5119931367532
 20
266.4295861069388
 30
0.0
 10
458.3838938093169
 20
265.656569690587
 30
0.0
 10
458.2379387150091
 20
264.9296169565643
 30
0.0
 10
458.0941186104344
 20
264.3337637419425
 30
0.0
 10
457.9627772638825
 20
263.8519412350767
 30
0.0
 10
457.8532975265862
 20
263.4919730584319
 30
0.0
 10
457.7835582890786
 20
263.2771360929889
 30
0.0
 10
457.7478408677032
 20
263.1739596337962
 30
0.0
 10
457.7247376393278
 20
263.1124389488259
 30
0.0
 10
457.7075273412926
 20
263.0746899424304
 30
0.0
 10
457.6970772482357
 20
263.0737825029536
 30
0.0
 10
457.6761512187814
 20
263.0715037342986
 30
0.0
 10
457.6310013710856
 20
263.074458291488
 30
0.0
 10
457.5741912140925
 20
263.0732767731993
 30
0.0
 10
457.5255572292224
 20
263.0731946040758
 30
0.0
 10
457.4760386718659
 20
263.0720979037825
 30
0.0
 10
457.4379272036307
 20
263.0735010834293
 30
0.0
 10
457.4239575923638
 20
263.0736336350727
 30
0.0
 10
457.4156414580514
 20
263.0708642841046
 30
0.0
 10
457.4114115387707
 20
263.0772920725197
 30
0.0
 10
457.4110493786462
 20
263.0936607163934
 30
0.0
 10
457.4254114075003
 20
263.1640866971634
 30
0.0
 10
457.4608952180915
 20
263.3093805670569
 30
0.0
 10
457.5238722227699
 20
263.5614822176203
 30
0.0
 10
457.6148846765868
 20
263.9352688717746
 30
0.0
 10
457.7151122562288
 20
264.3771182748932
 30
0.0
 10
457.8017469226153
 20
264.7947699558684
 30
0.0
 10
457.8879410827241
 20
265.2522262822433
 30
0.0
 10
457.9849780778414
 20
265.8172415377235
 30
0.0
 10
458.0931747527819
 20
266.5605104347139
 30
0.0
 10
458.1821322516263
 20
267.3712182575954
 30
0.0
 10
458.2438873321833
 20
268.2946007529602
 30
0.0
 10
458.269716282193
 20
269.3739284405168
 30
0.0
 10
458.2520004921491
 20
270.3995029194945
 30
0.0
 10
458.1999036234628
 20
271.3100015714724
 30
0.0
 10
458.1186176718174
 20
272.1377221953496
 30
0.0
 10
458.01862846476
 20
272.8721181199538
 30
0.0
 10
457.9259433091433
 20
273.4503261220904
 30
0.0
 10
457.8188165795453
 20
274.0393077484006
 30
0.0
 10
457.7204539194341
 20
274.5158683361829
 30
0.0
 10
457.6206177850313
 20
274.9566153466755
 30
0.0
 10
457.5179324508841
 20
275.3745242008188
 30
0.0
 10
457.4372939694913
 20
275.6904893919308
 30
0.0
 10
457.3946011811732
 20
275.8563515353699
 30
0.0
 10
457.369080891166
 20
275.9621752058521
 30
0.0
 10
457.3597310187072
 20
276.0117201461766
 30
0.0
 10
457.3655765096273
 20
276.0202588880862
 30
0.0
 10
457.3750406150015
 20
276.0242993710004
 30
0.0
 10
457.3996960389914
 20
276.0194855514649
 30
0.0
 10
457.4388899851896
 20
276.0227709358361
 30
0.0
 10
457.4884451926998
 20
276.0207250451253
 30
0.0
 10
457.535687746586
 20
276.0215233685325
 30
0.0
 10
457.583458143527
 20
276.0207167059683
 30
0.0
 10
457.6160918451656
 20
276.0232368253772
 30
0.0
 10
457.6349742285324
 20
276.0191922327745
 30
0.0
 10
457.6440815960358
 20
276.0211747935138
 30
0.0
 10
457.6495854834936
 20
276.023714579562
 30
0.0
 10
457.6535964549049
 20
276.020617344381
 30
0.0
 10
457.6568926639913
 20
276.0162322096682
 30
0.0
 10
457.65778588237
 20
276.0149397522729
 30
0.0
  0
LINE
  5
18B
330
148
100
AcDbEntity
  8
$DDT_AUDIT_GENERATED_(D3)
  6
Continuous
 62
     7
100
AcDbLine
 10
456.9350094262
 20
276.4975996864
 30
0.0
 11
456.7155006637
 21
276.4975998624
 31
0.0
  0
LINE
  5
18C
330
148
100
AcDbEntity
  8
$DDT_AUDIT_GENERATED_(D3)
  6
Continuous
 62
     7
100
AcDbLine
 10
456.7684664821
 20
262.5958183182
 30
0.0
 11
457.0128826044
 21
262.5958185136
 31
0.0
  0
SPLINE
  5
18D
330
148
100
AcDbEntity
  8
$DDT_AUDIT_GENERATED_(D3)
  6
Continuous
 62
     7
100
AcDbSpline
210
0.0
220
0.0
230
1.0
 70
     8
 71
     3
 72
    18
 73
    14
 74
     0
 42
0.0000000017681405
 43
0.0000000001
 40
0.8238261244276011
 40
0.8238261244276011
 40
0.8238261244276011
 40
0.8238261244276011
 40
0.8267740524229907
 40
0.8414444297782325
 40
0.8569530333014288
 40
0.874509871683009
 40
0.9000707738234642
 40
0.9256011467302238
 40
0.9482979352111819
 40
0.9634319486641904
 40
0.9770137940192405
 40
0.9891452972125541
 40
1.0
 40
1.0
 40
1.0
 40
1.0
 10
457.6797036019038
 20
275.9690578111098
 30
0.0
 10
457.6759267408326
 20
275.9795248065955
 30
0.0
 10
457.6537251497314
 20
276.040564204798
 30
0.0
 10
457.616531200087
 20
276.1372629168595
 30
0.0
 10
457.582478160887
 20
276.2088535002293
 30
0.0
 10
457.5600839528365
 20
276.2311112164728
 30
0.0
 10
457.5374203558072
 20
276.2461240987199
 30
0.0
 10
457.5027079317764
 20
276.2789675398616
 30
0.0
 10
457.4397540460937
 20
276.3397208811106
 30
0.0
 10
457.3494943310465
 20
276.4050088918231
 30
0.0
 10
457.2411477798049
 20
276.4588974558442
 30
0.0
 10
457.1025909946572
 20
276.4949367375724
 30
0.0
 10
456.9951984264027
 20
276.496855710751
 30
0.0
 10
456.9348015486555
 20
276.497613859842
 30
0.0
  0
ARC
  5
18E
330
148
100
AcDbEntity
  8
$DDT_AUDIT_GENERATED_(F0)
  6
Continuous
 62
     7
100
AcDbCircle
 10
436.6980663358
 20
269.546757797
 30
0.0
 40
6.749952227327942
100
AcDbArc
 50
89.9993978144
 51
165.7080390815
  0
ARC
  5
18F
330
148
100
AcDbEntity
  8
$DDT_AUDIT_GENERATED_(F0)
  6
Continuous
 62
     7
100
AcDbCircle
 10
444.1333499989
 20
269.5469480496
 30
0.0
 40
14.07528670352725
100
AcDbArc
 50
173.2018294594
 51
186.7982802943
  0
ARC
  5
190
330
148
100
AcDbEntity
  8
$DDT_AUDIT_GENERATED_(F0)
  6
Continuous
 62
     7
100
AcDbCircle
 10
436.6979456962
 20
269.5463557006
 30
0.0
 40
6.749645678898877
100
AcDbArc
 50
194.2860029724
 51
270.0016366958
  0
ARC
  5
191
330
148
100
AcDbEntity
  8
$DDT_AUDIT_GENERATED_(F0)
  6
Continuous
 62
     7
100
AcDbCircle
 10
436.698079118
 20
269.5467100242
 30
0.0
 40
6.750000000000001
100
AcDbArc
 50
270.0005040905
 51
89.9995063174
  0
ARC
  5
192
330
148
100
AcDbEntity
  8
$DDT_AUDIT_GENERATED_(F0)
  6
Continuous
 62
     7
100
AcDbCircle
 10
441.0435974137
 20
269.5344703205
 30
0.0
 40
11.02623283463161
100
AcDbArc
 50
172.6006231823
 51
185.5926290548
  0
ARC
  5
193
330
148
100
AcDbEntity
  8
$DDT_AUDIT_GENERATED_(9E)
  6
Continuous
 62
     7
100
AcDbCircle
 10
436.7384644146
 20
269.5039810312
 30
0.0
 40
21.54378993459695
100
AcDbArc
 50
92.1033735477
 51
93.0668000472
  0
ARC
  5
194
330
148
100
AcDbEntity
  8
$DDT_AUDIT_GENERATED_(9E)
  6
Continuous
 62
     7
100
AcDbCircle
 10
436.6679824024
 20
269.5118345353
 30
0.0
 40
21.53346910511524
100
AcDbArc
 50
91.1675986075
 51
91.9167295426
  0
LINE
  5
195
330
148
100
AcDbEntity
  8
$DDT_AUDIT_GENERATED_(D3)
  6
Continuous
 62
     7
100
AcDbLine
 10
456.7884978824
 20
277.2034112637
 30
0.0
 11
456.7959225643
 21
277.2036705393
 31
0.0
  0
SPLINE
  5
196
330
148
100
AcDbEntity
  8
$DDT_AUDIT_GENERATED_(D3)
  6
Continuous
 62
     7
100
AcDbSpline
210
0.0
220
0.0
230
1.0
 70
     8
 71
     3
 72
    46
 73
    42
 74
     0
 42
0.0000000006700529
 43
0.0000000001
 40
0.5102238586189666
 40
0.5102238586189666
 40
0.5102238586189666
 40
0.5102238586189666
 40
0.5277654720109188
 40
0.5699683436633919
 40
0.6125882268919364
 40
0.6540903818957036
 40
0.6939774625794024
 40
0.7318069940881379
 40
0.7676492003024634
 40
0.8016094259496851
 40
0.8179259875423169
 40
0.8339117369629512
 40
0.8550946959315884
 40
0.8766632823687303
 40
0.8945059668748852
 40
0.9045579665182801
 40
0.9115962566772082
 40
0.9155932088968032
 40
0.9161415449271059
 40
0.9165378216204892
 40
0.9166964082664785
 40
0.9168442602975577
 40
0.916997448289962
 40
0.9171705591083811
 40
0.9176127544890623
 40
0.9199582208591909
 40
0.9257193764146413
 40
0.9297426447441716
 40
0.9343576787047132
 40
0.9377050062918827
 40
0.9387571059541212
 40
0.9391550663265518
 40
0.939492208784179
 40
0.9398023767551668
 40
0.9401278758218038
 40
0.9405059001843653
 40
0.9409609861714958
 40
0.9437538662555861
 40
0.9547124625316671
 40
0.9733159169841998
 40
1.0
 40
1.0
 40
1.0
 40
1.0
 10
458.6967395941793
 20
270.510129734903
 30
0.0
 10
458.6913963519507
 20
270.6433935610504
 30
0.0
 10
458.6690934443583
 20
271.0969377710726
 30
0.0
 10
458.6071053700906
 20
271.8697803622317
 30
0.0
 10
458.4888472466025
 20
272.8067353377013
 30
0.0
 10
458.3349433240564
 20
273.6991725975468
 30
0.0
 10
458.1564037320229
 20
274.5198438859567
 30
0.0
 10
457.9655223210267
 20
275.2522440141004
 30
0.0
 10
457.7746152739677
 20
275.8853174503586
 30
0.0
 10
457.622555874339
 20
276.3317536747402
 30
0.0
 10
457.5146475054579
 20
276.62291016534
 30
0.0
 10
457.436289822666
 20
276.8211490850997
 30
0.0
 10
457.3727730870658
 20
276.9617777777497
 30
0.0
 10
457.3481546115138
 20
276.9846850785463
 30
0.0
 10
457.3251007840429
 20
277.0023753336111
 30
0.0
 10
457.3040628521754
 20
277.019716072874
 30
0.0
 10
457.2847828292959
 20
277.0360902293035
 30
0.0
 10
457.2707920688176
 20
277.0481440629591
 30
0.0
 10
457.2564608953576
 20
277.0604549539032
 30
0.0
 10
457.2518743554931
 20
277.0643854149119
 30
0.0
 10
457.248079203675
 20
277.0676277316502
 30
0.0
 10
457.2453729981825
 20
277.0699346589923
 30
0.0
 10
457.2426896228195
 20
277.07221645161
 30
0.0
 10
457.2388857989828
 20
277.0754421686451
 30
0.0
 10
457.227913238679
 20
277.0846967430487
 30
0.0
 10
457.2130431626898
 20
277.0969404790116
 30
0.0
 10
457.1991189087138
 20
277.1080352782051
 30
0.0
 10
457.1859897604197
 20
277.1180393821626
 30
0.0
 10
457.1778229701367
 20
277.1242542792914
 30
0.0
 10
457.1667593777773
 20
277.1316662458372
 30
0.0
 10
457.1527965033098
 20
277.1395264886627
 30
0.0
 10
457.144633220516
 20
277.1437789142956
 30
0.0
 10
457.1385070662652
 20
277.1468336302657
 30
0.0
 10
457.1317822698907
 20
277.150036443818
 30
0.0
 10
457.1247681286728
 20
277.1532220811521
 30
0.0
 10
457.1176099327194
 20
277.1563242442196
 30
0.0
 10
457.0982443049516
 20
277.1643163188422
 30
0.0
 10
457.0479106323978
 20
277.1815886267912
 30
0.0
 10
456.9739614609431
 20
277.1973725766459
 30
0.0
 10
456.8662450621839
 20
277.2064259219254
 30
0.0
 10
456.801417035625
 20
277.2047675783517
 30
0.0
 10
456.7572768612793
 20
277.2024745019392
 30
0.0
  0
LINE
  5
198
330
148
100
AcDbEntity
  8
$DDT_AUDIT_GENERATED_(197)
  6
Continuous
 62
     7
100
AcDbLine
 10
379.798079118
 20
279.5467100242
 30
0.0
 11
379.798079118
 21
251.5467100242
 31
0.0
  0
LINE
  5
199
330
148
100
AcDbEntity
  8
$DDT_AUDIT_GENERATED_(197)
  6
Continuous
 62
     7
100
AcDbLine
 10
379.798079118
 20
251.5467100242
 30
0.0
 11
380.598079118
 21
251.5467100242
 31
0.0
  0
LINE
  5
19A
330
148
100
AcDbEntity
  8
$DDT_AUDIT_GENERATED_(197)
  6
Continuous
 62
     7
100
AcDbLine
 10
380.598079118
 20
279.5467100242
 30
0.0
 11
379.798079118
 21
279.5467100242
 31
0.0
  0
LINE
  5
19C
330
148
100
AcDbEntity
  8
$DDT_AUDIT_GENERATED_(19B)
  6
Continuous
 62
     7
100
AcDbLine
 10
397.698079118
 20
255.0967100242
 30
0.0
 11
397.698079118
 21
275.9967100242
 31
0.0
  0
LINE
  5
19D
330
148
100
AcDbEntity
  8
$DDT_AUDIT_GENERATED_(19B)
  6
Continuous
 62
     7
100
AcDbLine
 10
398.398079118
 20
275.9967100242
 30
0.0
 11
397.698079118
 21
275.9967100242
 31
0.0
  0
LINE
  5
19E
330
148
100
AcDbEntity
  8
$DDT_AUDIT_GENERATED_(19B)
  6
Continuous
 62
     7
100
AcDbLine
 10
397.698079118
 20
255.0967100242
 30
0.0
 11
398.398079118
 21
255.0967100242
 31
0.0
  0
LINE
  5
19F
330
148
100
AcDbEntity
  8
$DDT_AUDIT_GENERATED_(19B)
  6
Continuous
 62
     7
100
AcDbLine
 10
397.698079118
 20
275.9967100242
 30
0.0
 11
397.598079118
 21
275.9132596494
 31
0.0
  0
LINE
  5
1A0
330
148
100
AcDbEntity
  8
$DDT_AUDIT_GENERATED_(19B)
  6
Continuous
 62
     7
100
AcDbLine
 10
397.598079118
 20
255.180160399
 30
0.0
 11
397.698079118
 21
255.0967100242
 31
0.0
  0
LINE
  5
1A2
330
148
100
AcDbEntity
  8
$DDT_AUDIT_GENERATED_(1A1)
  6
Continuous
 62
     7
100
AcDbLine
 10
397.598079118
 20
251.0467100242
 30
0.0
 11
397.598079118
 21
280.0467100242
 31
0.0
  0
LINE
  5
1A3
330
148
100
AcDbEntity
  8
$DDT_AUDIT_GENERATED_(1A1)
  6
Continuous
 62
     7
100
AcDbLine
 10
380.598079118
 20
251.0467100242
 30
0.0
 11
380.598079118
 21
280.0467100242
 31
0.0
  0
LINE
  5
1A4
330
148
100
AcDbEntity
  8
$DDT_AUDIT_GENERATED_(1A1)
  6
Continuous
 62
     7
100
AcDbLine
 10
384.098079118
 20
280.5467100242
 30
0.0
 11
384.098079118
 21
278.4593687979
 31
0.0
  0
LINE
  5
1A5
330
148
100
AcDbEntity
  8
$DDT_AUDIT_GENERATED_(1A1)
  6
Continuous
 62
     7
100
AcDbLine
 10
384.098079118
 20
267.6340512506
 30
0.0
 11
384.098079118
 21
263.4593687979
 31
0.0
  0
LINE
  5
1A6
330
148
100
AcDbEntity
  8
$DDT_AUDIT_GENERATED_(1A1)
  6
Continuous
 62
     7
100
AcDbLine
 10
384.098079118
 20
252.6340512506
 30
0.0
 11
384.098079118
 21
250.5467100242
 31
0.0
  0
LINE
  5
1A7
330
148
100
AcDbEntity
  8
$DDT_AUDIT_GENERATED_(1A1)
  6
Continuous
 62
     7
100
AcDbLine
 10
384.098079118
 20
250.5467100242
 30
0.0
 11
381.3023503889
 21
250.5467100242
 31
0.0
  0
ARC
  5
1A8
330
148
100
AcDbEntity
  8
$DDT_AUDIT_GENERATED_(1A1)
  6
Continuous
 62
     7
100
AcDbCircle
 10
387.8766386372
 20
258.0467100242
 30
0.0
 40
6.60108983728861
100
AcDbArc
 50
124.9187681796
 51
235.0812318204
  0
ARC
  5
1A9
330
148
100
AcDbEntity
  8
$DDT_AUDIT_GENERATED_(1A1)
  6
Continuous
 62
     7
100
AcDbCircle
 10
387.8766386372
 20
273.0467100242
 30
0.0
 40
6.601089837288618
100
AcDbArc
 50
124.9187681796
 51
235.0812318204
  0
LINE
  5
1AA
330
148
100
AcDbEntity
  8
$DDT_AUDIT_GENERATED_(1A1)
  6
Continuous
 62
     7
100
AcDbLine
 10
384.098079118
 20
280.5467100242
 30
0.0
 11
381.3023503889
 21
280.5467100242
 31
0.0
  0
LINE
  5
1AB
330
148
100
AcDbEntity
  8
$DDT_AUDIT_GENERATED_(1A1)
  6
Continuous
 62
     7
100
AcDbLine
 10
394.098079118
 20
280.5467100242
 30
0.0
 11
394.098079118
 21
278.4593687979
 31
0.0
  0
LINE
  5
1AC
330
148
100
AcDbEntity
  8
$DDT_AUDIT_GENERATED_(1A1)
  6
Continuous
 62
     7
100
AcDbLine
 10
394.098079118
 20
267.6340512506
 30
0.0
 11
394.098079118
 21
263.4593687979
 31
0.0
  0
LINE
  5
1AD
330
148
100
AcDbEntity
  8
$DDT_AUDIT_GENERATED_(1A1)
  6
Continuous
 62
     7
100
AcDbLine
 10
394.098079118
 20
252.6340512506
 30
0.0
 11
394.098079118
 21
250.5467100242
 31
0.0
  0
LINE
  5
1AE
330
148
100
AcDbEntity
  8
$DDT_AUDIT_GENERATED_(1A1)
  6
Continuous
 62
     7
100
AcDbLine
 10
394.098079118
 20
280.5467100242
 30
0.0
 11
396.8938078471
 21
280.5467100242
 31
0.0
  0
LINE
  5
1AF
330
148
100
AcDbEntity
  8
$DDT_AUDIT_GENERATED_(1A1)
  6
Continuous
 62
     7
100
AcDbLine
 10
394.098079118
 20
280.5467100242
 30
0.0
 11
384.098079118
 21
280.5467100242
 31
0.0
  0
LINE
  5
1B0
330
148
100
AcDbEntity
  8
$DDT_AUDIT_GENERATED_(1A1)
  6
Continuous
 62
     7
100
AcDbLine
 10
384.098079118
 20
278.4593687979
 30
0.0
 11
394.098079118
 21
278.4593687979
 31
0.0
  0
ARC
  5
1B1
330
148
100
AcDbEntity
  8
$DDT_AUDIT_GENERATED_(1A1)
  6
Continuous
 62
     7
100
AcDbCircle
 10
390.3195195988
 20
273.0467100242
 30
0.0
 40
6.601089837288603
100
AcDbArc
 50
304.9187681795
 51
55.0812318205
  0
LINE
  5
1B2
330
148
100
AcDbEntity
  8
$DDT_AUDIT_GENERATED_(1A1)
  6
Continuous
 62
     7
100
AcDbLine
 10
394.098079118
 20
267.6340512506
 30
0.0
 11
384.098079118
 21
267.6340512506
 31
0.0
  0
LINE
  5
1B3
330
148
100
AcDbEntity
  8
$DDT_AUDIT_GENERATED_(1A1)
  6
Continuous
 62
     7
100
AcDbLine
 10
384.098079118
 20
263.4593687979
 30
0.0
 11
394.098079118
 21
263.4593687979
 31
0.0
  0
ARC
  5
1B4
330
148
100
AcDbEntity
  8
$DDT_AUDIT_GENERATED_(1A1)
  6
Continuous
 62
     7
100
AcDbCircle
 10
390.3195195988
 20
258.0467100242
 30
0.0
 40
6.601089837288608
100
AcDbArc
 50
304.9187681795
 51
55.0812318205
  0
LINE
  5
1B5
330
148
100
AcDbEntity
  8
$DDT_AUDIT_GENERATED_(1A1)
  6
Continuous
 62
     7
100
AcDbLine
 10
394.098079118
 20
252.6340512506
 30
0.0
 11
384.098079118
 21
252.6340512506
 31
0.0
  0
LINE
  5
1B6
330
148
100
AcDbEntity
  8
$DDT_AUDIT_GENERATED_(1A1)
  6
Continuous
 62
     7
100
AcDbLine
 10
384.098079118
 20
250.5467100242
 30
0.0
 11
394.098079118
 21
250.5467100242
 31
0.0
  0
LINE
  5
1B7
330
148
100
AcDbEntity
  8
$DDT_AUDIT_GENERATED_(1A1)
  6
Continuous
 62
     7
100
AcDbLine
 10
394.098079118
 20
250.5467100242
 30
0.0
 11
396.8938078471
 21
250.5467100242
 31
0.0
  0
ARC
  5
1B8
330
148
100
AcDbEntity
  8
$DDT_AUDIT_GENERATED_(1A1)
  6
Continuous
 62
     7
100
AcDbCircle
 10
391.4623779198
 20
272.1503076278
 30
0.0
 40
10.0
100
AcDbArc
 50
52.1519040322
 51
57.1010513762
  0
ARC
  5
1B9
330
148
100
AcDbEntity
  8
$DDT_AUDIT_GENERATED_(1A1)
  6
Continuous
 62
     7
100
AcDbCircle
 10
391.4623779198
 20
258.9431124206
 30
0.0
 40
10.0
100
AcDbArc
 50
302.8970248294
 51
307.8480959678
  0
ARC
  5
1BA
330
148
100
AcDbEntity
  8
$DDT_AUDIT_GENERATED_(1A1)
  6
Continuous
 62
     7
100
AcDbCircle
 10
386.7337803162
 20
272.1503076278
 30
0.0
 40
9.999999999999998
100
AcDbArc
 50
122.8970248294
 51
127.8480959678
  0
ARC
  5
1BB
330
148
100
AcDbEntity
  8
$DDT_AUDIT_GENERATED_(1A1)
  6
Continuous
 62
     7
100
AcDbCircle
 10
386.7337803162
 20
258.9431124206
 30
0.0
 40
10.0
100
AcDbArc
 50
232.1519040322
 51
237.1010513762
  0
ENDBLK
  5
1BD
330
148
100
AcDbEntity
  8
0
100
AcDbBlockEnd
  0
BLOCK
  5
282
330
1BE
100
AcDbEntity
  8
0
100
AcDbBlockBegin
  2
SE2
 70
     0
 10
0.0
 20
0.0
 30
0.0
  3
SE2
  1

  0
LINE
  5
1C0
330
1BE
100
AcDbEntity
  8
$DDT_AUDIT_GENERATED_(7F)
  6
Continuous
 62
     7
100
AcDbLine
 10
71.499965458
 20
166.6791776976
 30
0.0
 11
258.499965458
 21
166.6791776976
 31
0.0
  0
LINE
  5
1C1
330
1BE
100
AcDbEntity
  8
$DDT_AUDIT_GENERATED_(7F)
  6
Continuous
 62
     7
100
AcDbLine
 10
258.999965458
 20
128.8534609813
 30
0.0
 11
258.999965458
 21
107.3791776977
 31
0.0
  0
LINE
  5
1C2
330
1BE
100
AcDbEntity
  8
$DDT_AUDIT_GENERATED_(7F)
  6
Continuous
 62
     7
100
AcDbLine
 10
258.999965458
 20
166.1791776976
 30
0.0
 11
258.999965458
 21
128.8534609813
 31
0.0
  0
LINE
  5
1C3
330
1BE
100
AcDbEntity
  8
$DDT_AUDIT_GENERATED_(7F)
  6
Continuous
 62
     7
100
AcDbLine
 10
70.999965458
 20
107.3791776977
 30
0.0
 11
70.999965458
 21
128.8534609813
 31
0.0
  0
LINE
  5
1C4
330
1BE
100
AcDbEntity
  8
$DDT_AUDIT_GENERATED_(7F)
  6
Continuous
 62
     7
100
AcDbLine
 10
70.999965458
 20
128.8534609813
 30
0.0
 11
70.999965458
 21
166.1791776976
 31
0.0
  0
ARC
  5
1C5
330
1BE
100
AcDbEntity
  8
$DDT_AUDIT_GENERATED_(7F)
  6
Continuous
 62
     7
100
AcDbCircle
 10
258.499965458
 20
166.1791776976
 30
0.0
 40
0.5000000000000004
100
AcDbArc
 50
0.0
 51
90.0
  0
ARC
  5
1C6
330
1BE
100
AcDbEntity
  8
$DDT_AUDIT_GENERATED_(7F)
  6
Continuous
 62
     7
100
AcDbCircle
 10
71.499965458
 20
166.1791776976
 30
0.0
 40
0.5000000000000004
100
AcDbArc
 50
90.0
 51
180.0
  0
ARC
  5
1C7
330
1BE
100
AcDbEntity
  8
$DDT_AUDIT_GENERATED_(7F)
  6
Continuous
 62
     7
100
AcDbCircle
 10
258.499965458
 20
107.3791776977
 30
0.0
 40
0.5000000000000004
100
AcDbArc
 50
270.0
 51
0.0
  0
ARC
  5
1C8
330
1BE
100
AcDbEntity
  8
$DDT_AUDIT_GENERATED_(7F)
  6
Continuous
 62
     7
100
AcDbCircle
 10
71.499965458
 20
107.3791776977
 30
0.0
 40
0.5000000000000004
100
AcDbArc
 50
180.0
 51
270.0
  0
LINE
  5
1C9
330
1BE
100
AcDbEntity
  8
$DDT_AUDIT_GENERATED_(7F)
  6
Continuous
 62
     7
100
AcDbLine
 10
71.499965458
 20
106.8791776977
 30
0.0
 11
258.499965458
 21
106.8791776977
 31
0.0
  0
SPLINE
  5
1CA
330
1BE
100
AcDbEntity
  8
$DDT_AUDIT_GENERATED_(9E)
  6
Continuous
 62
     7
100
AcDbSpline
210
0.0
220
0.0
230
1.0
 70
     8
 71
     3
 72
    32
 73
    28
 74
     0
 42
0.0000000001394932
 43
0.0000000001
 40
0.0
 40
0.0
 40
0.0
 40
0.0
 40
0.0077917640137522
 40
0.0156072536969902
 40
0.0234222533189709
 40
0.0312369368106279
 40
0.0468649728254807
 40
0.0624915892780614
 40
0.0781271557443543
 40
0.0937619142951139
 40
0.1093868416777524
 40
0.1250057427240759
 40
0.1562358797774056
 40
0.1874602629411938
 40
0.2186807347803089
 40
0.2499074563384915
 40
0.3123006457960775
 40
0.3747874462560909
 40
0.4372984041175734
 40
0.4998225491503592
 40
0.5623428440919812
 40
0.5936034420238486
 40
0.6248647581733979
 40
0.7499088421362406
 40
0.8749542389673247
 40
0.9374772010030827
 40
1.0
 40
1.0
 40
1.0
 40
1.0
 10
8.885350475193482
 20
128.3800227862832
 30
0.0
 10
8.885439632444008
 20
128.5668391519067
 30
0.0
 10
8.8862291005119
 20
128.9393462937269
 30
0.0
 10
8.89879928142695
 20
129.4982685647566
 30
0.0
 10
8.92114759257409
 20
130.0574211693584
 30
0.0
 10
8.964413085719048
 20
130.8022269125624
 30
0.0
 10
9.043520524270182
 20
131.7316101035054
 30
0.0
 10
9.190754543930396
 20
132.8415489039872
 30
0.0
 10
9.403858669654873
 20
133.941169496779
 30
0.0
 10
9.691638189359697
 20
135.0237702281865
 30
0.0
 10
10.05764909641058
 20
136.0822027330204
 30
0.0
 10
10.64721696616017
 20
137.4528892922665
 30
0.0
 10
11.5681122088154
 20
139.0814158575726
 30
0.0
 10
12.97143461533709
 20
140.8362718193769
 30
0.0
 10
14.67587830532849
 20
142.3035195590638
 30
0.0
 10
17.2598264976726
 20
143.8160134633392
 30
0.0
 10
20.85078973636556
 20
144.9393268736584
 30
0.0
 10
25.27094913426933
 20
145.6334889226087
 30
0.0
 10
29.72686305350381
 20
146.0724512025645
 30
0.0
 10
34.19387257088766
 20
146.366379088736
 30
0.0
 10
37.92065578183021
 20
146.5392008043779
 30
0.0
 10
40.90334107298657
 20
146.6409799276932
 30
0.0
 10
45.37835503080952
 20
146.7639691378454
 30
0.0
 10
52.09300465619565
 20
146.8599381019899
 30
0.0
 10
59.55399452967364
 20
146.9099913642947
 30
0.0
 10
65.52294124597611
 20
146.9305403490879
 30
0.0
 10
68.50742905656448
 20
146.9342785975373
 30
0.0
 10
69.9929471253441
 20
146.9356827536051
 30
0.0
  0
ARC
  5
1CB
330
1BE
100
AcDbEntity
  8
$DDT_AUDIT_GENERATED_(9E)
  6
Continuous
 62
     7
100
AcDbCircle
 10
45.2798249489
 20
95.6461927151
 30
0.0
 40
14.50915827540177
100
AcDbArc
 50
51.8655054694
 51
93.2230271955
  0
ARC
  5
1CC
330
1BE
100
AcDbEntity
  8
$DDT_AUDIT_GENERATED_(9E)
  6
Continuous
 62
     7
100
AcDbCircle
 10
43.9491383565
 20
155.1885562559
 30
0.0
 40
45.05909764941974
100
AcDbArc
 50
268.6044372285
 51
270.654798172
  0
SPLINE
  5
1CD
330
1BE
100
AcDbEntity
  8
$DDT_AUDIT_GENERATED_(9E)
  6
Continuous
 62
     7
100
AcDbSpline
210
0.0
220
0.0
230
1.0
 70
     8
 71
     3
 72
    26
 73
    22
 74
     0
 42
0.0000000002243362
 43
0.0000000001
 40
0.0
 40
0.0
 40
0.0
 40
0.0
 40
0.0080569210562611
 40
0.0161101456242893
 40
0.0322196710422493
 40
0.0644389606831225
 40
0.1288769539663393
 40
0.2577421416756586
 40
0.3221799271353364
 40
0.3866168641996609
 40
0.4323069054467842
 40
0.5154667447441489
 40
0.6331671270430762
 40
0.7190801576696852
 40
0.7725106697236338
 40
0.84867391756156
 40
0.8755069169531907
 40
0.9527722412480357
 40
0.97486423506604
 40
0.9969609663067589
 40
1.0
 40
1.0
 40
1.0
 40
1.0
 10
42.85173498491249
 20
110.1428240848927
 30
0.0
 10
42.73278185659586
 20
110.1466957119605
 30
0.0
 10
42.49493111286625
 20
110.1542773956364
 30
0.0
 10
42.01847203060895
 20
110.1645042486251
 30
0.0
 10
41.18456641669849
 20
110.1768945771628
 30
0.0
 10
39.5168710144164
 20
110.2093420583109
 30
0.0
 10
36.18221236864203
 20
110.2987820370798
 30
0.0
 10
32.37386655173815
 20
110.5080999522176
 30
0.0
 10
28.5778994376163
 20
110.8635292046597
 30
0.0
 10
26.00944594300203
 20
111.1287331641992
 30
0.0
 10
23.17448467154717
 20
111.5082285567677
 30
0.0
 10
19.59249485103706
 20
112.1780189976989
 30
0.0
 10
15.53958893527654
 20
113.6853215519599
 30
0.0
 10
12.63761061190519
 20
116.2489723547455
 30
0.0
 10
10.81580201336221
 20
118.8796705907457
 30
0.0
 10
9.89585907560589
 20
121.0284892696628
 30
0.0
 10
9.210141257957133
 20
123.6061200926046
 30
0.0
 10
8.97471857874485
 20
125.4693267534362
 30
0.0
 10
8.897629209754927
 20
127.2637645722952
 30
0.0
 10
8.886694730108058
 20
127.9624286696457
 30
0.0
 10
8.885867398705699
 20
128.3342256685578
 30
0.0
 10
8.885350475193482
 20
128.3800227862832
 30
0.0
  0
LINE
  5
1CE
330
1BE
100
AcDbEntity
  8
$DDT_AUDIT_GENERATED_(9E)
  6
Continuous
 62
     7
100
AcDbLine
 10
70.299965458
 20
128.3791776965
 30
0.0
 11
70.299965458
 21
107.1770270241
 31
0.0
  0
LINE
  5
1CF
330
1BE
100
AcDbEntity
  8
$DDT_AUDIT_GENERATED_(9E)
  6
Continuous
 62
     7
100
AcDbLine
 10
70.299965458
 20
146.0221291036
 30
0.0
 11
70.299965458
 21
128.3791776965
 31
0.0
  0
LINE
  5
1D0
330
1BE
100
AcDbEntity
  8
$DDT_AUDIT_GENERATED_(9E)
  6
Continuous
 62
     7
100
AcDbLine
 10
70.299965458
 20
146.6754351509
 30
0.0
 11
70.299965458
 21
146.0222532484
 31
0.0
  0
LINE
  5
1D1
330
1BE
100
AcDbEntity
  8
$DDT_AUDIT_GENERATED_(9E)
  6
Continuous
 62
     7
100
AcDbLine
 10
70.299965458
 20
146.6757223273
 30
0.0
 11
70.299965458
 21
149.5450929697
 31
0.0
  0
ARC
  5
1D2
330
1BE
100
AcDbEntity
  8
$DDT_AUDIT_GENERATED_(9E)
  6
Continuous
 62
     7
100
AcDbCircle
 10
-58.8880118062
 20
148.2890966049
 30
0.0
 40
128.8948239037839
100
AcDbArc
 50
359.398343619
 51
0.6996293008
  0
LINE
  5
1D3
330
1BE
100
AcDbEntity
  8
$DDT_AUDIT_GENERATED_(9E)
  6
Continuous
 62
     7
100
AcDbLine
 10
69.9998869822
 20
106.8770270343
 30
0.0
 11
67.3528838232
 21
106.8786350113
 31
0.0
  0
ARC
  5
1D4
330
1BE
100
AcDbEntity
  8
$DDT_AUDIT_GENERATED_(9E)
  6
Continuous
 62
     7
100
AcDbCircle
 10
69.999965458
 20
107.1770270241
 30
0.0
 40
0.2999999999999947
100
AcDbArc
 50
269.9850122312
 51
0.0
  0
SPLINE
  5
1D5
330
1BE
100
AcDbEntity
  8
$DDT_AUDIT_GENERATED_(9E)
  6
Continuous
 62
     7
100
AcDbSpline
210
0.0
220
0.0
230
1.0
 70
     8
 71
     5
 72
    12
 73
     6
 74
     0
 42
0.0000000012599331
 43
0.0000000001
 40
0.0
 40
0.0
 40
0.0
 40
0.0
 40
0.0
 40
0.0
 40
1.0
 40
1.0
 40
1.0
 40
1.0
 40
1.0
 40
1.0
 10
63.25123324083609
 20
106.8867847426075
 30
0.0
 10
61.55842985296329
 20
106.8919854589873
 30
0.0
 10
59.93254333940233
 20
106.8990616903011
 30
0.0
 10
58.35386298041133
 20
106.9080157135865
 30
0.0
 10
56.81579840449084
 20
106.9184182012366
 30
0.0
 10
55.31449800159189
 20
106.9366055749582
 30
0.0
  0
ARC
  5
1D6
330
1BE
100
AcDbEntity
  8
$DDT_AUDIT_GENERATED_(9E)
  6
Continuous
 62
     7
100
AcDbCircle
 10
65.2581335099
 20
84.775834827
 30
0.0
 40
22.20184124930712
100
AcDbArc
 50
84.5860733967
 51
95.186240414
  0
ARC
  5
1D7
330
1BE
100
AcDbEntity
  8
$DDT_AUDIT_GENERATED_(9E)
  6
Continuous
 62
     7
100
AcDbCircle
 10
8.1674919687
 20
30.0544562129
 30
0.0
 40
98.32818702091295
100
AcDbArc
 50
89.5817005344
 51
90.3535746275
  0
SPLINE
  5
1D8
330
1BE
100
AcDbEntity
  8
$DDT_AUDIT_GENERATED_(9E)
  6
Continuous
 62
     7
100
AcDbSpline
210
0.0
220
0.0
230
1.0
 70
     8
 71
     3
 72
    12
 73
     8
 74
     0
 42
0.0000000006969364
 43
0.0000000001
 40
0.5011410905958399
 40
0.5011410905958399
 40
0.5011410905958399
 40
0.5011410905958399
 40
0.7499999999999999
 40
0.7499999999999999
 40
0.8749999999999999
 40
0.8749999999999999
 40
0.999929158191365
 40
0.999929158191365
 40
0.999929158191365
 40
0.999929158191365
 10
7.362929184893535
 20
135.5355978783731
 30
0.0
 10
7.36362075893221
 20
135.5286573831604
 30
0.0
 10
7.373124102891371
 20
134.7541923484359
 30
0.0
 10
7.444083989910727
 20
132.7791998523756
 30
0.0
 10
7.479643600145192
 20
131.9836822123238
 30
0.0
 10
7.541569635090117
 20
130.2652738240991
 30
0.0
 10
7.566768107919702
 20
129.3181314371921
 30
0.0
 10
7.560718827833767
 20
128.3823628729962
 30
0.0
  0
ARC
  5
1D9
330
1BE
100
AcDbEntity
  8
$DDT_AUDIT_GENERATED_(9E)
  6
Continuous
 62
     7
100
AcDbCircle
 10
200.0987647569
 20
123.6511811852
 30
0.0
 40
192.5961373553948
100
AcDbArc
 50
178.6125712671
 51
180.7228673212
  0
ARC
  5
1DA
330
1BE
100
AcDbEntity
  8
$DDT_AUDIT_GENERATED_(9E)
  6
Continuous
 62
     7
100
AcDbCircle
 10
7.5532210385
 20
128.362500064
 30
0.0
 40
0.0197456003819368
100
AcDbArc
 50
67.7160609534
 51
90.7288122078
  0
ARC
  5
1DB
330
1BE
100
AcDbEntity
  8
$DDT_AUDIT_GENERATED_(9E)
  6
Continuous
 62
     7
100
AcDbCircle
 10
32.1645729756
 20
96.504058883
 30
0.0
 40
12.95175403152846
100
AcDbArc
 50
105.1631031632
 51
106.0219346999
  0
ARC
  5
1DC
330
1BE
100
AcDbEntity
  8
$DDT_AUDIT_GENERATED_(9E)
  6
Continuous
 62
     7
100
AcDbCircle
 10
31.6487663212
 20
98.4963639915
 30
0.0
 40
10.89529408811175
100
AcDbArc
 50
102.4698911283
 51
106.8549246827
  0
ARC
  5
1DD
330
1BE
100
AcDbEntity
  8
$DDT_AUDIT_GENERATED_(9E)
  6
Continuous
 62
     7
100
AcDbCircle
 10
32.2638205933
 20
96.2826108739
 30
0.0
 40
13.18951697830292
100
AcDbArc
 50
86.0197256504
 51
102.7009384706
  0
ARC
  5
1DE
330
1BE
100
AcDbEntity
  8
$DDT_AUDIT_GENERATED_(9E)
  6
Continuous
 62
     7
100
AcDbCircle
 10
42.7605165005
 20
293.6123764141
 30
0.0
 40
184.4211135366186
100
AcDbArc
 50
267.0219898832
 51
270.025436333
  0
ARC
  5
1DF
330
1BE
100
AcDbEntity
  8
$DDT_AUDIT_GENERATED_(9E)
  6
Continuous
 62
     7
100
AcDbCircle
 10
45.6666799028
 20
99.2118834084
 30
0.0
 40
9.886972196676307
100
AcDbArc
 50
62.2900953984
 51
67.8265158189
  0
ARC
  5
1E0
330
1BE
100
AcDbEntity
  8
$DDT_AUDIT_GENERATED_(9E)
  6
Continuous
 62
     7
100
AcDbCircle
 10
45.4802083458
 20
99.0766355965
 30
0.0
 40
10.08332814638907
100
AcDbArc
 50
67.1353301386
 51
89.1264631802
  0
LINE
  5
1E1
330
1BE
100
AcDbEntity
  8
$DDT_AUDIT_GENERATED_(9E)
  6
Continuous
 62
     7
100
AcDbLine
 10
45.6339337545
 20
109.1587918642
 30
0.0
 11
45.6338231244
 21
109.1543300771
 31
0.0
  0
ELLIPSE
  5
1E2
330
1BE
100
AcDbEntity
  8
$DDT_AUDIT_GENERATED_(9E)
  6
Continuous
 62
     7
100
AcDbEllipse
 10
29.3803944388
 20
109.3467380837
 30
0.0
 11
-0.04323897844771274
 21
0.1952700456873714
 31
0.0
210
0.0
220
0.0
230
1.0
 40
0.9026236301
 41
2.810256931204531
 42
3.178051607764427
  0
SPLINE
  5
1E3
330
1BE
100
AcDbEntity
  8
$DDT_AUDIT_GENERATED_(9E)
  6
Continuous
 62
     7
100
AcDbSpline
210
0.0
220
0.0
230
1.0
 70
     8
 71
     3
 72
    12
 73
     8
 74
     0
 42
0.0000000007035441
 43
0.0000000001
 40
0.4997106315577782
 40
0.4997106315577782
 40
0.4997106315577782
 40
0.4997106315577782
 40
0.4999999999999999
 40
0.4999999999999999
 40
0.7499999999999999
 40
0.7499999999999999
 40
0.9999924690054514
 40
0.9999924690054514
 40
0.9999924690054514
 40
0.9999924690054514
 10
7.355327389507227
 20
135.4877780122541
 30
0.0
 10
7.355328066199069
 20
135.4877801659987
 30
0.0
 10
7.355328755762364
 20
135.487781288787
 30
0.0
 10
7.355936289148573
 20
135.4878604063099
 30
0.0
 10
7.365790278104939
 20
134.7243536519503
 30
0.0
 10
7.461454221938113
 20
132.0899930303203
 30
0.0
 10
7.565841163238884
 20
130.2594623551902
 30
0.0
 10
7.55297104128444
 20
128.3824137046647
 30
0.0
  0
SPLINE
  5
1E4
330
1BE
100
AcDbEntity
  8
$DDT_AUDIT_GENERATED_(9E)
  6
Continuous
 62
     7
100
AcDbSpline
210
0.0
220
0.0
230
1.0
 70
     8
 71
     3
 72
    12
 73
     8
 74
     0
 42
0.00000000070345
 43
0.0000000001
 40
0.0000226843881473
 40
0.0000226843881473
 40
0.0000226843881473
 40
0.0000226843881473
 40
0.25
 40
0.25
 40
0.5
 40
0.5
 40
0.5002508390760514
 40
0.5002508390760514
 40
0.5002508390760514
 40
0.5002508390760514
 10
7.552969949049137
 20
128.3817329581935
 30
0.0
 10
7.553226358593207
 20
126.5042978979908
 30
0.0
 10
7.496308369357774
 20
124.657334185165
 30
0.0
 10
7.486678090258492
 20
122.0423671439163
 30
0.0
 10
7.50931101476518
 20
121.2723312579949
 30
0.0
 10
7.50916772004126
 20
121.2719162943854
 30
0.0
 10
7.509167554820284
 20
121.2719166471499
 30
0.0
 10
7.509167368058456
 20
121.2719177684066
 30
0.0
  0
ARC
  5
1E5
330
1BE
100
AcDbEntity
  8
$DDT_AUDIT_GENERATED_(9E)
  6
Continuous
 62
     7
100
AcDbCircle
 10
55.2629026949
 20
111.3699084687
 30
0.0
 40
4.426967993799818
100
AcDbArc
 50
256.646031168
 51
270.6682752971
  0
SPLINE
  5
1E6
330
1BE
100
AcDbEntity
  8
$DDT_AUDIT_GENERATED_(9E)
  6
Continuous
 62
     7
100
AcDbSpline
210
0.0
220
0.0
230
1.0
 70
     8
 71
     3
 72
    26
 73
    22
 74
     0
 42
0.0000000003813761
 43
0.0000000001
 40
0.0
 40
0.0
 40
0.0
 40
0.0
 40
0.0140200999116348
 40
0.0853373131823052
 40
0.153434489904807
 40
0.218641385137764
 40
0.281031942679801
 40
0.340394064082681
 40
0.3964211174297978
 40
0.4487973854016977
 40
0.4972313727220183
 40
0.5554269474288086
 40
0.6065344961785092
 40
0.651234344715927
 40
0.6914039299141596
 40
0.7371616570657936
 40
0.7883645707199491
 40
0.8448071402891197
 40
0.9056150779371476
 40
0.9678945506128136
 40
1.0
 40
1.0
 40
1.0
 40
1.0
 10
7.525951973488737
 20
121.2467338459786
 30
0.0
 10
7.56052873921223
 20
121.1165954172652
 30
0.0
 10
7.742128202473831
 20
120.4377805076293
 30
0.0
 10
8.272637045771635
 20
119.1556115037837
 30
0.0
 10
9.080003065400494
 20
117.5767849084566
 30
0.0
 10
10.02840123663226
 20
116.1463788909168
 30
0.0
 10
11.06790509427261
 20
114.8853342935661
 30
0.0
 10
12.17899218264473
 20
113.7967766948235
 30
0.0
 10
13.32939365289515
 20
112.8859408658537
 30
0.0
 10
14.48327224182527
 20
112.1448113569175
 30
0.0
 10
15.71303350911224
 20
111.4974981909397
 30
0.0
 10
16.98301099923563
 20
110.9599770879437
 30
0.0
 10
18.25808480926894
 20
110.530300777822
 30
0.0
 10
19.40287168979385
 20
110.2139794852746
 30
0.0
 10
20.51383927990397
 20
109.9551188024228
 30
0.0
 10
21.6890291333951
 20
109.7241070925141
 30
0.0
 10
23.01057071008728
 20
109.5085595644338
 30
0.0
 10
24.47109821927737
 20
109.313105265517
 30
0.0
 10
26.01869904996437
 20
109.1424025412163
 30
0.0
 10
27.40201253503447
 20
109.0113983319794
 30
0.0
 10
28.16944339014993
 20
108.9466732169868
 30
0.0
 10
28.47672289334524
 20
108.9209904579285
 30
0.0
  0
ARC
  5
1E7
330
1BE
100
AcDbEntity
  8
$DDT_AUDIT_GENERATED_(9E)
  6
Continuous
 62
     7
100
AcDbCircle
 10
42.4630562972
 20
64.525504123
 30
0.0
 40
44.13277773915883
100
AcDbArc
 50
74.5260317965
 51
79.8186538025
  0
ARC
  5
1E8
330
1BE
100
AcDbEntity
  8
$DDT_AUDIT_GENERATED_(9E)
  6
Continuous
 62
     7
100
AcDbCircle
 10
69.999965458
 20
149.545093506
 30
0.0
 40
0.2999999999971898
100
AcDbArc
 50
0.0
 51
90.1931489857
  0
SPLINE
  5
1E9
330
1BE
100
AcDbEntity
  8
$DDT_AUDIT_GENERATED_(9E)
  6
Continuous
 62
     7
100
AcDbSpline
210
0.0
220
0.0
230
1.0
 70
     8
 71
     3
 72
    62
 73
    58
 74
     0
 42
0.0000000001380221
 43
0.0000000001
 40
0.0
 40
0.0
 40
0.0
 40
0.0
 40
0.010583487536103
 40
0.0259601250152115
 40
0.0401919676443291
 40
0.0536572500849357
 40
0.0665405028928562
 40
0.0869252417259678
 40
0.1059012130537226
 40
0.1230962670760262
 40
0.1380626989346348
 40
0.1504734524504319
 40
0.1601821878667079
 40
0.1671857173342362
 40
0.1731602321807916
 40
0.1793128708419556
 40
0.1920690170175998
 40
0.2053169032637268
 40
0.2196511918280175
 40
0.236372090902094
 40
0.2549321840447168
 40
0.2755249836903951
 40
0.2982583206493156
 40
0.3231581338859126
 40
0.3501288791581044
 40
0.3768287360220945
 40
0.4022911653772709
 40
0.4325340303247157
 40
0.4607969602674512
 40
0.4870749202458949
 40
0.511371063204752
 40
0.5338402433625093
 40
0.5582633422445282
 40
0.5819384912179534
 40
0.6020957522065653
 40
0.622710482040521
 40
0.6440122704082957
 40
0.6656836118484873
 40
0.6878436157726732
 40
0.710432966419575
 40
0.733011323587376
 40
0.7461108596118257
 40
0.7591711683224023
 40
0.7724798416877695
 40
0.7875301168321934
 40
0.8045772893267237
 40
0.8236378482925172
 40
0.8446804888731685
 40
0.8676154351617021
 40
0.8839041098478417
 40
0.9009530804337872
 40
0.9187298585546336
 40
0.937187625699506
 40
0.956264992345036
 40
0.9759222493731545
 40
0.998714468553558
 40
1.0
 40
1.0
 40
1.0
 40
1.0
 10
69.99731544041474
 20
149.8666649088034
 30
0.0
 10
69.71636234988077
 20
149.8670318726568
 30
0.0
 10
69.13289700649526
 20
149.8700336498174
 30
0.0
 10
68.1409437340075
 20
149.9141308511642
 30
0.0
 10
67.11262223589436
 20
150.0243046838902
 30
0.0
 10
66.14767400864082
 20
150.2066734003081
 30
0.0
 10
65.06073652831412
 20
150.5107674873534
 30
0.0
 10
63.88716669427073
 20
150.9817374192554
 30
0.0
 10
62.68128416006081
 20
151.6245582505958
 30
0.0
 10
61.63522755190172
 20
152.2804102364991
 30
0.0
 10
60.74520720046167
 20
152.8846012154566
 30
0.0
 10
60.00979958219707
 20
153.3946840635355
 30
0.0
 10
59.42975658287726
 20
153.7915953801579
 30
0.0
 10
58.97369728719727
 20
154.0945593930948
 30
0.0
 10
58.58510254892018
 20
154.3438932740014
 30
0.0
 10
58.07353949592761
 20
154.6584490448489
 30
0.0
 10
57.39748005089982
 20
155.0404395362655
 30
0.0
 10
56.51694938460034
 20
155.4581233356795
 30
0.0
 10
55.51031234927756
 20
155.824083162402
 30
0.0
 10
54.3425510283613
 20
156.1019071709287
 30
0.0
 10
53.00094033742108
 20
156.2596031160937
 30
0.0
 10
51.50728703393104
 20
156.307315872344
 30
0.0
 10
49.86075732500817
 20
156.2924763421305
 30
0.0
 10
48.06074117069819
 20
156.2539449736519
 30
0.0
 10
46.16516490572872
 20
156.2073547882285
 30
0.0
 10
44.25621236315125
 20
156.1528973295165
 30
0.0
 10
42.26856607032421
 20
156.0883344543172
 30
0.0
 10
40.24354056905779
 20
156.0131085056301
 30
0.0
 10
38.19936548572586
 20
155.9241022418394
 30
0.0
 10
36.29926073887516
 20
155.8268129231744
 30
0.0
 10
34.53945154230165
 20
155.7244145165961
 30
0.0
 10
32.82556693804919
 20
155.6051380898487
 30
0.0
 10
31.13067359390126
 20
155.4311116036985
 30
0.0
 10
29.51042082211105
 20
155.1097206469367
 30
0.0
 10
28.03897872724537
 20
154.589627978525
 30
0.0
 10
26.70778877228577
 20
153.8929352066058
 30
0.0
 10
25.43750521059138
 20
153.0280780859875
 30
0.0
 10
24.20229517065786
 20
152.0551786545266
 30
0.0
 10
22.97063029309496
 20
151.0293621159952
 30
0.0
 10
21.7135052642716
 20
149.9997585140245
 30
0.0
 10
20.59355799436161
 20
149.1486246258352
 30
0.0
 10
19.63087244619494
 20
148.4725976085845
 30
0.0
 10
18.83733941215151
 20
147.9455922487941
 30
0.0
 10
17.99284544869986
 20
147.4107208869819
 30
0.0
 10
17.05854142695343
 20
146.8381286194917
 30
0.0
 10
16.00416117703216
 20
146.1958666788406
 30
0.0
 10
14.83812649508293
 20
145.4589410776461
 30
0.0
 10
13.58625980114808
 20
144.5933056337904
 30
0.0
 10
12.44958010267336
 20
143.6829091451789
 30
0.0
 10
11.46147541969836
 20
142.7496378026372
 30
0.0
 10
10.63104826384895
 20
141.8357751988
 30
0.0
 10
9.846004661216684
 20
140.8151343412336
 30
0.0
 10
9.122591553837045
 20
139.6927105169694
 30
0.0
 10
8.46623908802749
 20
138.4726174111403
 30
0.0
 10
7.882623717837794
 20
137.1215725014346
 30
0.0
 10
7.499639160376271
 20
136.0930049817877
 30
0.0
 10
7.371831412678636
 20
135.557335237804
 30
0.0
 10
7.363922731854183
 20
135.5241380827864
 30
0.0
  0
SPLINE
  5
1EA
330
1BE
100
AcDbEntity
  8
$DDT_AUDIT_GENERATED_(9E)
  6
Continuous
 62
     7
100
AcDbSpline
210
0.0
220
0.0
230
1.0
 70
     8
 71
     3
 72
     8
 73
     4
 74
     0
 42
0.0000000035819925
 43
0.0000000001
 40
0.0
 40
0.0
 40
0.0
 40
0.0
 40
1.0
 40
1.0
 40
1.0
 40
1.0
 10
42.84235726951628
 20
109.1866509984021
 30
0.0
 10
43.7422208078245
 20
109.1847923022788
 30
0.0
 10
44.67270361813958
 20
109.1734997197434
 30
0.0
 10
45.63380570046154
 20
109.1527732507957
 30
0.0
  0
LINE
  5
1EB
330
1BE
100
AcDbEntity
  8
$DDT_AUDIT_GENERATED_(9E)
  6
Continuous
 62
     7
100
AcDbLine
 10
29.3651645913
 20
109.138196736
 30
0.0
 11
29.4299524584
 21
109.152983841
 31
0.0
  0
ARC
  5
1EC
330
1BE
100
AcDbEntity
  8
$DDT_AUDIT_GENERATED_(9E)
  6
Continuous
 62
     7
100
AcDbCircle
 10
28.5094978703
 20
109.0896296077
 30
0.0
 40
0.1672756930563031
100
AcDbArc
 50
286.0693734541
 51
290.6943591696
  0
LINE
  5
1ED
330
1BE
100
AcDbEntity
  8
$DDT_AUDIT_GENERATED_(D3)
  6
Continuous
 62
     7
100
AcDbLine
 10
28.7909832085
 20
109.0089137856
 30
0.0
 11
28.7528481834
 21
107.3284514508
 31
0.0
  0
LINE
  5
1EE
330
1BE
100
AcDbEntity
  8
$DDT_AUDIT_GENERATED_(D3)
  6
Continuous
 62
     7
100
AcDbLine
 10
49.9962217561
 20
108.0994127809
 30
0.0
 11
49.9678038456
 21
106.8471459225
 31
0.0
  0
LINE
  5
1EF
330
1BE
100
AcDbEntity
  8
$DDT_AUDIT_GENERATED_(D3)
  6
Continuous
 62
     7
100
AcDbLine
 10
29.2533447393
 20
106.8165410912
 30
0.0
 11
49.4454903639
 21
106.3583172053
 31
0.0
  0
ARC
  5
1F0
330
1BE
100
AcDbEntity
  8
$DDT_AUDIT_GENERATED_(D3)
  6
Continuous
 62
     7
100
AcDbCircle
 10
49.506171072
 20
106.8178609003
 30
0.0
 40
0.4625384613496428
100
AcDbArc
 50
263.7387603254
 51
3.6629551343
  0
ARC
  5
1F1
330
1BE
100
AcDbEntity
  8
$DDT_AUDIT_GENERATED_(D3)
  6
Continuous
 62
     7
100
AcDbCircle
 10
29.2125960928
 20
107.2783654939
 30
0.0
 40
0.4624996312556215
100
AcDbArc
 50
173.7943484114
 51
273.652664419
  0
LINE
  5
1F2
330
1BE
100
AcDbEntity
  8
$DDT_AUDIT_GENERATED_(1A1)
  6
Continuous
 62
     7
100
AcDbLine
 10
249.8653465147
 20
170.9791776976
 30
0.0
 11
246.249965458
 21
170.9791776976
 31
0.0
  0
LINE
  5
1F3
330
1BE
100
AcDbEntity
  8
$DDT_AUDIT_GENERATED_(1A1)
  6
Continuous
 62
     7
100
AcDbLine
 10
254.499965458
 20
167.4791776976
 30
0.0
 11
225.499965458
 21
167.4791776976
 31
0.0
  0
LINE
  5
1F4
330
1BE
100
AcDbEntity
  8
$DDT_AUDIT_GENERATED_(1A1)
  6
Continuous
 62
     7
100
AcDbLine
 10
254.499965458
 20
184.4791776976
 30
0.0
 11
225.499965458
 21
184.4791776976
 31
0.0
  0
LINE
  5
1F5
330
1BE
100
AcDbEntity
  8
$DDT_AUDIT_GENERATED_(1A1)
  6
Continuous
 62
     7
100
AcDbLine
 10
249.8653465147
 20
180.9791776976
 30
0.0
 11
246.249965458
 21
180.9791776976
 31
0.0
  0
LINE
  5
1F6
330
1BE
100
AcDbEntity
  8
$DDT_AUDIT_GENERATED_(1A1)
  6
Continuous
 62
     7
100
AcDbLine
 10
233.749965458
 20
180.9791776976
 30
0.0
 11
230.1345844012
 21
180.9791776976
 31
0.0
  0
LINE
  5
1F7
330
1BE
100
AcDbEntity
  8
$DDT_AUDIT_GENERATED_(1A1)
  6
Continuous
 62
     7
100
AcDbLine
 10
223.8845844012
 20
180.9791776976
 30
0.0
 11
223.749965458
 21
180.9791776976
 31
0.0
  0
LINE
  5
1F8
330
1BE
100
AcDbEntity
  8
$DDT_AUDIT_GENERATED_(1A1)
  6
Continuous
 62
     7
100
AcDbLine
 10
256.1153465147
 20
180.9791776976
 30
0.0
 11
256.249965458
 21
180.9791776976
 31
0.0
  0
SPLINE
  5
1F9
330
1BE
100
AcDbEntity
  8
$DDT_AUDIT_GENERATED_(1A1)
  6
Continuous
 62
     7
100
AcDbSpline
210
0.0
220
0.0
230
1.0
 70
     8
 71
     3
 72
    14
 73
    10
 74
     0
 42
0.0000000011014719
 43
0.0000000001
 40
0.0
 40
0.0
 40
0.0
 40
0.0
 40
0.25
 40
0.25
 40
0.5
 40
0.5
 40
0.75
 40
0.75
 40
1.0
 40
1.0
 40
1.0
 40
1.0
 10
256.1153465147299
 20
180.9791776976047
 30
0.0
 10
255.7680286661026
 20
181.9569842660578
 30
0.0
 10
255.2701013535192
 20
182.6538427602387
 30
0.0
 10
254.180193288951
 20
183.5605247121084
 30
0.0
 10
253.586319107546
 20
183.7744718124275
 30
0.0
 10
252.3979140041571
 20
183.7753389654694
 30
0.0
 10
251.81236022176
 20
183.5680204072003
 30
0.0
 10
250.7120784786536
 20
182.6574219112769
 30
0.0
 10
250.2122817524797
 20
181.9559070987611
 30
0.0
 10
249.8653465147299
 20
180.9791776976047
 30
0.0
  0
SPLINE
  5
1FA
330
1BE
100
AcDbEntity
  8
$DDT_AUDIT_GENERATED_(1A1)
  6
Continuous
 62
     7
100
AcDbSpline
210
0.0
220
0.0
230
1.0
 70
     8
 71
     3
 72
    14
 73
    10
 74
     0
 42
0.0000000011014719
 43
0.0000000001
 40
0.0
 40
0.0
 40
0.0
 40
0.0
 40
0.25
 40
0.25
 40
0.5
 40
0.5
 40
0.75
 40
0.75
 40
1.0
 40
1.0
 40
1.0
 40
1.0
 10
230.1345844011967
 20
180.9791776976047
 30
0.0
 10
229.7872665525695
 20
181.9569842660578
 30
0.0
 10
229.2893392399861
 20
182.6538427602387
 30
0.0
 10
228.1994311754178
 20
183.5605247121084
 30
0.0
 10
227.6055569940128
 20
183.7744718124275
 30
0.0
 10
226.4171518906239
 20
183.7753389654694
 30
0.0
 10
225.8315981082269
 20
183.5680204072003
 30
0.0
 10
224.7313163651204
 20
182.6574219112769
 30
0.0
 10
224.2315196389466
 20
181.9559070987611
 30
0.0
 10
223.8845844011967
 20
180.9791776976047
 30
0.0
  0
SPLINE
  5
1FB
330
1BE
100
AcDbEntity
  8
$DDT_AUDIT_GENERATED_(1A1)
  6
Continuous
 62
     7
100
AcDbSpline
210
0.0
220
0.0
230
1.0
 70
     8
 71
     3
 72
    14
 73
    10
 74
     0
 42
0.0000000006969408
 43
0.0000000001
 40
0.0
 40
0.0
 40
0.0
 40
0.0
 40
0.25
 40
0.25
 40
0.5
 40
0.5
 40
0.75
 40
0.75
 40
1.0
 40
1.0
 40
1.0
 40
1.0
 10
246.2499654579634
 20
180.9791776976047
 30
0.0
 10
245.5568771054512
 20
181.9548061403744
 30
0.0
 10
244.5493169376203
 20
182.6607848290218
 30
0.0
 10
242.3586714852466
 20
183.5664985934181
 30
0.0
 10
241.1744571817572
 20
183.776800990108
 30
0.0
 10
238.7943691729327
 20
183.772986151971
 30
0.0
 10
237.6113455633891
 20
183.5576869094212
 30
0.0
 10
235.4393425235466
 20
182.652500594783
 30
0.0
 10
234.4378398103133
 20
181.9474666333111
 30
0.0
 10
233.7499654579633
 20
180.9791776976047
 30
0.0
  0
LINE
  5
1FC
330
1BE
100
AcDbEntity
  8
$DDT_AUDIT_GENERATED_(1A1)
  6
Continuous
 62
     7
100
AcDbLine
 10
233.749965458
 20
170.9791776976
 30
0.0
 11
230.1345844012
 21
170.9791776976
 31
0.0
  0
LINE
  5
1FD
330
1BE
100
AcDbEntity
  8
$DDT_AUDIT_GENERATED_(1A1)
  6
Continuous
 62
     7
100
AcDbLine
 10
223.8845844012
 20
170.9791776976
 30
0.0
 11
223.749965458
 21
170.9791776976
 31
0.0
  0
LINE
  5
1FE
330
1BE
100
AcDbEntity
  8
$DDT_AUDIT_GENERATED_(1A1)
  6
Continuous
 62
     7
100
AcDbLine
 10
256.1153465147
 20
170.9791776976
 30
0.0
 11
256.249965458
 21
170.9791776976
 31
0.0
  0
LINE
  5
1FF
330
1BE
100
AcDbEntity
  8
$DDT_AUDIT_GENERATED_(1A1)
  6
Continuous
 62
     7
100
AcDbLine
 10
246.249965458
 20
180.9791776976
 30
0.0
 11
246.249965458
 21
170.9791776976
 31
0.0
  0
SPLINE
  5
200
330
1BE
100
AcDbEntity
  8
$DDT_AUDIT_GENERATED_(1A1)
  6
Continuous
 62
     7
100
AcDbSpline
210
0.0
220
0.0
230
1.0
 70
     8
 71
     3
 72
    14
 73
    10
 74
     0
 42
0.0000000006969408
 43
0.0000000001
 40
0.0
 40
0.0
 40
0.0
 40
0.0
 40
0.25
 40
0.25
 40
0.5
 40
0.5
 40
0.75
 40
0.75
 40
1.0
 40
1.0
 40
1.0
 40
1.0
 10
246.2499654579634
 20
170.9791776976047
 30
0.0
 10
245.5568771054512
 20
170.003549254835
 30
0.0
 10
244.5493169376203
 20
169.2975705661876
 30
0.0
 10
242.3586714852466
 20
168.3918568017914
 30
0.0
 10
241.1744571817572
 20
168.1815544051014
 30
0.0
 10
238.7943691729327
 20
168.1853692432384
 30
0.0
 10
237.6113455633891
 20
168.4006684857882
 30
0.0
 10
235.4393425235466
 20
169.3058548004264
 30
0.0
 10
234.4378398103133
 20
170.0108887618983
 30
0.0
 10
233.7499654579633
 20
170.9791776976047
 30
0.0
  0
LINE
  5
201
330
1BE
100
AcDbEntity
  8
$DDT_AUDIT_GENERATED_(1A1)
  6
Continuous
 62
     7
100
AcDbLine
 10
233.749965458
 20
170.9791776976
 30
0.0
 11
233.749965458
 21
180.9791776976
 31
0.0
  0
LINE
  5
202
330
1BE
100
AcDbEntity
  8
$DDT_AUDIT_GENERATED_(1A1)
  6
Continuous
 62
     7
100
AcDbLine
 10
230.1345844012
 20
180.9791776976
 30
0.0
 11
230.1345844012
 21
170.9791776976
 31
0.0
  0
SPLINE
  5
203
330
1BE
100
AcDbEntity
  8
$DDT_AUDIT_GENERATED_(1A1)
  6
Continuous
 62
     7
100
AcDbSpline
210
0.0
220
0.0
230
1.0
 70
     8
 71
     3
 72
    14
 73
    10
 74
     0
 42
0.0000000011014719
 43
0.0000000001
 40
0.0
 40
0.0
 40
0.0
 40
0.0
 40
0.2500000000000001
 40
0.2500000000000001
 40
0.5000000000000001
 40
0.5000000000000001
 40
0.7500000000000002
 40
0.7500000000000002
 40
1.0
 40
1.0
 40
1.0
 40
1.0
 10
230.1345844011967
 20
170.9791776976047
 30
0.0
 10
229.7872665525695
 20
170.0013711291516
 30
0.0
 10
229.2893392399861
 20
169.3045126349707
 30
0.0
 10
228.1994311754178
 20
168.397830683101
 30
0.0
 10
227.6055569940128
 20
168.1838835827819
 30
0.0
 10
226.4171518906239
 20
168.18301642974
 30
0.0
 10
225.8315981082269
 20
168.3903349880092
 30
0.0
 10
224.7313163651204
 20
169.3009334839325
 30
0.0
 10
224.2315196389466
 20
170.0024482964483
 30
0.0
 10
223.8845844011967
 20
170.9791776976047
 30
0.0
  0
LINE
  5
204
330
1BE
100
AcDbEntity
  8
$DDT_AUDIT_GENERATED_(1A1)
  6
Continuous
 62
     7
100
AcDbLine
 10
223.8845844012
 20
170.9791776976
 30
0.0
 11
223.8845844012
 21
180.9791776976
 31
0.0
  0
LINE
  5
205
330
1BE
100
AcDbEntity
  8
$DDT_AUDIT_GENERATED_(1A1)
  6
Continuous
 62
     7
100
AcDbLine
 10
256.1153465147
 20
180.9791776976
 30
0.0
 11
256.1153465147
 21
170.9791776976
 31
0.0
  0
SPLINE
  5
206
330
1BE
100
AcDbEntity
  8
$DDT_AUDIT_GENERATED_(1A1)
  6
Continuous
 62
     7
100
AcDbSpline
210
0.0
220
0.0
230
1.0
 70
     8
 71
     3
 72
    14
 73
    10
 74
     0
 42
0.0000000011014719
 43
0.0000000001
 40
0.0
 40
0.0
 40
0.0
 40
0.0
 40
0.2499999999999999
 40
0.2499999999999999
 40
0.4999999999999999
 40
0.4999999999999999
 40
0.7499999999999999
 40
0.7499999999999999
 40
1.0
 40
1.0
 40
1.0
 40
1.0
 10
256.1153465147299
 20
170.9791776976047
 30
0.0
 10
255.7680286661026
 20
170.0013711291516
 30
0.0
 10
255.2701013535192
 20
169.3045126349707
 30
0.0
 10
254.180193288951
 20
168.397830683101
 30
0.0
 10
253.586319107546
 20
168.1838835827819
 30
0.0
 10
252.3979140041571
 20
168.18301642974
 30
0.0
 10
251.81236022176
 20
168.3903349880091
 30
0.0
 10
250.7120784786536
 20
169.3009334839325
 30
0.0
 10
250.2122817524797
 20
170.0024482964483
 30
0.0
 10
249.8653465147299
 20
170.9791776976047
 30
0.0
  0
LINE
  5
207
330
1BE
100
AcDbEntity
  8
$DDT_AUDIT_GENERATED_(1A1)
  6
Continuous
 62
     7
100
AcDbLine
 10
249.8653465147
 20
170.9791776976
 30
0.0
 11
249.8653465147
 21
180.9791776976
 31
0.0
  0
LINE
  5
208
330
1BE
100
AcDbEntity
  8
$DDT_AUDIT_GENERATED_(1A1)
  6
Continuous
 62
     7
100
AcDbLine
 10
256.249965458
 20
170.9791776976
 30
0.0
 11
256.249965458
 21
180.9791776976
 31
0.0
  0
ARC
  5
209
330
1BE
100
AcDbEntity
  8
$DDT_AUDIT_GENERATED_(1A1)
  6
Continuous
 62
     7
100
AcDbCircle
 10
246.6035630615
 20
173.6148788958
 30
0.0
 40
9.999999999999995
100
AcDbArc
 50
322.1519040322
 51
344.7179936136
  0
ARC
  5
20A
330
1BE
100
AcDbEntity
  8
$DDT_AUDIT_GENERATED_(1A1)
  6
Continuous
 62
     7
100
AcDbCircle
 10
233.3963678544
 20
173.6148788958
 30
0.0
 40
9.999999999999993
100
AcDbArc
 50
195.2820063864
 51
217.8480959678
  0
ARC
  5
20B
330
1BE
100
AcDbEntity
  8
$DDT_AUDIT_GENERATED_(1A1)
  6
Continuous
 62
     7
100
AcDbCircle
 10
246.6035630615
 20
178.3434764994
 30
0.0
 40
9.999999999999993
100
AcDbArc
 50
15.2820063864
 51
37.8480959678
  0
ARC
  5
20C
330
1BE
100
AcDbEntity
  8
$DDT_AUDIT_GENERATED_(1A1)
  6
Continuous
 62
     7
100
AcDbCircle
 10
233.3963678544
 20
178.3434764994
 30
0.0
 40
9.99999999999999
100
AcDbArc
 50
142.1519040322
 51
164.7179936136
  0
LINE
  5
20D
330
1BE
100
AcDbEntity
  8
$DDT_AUDIT_GENERATED_(1A1)
  6
Continuous
 62
     7
100
AcDbLine
 10
223.749965458
 20
180.9791776976
 30
0.0
 11
223.749965458
 21
170.9791776976
 31
0.0
  0
LINE
  5
20E
330
1BE
100
AcDbEntity
  8
$DDT_AUDIT_GENERATED_(E8)
  6
Continuous
 62
     7
100
AcDbLine
 10
70.999965458
 20
111.5536393821
 30
0.0
 11
70.299965458
 21
111.5536393821
 31
0.0
  0
LINE
  5
20F
330
1BE
100
AcDbEntity
  8
$DDT_AUDIT_GENERATED_(E8)
  6
Continuous
 62
     7
100
AcDbLine
 10
70.999965458
 20
125.5049954801
 30
0.0
 11
70.299965458
 21
125.5049954801
 31
0.0
  0
LINE
  5
210
330
1BE
100
AcDbEntity
  8
$DDT_AUDIT_GENERATED_(E8)
  6
Continuous
 62
     7
100
AcDbLine
 10
70.999965458
 20
142.3305337956
 30
0.0
 11
70.299965458
 21
142.3305337956
 31
0.0
  0
LINE
  5
211
330
1BE
100
AcDbEntity
  8
$DDT_AUDIT_GENERATED_(E8)
  6
Continuous
 62
     7
100
AcDbLine
 10
70.299965458
 20
146.3773707063
 30
0.0
 11
70.999965458
 21
146.3773707063
 31
0.0
  0
LINE
  5
212
330
1BE
100
AcDbEntity
  8
$DDT_AUDIT_GENERATED_(E8)
  6
Continuous
 62
     7
100
AcDbLine
 10
70.299965458
 20
137.1573979558
 30
0.0
 11
70.999965458
 21
137.1573979558
 31
0.0
  0
LINE
  5
213
330
1BE
100
AcDbEntity
  8
$DDT_AUDIT_GENERATED_(E8)
  6
Continuous
 62
     7
100
AcDbLine
 10
70.299965458
 20
119.1592049471
 30
0.0
 11
70.999965458
 21
119.1592049471
 31
0.0
  0
LINE
  5
214
330
1BE
100
AcDbEntity
  8
$DDT_AUDIT_GENERATED_(E8)
  6
Continuous
 62
     7
100
AcDbLine
 10
70.299965458
 20
110.3791776976
 30
0.0
 11
70.999965458
 21
110.3791776976
 31
0.0
  0
LINE
  5
215
330
1BE
100
AcDbEntity
  8
$DDT_AUDIT_GENERATED_(E8)
  6
Continuous
 62
     7
100
AcDbLine
 10
70.999965458
 20
146.3791776976
 30
0.0
 11
70.299965458
 21
146.3791776976
 31
0.0
  0
ARC
  5
216
330
1BE
100
AcDbEntity
  8
$DDT_AUDIT_GENERATED_(F0)
  6
Continuous
 62
     7
100
AcDbCircle
 10
7.1127160546
 20
134.4199108509
 30
0.0
 40
0.6046503942268547
100
AcDbArc
 50
65.7793101573
 51
78.5061866069
  0
ARC
  5
217
330
1BE
100
AcDbEntity
  8
$DDT_AUDIT_GENERATED_(F0)
  6
Continuous
 62
     7
100
AcDbCircle
 10
7.6986910442
 20
134.7638989776
 30
0.0
 40
0.5273543374212756
100
AcDbArc
 50
151.8901088248
 51
160.984479591
  0
ARC
  5
218
330
1BE
100
AcDbEntity
  8
$DDT_AUDIT_GENERATED_(F0)
  6
Continuous
 62
     7
100
AcDbCircle
 10
7.5810747937
 20
121.8907312578
 30
0.0
 40
0.2615562623722053
100
AcDbArc
 50
195.3587665112
 51
252.434995622
  0
ARC
  5
219
330
1BE
100
AcDbEntity
  8
$DDT_AUDIT_GENERATED_(F0)
  6
Continuous
 62
     7
100
AcDbCircle
 10
31.0027761775
 20
128.0587043598
 30
0.0
 40
24.48132688721432
100
AcDbArc
 50
179.2500337817
 51
194.8594256831
  0
ARC
  5
21A
330
1BE
100
AcDbEntity
  8
$DDT_AUDIT_GENERATED_(F0)
  6
Continuous
 62
     7
100
AcDbCircle
 10
33.7171993441
 20
128.8826446756
 30
0.0
 40
27.19842061442389
100
AcDbArc
 50
167.0533427338
 51
181.0607345802
  0
ARC
  5
21B
330
1BE
100
AcDbEntity
  8
$DDT_AUDIT_GENERATED_(F0)
  6
Continuous
 62
     7
100
AcDbCircle
 10
7.3172718122
 20
134.9582833099
 30
0.0
 40
0.1000039849676846
100
AcDbArc
 50
44.9986890679
 51
147.2264468944
  0
ARC
  5
21C
330
1BE
100
AcDbEntity
  8
$DDT_AUDIT_GENERATED_(9E)
  6
Continuous
 62
     7
100
AcDbCircle
 10
319.9168761214
 20
104.9148756442
 30
0.0
 40
23.89758828646508
100
AcDbArc
 50
82.9247194453
 51
86.1208604954
  0
SPLINE
  5
21D
330
1BE
100
AcDbEntity
  8
$DDT_AUDIT_GENERATED_(9E)
  6
Continuous
 62
     7
100
AcDbSpline
210
0.0
220
0.0
230
1.0
 70
     8
 71
     3
 72
    26
 73
    22
 74
     0
 42
0.0000000002243994
 43
0.0000000001
 40
0.0
 40
0.0
 40
0.0
 40
0.0
 40
0.024502703589417
 40
0.059617152689482
 40
0.1055518118844267
 40
0.1622482497225212
 40
0.2294957947709959
 40
0.3073961605551158
 40
0.3958213330636481
 40
0.4942234146148665
 40
0.6023570352749689
 40
0.7208416780209387
 40
0.7784020185478353
 40
0.8189248635725266
 40
0.8601126183163809
 40
0.9094622684477506
 40
0.9547308420329816
 40
0.97736511789269
 40
0.9886815728491268
 40
0.99514863784258
 40
1.0
 40
1.0
 40
1.0
 40
1.0
 10
321.5335968385237
 20
128.7577139826507
 30
0.0
 10
321.5293289267006
 20
128.3954773607211
 30
0.0
 10
321.522753545014
 20
127.5140300000077
 30
0.0
 10
321.4399387095071
 20
125.9548557714764
 30
0.0
 10
321.1896630654173
 20
123.9309185003744
 30
0.0
 10
320.5735112420317
 20
121.4858191467858
 30
0.0
 10
319.3356691162073
 20
118.7492873092013
 30
0.0
 10
317.2228328596188
 20
115.9649459431597
 30
0.0
 10
313.9694916957481
 20
113.6628413944533
 30
0.0
 10
309.7795228813326
 20
112.3027759190119
 30
0.0
 10
305.025562964629
 20
111.5546967920468
 30
0.0
 10
300.8403011657572
 20
111.1487449499458
 30
0.0
 10
297.6477961644204
 20
110.8779941096658
 30
0.0
 10
295.5906874903522
 20
110.7602128856083
 30
0.0
 10
293.6537266485807
 20
110.6740145588625
 30
0.0
 10
291.64560208094
 20
110.6108248961793
 30
0.0
 10
289.9112948678687
 20
110.5763216837901
 30
0.0
 10
288.7396128470841
 20
110.5559761797734
 30
0.0
 10
288.1416160383667
 20
110.5482295076363
 30
0.0
 10
287.8070825835864
 20
110.5387034235388
 30
0.0
 10
287.6398524427977
 20
110.5338204066841
 30
0.0
 10
287.5681837736206
 20
110.5311861699856
 30
0.0
  0
ARC
  5
21E
330
1BE
100
AcDbEntity
  8
$DDT_AUDIT_GENERATED_(9E)
  6
Continuous
 62
     7
100
AcDbCircle
 10
286.4505278235
 20
159.3936864819
 30
0.0
 40
48.87528098700861
100
AcDbArc
 50
269.4200642705
 51
271.3103259966
  0
SPLINE
  5
21F
330
1BE
100
AcDbEntity
  8
$DDT_AUDIT_GENERATED_(9E)
  6
Continuous
 62
     7
100
AcDbSpline
210
0.0
220
0.0
230
1.0
 70
     8
 71
     3
 72
    18
 73
    14
 74
     0
 42
0.0000000004916838
 43
0.0000000001
 40
0.0
 40
0.0
 40
0.0
 40
0.0
 40
0.0156538427502327
 40
0.0313056767288581
 40
0.062604398106661
 40
0.0939013703415039
 40
0.1251929263296808
 40
0.1875639950187409
 40
0.2500816781977534
 40
0.3127029645011682
 40
0.3753331524590425
 40
0.5000592951446732
 40
0.5311975089313172
 40
0.5311975089313172
 40
0.5311975089313172
 40
0.5311975089313172
 10
285.9558310414018
 20
110.52090912427
 30
0.0
 10
285.7796808048135
 20
110.5068196753676
 30
0.0
 10
285.4270652269331
 20
110.4981137376141
 30
0.0
 10
284.7219468932771
 20
110.4778423612054
 30
0.0
 10
283.8414773952127
 20
110.4335146595395
 30
0.0
 10
282.7948473664015
 20
110.3244046998481
 30
0.0
 10
281.4508735445418
 20
110.0752967062947
 30
0.0
 10
279.970325915054
 20
109.5635474457747
 30
0.0
 10
278.6205179936941
 20
108.8466045166501
 30
0.0
 10
277.5692822498739
 20
108.1743524367213
 30
0.0
 10
276.5277126918475
 20
107.4323028079542
 30
0.0
 10
276.1225033971963
 20
107.0701207723661
 30
0.0
 10
276.1951542409986
 20
107.0561977998154
 30
0.0
 10
276.2234773198078
 20
107.0625529019786
 30
0.0
  0
SPLINE
  5
220
330
1BE
100
AcDbEntity
  8
$DDT_AUDIT_GENERATED_(9E)
  6
Continuous
 62
     7
100
AcDbSpline
210
0.0
220
0.0
230
1.0
 70
     8
 71
     3
 72
     8
 73
     4
 74
     0
 42
0.0000000033008542
 43
0.0000000001
 40
0.5311975089313172
 40
0.5311975089313172
 40
0.5311975089313172
 40
0.5311975089313172
 40
0.5360321051980617
 40
0.5360321051980617
 40
0.5360321051980617
 40
0.5360321051980617
 10
276.2234773198078
 20
107.0625529019786
 30
0.0
 10
276.227874831239
 20
107.0635396108953
 30
0.0
 10
276.2326052300184
 20
107.0647465707075
 30
0.0
 10
276.2376661688247
 20
107.0661714633424
 30
0.0
  0
LINE
  5
221
330
1BE
100
AcDbEntity
  8
$DDT_AUDIT_GENERATED_(9E)
  6
Continuous
 62
     7
100
AcDbLine
 10
260.119965458
 20
107.1898596179
 30
0.0
 11
260.119965458
 21
129.1190345502
 31
0.0
  0
LINE
  5
222
330
1BE
100
AcDbEntity
  8
$DDT_AUDIT_GENERATED_(9E)
  6
Continuous
 62
     7
100
AcDbLine
 10
260.119965458
 20
149.5445936827
 30
0.0
 11
260.119965458
 21
147.03529914
 31
0.0
  0
LINE
  5
223
330
1BE
100
AcDbEntity
  8
$DDT_AUDIT_GENERATED_(9E)
  6
Continuous
 62
     7
100
AcDbLine
 10
260.119965458
 20
146.4208087748
 30
0.0
 11
260.119965458
 21
147.0351339038
 31
0.0
  0
LINE
  5
224
330
1BE
100
AcDbEntity
  8
$DDT_AUDIT_GENERATED_(9E)
  6
Continuous
 62
     7
100
AcDbLine
 10
260.119965458
 20
129.1190345502
 30
0.0
 11
260.119965458
 21
146.420770704
 31
0.0
  0
SPLINE
  5
225
330
1BE
100
AcDbEntity
  8
$DDT_AUDIT_GENERATED_(9E)
  6
Continuous
 62
     7
100
AcDbSpline
210
0.0
220
0.0
230
1.0
 70
     8
 71
     3
 72
    15
 73
    11
 74
     0
 42
0.0000000018284564
 43
0.0000000001
 40
0.5314242288392597
 40
0.5314242288392597
 40
0.5314242288392597
 40
0.5314242288392597
 40
0.5419035458970904
 40
0.6076122683986462
 40
0.6731016089048676
 40
0.738407517737568
 40
0.8035208641151186
 40
0.8684711680642055
 40
0.9335760874473364
 40
1.0
 40
1.0
 40
1.0
 40
1.0
 10
260.4227228992734
 20
149.862868764303
 30
0.0
 10
260.4227212041065
 20
149.8629593505474
 30
0.0
 10
260.4227061523159
 20
149.8603437834906
 30
0.0
 10
260.4226412144432
 20
149.8112117854561
 30
0.0
 10
260.4224633076896
 20
149.6390204801299
 30
0.0
 10
260.4221994756722
 20
149.3665403269297
 30
0.0
 10
260.4218496289977
 20
148.9981574458544
 30
0.0
 10
260.4214102734807
 20
148.5341071867456
 30
0.0
 10
260.4208746761581
 20
147.9794697382015
 30
0.0
 10
260.4204661589326
 20
147.5292670069535
 30
0.0
 10
260.4202421042481
 20
147.3003662310863
 30
0.0
  0
ARC
  5
226
330
1BE
100
AcDbEntity
  8
$DDT_AUDIT_GENERATED_(9E)
  6
Continuous
 62
     7
100
AcDbCircle
 10
265.2327016844
 20
49.0684466491
 30
0.0
 40
57.86374368791329
100
AcDbArc
 50
88.1064341645
 51
92.1363861204
  0
ARC
  5
227
330
1BE
100
AcDbEntity
  8
$DDT_AUDIT_GENERATED_(9E)
  6
Continuous
 62
     7
100
AcDbCircle
 10
265.1421328643
 20
94.6783045518
 30
0.0
 40
12.38837248345534
100
AcDbArc
 50
80.7384537999
 51
99.5167362793
  0
SPLINE
  5
228
330
1BE
100
AcDbEntity
  8
$DDT_AUDIT_GENERATED_(9E)
  6
Continuous
 62
     7
100
AcDbSpline
210
0.0
220
0.0
230
1.0
 70
     8
 71
     3
 72
    31
 73
    27
 74
     0
 42
0.000000000139528
 43
0.0000000001
 40
0.0
 40
0.0
 40
0.0
 40
0.0
 40
0.0625136525588684
 40
0.1250273115243551
 40
0.250054468264626
 40
0.350080729976093
 40
0.5001071455291839
 40
0.5626255630917114
 40
0.6251328372332653
 40
0.6876152921897395
 40
0.7188822443929335
 40
0.7501021601965128
 40
0.7813268062367643
 40
0.8125455217055664
 40
0.8437677183135763
 40
0.8749952270070935
 40
0.8906127765822655
 40
0.9062363984754065
 40
0.921869854778921
 40
0.9375040467435176
 40
0.9531291302294783
 40
0.9687553284591813
 40
0.9765690091074846
 40
0.9843830226673675
 40
0.99219755961696
 40
1.0
 40
1.0
 40
1.0
 40
1.0
 10
260.4202421042481
 20
147.3003662310863
 30
0.0
 10
261.9129556522656
 20
147.3022886463212
 30
0.0
 10
264.8973695249612
 20
147.3024685204642
 30
0.0
 10
270.8661525340943
 20
147.2954435179142
 30
0.0
 10
277.730409748911
 20
147.2506608897847
 30
0.0
 10
286.6827383185651
 20
147.131117450924
 30
0.0
 10
294.141716186645
 20
146.8914349381126
 30
0.0
 10
300.6937569345499
 20
146.4543685603208
 30
0.0
 10
305.1472250765952
 20
146.0074957591545
 30
0.0
 10
308.8375550234394
 20
145.4201221328335
 30
0.0
 10
311.7197105806134
 20
144.635641263397
 30
0.0
 10
313.8042395235633
 20
143.8069520452111
 30
0.0
 10
315.7429078903214
 20
142.6730073401317
 30
0.0
 10
317.4474851432744
 20
141.2065522153817
 30
0.0
 10
318.8510610698313
 20
139.4527499005277
 30
0.0
 10
319.7721784989882
 20
137.8251565184252
 30
0.0
 10
320.3618336480448
 20
136.4553672641479
 30
0.0
 10
320.7278618110443
 20
135.3976025662995
 30
0.0
 10
321.015625133057
 20
134.3156089970073
 30
0.0
 10
321.2287228583494
 20
133.2165552006167
 30
0.0
 10
321.3759930209353
 20
132.1072305357254
 30
0.0
 10
321.455049555718
 20
131.1783955751911
 30
0.0
 10
321.4981153937686
 20
130.4340478664627
 30
0.0
 10
321.5203164791824
 20
129.8752459616805
 30
0.0
 10
321.5328297411013
 20
129.3163904503809
 30
0.0
 10
321.5339404483657
 20
128.9438460456813
 30
0.0
 10
321.5335968385237
 20
128.7577139826507
 30
0.0
  0
ARC
  5
229
330
1BE
100
AcDbEntity
  8
$DDT_AUDIT_GENERATED_(9E)
  6
Continuous
 62
     7
100
AcDbCircle
 10
453.9808920479
 20
128.3332664052
 30
0.0
 40
131.1218255506337
100
AcDbArc
 50
176.8512280826
 51
179.8694321463
  0
ARC
  5
22A
330
1BE
100
AcDbEntity
  8
$DDT_AUDIT_GENERATED_(9E)
  6
Continuous
 62
     7
100
AcDbCircle
 10
568.2661931394
 20
126.3057648196
 30
0.0
 40
245.4167820793701
100
AcDbArc
 50
179.5255476317
 51
181.1870054534
  0
SPLINE
  5
22B
330
1BE
100
AcDbEntity
  8
$DDT_AUDIT_GENERATED_(9E)
  6
Continuous
 62
     7
100
AcDbSpline
210
0.0
220
0.0
230
1.0
 70
     8
 71
     3
 72
     8
 73
     4
 74
     0
 42
0.0000007070819151
 43
0.0000000001
 40
0.0
 40
0.0
 40
0.0
 40
0.0
 40
1.0
 40
1.0
 40
1.0
 40
1.0
 10
322.8604218364483
 20
128.630487897191
 30
0.0
 10
322.8676001004745
 20
128.6315662287194
 30
0.0
 10
322.8701697639322
 20
128.6310164984706
 30
0.0
 10
322.8680629284111
 20
128.6273185343839
 30
0.0
  0
ARC
  5
22C
330
1BE
100
AcDbEntity
  8
$DDT_AUDIT_GENERATED_(9E)
  6
Continuous
 62
     7
100
AcDbCircle
 10
287.6579906279
 20
293.9948598487
 30
0.0
 40
184.5374530183048
100
AcDbArc
 50
269.9750184501
 51
272.9763799506
  0
ARC
  5
22D
330
1BE
100
AcDbEntity
  8
$DDT_AUDIT_GENERATED_(9E)
  6
Continuous
 62
     7
100
AcDbCircle
 10
298.0431645565
 20
98.8663795473
 30
0.0
 40
10.86968005656499
100
AcDbArc
 50
77.0528084686
 51
94.2376631517
  0
SPLINE
  5
22E
330
1BE
100
AcDbEntity
  8
$DDT_AUDIT_GENERATED_(9E)
  6
Continuous
 62
     7
100
AcDbSpline
210
0.0
220
0.0
230
1.0
 70
     8
 71
     3
 72
     8
 73
     4
 74
     0
 42
0.0000000338866267
 43
0.0000000001
 40
0.1386840692349944
 40
0.1386840692349944
 40
0.1386840692349944
 40
0.1386840692349944
 40
0.2071905085491277
 40
0.2071905085491277
 40
0.2071905085491277
 40
0.2071905085491277
 10
301.9275966827345
 20
108.915063365366
 30
0.0
 10
301.9223768157179
 20
108.9131809282746
 30
0.0
 10
301.9158383981573
 20
108.9116939405713
 30
0.0
 10
301.9079525036286
 20
108.9105952414149
 30
0.0
  0
SPLINE
  5
22F
330
1BE
100
AcDbEntity
  8
$DDT_AUDIT_GENERATED_(9E)
  6
Continuous
 62
     7
100
AcDbSpline
210
0.0
220
0.0
230
1.0
 70
     8
 71
     3
 72
    10
 73
     6
 74
     0
 42
0.0000000136308847
 43
0.0000000001
 40
0.2539503059789517
 40
0.2539503059789517
 40
0.2539503059789517
 40
0.2539503059789517
 40
0.5
 40
0.5
 40
0.5908149190055075
 40
0.5908149190055075
 40
0.5908149190055075
 40
0.5908149190055075
 10
301.8899121779426
 20
108.9088858760483
 30
0.0
 10
301.8549338790119
 20
108.906831556468
 30
0.0
 10
301.8023187069692
 20
108.9097230297884
 30
0.0
 10
301.7043023551342
 20
108.9199987416732
 30
0.0
 10
301.6753832280339
 20
108.923383415617
 30
0.0
 10
301.6439007902256
 20
108.9273406555893
 30
0.0
  0
ARC
  5
230
330
1BE
100
AcDbEntity
  8
$DDT_AUDIT_GENERATED_(9E)
  6
Continuous
 62
     7
100
AcDbCircle
 10
284.8918605889
 20
100.6060775995
 30
0.0
 40
8.81975070936225
100
AcDbArc
 50
90.6883136288
 51
115.7031142438
  0
SPLINE
  5
231
330
1BE
100
AcDbEntity
  8
$DDT_AUDIT_GENERATED_(9E)
  6
Continuous
 62
     7
100
AcDbSpline
210
0.0
220
0.0
230
1.0
 70
     8
 71
     3
 72
    10
 73
     6
 74
     0
 42
0.0000000141688107
 43
0.0000000001
 40
0.4425008919295157
 40
0.4425008919295157
 40
0.4425008919295157
 40
0.4425008919295157
 40
0.5
 40
0.5
 40
0.7495458459625178
 40
0.7495458459625178
 40
0.7495458459625178
 40
0.7495458459625178
 10
280.414935673993
 20
108.0232702382141
 30
0.0
 10
280.3966255419642
 20
108.0172476710434
 30
0.0
 10
280.3793269664565
 20
108.0116554666811
 30
0.0
 10
280.2923029385332
 20
107.9841854517849
 30
0.0
 10
280.2405744213942
 20
107.9703448213656
 30
0.0
 10
280.2064954927098
 20
107.9653377753911
 30
0.0
  0
SPLINE
  5
232
330
1BE
100
AcDbEntity
  8
$DDT_AUDIT_GENERATED_(9E)
  6
Continuous
 62
     7
100
AcDbSpline
210
0.0
220
0.0
230
1.0
 70
     8
 71
     3
 72
     8
 73
     4
 74
     0
 42
0.0000000318998407
 43
0.0000000001
 40
0.7700495917168704
 40
0.7700495917168704
 40
0.7700495917168704
 40
0.7700495917168704
 40
0.844746876151035
 40
0.844746876151035
 40
0.844746876151035
 40
0.844746876151035
 10
280.1984519912135
 20
107.96428267381
 30
0.0
 10
280.1891164839799
 20
107.9632191187294
 30
0.0
 10
280.1813524499959
 20
107.96294961942
 30
0.0
 10
280.1751237013772
 20
107.9634835201299
 30
0.0
  0
ELLIPSE
  5
233
330
1BE
100
AcDbEntity
  8
$DDT_AUDIT_GENERATED_(9E)
  6
Continuous
 62
     7
100
AcDbEllipse
 10
284.7811178166
 20
109.6190854064
 30
0.0
 11
-0.004897012982091331
 21
0.1999400391713771
 31
0.0
210
0.0
220
0.0
230
1.0
 40
0.0008550189
 41
3.141243064894634
 42
3.388129241003027
  0
LINE
  5
234
330
1BE
100
AcDbEntity
  8
$DDT_AUDIT_GENERATED_(9E)
  6
Continuous
 62
     7
100
AcDbLine
 10
287.5775502523
 20
109.4513995883
 30
0.0
 11
287.5775055865
 21
109.4574241872
 31
0.0
  0
ELLIPSE
  5
235
330
1BE
100
AcDbEntity
  8
$DDT_AUDIT_GENERATED_(9E)
  6
Continuous
 62
     7
100
AcDbEllipse
 10
301.039613653
 20
109.5063986363
 30
0.0
 11
0.05682686327659892
 21
0.1917568971643371
 31
0.0
210
0.0
220
0.0
230
0.9999999999999999
 40
0.8988307569
 41
3.112821268610375
 42
3.142158520696826
  0
ARC
  5
236
330
1BE
100
AcDbEntity
  8
$DDT_AUDIT_GENERATED_(9E)
  6
Continuous
 62
     7
100
AcDbCircle
 10
446.064063061
 20
128.5019236937
 30
0.0
 40
123.1976507729843
100
AcDbArc
 50
176.7494243286
 51
179.9402335383
  0
ARC
  5
237
330
1BE
100
AcDbEntity
  8
$DDT_AUDIT_GENERATED_(9E)
  6
Continuous
 62
     7
100
AcDbCircle
 10
548.7009974541
 20
126.263719699
 30
0.0
 40
225.8453030637152
100
AcDbArc
 50
179.4003563141
 51
181.2664470676
  0
ARC
  5
238
330
1BE
100
AcDbEntity
  8
$DDT_AUDIT_GENERATED_(9E)
  6
Continuous
 62
     7
100
AcDbCircle
 10
262.4543310778
 20
1682.162048027
 30
0.0
 40
1575.281686501924
100
AcDbArc
 50
270.1650651123
 51
270.4616872924
  0
ARC
  5
239
330
1BE
100
AcDbEntity
  8
$DDT_AUDIT_GENERATED_(9E)
  6
Continuous
 62
     7
100
AcDbCircle
 10
260.5491046208
 20
1971.352455729
 30
0.0
 40
1864.474724286645
100
AcDbArc
 50
269.9960341309
 51
270.0823208704
  0
ARC
  5
23A
330
1BE
100
AcDbEntity
  8
$DDT_AUDIT_GENERATED_(9E)
  6
Continuous
 62
     7
100
AcDbCircle
 10
275.1682021398
 20
111.5263976742
 30
0.0
 40
4.582674500550091
100
AcDbArc
 50
269.4697091667
 51
283.4852206398
  0
SPLINE
  5
23B
330
1BE
100
AcDbEntity
  8
$DDT_AUDIT_GENERATED_(9E)
  6
Continuous
 62
     7
100
AcDbSpline
210
0.0
220
0.0
230
1.0
 70
     8
 71
     3
 72
    25
 73
    21
 74
     0
 42
0.0000000003809416
 43
0.0000000001
 40
0.0
 40
0.0
 40
0.0
 40
0.0
 40
0.0490381429464653
 40
0.1018135053868424
 40
0.1814889397424547
 40
0.2581472372015478
 40
0.3310722875279795
 40
0.4003500985030428
 40
0.4660641089730837
 40
0.5278878884000366
 40
0.5849847061421108
 40
0.6366078778974615
 40
0.6823536751095525
 40
0.7234586235496921
 40
0.7642670161838065
 40
0.8050504855896485
 40
0.8593824624765715
 40
0.9137923199211563
 40
0.9684740242031178
 40
1.0
 40
1.0
 40
1.0
 40
1.0
 10
301.9000375706724
 20
108.9099253851196
 30
0.0
 10
302.3699165857906
 20
108.9501863982452
 30
0.0
 10
303.1929307799475
 20
109.0215773340351
 30
0.0
 10
304.8025589710755
 20
109.1771892212974
 30
0.0
 10
306.6070603704843
 20
109.3850198477661
 30
0.0
 10
308.5929514034268
 20
109.6848284795403
 30
0.0
 10
310.4688507622226
 20
110.0625212194878
 30
0.0
 10
312.2265913339967
 20
110.5325786922205
 30
0.0
 10
313.8500406316991
 20
111.1093761634616
 30
0.0
 10
315.3166438430603
 20
111.7898360237316
 30
0.0
 10
316.6031914637825
 20
112.5483057599697
 30
0.0
 10
317.6958899516102
 20
113.3453076080569
 30
0.0
 10
318.607275987877
 20
114.1443332351385
 30
0.0
 10
319.3870581011644
 20
114.944026638825
 30
0.0
 10
320.0801232755895
 20
115.7640370932526
 30
0.0
 10
320.7836557918145
 20
116.722078238737
 30
0.0
 10
321.4763428006437
 20
117.8358082448825
 30
0.0
 10
322.1158453414803
 20
119.104179171306
 30
0.0
 10
322.6022536315099
 20
120.2685679860061
 30
0.0
 10
322.8009422895815
 20
120.9439827238839
 30
0.0
 10
322.8854452456985
 20
121.2351483943671
 30
0.0
  0
ARC
  5
23C
330
1BE
100
AcDbEntity
  8
$DDT_AUDIT_GENERATED_(9E)
  6
Continuous
 62
     7
100
AcDbCircle
 10
287.4363375522
 20
66.7268305615
 30
0.0
 40
41.86304968219564
100
AcDbArc
 50
99.9491484508
 51
105.5152499704
  0
ARC
  5
23D
330
1BE
100
AcDbEntity
  8
$DDT_AUDIT_GENERATED_(9E)
  6
Continuous
 62
     7
100
AcDbCircle
 10
260.4199654588
 20
149.5448804242
 30
0.0
 40
0.3000000007951381
100
AcDbArc
 50
89.4233752554
 51
180.0010540773
  0
ELLIPSE
  5
23E
330
1BE
100
AcDbEntity
  8
$DDT_AUDIT_GENERATED_(9E)
  6
Continuous
 62
     7
100
AcDbEllipse
 10
260.419965458
 20
107.1785264543
 30
0.0
 11
0.3000000000002584
 21
-2.690625500179067E-10
 31
0.0
210
0.0
220
0.0
230
1.0
 40
0.9999542772
 41
3.135428987285488
 42
4.722734247870154
  0
ARC
  5
23F
330
1BE
100
AcDbEntity
  8
$DDT_AUDIT_GENERATED_(9E)
  6
Continuous
 62
     7
100
AcDbCircle
 10
267.12321473
 20
107.1367698989
 30
0.0
 40
0.2217402840913328
100
AcDbArc
 50
252.0318718042
 51
252.3266847649
  0
SPLINE
  5
240
330
1BE
100
AcDbEntity
  8
$DDT_AUDIT_GENERATED_(9E)
  6
Continuous
 62
     7
100
AcDbSpline
210
0.0
220
0.0
230
1.0
 70
     8
 71
     3
 72
    62
 73
    58
 74
     0
 42
0.0000000001380373
 43
0.0000000001
 40
0.0
 40
0.0
 40
0.0
 40
0.0
 40
0.0091309537939266
 40
0.0242844617029949
 40
0.0439318432146085
 40
0.0629982104222415
 40
0.0814439848491013
 40
0.0992078797926237
 40
0.1162431371396693
 40
0.1325173704208567
 40
0.1554299092154663
 40
0.1764510211311358
 40
0.1954935981299249
 40
0.21252911096805
 40
0.2275764891157706
 40
0.2408914443215642
 40
0.2539578097466411
 40
0.2670614188982415
 40
0.2934142794660456
 40
0.319689009405457
 40
0.345225741804139
 40
0.3703061893294639
 40
0.3865792512326932
 40
0.402438115191527
 40
0.4180939785309824
 40
0.4417547018927402
 40
0.4661629282483221
 40
0.4890422698364823
 40
0.5138199885222385
 40
0.5406512435069897
 40
0.5695389697245469
 40
0.6004772875212782
 40
0.6262156814183748
 40
0.6532041776475151
 40
0.6801112160186917
 40
0.7048451109099747
 40
0.7273906402536204
 40
0.7467529438346455
 40
0.7642871037497715
 40
0.7801631278161947
 40
0.7944891510700711
 40
0.8077295212224749
 40
0.8204783634979637
 40
0.8266274378732669
 40
0.8325984601726264
 40
0.8395990270320134
 40
0.8493065170360828
 40
0.8617184517308233
 40
0.8766894196402544
 40
0.8938945205672588
 40
0.912891142079438
 40
0.933314184736103
 40
0.9462295029693492
 40
0.9597304298600233
 40
0.9739967451427837
 40
0.9894025633847335
 40
1.0
 40
1.0
 40
1.0
 40
1.0
 10
323.0548068662366
 20
135.5121811001637
 30
0.0
 10
322.9898275023737
 20
135.7458452832839
 30
0.0
 10
322.8416562044006
 20
136.2727817140742
 30
0.0
 10
322.4686927968146
 20
137.2931452368328
 30
0.0
 10
321.9503091016043
 20
138.4769344108958
 30
0.0
 10
321.2956679569772
 20
139.6967320639257
 30
0.0
 10
320.5716132529038
 20
140.81888273714
 30
0.0
 10
319.7866323704569
 20
141.8391109757956
 30
0.0
 10
318.956193666398
 20
142.7524644000115
 30
0.0
 10
317.968217751062
 20
143.6849878734993
 30
0.0
 10
316.8317302365546
 20
144.5943156560072
 30
0.0
 10
315.5800970400927
 20
145.4583791808661
 30
0.0
 10
314.4142868447938
 20
146.1934564194225
 30
0.0
 10
313.360125472709
 20
146.8338020276108
 30
0.0
 10
312.4259931208667
 20
147.4046834986183
 30
0.0
 10
311.5821091645071
 20
147.9378885216672
 30
0.0
 10
310.7887754004084
 20
148.4637066349401
 30
0.0
 10
309.7517626870994
 20
149.1905995188962
 30
0.0
 10
308.4925865302234
 20
150.1549377269527
 30
0.0
 10
307.040788280533
 20
151.3586668781777
 30
0.0
 10
305.6086047553059
 20
152.5385268692436
 30
0.0
 10
304.3060602547311
 20
153.4964657715694
 30
0.0
 10
303.1169223614661
 20
154.2028828679393
 30
0.0
 10
302.0682770411621
 20
154.6895345050091
 30
0.0
 10
300.8029764119779
 20
155.1149953749271
 30
0.0
 10
299.2892162568311
 20
155.4153259134328
 30
0.0
 10
297.5841797449223
 20
155.5901861267142
 30
0.0
 10
295.8480806734625
 20
155.7104815054062
 30
0.0
 10
294.0523464754986
 20
155.8145284856068
 30
0.0
 10
292.11102309797
 20
155.9131923613802
 30
0.0
 10
290.0203622769623
 20
156.0032018416068
 30
0.0
 10
287.9555495288939
 20
156.0788915091312
 30
0.0
 10
285.9362512860893
 20
156.1435143202077
 30
0.0
 10
284.0140192612295
 20
156.1973460875511
 30
0.0
 10
282.1158425110846
 20
156.2432029957073
 30
0.0
 10
280.3247878921877
 20
156.2802129446674
 30
0.0
 10
278.7153907033632
 20
156.2891356146355
 30
0.0
 10
277.2802146711422
 20
156.2312538131001
 30
0.0
 10
276.0136999483348
 20
156.0718687669871
 30
0.0
 10
274.8906445906593
 20
155.8010712092672
 30
0.0
 10
273.902971396929
 20
155.4422712279901
 30
0.0
 10
273.0224542743931
 20
155.0248803767695
 30
0.0
 10
272.3463906102486
 20
154.6431829083304
 30
0.0
 10
271.8348311630671
 20
154.3288868495779
 30
0.0
 10
271.4461988011793
 20
154.0797500031263
 30
0.0
 10
270.9900943457215
 20
153.7770065576432
 30
0.0
 10
270.4100612015198
 20
153.3804084637098
 30
0.0
 10
269.6746377615127
 20
152.8707630702937
 30
0.0
 10
268.784567827658
 20
152.2672748861729
 30
0.0
 10
267.7383628540292
 20
151.6126453084715
 30
0.0
 10
266.5322348074559
 20
150.9719217941132
 30
0.0
 10
265.358818446413
 20
150.5037381399744
 30
0.0
 10
264.2721762365375
 20
150.2021602976129
 30
0.0
 10
263.3074216537821
 20
150.0216972407145
 30
0.0
 10
262.2792620505983
 20
149.9129961149852
 30
0.0
 10
261.2873451962396
 20
149.8697144291751
 30
0.0
 10
260.703563635276
 20
149.8668186875712
 30
0.0
 10
260.4225525449997
 20
149.866490962103
 30
0.0
  0
ARC
  5
241
330
1BE
100
AcDbEntity
  8
$DDT_AUDIT_GENERATED_(9E)
  6
Continuous
 62
     7
100
AcDbCircle
 10
287.7085830583
 20
95.2448808035
 30
0.0
 40
14.86161909012723
100
AcDbArc
 50
116.4727201941
 51
117.5873005831
  0
SPLINE
  5
242
330
1BE
100
AcDbEntity
  8
$DDT_AUDIT_GENERATED_(9E)
  6
Continuous
 62
     7
100
AcDbSpline
210
0.0
220
0.0
230
1.0
 70
     8
 71
     3
 72
    14
 73
    10
 74
     0
 42
0.0000000129434199
 43
0.0000000001
 40
0.1758388211374054
 40
0.1758388211374054
 40
0.1758388211374054
 40
0.1758388211374054
 40
0.1814604625052307
 40
0.2868827897331593
 40
0.4301681208057176
 40
0.6066351582969346
 40
0.8012952025971237
 40
0.9982703490658733
 40
1.0
 40
1.0
 40
1.0
 40
1.0
 10
280.2910135623477
 20
108.0753189566481
 30
0.0
 10
280.2910108854061
 20
108.0752965550772
 30
0.0
 10
280.2912065952302
 20
108.0751501369517
 30
0.0
 10
280.3027365834485
 20
108.0878034837168
 30
0.0
 10
280.3519625765064
 20
108.1276925466262
 30
0.0
 10
280.4491362054655
 20
108.1968516881866
 30
0.0
 10
280.6042696711249
 20
108.2932463118297
 30
0.0
 10
280.7417681990316
 20
108.3735281749499
 30
0.0
 10
280.8253305369541
 20
108.4163943549224
 30
0.0
 10
280.8261732067815
 20
108.4168266208469
 30
0.0
  0
LINE
  5
243
330
1BE
100
AcDbEntity
  8
$DDT_AUDIT_GENERATED_(9E)
  6
Continuous
 62
     7
100
AcDbLine
 10
281.0837599037
 20
108.5476448491
 30
0.0
 11
281.1277013516
 21
108.5684010251
 31
0.0
  0
ARC
  5
244
330
1BE
100
AcDbEntity
  8
$DDT_AUDIT_GENERATED_(9E)
  6
Continuous
 62
     7
100
AcDbCircle
 10
288.2027678935
 20
-59.8358891616
 30
0.0
 40
169.2885162436405
100
AcDbArc
 50
90.2116081735
 51
91.1564623676
  0
SPLINE
  5
245
330
1BE
100
AcDbEntity
  8
$DDT_AUDIT_GENERATED_(9E)
  6
Continuous
 62
     7
100
AcDbSpline
210
0.0
220
0.0
230
1.0
 70
     8
 71
     3
 72
    16
 73
    12
 74
     0
 42
0.0000000103150791
 43
0.0000000001
 40
0.0
 40
0.0
 40
0.0
 40
0.0
 40
0.0536679988344526
 40
0.208326614428731
 40
0.3714144305116373
 40
0.5367518457947889
 40
0.6854893787737547
 40
0.8003812594045651
 40
0.8750478407065597
 40
0.9322260934282446
 40
0.9546404233376821
 40
0.9546404233376821
 40
0.9546404233376821
 40
0.9546404233376821
 10
300.9780448443328
 20
109.3168774657728
 30
0.0
 10
301.0150352590375
 20
109.3054535131996
 30
0.0
 10
301.1370339976587
 20
109.2676482464468
 30
0.0
 10
301.3272942752137
 20
109.2057152334064
 30
0.0
 10
301.5229956791299
 20
109.1323343019217
 30
0.0
 10
301.663144563316
 20
109.0713534817622
 30
0.0
 10
301.7463556330371
 20
109.0285484019117
 30
0.0
 10
301.7774705793399
 20
109.0077720265711
 30
0.0
 10
301.775035809825
 20
109.0083713723381
 30
0.0
 10
301.7569553100309
 20
109.0273753626584
 30
0.0
 10
301.7437039656276
 20
109.0522733848441
 30
0.0
 10
301.7401807359349
 20
109.0607475395743
 30
0.0
  0
ARC
  5
246
330
1BE
100
AcDbEntity
  8
$DDT_AUDIT_GENERATED_(9E)
  6
Continuous
 62
     7
100
AcDbCircle
 10
298.7613602112
 20
101.8075704882
 30
0.0
 40
7.828944014632079
100
AcDbArc
 50
73.5145335982
 51
77.7868767726
  0
SPLINE
  5
247
330
1BE
100
AcDbEntity
  8
$DDT_AUDIT_GENERATED_(D3)
  6
Continuous
 62
     7
100
AcDbSpline
210
0.0
220
0.0
230
1.0
 70
     8
 71
     5
 72
    12
 73
     6
 74
     0
 42
0.0000000026705868
 43
0.0000000001
 40
0.6551850788888606
 40
0.6551850788888606
 40
0.6551850788888606
 40
0.6551850788888606
 40
0.6551850788888606
 40
0.6551850788888606
 40
0.6559844919257326
 40
0.6559844919257326
 40
0.6559844919257326
 40
0.6559844919257326
 40
0.6559844919257326
 40
0.6559844919257326
 10
301.1578298321205
 20
106.8184268722503
 30
0.0
 10
301.1572523766552
 20
106.8183950519989
 30
0.0
 10
301.1566645623199
 20
106.8183676139937
 30
0.0
 10
301.1560663767486
 20
106.8183445601212
 30
0.0
 10
301.1554578080467
 20
106.8183258921416
 30
0.0
 10
301.1548388447594
 20
106.8183116116916
 30
0.0
  0
LINE
  5
248
330
1BE
100
AcDbEntity
  8
$DDT_AUDIT_GENERATED_(D3)
  6
Continuous
 62
     7
100
AcDbLine
 10
280.9973422891
 20
106.3611597524
 30
0.0
 11
301.1479592322
 21
106.8181626572
 31
0.0
  0
LINE
  5
249
330
1BE
100
AcDbEntity
  8
$DDT_AUDIT_GENERATED_(D3)
  6
Continuous
 62
     7
100
AcDbLine
 10
301.6670784005
 20
107.341621769
 30
0.0
 11
301.6274828383
 21
109.0853813965
 31
0.0
  0
ARC
  5
24A
330
1BE
100
AcDbEntity
  8
$DDT_AUDIT_GENERATED_(D3)
  6
Continuous
 62
     7
100
AcDbCircle
 10
301.1921480656
 20
107.294380654
 30
0.0
 40
0.4773910879578593
100
AcDbArc
 50
265.673653923
 51
5.8017382323
  0
ARC
  5
24B
330
1BE
100
AcDbEntity
  8
$DDT_AUDIT_GENERATED_(D3)
  6
Continuous
 62
     7
100
AcDbCircle
 10
280.930004883
 20
106.8357846875
 30
0.0
 40
0.478343203676755
100
AcDbArc
 50
177.2762645284
 51
276.9361606195
  0
LINE
  5
24C
330
1BE
100
AcDbEntity
  8
$DDT_AUDIT_GENERATED_(197)
  6
Continuous
 62
     7
100
AcDbLine
 10
75.999965458
 20
185.2791776976
 30
0.0
 11
103.999965458
 21
185.2791776976
 31
0.0
  0
LINE
  5
24D
330
1BE
100
AcDbEntity
  8
$DDT_AUDIT_GENERATED_(197)
  6
Continuous
 62
     7
100
AcDbLine
 10
75.999965458
 20
185.2791776976
 30
0.0
 11
75.999965458
 21
184.4791776976
 31
0.0
  0
LINE
  5
24E
330
1BE
100
AcDbEntity
  8
$DDT_AUDIT_GENERATED_(197)
  6
Continuous
 62
     7
100
AcDbLine
 10
103.999965458
 20
184.4791776976
 30
0.0
 11
103.999965458
 21
185.2791776976
 31
0.0
  0
LINE
  5
24F
330
1BE
100
AcDbEntity
  8
$DDT_AUDIT_GENERATED_(19B)
  6
Continuous
 62
     7
100
AcDbLine
 10
250.449965458
 20
167.3791776976
 30
0.0
 11
229.549965458
 21
167.3791776976
 31
0.0
  0
LINE
  5
250
330
1BE
100
AcDbEntity
  8
$DDT_AUDIT_GENERATED_(19B)
  6
Continuous
 62
     7
100
AcDbLine
 10
250.449965458
 20
166.6791776976
 30
0.0
 11
250.449965458
 21
167.3791776976
 31
0.0
  0
LINE
  5
251
330
1BE
100
AcDbEntity
  8
$DDT_AUDIT_GENERATED_(19B)
  6
Continuous
 62
     7
100
AcDbLine
 10
229.549965458
 20
167.3791776976
 30
0.0
 11
229.549965458
 21
166.6791776976
 31
0.0
  0
LINE
  5
252
330
1BE
100
AcDbEntity
  8
$DDT_AUDIT_GENERATED_(19B)
  6
Continuous
 62
     7
100
AcDbLine
 10
250.449965458
 20
167.3791776976
 30
0.0
 11
250.3665150832
 21
167.4791776976
 31
0.0
  0
LINE
  5
253
330
1BE
100
AcDbEntity
  8
$DDT_AUDIT_GENERATED_(19B)
  6
Continuous
 62
     7
100
AcDbLine
 10
229.6334158328
 20
167.4791776976
 30
0.0
 11
229.549965458
 21
167.3791776976
 31
0.0
  0
SPLINE
  5
254
330
1BE
100
AcDbEntity
  8
$DDT_AUDIT_GENERATED_(F0)
  6
Continuous
 62
     7
100
AcDbSpline
210
0.0
220
0.0
230
1.0
 70
     8
 71
     3
 72
    12
 73
     8
 74
     0
 42
0.0000000270461862
 43
0.0000000001
 40
0.5640672994381761
 40
0.5640672994381761
 40
0.5640672994381761
 40
0.5640672994381761
 40
0.6237882513531487
 40
0.7501049282075628
 40
0.8262832496999482
 40
0.8932970829122782
 40
0.8980080822908605
 40
0.8980080822908605
 40
0.8980080822908605
 40
0.8980080822908605
 10
323.1844322314318
 20
135.0157891302256
 30
0.0
 10
323.1829726554146
 20
135.0180274900329
 30
0.0
 10
323.1761701019821
 20
135.0247380986241
 30
0.0
 10
323.1555532867123
 20
135.032147947659
 30
0.0
 10
323.1172459263146
 20
135.0300905102387
 30
0.0
 10
323.0867536099223
 20
135.0228211923002
 30
0.0
 10
323.06912708441
 20
135.0175362648824
 30
0.0
 10
323.0679561856335
 20
135.017180473052
 30
0.0
  0
SPLINE
  5
255
330
1BE
100
AcDbEntity
  8
$DDT_AUDIT_GENERATED_(F0)
  6
Continuous
 62
     7
100
AcDbSpline
210
0.0
220
0.0
230
1.0
 70
     8
 71
     3
 72
     8
 73
     4
 74
     0
 42
0.0000000261362086
 43
0.0000000001
 40
0.5092787058406396
 40
0.5092787058406396
 40
0.5092787058406396
 40
0.5092787058406396
 40
0.5118923267002349
 40
0.5118923267002349
 40
0.5118923267002349
 40
0.5118923267002349
 10
323.0912376542025
 20
121.8220617159916
 30
0.0
 10
323.0912569327333
 20
121.8219937860452
 30
0.0
 10
323.0912771405337
 20
121.8219998797137
 30
0.0
 10
323.0912982453598
 20
121.8220799072053
 30
0.0
  0
SPLINE
  5
256
330
1BE
100
AcDbEntity
  8
$DDT_AUDIT_GENERATED_(F0)
  6
Continuous
 62
     7
100
AcDbSpline
210
0.0
220
0.0
230
1.0
 70
     8
 71
     3
 72
     8
 73
     4
 74
     0
 42
0.0000001092038051
 43
0.0000000001
 40
0.0
 40
0.0
 40
0.0
 40
0.0
 40
1.0
 40
1.0
 40
1.0
 40
1.0
 10
323.2197284800766
 20
134.9356205375892
 30
0.0
 10
323.2007153637186
 20
134.9873228162872
 30
0.0
 10
323.188159888543
 20
135.0144394173674
 30
0.0
 10
323.1820620545496
 20
135.0169703408294
 30
0.0
  0
ARC
  5
257
330
1BE
100
AcDbEntity
  8
$DDT_AUDIT_GENERATED_(F0)
  6
Continuous
 62
     7
100
AcDbCircle
 10
322.8388841499
 20
121.8906214613
 30
0.0
 40
0.2615781250511249
100
AcDbArc
 50
287.2773984976
 51
344.6479233463
  0
ARC
  5
258
330
1BE
100
AcDbEntity
  8
$DDT_AUDIT_GENERATED_(F0)
  6
Continuous
 62
     7
100
AcDbCircle
 10
299.4112729214
 20
128.0596035891
 30
0.0
 40
24.48719767569102
100
AcDbArc
 50
345.1362599855
 51
0.7479009105
  0
ARC
  5
259
330
1BE
100
AcDbEntity
  8
$DDT_AUDIT_GENERATED_(F0)
  6
Continuous
 62
     7
100
AcDbCircle
 10
296.8017364778
 20
128.8922245309
 30
0.0
 40
27.09961370388215
100
AcDbArc
 50
358.9149968302
 51
12.9772452517
  0
SPLINE
  5
25A
330
1BE
100
AcDbEntity
  8
$DDT_AUDIT_GENERATED_(F0)
  6
Continuous
 62
     7
100
AcDbSpline
210
0.0
220
0.0
230
1.0
 70
     8
 71
     3
 72
    11
 73
     7
 74
     0
 42
0.0000000272659266
 43
0.0000000001
 40
0.0
 40
0.0
 40
0.0
 40
0.0
 40
0.1104039288264456
 40
0.1867949067401234
 40
0.2785977251593687
 40
0.4012808667161503
 40
0.4012808667161503
 40
0.4012808667161503
 40
0.4012808667161503
 10
323.1846063061166
 20
135.0158651115484
 30
0.0
 10
323.1696958634819
 20
135.0319714767188
 30
0.0
 10
323.1498518714666
 20
135.0542998948654
 30
0.0
 10
323.1002880702483
 20
135.0650561852156
 30
0.0
 10
323.0788562257162
 20
135.0626034971081
 30
0.0
 10
323.0645953073124
 20
135.059232704848
 30
0.0
 10
323.0565817110481
 20
135.0566835162477
 30
0.0
  0
LINE
  5
25B
330
1BE
100
AcDbEntity
  8
$DDT_AUDIT_GENERATED_(19B)
  6
Continuous
 62
     7
100
AcDbLine
 10
100.449965458
 20
167.3791776976
 30
0.0
 11
79.549965458
 21
167.3791776976
 31
0.0
  0
LINE
  5
25C
330
1BE
100
AcDbEntity
  8
$DDT_AUDIT_GENERATED_(19B)
  6
Continuous
 62
     7
100
AcDbLine
 10
100.449965458
 20
166.6791776976
 30
0.0
 11
100.449965458
 21
167.3791776976
 31
0.0
  0
LINE
  5
25D
330
1BE
100
AcDbEntity
  8
$DDT_AUDIT_GENERATED_(19B)
  6
Continuous
 62
     7
100
AcDbLine
 10
79.549965458
 20
167.3791776976
 30
0.0
 11
79.549965458
 21
166.6791776976
 31
0.0
  0
LINE
  5
25E
330
1BE
100
AcDbEntity
  8
$DDT_AUDIT_GENERATED_(19B)
  6
Continuous
 62
     7
100
AcDbLine
 10
100.449965458
 20
167.3791776976
 30
0.0
 11
100.3665150832
 21
167.4791776976
 31
0.0
  0
LINE
  5
25F
330
1BE
100
AcDbEntity
  8
$DDT_AUDIT_GENERATED_(19B)
  6
Continuous
 62
     7
100
AcDbLine
 10
79.6334158328
 20
167.4791776976
 30
0.0
 11
79.549965458
 21
167.3791776976
 31
0.0
  0
LINE
  5
260
330
1BE
100
AcDbEntity
  8
$DDT_AUDIT_GENERATED_(1A1)
  6
Continuous
 62
     7
100
AcDbLine
 10
99.8653465147
 20
170.9791776976
 30
0.0
 11
96.249965458
 21
170.9791776976
 31
0.0
  0
LINE
  5
261
330
1BE
100
AcDbEntity
  8
$DDT_AUDIT_GENERATED_(1A1)
  6
Continuous
 62
     7
100
AcDbLine
 10
104.499965458
 20
167.4791776976
 30
0.0
 11
75.499965458
 21
167.4791776976
 31
0.0
  0
LINE
  5
262
330
1BE
100
AcDbEntity
  8
$DDT_AUDIT_GENERATED_(1A1)
  6
Continuous
 62
     7
100
AcDbLine
 10
104.499965458
 20
184.4791776976
 30
0.0
 11
75.499965458
 21
184.4791776976
 31
0.0
  0
LINE
  5
263
330
1BE
100
AcDbEntity
  8
$DDT_AUDIT_GENERATED_(1A1)
  6
Continuous
 62
     7
100
AcDbLine
 10
99.8653465147
 20
180.9791776976
 30
0.0
 11
96.249965458
 21
180.9791776976
 31
0.0
  0
LINE
  5
264
330
1BE
100
AcDbEntity
  8
$DDT_AUDIT_GENERATED_(1A1)
  6
Continuous
 62
     7
100
AcDbLine
 10
83.749965458
 20
180.9791776976
 30
0.0
 11
80.1345844012
 21
180.9791776976
 31
0.0
  0
LINE
  5
265
330
1BE
100
AcDbEntity
  8
$DDT_AUDIT_GENERATED_(1A1)
  6
Continuous
 62
     7
100
AcDbLine
 10
73.8845844012
 20
180.9791776976
 30
0.0
 11
73.749965458
 21
180.9791776976
 31
0.0
  0
LINE
  5
266
330
1BE
100
AcDbEntity
  8
$DDT_AUDIT_GENERATED_(1A1)
  6
Continuous
 62
     7
100
AcDbLine
 10
106.1153465147
 20
180.9791776976
 30
0.0
 11
106.249965458
 21
180.9791776976
 31
0.0
  0
SPLINE
  5
267
330
1BE
100
AcDbEntity
  8
$DDT_AUDIT_GENERATED_(1A1)
  6
Continuous
 62
     7
100
AcDbSpline
210
0.0
220
0.0
230
1.0
 70
     8
 71
     3
 72
    14
 73
    10
 74
     0
 42
0.0000000011014719
 43
0.0000000001
 40
0.0
 40
0.0
 40
0.0
 40
0.0
 40
0.25
 40
0.25
 40
0.5
 40
0.5
 40
0.75
 40
0.75
 40
1.0
 40
1.0
 40
1.0
 40
1.0
 10
106.1153465147299
 20
180.9791776976047
 30
0.0
 10
105.7680286661026
 20
181.9569842660578
 30
0.0
 10
105.2701013535193
 20
182.6538427602387
 30
0.0
 10
104.180193288951
 20
183.5605247121084
 30
0.0
 10
103.586319107546
 20
183.7744718124275
 30
0.0
 10
102.3979140041571
 20
183.7753389654694
 30
0.0
 10
101.81236022176
 20
183.5680204072003
 30
0.0
 10
100.7120784786536
 20
182.6574219112769
 30
0.0
 10
100.2122817524797
 20
181.9559070987611
 30
0.0
 10
99.86534651472991
 20
180.9791776976047
 30
0.0
  0
SPLINE
  5
268
330
1BE
100
AcDbEntity
  8
$DDT_AUDIT_GENERATED_(1A1)
  6
Continuous
 62
     7
100
AcDbSpline
210
0.0
220
0.0
230
1.0
 70
     8
 71
     3
 72
    14
 73
    10
 74
     0
 42
0.0000000011014719
 43
0.0000000001
 40
0.0
 40
0.0
 40
0.0
 40
0.0
 40
0.25
 40
0.25
 40
0.5
 40
0.5
 40
0.75
 40
0.75
 40
1.0
 40
1.0
 40
1.0
 40
1.0
 10
80.13458440119675
 20
180.9791776976047
 30
0.0
 10
79.78726655256949
 20
181.9569842660578
 30
0.0
 10
79.28933923998609
 20
182.6538427602387
 30
0.0
 10
78.19943117541783
 20
183.5605247121084
 30
0.0
 10
77.60555699401283
 20
183.7744718124275
 30
0.0
 10
76.41715189062393
 20
183.7753389654694
 30
0.0
 10
75.83159810822687
 20
183.5680204072003
 30
0.0
 10
74.73131636512039
 20
182.6574219112769
 30
0.0
 10
74.23151963894655
 20
181.9559070987611
 30
0.0
 10
73.88458440119675
 20
180.9791776976047
 30
0.0
  0
SPLINE
  5
269
330
1BE
100
AcDbEntity
  8
$DDT_AUDIT_GENERATED_(1A1)
  6
Continuous
 62
     7
100
AcDbSpline
210
0.0
220
0.0
230
1.0
 70
     8
 71
     3
 72
    14
 73
    10
 74
     0
 42
0.0000000006969408
 43
0.0000000001
 40
0.0
 40
0.0
 40
0.0
 40
0.0
 40
0.25
 40
0.25
 40
0.5
 40
0.5
 40
0.75
 40
0.75
 40
1.0
 40
1.0
 40
1.0
 40
1.0
 10
96.24996545796334
 20
180.9791776976047
 30
0.0
 10
95.5568771054512
 20
181.9548061403745
 30
0.0
 10
94.54931693762035
 20
182.6607848290218
 30
0.0
 10
92.35867148524657
 20
183.5664985934181
 30
0.0
 10
91.17445718175719
 20
183.776800990108
 30
0.0
 10
88.7943691729327
 20
183.772986151971
 30
0.0
 10
87.61134556338911
 20
183.5576869094212
 30
0.0
 10
85.43934252354663
 20
182.652500594783
 30
0.0
 10
84.43783981031333
 20
181.9474666333111
 30
0.0
 10
83.74996545796333
 20
180.9791776976047
 30
0.0
  0
LINE
  5
26A
330
1BE
100
AcDbEntity
  8
$DDT_AUDIT_GENERATED_(1A1)
  6
Continuous
 62
     7
100
AcDbLine
 10
83.749965458
 20
170.9791776976
 30
0.0
 11
80.1345844012
 21
170.9791776976
 31
0.0
  0
LINE
  5
26B
330
1BE
100
AcDbEntity
  8
$DDT_AUDIT_GENERATED_(1A1)
  6
Continuous
 62
     7
100
AcDbLine
 10
73.8845844012
 20
170.9791776976
 30
0.0
 11
73.749965458
 21
170.9791776976
 31
0.0
  0
LINE
  5
26C
330
1BE
100
AcDbEntity
  8
$DDT_AUDIT_GENERATED_(1A1)
  6
Continuous
 62
     7
100
AcDbLine
 10
106.1153465147
 20
170.9791776976
 30
0.0
 11
106.249965458
 21
170.9791776976
 31
0.0
  0
LINE
  5
26D
330
1BE
100
AcDbEntity
  8
$DDT_AUDIT_GENERATED_(1A1)
  6
Continuous
 62
     7
100
AcDbLine
 10
96.249965458
 20
180.9791776976
 30
0.0
 11
96.249965458
 21
170.9791776976
 31
0.0
  0
SPLINE
  5
26E
330
1BE
100
AcDbEntity
  8
$DDT_AUDIT_GENERATED_(1A1)
  6
Continuous
 62
     7
100
AcDbSpline
210
0.0
220
0.0
230
1.0
 70
     8
 71
     3
 72
    14
 73
    10
 74
     0
 42
0.0000000006969408
 43
0.0000000001
 40
0.0
 40
0.0
 40
0.0
 40
0.0
 40
0.25
 40
0.25
 40
0.5
 40
0.5
 40
0.75
 40
0.75
 40
1.0
 40
1.0
 40
1.0
 40
1.0
 10
96.24996545796334
 20
170.9791776976047
 30
0.0
 10
95.55687710545122
 20
170.003549254835
 30
0.0
 10
94.54931693762035
 20
169.2975705661876
 30
0.0
 10
92.35867148524659
 20
168.3918568017914
 30
0.0
 10
91.17445718175719
 20
168.1815544051014
 30
0.0
 10
88.7943691729327
 20
168.1853692432384
 30
0.0
 10
87.6113455633891
 20
168.4006684857882
 30
0.0
 10
85.43934252354661
 20
169.3058548004264
 30
0.0
 10
84.43783981031332
 20
170.0108887618983
 30
0.0
 10
83.74996545796333
 20
170.9791776976047
 30
0.0
  0
LINE
  5
26F
330
1BE
100
AcDbEntity
  8
$DDT_AUDIT_GENERATED_(1A1)
  6
Continuous
 62
     7
100
AcDbLine
 10
83.749965458
 20
170.9791776976
 30
0.0
 11
83.749965458
 21
180.9791776976
 31
0.0
  0
LINE
  5
270
330
1BE
100
AcDbEntity
  8
$DDT_AUDIT_GENERATED_(1A1)
  6
Continuous
 62
     7
100
AcDbLine
 10
80.1345844012
 20
180.9791776976
 30
0.0
 11
80.1345844012
 21
170.9791776976
 31
0.0
  0
SPLINE
  5
271
330
1BE
100
AcDbEntity
  8
$DDT_AUDIT_GENERATED_(1A1)
  6
Continuous
 62
     7
100
AcDbSpline
210
0.0
220
0.0
230
1.0
 70
     8
 71
     3
 72
    14
 73
    10
 74
     0
 42
0.0000000011014719
 43
0.0000000001
 40
0.0
 40
0.0
 40
0.0
 40
0.0
 40
0.2500000000000001
 40
0.2500000000000001
 40
0.5000000000000001
 40
0.5000000000000001
 40
0.7500000000000002
 40
0.7500000000000002
 40
1.0
 40
1.0
 40
1.0
 40
1.0
 10
80.13458440119675
 20
170.9791776976047
 30
0.0
 10
79.78726655256949
 20
170.0013711291516
 30
0.0
 10
79.28933923998609
 20
169.3045126349707
 30
0.0
 10
78.19943117541783
 20
168.397830683101
 30
0.0
 10
77.60555699401283
 20
168.1838835827819
 30
0.0
 10
76.41715189062393
 20
168.18301642974
 30
0.0
 10
75.83159810822687
 20
168.3903349880092
 30
0.0
 10
74.73131636512039
 20
169.3009334839325
 30
0.0
 10
74.23151963894655
 20
170.0024482964483
 30
0.0
 10
73.88458440119675
 20
170.9791776976047
 30
0.0
  0
LINE
  5
272
330
1BE
100
AcDbEntity
  8
$DDT_AUDIT_GENERATED_(1A1)
  6
Continuous
 62
     7
100
AcDbLine
 10
73.8845844012
 20
170.9791776976
 30
0.0
 11
73.8845844012
 21
180.9791776976
 31
0.0
  0
LINE
  5
273
330
1BE
100
AcDbEntity
  8
$DDT_AUDIT_GENERATED_(1A1)
  6
Continuous
 62
     7
100
AcDbLine
 10
106.1153465147
 20
180.9791776976
 30
0.0
 11
106.1153465147
 21
170.9791776976
 31
0.0
  0
SPLINE
  5
274
330
1BE
100
AcDbEntity
  8
$DDT_AUDIT_GENERATED_(1A1)
  6
Continuous
 62
     7
100
AcDbSpline
210
0.0
220
0.0
230
1.0
 70
     8
 71
     3
 72
    14
 73
    10
 74
     0
 42
0.0000000011014719
 43
0.0000000001
 40
0.0
 40
0.0
 40
0.0
 40
0.0
 40
0.2499999999999999
 40
0.2499999999999999
 40
0.4999999999999999
 40
0.4999999999999999
 40
0.7499999999999999
 40
0.7499999999999999
 40
1.0
 40
1.0
 40
1.0
 40
1.0
 10
106.1153465147299
 20
170.9791776976047
 30
0.0
 10
105.7680286661026
 20
170.0013711291516
 30
0.0
 10
105.2701013535193
 20
169.3045126349707
 30
0.0
 10
104.180193288951
 20
168.397830683101
 30
0.0
 10
103.586319107546
 20
168.1838835827819
 30
0.0
 10
102.3979140041571
 20
168.18301642974
 30
0.0
 10
101.81236022176
 20
168.3903349880091
 30
0.0
 10
100.7120784786536
 20
169.3009334839325
 30
0.0
 10
100.2122817524797
 20
170.0024482964483
 30
0.0
 10
99.86534651472991
 20
170.9791776976047
 30
0.0
  0
LINE
  5
275
330
1BE
100
AcDbEntity
  8
$DDT_AUDIT_GENERATED_(1A1)
  6
Continuous
 62
     7
100
AcDbLine
 10
99.8653465147
 20
170.9791776976
 30
0.0
 11
99.8653465147
 21
180.9791776976
 31
0.0
  0
LINE
  5
276
330
1BE
100
AcDbEntity
  8
$DDT_AUDIT_GENERATED_(1A1)
  6
Continuous
 62
     7
100
AcDbLine
 10
106.249965458
 20
170.9791776976
 30
0.0
 11
106.249965458
 21
180.9791776976
 31
0.0
  0
ARC
  5
277
330
1BE
100
AcDbEntity
  8
$DDT_AUDIT_GENERATED_(1A1)
  6
Continuous
 62
     7
100
AcDbCircle
 10
96.6035630615
 20
173.6148788958
 30
0.0
 40
9.99999999999999
100
AcDbArc
 50
322.1519040322
 51
344.7179936136
  0
ARC
  5
278
330
1BE
100
AcDbEntity
  8
$DDT_AUDIT_GENERATED_(1A1)
  6
Continuous
 62
     7
100
AcDbCircle
 10
83.3963678544
 20
173.6148788958
 30
0.0
 40
9.999999999999993
100
AcDbArc
 50
195.2820063864
 51
217.8480959678
  0
ARC
  5
279
330
1BE
100
AcDbEntity
  8
$DDT_AUDIT_GENERATED_(1A1)
  6
Continuous
 62
     7
100
AcDbCircle
 10
96.6035630615
 20
178.3434764994
 30
0.0
 40
9.999999999999995
100
AcDbArc
 50
15.2820063864
 51
37.8480959678
  0
ARC
  5
27A
330
1BE
100
AcDbEntity
  8
$DDT_AUDIT_GENERATED_(1A1)
  6
Continuous
 62
     7
100
AcDbCircle
 10
83.3963678544
 20
178.3434764994
 30
0.0
 40
9.999999999999995
100
AcDbArc
 50
142.1519040322
 51
164.7179936136
  0
LINE
  5
27B
330
1BE
100
AcDbEntity
  8
$DDT_AUDIT_GENERATED_(1A1)
  6
Continuous
 62
     7
100
AcDbLine
 10
73.749965458
 20
180.9791776976
 30
0.0
 11
73.749965458
 21
170.9791776976
 31
0.0
  0
LINE
  5
27D
330
1BE
100
AcDbEntity
  8
$DDT_AUDIT_GENERATED_(27C)
  6
Continuous
 62
     7
100
AcDbLine
 10
225.999965458
 20
185.2791776976
 30
0.0
 11
253.999965458
 21
185.2791776976
 31
0.0
  0
LINE
  5
27E
330
1BE
100
AcDbEntity
  8
$DDT_AUDIT_GENERATED_(27C)
  6
Continuous
 62
     7
100
AcDbLine
 10
225.999965458
 20
185.2791776976
 30
0.0
 11
225.999965458
 21
184.4791776976
 31
0.0
  0
LINE
  5
27F
330
1BE
100
AcDbEntity
  8
$DDT_AUDIT_GENERATED_(27C)
  6
Continuous
 62
     7
100
AcDbLine
 10
253.999965458
 20
184.4791776976
 30
0.0
 11
253.999965458
 21
185.2791776976
 31
0.0
  0
LINE
  5
280
330
1BE
100
AcDbEntity
  8
$DDT_AUDIT_GENERATED_(140)
  6
Continuous
 62
     7
100
AcDbLine
 10
260.119965458
 20
110.6047875503
 30
0.0
 11
258.999965458
 21
110.6047875503
 31
0.0
  0
LINE
  5
281
330
1BE
100
AcDbEntity
  8
$DDT_AUDIT_GENERATED_(140)
  6
Continuous
 62
     7
100
AcDbLine
 10
260.119965458
 20
146.1791776976
 30
0.0
 11
258.999965458
 21
146.1791776976
 31
0.0
  0
ENDBLK
  5
283
330
1BE
100
AcDbEntity
  8
0
100
AcDbBlockEnd
  0
ENDSEC
  0
SECTION
  2
ENTITIES
  0
INSERT
  5
5F
330
1F
100
AcDbEntity
  8
Default
100
AcDbBlockReference
  2
SEANNOT_GROUP
 10
0.0
 20
0.0
 30
0.0
  0
INSERT
  5
66
330
1F
100
AcDbEntity
  8
Default
100
AcDbBlockReference
  2
SEANNOT_GROUP1
 10
0.0
 20
0.0
 30
0.0
  0
INSERT
  5
6C
330
1F
100
AcDbEntity
  8
Default
100
AcDbBlockReference
  2
SEANNOT_GROUP2
 10
0.0
 20
0.0
 30
0.0
  0
INSERT
  5
72
330
1F
100
AcDbEntity
  8
Default
100
AcDbBlockReference
  2
SEANNOT_GROUP3
 10
0.0
 20
0.0
 30
0.0
  0
INSERT
  5
78
330
1F
100
AcDbEntity
  8
Default
100
AcDbBlockReference
  2
SEANNOT_GROUP4
 10
0.0
 20
0.0
 30
0.0
  0
INSERT
  5
7E
330
1F
100
AcDbEntity
  8
Default
100
AcDbBlockReference
  2
SE
 10
0.0
 20
0.0
 30
0.0
  0
INSERT
  5
149
330
1F
100
AcDbEntity
  8
Default
100
AcDbBlockReference
  2
SE1
 10
0.0
 20
0.0
 30
0.0
  0
INSERT
  5
1BF
330
1F
100
AcDbEntity
  8
Default
100
AcDbBlockReference
  2
SE2
 10
0.0
 20
0.0
 30
0.0
  0
TEXT
  5
285
330
1F
100
AcDbEntity
  8
Default
  6
Continuous
 62
     7
100
AcDbText
 10
5.9362635081
 20
53.4225120485
 30
0.0
 40
10.0
  1
Grohe AG^J
  7
SEACAD_seiso_ttf
 11
5.9362635081
 21
63.4225120485
 31
0.0
100
AcDbText
 73
     3
  0
TEXT
  5
286
330
1F
100
AcDbEntity
  8
Default
  6
Continuous
 62
     7
100
AcDbText
 10
5.9362635081
 20
37.0588756849
 30
0.0
 40
10.0
  1
 
  7
SEACAD_seiso_ttf
 11
5.9362635081
 21
47.0588756849
 31
0.0
100
AcDbText
 73
     3
  0
TEXT
  5
287
330
1F
100
AcDbEntity
  8
Default
  6
Continuous
 62
     7
100
AcDbText
 10
5.9362635081
 20
20.6952393213
 30
0.0
 40
10.0
  1
ecn:
  7
SEACAD_seiso_ttf
 11
5.9362635081
 21
30.6952393213
 31
0.0
100
AcDbText
 73
     3
  0
TEXT
  5
288
330
1F
100
AcDbEntity
  8
Default
  6
Continuous
 62
     7
100
AcDbText
 10
5.9362635081
 20
4.3316029576
 30
0.0
 40
10.0
  1
unit: mm
  7
SEACAD_seiso_ttf
 11
5.9362635081
 21
14.3316029576
 31
0.0
100
AcDbText
 73
     3
  0
LINE
  5
289
330
1F
100
AcDbEntity
  8
Default
  6
Continuous
 62
     7
100
AcDbLine
 10
0.0
 20
0.0
 30
0.0
 11
100.0
 21
0.0
 31
0.0
  0
LINE
  5
28A
330
1F
100
AcDbEntity
  8
Default
  6
Continuous
 62
     7
100
AcDbLine
 10
0.0
 20
0.0
 30
0.0
 11
0.0
 21
100.0
 31
0.0
  0
TEXT
  5
28B
330
1F
100
AcDbEntity
  8
Default
  6
Continuous
 62
     7
100
AcDbText
 10
24.3923665681
 20
-18.2375342018
 30
0.0
 40
10.0
  1
100 mm
  7
SEACAD_seiso_ttf
 11
24.3923665681
 21
-8.2375342018
 31
0.0
100
AcDbText
 73
     3
  0
TEXT
  5
28C
330
1F
100
AcDbEntity
  8
Default
  6
Continuous
 62
     7
100
AcDbText
 10
-7.6150308803
 20
24.6231930421
 30
0.0
 40
10.0
  1
100 mm
 50
90.0
  7
SEACAD_seiso_ttf
 11
-17.6150308803
 21
24.6231930421
 31
0.0
100
AcDbText
 73
     3
  0
TEXT
  5
28D
330
1F
100
AcDbEntity
  8
Default
  6
Continuous
 62
     7
100
AcDbText
 10
28.4878128572
 20
20.0907663715
 30
0.0
 40
10.0
  1
231304
  7
SEACAD_seiso_ttf
 11
28.4878128572
 21
30.0907663715
 31
0.0
100
AcDbText
 73
     3
  0
TEXT
  5
28E
330
1F
100
AcDbEntity
  8
Default
  6
Continuous
 62
     7
100
AcDbText
 10
5.9012241913
 20
36.7242780188
 30
0.0
 40
10.0
  1
34146003
  7
SEACAD_seiso_ttf
 11
5.9012241913
 21
46.7242780188
 31
0.0
100
AcDbText
 73
     3
  0
ENDSEC
  0
SECTION
  2
OBJECTS
  0
DICTIONARY
  5
C
330
0
100
AcDbDictionary
281
     1
  3
ACAD_GROUP
350
D
  3
ACAD_LAYOUT
350
1A
  3
ACAD_MLEADERSTYLE
350
292
  3
ACAD_MLINESTYLE
350
17
  3
ACAD_PLOTSETTINGS
350
19
  3
ACAD_PLOTSTYLENAME
350
E
  3
ACAD_SCALELIST
350
3B
  3
ACAD_TABLESTYLE
350
291
  3
ACAD_VISUALSTYLE
350
2A
  3
AcDbVariableDictionary
350
28F
  0
DICTIONARY
  5
D
102
{ACAD_REACTORS
330
C
102
}
330
C
100
AcDbDictionary
281
     1
  0
DICTIONARY
  5
1A
102
{ACAD_REACTORS
330
C
102
}
330
C
100
AcDbDictionary
281
     1
  3
Layout1
350
1E
  3
Model
350
22
  0
DICTIONARY
  5
292
102
{ACAD_REACTORS
330
C
102
}
330
C
100
AcDbDictionary
281
     1
  0
DICTIONARY
  5
17
102
{ACAD_REACTORS
330
C
102
}
330
C
100
AcDbDictionary
281
     1
  3
Standard
350
18
  0
DICTIONARY
  5
19
102
{ACAD_REACTORS
330
C
102
}
330
C
100
AcDbDictionary
281
     1
  0
ACDBDICTIONARYWDFLT
  5
E
102
{ACAD_REACTORS
330
C
102
}
330
C
100
AcDbDictionary
281
     1
  3
Normal
350
F
100
AcDbDictionaryWithDefault
340
F
  0
DICTIONARY
  5
3B
102
{ACAD_REACTORS
330
C
102
}
330
C
100
AcDbDictionary
281
     1
  3
A0
350
3C
  3
A1
350
3D
  3
A2
350
3E
  3
A3
350
3F
  3
A4
350
40
  3
A5
350
41
  3
A6
350
42
  3
A7
350
43
  3
A8
350
44
  3
A9
350
45
  3
B0
350
46
  3
B1
350
47
  3
B2
350
48
  3
B3
350
49
  3
B4
350
4A
  3
B5
350
4B
  3
B6
350
4C
  3
B7
350
4D
  3
B8
350
4E
  3
B9
350
4F
  3
C0
350
50
  3
C1
350
51
  3
C2
350
52
  3
C3
350
53
  3
C4
350
54
  3
C5
350
55
  3
C6
350
56
  3
C7
350
57
  3
C8
350
58
  3
C9
350
59
  3
D0
350
5A
  3
D1
350
5B
  3
D2
350
5C
  0
DICTIONARY
  5
291
102
{ACAD_REACTORS
330
C
102
}
330
C
100
AcDbDictionary
281
     1
  0
DICTIONARY
  5
2A
102
{ACAD_REACTORS
330
C
102
}
330
C
100
AcDbDictionary
281
     1
  3
2dWireframe
350
2F
  3
3D Hidden
350
31
  3
3dWireframe
350
30
  3
Basic
350
32
  3
Brighten
350
36
  3
ColorChange
350
3A
  3
Conceptual
350
34
  3
Dim
350
35
  3
Facepattern
350
39
  3
Flat
350
2B
  3
FlatWithEdges
350
2C
  3
Gouraud
350
2D
  3
GouraudWithEdges
350
2E
  3
Linepattern
350
38
  3
Realistic
350
33
  3
Thicken
350
37
  0
DICTIONARY
  5
28F
102
{ACAD_REACTORS
330
C
102
}
330
C
100
AcDbDictionary
281
     1
  3
CANNOSCALE
350
290
  3
PSOLHEIGHT
350
294
  3
PSOLWIDTH
350
293
  0
LAYOUT
  5
1E
102
{ACAD_REACTORS
330
1A
102
}
330
1A
100
AcDbPlotSettings
  1

  2
none_device
  4

  6

 40
0.0
 41
0.0
 42
0.0
 43
0.0
 44
0.0
 45
0.0
 46
0.0
 47
0.0
 48
0.0
 49
0.0
140
0.0
141
0.0
142
1.0
143
1.0
 70
   688
 72
     0
 73
     0
 74
     5
  7

 75
    16
147
1.0
148
0.0
149
0.0
100
AcDbLayout
  1
Layout1
 70
     1
 71
     1
 10
0.0
 20
0.0
 11
3000.0
 21
4500.0
 12
0.0
 22
0.0
 32
0.0
 14
0.0
 24
0.0
 34
0.0
 15
3000.0
 25
4500.0
 35
0.0
146
0.0
 13
0.0
 23
0.0
 33
0.0
 16
1.0
 26
0.0
 36
0.0
 17
0.0
 27
1.0
 37
0.0
 76
     0
330
1B
  0
LAYOUT
  5
22
102
{ACAD_REACTORS
330
1A
102
}
330
1A
100
AcDbPlotSettings
  1

  2
none_device
  4

  6

 40
0.0
 41
0.0
 42
0.0
 43
0.0
 44
0.0
 45
0.0
 46
0.0
 47
0.0
 48
0.0
 49
0.0
140
0.0
141
0.0
142
1.0
143
1.0
 70
  1712
 72
     0
 73
     0
 74
     0
  7

 75
     0
147
1.0
148
0.0
149
0.0
100
AcDbLayout
  1
Model
 70
     1
 71
     0
 10
0.0
 20
0.0
 11
3000.0
 21
4500.0
 12
0.0
 22
0.0
 32
0.0
 14
0.0
 24
0.0
 34
0.0
 15
3000.0
 25
4500.0
 35
0.0
146
0.0
 13
0.0
 23
0.0
 33
0.0
 16
1.0
 26
0.0
 36
0.0
 17
0.0
 27
1.0
 37
0.0
 76
     0
330
1F
331
29
  0
MLINESTYLE
  5
18
102
{ACAD_REACTORS
330
17
102
}
330
17
100
AcDbMlineStyle
  2
Standard
 70
     0
  3

 62
   256
 51
90.0
 52
90.0
 71
     2
 49
0.5
 62
   256
  6
BYLAYER
 49
-0.5
 62
   256
  6
BYLAYER
  0
ACDBPLACEHOLDER
  5
F
102
{ACAD_REACTORS
330
E
102
}
330
E
  0
SCALE
  5
3C
102
{ACAD_REACTORS
330
3B
102
}
330
3B
100
AcDbScale
 70
     0
300
1:1
140
1.0
141
1.0
290
     1
  0
SCALE
  5
3D
102
{ACAD_REACTORS
330
3B
102
}
330
3B
100
AcDbScale
 70
     0
300
1:2
140
1.0
141
2.0
290
     0
  0
SCALE
  5
3E
102
{ACAD_REACTORS
330
3B
102
}
330
3B
100
AcDbScale
 70
     0
300
1:4
140
1.0
141
4.0
290
     0
  0
SCALE
  5
3F
102
{ACAD_REACTORS
330
3B
102
}
330
3B
100
AcDbScale
 70
     0
300
1:5
140
1.0
141
5.0
290
     0
  0
SCALE
  5
40
102
{ACAD_REACTORS
330
3B
102
}
330
3B
100
AcDbScale
 70
     0
300
1:8
140
1.0
141
8.0
290
     0
  0
SCALE
  5
41
102
{ACAD_REACTORS
330
3B
102
}
330
3B
100
AcDbScale
 70
     0
300
1:10
140
1.0
141
10.0
290
     0
  0
SCALE
  5
42
102
{ACAD_REACTORS
330
3B
102
}
330
3B
100
AcDbScale
 70
     0
300
1:16
140
1.0
141
16.0
290
     0
  0
SCALE
  5
43
102
{ACAD_REACTORS
330
3B
102
}
330
3B
100
AcDbScale
 70
     0
300
1:20
140
1.0
141
20.0
290
     0
  0
SCALE
  5
44
102
{ACAD_REACTORS
330
3B
102
}
330
3B
100
AcDbScale
 70
     0
300
1:30
140
1.0
141
30.0
290
     0
  0
SCALE
  5
45
102
{ACAD_REACTORS
330
3B
102
}
330
3B
100
AcDbScale
 70
     0
300
1:40
140
1.0
141
40.0
290
     0
  0
SCALE
  5
46
102
{ACAD_REACTORS
330
3B
102
}
330
3B
100
AcDbScale
 70
     0
300
1:50
140
1.0
141
50.0
290
     0
  0
SCALE
  5
47
102
{ACAD_REACTORS
330
3B
102
}
330
3B
100
AcDbScale
 70
     0
300
1:100
140
1.0
141
100.0
290
     0
  0
SCALE
  5
48
102
{ACAD_REACTORS
330
3B
102
}
330
3B
100
AcDbScale
 70
     0
300
2:1
140
2.0
141
1.0
290
     0
  0
SCALE
  5
49
102
{ACAD_REACTORS
330
3B
102
}
330
3B
100
AcDbScale
 70
     0
300
4:1
140
4.0
141
1.0
290
     0
  0
SCALE
  5
4A
102
{ACAD_REACTORS
330
3B
102
}
330
3B
100
AcDbScale
 70
     0
300
8:1
140
8.0
141
1.0
290
     0
  0
SCALE
  5
4B
102
{ACAD_REACTORS
330
3B
102
}
330
3B
100
AcDbScale
 70
     0
300
10:1
140
10.0
141
1.0
290
     0
  0
SCALE
  5
4C
102
{ACAD_REACTORS
330
3B
102
}
330
3B
100
AcDbScale
 70
     0
300
100:1
140
100.0
141
1.0
290
     0
  0
SCALE
  5
4D
102
{ACAD_REACTORS
330
3B
102
}
330
3B
100
AcDbScale
 70
     0
300
1/128" = 1'-0"
140
0.0078125
141
12.0
290
     0
  0
SCALE
  5
4E
102
{ACAD_REACTORS
330
3B
102
}
330
3B
100
AcDbScale
 70
     0
300
1/64" = 1'-0"
140
0.015625
141
12.0
290
     0
  0
SCALE
  5
4F
102
{ACAD_REACTORS
330
3B
102
}
330
3B
100
AcDbScale
 70
     0
300
1/32" = 1'-0"
140
0.03125
141
12.0
290
     0
  0
SCALE
  5
50
102
{ACAD_REACTORS
330
3B
102
}
330
3B
100
AcDbScale
 70
     0
300
1/16" = 1'-0"
140
0.0625
141
12.0
290
     0
  0
SCALE
  5
51
102
{ACAD_REACTORS
330
3B
102
}
330
3B
100
AcDbScale
 70
     0
300
3/32" = 1'-0"
140
0.09375
141
12.0
290
     0
  0
SCALE
  5
52
102
{ACAD_REACTORS
330
3B
102
}
330
3B
100
AcDbScale
 70
     0
300
1/8" = 1'-0"
140
0.125
141
12.0
290
     0
  0
SCALE
  5
53
102
{ACAD_REACTORS
330
3B
102
}
330
3B
100
AcDbScale
 70
     0
300
3/16" = 1'-0"
140
0.1875
141
12.0
290
     0
  0
SCALE
  5
54
102
{ACAD_REACTORS
330
3B
102
}
330
3B
100
AcDbScale
 70
     0
300
1/4" = 1'-0"
140
0.25
141
12.0
290
     0
  0
SCALE
  5
55
102
{ACAD_REACTORS
330
3B
102
}
330
3B
100
AcDbScale
 70
     0
300
3/8" = 1'-0"
140
0.375
141
12.0
290
     0
  0
SCALE
  5
56
102
{ACAD_REACTORS
330
3B
102
}
330
3B
100
AcDbScale
 70
     0
300
1/2" = 1'-0"
140
0.5
141
12.0
290
     0
  0
SCALE
  5
57
102
{ACAD_REACTORS
330
3B
102
}
330
3B
100
AcDbScale
 70
     0
300
3/4" = 1'-0"
140
0.75
141
12.0
290
     0
  0
SCALE
  5
58
102
{ACAD_REACTORS
330
3B
102
}
330
3B
100
AcDbScale
 70
     0
300
1" = 1'-0"
140
1.0
141
12.0
290
     0
  0
SCALE
  5
59
102
{ACAD_REACTORS
330
3B
102
}
330
3B
100
AcDbScale
 70
     0
300
1-1/2" = 1'-0"
140
1.5
141
12.0
290
     0
  0
SCALE
  5
5A
102
{ACAD_REACTORS
330
3B
102
}
330
3B
100
AcDbScale
 70
     0
300
3" = 1'-0"
140
3.0
141
12.0
290
     0
  0
SCALE
  5
5B
102
{ACAD_REACTORS
330
3B
102
}
330
3B
100
AcDbScale
 70
     0
300
6" = 1'-0"
140
6.0
141
12.0
290
     0
  0
SCALE
  5
5C
102
{ACAD_REACTORS
330
3B
102
}
330
3B
100
AcDbScale
 70
     0
300
1'-0" = 1'-0"
140
12.0
141
12.0
290
     0
  0
VISUALSTYLE
  5
2F
102
{ACAD_REACTORS
330
2A
102
}
330
2A
100
AcDbVisualStyle
  2
2dWireframe
 70
     4
 71
     0
 72
     2
 73
     0
 90
        0
 40
-0.6
 41
-30.0
 62
     5
 63
     7
 74
     1
 91
        4
 64
     7
 65
   257
 75
     1
175
     1
 42
1.0
 92
        0
 66
   257
 43
1.0
 76
     1
 77
     6
 78
     2
 67
     7
 79
     5
170
     0
171
     0
290
     0
174
     0
 93
        1
 44
0.0
173
     0
291
     0
 45
0.0
1001
ACAD
1000
AcDbSavedByObjectVersion
1070
     0
  0
VISUALSTYLE
  5
31
102
{ACAD_REACTORS
330
2A
102
}
330
2A
100
AcDbVisualStyle
  2
3D Hidden
 70
     6
 71
     1
 72
     2
 73
     2
 90
        0
 40
-0.6
 41
-30.0
 62
     5
 63
     7
 74
     2
 91
        2
 64
     7
 65
   257
 75
     2
175
     1
 42
40.0
 92
        0
 66
   257
 43
1.0
 76
     1
 77
     6
 78
     2
 67
     7
 79
     3
170
     0
171
     0
290
     0
174
     0
 93
        1
 44
0.0
173
     0
291
     0
 45
0.0
1001
ACAD
1000
AcDbSavedByObjectVersion
1070
     0
  0
VISUALSTYLE
  5
30
102
{ACAD_REACTORS
330
2A
102
}
330
2A
100
AcDbVisualStyle
  2
3dWireframe
 70
     5
 71
     0
 72
     2
 73
     0
 90
        0
 40
-0.6
 41
-30.0
 62
     5
 63
     7
 74
     1
 91
        4
 64
     7
 65
   257
 75
     1
175
     1
 42
1.0
 92
        0
 66
   257
 43
1.0
 76
     1
 77
     6
 78
     2
 67
     7
 79
     5
170
     0
171
     0
290
     0
174
     0
 93
        1
 44
0.0
173
     0
291
     0
 45
0.0
1001
ACAD
1000
AcDbSavedByObjectVersion
1070
     0
  0
VISUALSTYLE
  5
32
102
{ACAD_REACTORS
330
2A
102
}
330
2A
100
AcDbVisualStyle
  2
Basic
 70
     7
 71
     1
 72
     0
 73
     1
 90
        0
 40
-0.6
 41
-30.0
 62
     5
 63
     7
 74
     0
 91
        4
 64
     7
 65
   257
 75
     1
175
     1
 42
1.0
 92
        8
 66
     7
 43
1.0
 76
     1
 77
     6
 78
     2
 67
     7
 79
     5
170
     0
171
     0
290
     0
174
     0
 93
        1
 44
0.0
173
     0
291
     1
 45
0.0
1001
ACAD
1000
AcDbSavedByObjectVersion
1070
     0
  0
VISUALSTYLE
  5
36
102
{ACAD_REACTORS
330
2A
102
}
330
2A
100
AcDbVisualStyle
  2
Brighten
 70
    12
 71
     2
 72
     2
 73
     0
 90
        0
 40
-0.6
 41
-30.0
 62
     5
 63
     7
 74
     1
 91
        4
 64
     7
 65
   257
 75
     1
175
     1
 42
1.0
 92
        8
 66
     7
 43
1.0
 76
     1
 77
     6
 78
     2
 67
     7
 79
     5
170
     0
171
     0
290
     0
174
     0
 93
        1
 44
50.0
173
     0
291
     1
 45
0.0
1001
ACAD
1000
AcDbSavedByObjectVersion
1070
     0
  0
VISUALSTYLE
  5
3A
102
{ACAD_REACTORS
330
2A
102
}
330
2A
100
AcDbVisualStyle
  2
ColorChange
 70
    16
 71
     2
 72
     2
 73
     3
 90
        0
 40
-0.6
 41
-30.0
 62
     5
 63
     8
 74
     1
 91
        4
 64
     7
 65
   257
 75
     1
175
     1
 42
1.0
 92
        8
 66
     8
 43
1.0
 76
     1
 77
     6
 78
     2
 67
     7
 79
     5
170
     0
171
     0
290
     0
174
     0
 93
        1
 44
0.0
173
     0
291
     1
 45
0.0
1001
ACAD
1000
AcDbSavedByObjectVersion
1070
     0
  0
VISUALSTYLE
  5
34
102
{ACAD_REACTORS
330
2A
102
}
330
2A
100
AcDbVisualStyle
  2
Conceptual
 70
     9
 71
     3
 72
     2
 73
     0
 90
        0
 40
-0.6
 41
-30.0
 62
     5
 63
     7
 74
     2
 91
        2
 64
     7
 65
   257
 75
     1
175
     1
 42
40.0
 92
        8
 66
     7
 43
1.0
 76
     1
 77
     6
 78
     2
 67
     7
 79
     3
170
     0
171
     0
290
     0
174
     0
 93
        1
 44
0.0
173
     0
291
     0
 45
0.0
1001
ACAD
1000
AcDbSavedByObjectVersion
1070
     0
  0
VISUALSTYLE
  5
35
102
{ACAD_REACTORS
330
2A
102
}
330
2A
100
AcDbVisualStyle
  2
Dim
 70
    11
 71
     2
 72
     2
 73
     0
 90
        0
 40
-0.6
 41
-30.0
 62
     5
 63
     7
 74
     1
 91
        4
 64
     7
 65
   257
 75
     1
175
     1
 42
1.0
 92
        8
 66
     7
 43
1.0
 76
     1
 77
     6
 78
     2
 67
     7
 79
     5
170
     0
171
     0
290
     0
174
     0
 93
        1
 44
-50.0
173
     0
291
     1
 45
0.0
1001
ACAD
1000
AcDbSavedByObjectVersion
1070
     0
  0
VISUALSTYLE
  5
39
102
{ACAD_REACTORS
330
2A
102
}
330
2A
100
AcDbVisualStyle
  2
Facepattern
 70
    15
 71
     2
 72
     2
 73
     0
 90
        0
 40
-0.6
 41
-30.0
 62
     5
 63
     7
 74
     1
 91
        4
 64
     7
 65
   257
 75
     1
175
     1
 42
1.0
 92
        8
 66
     7
 43
1.0
 76
     1
 77
     6
 78
     2
 67
     7
 79
     5
170
     0
171
     0
290
     0
174
     0
 93
        1
 44
0.0
173
     0
291
     1
 45
0.0
1001
ACAD
1000
AcDbSavedByObjectVersion
1070
     0
  0
VISUALSTYLE
  5
2B
102
{ACAD_REACTORS
330
2A
102
}
330
2A
100
AcDbVisualStyle
  2
Flat
 70
     0
 71
     2
 72
     1
 73
     1
 90
        2
 40
-0.6
 41
30.0
 62
     5
 63
     7
 74
     0
 91
        4
 64
     7
 65
   257
 75
     1
175
     1
 42
1.0
 92
        8
 66
     7
 43
1.0
 76
     1
 77
     6
 78
     2
 67
     7
 79
     5
170
     0
171
     0
290
     0
174
     0
 93
       13
 44
0.0
173
     0
291
     1
 45
0.0
1001
ACAD
1000
AcDbSavedByObjectVersion
1070
     0
  0
VISUALSTYLE
  5
2C
102
{ACAD_REACTORS
330
2A
102
}
330
2A
100
AcDbVisualStyle
  2
FlatWithEdges
 70
     1
 71
     2
 72
     1
 73
     1
 90
        2
 40
-0.6
 41
30.0
 62
     5
 63
     7
 74
     1
 91
        4
 64
     7
 65
   257
 75
     1
175
     1
 42
1.0
 92
        0
 66
   257
 43
1.0
 76
     1
 77
     6
 78
     2
 67
     7
 79
     5
170
     0
171
     0
290
     0
174
     0
 93
       13
 44
0.0
173
     0
291
     1
 45
0.0
1001
ACAD
1000
AcDbSavedByObjectVersion
1070
     0
  0
VISUALSTYLE
  5
2D
102
{ACAD_REACTORS
330
2A
102
}
330
2A
100
AcDbVisualStyle
  2
Gouraud
 70
     2
 71
     2
 72
     2
 73
     1
 90
        2
 40
-0.6
 41
30.0
 62
     5
 63
     7
 74
     0
 91
        4
 64
     7
 65
   257
 75
     1
175
     1
 42
1.0
 92
        0
 66
     7
 43
1.0
 76
     1
 77
     6
 78
     2
 67
     7
 79
     5
170
     0
171
     0
290
     0
174
     0
 93
       13
 44
0.0
173
     0
291
     1
 45
0.0
1001
ACAD
1000
AcDbSavedByObjectVersion
1070
     0
  0
VISUALSTYLE
  5
2E
102
{ACAD_REACTORS
330
2A
102
}
330
2A
100
AcDbVisualStyle
  2
GouraudWithEdges
 70
     3
 71
     2
 72
     2
 73
     1
 90
        2
 40
-0.6
 41
30.0
 62
     5
 63
     7
 74
     1
 91
        4
 64
     7
 65
   257
 75
     1
175
     1
 42
1.0
 92
        0
 66
   257
 43
1.0
 76
     1
 77
     6
 78
     2
 67
     7
 79
     5
170
     0
171
     0
290
     0
174
     0
 93
       13
 44
0.0
173
     0
291
     1
 45
0.0
1001
ACAD
1000
AcDbSavedByObjectVersion
1070
     0
  0
VISUALSTYLE
  5
38
102
{ACAD_REACTORS
330
2A
102
}
330
2A
100
AcDbVisualStyle
  2
Linepattern
 70
    14
 71
     2
 72
     2
 73
     0
 90
        0
 40
-0.6
 41
-30.0
 62
     5
 63
     7
 74
     1
 91
        4
 64
     7
 65
   257
 75
     7
175
     7
 42
1.0
 92
        8
 66
     7
 43
1.0
 76
     1
 77
     6
 78
     2
 67
     7
 79
     5
170
     0
171
     0
290
     0
174
     0
 93
        1
 44
0.0
173
     0
291
     1
 45
0.0
1001
ACAD
1000
AcDbSavedByObjectVersion
1070
     0
  0
VISUALSTYLE
  5
33
102
{ACAD_REACTORS
330
2A
102
}
330
2A
100
AcDbVisualStyle
  2
Realistic
 70
     8
 71
     2
 72
     2
 73
     0
 90
        0
 40
-0.6
 41
-30.0
 62
     5
 63
     7
 74
     1
 91
        0
 64
     7
 65
   257
 75
     1
175
     1
 42
1.0
 92
        8
 66
     8
 43
1.0
 76
     1
 77
     6
 78
     2
 67
     7
 79
     5
170
     0
171
     0
290
     0
174
     0
 93
       13
 44
0.0
173
     0
291
     0
 45
0.0
1001
ACAD
1000
AcDbSavedByObjectVersion
1070
     0
  0
VISUALSTYLE
  5
37
102
{ACAD_REACTORS
330
2A
102
}
330
2A
100
AcDbVisualStyle
  2
Thicken
 70
    13
 71
     2
 72
     2
 73
     0
 90
        0
 40
-0.6
 41
-30.0
 62
     5
 63
     7
 74
     1
 91
        4
 64
     7
 65
   257
 75
     1
175
     1
 42
1.0
 92
       12
 66
     7
 43
1.0
 76
     1
 77
     6
 78
     2
 67
     7
 79
     5
170
     0
171
     0
290
     0
174
     0
 93
        1
 44
0.0
173
     0
291
     1
 45
0.0
1001
ACAD
1000
AcDbSavedByObjectVersion
1070
     0
  0
DICTIONARYVAR
  5
290
102
{ACAD_REACTORS
330
28F
102
}
330
28F
100
DictionaryVariables
280
     0
  1
1:1
  0
DICTIONARYVAR
  5
294
102
{ACAD_REACTORS
330
28F
102
}
330
28F
100
DictionaryVariables
280
     0
  1
80.000000
  0
DICTIONARYVAR
  5
293
102
{ACAD_REACTORS
330
28F
102
}
330
28F
100
DictionaryVariables
280
     0
  1
5.000000
  0
ENDSEC
  0
EOF
