  0
SECTION
  2
HEADER
  9
$ACADVER
  1
AC1015
  9
$ACADMAINTVER
 70
     6
  9
$DWGCODEPAGE
  3
ANSI_1252
  9
$INSBASE
 10
0.0
 20
0.0
 30
0.0
  9
$EXTMIN
 10
0.0
 20
0.0
 30
0.0
  9
$EXTMAX
 10
3000.0
 20
4500.0
 30
0.0
  9
$LIMMIN
 10
0.0
 20
0.0
  9
$LIMMAX
 10
3000.0
 20
4500.0
  9
$ORTHOMODE
 70
     0
  9
$REGENMODE
 70
     1
  9
$FILLMODE
 70
     1
  9
$QTEXTMODE
 70
     0
  9
$MIRRTEXT
 70
     1
  9
$LTSCALE
 40
1.0
  9
$ATTMODE
 70
     1
  9
$TEXTSIZE
 40
2.5
  9
$TRACEWID
 40
1.0
  9
$TEXTSTYLE
  7
Standard
  9
$CLAYER
  8
0
  9
$CELTYPE
  6
ByLayer
  9
$CECOLOR
 62
   256
  9
$CELTSCALE
 40
1.0
  9
$DISPSILH
 70
     0
  9
$DIMSCALE
 40
1.0
  9
$DIMASZ
 40
2.5
  9
$DIMEXO
 40
0.625
  9
$DIMDLI
 40
3.75
  9
$DIMRND
 40
0.0
  9
$DIMDLE
 40
0.0
  9
$DIMEXE
 40
1.25
  9
$DIMTP
 40
0.0
  9
$DIMTM
 40
0.0
  9
$DIMTXT
 40
2.5
  9
$DIMCEN
 40
2.5
  9
$DIMTSZ
 40
0.0
  9
$DIMTOL
 70
     0
  9
$DIMLIM
 70
     0
  9
$DIMTIH
 70
     0
  9
$DIMTOH
 70
     0
  9
$DIMSE1
 70
     0
  9
$DIMSE2
 70
     0
  9
$DIMTAD
 70
     1
  9
$DIMZIN
 70
     8
  9
$DIMBLK
  1

  9
$DIMASO
 70
     1
  9
$DIMSHO
 70
     1
  9
$DIMPOST
  1

  9
$DIMAPOST
  1

  9
$DIMALT
 70
     0
  9
$DIMALTD
 70
     3
  9
$DIMALTF
 40
0.0393700787
  9
$DIMLFAC
 40
1.0
  9
$DIMTOFL
 70
     1
  9
$DIMTVP
 40
0.0
  9
$DIMTIX
 70
     0
  9
$DIMSOXD
 70
     0
  9
$DIMSAH
 70
     0
  9
$DIMBLK1
  1

  9
$DIMBLK2
  1

  9
$DIMSTYLE
  2
ISO-25
  9
$DIMCLRD
 70
     0
  9
$DIMCLRE
 70
     0
  9
$DIMCLRT
 70
     0
  9
$DIMTFAC
 40
1.0
  9
$DIMGAP
 40
0.625
  9
$DIMJUST
 70
     0
  9
$DIMSD1
 70
     0
  9
$DIMSD2
 70
     0
  9
$DIMTOLJ
 70
     0
  9
$DIMTZIN
 70
     8
  9
$DIMALTZ
 70
     0
  9
$DIMALTTZ
 70
     0
  9
$DIMUPT
 70
     0
  9
$DIMDEC
 70
     2
  9
$DIMTDEC
 70
     2
  9
$DIMALTU
 70
     2
  9
$DIMALTTD
 70
     3
  9
$DIMTXSTY
  7
Standard
  9
$DIMAUNIT
 70
     0
  9
$DIMADEC
 70
     0
  9
$DIMALTRND
 40
0.0
  9
$DIMAZIN
 70
     0
  9
$DIMDSEP
 70
    44
  9
$DIMATFIT
 70
     3
  9
$DIMFRAC
 70
     0
  9
$DIMLDRBLK
  1

  9
$DIMLUNIT
 70
     2
  9
$DIMLWD
 70
    -2
  9
$DIMLWE
 70
    -2
  9
$DIMTMOVE
 70
     0
  9
$LUNITS
 70
     2
  9
$LUPREC
 70
     4
  9
$SKETCHINC
 40
1.0
  9
$FILLETRAD
 40
10.0
  9
$AUNITS
 70
     0
  9
$AUPREC
 70
     0
  9
$MENU
  1
.
  9
$ELEVATION
 40
0.0
  9
$PELEVATION
 40
0.0
  9
$THICKNESS
 40
0.0
  9
$LIMCHECK
 70
     0
  9
$CHAMFERA
 40
10.0
  9
$CHAMFERB
 40
10.0
  9
$CHAMFERC
 40
20.0
  9
$CHAMFERD
 40
0.0
  9
$SKPOLY
 70
     0
  9
$TDCREATE
 40
2456755.652497269
  9
$TDUCREATE
 40
2456755.569163935
  9
$TDUPDATE
 40
2456755.65249728
  9
$TDUUPDATE
 40
2456755.569163947
  9
$TDINDWG
 40
0.0000000116
  9
$TDUSRTIMER
 40
0.0000000116
  9
$USRTIMER
 70
     1
  9
$ANGBASE
 50
0.0
  9
$ANGDIR
 70
     0
  9
$PDMODE
 70
     0
  9
$PDSIZE
 40
0.0
  9
$PLINEWID
 40
0.0
  9
$SPLFRAME
 70
     0
  9
$SPLINETYPE
 70
     6
  9
$SPLINESEGS
 70
     8
  9
$HANDSEED
  5
318
  9
$SURFTAB1
 70
     6
  9
$SURFTAB2
 70
     6
  9
$SURFTYPE
 70
     6
  9
$SURFU
 70
     6
  9
$SURFV
 70
     6
  9
$UCSBASE
  2

  9
$UCSNAME
  2

  9
$UCSORG
 10
0.0
 20
0.0
 30
0.0
  9
$UCSXDIR
 10
1.0
 20
0.0
 30
0.0
  9
$UCSYDIR
 10
0.0
 20
1.0
 30
0.0
  9
$UCSORTHOREF
  2

  9
$UCSORTHOVIEW
 70
     0
  9
$UCSORGTOP
 10
0.0
 20
0.0
 30
0.0
  9
$UCSORGBOTTOM
 10
0.0
 20
0.0
 30
0.0
  9
$UCSORGLEFT
 10
0.0
 20
0.0
 30
0.0
  9
$UCSORGRIGHT
 10
0.0
 20
0.0
 30
0.0
  9
$UCSORGFRONT
 10
0.0
 20
0.0
 30
0.0
  9
$UCSORGBACK
 10
0.0
 20
0.0
 30
0.0
  9
$PUCSBASE
  2

  9
$PUCSNAME
  2

  9
$PUCSORG
 10
0.0
 20
0.0
 30
0.0
  9
$PUCSXDIR
 10
1.0
 20
0.0
 30
0.0
  9
$PUCSYDIR
 10
0.0
 20
1.0
 30
0.0
  9
$PUCSORTHOREF
  2

  9
$PUCSORTHOVIEW
 70
     0
  9
$PUCSORGTOP
 10
0.0
 20
0.0
 30
0.0
  9
$PUCSORGBOTTOM
 10
0.0
 20
0.0
 30
0.0
  9
$PUCSORGLEFT
 10
0.0
 20
0.0
 30
0.0
  9
$PUCSORGRIGHT
 10
0.0
 20
0.0
 30
0.0
  9
$PUCSORGFRONT
 10
0.0
 20
0.0
 30
0.0
  9
$PUCSORGBACK
 10
0.0
 20
0.0
 30
0.0
  9
$USERI1
 70
     0
  9
$USERI2
 70
     0
  9
$USERI3
 70
     0
  9
$USERI4
 70
     0
  9
$USERI5
 70
     0
  9
$USERR1
 40
0.0
  9
$USERR2
 40
0.0
  9
$USERR3
 40
0.0
  9
$USERR4
 40
0.0
  9
$USERR5
 40
0.0
  9
$WORLDVIEW
 70
     1
  9
$SHADEDGE
 70
     3
  9
$SHADEDIF
 70
    70
  9
$TILEMODE
 70
     1
  9
$MAXACTVP
 70
    64
  9
$PINSBASE
 10
0.0
 20
0.0
 30
0.0
  9
$PLIMCHECK
 70
     0
  9
$PEXTMIN
 10
0.0
 20
0.0
 30
0.0
  9
$PEXTMAX
 10
3000.0
 20
4500.0
 30
0.0
  9
$PLIMMIN
 10
0.0
 20
0.0
  9
$PLIMMAX
 10
3000.0
 20
4500.0
  9
$UNITMODE
 70
     0
  9
$VISRETAIN
 70
     1
  9
$PLINEGEN
 70
     0
  9
$PSLTSCALE
 70
     1
  9
$TREEDEPTH
 70
  3020
  9
$CMLSTYLE
  2
Standard
  9
$CMLJUST
 70
     0
  9
$CMLSCALE
 40
20.0
  9
$PROXYGRAPHICS
 70
     1
  9
$MEASUREMENT
 70
     1
  9
$CELWEIGHT
370
    -1
  9
$ENDCAPS
280
     0
  9
$JOINSTYLE
280
     0
  9
$LWDISPLAY
290
     0
  9
$INSUNITS
 70
     4
  9
$HYPERLINKBASE
  1

  9
$STYLESHEET
  1

  9
$XEDIT
290
     1
  9
$CEPSNTYPE
380
     0
  9
$PSTYLEMODE
290
     1
  9
$FINGERPRINTGUID
  2
{043BAC5B-F223-49FC-881D-A93848FE328E}
  9
$VERSIONGUID
  2
{FAEB1C32-E019-11D5-929B-00C0DF256EC4}
  9
$EXTNAMES
290
     1
  9
$PSVPSCALE
 40
0.0
  9
$OLESTARTUP
290
     0
  0
ENDSEC
  0
SECTION
  2
CLASSES
  0
CLASS
  1
ACDBDICTIONARYWDFLT
  2
AcDbDictionaryWithDefault
  3
ObjectDBX Classes
 90
        0
280
     0
281
     0
  0
CLASS
  1
VISUALSTYLE
  2
AcDbVisualStyle
  3
ObjectDBX Classes
 90
     4095
280
     0
281
     0
  0
CLASS
  1
SCALE
  2
AcDbScale
  3
ObjectDBX Classes
 90
     1153
280
     0
281
     0
  0
CLASS
  1
DICTIONARYVAR
  2
AcDbDictionaryVar
  3
ObjectDBX Classes
 90
        0
280
     0
281
     0
  0
CLASS
  1
ACDBPLACEHOLDER
  2
AcDbPlaceHolder
  3
ObjectDBX Classes
 90
        0
280
     0
281
     0
  0
CLASS
  1
LAYOUT
  2
AcDbLayout
  3
ObjectDBX Classes
 90
        0
280
     0
281
     0
  0
ENDSEC
  0
SECTION
  2
TABLES
  0
TABLE
  2
VPORT
  5
8
330
0
100
AcDbSymbolTable
 70
     1
  0
VPORT
  5
29
330
8
100
AcDbSymbolTableRecord
100
AcDbViewportTableRecord
  2
*Active
 70
     0
 10
0.0
 20
0.0
 11
1.0
 21
1.0
 12
344.1869158879
 22
148.5
 13
0.0
 23
0.0
 14
10.0
 24
10.0
 15
10.0
 25
10.0
 16
0.0
 26
0.0
 36
1.0
 17
0.0
 27
0.0
 37
0.0
 40
297.0
 41
1.9729729729
 42
50.0
 43
0.0
 44
0.0
 50
0.0
 51
0.0
 71
     0
 72
   100
 73
     1
 74
     3
 75
     0
 76
     0
 77
     0
 78
     0
281
     0
 65
     1
110
0.0
120
0.0
130
0.0
111
1.0
121
0.0
131
0.0
112
0.0
122
1.0
132
0.0
 79
     0
146
0.0
  0
ENDTAB
  0
TABLE
  2
LTYPE
  5
5
330
0
100
AcDbSymbolTable
 70
     2
  0
LTYPE
  5
14
330
5
100
AcDbSymbolTableRecord
100
AcDbLinetypeTableRecord
  2
ByBlock
 70
     0
  3

 72
    65
 73
     0
 40
0.0
  0
LTYPE
  5
15
330
5
100
AcDbSymbolTableRecord
100
AcDbLinetypeTableRecord
  2
ByLayer
 70
     0
  3

 72
    65
 73
     0
 40
0.0
  0
LTYPE
  5
16
330
5
100
AcDbSymbolTableRecord
100
AcDbLinetypeTableRecord
  2
Continuous
 70
     0
  3
Solid line
 72
    65
 73
     0
 40
0.0
  0
LTYPE
  5
60
330
5
100
AcDbSymbolTableRecord
100
AcDbLinetypeTableRecord
  2
CENTER2
 70
     0
  3
Center (.5x) ___ _ ___ _ ___ _ ___ _ ___ _ ___
 72
    65
 73
     4
 40
28.575
 49
19.05
 74
     4
 75
     0
340
0
 46
0.0
 50
0.0
 44
0.0
 45
0.0
 49
-3.175
 74
     4
 75
     0
340
0
 46
0.0
 50
0.0
 44
0.0
 45
0.0
 49
3.175
 74
     4
 75
     0
340
0
 46
0.0
 50
0.0
 44
0.0
 45
0.0
 49
-3.175
 74
     4
 75
     0
340
0
 46
0.0
 50
0.0
 44
0.0
 45
0.0
  0
ENDTAB
  0
TABLE
  2
LAYER
  5
2
330
0
100
AcDbSymbolTable
 70
     9
  0
LAYER
  5
10
330
2
100
AcDbSymbolTableRecord
100
AcDbLayerTableRecord
  2
0
 70
     0
 62
     7
  6
Continuous
370
    -3
390
F
  0
LAYER
  5
5D
330
2
100
AcDbSymbolTableRecord
100
AcDbLayerTableRecord
  2
Default
 70
     0
 62
     7
  6
Continuous
370
    -3
390
F
  0
LAYER
  5
77
330
2
100
AcDbSymbolTableRecord
100
AcDbLayerTableRecord
  2
$DDT_AUDIT_GENERATED_(77)
 70
     0
 62
     7
  6
Continuous
370
    -3
390
F
  0
LAYER
  5
7A
330
2
100
AcDbSymbolTableRecord
100
AcDbLayerTableRecord
  2
$DDT_AUDIT_GENERATED_(7A)
 70
     0
 62
     7
  6
Continuous
370
    -3
390
F
  0
LAYER
  5
99
330
2
100
AcDbSymbolTableRecord
100
AcDbLayerTableRecord
  2
$DDT_AUDIT_GENERATED_(99)
 70
     0
 62
     7
  6
Continuous
370
    -3
390
F
  0
LAYER
  5
9D
330
2
100
AcDbSymbolTableRecord
100
AcDbLayerTableRecord
  2
$DDT_AUDIT_GENERATED_(9D)
 70
     0
 62
     7
  6
Continuous
370
    -3
390
F
  0
LAYER
  5
226
330
2
100
AcDbSymbolTableRecord
100
AcDbLayerTableRecord
  2
$DDT_AUDIT_GENERATED_(226)
 70
     0
 62
     7
  6
Continuous
370
    -3
390
F
  0
LAYER
  5
278
330
2
100
AcDbSymbolTableRecord
100
AcDbLayerTableRecord
  2
$DDT_AUDIT_GENERATED_(278)
 70
     0
 62
     7
  6
Continuous
370
    -3
390
F
  0
LAYER
  5
27A
330
2
100
AcDbSymbolTableRecord
100
AcDbLayerTableRecord
  2
$DDT_AUDIT_GENERATED_(27A)
 70
     0
 62
     7
  6
Continuous
370
    -3
390
F
  0
ENDTAB
  0
TABLE
  2
STYLE
  5
3
330
0
100
AcDbSymbolTable
 70
     2
  0
STYLE
  5
11
330
3
100
AcDbSymbolTableRecord
100
AcDbTextStyleTableRecord
  2
Standard
 70
     0
 40
0.0
 41
1.0
 50
0.0
 71
     0
 42
2.5
  3
txt
  4

  0
STYLE
  5
307
330
3
100
AcDbSymbolTableRecord
100
AcDbTextStyleTableRecord
  2
SEACAD_seiso_ttf
 70
     0
 40
0.0
 41
1.0
 50
0.0
 71
     0
 42
0.2
  3
seiso.ttf
  4

  0
ENDTAB
  0
TABLE
  2
VIEW
  5
6
330
0
100
AcDbSymbolTable
 70
     0
  0
ENDTAB
  0
TABLE
  2
UCS
  5
7
330
0
100
AcDbSymbolTable
 70
     0
  0
ENDTAB
  0
TABLE
  2
APPID
  5
9
330
0
100
AcDbSymbolTable
 70
     1
  0
APPID
  5
12
330
9
100
AcDbSymbolTableRecord
100
AcDbRegAppTableRecord
  2
ACAD
 70
     0
  0
ENDTAB
  0
TABLE
  2
DIMSTYLE
  5
A
330
0
100
AcDbSymbolTable
 70
     1
100
AcDbDimStyleTable
  0
DIMSTYLE
105
27
330
A
100
AcDbSymbolTableRecord
100
AcDbDimStyleTableRecord
  2
ISO-25
 70
     0
 41
2.5
 42
0.625
 43
3.75
 44
1.25
 73
     0
 74
     0
 77
     1
 78
     8
140
2.5
141
2.5
143
0.0393700787
147
0.625
171
     3
172
     1
271
     2
272
     2
274
     3
278
    44
283
     0
284
     8
340
11
  0
ENDTAB
  0
TABLE
  2
BLOCK_RECORD
  5
1
330
0
100
AcDbSymbolTable
 70
     7
  0
BLOCK_RECORD
  5
1F
330
1
100
AcDbSymbolTableRecord
100
AcDbBlockTableRecord
  2
*Model_Space
340
22
  0
BLOCK_RECORD
  5
1B
330
1
100
AcDbSymbolTableRecord
100
AcDbBlockTableRecord
  2
*Paper_Space
340
1E
  0
BLOCK_RECORD
  5
5E
330
1
100
AcDbSymbolTableRecord
100
AcDbBlockTableRecord
  2
SEANNOT_GROUP
340
0
102
{BLKREFS
331
5F
102
}
  0
BLOCK_RECORD
  5
65
330
1
100
AcDbSymbolTableRecord
100
AcDbBlockTableRecord
  2
SEANNOT_GROUP1
340
0
102
{BLKREFS
331
66
102
}
  0
BLOCK_RECORD
  5
6B
330
1
100
AcDbSymbolTableRecord
100
AcDbBlockTableRecord
  2
SEANNOT_GROUP2
340
0
102
{BLKREFS
331
6C
102
}
  0
BLOCK_RECORD
  5
75
330
1
100
AcDbSymbolTableRecord
100
AcDbBlockTableRecord
  2
SE
340
0
102
{BLKREFS
331
76
102
}
  0
BLOCK_RECORD
  5
258
330
1
100
AcDbSymbolTableRecord
100
AcDbBlockTableRecord
  2
SE1
340
0
102
{BLKREFS
331
259
102
}
  0
BLOCK_RECORD
  5
2E8
330
1
100
AcDbSymbolTableRecord
100
AcDbBlockTableRecord
  2
SE2
340
0
102
{BLKREFS
331
2E9
102
}
  0
ENDTAB
  0
ENDSEC
  0
SECTION
  2
BLOCKS
  0
BLOCK
  5
20
330
1F
100
AcDbEntity
  8
0
100
AcDbBlockBegin
  2
*Model_Space
 70
     0
 10
0.0
 20
0.0
 30
0.0
  3
*Model_Space
  1

  0
ENDBLK
  5
21
330
1F
100
AcDbEntity
  8
0
100
AcDbBlockEnd
  0
BLOCK
  5
1C
330
1B
100
AcDbEntity
 67
     1
  8
0
100
AcDbBlockBegin
  2
*Paper_Space
 70
     0
 10
0.0
 20
0.0
 30
0.0
  3
*Paper_Space
  1

  0
ENDBLK
  5
1D
330
1B
100
AcDbEntity
 67
     1
  8
0
100
AcDbBlockEnd
  0
BLOCK
  5
63
330
5E
100
AcDbEntity
  8
0
100
AcDbBlockBegin
  2
SEANNOT_GROUP
 70
     0
 10
0.0
 20
0.0
 30
0.0
  3
SEANNOT_GROUP
  1

  0
LINE
  5
61
330
5E
100
AcDbEntity
  8
Default
  6
CENTER2
 62
     7
100
AcDbLine
 10
77.1184183912
 20
440.3489654358
 30
0.0
 11
37.1184192853
 21
440.3489654358
 31
0.0
  0
LINE
  5
62
330
5E
100
AcDbEntity
  8
Default
  6
CENTER2
 62
     7
100
AcDbLine
 10
57.1184188383
 20
460.3489649887
 30
0.0
 11
57.1184188383
 21
420.3489658828
 31
0.0
  0
ENDBLK
  5
64
330
5E
100
AcDbEntity
  8
0
100
AcDbBlockEnd
  0
BLOCK
  5
69
330
65
100
AcDbEntity
  8
0
100
AcDbBlockBegin
  2
SEANNOT_GROUP1
 70
     0
 10
0.0
 20
0.0
 30
0.0
  3
SEANNOT_GROUP1
  1

  0
LINE
  5
67
330
65
100
AcDbEntity
  8
Default
  6
CENTER2
 62
     7
100
AcDbLine
 10
210.9050221097
 20
440.3489654358
 30
0.0
 11
170.9050230038
 21
440.3489654358
 31
0.0
  0
LINE
  5
68
330
65
100
AcDbEntity
  8
Default
  6
CENTER2
 62
     7
100
AcDbLine
 10
190.9050225567
 20
460.3489649887
 30
0.0
 11
190.9050225567
 21
420.3489658828
 31
0.0
  0
ENDBLK
  5
6A
330
65
100
AcDbEntity
  8
0
100
AcDbBlockEnd
  0
BLOCK
  5
73
330
6B
100
AcDbEntity
  8
0
100
AcDbBlockBegin
  2
SEANNOT_GROUP2
 70
     0
 10
0.0
 20
0.0
 30
0.0
  3
SEANNOT_GROUP2
  1

  0
LINE
  5
6D
330
6B
100
AcDbEntity
  8
Default
  6
CENTER2
 62
     7
100
AcDbLine
 10
76.9341633402
 20
348.0280855186
 30
0.0
 11
36.9341642342
 21
348.0280855186
 31
0.0
  0
LINE
  5
6E
330
6B
100
AcDbEntity
  8
Default
  6
CENTER2
 62
     7
100
AcDbLine
 10
56.9341637872
 20
368.0280850716
 30
0.0
 11
56.9341637872
 21
328.0280859656
 31
0.0
  0
LINE
  5
6F
330
6B
100
AcDbEntity
  8
Default
  6
CENTER2
 62
     7
100
AcDbLine
 10
81.9341632284
 20
348.0280855186
 30
0.0
 11
85.9442238807
 21
348.0280855186
 31
0.0
  0
LINE
  5
70
330
6B
100
AcDbEntity
  8
Default
  6
CENTER2
 62
     7
100
AcDbLine
 10
56.9341637872
 20
373.0280849598
 30
0.0
 11
56.9341637872
 21
377.0381456122
 31
0.0
  0
LINE
  5
71
330
6B
100
AcDbEntity
  8
Default
  6
CENTER2
 62
     7
100
AcDbLine
 10
31.934164346
 20
348.0280855186
 30
0.0
 11
27.9241036936
 21
348.0280855186
 31
0.0
  0
LINE
  5
72
330
6B
100
AcDbEntity
  8
Default
  6
CENTER2
 62
     7
100
AcDbLine
 10
56.9341637872
 20
323.0280860774
 30
0.0
 11
56.9341637872
 21
319.0180254251
 31
0.0
  0
ENDBLK
  5
74
330
6B
100
AcDbEntity
  8
0
100
AcDbBlockEnd
  0
BLOCK
  5
256
330
75
100
AcDbEntity
  8
0
100
AcDbBlockBegin
  2
SE
 70
     0
 10
0.0
 20
0.0
 30
0.0
  3
SE
  1

  0
ARC
  5
78
330
75
100
AcDbEntity
  8
$DDT_AUDIT_GENERATED_(77)
  6
Continuous
 62
     7
100
AcDbCircle
 10
57.1184188383
 20
562.2989654358
 30
0.0
 40
24.49999999999999
100
AcDbArc
 50
160.4431961397
 51
164.8572685595
  0
ARC
  5
79
330
75
100
AcDbEntity
  8
$DDT_AUDIT_GENERATED_(77)
  6
Continuous
 62
     7
100
AcDbCircle
 10
57.1184188383
 20
562.2989654358
 30
0.0
 40
24.5
100
AcDbArc
 50
15.1427314405
 51
19.5596029767
  0
SPLINE
  5
7B
330
75
100
AcDbEntity
  8
$DDT_AUDIT_GENERATED_(7A)
  6
Continuous
 62
     7
100
AcDbSpline
210
0.0
220
0.0
230
1.0
 70
     8
 71
     3
 72
     8
 73
     4
 74
     0
 42
0.0000000096945479
 43
0.0000000001
 40
0.6781560097676415
 40
0.6781560097676415
 40
0.6781560097676415
 40
0.6781560097676415
 40
0.6814089099162193
 40
0.6814089099162193
 40
0.6814089099162193
 40
0.6814089099162193
 10
44.22495401289046
 20
621.6159748671206
 30
0.0
 10
44.2260602915305
 20
621.6163592689174
 30
0.0
 10
44.22713710123968
 20
621.6166500821945
 30
0.0
 10
44.22818747461325
 20
621.6168479188685
 30
0.0
  0
SPLINE
  5
7C
330
75
100
AcDbEntity
  8
$DDT_AUDIT_GENERATED_(7A)
  6
Continuous
 62
     7
100
AcDbSpline
210
0.0
220
0.0
230
1.0
 70
     8
 71
     3
 72
    14
 73
    10
 74
     0
 42
0.0000000013021747
 43
0.0000000001
 40
0.6814089099162193
 40
0.6814089099162193
 40
0.6814089099162193
 40
0.6814089099162193
 40
0.6912489442730281
 40
0.7513190156305818
 40
0.8066295907585954
 40
0.863597464941046
 40
0.9265258579009266
 40
0.9645915716538622
 40
1.0
 40
1.0
 40
1.0
 40
1.0
 10
44.22818747461325
 20
621.6168479188686
 30
0.0
 10
44.23136485775179
 20
621.6174463755013
 30
0.0
 10
44.2522204016602
 20
621.615653589911
 30
0.0
 10
44.27529433458137
 20
621.5370522405836
 30
0.0
 10
44.29685302948994
 20
621.2647824663986
 30
0.0
 10
44.31801897808347
 20
620.8311276611109
 30
0.0
 10
44.35434484670711
 20
620.2920336901591
 30
0.0
 10
44.40889216551235
 20
619.7291269968545
 30
0.0
 10
44.45532219070807
 20
619.3762981099586
 30
0.0
 10
44.477677687553
 20
619.2062609661932
 30
0.0
  0
SPLINE
  5
7D
330
75
100
AcDbEntity
  8
$DDT_AUDIT_GENERATED_(7A)
  6
Continuous
 62
     7
100
AcDbSpline
210
0.0
220
0.0
230
1.0
 70
     8
 71
     3
 72
    15
 73
    11
 74
     0
 42
0.0000000161628458
 43
0.0000000001
 40
0.0
 40
0.0
 40
0.0
 40
0.0
 40
0.1216727116597635
 40
0.2364040004786293
 40
0.3447656643434397
 40
0.4474210662835868
 40
0.598065783154732
 40
0.737461383060713
 40
0.8698593244669661
 40
1.0
 40
1.0
 40
1.0
 40
1.0
 10
44.477677687553
 20
619.2062609661932
 30
0.0
 10
44.47987955081445
 20
619.1972862973516
 30
0.0
 10
44.4841963558007
 20
619.1798546999139
 30
0.0
 10
44.50388873489647
 20
619.1563239742372
 30
0.0
 10
44.53331201377166
 20
619.1357800995742
 30
0.0
 10
44.58014979503989
 20
619.1153632643104
 30
0.0
 10
44.65154243900201
 20
619.0968869979451
 30
0.0
 10
44.75960193512249
 20
619.0836497829677
 30
0.0
 10
44.89098163656405
 20
619.0779270102785
 30
0.0
 10
44.99773573579468
 20
619.0808417787712
 30
0.0
 10
45.05064635746483
 20
619.082283574188
 30
0.0
  0
ARC
  5
7E
330
75
100
AcDbEntity
  8
$DDT_AUDIT_GENERATED_(7A)
  6
Continuous
 62
     7
100
AcDbCircle
 10
58.3650768036
 20
353.5422647386
 30
0.0
 40
265.8736084332425
100
AcDbArc
 50
90.2686558552
 51
92.870461223
  0
SPLINE
  5
7F
330
75
100
AcDbEntity
  8
$DDT_AUDIT_GENERATED_(7A)
  6
Continuous
 62
     7
100
AcDbSpline
210
0.0
220
0.0
230
1.0
 70
     8
 71
     3
 72
    40
 73
    36
 74
     0
 42
0.0000000002998429
 43
0.0000000001
 40
0.4545261986109471
 40
0.4545261986109471
 40
0.4545261986109471
 40
0.4545261986109471
 40
0.4644264074181139
 40
0.4812802514912086
 40
0.4987704081449425
 40
0.514570913238687
 40
0.5309102920664458
 40
0.5437174059504088
 40
0.5591489788733549
 40
0.5917414584123878
 40
0.6054804926921125
 40
0.6212121143407319
 40
0.6307087114971875
 40
0.6362985770435647
 40
0.6494056880067041
 40
0.6715544989915555
 40
0.6843904616699436
 40
0.7147040897297332
 40
0.7465095644217511
 40
0.8117879733162222
 40
0.8197543861351566
 40
0.8277839016706917
 40
0.8411163997398969
 40
0.8473269947294141
 40
0.853219107736124
 40
0.8604965127375747
 40
0.8678442699220122
 40
0.8823069689225296
 40
0.901877624361651
 40
0.9205876218781831
 40
0.9380452608143391
 40
0.9543069716777662
 40
0.9696480468892816
 40
0.9842143116814142
 40
1.0
 40
1.0
 40
1.0
 40
1.0
 10
43.29810804024513
 20
618.539366894361
 30
0.0
 10
43.27175240427566
 20
618.5109317934779
 30
0.0
 10
43.1990648625184
 20
618.4313568284714
 30
0.0
 10
43.07627904649248
 20
618.2903067270437
 30
0.0
 10
42.93846921948818
 20
618.1146453924393
 30
0.0
 10
42.79680692938948
 20
617.923787311794
 30
0.0
 10
42.65297687098526
 20
617.7381004509821
 30
0.0
 10
42.49477134812017
 20
617.5384268453381
 30
0.0
 10
42.23643215215989
 20
617.2529811860253
 30
0.0
 10
41.88042664758195
 20
616.9391090026143
 30
0.0
 10
41.40582328590352
 20
616.6201342109237
 30
0.0
 10
41.06717880475242
 20
616.4241238960017
 30
0.0
 10
40.78385971783003
 20
616.2706895733712
 30
0.0
 10
40.52557368446741
 20
616.1235784958563
 30
0.0
 10
40.14259573247341
 20
615.9105281775982
 30
0.0
 10
39.69824090204127
 20
615.636905866943
 30
0.0
 10
39.10625300015533
 20
615.2274799192726
 30
0.0
 10
38.43948666533796
 20
614.7037955373288
 30
0.0
 10
37.32901097485109
 20
613.6578452545541
 30
0.0
 10
36.39314737008807
 20
612.6607045655876
 30
0.0
 10
35.6285742265762
 20
611.8116606098007
 30
0.0
 10
35.34855844365782
 20
611.5017364143604
 30
0.0
 10
35.08083538893957
 20
611.1948872109635
 30
0.0
 10
34.8297927497063
 20
610.9045185353822
 30
0.0
 10
34.63788406880767
 20
610.6763414548342
 30
0.0
 10
34.43301112380623
 20
610.4385898191531
 30
0.0
 10
34.14412861706396
 20
610.0932033484459
 30
0.0
 10
33.73984669525278
 20
609.587372063902
 30
0.0
 10
33.2511887906581
 20
608.9435472070869
 30
0.0
 10
32.79277787915376
 20
608.2372392537659
 30
0.0
 10
32.42787224564245
 20
607.5607130120371
 30
0.0
 10
32.15384046393032
 20
606.918835579826
 30
0.0
 10
31.96182799088147
 20
606.3104785138378
 30
0.0
 10
31.8297788776363
 20
605.7076057069413
 30
0.0
 10
31.79600244397089
 20
605.3064634225532
 30
0.0
 10
31.77917473064923
 20
605.0978596679743
 30
0.0
  0
ELLIPSE
  5
80
330
75
100
AcDbEntity
  8
$DDT_AUDIT_GENERATED_(7A)
  6
Continuous
 62
     7
100
AcDbEllipse
 10
44.6662732547
 20
617.9353678418
 30
0.0
 11
1.289815826328878
 21
0.162463434509541
 31
0.0
210
0.0
220
0.0
230
0.9999999999999998
 40
0.9883044537
 41
1.592561043189551
 42
3.141676362423552
  0
SPLINE
  5
81
330
75
100
AcDbEntity
  8
$DDT_AUDIT_GENERATED_(7A)
  6
Continuous
 62
     7
100
AcDbSpline
210
0.0
220
0.0
230
1.0
 70
    12
 71
     3
 72
    10
 73
     6
 74
     0
 42
0.0000000088738851
 43
0.0000000001
 40
0.6765119999999999
 40
0.6765119999999999
 40
0.6765119999999999
 40
0.6765119999999999
 40
0.6875
 40
0.6875
 40
0.6876946317858383
 40
0.6876946317858383
 40
0.6876946317858383
 40
0.6876946317858383
 10
70.01161673203642
 20
621.6160173664389
 30
0.0
 41
0.9999999999999732
 10
70.00695524471796
 20
621.6176402150868
 30
0.0
 41
0.9999999999999734
 10
70.0030991127532
 20
621.617493843362
 30
0.0
 41
0.9999999999999734
 10
69.99970128916807
 20
621.6160835382689
 30
0.0
 41
0.9999999999999734
 10
69.99964232012944
 20
621.6160586055134
 30
0.0
 41
0.9999999999999734
 10
69.99958351954515
 20
621.616033289214
 30
0.0
 41
0.9999999999999734
  0
SPLINE
  5
82
330
75
100
AcDbEntity
  8
$DDT_AUDIT_GENERATED_(7A)
  6
Continuous
 62
     7
100
AcDbSpline
210
0.0
220
0.0
230
1.0
 70
    12
 71
     3
 72
    80
 73
    76
 74
     0
 42
0.0000000012860661
 43
0.0000000001
 40
0.6876946317858383
 40
0.6876946317858383
 40
0.6876946317858383
 40
0.6876946317858383
 40
0.6884765625
 40
0.6884765625
 40
0.689453125
 40
0.689453125
 40
0.69140625
 40
0.69140625
 40
0.6953125
 40
0.6953125
 40
0.7031249999999999
 40
0.7031249999999999
 40
0.71875
 40
0.71875
 40
0.7207031249999999
 40
0.7207031249999999
 40
0.7211914062499999
 40
0.7211914062499999
 40
0.7216796874999999
 40
0.7216796874999999
 40
0.72265625
 40
0.72265625
 40
0.7265625
 40
0.7265625
 40
0.734375
 40
0.734375
 40
0.7499999999999999
 40
0.7499999999999999
 40
0.78125
 40
0.78125
 40
0.78515625
 40
0.78515625
 40
0.787109375
 40
0.787109375
 40
0.7890625
 40
0.7890625
 40
0.796875
 40
0.796875
 40
0.8125
 40
0.8125
 40
0.8750000000000001
 40
0.8750000000000001
 40
0.9062500000000001
 40
0.9062500000000001
 40
0.9140625
 40
0.9140625
 40
0.9150390625
 40
0.9150390625
 40
0.9155273437500001
 40
0.9155273437500001
 40
0.9156494140625
 40
0.9156494140625
 40
0.915771484375
 40
0.915771484375
 40
0.916015625
 40
0.916015625
 40
0.91796875
 40
0.91796875
 40
0.921875
 40
0.921875
 40
0.9375
 40
0.9375
 40
0.96875
 40
0.96875
 40
0.9765625000000001
 40
0.9765625000000001
 40
0.978515625
 40
0.978515625
 40
0.9794921875000001
 40
0.9794921875000001
 40
0.9804687500000001
 40
0.9804687500000001
 40
0.9843750000000001
 40
0.9843750000000001
 40
1.0
 40
1.0
 40
1.0
 40
1.0
 10
69.99958351954515
 20
621.616033289214
 30
0.0
 41
0.9999999999999734
 10
69.99934728894871
 20
621.6159315813039
 30
0.0
 41
0.9999999999999734
 10
69.99911377724011
 20
621.615823682916
 30
0.0
 41
0.9999999999999734
 10
69.99859459244804
 20
621.6155675582444
 30
0.0
 41
0.9999999999999734
 10
69.99829847267497
 20
621.615411662026
 30
0.0
 41
0.9999999999999734
 10
69.99756761180825
 20
621.6149673405835
 30
0.0
 41
0.9999999999999734
 10
69.99708346396037
 20
621.6146380015861
 30
0.0
 41
0.9999999999999734
 10
69.9956387675681
 20
621.6135497102165
 30
0.0
 41
0.9999999999999734
 10
69.9946859683909
 20
621.6126904823772
 30
0.0
 41
0.9999999999999734
 10
69.99184623362379
 20
621.6097045323
 30
0.0
 41
0.9999999999999734
 10
69.98997421524965
 20
621.6071701736892
 30
0.0
 41
0.9999999999999734
 10
69.98436217564753
 20
621.5978723465863
 30
0.0
 41
0.9999999999999736
 10
69.98065583667471
 20
621.5894071900071
 30
0.0
 41
0.9999999999999736
 10
69.9766097696813
 20
621.5771106143171
 30
0.0
 41
0.9999999999999736
 10
69.97616186699838
 20
621.5757058379387
 30
0.0
 41
0.9999999999999736
 10
69.97560418817088
 20
621.5739012997764
 30
0.0
 41
0.9999999999999736
 10
69.97549276233285
 20
621.5735379637858
 30
0.0
 41
0.9999999999999736
 10
69.97527013342533
 20
621.5728064238198
 30
0.0
 41
0.9999999999999736
 10
69.97514572466396
 20
621.5724106042087
 30
0.0
 41
0.9999999999999736
 10
69.97491139920665
 20
621.5715047272893
 30
0.0
 41
0.9999999999999736
 10
69.97475556577076
 20
621.5708947432355
 30
0.0
 41
0.9999999999999736
 10
69.97397834044259
 20
621.5678144857902
 30
0.0
 41
0.9999999999999736
 10
69.9733627798456
 20
621.5652531933613
 30
0.0
 41
0.9999999999999736
 10
69.97153554455979
 20
621.5572779818168
 30
0.0
 41
0.9999999999999736
 10
69.97034338177052
 20
621.551572633534
 30
0.0
 41
0.9999999999999736
 10
69.96684866892839
 20
621.533293804745
 30
0.0
 41
0.9999999999999736
 10
69.96462871766607
 20
621.5195560606537
 30
0.0
 41
0.9999999999999738
 10
69.95829463983513
 20
621.4737640092434
 30
0.0
 41
0.9999999999999738
 10
69.95451342849192
 20
621.4371088497046
 30
0.0
 41
0.9999999999999738
 10
69.95060290999238
 20
621.3895190417032
 30
0.0
 41
0.9999999999999738
 10
69.95017302584293
 20
621.3841435034825
 30
0.0
 41
0.9999999999999738
 10
69.94953455735457
 20
621.3759505005805
 30
0.0
 41
0.9999999999999738
 10
69.9493167735763
 20
621.3731589158749
 30
0.0
 41
0.9999999999999738
 10
69.948852740399
 20
621.367321490672
 30
0.0
 41
0.9999999999999738
 10
69.94862151109182
 20
621.3643762106373
 30
0.0
 41
0.9999999999999738
 10
69.94746903389424
 20
621.3495170743792
 30
0.0
 41
0.999999999999974
 10
69.94655882399384
 20
621.3372049297993
 30
0.0
 41
0.999999999999974
 10
69.94385251002365
 20
621.2989997951203
 30
0.0
 41
0.999999999999974
 10
69.94208099484142
 20
621.2718370972075
 30
0.0
 41
0.999999999999974
 10
69.93322049902136
 20
621.1276989514934
 30
0.0
 41
0.999999999999974
 10
69.92614097326768
 20
620.9854492361338
 30
0.0
 41
0.999999999999974
 10
69.91180611153685
 20
620.7380334147188
 30
0.0
 41
0.9999999999999742
 10
69.90640484784339
 20
620.6499486674771
 30
0.0
 41
0.9999999999999742
 10
69.89852092295105
 20
620.5339051794147
 30
0.0
 41
0.9999999999999742
 10
69.89688775610118
 20
620.51040057792
 30
0.0
 41
0.9999999999999742
 10
69.89498263333822
 20
620.4836423007952
 30
0.0
 41
0.9999999999999742
 10
69.89477001154606
 20
620.4806647764647
 30
0.0
 41
0.9999999999999742
 10
69.89444965563416
 20
620.4761919625325
 30
0.0
 41
0.9999999999999742
 10
69.89434263312839
 20
620.47469993665
 30
0.0
 41
0.9999999999999742
 10
69.89420855735472
 20
620.4728335492507
 30
0.0
 41
0.9999999999999742
 10
69.89418946134057
 20
620.472549919629
 30
0.0
 41
0.9999999999999742
 10
69.89411845826376
 20
620.4716022581442
 30
0.0
 41
0.9999999999999742
 10
69.89407469220461
 20
620.4710327227148
 30
0.0
 41
0.9999999999999742
 10
69.89395567161957
 20
620.4694670363493
 30
0.0
 41
0.9999999999999742
 10
69.89387621856392
 20
620.468422679308
 30
0.0
 41
0.9999999999999742
 10
69.89316018411837
 20
620.4590183809432
 30
0.0
 41
0.9999999999999742
 10
69.89251690391934
 20
620.4506228438166
 30
0.0
 41
0.9999999999999742
 10
69.89056615188316
 20
620.4253295031431
 30
0.0
 41
0.9999999999999742
 10
69.88923776517653
 20
620.4083249606736
 30
0.0
 41
0.9999999999999742
 10
69.8824499932647
 20
620.3226146282349
 30
0.0
 41
0.9999999999999742
 10
69.87655184361087
 20
620.2518430780608
 30
0.0
 41
0.9999999999999742
 10
69.85723605624385
 20
620.0339097005055
 30
0.0
 41
0.9999999999999742
 10
69.84217584464537
 20
619.8810995866553
 30
0.0
 41
0.9999999999999742
 10
69.82017596084015
 20
619.6844906759325
 30
0.0
 41
0.999999999999974
 10
69.81561889044889
 20
619.6448914094053
 30
0.0
 41
0.999999999999974
 10
69.80972351386215
 20
619.5951103869977
 30
0.0
 41
0.999999999999974
 10
69.80853449385906
 20
619.5851400930703
 30
0.0
 41
0.999999999999974
 10
69.8067360186759
 20
619.5701647573522
 30
0.0
 41
0.999999999999974
 10
69.80613403617816
 20
619.5651696630592
 30
0.0
 41
0.999999999999974
 10
69.80492508606496
 20
619.5551730506622
 30
0.0
 41
0.999999999999974
 10
69.80435305319509
 20
619.5504530986917
 30
0.0
 41
0.999999999999974
 10
69.8010091238093
 20
619.523037834015
 30
0.0
 41
0.999999999999974
 10
69.79827747215138
 20
619.5009697990204
 30
0.0
 41
0.999999999999974
 10
69.78432945880563
 20
619.3899693067569
 30
0.0
 41
0.999999999999974
 10
69.7722430121675
 20
619.2990538044818
 30
0.0
 41
0.999999999999974
 10
69.75915998901137
 20
619.2062609661932
 30
0.0
 41
0.999999999999974
  0
ARC
  5
83
330
75
100
AcDbEntity
  8
$DDT_AUDIT_GENERATED_(7A)
  6
Continuous
 62
     7
100
AcDbCircle
 10
69.5866405314
 20
617.9354624427
 30
0.0
 40
1.282455399018811
100
AcDbArc
 50
352.7083851275
 51
82.2689748744
  0
SPLINE
  5
84
330
75
100
AcDbEntity
  8
$DDT_AUDIT_GENERATED_(7A)
  6
Continuous
 62
     7
100
AcDbSpline
210
0.0
220
0.0
230
1.0
 70
    12
 71
     3
 72
   264
 73
   260
 74
     0
 42
0.0000000002985046
 43
0.0000000001
 40
0.4573503962997995
 40
0.4573503962997995
 40
0.4573503962997995
 40
0.4573503962997995
 40
0.4687502133497086
 40
0.4687502133497086
 40
0.4707033447871369
 40
0.4707033447871369
 40
0.471679910505851
 40
0.471679910505851
 40
0.472168193365208
 40
0.472168193365208
 40
0.4724123347948866
 40
0.4724123347948866
 40
0.4726564762245651
 40
0.4726564762245651
 40
0.4765627390994215
 40
0.4765627390994215
 40
0.4843752648491345
 40
0.4843752648491345
 40
0.5000003163485606
 40
0.5000003163485606
 40
0.503906579223417
 40
0.503906579223417
 40
0.5043948620827741
 40
0.5043948620827741
 40
0.5048831449421312
 40
0.5048831449421312
 40
0.5058597106608453
 40
0.5058597106608453
 40
0.5078128420982736
 40
0.5078128420982736
 40
0.5156253678479865
 40
0.5156253678479865
 40
0.5312504193474125
 40
0.5312504193474125
 40
0.5351566822222691
 40
0.5351566822222691
 40
0.5371098136596971
 40
0.5371098136596971
 40
0.5372318843745365
 40
0.5372318843745365
 40
0.5373539550893757
 40
0.5373539550893757
 40
0.5375980965190543
 40
0.5375980965190543
 40
0.5380863793784113
 40
0.5380863793784113
 40
0.5390629450971254
 40
0.5390629450971254
 40
0.5468754708468386
 40
0.5468754708468386
 40
0.5625005223462645
 40
0.5625005223462645
 40
0.5664067852211211
 40
0.5664067852211211
 40
0.5683599166585491
 40
0.5683599166585491
 40
0.5693364823772633
 40
0.5693364823772633
 40
0.5703130480959775
 40
0.5703130480959775
 40
0.5781255738456904
 40
0.5781255738456904
 40
0.5937506253451166
 40
0.5937506253451166
 40
0.6015631510948295
 40
0.6015631510948295
 40
0.6020514339541867
 40
0.6020514339541867
 40
0.6025397168135437
 40
0.6025397168135437
 40
0.6035162825322578
 40
0.6035162825322578
 40
0.6054694139696861
 40
0.6054694139696861
 40
0.6093756768445424
 40
0.6093756768445424
 40
0.6250007283439684
 40
0.6250007283439684
 40
0.6328132540936813
 40
0.6328132540936813
 40
0.6337898198123955
 40
0.6337898198123955
 40
0.634033961242074
 40
0.634033961242074
 40
0.6342781026717527
 40
0.6342781026717527
 40
0.6347663855311096
 40
0.6347663855311096
 40
0.6367195169685379
 40
0.6367195169685379
 40
0.6406257798433943
 40
0.6406257798433943
 40
0.6562508313428204
 40
0.6562508313428204
 40
0.6640633570925334
 40
0.6640633570925334
 40
0.6660164885299616
 40
0.6660164885299616
 40
0.6665047713893189
 40
0.6665047713893189
 40
0.6667489128189972
 40
0.6667489128189972
 40
0.6669930542486758
 40
0.6669930542486758
 40
0.6679696199673899
 40
0.6679696199673899
 40
0.6718758828422463
 40
0.6718758828422463
 40
0.6875009343416723
 40
0.6875009343416723
 40
0.6953134600913852
 40
0.6953134600913852
 40
0.6972665915288134
 40
0.6972665915288134
 40
0.6982431572475276
 40
0.6982431572475276
 40
0.6987314401068846
 40
0.6987314401068846
 40
0.6989755815365631
 40
0.6989755815365631
 40
0.6992197229662418
 40
0.6992197229662418
 40
0.7031259858410981
 40
0.7031259858410981
 40
0.7187510373405243
 40
0.7187510373405243
 40
0.7265635630902372
 40
0.7265635630902372
 40
0.7304698259650938
 40
0.7304698259650938
 40
0.7343760888399502
 40
0.7343760888399502
 40
0.750001140339376
 40
0.750001140339376
 40
0.7812512433382282
 40
0.7812512433382282
 40
0.7890637690879411
 40
0.7890637690879411
 40
0.7929700319627977
 40
0.7929700319627977
 40
0.7949231634002257
 40
0.7949231634002257
 40
0.7958997291189399
 40
0.7958997291189399
 40
0.796876294837654
 40
0.796876294837654
 40
0.8125013463370799
 40
0.8125013463370799
 40
0.8203138720867929
 40
0.8203138720867929
 40
0.8281263978365061
 40
0.8281263978365061
 40
0.82910296355522
 40
0.82910296355522
 40
0.8300795292739341
 40
0.8300795292739341
 40
0.8320326607113624
 40
0.8320326607113624
 40
0.835938923586219
 40
0.835938923586219
 40
0.8437514493359319
 40
0.8437514493359319
 40
0.8442397321952891
 40
0.8442397321952891
 40
0.8444838736249676
 40
0.8444838736249676
 40
0.8447280150546461
 40
0.8447280150546461
 40
0.8457045807733603
 40
0.8457045807733603
 40
0.8476577122107886
 40
0.8476577122107886
 40
0.851563975085645
 40
0.851563975085645
 40
0.8593765008353579
 40
0.8593765008353579
 40
0.8603530665540721
 40
0.8603530665540721
 40
0.8605972079837506
 40
0.8605972079837506
 40
0.8608413494134292
 40
0.8608413494134292
 40
0.8613296322727861
 40
0.8613296322727861
 40
0.8632827637102145
 40
0.8632827637102145
 40
0.8671890265850708
 40
0.8671890265850708
 40
0.875001552334784
 40
0.875001552334784
 40
0.8906266038342099
 40
0.8906266038342099
 40
0.8925797352716383
 40
0.8925797352716383
 40
0.8930680181309955
 40
0.8930680181309955
 40
0.8935563009903523
 40
0.8935563009903523
 40
0.8945328667090665
 40
0.8945328667090665
 40
0.8984391295839229
 40
0.8984391295839229
 40
0.9023453924587794
 40
0.9023453924587794
 40
0.9042985238962076
 40
0.9042985238962076
 40
0.9062516553336358
 40
0.9062516553336358
 40
0.9218767068330619
 40
0.9218767068330619
 40
0.92382983827049
 40
0.92382983827049
 40
0.9248064039892042
 40
0.9248064039892042
 40
0.9252946868485612
 40
0.9252946868485612
 40
0.9257829697079183
 40
0.9257829697079183
 40
0.9296892325827749
 40
0.9296892325827749
 40
0.9375017583324878
 40
0.9375017583324878
 40
0.9414080212073443
 40
0.9414080212073443
 40
0.9423845869260584
 40
0.9423845869260584
 40
0.9433611526447725
 40
0.9433611526447725
 40
0.9453142840822009
 40
0.9453142840822009
 40
0.9531268098319138
 40
0.9531268098319138
 40
0.9570330727067703
 40
0.9570330727067703
 40
0.9575213555661273
 40
0.9575213555661273
 40
0.9580096384254843
 40
0.9580096384254843
 40
0.9589862041441984
 40
0.9589862041441984
 40
0.9609393355816267
 40
0.9609393355816267
 40
0.9687518613313398
 40
0.9687518613313398
 40
0.9843769128307658
 40
0.9843769128307658
 40
0.9882831757056223
 40
0.9882831757056223
 40
0.9892597414243364
 40
0.9892597414243364
 40
0.9897480242836934
 40
0.9897480242836934
 40
0.9899921657133719
 40
0.9899921657133719
 40
0.9902363071430504
 40
0.9902363071430504
 40
0.9921894385804788
 40
0.9921894385804788
 40
1.0
 40
1.0
 40
1.0
 40
1.0
 10
70.9416496609583
 20
618.5363122785818
 30
0.0
 41
0.9999999999999545
 10
70.96783071004523
 20
618.5081313445196
 30
0.0
 41
0.9999999999999546
 10
70.99378010595943
 20
618.4797618998879
 30
0.0
 41
0.9999999999999547
 10
71.0234312922067
 20
618.4463724569417
 30
0.0
 41
0.9999999999999547
 10
71.02774941989499
 20
618.4414843182091
 30
0.0
 41
0.9999999999999547
 10
71.03419489094242
 20
618.4341457977702
 30
0.0
 41
0.9999999999999547
 10
71.0363380945684
 20
618.4316985719557
 30
0.0
 41
0.9999999999999547
 10
71.03954455627465
 20
618.4280261643975
 30
0.0
 41
0.9999999999999547
 10
71.04061198624107
 20
618.4268017670797
 30
0.0
 41
0.9999999999999547
 10
71.0422109935503
 20
618.424964779898
 30
0.0
 41
0.9999999999999547
 10
71.0427436397229
 20
618.424352385649
 30
0.0
 41
0.9999999999999547
 10
71.0438082108992
 20
618.4231274668981
 30
0.0
 41
0.9999999999999547
 10
71.04465327902986
 20
618.422196492372
 30
0.0
 41
0.9999999999999547
 10
71.05836612838709
 20
618.407015529133
 30
0.0
 41
0.9999999999999547
 10
71.07114342659138
 20
618.3926034494489
 30
0.0
 41
0.9999999999999547
 10
71.10910967765665
 20
618.3490757430106
 30
0.0
 41
0.9999999999999547
 10
71.13398002450866
 20
618.3196140648652
 30
0.0
 41
0.9999999999999547
 10
71.20774998855417
 20
618.2299590435696
 30
0.0
 41
0.9999999999999547
 10
71.25579812806933
 20
618.1685032217686
 30
0.0
 41
0.9999999999999547
 10
71.31603434845613
 20
618.0898479885984
 30
0.0
 41
0.9999999999999547
 10
71.32809062261175
 20
618.0740252070232
 30
0.0
 41
0.9999999999999547
 10
71.34168695271856
 20
618.0561252704692
 30
0.0
 41
0.9999999999999547
 10
71.3431981148889
 20
618.0541350093815
 30
0.0
 41
0.9999999999999547
 10
71.3462214366622
 20
618.0501517423007
 30
0.0
 41
0.9999999999999547
 10
71.34786416828298
 20
618.0480011784346
 30
0.0
 41
0.9999999999999547
 10
71.35180180889276
 20
618.0427425872647
 30
0.0
 41
0.9999999999999547
 10
71.35444072376792
 20
618.0392179265646
 30
0.0
 41
0.9999999999999547
 10
71.36239964772116
 20
618.0285870337514
 30
0.0
 41
0.9999999999999547
 10
71.36776182361673
 20
618.0214238895487
 30
0.0
 41
0.9999999999999547
 10
71.3948641151959
 20
617.985227345246
 30
0.0
 41
0.9999999999999547
 10
71.41747418962488
 20
617.9550510201217
 30
0.0
 41
0.9999999999999547
 10
71.48858370535194
 20
617.8608207832838
 30
0.0
 41
0.9999999999999547
 10
71.54029585625051
 20
617.7930557841559
 30
0.0
 41
0.9999999999999547
 10
71.61287658474025
 20
617.7021369046734
 30
0.0
 41
0.9999999999999549
 10
71.6277949100223
 20
617.6836432679424
 30
0.0
 41
0.9999999999999549
 10
71.65083957429985
 20
617.6554401253046
 30
0.0
 41
0.9999999999999549
 10
71.65863239429214
 20
617.6459619769626
 30
0.0
 41
0.9999999999999549
 10
71.66703658827431
 20
617.635809808089
 30
0.0
 41
0.9999999999999549
 10
71.66739211047879
 20
617.6353686740721
 30
0.0
 41
0.9999999999999549
 10
71.66782741918703
 20
617.6347958176428
 30
0.0
 41
0.9999999999999549
 10
71.66804598334957
 20
617.6345084129064
 30
0.0
 41
0.9999999999999549
 10
71.66870440777248
 20
617.6336432699254
 30
0.0
 41
0.9999999999999549
 10
71.66914699993076
 20
617.6330626026888
 30
0.0
 41
0.9999999999999549
 10
71.67048572472453
 20
617.6313088898083
 30
0.0
 41
0.9999999999999549
 10
71.67139280533675
 20
617.6301241326883
 30
0.0
 41
0.9999999999999549
 10
71.67415801569022
 20
617.6265230440969
 30
0.0
 41
0.9999999999999549
 10
71.67606010931212
 20
617.6240598963913
 30
0.0
 41
0.9999999999999549
 10
71.69371126520693
 20
617.6013302071572
 30
0.0
 41
0.9999999999999549
 10
71.71316389323431
 20
617.5771382233376
 30
0.0
 41
0.9999999999999549
 10
71.7840894847499
 20
617.4925547619073
 30
0.0
 41
0.9999999999999551
 10
71.84774903888398
 20
617.4200928667932
 30
0.0
 41
0.9999999999999551
 10
71.95687468486155
 20
617.309447175781
 30
0.0
 41
0.9999999999999554
 10
71.98020718961699
 20
617.2863191006526
 30
0.0
 41
0.9999999999999554
 10
72.01773182785442
 20
617.2501491351968
 30
0.0
 41
0.9999999999999556
 10
72.03066144186324
 20
617.237846301293
 30
0.0
 41
0.9999999999999556
 10
72.05072477224046
 20
617.2190267134619
 30
0.0
 41
0.9999999999999556
 10
72.05752405894317
 20
617.2126926382932
 30
0.0
 41
0.9999999999999556
 10
72.07135208086346
 20
617.1999035190278
 30
0.0
 41
0.9999999999999556
 10
72.07669938837643
 20
617.1949227550462
 30
0.0
 41
0.9999999999999558
 10
72.12923521035496
 20
617.1464507547234
 30
0.0
 41
0.9999999999999558
 10
72.17642284487475
 20
617.1047914959872
 30
0.0
 41
0.999999999999956
 10
72.318667760305
 20
616.9843148472706
 30
0.0
 41
0.9999999999999565
 10
72.41444445677216
 20
616.9100372065774
 30
0.0
 41
0.9999999999999569
 10
72.55516350045194
 20
616.8079460848869
 30
0.0
 41
0.9999999999999576
 10
72.60156602288752
 20
616.7754602596171
 30
0.0
 41
0.9999999999999578
 10
72.64991996274648
 20
616.7425518216054
 30
0.0
 41
0.999999999999958
 10
72.65287576956068
 20
616.7405484211545
 30
0.0
 41
0.999999999999958
 10
72.65989784927065
 20
616.7358484590475
 30
0.0
 41
0.999999999999958
 10
72.66342083369592
 20
616.733496373098
 30
0.0
 41
0.999999999999958
 10
72.67402565730214
 20
616.7264338510508
 30
0.0
 41
0.9999999999999583
 10
72.68114336921329
 20
616.7217171515335
 30
0.0
 41
0.9999999999999583
 10
72.70264019947228
 20
616.7075423752684
 30
0.0
 41
0.9999999999999583
 10
72.71716305371591
 20
616.6980596361011
 30
0.0
 41
0.9999999999999585
 10
72.76130671922428
 20
616.6695152685328
 30
0.0
 41
0.9999999999999587
 10
72.79150335087608
 20
616.6503578220684
 30
0.0
 41
0.9999999999999587
 10
72.94628553070318
 20
616.553947794576
 30
0.0
 41
0.9999999999999596
 10
73.08247275693405
 20
616.4749942685964
 30
0.0
 41
0.9999999999999605
 10
73.30192837873251
 20
616.3524008511819
 30
0.0
 41
0.9999999999999618
 10
73.37756380490752
 20
616.3108060531648
 30
0.0
 41
0.9999999999999623
 10
73.4649857603036
 20
616.2628233749834
 30
0.0
 41
0.9999999999999627
 10
73.47473172422974
 20
616.2574753099241
 30
0.0
 41
0.9999999999999629
 10
73.48695374197892
 20
616.2507684626703
 30
0.0
 41
0.9999999999999629
 10
73.48940012377807
 20
616.2494260048437
 30
0.0
 41
0.9999999999999629
 10
73.49429682034244
 20
616.2467388883008
 30
0.0
 41
0.9999999999999629
 10
73.49685949677578
 20
616.245334847519
 30
0.0
 41
0.9999999999999629
 10
73.49998982629747
 20
616.243530251408
 30
0.0
 41
0.9999999999999629
 10
73.5021139779631
 20
616.242307543293
 30
0.0
 41
0.9999999999999629
 10
73.51292147728631
 20
616.236095478402
 30
0.0
 41
0.9999999999999631
 10
73.5221651794012
 20
616.2308105463434
 30
0.0
 41
0.9999999999999631
 10
73.55170171554002
 20
616.2139985992511
 30
0.0
 41
0.9999999999999634
 10
73.5738009163442
 20
616.2015151718518
 30
0.0
 41
0.9999999999999634
 10
73.69642525536989
 20
616.1325480067704
 30
0.0
 41
0.9999999999999643
 10
73.833531694168
 20
616.0569332423472
 30
0.0
 41
0.9999999999999649
 10
74.09643437505167
 20
615.9046057677565
 30
0.0
 41
0.9999999999999665
 10
74.1935476580144
 20
615.8472327206598
 30
0.0
 41
0.9999999999999669
 10
74.32673609059488
 20
615.7655043748233
 30
0.0
 41
0.9999999999999676
 10
74.35396294067999
 20
615.7486570439071
 30
0.0
 41
0.9999999999999678
 10
74.38873182134475
 20
615.7269405803086
 30
0.0
 41
0.999999999999968
 10
74.3957223693766
 20
615.7225644168799
 30
0.0
 41
0.999999999999968
 10
74.40626334653447
 20
615.715950281811
 30
0.0
 41
0.999999999999968
 10
74.4081683735543
 20
615.7147349255188
 30
0.0
 41
0.999999999999968
 10
74.41300600212867
 20
615.711669139698
 30
0.0
 41
0.999999999999968
 10
74.41542219249061
 20
615.7101366280426
 30
0.0
 41
0.999999999999968
 10
74.42749003147907
 20
615.7024760028727
 30
0.0
 41
0.999999999999968
 10
74.43710234092813
 20
615.6963536874459
 30
0.0
 41
0.9999999999999682
 10
74.48495453998825
 20
615.665774791032
 30
0.0
 41
0.9999999999999685
 10
74.52256630614396
 20
615.6414160406246
 30
0.0
 41
0.9999999999999685
 10
74.70730897051891
 20
615.5202659352392
 30
0.0
 41
0.9999999999999694
 10
74.8445134676053
 20
615.4253943154126
 30
0.0
 41
0.99999999999997
 10
75.03496885157338
 20
615.2887979543451
 30
0.0
 41
0.9999999999999707
 10
75.09589054079157
 20
615.2442195940864
 30
0.0
 41
0.9999999999999711
 10
75.16885148732132
 20
615.1899596002438
 30
0.0
 41
0.9999999999999714
 10
75.18328951852402
 20
615.1791894668236
 30
0.0
 41
0.9999999999999714
 10
75.2046725962255
 20
615.1630944689647
 30
0.0
 41
0.9999999999999714
 10
75.21175562861508
 20
615.157741037973
 30
0.0
 41
0.9999999999999716
 10
75.22231340217266
 20
615.1497290400312
 30
0.0
 41
0.9999999999999716
 10
75.22582153062659
 20
615.1470613986338
 30
0.0
 41
0.9999999999999716
 10
75.23106705429771
 20
615.143064572063
 30
0.0
 41
0.9999999999999716
 10
75.23283105896836
 20
615.1417197921486
 30
0.0
 41
0.9999999999999716
 10
75.23752477461498
 20
615.1381692893254
 30
0.0
 41
0.9999999999999716
 10
75.23987030918367
 20
615.1363932550009
 30
0.0
 41
0.9999999999999716
 10
75.27972198156336
 20
615.1061874625595
 30
0.0
 41
0.9999999999999718
 10
75.31689215948242
 20
615.0775596557274
 30
0.0
 41
0.9999999999999718
 10
75.50114404120664
 20
614.9335444434975
 30
0.0
 41
0.9999999999999725
 10
75.643474583983
 20
614.8155461791571
 30
0.0
 41
0.9999999999999729
 10
75.85041277735999
 20
614.6364065071655
 30
0.0
 41
0.9999999999999736
 10
75.91829008461121
 20
614.5763326701849
 30
0.0
 41
0.9999999999999738
 10
76.01851892196643
 20
614.4859086602104
 30
0.0
 41
0.9999999999999742
 10
76.05166365157972
 20
614.4557149549834
 30
0.0
 41
0.9999999999999742
 10
76.11743047285121
 20
614.3952590247276
 30
0.0
 41
0.9999999999999745
 10
76.15396449427561
 20
614.3617223112406
 30
0.0
 41
0.9999999999999747
 10
76.3316359327993
 20
614.1968527117511
 30
0.0
 41
0.9999999999999751
 10
76.4743284110415
 20
614.0602716874454
 30
0.0
 41
0.9999999999999756
 10
76.90551561880218
 20
613.6373727611082
 30
0.0
 41
0.9999999999999767
 10
77.19716201223517
 20
613.3379551905136
 30
0.0
 41
0.9999999999999774
 10
77.57057798422714
 20
612.9437197946195
 30
0.0
 41
0.9999999999999782
 10
77.64570015952607
 20
612.8638699546791
 30
0.0
 41
0.9999999999999785
 10
77.75909968274752
 20
612.7426141810071
 30
0.0
 41
0.9999999999999787
 10
77.79701886694887
 20
612.7019487114252
 30
0.0
 41
0.9999999999999789
 10
77.85408358519514
 20
612.6405827207209
 30
0.0
 41
0.9999999999999789
 10
77.87313614624921
 20
612.6200660903878
 30
0.0
 41
0.9999999999999791
 10
77.90176231790622
 20
612.5891994906204
 30
0.0
 41
0.9999999999999791
 10
77.91131226334872
 20
612.578895348175
 30
0.0
 41
0.9999999999999791
 10
77.93042807041067
 20
612.5582565592669
 30
0.0
 41
0.9999999999999791
 10
77.93867082261413
 20
612.5492030272695
 30
0.0
 41
0.9999999999999791
 10
78.08982089801252
 20
612.3845179412648
 30
0.0
 41
0.9999999999999796
 10
78.23494116214083
 20
612.2250989029943
 30
0.0
 41
0.9999999999999798
 10
78.45744073991652
 20
611.9791897857968
 30
0.0
 41
0.9999999999999802
 10
78.53241037723745
 20
611.8960892055878
 30
0.0
 41
0.9999999999999805
 10
78.68404236120192
 20
611.7275925044092
 30
0.0
 41
0.9999999999999807
 10
78.76098291877294
 20
611.6420232028718
 30
0.0
 41
0.9999999999999809
 10
78.84778231939556
 20
611.5453377554195
 30
0.0
 41
0.9999999999999811
 10
78.85886426450196
 20
611.5331441064955
 30
0.0
 41
0.9999999999999811
 10
78.8795213845518
 20
611.5102644116163
 30
0.0
 41
0.9999999999999811
 10
78.88968238525845
 20
611.4989889542982
 30
0.0
 41
0.9999999999999811
 10
78.91966755968355
 20
611.4656514280198
 30
0.0
 41
0.9999999999999811
 10
78.9389939130402
 20
611.4440781648998
 30
0.0
 41
0.9999999999999813
 10
78.99501909664951
 20
611.3812816335687
 30
0.0
 41
0.9999999999999813
 10
79.02976279294789
 20
611.3419825655328
 30
0.0
 41
0.9999999999999813
 10
79.12649047093493
 20
611.2315238220846
 30
0.0
 41
0.9999999999999816
 10
79.18087113062391
 20
611.1679066203426
 30
0.0
 41
0.9999999999999816
 10
79.2294694647453
 20
611.1095859089477
 30
0.0
 41
0.9999999999999818
 10
79.23229505519461
 20
611.1061887256036
 30
0.0
 41
0.9999999999999818
 10
79.23648476531272
 20
611.1011421343336
 30
0.0
 41
0.9999999999999818
 10
79.23756942248366
 20
611.0997798583384
 30
0.0
 41
0.9999999999999818
 10
79.2416315441098
 20
611.0951129774674
 30
0.0
 41
0.9999999999999818
 10
79.24366016580733
 20
611.0927816994974
 30
0.0
 41
0.9999999999999818
 10
79.2537911074616
 20
611.0811360907878
 30
0.0
 41
0.9999999999999818
 10
79.26185692594352
 20
611.0718541035428
 30
0.0
 41
0.9999999999999818
 10
79.28593867882088
 20
611.0441104558656
 30
0.0
 41
0.9999999999999818
 10
79.30183890222587
 20
611.0257511102938
 30
0.0
 41
0.9999999999999818
 10
79.34908577712078
 20
610.9710729029833
 30
0.0
 41
0.999999999999982
 10
79.3799784520277
 20
610.9351539614967
 30
0.0
 41
0.999999999999982
 10
79.47091839944831
 20
610.8289197387451
 30
0.0
 41
0.9999999999999822
 10
79.52922349409045
 20
610.760130631635
 30
0.0
 41
0.9999999999999822
 10
79.59248377876729
 20
610.6847680046417
 30
0.0
 41
0.9999999999999822
 10
79.59948038085228
 20
610.6764224332841
 30
0.0
 41
0.9999999999999822
 10
79.6081864362551
 20
610.6660248783294
 30
0.0
 41
0.9999999999999822
 10
79.60992566251718
 20
610.6639470877403
 30
0.0
 41
0.9999999999999822
 10
79.61340016347233
 20
610.6597949304152
 30
0.0
 41
0.9999999999999822
 10
79.61634345147708
 20
610.656441884064
 30
0.0
 41
0.9999999999999822
 10
79.62354528558383
 20
610.6481029267103
 30
0.0
 41
0.9999999999999825
 10
79.6283403269481
 20
610.6425468595278
 30
0.0
 41
0.9999999999999825
 10
79.6522847874257
 20
610.6147824338532
 30
0.0
 41
0.9999999999999825
 10
79.6713419655451
 20
610.5926218044169
 30
0.0
 41
0.9999999999999825
 10
79.728224496808
 20
610.5262820349997
 30
0.0
 41
0.9999999999999825
 10
79.76576081841934
 20
610.4822450330396
 30
0.0
 41
0.9999999999999825
 10
79.8772637874496
 20
610.3506177929859
 30
0.0
 41
0.9999999999999827
 10
79.95012404577498
 20
610.2635123924989
 30
0.0
 41
0.9999999999999827
 10
80.1646951000488
 20
610.0034338384945
 30
0.0
 41
0.9999999999999831
 10
80.30590071781718
 20
609.827805573581
 30
0.0
 41
0.9999999999999831
 10
80.4612450482296
 20
609.6276782752911
 30
0.0
 41
0.9999999999999833
 10
80.47845950619234
 20
609.6054031181818
 30
0.0
 41
0.9999999999999833
 10
80.4999185234622
 20
609.5775083804798
 30
0.0
 41
0.9999999999999833
 10
80.50365530442444
 20
609.5725959571339
 30
0.0
 41
0.9999999999999833
 10
80.51572444071704
 20
609.5571959411416
 30
0.0
 41
0.9999999999999833
 10
80.52175345002925
 20
609.5494897639719
 30
0.0
 41
0.9999999999999833
 10
80.53982358596915
 20
609.5263525107335
 30
0.0
 41
0.9999999999999833
 10
80.55184782244187
 20
609.510902712275
 30
0.0
 41
0.9999999999999833
 10
80.61185340837014
 20
609.4335260950706
 30
0.0
 41
0.9999999999999836
 10
80.65948860881504
 20
609.3712161340678
 30
0.0
 41
0.9999999999999836
 10
80.7539336605507
 20
609.2457110926905
 30
0.0
 41
0.9999999999999836
 10
80.80074351170913
 20
609.1825159792702
 30
0.0
 41
0.9999999999999838
 10
80.87026180477847
 20
609.0870141726635
 30
0.0
 41
0.9999999999999838
 10
80.89331835943106
 20
609.0550621092818
 30
0.0
 41
0.9999999999999838
 10
80.93918461233274
 20
608.9909149553656
 30
0.0
 41
0.9999999999999838
 10
80.96318844098205
 20
608.9570819991723
 30
0.0
 41
0.9999999999999838
 10
81.14340392496607
 20
608.6988338532858
 30
0.0
 41
0.999999999999984
 10
81.29757036159181
 20
608.4626057920711
 30
0.0
 41
0.9999999999999842
 10
81.46019055031731
 20
608.1886918861769
 30
0.0
 41
0.9999999999999842
 10
81.47810795311851
 20
608.1581447674887
 30
0.0
 41
0.9999999999999845
 10
81.50474478440208
 20
608.1121554302563
 30
0.0
 41
0.9999999999999845
 10
81.51358384661148
 20
608.0967975446905
 30
0.0
 41
0.9999999999999845
 10
81.52678109281385
 20
608.0737185499278
 30
0.0
 41
0.9999999999999845
 10
81.53124567091655
 20
608.065890438208
 30
0.0
 41
0.9999999999999845
 10
81.53985123901786
 20
608.0507325049643
 30
0.0
 41
0.9999999999999845
 10
81.54316189570335
 20
608.044813332857
 30
0.0
 41
0.9999999999999845
 10
81.57722043262893
 20
607.9841652754875
 30
0.0
 41
0.9999999999999845
 10
81.60700293958897
 20
607.9299086889342
 30
0.0
 41
0.9999999999999845
 10
81.69473507112812
 20
607.7661102446014
 30
0.0
 41
0.9999999999999847
 10
81.75107096310157
 20
607.6555301427169
 30
0.0
 41
0.9999999999999847
 10
81.83176513037508
 20
607.4877188052678
 30
0.0
 41
0.9999999999999847
 10
81.85802761397632
 20
607.4314627558539
 30
0.0
 41
0.9999999999999847
 10
81.89000393344394
 20
607.3607625773742
 30
0.0
 41
0.9999999999999849
 10
81.89529253471073
 20
607.3488925478157
 30
0.0
 41
0.9999999999999849
 10
81.90674414385427
 20
607.3231074743188
 30
0.0
 41
0.9999999999999849
 10
81.91243149774853
 20
607.3102065414882
 30
0.0
 41
0.9999999999999849
 10
81.92937887987851
 20
607.2714750895445
 30
0.0
 41
0.9999999999999849
 10
81.94052426443477
 20
607.2456159020114
 30
0.0
 41
0.9999999999999849
 10
81.99549362051769
 20
607.1160835747316
 30
0.0
 41
0.9999999999999849
 10
82.03705617242555
 20
607.0116953978268
 30
0.0
 41
0.9999999999999849
 10
82.09577388019169
 20
606.8531667402171
 30
0.0
 41
0.9999999999999851
 10
82.11473982095956
 20
606.8000006414136
 30
0.0
 41
0.9999999999999851
 10
82.13537878244745
 20
606.7397583815264
 30
0.0
 41
0.9999999999999851
 10
82.13766229928996
 20
606.7330588260829
 30
0.0
 41
0.9999999999999851
 10
82.14220986003764
 20
606.7196475525842
 30
0.0
 41
0.9999999999999851
 10
82.14418137403578
 20
606.7137786075568
 30
0.0
 41
0.9999999999999851
 10
82.15024571152907
 20
606.6956653263893
 30
0.0
 41
0.9999999999999851
 10
82.15425853168686
 20
606.6835669174433
 30
0.0
 41
0.9999999999999851
 10
82.1662058669985
 20
606.6472011702393
 30
0.0
 41
0.9999999999999851
 10
82.17404927412261
 20
606.6228633067053
 30
0.0
 41
0.9999999999999851
 10
82.21264570871452
 20
606.5006794077674
 30
0.0
 41
0.9999999999999851
 10
82.24154229878845
 20
606.4013478655919
 30
0.0
 41
0.9999999999999853
 10
82.321653695413
 20
606.0977041983497
 30
0.0
 41
0.9999999999999853
 10
82.3663490882833
 20
605.8877211812149
 30
0.0
 41
0.9999999999999856
 10
82.40824383493546
 20
605.6131516065899
 30
0.0
 41
0.9999999999999856
 10
82.41591944815364
 20
605.5576348271256
 30
0.0
 41
0.9999999999999858
 10
82.42457565195377
 20
605.4874477989696
 30
0.0
 41
0.9999999999999858
 10
82.42625996158175
 20
605.4733708458851
 30
0.0
 41
0.9999999999999858
 10
82.42871487464562
 20
605.4521954073626
 30
0.0
 41
0.9999999999999858
 10
82.42952125358167
 20
605.445126926462
 30
0.0
 41
0.9999999999999858
 10
82.43071278786611
 20
605.4345091175295
 30
0.0
 41
0.9999999999999858
 10
82.43115566419125
 20
605.4305285219597
 30
0.0
 41
0.9999999999999858
 10
82.43183483424284
 20
605.4243691517252
 30
0.0
 41
0.9999999999999858
 10
82.43206216208566
 20
605.422284760733
 30
0.0
 41
0.9999999999999858
 10
82.43453911009564
 20
605.3995128284362
 30
0.0
 41
0.9999999999999858
 10
82.43664709600893
 20
605.3791611428355
 30
0.0
 41
0.9999999999999858
 10
82.44673381196912
 20
605.2764694079145
 30
0.0
 41
0.9999999999999858
 10
82.45343810930395
 20
605.1912710202078
 30
0.0
 41
0.9999999999999858
 10
82.45766294591513
 20
605.0978596679743
 30
0.0
 41
0.9999999999999858
  0
SPLINE
  5
85
330
75
100
AcDbEntity
  8
$DDT_AUDIT_GENERATED_(7A)
  6
Continuous
 62
     7
100
AcDbSpline
210
0.0
220
0.0
230
1.0
 70
     8
 71
     3
 72
    14
 73
    10
 74
     0
 42
0.0000000160103314
 43
0.0000000001
 40
0.0
 40
0.0
 40
0.0
 40
0.0
 40
0.5
 40
0.5
 40
0.75
 40
0.75
 40
0.875
 40
0.875
 40
1.0
 40
1.0
 40
1.0
 40
1.0
 10
69.75915998901137
 20
619.2062609661932
 30
0.0
 10
69.75456913318698
 20
619.1731111680417
 30
0.0
 10
69.73014732350337
 20
619.1426824878074
 30
0.0
 10
69.62601857636817
 20
619.1063546373235
 30
0.0
 10
69.58021103622926
 20
619.0957780325045
 30
0.0
 10
69.47642305684538
 20
619.0847236421395
 30
0.0
 10
69.43593948852842
 20
619.0818463475757
 30
0.0
 10
69.33363031743242
 20
619.0790009502816
 30
0.0
 10
69.27317887318478
 20
619.078835058301
 30
0.0
 10
69.18619131909955
 20
619.082283574188
 30
0.0
  0
ARC
  5
86
330
75
100
AcDbEntity
  8
$DDT_AUDIT_GENERATED_(7A)
  6
Continuous
 62
     7
100
AcDbCircle
 10
56.6967990998
 20
383.652249171
 30
0.0
 40
235.7610782489483
100
AcDbArc
 50
86.9633470123
 51
89.8975359095
  0
ARC
  5
87
330
75
100
AcDbEntity
  8
$DDT_AUDIT_GENERATED_(7A)
  6
Continuous
 62
     7
100
AcDbCircle
 10
6155.3610439921
 20
522.703486158
 30
0.0
 40
6124.136162948497
100
AcDbArc
 50
179.2291170273
 51
179.2734830654
  0
LINE
  5
88
330
75
100
AcDbEntity
  8
$DDT_AUDIT_GENERATED_(7A)
  6
Continuous
 62
     7
100
AcDbLine
 10
81.6797065329
 20
570.491684223
 30
0.0
 11
73.0572625377
 21
570.491684223
 31
0.0
  0
LINE
  5
89
330
75
100
AcDbEntity
  8
$DDT_AUDIT_GENERATED_(7A)
  6
Continuous
 62
     7
100
AcDbLine
 10
41.1856779807
 20
570.491684223
 30
0.0
 11
32.5571311436
 21
570.491684223
 31
0.0
  0
ARC
  5
8A
330
75
100
AcDbEntity
  8
$DDT_AUDIT_GENERATED_(7A)
  6
Continuous
 62
     7
100
AcDbCircle
 10
-3844.3636026945
 20
546.6914488294
 30
0.0
 40
3927.255601703684
100
AcDbArc
 50
0.7846749035
 51
0.8110746103
  0
SPLINE
  5
8B
330
75
100
AcDbEntity
  8
$DDT_AUDIT_GENERATED_(7A)
  6
Continuous
 62
     7
100
AcDbSpline
210
0.0
220
0.0
230
1.0
 70
     8
 71
     3
 72
     8
 73
     4
 74
     0
 42
0.0000000030949443
 43
0.0000000001
 40
0.9845800221255243
 40
0.9845800221255243
 40
0.9845800221255243
 40
0.9845800221255243
 40
0.9909813569095143
 40
0.9909813569095143
 40
0.9909813569095143
 40
0.9909813569095143
 10
82.81049302663158
 20
572.3793397065409
 30
0.0
 10
82.8103450585845
 20
572.3862099298922
 30
0.0
 10
82.81018660977793
 20
572.3931024983672
 30
0.0
 10
82.81001773961569
 20
572.4000174291644
 30
0.0
  0
ARC
  5
8C
330
75
100
AcDbEntity
  8
$DDT_AUDIT_GENERATED_(7A)
  6
Continuous
 62
     7
100
AcDbCircle
 10
1476.6806261164
 20
583.1309139213
 30
0.0
 40
1445.069560581799
100
AcDbArc
 50
179.1332969966
 51
179.2249326505
  0
ARC
  5
8D
330
75
100
AcDbEntity
  8
$DDT_AUDIT_GENERATED_(7A)
  6
Continuous
 62
     7
100
AcDbCircle
 10
9428.2021759573
 20
490.3643134304
 30
0.0
 40
9397.134276829594
100
AcDbArc
 50
179.3293470094
 51
179.5003214992
  0
ARC
  5
8E
330
75
100
AcDbEntity
  8
$DDT_AUDIT_GENERATED_(7A)
  6
Continuous
 62
     7
100
AcDbCircle
 10
57.1083302002
 20
544.9439104321
 30
0.0
 40
77.74629024403276
100
AcDbArc
 50
80.4494517022
 51
99.5360542967
  0
ARC
  5
8F
330
75
100
AcDbEntity
  8
$DDT_AUDIT_GENERATED_(7A)
  6
Continuous
 62
     7
100
AcDbCircle
 10
56.9826095473
 20
645.3254200839
 30
0.0
 40
31.36930537642091
100
AcDbArc
 50
245.9691964849
 51
248.2061525204
  0
SPLINE
  5
90
330
75
100
AcDbEntity
  8
$DDT_AUDIT_GENERATED_(7A)
  6
Continuous
 62
     7
100
AcDbSpline
210
0.0
220
0.0
230
1.0
 70
     8
 71
     3
 72
    74
 73
    70
 74
     0
 42
0.0000000004794459
 43
0.0000000001
 40
0.0
 40
0.0
 40
0.0
 40
0.0
 40
0.0058457454241403
 40
0.0133332732848273
 40
0.0226337560439145
 40
0.0339149520426567
 40
0.0473247026421229
 40
0.0624320981233741
 40
0.0827080409393049
 40
0.1041444276529054
 40
0.1128031413788434
 40
0.1178232782462106
 40
0.1237245394657916
 40
0.1308974388016353
 40
0.1599111362688548
 40
0.1840808407819391
 40
0.2097925130862639
 40
0.2354672729410871
 40
0.2683396584506716
 40
0.282899824012542
 40
0.2958052631041661
 40
0.3091205095142835
 40
0.3229049412877764
 40
0.3346885998969373
 40
0.3438057681432646
 40
0.3529166718470344
 40
0.3635655318710943
 40
0.3755920600970791
 40
0.38612678203568
 40
0.3956420418141311
 40
0.4043702714124185
 40
0.4161179375699355
 40
0.4280372247642529
 40
0.4410739020509613
 40
0.4543873394401552
 40
0.4650423021908746
 40
0.4719462591404201
 40
0.4791886724918271
 40
0.4885785185136238
 40
0.5285378091712757
 40
0.5589775074657599
 40
0.5944780716121705
 40
0.6310324263666802
 40
0.6703762916328225
 40
0.7113132594277698
 40
0.7522459387553181
 40
0.7651329704067771
 40
0.7742631936611261
 40
0.7839819736987338
 40
0.7931451715136392
 40
0.8037446254542184
 40
0.813495347495798
 40
0.8221339521959425
 40
0.8303022978533492
 40
0.8394254651655536
 40
0.8496674676518462
 40
0.859288369096693
 40
0.8743884008305784
 40
0.8894165059838913
 40
0.9029980354159691
 40
0.9086680015036235
 40
0.9165433036182958
 40
0.9258780918416134
 40
0.937289512693933
 40
0.9474323268860947
 40
0.9587210158273481
 40
0.9717759289963632
 40
0.9868597899438698
 40
1.0
 40
1.0
 40
1.0
 40
1.0
 10
44.23726075317658
 20
621.616030447358
 30
0.0
 10
44.20513911105589
 20
621.6106566577959
 30
0.0
 10
44.14360241818445
 20
621.6002719531942
 30
0.0
 10
44.06297347039534
 20
621.5792608812011
 30
0.0
 10
43.98371180398308
 20
621.5532550558748
 30
0.0
 10
43.90583942352897
 20
621.5204360650872
 30
0.0
 10
43.8301782139565
 20
621.4807172784982
 30
0.0
 10
43.74851293607748
 20
621.4284489858638
 30
0.0
 10
43.65534180210044
 20
621.3577385578978
 30
0.0
 10
43.57224764120321
 20
621.2835295985698
 30
0.0
 10
43.524510227292
 20
621.2371769753724
 30
0.0
 10
43.48046504185531
 20
621.1957409170527
 30
0.0
 10
43.4479478719816
 20
621.1632832418105
 30
0.0
 10
43.3769934991701
 20
621.0906926091739
 30
0.0
 10
43.28415044905849
 20
620.9929396409811
 30
0.0
 10
43.12830858052166
 20
620.8294724468046
 30
0.0
 10
42.97345959610439
 20
620.668753731671
 30
0.0
 10
42.79149285815253
 20
620.4733202910198
 30
0.0
 10
42.64625182933711
 20
620.2994334787934
 30
0.0
 10
42.52472859299282
 20
620.1446458240122
 30
0.0
 10
42.44223403957952
 20
620.0367418698485
 30
0.0
 10
42.35902858069927
 20
619.9277550533661
 30
0.0
 10
42.27465751301099
 20
619.818522609552
 30
0.0
 10
42.19455057588646
 20
619.7167776465219
 30
0.0
 10
42.12287930542683
 20
619.6259419318635
 30
0.0
 10
42.04636984141545
 20
619.5338873603449
 30
0.0
 10
41.95561017023177
 20
619.4285966644998
 30
0.0
 10
41.85211307469697
 20
619.3138200486121
 30
0.0
 10
41.74467510981803
 20
619.1987708498099
 30
0.0
 10
41.64159327557925
 20
619.0920190396132
 30
0.0
 10
41.52774499695642
 20
618.9774356601125
 30
0.0
 10
41.39707711420369
 20
618.8494479481293
 30
0.0
 10
41.23893190658561
 20
618.6992611978585
 30
0.0
 10
41.06450334491128
 20
618.5379376962172
 30
0.0
 10
40.88749164681388
 20
618.3761899191131
 30
0.0
 10
40.73541336613993
 20
618.2385749173886
 30
0.0
 10
40.60900880729915
 20
618.1223892980785
 30
0.0
 10
40.48716528129334
 20
618.0106283409473
 30
0.0
 10
40.1900836792637
 20
617.7381641618703
 30
0.0
 10
39.75930652122195
 20
617.3360618516477
 30
0.0
 10
39.13934394643177
 20
616.7295367667728
 30
0.0
 10
38.54002758782475
 20
616.1097647769501
 30
0.0
 10
37.87559024052754
 20
615.3764177537159
 30
0.0
 10
37.17834582282503
 20
614.5694654984677
 30
0.0
 10
36.44359745869239
 20
613.6900509894967
 30
0.0
 10
35.8490067689014
 20
612.9598455038843
 30
0.0
 10
35.44009422960502
 20
612.4624090627025
 30
0.0
 10
35.22727287644297
 20
612.1949741084974
 30
0.0
 10
35.03638583587772
 20
611.9594556361243
 30
0.0
 10
34.83126677903557
 20
611.7021121496247
 30
0.0
 10
34.62588175187496
 20
611.4469237896134
 30
0.0
 10
34.42230913350944
 20
611.1874635930709
 30
0.0
 10
34.2361368930184
 20
610.9457527645664
 30
0.0
 10
34.05437810755838
 20
610.7035447963974
 30
0.0
 10
33.86543305945126
 20
610.4471165504506
 30
0.0
 10
33.6723565354784
 20
610.1772268947177
 30
0.0
 10
33.44531317162952
 20
609.845611571544
 30
0.0
 10
33.19196571801926
 20
609.4494752254136
 30
0.0
 10
32.93171414003775
 20
609.0053825084705
 30
0.0
 10
32.73609903385945
 20
608.6327948240202
 30
0.0
 10
32.59196398017352
 20
608.3339061351769
 30
0.0
 10
32.48126922210055
 20
608.0901098024483
 30
0.0
 10
32.35200490167888
 20
607.7788561831053
 30
0.0
 10
32.22951768430128
 20
607.447940056622
 30
0.0
 10
32.11474751272654
 20
607.0917479153725
 30
0.0
 10
32.01205912168607
 20
606.7175020801754
 30
0.0
 10
31.91895271725831
 20
606.2943753403722
 30
0.0
 10
31.84878743361041
 20
605.8500398536808
 30
0.0
 10
31.82259315861455
 20
605.5591473758892
 30
0.0
 10
31.80890278430228
 20
605.3990058175945
 30
0.0
  0
ARC
  5
91
330
75
100
AcDbEntity
  8
$DDT_AUDIT_GENERATED_(7A)
  6
Continuous
 62
     7
100
AcDbCircle
 10
44.7669185175
 20
617.9567977929
 30
0.0
 40
1.402565929183844
100
AcDbArc
 50
187.4588530905
 51
247.2562083358
  0
ARC
  5
92
330
75
100
AcDbEntity
  8
$DDT_AUDIT_GENERATED_(7A)
  6
Continuous
 62
     7
100
AcDbCircle
 10
57.254231904
 20
645.3254087047
 30
0.0
 40
31.36929344630479
100
AcDbArc
 50
291.7838571836
 51
294.030805682
  0
SPLINE
  5
93
330
75
100
AcDbEntity
  8
$DDT_AUDIT_GENERATED_(7A)
  6
Continuous
 62
     7
100
AcDbSpline
210
0.0
220
0.0
230
1.0
 70
     8
 71
     3
 72
    78
 73
    74
 74
     0
 42
0.0000000004794513
 43
0.0000000001
 40
0.0
 40
0.0
 40
0.0
 40
0.0
 40
0.0131402065454836
 40
0.0282240634630623
 40
0.0412789731442198
 40
0.0525676590694946
 40
0.0627104705518192
 40
0.0759417760593403
 40
0.0865578568920242
 40
0.0946450119211259
 40
0.1005848214390777
 40
0.1064315760563529
 40
0.1149938174212968
 40
0.1236949219071462
 40
0.1323441045641769
 40
0.1390669520258094
 40
0.1467935398636373
 40
0.1551874856701346
 40
0.1639840144093481
 40
0.1709815855087166
 40
0.1778744461295686
 40
0.1850990589764538
 40
0.1971472570607621
 40
0.2101495280361061
 40
0.2213228050132733
 40
0.2328370243184578
 40
0.2482707019398022
 40
0.2651420590404425
 40
0.2815565145335915
 40
0.297735994342362
 40
0.3371571268365294
 40
0.374696526928524
 40
0.4094498454494633
 40
0.4430875069458413
 40
0.4727237819749541
 40
0.5114234988404996
 40
0.5222533731890631
 40
0.5301303318347375
 40
0.5406727754262033
 40
0.5530991072719623
 40
0.5652888851122988
 40
0.5772394599711637
 40
0.587666122510597
 40
0.5979779945176085
 40
0.6094935762116113
 40
0.6223421619945599
 40
0.637516661837551
 40
0.6506287096238944
 40
0.6611535926188995
 40
0.6701234431068197
 40
0.6840931761890663
 40
0.6976521664517019
 40
0.7106984921734143
 40
0.7243760012642789
 40
0.7391802896908624
 40
0.7511610018644097
 40
0.7634590142954321
 40
0.7737833914084271
 40
0.7826876780414603
 40
0.7919722010847665
 40
0.8016836022371755
 40
0.8221846065321231
 40
0.8426848154669861
 40
0.8674257475416663
 40
0.8846467308761404
 40
0.9060862571171475
 40
0.9282988023555081
 40
0.9449481439003123
 40
0.9608572343536074
 40
0.9741190810169599
 40
0.9849154657248397
 40
0.9934660126313163
 40
1.0
 40
1.0
 40
1.0
 40
1.0
 10
82.42793489226209
 20
605.3990058175945
 30
0.0
 10
82.41424451794983
 20
605.5591473758892
 30
0.0
 10
82.38805092454247
 20
605.8500379483454
 30
0.0
 10
82.31788235543036
 20
606.2943826193338
 30
0.0
 10
82.22478629728856
 20
606.7174804367821
 30
0.0
 10
82.12206653460224
 20
607.0918139693309
 30
0.0
 10
82.00104902240726
 20
607.4674294865696
 30
0.0
 10
81.86441568118934
 20
607.8325794804347
 30
0.0
 10
81.71735916361655
 20
608.177474754003
 30
0.0
 10
81.59329517648179
 20
608.4428770847508
 30
0.0
 10
81.48388396236325
 20
608.6629193474508
 30
0.0
 10
81.36810598709475
 20
608.8844398039216
 30
0.0
 10
81.23483721044877
 20
609.1244046638733
 30
0.0
 10
81.07868217676068
 20
609.3896610621001
 30
0.0
 10
80.9288797249174
 20
609.6306177267454
 30
0.0
 10
80.78114776985457
 20
609.8585401122707
 30
0.0
 10
80.63362663996217
 20
610.0769058525663
 30
0.0
 10
80.46889587171346
 20
610.312082580709
 30
0.0
 10
80.30701919878632
 20
610.5341426804945
 30
0.0
 10
80.14922636219109
 20
610.7482014671303
 30
0.0
 10
80.0015876879619
 20
610.944215401621
 30
0.0
 10
79.81806788361082
 20
611.1831103608109
 30
0.0
 10
79.5914439866189
 20
611.471825609164
 30
0.0
 10
79.33940001990351
 20
611.7845097167576
 30
0.0
 10
79.09262820627663
 20
612.0929689450521
 30
0.0
 10
78.83554116131197
 20
612.4139730346858
 30
0.0
 10
78.55029614066409
 20
612.7624724367885
 30
0.0
 10
78.24018724984771
 20
613.1418571910901
 30
0.0
 10
77.93076799798018
 20
613.5193312573915
 30
0.0
 10
77.48687475696045
 20
614.0578854430728
 30
0.0
 10
76.92526668533608
 20
614.7257940603866
 30
0.0
 10
76.25829369434987
 20
615.4919545534696
 30
0.0
 10
75.62812520818521
 20
616.1825277196345
 30
0.0
 10
75.0540618737651
 20
616.7725022122785
 30
0.0
 10
74.459583232848
 20
617.3529367853209
 30
0.0
 10
74.0321710236957
 20
617.751821974927
 30
0.0
 10
73.7314269039766
 20
618.0272002350237
 30
0.0
 10
73.57998719311823
 20
618.166684021656
 30
0.0
 10
73.42567095778212
 20
618.3070418756606
 30
0.0
 10
73.25493632530078
 20
618.4623081187827
 30
0.0
 10
73.0842847329581
 20
618.6190944802078
 30
0.0
 10
72.93047416767362
 20
618.7627105340495
 30
0.0
 10
72.79310405993645
 20
618.894924465874
 30
0.0
 10
72.66525591577853
 20
619.021025099834
 30
0.0
 10
72.53665476898763
 20
619.1519328530486
 30
0.0
 10
72.40143931095422
 20
619.295277350534
 30
0.0
 10
72.27283394765968
 20
619.4376798447734
 30
0.0
 10
72.16392221491897
 20
619.5651493530621
 30
0.0
 10
72.08085749391417
 20
619.6670531569587
 30
0.0
 10
72.0041463953566
 20
619.7659216675274
 30
0.0
 10
71.92091428188498
 20
619.8713577964081
 30
0.0
 10
71.83537700035605
 20
619.9833638081606
 30
0.0
 10
71.75285513013846
 20
620.0914943328369
 30
0.0
 10
71.66915315231667
 20
620.1997069102035
 30
0.0
 10
71.5880533125703
 20
620.3013636108698
 30
0.0
 10
71.50931317063963
 20
620.3963968485181
 30
0.0
 10
71.43890393532195
 20
620.4774682168265
 30
0.0
 10
71.37295404269851
 20
620.5504005445363
 30
0.0
 10
71.3119023409649
 20
620.6165056900554
 30
0.0
 10
71.25260671852959
 20
620.6792626973314
 30
0.0
 10
71.17041704562095
 20
620.7650800696231
 30
0.0
 10
71.06818564321408
 20
620.8720362768357
 30
0.0
 10
70.9403153311648
 20
621.0056948733159
 30
0.0
 10
70.84857745351478
 20
621.1030488265696
 30
0.0
 10
70.72733461650097
 20
621.2245498484988
 30
0.0
 10
70.6320174437055
 20
621.3137521506469
 30
0.0
 10
70.53632135214126
 20
621.3937344620941
 30
0.0
 10
70.4434507911314
 20
621.458371532037
 30
0.0
 10
70.36419121143274
 20
621.504332651256
 30
0.0
 10
70.27875421538546
 20
621.5436025425802
 30
0.0
 10
70.19197331190527
 20
621.5740004396735
 30
0.0
 10
70.10391688189696
 20
621.5982059979615
 30
0.0
 10
70.03506880822974
 20
621.6100015400632
 30
0.0
 10
69.99957692338779
 20
621.616030447358
 30
0.0
  0
ARC
  5
94
330
75
100
AcDbEntity
  8
$DDT_AUDIT_GENERATED_(7A)
  6
Continuous
 62
     7
100
AcDbCircle
 10
69.4699191591
 20
617.9567977929
 30
0.0
 40
1.402565929184106
100
AcDbArc
 50
292.7437916642
 51
352.5411469095
  0
ARC
  5
95
330
75
100
AcDbEntity
  8
$DDT_AUDIT_GENERATED_(7A)
  6
Continuous
 62
     7
100
AcDbCircle
 10
-1152.8649112409
 20
586.0724942565
 30
0.0
 40
1235.47023508661
100
AcDbArc
 50
0.7518132247
 51
0.8771486805
  0
ARC
  5
96
330
75
100
AcDbEntity
  8
$DDT_AUDIT_GENERATED_(7A)
  6
Continuous
 62
     7
100
AcDbCircle
 10
-6195.8456551359
 20
522.4003319016
 30
0.0
 40
6278.854774073022
100
AcDbArc
 50
0.4562880613
 51
0.7124573296
  0
SPLINE
  5
97
330
75
100
AcDbEntity
  8
$DDT_AUDIT_GENERATED_(7A)
  6
Continuous
 62
     7
100
AcDbSpline
210
0.0
220
0.0
230
1.0
 70
     8
 71
     3
 72
    18
 73
    14
 74
     0
 42
0.0000000039895779
 43
0.0000000001
 40
0.0
 40
0.0
 40
0.0
 40
0.0
 40
0.0066748926585261
 40
0.1087671482140344
 40
0.2048347570680782
 40
0.3070477081786836
 40
0.4060579601207596
 40
0.5052694163569201
 40
0.6074435143550994
 40
0.7210663789823168
 40
0.8452577204962624
 40
0.9741708302970403
 40
1.0
 40
1.0
 40
1.0
 40
1.0
 10
81.68650809920486
 20
570.4924687149062
 30
0.0
 10
81.69217946260368
 20
570.4920382120988
 30
0.0
 10
81.7717508552725
 20
570.4860785713618
 30
0.0
 10
81.92931248249356
 20
570.5119367470501
 30
0.0
 10
82.14187643398674
 20
570.5788972029834
 30
0.0
 10
82.33352031219748
 20
570.6975467026284
 30
0.0
 10
82.49332680496374
 20
570.8603564208872
 30
0.0
 10
82.61530761802184
 20
571.0592171573802
 30
0.0
 10
82.70364831895
 20
571.2919287158078
 30
0.0
 10
82.76631245088592
 20
571.5699657968768
 30
0.0
 10
82.80332943376375
 20
571.9028016354534
 30
0.0
 10
82.81755468270214
 20
572.1877557564763
 30
0.0
 10
82.81640791726095
 20
572.3530797350936
 30
0.0
 10
82.81615137558211
 20
572.3853203792916
 30
0.0
  0
SPLINE
  5
98
330
75
100
AcDbEntity
  8
$DDT_AUDIT_GENERATED_(7A)
  6
Continuous
 62
     7
100
AcDbSpline
210
0.0
220
0.0
230
1.0
 70
     8
 71
     3
 72
    17
 73
    13
 74
     0
 42
0.0000000040340667
 43
0.0000000001
 40
0.0
 40
0.0
 40
0.0
 40
0.0
 40
0.1245413182064989
 40
0.2545036375959315
 40
0.3850155849871998
 40
0.4923413651230691
 40
0.590558918070993
 40
0.6947683308723284
 40
0.7943760634200917
 40
0.8933784791908314
 40
0.9954205909152628
 40
1.0
 40
1.0
 40
1.0
 40
1.0
 10
31.41853264604606
 20
572.3472048438516
 30
0.0
 10
31.42110550441067
 20
572.2029955615657
 30
0.0
 10
31.42698619245077
 20
571.9559567270919
 30
0.0
 10
31.46408789930884
 20
571.5968189397158
 30
0.0
 10
31.52917837103383
 20
571.2980371588981
 30
0.0
 10
31.62454687501394
 20
571.0522429437434
 30
0.0
 10
31.7508070194269
 20
570.8508734894932
 30
0.0
 10
31.91207744544786
 20
570.690084414213
 30
0.0
 10
32.10734346737419
 20
570.5724143254449
 30
0.0
 10
32.3197514095774
 20
570.5079867870369
 30
0.0
 10
32.47761801030031
 20
570.483721392965
 30
0.0
 10
32.5554554437367
 20
570.490046494763
 30
0.0
 10
32.55933458431868
 20
570.490364390096
 30
0.0
  0
LINE
  5
9A
330
75
100
AcDbEntity
  8
$DDT_AUDIT_GENERATED_(99)
  6
Continuous
 62
     7
100
AcDbLine
 10
81.5684188383
 20
440.3489654358
 30
0.0
 11
32.6684188383
 21
440.3489654358
 31
0.0
  0
LINE
  5
9B
330
75
100
AcDbEntity
  8
$DDT_AUDIT_GENERATED_(99)
  6
Continuous
 62
     7
100
AcDbLine
 10
81.5684188383
 20
440.3489654358
 30
0.0
 11
81.5684188383
 21
440.8989654358
 31
0.0
  0
LINE
  5
9C
330
75
100
AcDbEntity
  8
$DDT_AUDIT_GENERATED_(99)
  6
Continuous
 62
     7
100
AcDbLine
 10
32.6684188383
 20
440.8989654358
 30
0.0
 11
32.6684188383
 21
440.3489654358
 31
0.0
  0
ELLIPSE
  5
9E
330
75
100
AcDbEntity
  8
$DDT_AUDIT_GENERATED_(9D)
  6
Continuous
 62
     7
100
AcDbEllipse
 10
57.1184188383
 20
592.1970604471
 30
0.0
 11
9.500000000037728
 21
-9.159339953157541E-13
 31
0.0
210
0.0
220
0.0
230
1.0
 40
0.0871557427
 41
3.017590903169591
 42
3.141592653589664
  0
ELLIPSE
  5
9F
330
75
100
AcDbEntity
  8
$DDT_AUDIT_GENERATED_(9D)
  6
Continuous
 62
     7
100
AcDbEllipse
 10
57.1184188383
 20
588.4555659108
 30
0.0
 11
9.499999999999998
 21
0.0
 31
0.0
210
0.0
220
0.0
230
1.0
 40
0.0871557427
 41
0.0
 42
3.141592653589793
  0
ELLIPSE
  5
A0
330
75
100
AcDbEntity
  8
$DDT_AUDIT_GENERATED_(9D)
  6
Continuous
 62
     7
100
AcDbEllipse
 10
57.1184188383
 20
592.1970604471
 30
0.0
 11
-9.500000000013923
 21
9.159339953157541E-13
 31
0.0
210
0.0
220
0.0
230
1.0
 40
0.0871557427
 41
3.141592653589801
 42
3.265594404010202
  0
SPLINE
  5
A1
330
75
100
AcDbEntity
  8
$DDT_AUDIT_GENERATED_(9D)
  6
Continuous
 62
     7
100
AcDbSpline
210
0.0
220
0.0
230
1.0
 70
     8
 71
     3
 72
    10
 73
     6
 74
     0
 42
0.0000000300399874
 43
0.0000000001
 40
0.0
 40
0.0
 40
0.0
 40
0.0
 40
0.500000000000002
 40
0.500000000000002
 40
1.0
 40
1.0
 40
1.0
 40
1.0
 10
66.5454743170624
 20
592.2994684448681
 30
0.0
 10
66.53562759855902
 20
592.3063537902032
 30
0.0
 10
66.52486079862271
 20
592.3451278949805
 30
0.0
 10
66.50849969367647
 20
592.4647209889599
 30
0.0
 10
66.50321372149656
 20
592.5451445009373
 30
0.0
 10
66.50321372149618
 20
592.62447357712
 30
0.0
  0
LINE
  5
A2
330
75
100
AcDbEntity
  8
$DDT_AUDIT_GENERATED_(9D)
  6
Continuous
 62
     7
100
AcDbLine
 10
66.5032137215
 20
592.6244735771
 30
0.0
 11
66.5032137215
 21
592.6584614182
 31
0.0
  0
SPLINE
  5
A3
330
75
100
AcDbEntity
  8
$DDT_AUDIT_GENERATED_(9D)
  6
Continuous
 62
     7
100
AcDbSpline
210
0.0
220
0.0
230
1.0
 70
     8
 71
     3
 72
     8
 73
     4
 74
     0
 42
0.0000000342357428
 43
0.0000000001
 40
0.9218265008679107
 40
0.9218265008679107
 40
0.9218265008679107
 40
0.9218265008679107
 40
1.0
 40
1.0
 40
1.0
 40
1.0
 10
64.63795836817846
 20
592.7053874432513
 30
0.0
 10
64.63044790835492
 20
592.7046977330192
 30
0.0
 10
64.62284798041537
 20
592.7047656387092
 30
0.0
 10
64.61520416184361
 20
592.7056215609513
 30
0.0
  0
ELLIPSE
  5
A4
330
75
100
AcDbEntity
  8
$DDT_AUDIT_GENERATED_(9D)
  6
Continuous
 62
     7
100
AcDbEllipse
 10
57.1184188383
 20
592.1970604471
 30
0.0
 11
9.50000000001771
 21
1.276756478318930E-12
 31
0.0
210
0.0
220
0.0
230
1.0
 40
0.0871557427
 41
0.6613964129764722
 42
0.9093999138171793
  0
SPLINE
  5
A5
330
75
100
AcDbEntity
  8
$DDT_AUDIT_GENERATED_(9D)
  6
Continuous
 62
     7
100
AcDbSpline
210
0.0
220
0.0
230
1.0
 70
     8
 71
     3
 72
    10
 73
     6
 74
     0
 42
0.0000000236553995
 43
0.0000000001
 40
0.0
 40
0.0
 40
0.0
 40
0.0
 40
0.500000000000002
 40
0.500000000000002
 40
0.6226965287581564
 40
0.6226965287581564
 40
0.6226965287581564
 40
0.6226965287581564
 10
62.9535032260552
 20
592.8504483402344
 30
0.0
 10
62.8906787709392
 20
592.8547101769403
 30
0.0
 10
62.82850441840074
 20
592.8908510265576
 30
0.0
 10
62.7724725387918
 20
592.9629306210455
 30
0.0
 10
62.76251337028357
 20
592.9784206726132
 30
0.0
 10
62.75376969789756
 20
592.9948833051848
 30
0.0
  0
ARC
  5
A6
330
75
100
AcDbEntity
  8
$DDT_AUDIT_GENERATED_(9D)
  6
Continuous
 62
     7
100
AcDbCircle
 10
58.2982322653
 20
593.3138297962
 30
0.0
 40
0.2951865743413503
100
AcDbArc
 50
269.0656713489
 51
320.6532603334
  0
ELLIPSE
  5
A7
330
75
100
AcDbEntity
  8
$DDT_AUDIT_GENERATED_(9D)
  6
Continuous
 62
     7
100
AcDbEllipse
 10
57.1184188383
 20
592.1970604471
 30
0.0
 11
-9.499999999999137
 21
2.775557561562891E-14
 31
0.0
210
0.0
220
0.0
230
1.0
 40
0.0871557427
 41
4.588387229964203
 42
4.836390730805226
  0
ARC
  5
A8
330
75
100
AcDbEntity
  8
$DDT_AUDIT_GENERATED_(9D)
  6
Continuous
 62
     7
100
AcDbCircle
 10
55.9386062244
 20
593.3138306226
 30
0.0
 40
0.295187387331544
100
AcDbArc
 50
219.9767791571
 51
270.9341682406
  0
SPLINE
  5
A9
330
75
100
AcDbEntity
  8
$DDT_AUDIT_GENERATED_(9D)
  6
Continuous
 62
     7
100
AcDbSpline
210
0.0
220
0.0
230
1.0
 70
     8
 71
     3
 72
    10
 73
     6
 74
     0
 42
0.0000000236355166
 43
0.0000000001
 40
0.3751451225831515
 40
0.3751451225831515
 40
0.3751451225831515
 40
0.3751451225831515
 40
0.5
 40
0.5
 40
1.0
 40
1.0
 40
1.0
 40
1.0
 10
51.48360212809182
 20
592.9958817608691
 30
0.0
 10
51.47476242206782
 20
592.9791085043543
 30
0.0
 10
51.46466292131578
 20
592.9633325996668
 30
0.0
 10
51.40851722810061
 20
592.8910124643423
 30
0.0
 10
51.346147337709
 20
592.854709392205
 30
0.0
 10
51.28333445050909
 20
592.8504483402344
 30
0.0
  0
ELLIPSE
  5
AA
330
75
100
AcDbEntity
  8
$DDT_AUDIT_GENERATED_(9D)
  6
Continuous
 62
     7
100
AcDbEllipse
 10
57.1184188383
 20
592.1970604471
 30
0.0
 11
-9.500000000010388
 21
8.604228440844962E-13
 31
0.0
210
0.0
220
0.0
230
1.0
 40
0.0871557427
 41
-0.9093999138175262
 42
-0.6613964129766501
  0
SPLINE
  5
AB
330
75
100
AcDbEntity
  8
$DDT_AUDIT_GENERATED_(9D)
  6
Continuous
 62
     7
100
AcDbSpline
210
0.0
220
0.0
230
1.0
 70
     8
 71
     3
 72
     8
 73
     4
 74
     0
 42
0.0000000342444283
 43
0.0000000001
 40
0.0
 40
0.0
 40
0.0
 40
0.0
 40
0.0777789431074608
 40
0.0777789431074608
 40
0.0777789431074608
 40
0.0777789431074608
 10
49.62163351472071
 20
592.7056215609513
 30
0.0
 10
49.61402687529034
 20
592.7047698018711
 30
0.0
 10
49.60646745377694
 20
592.7046949456952
 30
0.0
 10
49.59899881824075
 20
592.7053680335362
 30
0.0
  0
LINE
  5
AC
330
75
100
AcDbEntity
  8
$DDT_AUDIT_GENERATED_(9D)
  6
Continuous
 62
     7
100
AcDbLine
 10
47.7336239551
 20
592.6244735771
 30
0.0
 11
47.7336239551
 21
592.6584614182
 31
0.0
  0
SPLINE
  5
AD
330
75
100
AcDbEntity
  8
$DDT_AUDIT_GENERATED_(9D)
  6
Continuous
 62
     7
100
AcDbSpline
210
0.0
220
0.0
230
1.0
 70
     8
 71
     3
 72
    10
 73
     6
 74
     0
 42
0.0000000300400887
 43
0.0000000001
 40
0.0
 40
0.0
 40
0.0
 40
0.0
 40
0.4999999999999982
 40
0.4999999999999982
 40
1.0
 40
1.0
 40
1.0
 40
1.0
 10
47.73362395506818
 20
592.62447357712
 30
0.0
 10
47.73362395506817
 20
592.5451582148786
 30
0.0
 10
47.72834881214116
 20
592.4648699360738
 30
0.0
 10
47.71200955595337
 20
592.3452971539925
 30
0.0
 10
47.70120826492136
 20
592.306352522399
 30
0.0
 10
47.69136335950198
 20
592.2994684448681
 30
0.0
  0
ELLIPSE
  5
AE
330
75
100
AcDbEntity
  8
$DDT_AUDIT_GENERATED_(9D)
  6
Continuous
 62
     7
100
AcDbEllipse
 10
57.1184188383
 20
587.2226922308
 30
0.0
 11
8.676630505236743
 21
0.0
 31
0.0
210
0.0
220
0.0
230
1.0
 40
0.0871557427
 41
0.0
 42
3.229193313562992
  0
ELLIPSE
  5
AF
330
75
100
AcDbEntity
  8
$DDT_AUDIT_GENERATED_(9D)
  6
Continuous
 62
     7
100
AcDbEllipse
 10
57.1184188383
 20
587.2226922308
 30
0.0
 11
8.676630505236743
 21
0.0
 31
0.0
210
0.0
220
0.0
230
1.0
 40
0.0871557427
 41
3.229193313562992
 42
3.235530248672679
  0
ELLIPSE
  5
B0
330
75
100
AcDbEntity
  8
$DDT_AUDIT_GENERATED_(9D)
  6
Continuous
 62
     7
100
AcDbEllipse
 10
57.1184188383
 20
587.2226922308
 30
0.0
 11
8.676630505236743
 21
0.0
 31
0.0
210
0.0
220
0.0
230
1.0
 40
0.0871557427
 41
-0.0932000137126154
 42
-0.0876006599732175
  0
ELLIPSE
  5
B1
330
75
100
AcDbEntity
  8
$DDT_AUDIT_GENERATED_(9D)
  6
Continuous
 62
     7
100
AcDbEllipse
 10
57.1184188383
 20
587.046733858
 30
0.0
 11
8.350000000000005
 21
0.0
 31
0.0
210
0.0
220
0.0
230
1.0
 40
0.0871557427
 41
0.0
 42
6.283185307179586
  0
ELLIPSE
  5
B2
330
75
100
AcDbEntity
  8
$DDT_AUDIT_GENERATED_(9D)
  6
Continuous
 62
     7
100
AcDbEllipse
 10
57.1184188383
 20
587.7511498844
 30
0.0
 11
9.207106781186557
 21
0.0
 31
0.0
210
0.0
220
0.0
230
1.0
 40
0.0871557427
 41
3.229193313563015
 42
3.232776826410315
  0
ELLIPSE
  5
B3
330
75
100
AcDbEntity
  8
$DDT_AUDIT_GENERATED_(9D)
  6
Continuous
 62
     7
100
AcDbEllipse
 10
57.1184188383
 20
587.2957825325
 30
0.0
 11
8.350000000000005
 21
0.0
 31
0.0
210
0.0
220
0.0
230
1.0
 40
0.0871557427
 41
3.313547374117049
 42
4.446845751243099
  0
ELLIPSE
  5
B4
330
75
100
AcDbEntity
  8
$DDT_AUDIT_GENERATED_(9D)
  6
Continuous
 62
     7
100
AcDbEllipse
 10
57.1184188383
 20
587.2957825325
 30
0.0
 11
8.350000000000005
 21
0.0
 31
0.0
210
0.0
220
0.0
230
1.0
 40
0.0871557427
 41
4.556015498789002
 42
4.868762461977221
  0
ELLIPSE
  5
B5
330
75
100
AcDbEntity
  8
$DDT_AUDIT_GENERATED_(9D)
  6
Continuous
 62
     7
100
AcDbEllipse
 10
57.1184188383
 20
587.2957825325
 30
0.0
 11
8.350000000000005
 21
0.0
 31
0.0
210
0.0
220
0.0
230
1.0
 40
0.0871557427
 41
4.977932209507536
 42
6.111230586652344
  0
SPLINE
  5
B6
330
75
100
AcDbEntity
  8
$DDT_AUDIT_GENERATED_(9D)
  6
Continuous
 62
     7
100
AcDbSpline
210
0.0
220
0.0
230
1.0
 70
     8
 71
     3
 72
    11
 73
     7
 74
     0
 42
0.0000000748100296
 43
0.0000000001
 40
0.0
 40
0.0
 40
0.0
 40
0.0
 40
0.2515308853291783
 40
0.5010470607509473
 40
0.7537667779996178
 40
1.0
 40
1.0
 40
1.0
 40
1.0
 10
64.76835832055735
 20
587.3598676817966
 30
0.0
 10
64.76338980153605
 20
587.3467120742423
 30
0.0
 10
64.75349256029408
 20
587.3205062328051
 30
0.0
 10
64.73245867675149
 20
587.2907858999426
 30
0.0
 10
64.70966506600791
 20
587.2689144042351
 30
0.0
 10
64.69460568361828
 20
587.2641352383118
 30
0.0
 10
64.68717388002429
 20
587.2617767204413
 30
0.0
  0
SPLINE
  5
B7
330
75
100
AcDbEntity
  8
$DDT_AUDIT_GENERATED_(9D)
  6
Continuous
 62
     7
100
AcDbSpline
210
0.0
220
0.0
230
1.0
 70
     8
 71
     3
 72
    12
 73
     8
 74
     0
 42
0.0000000817224639
 43
0.0000000001
 40
0.0
 40
0.0
 40
0.0
 40
0.0
 40
0.164035167214119
 40
0.3289576076616472
 40
0.4991738016537009
 40
0.7487911680987478
 40
1.0
 40
1.0
 40
1.0
 40
1.0
 10
64.23878938065249
 20
587.1940894148926
 30
0.0
 10
64.23304197875704
 20
587.1938025732521
 30
0.0
 10
64.22151608702347
 20
587.1932273384326
 30
0.0
 10
64.20530039153718
 20
587.19904453637
 30
0.0
 10
64.18779326645546
 20
587.2113662349209
 30
0.0
 10
64.16950704482683
 20
587.2324021653757
 30
0.0
 10
64.15796552338968
 20
587.2553430805758
 30
0.0
 10
64.15217642503946
 20
587.2668499876212
 30
0.0
  0
SPLINE
  5
B8
330
75
100
AcDbEntity
  8
$DDT_AUDIT_GENERATED_(9D)
  6
Continuous
 62
     7
100
AcDbSpline
210
0.0
220
0.0
230
1.0
 70
     8
 71
     3
 72
    11
 73
     7
 74
     0
 42
0.0000000667031514
 43
0.0000000001
 40
0.0
 40
0.0
 40
0.0
 40
0.0
 40
0.2545003430350188
 40
0.5027934792553848
 40
0.7566563554124608
 40
1.0
 40
1.0
 40
1.0
 40
1.0
 10
63.33158956409306
 20
587.1772439712626
 30
0.0
 10
63.32518077745539
 20
587.1646677006291
 30
0.0
 10
63.31251951306201
 20
587.1398218918085
 30
0.0
 10
63.28562113882616
 20
587.1108764919848
 30
0.0
 10
63.25571105933973
 20
587.0893899722754
 30
0.0
 10
63.23493781387034
 20
587.0851593940716
 30
0.0
 10
63.22477093742858
 20
587.0830888574318
 30
0.0
  0
ARC
  5
B9
330
75
100
AcDbEntity
  8
$DDT_AUDIT_GENERATED_(9D)
  6
Continuous
 62
     7
100
AcDbCircle
 10
62.0228147314
 20
587.1498825275
 30
0.0
 40
0.1569754250635254
100
AcDbArc
 50
278.6228355287
 51
336.2946254102
  0
ARC
  5
BA
330
75
100
AcDbEntity
  8
$DDT_AUDIT_GENERATED_(9D)
  6
Continuous
 62
     7
100
AcDbCircle
 10
57.5627106324
 20
587.0737013597
 30
0.0
 40
0.2153811114659739
100
AcDbArc
 50
271.0888088085
 51
322.9465905017
  0
ARC
  5
BB
330
75
100
AcDbEntity
  8
$DDT_AUDIT_GENERATED_(9D)
  6
Continuous
 62
     7
100
AcDbCircle
 10
56.6742253407
 20
587.0738941304
 30
0.0
 40
0.2155757359151511
100
AcDbArc
 50
217.0785565038
 51
268.8860441821
  0
ARC
  5
BC
330
75
100
AcDbEntity
  8
$DDT_AUDIT_GENERATED_(9D)
  6
Continuous
 62
     7
100
AcDbCircle
 10
52.2136830141
 20
587.1494388594
 30
0.0
 40
0.1564860384058365
100
AcDbArc
 50
203.6066742792
 51
261.4758647819
  0
SPLINE
  5
BD
330
75
100
AcDbEntity
  8
$DDT_AUDIT_GENERATED_(9D)
  6
Continuous
 62
     7
100
AcDbSpline
210
0.0
220
0.0
230
1.0
 70
     8
 71
     3
 72
    12
 73
     8
 74
     0
 42
0.0000000668871105
 43
0.0000000001
 40
0.0
 40
0.0
 40
0.0
 40
0.0
 40
0.1620164988873926
 40
0.325978023250967
 40
0.4975377821229488
 40
0.7457762891530397
 40
1.0
 40
1.0
 40
1.0
 40
1.0
 10
51.0120667391358
 20
587.0830888574318
 30
0.0
 10
51.00534507276038
 20
587.0842003527349
 30
0.0
 10
50.99182104568249
 20
587.0864366869619
 30
0.0
 10
50.97117503257007
 20
587.0966777775999
 30
0.0
 10
50.94836383507664
 20
587.1138776794327
 30
0.0
 10
50.92430565932396
 20
587.1398717182717
 30
0.0
 10
50.91165087496051
 20
587.1646880184196
 30
0.0
 10
50.90524811247136
 20
587.1772439712626
 30
0.0
  0
SPLINE
  5
BE
330
75
100
AcDbEntity
  8
$DDT_AUDIT_GENERATED_(9D)
  6
Continuous
 62
     7
100
AcDbSpline
210
0.0
220
0.0
230
1.0
 70
     8
 71
     3
 72
    11
 73
     7
 74
     0
 42
0.0000000812847102
 43
0.0000000001
 40
0.0
 40
0.0
 40
0.0
 40
0.0
 40
0.2515308852931403
 40
0.501047060749238
 40
0.7537667779662693
 40
1.0
 40
1.0
 40
1.0
 40
1.0
 10
50.08466125153285
 20
587.2668499876202
 30
0.0
 10
50.07887052731316
 20
587.2553185757878
 30
0.0
 10
50.06733546136489
 20
587.2323481163227
 30
0.0
 10
50.0468185933987
 20
587.2089002090607
 30
0.0
 10
50.02403177507244
 20
587.1939094517198
 30
0.0
 10
50.00663406430878
 20
587.1940299493332
 30
0.0
 10
49.99804829591189
 20
587.1940894148926
 30
0.0
  0
SPLINE
  5
BF
330
75
100
AcDbEntity
  8
$DDT_AUDIT_GENERATED_(9D)
  6
Continuous
 62
     7
100
AcDbSpline
210
0.0
220
0.0
230
1.0
 70
     8
 71
     3
 72
    12
 73
     8
 74
     0
 42
0.0000000750142825
 43
0.0000000001
 40
0.0
 40
0.0
 40
0.0
 40
0.0
 40
0.164035167218838
 40
0.3289576076662686
 40
0.4991738016538403
 40
0.7487911681046071
 40
1.0
 40
1.0
 40
1.0
 40
1.0
 10
49.5496637965401
 20
587.2617767204413
 30
0.0
 10
49.5447605633389
 20
587.2630976792336
 30
0.0
 10
49.53492757513862
 20
587.2657467419406
 30
0.0
 10
49.51954767126843
 20
587.2763335538824
 30
0.0
 10
49.50213339276666
 20
587.2939269237736
 30
0.0
 10
49.48333384475048
 20
587.320561254318
 30
0.0
 10
49.47344133067399
 20
587.3467378123938
 30
0.0
 10
49.46847935601318
 20
587.3598676817954
 30
0.0
  0
ELLIPSE
  5
C0
330
75
100
AcDbEntity
  8
$DDT_AUDIT_GENERATED_(9D)
  6
Continuous
 62
     7
100
AcDbEllipse
 10
57.1184188383
 20
592.1970604471
 30
0.0
 11
11.3325
 21
0.0
 31
0.0
210
0.0
220
0.0
230
1.0
 40
0.0871557427
 41
0.0
 42
0.7972014501900107
  0
ELLIPSE
  5
C1
330
75
100
AcDbEntity
  8
$DDT_AUDIT_GENERATED_(9D)
  6
Continuous
 62
     7
100
AcDbEllipse
 10
57.1184188383
 20
592.1970604471
 30
0.0
 11
11.3325
 21
0.0
 31
0.0
210
0.0
220
0.0
230
1.0
 40
0.0871557427
 41
2.344391203399754
 42
3.718236966810173
  0
ELLIPSE
  5
C2
330
75
100
AcDbEntity
  8
$DDT_AUDIT_GENERATED_(9D)
  6
Continuous
 62
     7
100
AcDbEllipse
 10
57.1184188383
 20
592.1970604471
 30
0.0
 11
11.3325
 21
0.0
 31
0.0
210
0.0
220
0.0
230
1.0
 40
0.0871557427
 41
5.706540993959205
 42
6.283185307179586
  0
SPLINE
  5
C3
330
75
100
AcDbEntity
  8
$DDT_AUDIT_GENERATED_(9D)
  6
Continuous
 62
     7
100
AcDbSpline
210
0.0
220
0.0
230
1.0
 70
     8
 71
     3
 72
    26
 73
    22
 74
     0
 42
0.0000000041798995
 43
0.0000000001
 40
0.0997538056726614
 40
0.0997538056726614
 40
0.0997538056726614
 40
0.0997538056726614
 40
0.1369605825193066
 40
0.1821326274897644
 40
0.227022341145881
 40
0.2716058375042922
 40
0.3158600257517608
 40
0.3597626619950207
 40
0.4032923949994222
 40
0.4464288057877355
 40
0.4891524410422941
 40
0.5314448403224945
 40
0.573288557174302
 40
0.6146671742680403
 40
0.6555653127546702
 40
0.6959686360783746
 40
0.7358638485243175
 40
0.7752386888147088
 40
0.8140819190937593
 40
0.8523833096629531
 40
0.8661781560662778
 40
0.8661781560662778
 40
0.8661781560662778
 40
0.8661781560662778
 10
45.79947623119889
 20
592.2686396073498
 30
0.0
 10
45.80519380283504
 20
592.2769862225978
 30
0.0
 10
45.82021191157641
 20
592.2954698546247
 30
0.0
 10
45.85210837916317
 20
592.3240240125084
 30
0.0
 10
45.8956348961683
 20
592.3542035490328
 30
0.0
 10
45.94854105551889
 20
592.3841232465533
 30
0.0
 10
46.01052960358119
 20
592.4137440428067
 30
0.0
 10
46.08130283118265
 20
592.4430290705595
 30
0.0
 10
46.1605369254221
 20
592.4719435687914
 30
0.0
 10
46.24789166568587
 20
592.5004550436479
 30
0.0
 10
46.34301081155805
 20
592.5285333350155
 30
0.0
 10
46.44552497971721
 20
592.5561506801427
 30
0.0
 10
46.55505385151329
 20
592.5832817509204
 30
0.0
 10
46.6712085259951
 20
592.6099036714705
 30
0.0
 10
46.79359373897054
 20
592.6359960176321
 30
0.0
 10
46.92181012932222
 20
592.6615407920532
 30
0.0
 10
47.0554559968685
 20
592.6865224056158
 30
0.0
 10
47.19413045870541
 20
592.7109275590814
 30
0.0
 10
47.33743097378725
 20
592.7347454207746
 30
0.0
 10
47.45420898469617
 20
592.7531250579821
 30
0.0
 10
47.52297731840143
 20
592.7635698976917
 30
0.0
 10
47.54131829957007
 20
592.7663295806991
 30
0.0
  0
SPLINE
  5
C4
330
75
100
AcDbEntity
  8
$DDT_AUDIT_GENERATED_(9D)
  6
Continuous
 62
     7
100
AcDbSpline
210
0.0
220
0.0
230
1.0
 70
     8
 71
     3
 72
    12
 73
     8
 74
     0
 42
0.0000000159773449
 43
0.0000000001
 40
0.3425100980306929
 40
0.3425100980306929
 40
0.3425100980306929
 40
0.3425100980306929
 40
0.3802439417990891
 40
0.4797006728696359
 40
0.5807914671235722
 40
0.6834452887545385
 40
0.7196381375096547
 40
0.7196381375096547
 40
0.7196381375096547
 40
0.7196381375096547
 10
46.0286656025365
 20
591.9938719372735
 30
0.0
 10
46.01929644441888
 20
591.9977568516595
 30
0.0
 10
45.98617900882012
 20
592.0119068689834
 30
0.0
 10
45.93459838339874
 20
592.0366351274231
 30
0.0
 10
45.88017446115829
 20
592.0683496947962
 30
0.0
 10
45.84609295921256
 20
592.0936168197817
 30
0.0
 10
45.83002238383965
 20
592.1082939379183
 30
0.0
 10
45.82607384646077
 20
592.1121232377593
 30
0.0
  0
SPLINE
  5
C5
330
75
100
AcDbEntity
  8
$DDT_AUDIT_GENERATED_(9D)
  6
Continuous
 62
     7
100
AcDbSpline
210
0.0
220
0.0
230
1.0
 70
     8
 71
     3
 72
     9
 73
     5
 74
     0
 42
0.0000000290735804
 43
0.0000000001
 40
0.8281865823180358
 40
0.8281865823180358
 40
0.8281865823180358
 40
0.8281865823180358
 40
0.893132885964636
 40
1.0
 40
1.0
 40
1.0
 40
1.0
 10
45.79688507428995
 20
592.1466618566915
 30
0.0
 10
45.79234896254662
 20
592.153565586779
 30
0.0
 10
45.78255353328936
 20
592.1718519187606
 30
0.0
 10
45.77976209709761
 20
592.1901924258801
 30
0.0
 10
45.77802583729993
 20
592.2016001325208
 30
0.0
  0
ELLIPSE
  5
C6
330
75
100
AcDbEntity
  8
$DDT_AUDIT_GENERATED_(9D)
  6
Continuous
 62
     7
100
AcDbEllipse
 10
64.0694263358
 20
587.2717434723
 30
0.0
 11
-0.0866024907055403
 21
-0.05000008603592287
 31
0.0
210
0.0
220
0.0
230
1.0
 40
0.6319904307
 41
2.335286208379323
 42
3.026748565642517
  0
ELLIPSE
  5
C7
330
75
100
AcDbEntity
  8
$DDT_AUDIT_GENERATED_(9D)
  6
Continuous
 62
     7
100
AcDbEllipse
 10
64.1561857305
 20
587.2158273128
 30
0.0
 11
0.01328835241302603
 21
-0.09911316607871812
 31
0.0
210
0.0
220
0.0
230
0.9999999999999999
 40
0.8352285989
 41
1.239554255231189
 42
2.982428509671437
  0
ELLIPSE
  5
C8
330
75
100
AcDbEntity
  8
$DDT_AUDIT_GENERATED_(9D)
  6
Continuous
 62
     7
100
AcDbEllipse
 10
64.2138795583
 20
587.2236713297
 30
0.0
 11
0.01365917619289541
 21
-0.09906274226839651
 31
0.0
210
0.0
220
0.0
230
1.0
 40
0.8420755911
 41
1.236415587416857
 42
2.979289841863546
  0
SPLINE
  5
C9
330
75
100
AcDbEntity
  8
$DDT_AUDIT_GENERATED_(9D)
  6
Continuous
 62
     7
100
AcDbSpline
210
0.0
220
0.0
230
1.0
 70
    12
 71
     2
 72
     6
 73
     3
 74
     0
 42
0.0000001717483516
 43
0.0000000001
 40
0.0
 40
0.0
 40
0.0
 40
1.0
 40
1.0
 40
1.0
 10
64.15618573047827
 20
587.3154467826563
 30
0.0
 41
1.0
 10
64.18531920312151
 20
587.3193527808886
 30
0.0
 41
1.0
 10
64.21387955827008
 20
587.3232907995036
 30
0.0
 41
1.0
  0
ARC
  5
CA
330
75
100
AcDbEntity
  8
$DDT_AUDIT_GENERATED_(9D)
  6
Continuous
 62
     7
100
AcDbCircle
 10
64.2087647051
 20
587.4787921727
 30
0.0
 40
0.1555854709864421
100
AcDbArc
 50
271.8839311283
 51
309.7025834444
  0
ELLIPSE
  5
CB
330
75
100
AcDbEntity
  8
$DDT_AUDIT_GENERATED_(9D)
  6
Continuous
 62
     7
100
AcDbEllipse
 10
64.5993685067
 20
587.2827293758
 30
0.0
 11
-0.01687910823217412
 21
0.09856518505685363
 31
0.0
210
0.0
220
0.0
230
0.9999999999999999
 40
0.8878246759
 41
4.349765981536032
 42
5.456814913513696
  0
ELLIPSE
  5
CC
330
75
100
AcDbEntity
  8
$DDT_AUDIT_GENERATED_(9D)
  6
Continuous
 62
     7
100
AcDbEllipse
 10
62.9879926009
 20
587.1590771619
 30
0.0
 11
-0.08516060591403676
 21
-0.05241823347229558
 31
0.0
210
0.0
220
0.0
230
1.0
 40
0.5071776515
 41
2.16806456903086
 42
2.915076692118602
  0
ELLIPSE
  5
CD
330
75
100
AcDbEntity
  8
$DDT_AUDIT_GENERATED_(9D)
  6
Continuous
 62
     7
100
AcDbEllipse
 10
63.1539309482
 20
587.1061144765
 30
0.0
 11
0.008980473072099301
 21
-0.09959593919134369
 31
0.0
210
0.0
220
0.0
230
0.9999999999999998
 40
0.7162829347
 41
1.273492401847873
 42
3.01636665629512
  0
SPLINE
  5
CE
330
75
100
AcDbEntity
  8
$DDT_AUDIT_GENERATED_(9D)
  6
Continuous
 62
     7
100
AcDbSpline
210
0.0
220
0.0
230
1.0
 70
    12
 71
     2
 72
     6
 73
     3
 74
     0
 42
0.0000001524596745
 43
0.0000000001
 40
0.0
 40
0.0
 40
0.0
 40
1.0
 40
1.0
 40
1.0
 10
63.08859908847458
 20
587.1999082908627
 30
0.0
 41
1.0
 10
63.12145109004483
 20
587.2028052677152
 30
0.0
 41
1.0
 10
63.15393094818411
 20
587.2057339462716
 30
0.0
 41
1.0
  0
SPLINE
  5
CF
330
75
100
AcDbEntity
  8
$DDT_AUDIT_GENERATED_(9D)
  6
Continuous
 62
     7
100
AcDbSpline
210
0.0
220
0.0
230
1.0
 70
     8
 71
     3
 72
     9
 73
     5
 74
     0
 42
0.0000001830953549
 43
0.0000000001
 40
0.0
 40
0.0
 40
0.0
 40
0.0
 40
0.5008559600822863
 40
1.0
 40
1.0
 40
1.0
 40
1.0
 10
63.15393094818403
 20
587.2057339462715
 30
0.0
 10
63.16074125208775
 20
587.2080361960259
 30
0.0
 10
63.1743385823513
 20
587.2126328264702
 30
0.0
 10
63.18512567005208
 20
587.2318778725044
 30
0.0
 10
63.19050998058599
 20
587.2414839225302
 30
0.0
  0
ELLIPSE
  5
D0
330
75
100
AcDbEntity
  8
$DDT_AUDIT_GENERATED_(9D)
  6
Continuous
 62
     7
100
AcDbEllipse
 10
61.9891808743
 20
587.0187326784
 30
0.0
 11
0.006197682075041733
 21
-0.09980775890128246
 31
0.0
210
0.0
220
0.0
230
0.9999999999999998
 40
0.5780526427
 41
1.291705692414877
 42
3.034579946856047
  0
SPLINE
  5
D1
330
75
100
AcDbEntity
  8
$DDT_AUDIT_GENERATED_(9D)
  6
Continuous
 62
     7
100
AcDbSpline
210
0.0
220
0.0
230
1.0
 70
    12
 71
     2
 72
     6
 73
     3
 74
     0
 42
0.0000001351034155
 43
0.0000000001
 40
0.0
 40
0.0
 40
0.0
 40
1.0
 40
1.0
 40
1.0
 10
61.91530260873169
 20
587.1138166426234
 30
0.0
 41
1.0
 10
61.95238179976158
 20
587.1160670656883
 30
0.0
 41
1.0
 10
61.98918087430944
 20
587.118352148203
 30
0.0
 41
1.0
  0
ARC
  5
D2
330
75
100
AcDbEntity
  8
$DDT_AUDIT_GENERATED_(9D)
  6
Continuous
 62
     7
100
AcDbCircle
 10
61.9814845398
 20
587.1836743862
 30
0.0
 40
0.0657740704094285
100
AcDbArc
 50
276.7196693248
 51
331.2893769381
  0
ELLIPSE
  5
D3
330
75
100
AcDbEntity
  8
$DDT_AUDIT_GENERATED_(9D)
  6
Continuous
 62
     7
100
AcDbEllipse
 10
57.727351535
 20
586.9526141273
 30
0.0
 11
0.07253464284545109
 21
-0.06883840198090851
 31
0.0
210
0.0
220
0.0
230
0.9999999999999999
 40
0.0132333436
 41
3.944896678475044
 42
4.825047713378584
  0
ELLIPSE
  5
D4
330
75
100
AcDbEntity
  8
$DDT_AUDIT_GENERATED_(9D)
  6
Continuous
 62
     7
100
AcDbEllipse
 10
57.5616016145
 20
586.8839918527
 30
0.0
 11
0.0
 21
0.02615519153832392
 31
0.0
210
0.0
220
0.0
230
1.0
 40
1.0
 41
3.341806779830141
 42
6.283185307179586
  0
SPLINE
  5
D5
330
75
100
AcDbEntity
  8
$DDT_AUDIT_GENERATED_(9D)
  6
Continuous
 62
     7
100
AcDbSpline
210
0.0
220
0.0
230
1.0
 70
    12
 71
     2
 72
     6
 73
     3
 74
     0
 42
0.000000093641645
 43
0.0000000001
 40
0.0
 40
0.0
 40
0.0
 40
1.0
 40
1.0
 40
1.0
 10
57.45481241426147
 20
586.9831786534609
 30
0.0
 41
1.0
 10
57.50822282070721
 20
586.9833653536931
 30
0.0
 41
1.0
 10
57.56160161449798
 20
586.983611322502
 30
0.0
 41
1.0
  0
ARC
  5
D6
330
75
100
AcDbEntity
  8
$DDT_AUDIT_GENERATED_(9D)
  6
Continuous
 62
     7
100
AcDbCircle
 10
57.4424417784
 20
587.1463710822
 30
0.0
 40
0.1636606288769105
100
AcDbArc
 50
236.9929321273
 51
274.334957647
  0
ELLIPSE
  5
D7
330
75
100
AcDbEntity
  8
$DDT_AUDIT_GENERATED_(9D)
  6
Continuous
 62
     7
100
AcDbEllipse
 10
56.5094861415
 20
586.9526141272
 30
0.0
 11
-0.07253464283826468
 21
-0.06883840198848579
 31
0.0
210
0.0
220
0.0
230
1.0
 40
0.0132333436
 41
1.458137593899205
 42
2.338288628831375
  0
ELLIPSE
  5
D8
330
75
100
AcDbEntity
  8
$DDT_AUDIT_GENERATED_(9D)
  6
Continuous
 62
     7
100
AcDbEllipse
 10
56.6752360621
 20
586.8839918527
 30
0.0
 11
-0.0004607938474750932
 21
-0.09999893833950724
 31
0.0
210
0.0
220
0.0
230
0.9999999999999998
 40
0.052596077
 41
3.22898038050502
 42
4.971854634944526
  0
ELLIPSE
  5
D9
330
75
100
AcDbEntity
  8
$DDT_AUDIT_GENERATED_(9D)
  6
Continuous
 62
     7
100
AcDbEllipse
 10
56.7820252623
 20
586.8835591837
 30
0.0
 11
-0.0003495556465680561
 21
-0.09999938905239092
 31
0.0
210
0.0
220
0.0
230
1.0
 40
0.0399225407
 41
3.22892891998274
 42
4.971803174420068
  0
SPLINE
  5
DA
330
75
100
AcDbEntity
  8
$DDT_AUDIT_GENERATED_(9D)
  6
Continuous
 62
     7
100
AcDbSpline
210
0.0
220
0.0
230
1.0
 70
    12
 71
     2
 72
     6
 73
     3
 74
     0
 42
0.000000093641645
 43
0.0000000001
 40
0.0
 40
0.0
 40
0.0
 40
1.0
 40
1.0
 40
1.0
 10
56.6752360620664
 20
586.9836113225019
 30
0.0
 41
1.0
 10
56.72861485585732
 20
586.9833653536931
 30
0.0
 41
1.0
 10
56.78202526230291
 20
586.9831786534609
 30
0.0
 41
1.0
  0
ARC
  5
DB
330
75
100
AcDbEntity
  8
$DDT_AUDIT_GENERATED_(9D)
  6
Continuous
 62
     7
100
AcDbCircle
 10
56.7946572666
 20
587.1453483823
 30
0.0
 40
0.1626609617842268
100
AcDbArc
 50
265.5460118683
 51
303.1260983578
  0
ELLIPSE
  5
DC
330
75
100
AcDbEntity
  8
$DDT_AUDIT_GENERATED_(9D)
  6
Continuous
 62
     7
100
AcDbEllipse
 10
52.2476568023
 20
587.0187326784
 30
0.0
 11
0.006197682075037396
 21
0.09980775890131022
 31
0.0
210
0.0
220
0.0
230
0.9999999999999999
 40
0.5780526427
 41
0.1070127067368435
 42
1.849886961174803
  0
SPLINE
  5
DD
330
75
100
AcDbEntity
  8
$DDT_AUDIT_GENERATED_(9D)
  6
Continuous
 62
     7
100
AcDbSpline
210
0.0
220
0.0
230
1.0
 70
    12
 71
     2
 72
     6
 73
     3
 74
     0
 42
0.0000001351034155
 43
0.0000000001
 40
0.0
 40
0.0
 40
0.0
 40
1.0
 40
1.0
 40
1.0
 10
52.24765680225493
 20
587.118352148203
 30
0.0
 41
1.0
 10
52.28445587680274
 20
587.1160670656883
 30
0.0
 41
1.0
 10
52.32153506783266
 20
587.1138166426235
 30
0.0
 41
1.0
  0
ARC
  5
DE
330
75
100
AcDbEntity
  8
$DDT_AUDIT_GENERATED_(9D)
  6
Continuous
 62
     7
100
AcDbCircle
 10
52.2553578314
 20
587.183681345
 30
0.0
 40
0.065781530894351
100
AcDbArc
 50
208.7139747505
 51
263.2769789866
  0
ELLIPSE
  5
DF
330
75
100
AcDbEntity
  8
$DDT_AUDIT_GENERATED_(9D)
  6
Continuous
 62
     7
100
AcDbEllipse
 10
51.2488450756
 20
587.1590771619
 30
0.0
 11
0.08516060591053695
 21
-0.05241823347792995
 31
0.0
210
0.0
220
0.0
230
1.0
 40
0.5071776516
 41
3.368108614988679
 42
4.115120738119001
  0
ELLIPSE
  5
E0
330
75
100
AcDbEntity
  8
$DDT_AUDIT_GENERATED_(9D)
  6
Continuous
 62
     7
100
AcDbEllipse
 10
51.0829067284
 20
587.1061144765
 30
0.0
 11
0.008980473072094965
 21
0.09959593919131593
 31
0.0
210
0.0
220
0.0
230
1.0
 40
0.7162829347
 41
0.125225997296418
 42
1.868100251743144
  0
SPLINE
  5
E1
330
75
100
AcDbEntity
  8
$DDT_AUDIT_GENERATED_(9D)
  6
Continuous
 62
     7
100
AcDbSpline
210
0.0
220
0.0
230
1.0
 70
    12
 71
     2
 72
     6
 73
     3
 74
     0
 42
0.0000001524596745
 43
0.0000000001
 40
0.0
 40
0.0
 40
0.0
 40
1.0
 40
1.0
 40
1.0
 10
51.08290672838031
 20
587.2057339462715
 30
0.0
 41
1.0
 10
51.11538658651959
 20
587.2028052677151
 30
0.0
 41
1.0
 10
51.14823858808986
 20
587.1999082908626
 30
0.0
 41
1.0
  0
SPLINE
  5
E2
330
75
100
AcDbEntity
  8
$DDT_AUDIT_GENERATED_(9D)
  6
Continuous
 62
     7
100
AcDbSpline
210
0.0
220
0.0
230
1.0
 70
     8
 71
     3
 72
    11
 73
     7
 74
     0
 42
0.0000001865401086
 43
0.0000000001
 40
0.0
 40
0.0
 40
0.0
 40
0.0
 40
0.339234178301922
 40
0.500555603879555
 40
0.7472582868955896
 40
1.0
 40
1.0
 40
1.0
 40
1.0
 10
51.04632769597821
 20
587.2414839225299
 30
0.0
 10
51.04954286794459
 20
587.2348370949292
 30
0.0
 10
51.05428700178502
 20
587.2250293956566
 30
0.0
 10
51.06439923778021
 20
587.2148625504814
 30
0.0
 10
51.07332151042583
 20
587.2083264995565
 30
0.0
 10
51.07968600364668
 20
587.206605068924
 30
0.0
 10
51.08290672838035
 20
587.2057339462715
 30
0.0
  0
ELLIPSE
  5
E3
330
75
100
AcDbEntity
  8
$DDT_AUDIT_GENERATED_(9D)
  6
Continuous
 62
     7
100
AcDbEllipse
 10
50.1674113408
 20
587.2717434723
 30
0.0
 11
0.08660249071033421
 21
-0.05000008602756845
 31
0.0
210
0.0
220
0.0
230
1.0
 40
0.6319904306
 41
3.256436741624103
 42
3.94789909884047
  0
ELLIPSE
  5
E4
330
75
100
AcDbEntity
  8
$DDT_AUDIT_GENERATED_(9D)
  6
Continuous
 62
     7
100
AcDbEllipse
 10
50.0806519461
 20
587.2158273128
 30
0.0
 11
0.01328835241307287
 21
0.09911316607871812
 31
0.0
210
0.0
220
0.0
230
0.9999999999999999
 40
0.8352285989
 41
0.1591641439224083
 42
1.90203839835899
  0
SPLINE
  5
E5
330
75
100
AcDbEntity
  8
$DDT_AUDIT_GENERATED_(9D)
  6
Continuous
 62
     7
100
AcDbSpline
210
0.0
220
0.0
230
1.0
 70
    12
 71
     2
 72
     6
 73
     3
 74
     0
 42
0.0000001717483516
 43
0.0000000001
 40
0.0
 40
0.0
 40
0.0
 40
1.0
 40
1.0
 40
1.0
 10
50.0229581182943
 20
587.3232907995035
 30
0.0
 41
1.0
 10
50.05151847344288
 20
587.3193527808885
 30
0.0
 41
1.0
 10
50.08065194608612
 20
587.3154467826562
 30
0.0
 41
1.0
  0
ARC
  5
E6
330
75
100
AcDbEntity
  8
$DDT_AUDIT_GENERATED_(9D)
  6
Continuous
 62
     7
100
AcDbCircle
 10
50.0286734642
 20
587.4803735415
 30
0.0
 40
0.1571866820870866
100
AcDbArc
 50
230.4972331837
 51
267.9162522439
  0
ELLIPSE
  5
E7
330
75
100
AcDbEntity
  8
$DDT_AUDIT_GENERATED_(9D)
  6
Continuous
 62
     7
100
AcDbEllipse
 10
49.6374691699
 20
587.2827293758
 30
0.0
 11
-0.01687910823216718
 21
-0.09856518505682588
 31
0.0
210
0.0
220
0.0
230
0.9999999999999999
 40
0.8878246759
 41
3.967963047255319
 42
5.075011979232199
  0
ELLIPSE
  5
E8
330
75
100
AcDbEntity
  8
$DDT_AUDIT_GENERATED_(9D)
  6
Continuous
 62
     7
100
AcDbEllipse
 10
49.6865645423
 20
587.2744526899
 30
0.0
 11
-0.01637440062716381
 21
-0.09865028638630924
 31
0.0
210
0.0
220
0.0
230
1.0
 40
0.8819981318
 41
3.32760828067369
 42
5.070482535116336
  0
SPLINE
  5
E9
330
75
100
AcDbEntity
  8
$DDT_AUDIT_GENERATED_(9D)
  6
Continuous
 62
     7
100
AcDbSpline
210
0.0
220
0.0
230
1.0
 70
    12
 71
     3
 72
     8
 73
     4
 74
     0
 42
0.000000087163999
 43
0.0000000001
 40
0.0
 40
0.0
 40
0.0
 40
0.0
 40
1.0
 40
1.0
 40
1.0
 40
1.0
 10
51.47770670829955
 20
587.2574882137291
 30
0.0
 41
1.0
 10
51.50476302489567
 20
587.2615725858941
 30
0.0
 41
0.8047378541243649
 10
51.52389472983472
 20
587.2974716615261
 30
0.0
 41
0.8047378541243649
 10
51.52389472983472
 20
587.3441562489962
 30
0.0
 41
1.0
  0
LINE
  5
EA
330
75
100
AcDbEntity
  8
$DDT_AUDIT_GENERATED_(9D)
  6
Continuous
 62
     7
100
AcDbLine
 10
51.4777067083
 20
587.2574882137
 30
0.0
 11
51.0677880172
 21
587.3193687911
 31
0.0
  0
SPLINE
  5
EB
330
75
100
AcDbEntity
  8
$DDT_AUDIT_GENERATED_(9D)
  6
Continuous
 62
     7
100
AcDbSpline
210
0.0
220
0.0
230
1.0
 70
    12
 71
     3
 72
     8
 73
     4
 74
     0
 42
0.000000087163999
 43
0.0000000001
 40
0.0
 40
0.0
 40
0.0
 40
0.0
 40
1.0
 40
1.0
 40
1.0
 40
1.0
 10
50.94365770929915
 20
587.4099588347708
 30
0.0
 41
1.0
 10
50.94365770929915
 20
587.3632742473005
 30
0.0
 41
0.8047378541243649
 10
50.96278941423819
 20
587.3273751716686
 30
0.0
 41
0.8047378541243649
 10
50.98984573083431
 20
587.3232907995035
 30
0.0
 41
1.0
  0
LINE
  5
EC
330
75
100
AcDbEntity
  8
$DDT_AUDIT_GENERATED_(9D)
  6
Continuous
 62
     7
100
AcDbLine
 10
51.399764422
 20
587.3851713769
 30
0.0
 11
50.9898457308
 21
587.3232907995
 31
0.0
  0
LINE
  5
ED
330
75
100
AcDbEntity
  8
$DDT_AUDIT_GENERATED_(9D)
  6
Continuous
 62
     7
100
AcDbLine
 10
51.399764422
 20
587.2535662053
 30
0.0
 11
51.0829067284
 21
587.2057339463
 31
0.0
  0
LINE
  5
EE
330
75
100
AcDbEntity
  8
$DDT_AUDIT_GENERATED_(9D)
  6
Continuous
 62
     7
100
AcDbLine
 10
52.3970595622
 20
587.1409057161
 30
0.0
 11
52.2476568023
 21
587.1183521482
 31
0.0
  0
SPLINE
  5
EF
330
75
100
AcDbEntity
  8
$DDT_AUDIT_GENERATED_(9D)
  6
Continuous
 62
     7
100
AcDbSpline
210
0.0
220
0.0
230
1.0
 70
    12
 71
     3
 72
     8
 73
     4
 74
     0
 42
0.000000087163999
 43
0.0000000001
 40
0.0
 40
0.0
 40
0.0
 40
0.0
 40
1.0
 40
1.0
 40
1.0
 40
1.0
 10
50.94365770929915
 20
587.5415640063196
 30
0.0
 41
1.0
 10
50.94365770929915
 20
587.4948794188495
 30
0.0
 41
0.8047378541243649
 10
50.96278941423819
 20
587.4589803432175
 30
0.0
 41
0.8047378541243649
 10
50.98984573083431
 20
587.4548959710525
 30
0.0
 41
1.0
  0
LINE
  5
F0
330
75
100
AcDbEntity
  8
$DDT_AUDIT_GENERATED_(9D)
  6
Continuous
 62
     7
100
AcDbLine
 10
51.3154740783
 20
587.504052232
 30
0.0
 11
50.9898457308
 21
587.4548959711
 31
0.0
  0
ELLIPSE
  5
F1
330
75
100
AcDbEntity
  8
$DDT_AUDIT_GENERATED_(9D)
  6
Continuous
 62
     7
100
AcDbEllipse
 10
52.4800142002
 20
602.7134432371
 30
0.0
 11
0.7843184772051864
 21
-15.58680362568446
 31
0.0
210
0.0
220
0.0
230
1.0
 40
0.4980973493
 41
-0.2644318337943039
 42
-0.2431694953249313
  0
ELLIPSE
  5
F2
330
75
100
AcDbEntity
  8
$DDT_AUDIT_GENERATED_(9D)
  6
Continuous
 62
     7
100
AcDbEllipse
 10
53.1370490067
 20
603.1471850766
 30
0.0
 11
-0.7963839794524509
 21
-15.82658203035486
 31
0.0
210
0.0
220
0.0
230
1.0
 40
0.4980973488
 41
-0.1500004399971022
 42
-0.1239826828072168
  0
LINE
  5
F3
330
75
100
AcDbEntity
  8
$DDT_AUDIT_GENERATED_(9D)
  6
Continuous
 62
     7
100
AcDbLine
 10
57.9382562205
 20
587.056158448
 30
0.0
 11
57.4548124143
 21
586.9831786535
 31
0.0
  0
LINE
  5
F4
330
75
100
AcDbEntity
  8
$DDT_AUDIT_GENERATED_(9D)
  6
Continuous
 62
     7
100
AcDbLine
 10
56.7820252623
 20
586.9831786535
 30
0.0
 11
56.298581456
 21
587.056158448
 31
0.0
  0
ELLIPSE
  5
F5
330
75
100
AcDbEntity
  8
$DDT_AUDIT_GENERATED_(9D)
  6
Continuous
 62
     7
100
AcDbEllipse
 10
61.0997886697
 20
603.1471850768
 30
0.0
 11
0.7963839796137151
 21
-15.82658203059192
 31
0.0
210
0.0
220
0.0
230
1.0
 40
0.4980973488
 41
0.1239826828015708
 42
0.1500004399913796
  0
ELLIPSE
  5
F6
330
75
100
AcDbEntity
  8
$DDT_AUDIT_GENERATED_(9D)
  6
Continuous
 62
     7
100
AcDbEllipse
 10
61.7568234753
 20
602.7134432503
 30
0.0
 11
-0.7843184756205968
 21
-15.58680363887838
 31
0.0
210
0.0
220
0.0
230
1.0
 40
0.4980973491
 41
0.2431694951529496
 42
0.2644318336133237
  0
LINE
  5
F7
330
75
100
AcDbEntity
  8
$DDT_AUDIT_GENERATED_(9D)
  6
Continuous
 62
     7
100
AcDbLine
 10
63.2469919457
 20
587.4548959711
 30
0.0
 11
62.9213635982
 21
587.504052232
 31
0.0
  0
SPLINE
  5
F8
330
75
100
AcDbEntity
  8
$DDT_AUDIT_GENERATED_(9D)
  6
Continuous
 62
     7
100
AcDbSpline
210
0.0
220
0.0
230
1.0
 70
    12
 71
     3
 72
     8
 73
     4
 74
     0
 42
0.000000087163999
 43
0.0000000001
 40
0.0
 40
0.0
 40
0.0
 40
0.0
 40
1.0
 40
1.0
 40
1.0
 40
1.0
 10
63.24699194573007
 20
587.4548959710525
 30
0.0
 41
1.0
 10
63.2740482623262
 20
587.4589803432175
 30
0.0
 41
0.8047378541243649
 10
63.29317996726525
 20
587.4948794188495
 30
0.0
 41
0.8047378541243649
 10
63.29317996726525
 20
587.5415640063196
 30
0.0
 41
1.0
  0
SPLINE
  5
F9
330
75
100
AcDbEntity
  8
$DDT_AUDIT_GENERATED_(9D)
  6
Continuous
 62
     7
100
AcDbSpline
210
0.0
220
0.0
230
1.0
 70
    12
 71
     3
 72
     8
 73
     4
 74
     0
 42
0.000000087163999
 43
0.0000000001
 40
0.0
 40
0.0
 40
0.0
 40
0.0
 40
1.0
 40
1.0
 40
1.0
 40
1.0
 10
63.29317996726525
 20
587.4099588347708
 30
0.0
 41
1.0
 10
63.29317996726525
 20
587.3632742473005
 30
0.0
 41
0.8047378541243649
 10
63.2740482623262
 20
587.3273751716686
 30
0.0
 41
0.8047378541243649
 10
63.24699194573007
 20
587.3232907995035
 30
0.0
 41
1.0
  0
LINE
  5
FA
330
75
100
AcDbEntity
  8
$DDT_AUDIT_GENERATED_(9D)
  6
Continuous
 62
     7
100
AcDbLine
 10
63.2469919457
 20
587.3232907995
 30
0.0
 11
62.8370732546
 21
587.3851713769
 31
0.0
  0
LINE
  5
FB
330
75
100
AcDbEntity
  8
$DDT_AUDIT_GENERATED_(9D)
  6
Continuous
 62
     7
100
AcDbLine
 10
63.1539309482
 20
587.2057339463
 30
0.0
 11
62.8370732546
 21
587.2535662053
 31
0.0
  0
SPLINE
  5
FC
330
75
100
AcDbEntity
  8
$DDT_AUDIT_GENERATED_(9D)
  6
Continuous
 62
     7
100
AcDbSpline
210
0.0
220
0.0
230
1.0
 70
    12
 71
     3
 72
     8
 73
     4
 74
     0
 42
0.000000087163999
 43
0.0000000001
 40
0.0
 40
0.0
 40
0.0
 40
0.0
 40
1.0
 40
1.0
 40
1.0
 40
1.0
 10
62.71294294672968
 20
587.3441562489962
 30
0.0
 41
1.0
 10
62.71294294672968
 20
587.2974716615261
 30
0.0
 41
0.8047378541243649
 10
62.73207465166872
 20
587.2615725858941
 30
0.0
 41
0.8047378541243649
 10
62.75913096826484
 20
587.2574882137291
 30
0.0
 41
1.0
  0
LINE
  5
FD
330
75
100
AcDbEntity
  8
$DDT_AUDIT_GENERATED_(9D)
  6
Continuous
 62
     7
100
AcDbLine
 10
63.1690496594
 20
587.3193687911
 30
0.0
 11
62.7591309683
 21
587.2574882137
 31
0.0
  0
LINE
  5
FE
330
75
100
AcDbEntity
  8
$DDT_AUDIT_GENERATED_(9D)
  6
Continuous
 62
     7
100
AcDbLine
 10
61.9891808743
 20
587.1183521482
 30
0.0
 11
61.8397781144
 21
587.1409057161
 31
0.0
  0
SPLINE
  5
FF
330
75
100
AcDbEntity
  8
$DDT_AUDIT_GENERATED_(9D)
  6
Continuous
 62
     7
100
AcDbSpline
210
0.0
220
0.0
230
1.0
 70
    12
 71
     3
 72
     8
 73
     4
 74
     0
 42
0.000000087163999
 43
0.0000000001
 40
0.0
 40
0.0
 40
0.0
 40
0.0
 40
1.0
 40
1.0
 40
1.0
 40
1.0
 10
57.48214950787166
 20
587.2125510774473
 30
0.0
 41
1.0
 10
57.48214950787166
 20
587.165866489977
 30
0.0
 41
0.8047378541243649
 10
57.50128121281071
 20
587.1299674143451
 30
0.0
 41
0.8047378541243649
 10
57.52833752940683
 20
587.1258830421801
 30
0.0
 41
1.0
  0
LINE
  5
100
330
75
100
AcDbEntity
  8
$DDT_AUDIT_GENERATED_(9D)
  6
Continuous
 62
     7
100
AcDbLine
 10
57.6914414912
 20
587.1505049185
 30
0.0
 11
57.5283375294
 21
587.1258830422
 31
0.0
  0
SPLINE
  5
101
330
75
100
AcDbEntity
  8
$DDT_AUDIT_GENERATED_(9D)
  6
Continuous
 62
     7
100
AcDbSpline
210
0.0
220
0.0
230
1.0
 70
    12
 71
     3
 72
     8
 73
     4
 74
     0
 42
0.000000087163999
 43
0.0000000001
 40
0.0
 40
0.0
 40
0.0
 40
0.0
 40
1.0
 40
1.0
 40
1.0
 40
1.0
 10
56.75468816869272
 20
587.2125510774473
 30
0.0
 41
1.0
 10
56.75468816869273
 20
587.165866489977
 30
0.0
 41
0.8047378541243649
 10
56.73555646375368
 20
587.1299674143451
 30
0.0
 41
0.8047378541243649
 10
56.70850014715756
 20
587.1258830421801
 30
0.0
 41
1.0
  0
LINE
  5
102
330
75
100
AcDbEntity
  8
$DDT_AUDIT_GENERATED_(9D)
  6
Continuous
 62
     7
100
AcDbLine
 10
56.7085001472
 20
587.1258830422
 30
0.0
 11
56.5453961854
 21
587.1505049185
 31
0.0
  0
LINE
  5
103
330
75
100
AcDbEntity
  8
$DDT_AUDIT_GENERATED_(9D)
  6
Continuous
 62
     7
100
AcDbLine
 10
55.8184188383
 20
587.7656102532
 30
0.0
 11
55.8184188383
 21
586.5849379727
 31
0.0
  0
SPLINE
  5
104
330
75
100
AcDbEntity
  8
$DDT_AUDIT_GENERATED_(9D)
  6
Continuous
 62
     7
100
AcDbSpline
210
0.0
220
0.0
230
1.0
 70
    12
 71
     3
 72
     8
 73
     4
 74
     0
 42
0.000000087163999
 43
0.0000000001
 40
0.0
 40
0.0
 40
0.0
 40
0.0
 40
1.0
 40
1.0
 40
1.0
 40
1.0
 10
56.22063916969233
 20
587.0600804564057
 30
0.0
 41
1.0
 10
56.1935828530962
 20
587.0641648285706
 30
0.0
 41
0.8047378541243649
 10
56.17445114815715
 20
587.1000639042026
 30
0.0
 41
0.8047378541243649
 10
56.17445114815715
 20
587.1467484916728
 30
0.0
 41
1.0
  0
LINE
  5
105
330
75
100
AcDbEntity
  8
$DDT_AUDIT_GENERATED_(9D)
  6
Continuous
 62
     7
100
AcDbLine
 10
56.6305578608
 20
587.1219610338
 30
0.0
 11
56.2206391697
 21
587.0600804564
 31
0.0
  0
ELLIPSE
  5
106
330
75
100
AcDbEntity
  8
$DDT_AUDIT_GENERATED_(9D)
  6
Continuous
 62
     7
100
AcDbEllipse
 10
58.4961666611
 20
587.263537187
 30
0.0
 11
0.07941036801562559
 21
0.009695022002292886
 31
0.0
210
0.0
220
0.0
230
0.9999999999999998
 40
0.0865181962
 41
3.060371344427944
 42
3.141592653589793
  0
LINE
  5
107
330
75
100
AcDbEntity
  8
$DDT_AUDIT_GENERATED_(9D)
  6
Continuous
 62
     7
100
AcDbLine
 10
58.4184188383
 20
586.5849379727
 30
0.0
 11
58.4184188383
 21
587.7656102532
 31
0.0
  0
SPLINE
  5
108
330
75
100
AcDbEntity
  8
$DDT_AUDIT_GENERATED_(9D)
  6
Continuous
 62
     7
100
AcDbSpline
210
0.0
220
0.0
230
1.0
 70
    12
 71
     3
 72
     8
 73
     4
 74
     0
 42
0.000000087163999
 43
0.0000000001
 40
0.0
 40
0.0
 40
0.0
 40
0.0
 40
1.0
 40
1.0
 40
1.0
 40
1.0
 10
58.06238652840724
 20
587.1467484916728
 30
0.0
 41
1.0
 10
58.06238652840724
 20
587.1000639042026
 30
0.0
 41
0.8047378541243649
 10
58.04325482346818
 20
587.0641648285706
 30
0.0
 41
0.8047378541243649
 10
58.01619850687207
 20
587.0600804564057
 30
0.0
 41
1.0
  0
LINE
  5
109
330
75
100
AcDbEntity
  8
$DDT_AUDIT_GENERATED_(9D)
  6
Continuous
 62
     7
100
AcDbLine
 10
58.0161985069
 20
587.0600804564
 30
0.0
 11
57.6062798157
 21
587.1219610338
 31
0.0
  0
SPLINE
  5
10A
330
75
100
AcDbEntity
  8
$DDT_AUDIT_GENERATED_(9D)
  6
Continuous
 62
     7
100
AcDbSpline
210
0.0
220
0.0
230
1.0
 70
     8
 71
     3
 72
    13
 73
     9
 74
     0
 42
0.0000000400789747
 43
0.0000000001
 40
0.0
 40
0.0
 40
0.0
 40
0.0
 40
0.1137356827495391
 40
0.2333235003263195
 40
0.3614190125542462
 40
0.5001620512853929
 40
0.718520491881562
 40
1.0
 40
1.0
 40
1.0
 40
1.0
 10
58.26841883828219
 20
587.4257595802417
 30
0.0
 10
58.27784269897583
 20
587.4250578003586
 30
0.0
 10
58.29717531395181
 20
587.4236181313402
 30
0.0
 10
58.32522760260593
 20
587.4121799218603
 30
0.0
 10
58.35168407906301
 20
587.3940109522264
 30
0.0
 10
58.37899890889032
 20
587.3644708296534
 30
0.0
 10
58.40537132592173
 20
587.3180167484345
 30
0.0
 10
58.41277865335459
 20
587.2773389158315
 30
0.0
 10
58.41695002707324
 20
587.254431538867
 30
0.0
  0
LINE
  5
10B
330
75
100
AcDbEntity
  8
$DDT_AUDIT_GENERATED_(9D)
  6
Continuous
 62
     7
100
AcDbLine
 10
58.2684188383
 20
587.4114213459
 30
0.0
 11
58.2684188383
 21
587.411453718
 31
0.0
  0
SPLINE
  5
10C
330
75
100
AcDbEntity
  8
$DDT_AUDIT_GENERATED_(9D)
  6
Continuous
 62
     7
100
AcDbSpline
210
0.0
220
0.0
230
1.0
 70
     8
 71
     3
 72
    14
 73
    10
 74
     0
 42
0.0000001103850336
 43
0.0000000001
 40
0.0
 40
0.0
 40
0.0
 40
0.0
 40
0.0120926937941429
 40
0.0120926937941429
 40
0.0120926937941429
 40
0.2058076250701349
 40
0.2058076250701349
 40
0.2058076250701349
 40
0.3627437668872597
 40
0.3627437668872597
 40
0.3627437668872597
 40
0.3627437668872597
 10
58.01619850687207
 20
587.4257595802417
 30
0.0
 10
58.01653035666286
 20
587.4254531819585
 30
0.0
 10
58.01686221651352
 20
587.4251511992168
 30
0.0
 10
58.01719401983453
 20
587.4248537011676
 30
0.0
 10
58.0225092340143
 20
587.4200880290111
 30
0.0
 10
58.02786573203517
 20
587.4164367320362
 30
0.0
 10
58.03294919838815
 20
587.4141682886814
 30
0.0
 10
58.03706589798504
 20
587.4123312548156
 30
0.0
 10
58.04107406427374
 20
587.4113733278905
 30
0.0
 10
58.0447722751582
 20
587.4114246142419
 30
0.0
  0
SPLINE
  5
10D
330
75
100
AcDbEntity
  8
$DDT_AUDIT_GENERATED_(9D)
  6
Continuous
 62
     7
100
AcDbSpline
210
0.0
220
0.0
230
1.0
 70
     8
 71
     3
 72
    10
 73
     6
 74
     0
 42
0.000000070051384
 43
0.0000000001
 40
0.0
 40
0.0
 40
0.0
 40
0.0
 40
0.2502741800405145
 40
0.4993897874640152
 40
0.523280035282829
 40
0.523280035282829
 40
0.523280035282829
 40
0.523280035282829
 10
57.98444424206664
 20
587.5065784597185
 30
0.0
 10
57.97262025251887
 20
587.5029593103964
 30
0.0
 10
57.94902700919555
 20
587.4957377657286
 30
0.0
 10
57.92477056342807
 20
587.4929678573442
 30
0.0
 10
57.91258809422634
 20
587.4927689555649
 30
0.0
 10
57.91152602054046
 20
587.492761949042
 30
0.0
  0
SPLINE
  5
10E
330
75
100
AcDbEntity
  8
$DDT_AUDIT_GENERATED_(9D)
  6
Continuous
 62
     7
100
AcDbSpline
210
0.0
220
0.0
230
1.0
 70
     8
 71
     3
 72
    10
 73
     6
 74
     0
 42
0.0000000699975781
 43
0.0000000001
 40
0.0
 40
0.0
 40
0.0
 40
0.0
 40
0.2963133436440563
 40
0.499100899522253
 40
0.5230043562419368
 40
0.5230043562419368
 40
0.5230043562419368
 40
0.5230043562419368
 10
56.25239343449775
 20
587.5065784597185
 30
0.0
 10
56.266383958192
 20
587.502364982505
 30
0.0
 10
56.28994915736498
 20
587.4952679336797
 30
0.0
 10
56.31409904107185
 20
587.4928950706859
 30
0.0
 10
56.32426009295608
 20
587.4927786267117
 30
0.0
 10
56.32532775206768
 20
587.4927772567972
 30
0.0
  0
ARC
  5
10F
330
75
100
AcDbEntity
  8
$DDT_AUDIT_GENERATED_(9D)
  6
Continuous
 62
     7
100
AcDbCircle
 10
48.9101021579
 20
580.9374872455
 30
0.0
 40
9.950175537372072
100
AcDbArc
 50
39.2547024963
 51
41.2114043465
  0
SPLINE
  5
110
330
75
100
AcDbEntity
  8
$DDT_AUDIT_GENERATED_(9D)
  6
Continuous
 62
     7
100
AcDbSpline
210
0.0
220
0.0
230
1.0
 70
     8
 71
     3
 72
    14
 73
    10
 74
     0
 42
0.0000001103850336
 43
0.0000000001
 40
0.0
 40
0.0
 40
0.0
 40
0.0
 40
0.0120926937941499
 40
0.0120926937941499
 40
0.0120926937941499
 40
0.2058076250701123
 40
0.2058076250701123
 40
0.2058076250701123
 40
0.3627437668872678
 40
0.3627437668872678
 40
0.3627437668872678
 40
0.3627437668872678
 10
56.22063916969233
 20
587.4257595802417
 30
0.0
 10
56.22030731990152
 20
587.4254531819585
 30
0.0
 10
56.21997546005083
 20
587.4251511992168
 30
0.0
 10
56.21964365672982
 20
587.4248537011676
 30
0.0
 10
56.21432844255023
 20
587.420088029011
 30
0.0
 10
56.20897194452922
 20
587.4164367320362
 30
0.0
 10
56.20388847817623
 20
587.4141682886814
 30
0.0
 10
56.19977177857934
 20
587.4123312548156
 30
0.0
 10
56.19576361229065
 20
587.4113733278905
 30
0.0
 10
56.19206540140618
 20
587.4114246142419
 30
0.0
  0
LINE
  5
111
330
75
100
AcDbEntity
  8
$DDT_AUDIT_GENERATED_(9D)
  6
Continuous
 62
     7
100
AcDbLine
 10
55.9684188383
 20
587.4114213459
 30
0.0
 11
55.9684188383
 21
587.411453718
 31
0.0
  0
SPLINE
  5
112
330
75
100
AcDbEntity
  8
$DDT_AUDIT_GENERATED_(9D)
  6
Continuous
 62
     7
100
AcDbSpline
210
0.0
220
0.0
230
1.0
 70
     8
 71
     3
 72
    12
 73
     8
 74
     0
 42
0.0000000398259613
 43
0.0000000001
 40
0.0
 40
0.0
 40
0.0
 40
0.0
 40
0.1955292385897671
 40
0.3627124606601189
 40
0.5019269665082876
 40
0.7678411861689918
 40
1.0
 40
1.0
 40
1.0
 40
1.0
 10
55.81988764949125
 20
587.254431538867
 30
0.0
 10
55.8224077963841
 20
587.2703009483246
 30
0.0
 10
55.82708274263222
 20
587.2997391673608
 30
0.0
 10
55.84289474963342
 20
587.3382024129282
 30
0.0
 10
55.86767073443287
 20
587.3779172323494
 30
0.0
 10
55.907837635714
 20
587.4162039546318
 30
0.0
 10
55.9491585715871
 20
587.4227216098831
 30
0.0
 10
55.96841883828219
 20
587.4257595802417
 30
0.0
  0
ARC
  5
113
330
75
100
AcDbEntity
  8
$DDT_AUDIT_GENERATED_(9D)
  6
Continuous
 62
     7
100
AcDbCircle
 10
59.263240145
 20
587.1214759836
 30
0.0
 40
0.1069650956624687
100
AcDbArc
 50
290.4801958168
 51
357.2817777573
  0
SPLINE
  5
114
330
75
100
AcDbEntity
  8
$DDT_AUDIT_GENERATED_(9D)
  6
Continuous
 62
     7
100
AcDbSpline
210
0.0
220
0.0
230
1.0
 70
     8
 71
     3
 72
    23
 73
    19
 74
     0
 42
0.0000001004993358
 43
0.0000000001
 40
0.0
 40
0.0
 40
0.0
 40
0.0
 40
0.0156062362411757
 40
0.0156062362411757
 40
0.0156062362411757
 40
0.123055851542785
 40
0.123055851542785
 40
0.123055851542785
 40
0.3710581506536077
 40
0.3710581506536077
 40
0.3710581506536077
 40
0.5904035263269317
 40
0.5904035263269317
 40
0.5904035263269317
 40
0.794697327116361
 40
0.794697327116361
 40
0.794697327116361
 40
1.0
 40
1.0
 40
1.0
 40
1.0
 10
60.15847390978859
 20
587.1596925170203
 30
0.0
 10
60.15814778263035
 20
587.1597600427054
 30
0.0
 10
60.15782054004483
 20
587.1598332815604
 30
0.0
 10
60.15749227094079
 20
587.1599122175178
 30
0.0
 10
60.15523212388167
 20
587.1604556950168
 30
0.0
 10
60.15291780324897
 20
587.1612712315288
 30
0.0
 10
60.1505770734197
 20
587.1623514835853
 30
0.0
 10
60.14522436980918
 20
587.164821768285
 30
0.0
 10
60.13964153291189
 20
587.1687381191678
 30
0.0
 10
60.13420333637102
 20
587.1739364757292
 30
0.0
 10
60.12938758433987
 20
587.1785398393594
 30
0.0
 10
60.12458297940531
 20
587.1842503857363
 30
0.0
 10
60.12012100388905
 20
587.1908088526254
 30
0.0
 10
60.11596625772191
 20
587.1969157362403
 30
0.0
 10
60.11201854018034
 20
587.2039001729421
 30
0.0
 10
60.10860277374855
 20
587.2113397620338
 30
0.0
 10
60.10517717124438
 20
587.2188007742348
 30
0.0
 10
60.10220298372878
 20
587.226923410298
 30
0.0
 10
60.09998914284071
 20
587.2350165103735
 30
0.0
  0
ARC
  5
115
330
75
100
AcDbEntity
  8
$DDT_AUDIT_GENERATED_(9D)
  6
Continuous
 62
     7
100
AcDbCircle
 10
60.1674228403
 20
587.2533303443
 30
0.0
 40
0.0698763197841481
100
AcDbArc
 50
179.9438158594
 51
195.1940684739
  0
SPLINE
  5
116
330
75
100
AcDbEntity
  8
$DDT_AUDIT_GENERATED_(9D)
  6
Continuous
 62
     7
100
AcDbSpline
210
0.0
220
0.0
230
1.0
 70
     8
 71
     3
 72
    17
 73
    13
 74
     0
 42
0.0000000699052076
 43
0.0000000001
 40
0.0
 40
0.0
 40
0.0
 40
0.0
 40
0.0134069554960856
 40
0.0134069554960856
 40
0.0134069554960856
 40
0.07726643895601
 40
0.07726643895601
 40
0.07726643895601
 40
0.2974218571918285
 40
0.2974218571918285
 40
0.2974218571918285
 40
0.348622012834241
 40
0.348622012834241
 40
0.348622012834241
 40
0.348622012834241
 10
60.57038976871407
 20
587.4247345965847
 30
0.0
 10
60.56976242668433
 20
587.4246037115946
 30
0.0
 10
60.56913384905537
 20
587.424478262198
 30
0.0
 10
60.56850418883717
 20
587.4243582814394
 30
0.0
 10
60.56550501603462
 20
587.4237867938052
 30
0.0
 10
60.56247788357865
 20
587.4233388719488
 30
0.0
 10
60.55943948448311
 20
587.4230176587405
 30
0.0
 10
60.54907328983721
 20
587.4219217662865
 30
0.0
 10
60.53841520188072
 20
587.4223068924002
 30
0.0
 10
60.5281931666989
 20
587.4242526545023
 30
0.0
 10
60.52581271798663
 20
587.4247057723802
 30
0.0
 10
60.52344261939862
 20
587.4252463547438
 30
0.0
 10
60.52109435895141
 20
587.425873523829
 30
0.0
  0
LINE
  5
117
330
75
100
AcDbEntity
  8
$DDT_AUDIT_GENERATED_(9D)
  6
Continuous
 62
     7
100
AcDbLine
 10
59.3700848881
 20
587.1170880288
 30
0.0
 11
59.3700848881
 21
587.1164032566
 31
0.0
  0
LINE
  5
118
330
75
100
AcDbEntity
  8
$DDT_AUDIT_GENERATED_(9D)
  6
Continuous
 62
     7
100
AcDbLine
 10
59.3700848881
 20
587.4154639814
 30
0.0
 11
59.3700848881
 21
587.1170880288
 31
0.0
  0
ARC
  5
119
330
75
100
AcDbEntity
  8
$DDT_AUDIT_GENERATED_(9D)
  6
Continuous
 62
     7
100
AcDbCircle
 10
59.2747526408
 20
586.8355528323
 30
0.0
 40
0.0953566370579111
100
AcDbArc
 50
285.7682231868
 51
358.7040895602
  0
SPLINE
  5
11A
330
75
100
AcDbEntity
  8
$DDT_AUDIT_GENERATED_(9D)
  6
Continuous
 62
     7
100
AcDbSpline
210
0.0
220
0.0
230
1.0
 70
     8
 71
     3
 72
    23
 73
    19
 74
     0
 42
0.0000000972639084
 43
0.0000000001
 40
0.0
 40
0.0
 40
0.0
 40
0.0
 40
0.0147331905027305
 40
0.0147331905027305
 40
0.0147331905027305
 40
0.2008673160661813
 40
0.2008673160661813
 40
0.2008673160661813
 40
0.4253228734765481
 40
0.4253228734765481
 40
0.4253228734765481
 40
0.6240936264382089
 40
0.6240936264382089
 40
0.6240936264382089
 40
0.8116600803921947
 40
0.8116600803921947
 40
0.8116600803921947
 40
1.0
 40
1.0
 40
1.0
 40
1.0
 10
60.15847390978859
 20
586.880959297372
 30
0.0
 10
60.15815572764019
 20
586.8809763109599
 30
0.0
 10
60.15783644246654
 20
586.8809990756871
 30
0.0
 10
60.1575161391604
 20
586.8810275864082
 30
0.0
 10
60.15346953596249
 20
586.8813877811773
 30
0.0
 10
60.14922827079
 20
586.8826765911919
 30
0.0
 10
60.14496127727121
 20
586.8848681657158
 30
0.0
 10
60.1398362477881
 20
586.8875004368923
 30
0.0
 10
60.13457124588048
 20
586.891498636418
 30
0.0
 10
60.12951642623722
 20
586.8967214351112
 30
0.0
 10
60.12503559105235
 20
586.9013511750029
 30
0.0
 10
60.12062675389141
 20
586.907045090131
 30
0.0
 10
60.11660346604635
 20
586.913545356216
 30
0.0
 10
60.11280906189982
 20
586.9196758240166
 30
0.0
 10
60.10927512351875
 20
586.9266689507165
 30
0.0
 10
60.10630533348587
 20
586.9340811664854
 30
0.0
 10
60.10332855043812
 20
586.9415108359242
 30
0.0
 10
60.10084668946124
 20
586.9495627687049
 30
0.0
 10
60.09911159601344
 20
586.9575474608322
 30
0.0
  0
ARC
  5
11B
330
75
100
AcDbEntity
  8
$DDT_AUDIT_GENERATED_(9D)
  6
Continuous
 62
     7
100
AcDbCircle
 10
60.1666543766
 20
586.9721724645
 30
0.0
 40
0.069108016513838
100
AcDbArc
 50
179.985678707
 51
192.2176150729
  0
ELLIPSE
  5
11C
330
75
100
AcDbEntity
  8
$DDT_AUDIT_GENERATED_(9D)
  6
Continuous
 62
     7
100
AcDbEllipse
 10
59.0503622294
 20
602.8496307784
 30
0.0
 11
-0.8216070648936261
 21
-16.32784195290379
 31
0.0
210
0.0
220
0.0
230
1.0
 40
0.4980973485
 41
0.2366615588894588
 42
0.2877234651638285
  0
LINE
  5
11D
330
75
100
AcDbEntity
  8
$DDT_AUDIT_GENERATED_(9D)
  6
Continuous
 62
     7
100
AcDbLine
 10
59.3700848881
 20
587.0037718158
 30
0.0
 11
59.3700848881
 21
586.8333962489
 31
0.0
  0
ELLIPSE
  5
11E
330
75
100
AcDbEntity
  8
$DDT_AUDIT_GENERATED_(9D)
  6
Continuous
 62
     7
100
AcDbEllipse
 10
60.3644318392
 20
603.1101823356
 30
0.0
 11
0.8075424813845048
 21
-16.04833555559204
 31
0.0
210
0.0
220
0.0
230
1.0
 40
0.4980973493
 41
-0.1263192018022101
 42
-0.0750440496340934
  0
ELLIPSE
  5
11F
330
75
100
AcDbEntity
  8
$DDT_AUDIT_GENERATED_(9D)
  6
Continuous
 62
     7
100
AcDbEllipse
 10
59.707397036
 20
603.0771207626
 30
0.0
 11
-0.8154969420544015
 21
16.20641500622072
 31
0.0
210
0.0
220
0.0
230
1.0
 40
0.498097349
 41
3.096535826822019
 42
3.147478183521441
  0
SPLINE
  5
120
330
75
100
AcDbEntity
  8
$DDT_AUDIT_GENERATED_(9D)
  6
Continuous
 62
     7
100
AcDbSpline
210
0.0
220
0.0
230
1.0
 70
     8
 71
     3
 72
    23
 73
    19
 74
     0
 42
0.0000000942149543
 43
0.0000000001
 40
0.0
 40
0.0
 40
0.0
 40
0.0
 40
0.1737950968723478
 40
0.1737950968723478
 40
0.1737950968723478
 40
0.3470492566759332
 40
0.3470492566759332
 40
0.3470492566759332
 40
0.5280108639272472
 40
0.5280108639272472
 40
0.5280108639272472
 40
0.7312583917666897
 40
0.7312583917666897
 40
0.7312583917666897
 40
0.9860722210557621
 40
0.9860722210557621
 40
0.9860722210557621
 40
1.0
 40
1.0
 40
1.0
 40
1.0
 10
60.09843634882942
 20
586.8216212560011
 30
0.0
 10
60.09971816179266
 20
586.813736792704
 30
0.0
 10
60.10172745003892
 20
586.8057480618629
 30
0.0
 10
60.10427028203616
 20
586.7983397564134
 30
0.0
 10
60.10680873624506
 20
586.7909442052445
 30
0.0
 10
60.10993987726032
 20
586.7839291621981
 30
0.0
 10
60.113383800566
 20
586.7777644213379
 30
0.0
 10
60.11698394423585
 20
586.7713200406666
 30
0.0
 10
60.1210081886795
 20
586.7656416611226
 30
0.0
 10
60.12515918631737
 20
586.7609922651661
 30
0.0
 10
60.12981798259214
 20
586.7557741006544
 30
0.0
 10
60.13474375345317
 20
586.7517227384537
 30
0.0
 10
60.13960682503491
 20
586.7489642131322
 30
0.0
 10
60.14567891701707
 20
586.7455198839245
 30
0.0
 10
60.15182377862715
 20
586.7439955018597
 30
0.0
 10
60.15753765355088
 20
586.7444085044353
 30
0.0
 10
60.15785077162345
 20
586.7444311368121
 30
0.0
 10
60.15816288370247
 20
586.7444594901567
 30
0.0
 10
60.15847390978859
 20
586.7444935557919
 30
0.0
  0
ELLIPSE
  5
121
330
75
100
AcDbEntity
  8
$DDT_AUDIT_GENERATED_(9D)
  6
Continuous
 62
     7
100
AcDbEllipse
 10
59.7073970366
 20
602.8165691339
 30
0.0
 11
-0.815496942727462
 21
-16.20641499278192
 31
0.0
210
0.0
220
0.0
230
0.9999999999999999
 40
0.4980973492
 41
0.1563064245904262
 42
0.2072487813115899
  0
ARC
  5
122
330
75
100
AcDbEntity
  8
$DDT_AUDIT_GENERATED_(9D)
  6
Continuous
 62
     7
100
AcDbCircle
 10
60.1663847628
 20
586.8326553402
 30
0.0
 40
0.0688384919888763
100
AcDbArc
 50
180.0035653465
 51
189.2236974413
  0
LINE
  5
123
330
75
100
AcDbEntity
  8
$DDT_AUDIT_GENERATED_(9D)
  6
Continuous
 62
     7
100
AcDbLine
 10
59.3700848881
 20
586.7292443145
 30
0.0
 11
59.3700848881
 21
586.6902052148
 31
0.0
  0
ARC
  5
124
330
75
100
AcDbEntity
  8
$DDT_AUDIT_GENERATED_(9D)
  6
Continuous
 62
     7
100
AcDbCircle
 10
59.2852821264
 20
586.6907519923
 30
0.0
 40
0.0848045243889026
100
AcDbArc
 50
280.4511864431
 51
359.6305827173
  0
ELLIPSE
  5
125
330
75
100
AcDbEntity
  8
$DDT_AUDIT_GENERATED_(9D)
  6
Continuous
 62
     7
100
AcDbEllipse
 10
57.118418837
 20
602.8846628938
 30
0.0
 11
16.48456781703591
 21
-2.870870763338473E-7
 31
0.0
210
0.0
220
0.0
230
1.0
 40
0.9961946983
 41
4.8451599238236
 42
4.897868920071687
  0
SPLINE
  5
126
330
75
100
AcDbEntity
  8
$DDT_AUDIT_GENERATED_(9D)
  6
Continuous
 62
     7
100
AcDbSpline
210
0.0
220
0.0
230
1.0
 70
     8
 71
     3
 72
    23
 73
    19
 74
     0
 42
0.0000000963690871
 43
0.0000000001
 40
0.0
 40
0.0
 40
0.0
 40
0.0
 40
0.1813354540672395
 40
0.1813354540672395
 40
0.1813354540672395
 40
0.3620228316325638
 40
0.3620228316325638
 40
0.3620228316325638
 40
0.5520203820127662
 40
0.5520203820127662
 40
0.5520203820127662
 40
0.7657110507162554
 40
0.7657110507162554
 40
0.7657110507162554
 40
0.9855828652559334
 40
0.9855828652559334
 40
0.9855828652559334
 40
1.0
 40
1.0
 40
1.0
 40
1.0
 10
61.40771742195854
 20
587.1682485263433
 30
0.0
 10
61.40987180269202
 20
587.1604513729934
 30
0.0
 10
61.41275464889183
 20
587.1526264398793
 30
0.0
 10
61.41608956907725
 20
587.145441690853
 30
0.0
 10
61.41941777036742
 20
587.1382714170086
 30
0.0
 10
61.42327814984206
 20
587.1315453394133
 30
0.0
 10
61.42734589066409
 20
587.1256973942924
 30
0.0
 10
61.43162616436268
 20
587.1195439035008
 30
0.0
 10
61.43623575732126
 20
587.1142065751868
 30
0.0
 10
61.44085311618428
 20
587.1099230328074
 30
0.0
 10
61.44604182384253
 20
587.1051094478538
 30
0.0
 10
61.45136190369715
 20
587.1015064167756
 30
0.0
 10
61.45646935694974
 20
587.0992219908604
 30
0.0
 10
61.46172694516995
 20
587.0968704136286
 30
0.0
 10
61.46687536189259
 20
587.0958585276678
 30
0.0
 10
61.4716170580876
 20
587.0961920118845
 30
0.0
 10
61.47192739955548
 20
587.0962138382473
 30
0.0
 10
61.47223624664998
 20
587.0962413617782
 30
0.0
 10
61.47254351607904
 20
587.0962745727525
 30
0.0
  0
ELLIPSE
  5
127
330
75
100
AcDbEntity
  8
$DDT_AUDIT_GENERATED_(9D)
  6
Continuous
 62
     7
100
AcDbEllipse
 10
60.3644318422
 20
602.7835075183
 30
0.0
 11
-0.8075424853446131
 21
-16.04833553647644
 31
0.0
210
0.0
220
0.0
230
1.0
 40
0.4980973495
 41
0.2390449553213224
 42
0.2910206491656491
  0
ARC
  5
128
330
75
100
AcDbEntity
  8
$DDT_AUDIT_GENERATED_(9D)
  6
Continuous
 62
     7
100
AcDbCircle
 10
61.4743134076
 20
587.1865632823
 30
0.0
 40
0.0690684848068072
100
AcDbArc
 50
179.9910639494
 51
195.3769390335
  0
ELLIPSE
  5
129
330
75
100
AcDbEntity
  8
$DDT_AUDIT_GENERATED_(9D)
  6
Continuous
 62
     7
100
AcDbEllipse
 10
61.0214666438
 20
603.1432439076
 30
0.0
 11
-0.7976885136703302
 21
15.85250713208203
 31
0.0
210
0.0
220
0.0
230
1.0
 40
0.4980973496
 41
3.097778978260459
 42
3.149866654077001
  0
SPLINE
  5
12A
330
75
100
AcDbEntity
  8
$DDT_AUDIT_GENERATED_(9D)
  6
Continuous
 62
     7
100
AcDbSpline
210
0.0
220
0.0
230
1.0
 70
     8
 71
     3
 72
    23
 73
    19
 74
     0
 42
0.000000109664726
 43
0.0000000001
 40
0.0
 40
0.0
 40
0.0
 40
0.0
 40
0.2139262134739454
 40
0.2139262134739454
 40
0.2139262134739454
 40
0.4266928330392
 40
0.4266928330392
 40
0.4266928330392
 40
0.6570550243218339
 40
0.6570550243218339
 40
0.6570550243218339
 40
0.9182788105059148
 40
0.9182788105059148
 40
0.9182788105059148
 40
0.9838472556305048
 40
0.9838472556305048
 40
0.9838472556305048
 40
1.0
 40
1.0
 40
1.0
 40
1.0
 10
60.67857158729974
 20
586.9742600573287
 30
0.0
 10
60.67947237573252
 20
586.9658168690338
 30
0.0
 10
60.67955767675139
 20
586.9573068112755
 30
0.0
 10
60.67889102477221
 20
586.9494559250184
 30
0.0
 10
60.67822650356612
 20
586.9416301319998
 30
0.0
 10
60.67680812105193
 20
586.9342459610184
 30
0.0
 10
60.67481658903265
 20
586.9277424272824
 30
0.0
 10
60.67266014908176
 20
586.9207003713001
 30
0.0
 10
60.66978613991081
 20
586.9145158723076
 30
0.0
 10
60.66644670643027
 20
586.9094751551387
 30
0.0
 10
60.66266511224033
 20
586.9037670172554
 30
0.0
 10
60.65819710810489
 20
586.8993831335736
 30
0.0
 10
60.65338217520353
 20
586.8965306241556
 30
0.0
 10
60.65216051228006
 20
586.8958068747147
 30
0.0
 10
60.65091229741533
 20
586.8951774385166
 30
0.0
 10
60.64964289599419
 20
586.8946445957874
 30
0.0
 10
60.64933382498575
 20
586.8945148604358
 30
0.0
 10
60.64902343464565
 20
586.8943908186473
 30
0.0
 10
60.64871179822808
 20
586.8942724998051
 30
0.0
  0
ELLIPSE
  5
12B
330
75
100
AcDbEntity
  8
$DDT_AUDIT_GENERATED_(9D)
  6
Continuous
 62
     7
100
AcDbEllipse
 10
57.1184188489
 20
602.9507860262
 30
0.0
 11
16.49993801351786
 21
1.312313452350722E-6
 31
0.0
210
0.0
220
0.0
230
1.0
 40
0.9961946969
 41
4.928013855491624
 42
4.979439086496948
  0
ARC
  5
12C
330
75
100
AcDbEntity
  8
$DDT_AUDIT_GENERATED_(9D)
  6
Continuous
 62
     7
100
AcDbCircle
 10
60.8190789009
 20
586.9891679314
 30
0.0
 40
0.1412959655837935
100
AcDbArc
 50
179.9776075339
 51
186.0564432704
  0
ELLIPSE
  5
12D
330
75
100
AcDbEntity
  8
$DDT_AUDIT_GENERATED_(9D)
  6
Continuous
 62
     7
100
AcDbEllipse
 10
59.7857190652
 20
603.0810618862
 30
0.0
 11
-0.8146464944153285
 21
16.18951401575411
 31
0.0
210
0.0
220
0.0
230
1.0
 40
0.4980973489
 41
3.09659395624435
 42
3.147589857733304
  0
ELLIPSE
  5
12E
330
75
100
AcDbEntity
  8
$DDT_AUDIT_GENERATED_(9D)
  6
Continuous
 62
     7
100
AcDbEllipse
 10
59.1286842607
 20
602.8456896407
 30
0.0
 11
-0.8209740612045575
 21
-16.31526216544957
 31
0.0
210
0.0
220
0.0
230
1.0
 40
0.4980973488
 41
0.2367670573031784
 42
0.2878693904160332
  0
ELLIPSE
  5
12F
330
75
100
AcDbEntity
  8
$DDT_AUDIT_GENERATED_(9D)
  6
Continuous
 62
     7
100
AcDbEllipse
 10
59.0503622352
 20
603.0440591402
 30
0.0
 11
0.8216070675066064
 21
-16.32784188241121
 31
0.0
210
0.0
220
0.0
230
0.9999999999999999
 40
0.4980973495
 41
0.0352983082021314
 42
0.0784632022385107
  0
ELLIPSE
  5
130
330
75
100
AcDbEntity
  8
$DDT_AUDIT_GENERATED_(9D)
  6
Continuous
 62
     7
100
AcDbEllipse
 10
57.1184188438
 20
602.8767806179
 30
0.0
 11
16.48040496857848
 21
5.057686491838354E-7
 31
0.0
210
0.0
220
0.0
230
1.0
 40
0.9961946971
 41
4.84519361114447
 42
4.897916267793393
  0
ELLIPSE
  5
131
330
75
100
AcDbEntity
  8
$DDT_AUDIT_GENERATED_(9D)
  6
Continuous
 62
     7
100
AcDbEllipse
 10
61.0214666418
 20
602.7504459739
 30
0.0
 11
-0.7976885140703778
 21
-15.85250717967374
 31
0.0
210
0.0
220
0.0
230
0.9999999999999997
 40
0.4980973489
 41
0.1575495758981174
 42
0.2096372516368474
  0
ELLIPSE
  5
132
330
75
100
AcDbEntity
  8
$DDT_AUDIT_GENERATED_(9D)
  6
Continuous
 62
     7
100
AcDbEllipse
 10
60.3644318392
 20
603.1101823516
 30
0.0
 11
0.8075424811856735
 21
-16.0483355715588
 31
0.0
210
0.0
220
0.0
230
1.0
 40
0.498097349
 41
0.0376817036085281
 42
0.0896573973945089
  0
ELLIPSE
  5
133
330
75
100
AcDbEntity
  8
$DDT_AUDIT_GENERATED_(9D)
  6
Continuous
 62
     7
100
AcDbEllipse
 10
57.1184188351
 20
602.8185397155
 30
0.0
 11
16.43419639080097
 21
-6.060389412532174E-7
 31
0.0
210
0.0
220
0.0
230
1.0
 40
0.9961946984
 41
4.928890241226684
 42
4.980533787817576
  0
ELLIPSE
  5
134
330
75
100
AcDbEntity
  8
$DDT_AUDIT_GENERATED_(9D)
  6
Continuous
 62
     7
100
AcDbEllipse
 10
57.1184188482
 20
602.942903795
 30
0.0
 11
16.49993801500084
 21
1.181074793521475E-6
 31
0.0
210
0.0
220
0.0
230
1.0
 40
0.996194697
 41
4.928013863437618
 42
4.979439094438979
  0
ELLIPSE
  5
135
330
75
100
AcDbEntity
  8
$DDT_AUDIT_GENERATED_(9D)
  6
Continuous
 62
     7
100
AcDbEllipse
 10
59.1286842602
 20
603.0480003134
 30
0.0
 11
0.8209740664224894
 21
-16.31526217210833
 31
0.0
210
0.0
220
0.0
230
1.0
 40
0.4980973486
 41
0.0354038062298034
 42
0.0865061393329584
  0
ELLIPSE
  5
136
330
75
100
AcDbEntity
  8
$DDT_AUDIT_GENERATED_(9D)
  6
Continuous
 62
     7
100
AcDbEllipse
 10
59.7857190671
 20
602.8126279916
 30
0.0
 11
-0.8146464965547929
 21
-16.18951397006077
 31
0.0
210
0.0
220
0.0
230
1.0
 40
0.4980973496
 41
0.1563645542145655
 42
0.2073604557757276
  0
SPLINE
  5
137
330
75
100
AcDbEntity
  8
$DDT_AUDIT_GENERATED_(9D)
  6
Continuous
 62
     7
100
AcDbSpline
210
0.0
220
0.0
230
1.0
 70
    12
 71
     3
 72
     8
 73
     4
 74
     0
 42
0.000000087163999
 43
0.0000000001
 40
0.0
 40
0.0
 40
0.0
 40
0.0
 40
1.0
 40
1.0
 40
1.0
 40
1.0
 10
62.71294294672968
 20
587.4757614205453
 30
0.0
 41
1.0
 10
62.71294294672968
 20
587.429076833075
 30
0.0
 41
0.8047378541243649
 10
62.73207465166872
 20
587.393177757443
 30
0.0
 41
0.8047378541243649
 10
62.75913096826484
 20
587.389093385278
 30
0.0
 41
1.0
  0
LINE
  5
138
330
75
100
AcDbEntity
  8
$DDT_AUDIT_GENERATED_(9D)
  6
Continuous
 62
     7
100
AcDbLine
 10
63.1690496594
 20
587.4509739626
 30
0.0
 11
62.7591309683
 21
587.3890933853
 31
0.0
  0
LINE
  5
139
330
75
100
AcDbEntity
  8
$DDT_AUDIT_GENERATED_(9D)
  6
Continuous
 62
     7
100
AcDbLine
 10
62.7591309683
 20
587.3890933853
 30
0.0
 11
62.5864417535
 21
587.3890933853
 31
0.0
  0
ELLIPSE
  5
13A
330
75
100
AcDbEntity
  8
$DDT_AUDIT_GENERATED_(9D)
  6
Continuous
 62
     7
100
AcDbEllipse
 10
57.1184188338
 20
602.7524165329
 30
0.0
 11
16.34850023314267
 21
-4.968001288130353E-7
 31
0.0
210
0.0
220
0.0
230
1.0
 40
0.9961946984
 41
5.013224701865777
 42
5.066450640769187
  0
ELLIPSE
  5
13B
330
75
100
AcDbEntity
  8
$DDT_AUDIT_GENERATED_(9D)
  6
Continuous
 62
     7
100
AcDbEllipse
 10
61.0214666466
 20
603.1432439087
 30
0.0
 11
0.7976885099521326
 21
-15.85250713322456
 31
0.0
210
0.0
220
0.0
230
1.0
 40
0.4980973496
 41
0.1236089745564107
 42
0.1592607648832221
  0
ELLIPSE
  5
13C
330
75
100
AcDbEntity
  8
$DDT_AUDIT_GENERATED_(9D)
  6
Continuous
 62
     7
100
AcDbEllipse
 10
57.1184188389
 20
602.8767806504
 30
0.0
 11
16.48040498528126
 21
4.136332942827892E-8
 31
0.0
210
0.0
220
0.0
230
1.0
 40
0.996194698
 41
5.010742446870838
 42
5.063493734163057
  0
ELLIPSE
  5
13D
330
75
100
AcDbEntity
  8
$DDT_AUDIT_GENERATED_(9D)
  6
Continuous
 62
     7
100
AcDbEllipse
 10
61.0997886714
 20
602.7465048557
 30
0.0
 11
-0.7963839762190091
 21
-15.82658202453976
 31
0.0
210
0.0
220
0.0
230
1.0
 40
0.4980973489
 41
0.1674291431398007
 42
0.2098164406959903
  0
SPLINE
  5
13E
330
75
100
AcDbEntity
  8
$DDT_AUDIT_GENERATED_(9D)
  6
Continuous
 62
     7
100
AcDbSpline
210
0.0
220
0.0
230
1.0
 70
     8
 71
     3
 72
    20
 73
    16
 74
     0
 42
0.0000001074104846
 43
0.0000000001
 40
0.0
 40
0.0
 40
0.0
 40
0.0
 40
0.2340632340694057
 40
0.2340632340694057
 40
0.2340632340694057
 40
0.4666143199014029
 40
0.4666143199014029
 40
0.4666143199014029
 40
0.7231381771327945
 40
0.7231381771327945
 40
0.7231381771327945
 40
0.9830671184268285
 40
0.9830671184268285
 40
0.9830671184268285
 40
1.0
 40
1.0
 40
1.0
 40
1.0
 10
60.6779897515589
 20
587.5392989507352
 30
0.0
 10
60.67846334215643
 20
587.5305041070519
 30
0.0
 10
60.67808946627699
 20
587.5215584928123
 30
0.0
 10
60.67699476285946
 20
587.5132308465288
 30
0.0
 10
60.6759042992924
 20
587.5049354537074
 30
0.0
 10
60.67408153820703
 20
587.4970272067925
 30
0.0
 10
60.67173409504313
 20
587.4899606385678
 30
0.0
 10
60.66914533892818
 20
587.4821676397917
 30
0.0
 10
60.66586208363355
 20
587.47520756419
 30
0.0
 10
60.66215515796982
 20
587.4694170946645
 30
0.0
 10
60.65839602076321
 20
587.463545067165
 30
0.0
 10
60.65412450311753
 20
587.4587471580885
 30
0.0
 10
60.64959746689775
 20
587.4552436251713
 30
0.0
 10
60.64930348093092
 20
587.455016105562
 30
0.0
 10
60.64900823580284
 20
587.4547938232935
 30
0.0
 10
60.64871179822808
 20
587.4545768294367
 30
0.0
  0
SPLINE
  5
13F
330
75
100
AcDbEntity
  8
$DDT_AUDIT_GENERATED_(9D)
  6
Continuous
 62
     7
100
AcDbSpline
210
0.0
220
0.0
230
1.0
 70
    12
 71
     2
 72
     6
 73
     3
 74
     0
 42
0.0000012973461371
 43
0.0000000001
 40
0.0
 40
0.0
 40
0.0
 40
1.0
 40
1.0
 40
1.0
 10
60.67798975155893
 20
587.5392989507352
 30
0.0
 41
1.0
 10
60.67778269535151
 20
587.5431547723811
 30
0.0
 41
1.0
 10
60.67778324783626
 20
587.5470014384224
 30
0.0
 41
1.0
  0
ARC
  5
140
330
75
100
AcDbEntity
  8
$DDT_AUDIT_GENERATED_(9D)
  6
Continuous
 62
     7
100
AcDbCircle
 10
60.2253715527
 20
587.6737459315
 30
0.0
 40
0.0894055913061255
100
AcDbArc
 50
277.3414163236
 51
309.5433873646
  0
ELLIPSE
  5
141
330
75
100
AcDbEntity
  8
$DDT_AUDIT_GENERATED_(9D)
  6
Continuous
 62
     7
100
AcDbEllipse
 10
60.4427538667
 20
603.1141234928
 30
0.0
 11
0.8064687982041506
 21
-16.02699819099526
 31
0.0
210
0.0
220
0.0
230
1.0
 40
0.4980973487
 41
0.0378670993548114
 42
0.0899139150627002
  0
SPLINE
  5
142
330
75
100
AcDbEntity
  8
$DDT_AUDIT_GENERATED_(9D)
  6
Continuous
 62
     7
100
AcDbSpline
210
0.0
220
0.0
230
1.0
 70
     8
 71
     3
 72
    20
 73
    16
 74
     0
 42
0.0000001177255389
 43
0.0000000001
 40
0.0
 40
0.0
 40
0.0
 40
0.0
 40
0.0168331597670308
 40
0.0168331597670308
 40
0.0168331597670308
 40
0.3075917997227487
 40
0.3075917997227487
 40
0.3075917997227487
 40
0.5508047710080983
 40
0.5508047710080983
 40
0.5508047710080983
 40
0.7747798687864055
 40
0.7747798687864055
 40
0.7747798687864055
 40
1.0
 40
1.0
 40
1.0
 40
1.0
 10
61.96278140451853
 20
587.187936667752
 30
0.0
 10
61.96309043398686
 20
587.1880550840165
 30
0.0
 10
61.96339770970696
 20
587.1881792459668
 30
0.0
 10
61.96370315860342
 20
587.1883091242329
 30
0.0
 10
61.96897916779844
 20
587.1905525074445
 30
0.0
 10
61.97377542204801
 20
587.1945669391869
 30
0.0
 10
61.97768139080631
 20
587.2001211558544
 30
0.0
 10
61.98095827891148
 20
587.2047808312531
 30
0.0
 10
61.98368176777128
 20
587.2106291728599
 30
0.0
 10
61.98560370903786
 20
587.2173930636135
 30
0.0
 10
61.98737374076595
 20
587.223622338903
 30
0.0
 10
61.98849805265424
 20
587.2307715325356
 30
0.0
 10
61.98881088525712
 20
587.2384251505282
 30
0.0
 10
61.98912474778225
 20
587.2461039661225
 30
0.0
 10
61.9886184513347
 20
587.2545018804431
 30
0.0
 10
61.98725554749397
 20
587.2629124636314
 30
0.0
  0
ELLIPSE
  5
143
330
75
100
AcDbEntity
  8
$DDT_AUDIT_GENERATED_(9D)
  6
Continuous
 62
     7
100
AcDbEllipse
 10
62.0213254121
 20
587.2799583058
 30
0.0
 11
0.003602728531180814
 21
-0.07159721970481647
 31
0.0
210
0.0
220
0.0
230
1.0
 40
0.498097349
 41
4.609363925938474
 42
4.927641496724726
  0
ELLIPSE
  5
144
330
75
100
AcDbEntity
  8
$DDT_AUDIT_GENERATED_(9D)
  6
Continuous
 62
     7
100
AcDbEllipse
 10
57.1184188384
 20
602.8846628854
 30
0.0
 11
16.48456781251446
 21
4.991926316755269E-8
 31
0.0
210
0.0
220
0.0
230
1.0
 40
0.9961946981
 41
5.010664786365162
 42
5.063401238767979
  0
SPLINE
  5
145
330
75
100
AcDbEntity
  8
$DDT_AUDIT_GENERATED_(9D)
  6
Continuous
 62
     7
100
AcDbSpline
210
0.0
220
0.0
230
1.0
 70
     8
 71
     3
 72
    23
 73
    19
 74
     0
 42
0.0000000954765494
 43
0.0000000001
 40
0.0
 40
0.0
 40
0.0
 40
0.0
 40
0.014052373412183
 40
0.014052373412183
 40
0.014052373412183
 40
0.2656648167510071
 40
0.2656648167510071
 40
0.2656648167510071
 40
0.4692318347639193
 40
0.4692318347639193
 40
0.4692318347639193
 40
0.65102947683897
 40
0.65102947683897
 40
0.65102947683897
 40
0.8252501907847084
 40
0.8252501907847084
 40
0.8252501907847084
 40
1.0
 40
1.0
 40
1.0
 40
1.0
 10
62.78661312236951
 20
587.4641433415802
 30
0.0
 10
62.78632261417577
 20
587.4640604981702
 30
0.0
 10
62.78603005848741
 20
587.463983203598
 30
0.0
 10
62.7857355355337
 20
587.4639114809905
 30
0.0
 10
62.78046200359493
 20
587.4626272637287
 30
0.0
 10
62.77446352227759
 20
587.4631458273586
 30
0.0
 10
62.7682078464117
 20
587.465524518592
 30
0.0
 10
62.76312761468903
 20
587.4674562527359
 30
0.0
 10
62.75776320267419
 20
587.4706579060049
 30
0.0
 10
62.75245119108372
 20
587.4750530938733
 30
0.0
 10
62.74770383068613
 20
587.4789810862112
 30
0.0
 10
62.74289888846307
 20
587.4839506524188
 30
0.0
 10
62.7383658994123
 20
587.4897445654535
 30
0.0
 10
62.73402537042539
 20
587.495292482555
 30
0.0
 10
62.72983630066115
 20
587.5017322507966
 30
0.0
 10
62.72614582269586
 20
587.5086409656975
 30
0.0
 10
62.72244915482726
 20
587.5155612683325
 30
0.0
 10
62.71916008102477
 20
587.5231386853164
 30
0.0
 10
62.71658018118545
 20
587.5307279836985
 30
0.0
  0
ELLIPSE
  5
146
330
75
100
AcDbEntity
  8
$DDT_AUDIT_GENERATED_(9D)
  6
Continuous
 62
     7
100
AcDbEllipse
 10
60.4427538687
 20
602.7795664363
 30
0.0
 11
-0.8064687958328887
 21
-16.02699816654585
 31
0.0
210
0.0
220
0.0
230
1.0
 40
0.498097349
 41
0.2392303506873302
 42
0.2912771664350264
  0
ARC
  5
147
330
75
100
AcDbEntity
  8
$DDT_AUDIT_GENERATED_(9D)
  6
Continuous
 62
     7
100
AcDbCircle
 10
62.7820491235
 20
587.5528499392
 30
0.0
 40
0.069105450749822
100
AcDbArc
 50
180.0069570942
 51
198.6701108735
  0
ELLIPSE
  5
148
330
75
100
AcDbEntity
  8
$DDT_AUDIT_GENERATED_(9D)
  6
Continuous
 62
     7
100
AcDbEllipse
 10
61.6785014472
 20
602.7173843506
 30
0.0
 11
-0.785863595382887
 21
-15.61750983019236
 31
0.0
210
0.0
220
0.0
230
1.0
 40
0.4980973493
 41
0.2428874385258634
 42
0.2705330085118232
  0
SPLINE
  5
149
330
75
100
AcDbEntity
  8
$DDT_AUDIT_GENERATED_(9D)
  6
Continuous
 62
     7
100
AcDbSpline
210
0.0
220
0.0
230
1.0
 70
     8
 71
     3
 72
    20
 73
    16
 74
     0
 42
0.0000001162210273
 43
0.0000000001
 40
0.0
 40
0.0
 40
0.0
 40
0.0
 40
0.2358950215322883
 40
0.2358950215322883
 40
0.2358950215322883
 40
0.470369634470495
 40
0.470369634470495
 40
0.470369634470495
 40
0.7272598301672146
 40
0.7272598301672146
 40
0.7272598301672146
 40
0.9827660918235305
 40
0.9827660918235305
 40
0.9827660918235305
 40
1.0
 40
1.0
 40
1.0
 40
1.0
 10
61.98673632067101
 20
587.4023429601285
 30
0.0
 10
61.98789909623414
 20
587.393698917185
 30
0.0
 10
61.98819181974692
 20
587.3850295440085
 30
0.0
 10
61.98768091130316
 20
587.3770654103183
 30
0.0
 10
61.98717184343855
 20
587.3691299679101
 30
0.0
 10
61.98586350572658
 20
587.3616770287395
 30
0.0
 10
61.98393458428134
 20
587.3551325852613
 30
0.0
 10
61.98182176628674
 20
587.3479642176851
 30
0.0
 10
61.97891923772184
 20
587.3417079875707
 30
0.0
 10
61.97548301195347
 20
587.336663700548
 30
0.0
 10
61.9720615333575
 20
587.3316410619778
 30
0.0
 10
61.96804237906692
 20
587.3277094140407
 30
0.0
 10
61.96366876951024
 20
587.3250428469129
 30
0.0
 10
61.96337473877897
 20
587.3248635778967
 30
0.0
 10
61.9630789276945
 20
587.3246898292028
 30
0.0
 10
61.96278140451853
 20
587.3245216420423
 30
0.0
  0
ELLIPSE
  5
14A
330
75
100
AcDbEntity
  8
$DDT_AUDIT_GENERATED_(9D)
  6
Continuous
 62
     7
100
AcDbEllipse
 10
62.0215700414
 20
587.4158798012
 30
0.0
 11
0.003627313177534224
 21
-0.07208579170256413
 31
0.0
210
0.0
220
0.0
230
0.9999999999999999
 40
0.498097349
 41
4.609821308912797
 42
4.876179762563762
  0
ELLIPSE
  5
14B
330
75
100
AcDbEntity
  8
$DDT_AUDIT_GENERATED_(9D)
  6
Continuous
 62
     7
100
AcDbEllipse
 10
61.0997886712
 20
603.147185077
 30
0.0
 11
-0.7963839777080625
 21
15.82658203077109
 31
0.0
210
0.0
220
0.0
230
0.9999999999999999
 40
0.4980973488
 41
3.09787223320923
 42
3.15004584313001
  0
ELLIPSE
  5
14C
330
75
100
AcDbEntity
  8
$DDT_AUDIT_GENERATED_(9D)
  6
Continuous
 62
     7
100
AcDbEllipse
 10
59.7857190664
 20
602.8126280215
 30
0.0
 11
-0.8146464951424959
 21
-16.1895140000142
 31
0.0
210
0.0
220
0.0
230
0.9999999999999999
 40
0.4980973491
 41
0.3202259622391467
 42
0.3726285987922854
  0
SPLINE
  5
14D
330
75
100
AcDbEntity
  8
$DDT_AUDIT_GENERATED_(9D)
  6
Continuous
 62
     7
100
AcDbSpline
210
0.0
220
0.0
230
1.0
 70
     8
 71
     3
 72
    23
 73
    19
 74
     0
 42
0.0000001004993358
 43
0.0000000001
 40
0.0
 40
0.0
 40
0.0
 40
0.0
 40
0.2052693629068598
 40
0.2052693629068598
 40
0.2052693629068598
 40
0.4095300174071297
 40
0.4095300174071297
 40
0.4095300174071297
 40
0.6288398047012607
 40
0.6288398047012607
 40
0.6288398047012607
 40
0.8768018659003679
 40
0.8768018659003679
 40
0.8768018659003679
 40
0.9842340477017618
 40
0.9842340477017618
 40
0.9842340477017618
 40
1.0
 40
1.0
 40
1.0
 40
1.0
 10
54.13684853372369
 20
587.2350165103735
 30
0.0
 10
54.13463469283561
 20
587.226923410298
 30
0.0
 10
54.13166050532001
 20
587.2188007742348
 30
0.0
 10
54.12823490281584
 20
587.2113397620338
 30
0.0
 10
54.12481913638405
 20
587.2039001729421
 30
0.0
 10
54.12087141884248
 20
587.1969157362403
 30
0.0
 10
54.11671667267533
 20
587.1908088526254
 30
0.0
 10
54.11225469715907
 20
587.1842503857363
 30
0.0
 10
54.10745009222452
 20
587.1785398393594
 30
0.0
 10
54.10263434019335
 20
587.1739364757292
 30
0.0
 10
54.0971961436525
 20
587.1687381191678
 30
0.0
 10
54.0916133067552
 20
587.164821768285
 30
0.0
 10
54.08626060314469
 20
587.1623514835853
 30
0.0
 10
54.08391987331542
 20
587.1612712315288
 30
0.0
 10
54.08160555268287
 20
587.1604556950168
 30
0.0
 10
54.07934540562349
 20
587.1599122175178
 30
0.0
 10
54.0790171365194
 20
587.1598332815605
 30
0.0
 10
54.078689893934
 20
587.1597600427054
 30
0.0
 10
54.0783637667758
 20
587.1596925170203
 30
0.0
  0
ARC
  5
14E
330
75
100
AcDbEntity
  8
$DDT_AUDIT_GENERATED_(9D)
  6
Continuous
 62
     7
100
AcDbCircle
 10
54.9735975316
 20
587.1214759836
 30
0.0
 40
0.1069650956624013
100
AcDbArc
 50
182.7182222427
 51
249.5198041833
  0
LINE
  5
14F
330
75
100
AcDbEntity
  8
$DDT_AUDIT_GENERATED_(9D)
  6
Continuous
 62
     7
100
AcDbLine
 10
54.8667527884
 20
587.1170880288
 30
0.0
 11
54.8667527884
 21
587.415224831
 31
0.0
  0
LINE
  5
150
330
75
100
AcDbEntity
  8
$DDT_AUDIT_GENERATED_(9D)
  6
Continuous
 62
     7
100
AcDbLine
 10
54.8667527884
 20
587.1164032566
 30
0.0
 11
54.8667527884
 21
587.1170880288
 31
0.0
  0
SPLINE
  5
151
330
75
100
AcDbEntity
  8
$DDT_AUDIT_GENERATED_(9D)
  6
Continuous
 62
     7
100
AcDbSpline
210
0.0
220
0.0
230
1.0
 70
     8
 71
     3
 72
    17
 73
    13
 74
     0
 42
0.0000000699259003
 43
0.0000000001
 40
0.6483069266571913
 40
0.6483069266571913
 40
0.6483069266571913
 40
0.6483069266571913
 40
0.7024773388364433
 40
0.7024773388364433
 40
0.7024773388364433
 40
0.922601169780833
 40
0.922601169780833
 40
0.922601169780833
 40
0.9864514908586509
 40
0.9864514908586509
 40
0.9864514908586509
 40
1.0
 40
1.0
 40
1.0
 40
1.0
 10
53.71615284967721
 20
587.425983839323
 30
0.0
 10
53.71367073320261
 20
587.4253095360178
 30
0.0
 10
53.71116341611344
 20
587.4247321277411
 30
0.0
 10
53.70864450986549
 20
587.4242526545023
 30
0.0
 10
53.69842247468367
 20
587.4223068924002
 30
0.0
 10
53.68776438672717
 20
587.4219217662865
 30
0.0
 10
53.67739819208128
 20
587.4230176587405
 30
0.0
 10
53.67435979298573
 20
587.4233388719488
 30
0.0
 10
53.67133266052974
 20
587.4237867938052
 30
0.0
 10
53.66833348772717
 20
587.4243582814394
 30
0.0
 10
53.66770382750901
 20
587.424478262198
 30
0.0
 10
53.6670752498806
 20
587.4246037115972
 30
0.0
 10
53.66644790785031
 20
587.4247345965847
 30
0.0
  0
ARC
  5
152
330
75
100
AcDbEntity
  8
$DDT_AUDIT_GENERATED_(9D)
  6
Continuous
 62
     7
100
AcDbCircle
 10
54.0694148368
 20
587.2533303442
 30
0.0
 40
0.0698766461033091
100
AcDbArc
 50
344.8059314721
 51
0.0561841947
  0
SPLINE
  5
153
330
75
100
AcDbEntity
  8
$DDT_AUDIT_GENERATED_(9D)
  6
Continuous
 62
     7
100
AcDbSpline
210
0.0
220
0.0
230
1.0
 70
     8
 71
     3
 72
    23
 73
    19
 74
     0
 42
0.0000000972639084
 43
0.0000000001
 40
0.0
 40
0.0
 40
0.0
 40
0.0
 40
0.1883251557231699
 40
0.1883251557231699
 40
0.1883251557231699
 40
0.3758769064241619
 40
0.3758769064241619
 40
0.3758769064241619
 40
0.5746320778326872
 40
0.5746320778326872
 40
0.5746320778326872
 40
0.7990700402692466
 40
0.7990700402692466
 40
0.7990700402692466
 40
0.9851895749092036
 40
0.9851895749092036
 40
0.9851895749092036
 40
1.0
 40
1.0
 40
1.0
 40
1.0
 10
54.13772608055095
 20
586.9575474608322
 30
0.0
 10
54.13599098710314
 20
586.9495627687049
 30
0.0
 10
54.13350912612626
 20
586.9415108359242
 30
0.0
 10
54.13053234307852
 20
586.9340811664854
 30
0.0
 10
54.12756255304564
 20
586.9266689507165
 30
0.0
 10
54.12402861466456
 20
586.9196758240166
 30
0.0
 10
54.12023421051803
 20
586.913545356216
 30
0.0
 10
54.11621092267298
 20
586.907045090131
 30
0.0
 10
54.11180208551202
 20
586.9013511750029
 30
0.0
 10
54.10732125032717
 20
586.8967214351112
 30
0.0
 10
54.1022664306839
 20
586.891498636418
 30
0.0
 10
54.09700142877628
 20
586.8875004368923
 30
0.0
 10
54.09187639929318
 20
586.8848681657158
 30
0.0
 10
54.08760940577326
 20
586.8826765911913
 30
0.0
 10
54.08336814060037
 20
586.8813877811764
 30
0.0
 10
54.07932153740053
 20
586.881027586408
 30
0.0
 10
54.07900123409621
 20
586.8809990756871
 30
0.0
 10
54.07868194902038
 20
586.8809763114784
 30
0.0
 10
54.0783637667758
 20
586.880959297372
 30
0.0
  0
ARC
  5
154
330
75
100
AcDbEntity
  8
$DDT_AUDIT_GENERATED_(9D)
  6
Continuous
 62
     7
100
AcDbCircle
 10
54.9620850358
 20
586.8355528323
 30
0.0
 40
0.0953566370579379
100
AcDbArc
 50
181.2959104398
 51
254.2317768132
  0
LINE
  5
155
330
75
100
AcDbEntity
  8
$DDT_AUDIT_GENERATED_(9D)
  6
Continuous
 62
     7
100
AcDbLine
 10
54.8667527884
 20
586.8333962489
 30
0.0
 11
54.8667527884
 21
587.0037718158
 31
0.0
  0
ELLIPSE
  5
156
330
75
100
AcDbEntity
  8
$DDT_AUDIT_GENERATED_(9D)
  6
Continuous
 62
     7
100
AcDbEllipse
 10
55.1864754471
 20
602.8496307786
 30
0.0
 11
0.8216070649169483
 21
-16.32784195306144
 31
0.0
210
0.0
220
0.0
230
0.9999999999999999
 40
0.4980973485
 41
-0.2877234651629426
 42
-0.2366615588888026
  0
ARC
  5
157
330
75
100
AcDbEntity
  8
$DDT_AUDIT_GENERATED_(9D)
  6
Continuous
 62
     7
100
AcDbCircle
 10
54.0701832999
 20
586.9721724645
 30
0.0
 40
0.0691081514817467
100
AcDbArc
 50
347.7823849253
 51
0.0143212947
  0
ELLIPSE
  5
158
330
75
100
AcDbEntity
  8
$DDT_AUDIT_GENERATED_(9D)
  6
Continuous
 62
     7
100
AcDbEllipse
 10
53.8724058373
 20
603.1101823484
 30
0.0
 11
-0.8075424812057803
 21
-16.04833556834217
 31
0.0
210
0.0
220
0.0
230
0.9999999999999998
 40
0.4980973491
 41
0.0750440495791088
 42
0.1263192017266874
  0
SPLINE
  5
159
330
75
100
AcDbEntity
  8
$DDT_AUDIT_GENERATED_(9D)
  6
Continuous
 62
     7
100
AcDbSpline
210
0.0
220
0.0
230
1.0
 70
     8
 71
     3
 72
    23
 73
    19
 74
     0
 42
0.0000000942149543
 43
0.0000000001
 40
0.0
 40
0.0
 40
0.0
 40
0.0
 40
0.1737950968723481
 40
0.1737950968723481
 40
0.1737950968723481
 40
0.3470492566759337
 40
0.3470492566759337
 40
0.3470492566759337
 40
0.5280108639272479
 40
0.5280108639272479
 40
0.5280108639272479
 40
0.731258391766682
 40
0.731258391766682
 40
0.731258391766682
 40
0.9860722210557662
 40
0.9860722210557662
 40
0.9860722210557662
 40
1.0
 40
1.0
 40
1.0
 40
1.0
 10
54.13840132773497
 20
586.8216212560011
 30
0.0
 10
54.13711951477173
 20
586.813736792704
 30
0.0
 10
54.13511022652546
 20
586.8057480618629
 30
0.0
 10
54.13256739452823
 20
586.7983397564134
 30
0.0
 10
54.13002894031933
 20
586.7909442052445
 30
0.0
 10
54.12689779930407
 20
586.7839291621981
 30
0.0
 10
54.12345387599839
 20
586.7777644213379
 30
0.0
 10
54.11985373232854
 20
586.7713200406666
 30
0.0
 10
54.11582948788489
 20
586.7656416611226
 30
0.0
 10
54.11167849024702
 20
586.7609922651661
 30
0.0
 10
54.10701969397225
 20
586.7557741006544
 30
0.0
 10
54.10209392311123
 20
586.7517227384537
 30
0.0
 10
54.09723085152947
 20
586.7489642131322
 30
0.0
 10
54.09115875954731
 20
586.7455198839245
 30
0.0
 10
54.08501389793815
 20
586.7439955018594
 30
0.0
 10
54.07930002301334
 20
586.7444085044353
 30
0.0
 10
54.07898690494069
 20
586.7444311368122
 30
0.0
 10
54.07867479286186
 20
586.7444594901567
 30
0.0
 10
54.07836376677579
 20
586.7444935557919
 30
0.0
  0
ELLIPSE
  5
15A
330
75
100
AcDbEntity
  8
$DDT_AUDIT_GENERATED_(9D)
  6
Continuous
 62
     7
100
AcDbEllipse
 10
57.1184188395
 20
602.8846628937
 30
0.0
 11
-16.48456781681523
 21
-4.499289829595909E-8
 31
0.0
210
0.0
220
0.0
230
1.0
 40
0.9961946983
 41
1.385316401741149
 42
1.438025397988609
  0
ARC
  5
15B
330
75
100
AcDbEntity
  8
$DDT_AUDIT_GENERATED_(9D)
  6
Continuous
 62
     7
100
AcDbCircle
 10
54.9515555501
 20
586.6907519923
 30
0.0
 40
0.0848045243888917
100
AcDbArc
 50
180.3694172827
 51
259.5488135568
  0
LINE
  5
15C
330
75
100
AcDbEntity
  8
$DDT_AUDIT_GENERATED_(9D)
  6
Continuous
 62
     7
100
AcDbLine
 10
54.8667527884
 20
586.6902052148
 30
0.0
 11
54.8667527884
 21
586.7290101392
 31
0.0
  0
ELLIPSE
  5
15D
330
75
100
AcDbEntity
  8
$DDT_AUDIT_GENERATED_(9D)
  6
Continuous
 62
     7
100
AcDbEllipse
 10
54.5294406406
 20
602.8165691471
 30
0.0
 11
0.8154969417858089
 21
-16.20641500600623
 31
0.0
210
0.0
220
0.0
230
0.9999999999999999
 40
0.498097349
 41
-0.2072487811785493
 42
-0.1563064244784504
  0
ARC
  5
15E
330
75
100
AcDbEntity
  8
$DDT_AUDIT_GENERATED_(9D)
  6
Continuous
 62
     7
100
AcDbCircle
 10
54.0704529137
 20
586.8326553402
 30
0.0
 40
0.0688385356696128
100
AcDbArc
 50
350.7763025588
 51
359.9964346535
  0
ELLIPSE
  5
15F
330
75
100
AcDbEntity
  8
$DDT_AUDIT_GENERATED_(9D)
  6
Continuous
 62
     7
100
AcDbEllipse
 10
54.52944064
 20
603.077120749
 30
0.0
 11
0.8154969415170157
 21
16.20641499259193
 31
0.0
210
0.0
220
0.0
230
0.9999999999999997
 40
0.4980973492
 41
3.135707123659315
 42
3.186649480381277
  0
ELLIPSE
  5
160
330
75
100
AcDbEntity
  8
$DDT_AUDIT_GENERATED_(9D)
  6
Continuous
 62
     7
100
AcDbEllipse
 10
57.1184188326
 20
602.8767806174
 30
0.0
 11
-16.48040496811477
 21
7.681845437534918E-7
 31
0.0
210
0.0
220
0.0
230
1.0
 40
0.9961946971
 41
1.38526905525626
 42
1.437991711905261
  0
ELLIPSE
  5
161
330
75
100
AcDbEntity
  8
$DDT_AUDIT_GENERATED_(9D)
  6
Continuous
 62
     7
100
AcDbEllipse
 10
55.186475445
 20
603.0440591859
 30
0.0
 11
-0.8216070716240882
 21
-16.32784192803619
 31
0.0
210
0.0
220
0.0
230
1.0
 40
0.4980973488
 41
6.204722105106459
 42
6.247886999082094
  0
SPLINE
  5
162
330
75
100
AcDbEntity
  8
$DDT_AUDIT_GENERATED_(9D)
  6
Continuous
 62
     7
100
AcDbSpline
210
0.0
220
0.0
230
1.0
 70
     8
 71
     3
 72
    20
 73
    16
 74
     0
 42
0.0000001074104846
 43
0.0000000001
 40
0.0
 40
0.0
 40
0.0
 40
0.0
 40
0.0168806950035567
 40
0.0168806950035567
 40
0.0168806950035567
 40
0.2768234347418379
 40
0.2768234347418379
 40
0.2768234347418379
 40
0.5333609096611259
 40
0.5333609096611259
 40
0.5333609096611259
 40
0.7659243405753159
 40
0.7659243405753159
 40
0.7659243405753159
 40
1.0
 40
1.0
 40
1.0
 40
1.0
 10
53.58812587833631
 20
587.4545768294367
 30
0.0
 10
53.5878294407534
 20
587.4547938232581
 30
0.0
 10
53.58753419563349
 20
587.4550161055621
 30
0.0
 10
53.58724020966651
 20
587.4552436251714
 30
0.0
 10
53.58271317344637
 20
587.4587471580887
 30
0.0
 10
53.57844165580112
 20
587.463545067165
 30
0.0
 10
53.57468251859457
 20
587.4694170946645
 30
0.0
 10
53.57097559293084
 20
587.47520756419
 30
0.0
 10
53.5676923376362
 20
587.4821676397917
 30
0.0
 10
53.56510358152126
 20
587.4899606385678
 30
0.0
 10
53.56275613835736
 20
587.4970272067925
 30
0.0
 10
53.56093337727199
 20
587.5049354537074
 30
0.0
 10
53.55984291370493
 20
587.5132308465289
 30
0.0
 10
53.5587482102874
 20
587.5215584928123
 30
0.0
 10
53.55837433440794
 20
587.5305041070519
 30
0.0
 10
53.55884792500548
 20
587.5392989507352
 30
0.0
  0
SPLINE
  5
163
330
75
100
AcDbEntity
  8
$DDT_AUDIT_GENERATED_(9D)
  6
Continuous
 62
     7
100
AcDbSpline
210
0.0
220
0.0
230
1.0
 70
    12
 71
     2
 72
     6
 73
     3
 74
     0
 42
0.0000012973461371
 43
0.0000000001
 40
0.0
 40
0.0
 40
0.0
 40
1.0
 40
1.0
 40
1.0
 10
53.55905442872816
 20
587.5470014384224
 30
0.0
 41
1.0
 10
53.5590549812129
 20
587.5431547723811
 30
0.0
 41
1.0
 10
53.55884792500549
 20
587.5392989507352
 30
0.0
 41
1.0
  0
ARC
  5
164
330
75
100
AcDbEntity
  8
$DDT_AUDIT_GENERATED_(9D)
  6
Continuous
 62
     7
100
AcDbCircle
 10
54.0114661239
 20
587.6737459315
 30
0.0
 40
0.0894055913061552
100
AcDbArc
 50
230.4845833178
 51
262.6585836764
  0
SPLINE
  5
165
330
75
100
AcDbEntity
  8
$DDT_AUDIT_GENERATED_(9D)
  6
Continuous
 62
     7
100
AcDbSpline
210
0.0
220
0.0
230
1.0
 70
     8
 71
     3
 72
    23
 73
    19
 74
     0
 42
0.0000000996315392
 43
0.0000000001
 40
0.0
 40
0.0
 40
0.0
 40
0.0
 40
0.1973115414357148
 40
0.1973115414357148
 40
0.1973115414357148
 40
0.3937531530817336
 40
0.3937531530817336
 40
0.3937531530817336
 40
0.602995877380848
 40
0.602995877380848
 40
0.602995877380848
 40
0.8387906045690958
 40
0.8387906045690958
 40
0.8387906045690958
 40
0.984620965170575
 40
0.984620965170575
 40
0.984620965170575
 40
1.0
 40
1.0
 40
1.0
 40
1.0
 10
52.82807093809966
 20
587.3762468531445
 30
0.0
 10
52.82544648502169
 20
587.368378667965
 30
0.0
 10
52.82208464868033
 20
587.360519114423
 30
0.0
 10
52.81831732589621
 20
587.3533352502152
 30
0.0
 10
52.81455961029891
 20
587.3461697058407
 30
0.0
 10
52.81030540961503
 20
587.3394813718513
 30
0.0
 10
52.8058990692017
 20
587.3336813623662
 30
0.0
 10
52.80120373985783
 20
587.3275009604508
 30
0.0
 10
52.79622541021213
 20
587.3221731926615
 30
0.0
 10
52.7913017028344
 20
587.3179349672693
 30
0.0
 10
52.7857592803099
 20
587.3131641646859
 30
0.0
 10
52.78015360448423
 20
587.3096543365914
 30
0.0
 10
52.77485102252806
 20
587.3075323992192
 30
0.0
 10
52.77154807425329
 20
587.3062106564455
 30
0.0
 10
52.76832367791429
 20
587.3054058527614
 30
0.0
 10
52.76525297362156
 20
587.3051282582909
 30
0.0
 10
52.76493181933894
 20
587.3050992256506
 30
0.0
 10
52.76461218519338
 20
587.3050759147881
 30
0.0
 10
52.76429416048534
 20
587.3050583283673
 30
0.0
  0
SPLINE
  5
166
330
75
100
AcDbEntity
  8
$DDT_AUDIT_GENERATED_(9D)
  6
Continuous
 62
     7
100
AcDbSpline
210
0.0
220
0.0
230
1.0
 70
     8
 71
     3
 72
    20
 73
    16
 74
     0
 42
0.0000001083501501
 43
0.0000000001
 40
0.0
 40
0.0
 40
0.0
 40
0.0
 40
0.0165455558556518
 40
0.0165455558556518
 40
0.0165455558556518
 40
0.3122454415406332
 40
0.3122454415406332
 40
0.3122454415406332
 40
0.554731624459262
 40
0.554731624459262
 40
0.554731624459262
 40
0.7767033061607905
 40
0.7767033061607905
 40
0.7767033061607905
 40
1.0
 40
1.0
 40
1.0
 40
1.0
 10
53.58812587833631
 20
587.1020887794255
 30
0.0
 10
53.58782216937741
 20
587.1022569339219
 30
0.0
 10
53.58751968240097
 20
587.1024306295341
 30
0.0
 10
53.5872184874747
 20
587.1026098253212
 30
0.0
 10
53.58183557341335
 20
587.1058123876454
 30
0.0
 10
53.57679460065355
 20
587.1108519785427
 30
0.0
 10
53.57252460856641
 20
587.1174226736612
 30
0.0
 10
53.56901146616402
 20
587.1228287229378
 30
0.0
 10
53.56594260690968
 20
587.1293911832662
 30
0.0
 10
53.56357899067805
 20
587.136799749653
 30
0.0
 10
53.56141518229974
 20
587.1435820342747
 30
0.0
 10
53.55979987341454
 20
587.1512264994794
 30
0.0
 10
53.55892726381881
 20
587.1592861398896
 30
0.0
 10
53.5580515642069
 20
587.1673743204615
 30
0.0
 10
53.55791204015989
 20
587.1761019070881
 30
0.0
 10
53.55860284214363
 20
587.1847217798006
 30
0.0
  0
SPLINE
  5
167
330
75
100
AcDbEntity
  8
$DDT_AUDIT_GENERATED_(9D)
  6
Continuous
 62
     7
100
AcDbSpline
210
0.0
220
0.0
230
1.0
 70
    12
 71
     2
 72
     6
 73
     3
 74
     0
 42
0.0000008790337387
 43
0.0000000001
 40
0.0
 40
0.0
 40
0.0
 40
1.0
 40
1.0
 40
1.0
 10
53.55905442872809
 20
587.196079854311
 30
0.0
 41
1.0
 10
53.55905595143353
 20
587.1903990387443
 30
0.0
 41
1.0
 10
53.55860284214356
 20
587.1847217798007
 30
0.0
 41
1.0
  0
ELLIPSE
  5
168
330
75
100
AcDbEntity
  8
$DDT_AUDIT_GENERATED_(9D)
  6
Continuous
 62
     7
100
AcDbEllipse
 10
53.7940838078
 20
603.1141234727
 30
0.0
 11
-0.8064687958184259
 21
-16.02699817092229
 31
0.0
210
0.0
220
0.0
230
1.0
 40
0.498097349
 41
0.0750099096856844
 42
0.126353341540473
  0
ELLIPSE
  5
169
330
75
100
AcDbEntity
  8
$DDT_AUDIT_GENERATED_(9D)
  6
Continuous
 62
     7
100
AcDbEllipse
 10
54.5294406416
 20
602.8165691536
 30
0.0
 11
0.8154969403882418
 21
-16.20641501246725
 31
0.0
210
0.0
220
0.0
230
0.9999999999999998
 40
0.4980973489
 41
-0.372337803617337
 42
-0.319993263524343
  0
ARC
  5
16A
330
75
100
AcDbEntity
  8
$DDT_AUDIT_GENERATED_(9D)
  6
Continuous
 62
     7
100
AcDbCircle
 10
52.7618987691
 20
587.3981204275
 30
0.0
 40
0.0696943620117067
100
AcDbArc
 50
341.7084126956
 51
0.062581146
  0
SPLINE
  5
16B
330
75
100
AcDbEntity
  8
$DDT_AUDIT_GENERATED_(9D)
  6
Continuous
 62
     7
100
AcDbSpline
210
0.0
220
0.0
230
1.0
 70
     8
 71
     3
 72
    23
 73
    19
 74
     0
 42
0.000000109664726
 43
0.0000000001
 40
0.0
 40
0.0
 40
0.0
 40
0.0
 40
0.2139262134739558
 40
0.2139262134739558
 40
0.2139262134739558
 40
0.4266928330392166
 40
0.4266928330392166
 40
0.4266928330392166
 40
0.6570550243218553
 40
0.6570550243218553
 40
0.6570550243218553
 40
0.9182788105059622
 40
0.9182788105059622
 40
0.9182788105059622
 40
0.9838472556305078
 40
0.9838472556305078
 40
0.9838472556305078
 40
1.0
 40
1.0
 40
1.0
 40
1.0
 10
53.55826608926464
 20
586.9742600573287
 30
0.0
 10
53.55736530083187
 20
586.9658168690338
 30
0.0
 10
53.55727999981301
 20
586.9573068112755
 30
0.0
 10
53.55794665179219
 20
586.9494559250184
 30
0.0
 10
53.55861117299827
 20
586.9416301319998
 30
0.0
 10
53.56002955551246
 20
586.9342459610184
 30
0.0
 10
53.56202108753174
 20
586.9277424272824
 30
0.0
 10
53.56417752748264
 20
586.9207003713001
 30
0.0
 10
53.56705153665358
 20
586.9145158723076
 30
0.0
 10
53.57039097013411
 20
586.9094751551387
 30
0.0
 10
53.57417256432406
 20
586.9037670172554
 30
0.0
 10
53.5786405684595
 20
586.8993831335736
 30
0.0
 10
53.58345550136087
 20
586.8965306241556
 30
0.0
 10
53.58467716428432
 20
586.8958068747147
 30
0.0
 10
53.585925379149
 20
586.8951774385166
 30
0.0
 10
53.58719478057033
 20
586.8946445957874
 30
0.0
 10
53.58750385157883
 20
586.8945148604358
 30
0.0
 10
53.58781424191879
 20
586.8943908186473
 30
0.0
 10
53.58812587833631
 20
586.8942724998051
 30
0.0
  0
ELLIPSE
  5
16C
330
75
100
AcDbEntity
  8
$DDT_AUDIT_GENERATED_(9D)
  6
Continuous
 62
     7
100
AcDbEllipse
 10
54.4511186111
 20
603.081061879
 30
0.0
 11
0.8146464941914968
 21
16.18951400849236
 31
0.0
210
0.0
220
0.0
230
1.0
 40
0.498097349
 41
3.135595449449726
 42
3.186591350949711
  0
ELLIPSE
  5
16D
330
75
100
AcDbEntity
  8
$DDT_AUDIT_GENERATED_(9D)
  6
Continuous
 62
     7
100
AcDbEllipse
 10
55.10815341
 20
602.8456895708
 30
0.0
 11
0.8209740697109748
 21
-16.31526209529643
 31
0.0
210
0.0
220
0.0
230
1.0
 40
0.4980973497
 41
-0.2878693913911112
 42
-0.2367670581655101
  0
SPLINE
  5
16E
330
75
100
AcDbEntity
  8
$DDT_AUDIT_GENERATED_(9D)
  6
Continuous
 62
     7
100
AcDbSpline
210
0.0
220
0.0
230
1.0
 70
     8
 71
     3
 72
    23
 73
    19
 74
     0
 42
0.0000000963690871
 43
0.0000000001
 40
0.0
 40
0.0
 40
0.0
 40
0.0
 40
0.1813354540672373
 40
0.1813354540672373
 40
0.1813354540672373
 40
0.3620228316325624
 40
0.3620228316325624
 40
0.3620228316325624
 40
0.552020382012767
 40
0.552020382012767
 40
0.552020382012767
 40
0.7657110507162538
 40
0.7657110507162538
 40
0.7657110507162538
 40
0.985582865255935
 40
0.985582865255935
 40
0.985582865255935
 40
1.0
 40
1.0
 40
1.0
 40
1.0
 10
52.82912025460584
 20
587.1682485263433
 30
0.0
 10
52.82696587387238
 20
587.1604513729934
 30
0.0
 10
52.82408302767255
 20
587.1526264398793
 30
0.0
 10
52.82074810748715
 20
587.145441690853
 30
0.0
 10
52.81741990619697
 20
587.1382714170086
 30
0.0
 10
52.81355952672234
 20
587.1315453394133
 30
0.0
 10
52.8094917859003
 20
587.1256973942924
 30
0.0
 10
52.80521151220171
 20
587.1195439035008
 30
0.0
 10
52.80060191924313
 20
587.1142065751868
 30
0.0
 10
52.79598456038011
 20
587.1099230328074
 30
0.0
 10
52.79079585272185
 20
587.1051094478538
 30
0.0
 10
52.78547577286724
 20
587.1015064167756
 30
0.0
 10
52.78036831961465
 20
587.0992219908604
 30
0.0
 10
52.77511073139444
 20
587.0968704136286
 30
0.0
 10
52.7699623146718
 20
587.0958585276678
 30
0.0
 10
52.76522061847678
 20
587.0961920118845
 30
0.0
 10
52.76491027700891
 20
587.0962138382473
 30
0.0
 10
52.76460142991441
 20
587.0962413617782
 30
0.0
 10
52.76429416048534
 20
587.0962745727525
 30
0.0
  0
ELLIPSE
  5
16F
330
75
100
AcDbEntity
  8
$DDT_AUDIT_GENERATED_(9D)
  6
Continuous
 62
     7
100
AcDbEllipse
 10
57.1184188277
 20
602.9507860262
 30
0.0
 11
-16.49993801344253
 21
1.405935895482102E-6
 31
0.0
210
0.0
220
0.0
230
1.0
 40
0.9961946969
 41
1.303746226332456
 42
1.355171457337208
  0
ARC
  5
170
330
75
100
AcDbEntity
  8
$DDT_AUDIT_GENERATED_(9D)
  6
Continuous
 62
     7
100
AcDbCircle
 10
53.4177587758
 20
586.9891679314
 30
0.0
 40
0.1412956637517524
100
AcDbArc
 50
353.9435567269
 51
0.0223924688
  0
ELLIPSE
  5
171
330
75
100
AcDbEntity
  8
$DDT_AUDIT_GENERATED_(9D)
  6
Continuous
 62
     7
100
AcDbEllipse
 10
53.8724058374
 20
602.7835075539
 30
0.0
 11
0.8075424809667495
 21
-16.04833557219443
 31
0.0
210
0.0
220
0.0
230
1.0
 40
0.498097349
 41
-0.2910206486558771
 42
-0.2390449548709457
  0
ARC
  5
172
330
75
100
AcDbEntity
  8
$DDT_AUDIT_GENERATED_(9D)
  6
Continuous
 62
     7
100
AcDbCircle
 10
52.7625242691
 20
587.1865632823
 30
0.0
 40
0.0690688212656058
100
AcDbArc
 50
344.6230609449
 51
0.0089360724
  0
ELLIPSE
  5
173
330
75
100
AcDbEntity
  8
$DDT_AUDIT_GENERATED_(9D)
  6
Continuous
 62
     7
100
AcDbEllipse
 10
53.2153710344
 20
603.1432439488
 30
0.0
 11
0.797688515229236
 21
15.85250717327291
 31
0.0
210
0.0
220
0.0
230
1.0
 40
0.498097349
 41
3.133318653097057
 42
3.185406328846088
  0
ELLIPSE
  5
174
330
75
100
AcDbEntity
  8
$DDT_AUDIT_GENERATED_(9D)
  6
Continuous
 62
     7
100
AcDbEllipse
 10
55.1081534159
 20
603.0480003069
 30
0.0
 11
-0.8209740658457437
 21
-16.31526216564497
 31
0.0
210
0.0
220
0.0
230
1.0
 40
0.4980973487
 41
6.196679167821767
 42
6.247781500935098
  0
ELLIPSE
  5
175
330
75
100
AcDbEntity
  8
$DDT_AUDIT_GENERATED_(9D)
  6
Continuous
 62
     7
100
AcDbEllipse
 10
54.4511186111
 20
602.8126280308
 30
0.0
 11
0.8146464938684336
 21
-16.18951400933749
 31
0.0
210
0.0
220
0.0
230
1.0
 40
0.498097349
 41
-0.2073604553831716
 42
-0.1563645538844884
  0
ELLIPSE
  5
176
330
75
100
AcDbEntity
  8
$DDT_AUDIT_GENERATED_(9D)
  6
Continuous
 62
     7
100
AcDbEllipse
 10
57.1184188414
 20
602.8185397156
 30
0.0
 11
-16.43419639061225
 21
-3.508967005849684E-7
 31
0.0
210
0.0
220
0.0
230
1.0
 40
0.9961946985
 41
1.302651534829712
 42
1.354295081418977
  0
ELLIPSE
  5
177
330
75
100
AcDbEntity
  8
$DDT_AUDIT_GENERATED_(9D)
  6
Continuous
 62
     7
100
AcDbEllipse
 10
57.1184188436
 20
602.9429038569
 30
0.0
 11
-16.49993804861586
 21
-5.895618993001506E-7
 31
0.0
210
0.0
220
0.0
230
0.9999999999999999
 40
0.9961946987
 41
1.303746105437457
 42
1.355171336338217
  0
ELLIPSE
  5
178
330
75
100
AcDbEntity
  8
$DDT_AUDIT_GENERATED_(9D)
  6
Continuous
 62
     7
100
AcDbEllipse
 10
53.2153710347
 20
602.750445974
 30
0.0
 11
0.797688514135325
 21
-15.85250717974943
 31
0.0
210
0.0
220
0.0
230
1.0
 40
0.4980973489
 41
-0.2096372516380054
 42
-0.1575495758993348
  0
ELLIPSE
  5
179
330
75
100
AcDbEntity
  8
$DDT_AUDIT_GENERATED_(9D)
  6
Continuous
 62
     7
100
AcDbEllipse
 10
53.8724058393
 20
603.1101823757
 30
0.0
 11
-0.8075424834010168
 21
-16.04833559571037
 31
0.0
210
0.0
220
0.0
230
1.0
 40
0.4980973487
 41
6.193527909883521
 42
6.245503603630216
  0
SPLINE
  5
17A
330
75
100
AcDbEntity
  8
$DDT_AUDIT_GENERATED_(9D)
  6
Continuous
 62
     7
100
AcDbSpline
210
0.0
220
0.0
230
1.0
 70
     8
 71
     3
 72
    20
 73
    16
 74
     0
 42
0.0000001162210273
 43
0.0000000001
 40
0.0
 40
0.0
 40
0.0
 40
0.0
 40
0.0171782476098052
 40
0.0171782476098052
 40
0.0171782476098052
 40
0.2726989802783774
 40
0.2726989802783774
 40
0.2726989802783774
 40
0.5296037253730642
 40
0.5296037253730642
 40
0.5296037253730642
 40
0.7640916181659053
 40
0.7640916181659053
 40
0.7640916181659053
 40
1.0
 40
1.0
 40
1.0
 40
1.0
 10
52.27405627204585
 20
587.3245216420423
 30
0.0
 10
52.27375874885847
 20
587.3246898291665
 30
0.0
 10
52.27346293778543
 20
587.3248635778967
 30
0.0
 10
52.27316890705402
 20
587.325042846913
 30
0.0
 10
52.26879529749701
 20
587.3277094140408
 30
0.0
 10
52.26477614320684
 20
587.331641061978
 30
0.0
 10
52.26135466461093
 20
587.336663700548
 30
0.0
 10
52.25791843884255
 20
587.3417079875707
 30
0.0
 10
52.25501591027766
 20
587.3479642176851
 30
0.0
 10
52.25290309228306
 20
587.3551325852613
 30
0.0
 10
52.25097417083782
 20
587.3616770287395
 30
0.0
 10
52.24966583312584
 20
587.3691299679101
 30
0.0
 10
52.24915676526122
 20
587.3770654103183
 30
0.0
 10
52.24864585681748
 20
587.3850295440085
 30
0.0
 10
52.24893858033025
 20
587.393698917185
 30
0.0
 10
52.25010135589337
 20
587.4023429601285
 30
0.0
  0
ELLIPSE
  5
17B
330
75
100
AcDbEntity
  8
$DDT_AUDIT_GENERATED_(9D)
  6
Continuous
 62
     7
100
AcDbEllipse
 10
52.2152676351
 20
587.4158798012
 30
0.0
 11
0.003627313180130237
 21
0.07208579177883645
 31
0.0
210
0.0
220
0.0
230
0.9999999999999999
 40
0.498097349
 41
4.54859819831249
 42
4.814956651680396
  0
ELLIPSE
  5
17C
330
75
100
AcDbEntity
  8
$DDT_AUDIT_GENERATED_(9D)
  6
Continuous
 62
     7
100
AcDbEllipse
 10
53.1370490051
 20
603.1471850708
 30
0.0
 11
0.7963839774642852
 21
15.82658202458731
 31
0.0
210
0.0
220
0.0
230
1.0
 40
0.4980973489
 41
3.133139464051061
 42
3.185313073980935
  0
ELLIPSE
  5
17D
330
75
100
AcDbEntity
  8
$DDT_AUDIT_GENERATED_(9D)
  6
Continuous
 62
     7
100
AcDbEllipse
 10
54.4511186087
 20
602.8126280101
 30
0.0
 11
0.8146464970868217
 21
-16.18951398855184
 31
0.0
210
0.0
220
0.0
230
1.0
 40
0.4980973493
 41
-0.3726285989979035
 42
-0.3202259624252708
  0
SPLINE
  5
17E
330
75
100
AcDbEntity
  8
$DDT_AUDIT_GENERATED_(9D)
  6
Continuous
 62
     7
100
AcDbSpline
210
0.0
220
0.0
230
1.0
 70
     8
 71
     3
 72
    20
 73
    16
 74
     0
 42
0.0000001177255389
 43
0.0000000001
 40
0.0
 40
0.0
 40
0.0
 40
0.0
 40
0.2252229817854334
 40
0.2252229817854334
 40
0.2252229817854334
 40
0.4492009143774046
 40
0.4492009143774046
 40
0.4492009143774046
 40
0.6924169639668076
 40
0.6924169639668076
 40
0.6924169639668076
 40
0.9831792840038494
 40
0.9831792840038494
 40
0.9831792840038494
 40
1.0
 40
1.0
 40
1.0
 40
1.0
 10
52.24958212907041
 20
587.2629124636314
 30
0.0
 10
52.24821922522968
 20
587.2545018804431
 30
0.0
 10
52.24771292878215
 20
587.2461039661225
 30
0.0
 10
52.24802679130728
 20
587.2384251505282
 30
0.0
 10
52.24833962391014
 20
587.2307715325356
 30
0.0
 10
52.24946393579843
 20
587.223622338903
 30
0.0
 10
52.25123396752653
 20
587.2173930636135
 30
0.0
 10
52.2531559087931
 20
587.2106291728599
 30
0.0
 10
52.25587939765292
 20
587.2047808312531
 30
0.0
 10
52.25915628575809
 20
587.2001211558544
 30
0.0
 10
52.26306225451638
 20
587.1945669391869
 30
0.0
 10
52.26785850876718
 20
587.1905525074442
 30
0.0
 10
52.27313451796071
 20
587.1883091242329
 30
0.0
 10
52.27343996685708
 20
587.1881792459668
 30
0.0
 10
52.27374724257748
 20
587.1880550840166
 30
0.0
 10
52.27405627204585
 20
587.187936667752
 30
0.0
  0
ELLIPSE
  5
17F
330
75
100
AcDbEntity
  8
$DDT_AUDIT_GENERATED_(9D)
  6
Continuous
 62
     7
100
AcDbEllipse
 10
53.7940838098
 20
603.1141234925
 30
0.0
 11
-0.8064687981403388
 21
-16.02699819073952
 31
0.0
210
0.0
220
0.0
230
1.0
 40
0.4980973487
 41
6.193271392114585
 42
6.245318207822974
  0
ELLIPSE
  5
180
330
75
100
AcDbEntity
  8
$DDT_AUDIT_GENERATED_(9D)
  6
Continuous
 62
     7
100
AcDbEllipse
 10
53.7940838093
 20
602.7795664535
 30
0.0
 11
0.8064687937589007
 21
-16.02699818373579
 31
0.0
210
0.0
220
0.0
230
1.0
 40
0.4980973488
 41
-0.2912771661902323
 42
-0.2392303504711872
  0
SPLINE
  5
181
330
75
100
AcDbEntity
  8
$DDT_AUDIT_GENERATED_(9D)
  6
Continuous
 62
     7
100
AcDbSpline
210
0.0
220
0.0
230
1.0
 70
     8
 71
     3
 72
    23
 73
    19
 74
     0
 42
0.0000000954765494
 43
0.0000000001
 40
0.0
 40
0.0
 40
0.0
 40
0.0
 40
0.1747554780212347
 40
0.1747554780212347
 40
0.1747554780212347
 40
0.3489818436093073
 40
0.3489818436093073
 40
0.3489818436093073
 40
0.5307853831188419
 40
0.5307853831188419
 40
0.5307853831188419
 40
0.7343590047551408
 40
0.7343590047551408
 40
0.7343590047551408
 40
0.985979610289474
 40
0.985979610289474
 40
0.985979610289474
 40
1.0
 40
1.0
 40
1.0
 40
1.0
 10
51.52025749537894
 20
587.5307279836985
 30
0.0
 10
51.51767759553962
 20
587.5231386853164
 30
0.0
 10
51.51438852173712
 20
587.5155612683325
 30
0.0
 10
51.51069185386853
 20
587.5086409656975
 30
0.0
 10
51.50700137590324
 20
587.5017322507966
 30
0.0
 10
51.50281230613901
 20
587.495292482555
 30
0.0
 10
51.49847177715208
 20
587.4897445654535
 30
0.0
 10
51.49393878810132
 20
587.4839506524188
 30
0.0
 10
51.48913384587825
 20
587.4789810862112
 30
0.0
 10
51.48438648548066
 20
587.4750530938733
 30
0.0
 10
51.47907447389019
 20
587.4706579060049
 30
0.0
 10
51.47371006187537
 20
587.4674562527359
 30
0.0
 10
51.46862983015269
 20
587.465524518592
 30
0.0
 10
51.46237415428681
 20
587.4631458273586
 30
0.0
 10
51.4563756729689
 20
587.4626272637289
 30
0.0
 10
51.45110214103081
 20
587.4639114809904
 30
0.0
 10
51.45080761807714
 20
587.4639832035979
 30
0.0
 10
51.45051506238867
 20
587.4640604981702
 30
0.0
 10
51.45022455419488
 20
587.4641433415802
 30
0.0
  0
ELLIPSE
  5
182
330
75
100
AcDbEntity
  8
$DDT_AUDIT_GENERATED_(9D)
  6
Continuous
 62
     7
100
AcDbEllipse
 10
57.1184188391
 20
602.8846628883
 30
0.0
 11
-16.48456781419979
 21
-8.240300108930398E-8
 31
0.0
210
0.0
220
0.0
230
1.0
 40
0.9961946982
 41
1.219784060392711
 42
1.272520512790775
  0
ELLIPSE
  5
183
330
75
100
AcDbEntity
  8
$DDT_AUDIT_GENERATED_(9D)
  6
Continuous
 62
     7
100
AcDbEllipse
 10
52.2155122644
 20
587.2799583058
 30
0.0
 11
0.003602728534540106
 21
0.07159721976393585
 31
0.0
210
0.0
220
0.0
230
1.0
 40
0.498097349
 41
4.497136464187692
 42
4.815414034708668
  0
ELLIPSE
  5
184
330
75
100
AcDbEntity
  8
$DDT_AUDIT_GENERATED_(9D)
  6
Continuous
 62
     7
100
AcDbEllipse
 10
52.5583362294
 20
602.7173843505
 30
0.0
 11
0.7858635953635765
 21
-15.61750983003171
 31
0.0
210
0.0
220
0.0
230
1.0
 40
0.4980973493
 41
-0.2705330085101458
 42
-0.2428874385267346
  0
ARC
  5
185
330
75
100
AcDbEntity
  8
$DDT_AUDIT_GENERATED_(9D)
  6
Continuous
 62
     7
100
AcDbCircle
 10
51.454788553
 20
587.5528499392
 30
0.0
 40
0.0691061773397007
100
AcDbArc
 50
341.3298891329
 51
359.9930428992
  0
ELLIPSE
  5
186
330
75
100
AcDbEntity
  8
$DDT_AUDIT_GENERATED_(9D)
  6
Continuous
 62
     7
100
AcDbEllipse
 10
53.1370490054
 20
602.7465048619
 30
0.0
 11
0.7963839757809074
 21
-15.8265820307372
 31
0.0
210
0.0
220
0.0
230
1.0
 40
0.4980973488
 41
-0.2098164406319087
 42
-0.1674291430840524
  0
ELLIPSE
  5
187
330
75
100
AcDbEntity
  8
$DDT_AUDIT_GENERATED_(9D)
  6
Continuous
 62
     7
100
AcDbEllipse
 10
57.1184188381
 20
602.8767806517
 30
0.0
 11
-16.48040498599198
 21
2.216196670623560E-8
 31
0.0
210
0.0
220
0.0
230
1.0
 40
0.9961946981
 41
1.219691571845536
 42
1.272442859135281
  0
ELLIPSE
  5
188
330
75
100
AcDbEntity
  8
$DDT_AUDIT_GENERATED_(9D)
  6
Continuous
 62
     7
100
AcDbEllipse
 10
53.2153710364
 20
603.1432439608
 30
0.0
 11
-0.7976885176106553
 21
-15.85250718521244
 31
0.0
210
0.0
220
0.0
230
1.0
 40
0.4980973488
 41
-0.1592607644636113
 42
-0.123608974195986
  0
SPLINE
  5
189
330
75
100
AcDbEntity
  8
$DDT_AUDIT_GENERATED_(9D)
  6
Continuous
 62
     7
100
AcDbSpline
210
0.0
220
0.0
230
1.0
 70
    12
 71
     3
 72
     8
 73
     4
 74
     0
 42
0.000000087163999
 43
0.0000000001
 40
0.0
 40
0.0
 40
0.0
 40
0.0
 40
1.0
 40
1.0
 40
1.0
 40
1.0
 10
51.52389472983472
 20
587.4757614205453
 30
0.0
 41
1.0
 10
51.52389472983472
 20
587.429076833075
 30
0.0
 41
0.8047378541243649
 10
51.50476302489567
 20
587.393177757443
 30
0.0
 41
0.8047378541243649
 10
51.47770670829955
 20
587.389093385278
 30
0.0
 41
1.0
  0
LINE
  5
18A
330
75
100
AcDbEntity
  8
$DDT_AUDIT_GENERATED_(9D)
  6
Continuous
 62
     7
100
AcDbLine
 10
51.4777067083
 20
587.3890933853
 30
0.0
 11
51.0677880172
 21
587.4509739626
 31
0.0
  0
ELLIPSE
  5
18B
330
75
100
AcDbEntity
  8
$DDT_AUDIT_GENERATED_(9D)
  6
Continuous
 62
     7
100
AcDbEllipse
 10
60.4427538688
 20
603.1141234915
 30
0.0
 11
0.8064687955133768
 21
-16.02699818969388
 31
0.0
210
0.0
220
0.0
230
1.0
 40
0.4980973487
 41
-0.1263533414279836
 42
-0.0750099096032955
  0
SPLINE
  5
18C
330
75
100
AcDbEntity
  8
$DDT_AUDIT_GENERATED_(9D)
  6
Continuous
 62
     7
100
AcDbSpline
210
0.0
220
0.0
230
1.0
 70
     8
 71
     3
 72
    20
 73
    16
 74
     0
 42
0.0000001083501501
 43
0.0000000001
 40
0.0
 40
0.0
 40
0.0
 40
0.0
 40
0.0165455558556427
 40
0.0165455558556427
 40
0.0165455558556427
 40
0.3122454415406082
 40
0.3122454415406082
 40
0.3122454415406082
 40
0.5547316244592746
 40
0.5547316244592746
 40
0.5547316244592746
 40
0.7767033061607964
 40
0.7767033061607964
 40
0.7767033061607964
 40
1.0
 40
1.0
 40
1.0
 40
1.0
 10
60.64871179822808
 20
587.1020887794255
 30
0.0
 10
60.64901550718695
 20
587.1022569339219
 30
0.0
 10
60.64931799416332
 20
587.102430629534
 30
0.0
 10
60.64961918908961
 20
587.1026098253212
 30
0.0
 10
60.65500210315141
 20
587.1058123876454
 30
0.0
 10
60.66004307591083
 20
587.1108519785427
 30
0.0
 10
60.66431306799798
 20
587.1174226736612
 30
0.0
 10
60.66782621040036
 20
587.1228287229378
 30
0.0
 10
60.6708950696547
 20
587.1293911832662
 30
0.0
 10
60.67325868588634
 20
587.136799749653
 30
0.0
 10
60.67542249426465
 20
587.1435820342747
 30
0.0
 10
60.67703780314986
 20
587.1512264994794
 30
0.0
 10
60.67791041274558
 20
587.1592861398896
 30
0.0
 10
60.67878611235749
 20
587.1673743204615
 30
0.0
 10
60.6789256364045
 20
587.1761019070881
 30
0.0
 10
60.67823483442076
 20
587.1847217798006
 30
0.0
  0
SPLINE
  5
18D
330
75
100
AcDbEntity
  8
$DDT_AUDIT_GENERATED_(9D)
  6
Continuous
 62
     7
100
AcDbSpline
210
0.0
220
0.0
230
1.0
 70
    12
 71
     2
 72
     6
 73
     3
 74
     0
 42
0.0000008790337387
 43
0.0000000001
 40
0.0
 40
0.0
 40
0.0
 40
1.0
 40
1.0
 40
1.0
 10
60.67823483442074
 20
587.1847217798006
 30
0.0
 41
1.0
 10
60.67778172513079
 20
587.1903990387443
 30
0.0
 41
1.0
 10
60.67778324783622
 20
587.196079854311
 30
0.0
 41
1.0
  0
SPLINE
  5
18E
330
75
100
AcDbEntity
  8
$DDT_AUDIT_GENERATED_(9D)
  6
Continuous
 62
     7
100
AcDbSpline
210
0.0
220
0.0
230
1.0
 70
     8
 71
     3
 72
    23
 73
    19
 74
     0
 42
0.0000000996315392
 43
0.0000000001
 40
0.0
 40
0.0
 40
0.0
 40
0.0
 40
0.0152538296853272
 40
0.0152538296853272
 40
0.0152538296853272
 40
0.16110273418542
 40
0.16110273418542
 40
0.16110273418542
 40
0.3969274452089189
 40
0.3969274452089189
 40
0.3969274452089189
 40
0.6061967769705486
 40
0.6061967769705486
 40
0.6061967769705486
 40
0.8026633682799588
 40
0.8026633682799588
 40
0.8026633682799588
 40
1.0
 40
1.0
 40
1.0
 40
1.0
 10
61.47254351607904
 20
587.3050583283673
 30
0.0
 10
61.47222549137099
 20
587.3050759147881
 30
0.0
 10
61.47190585722534
 20
587.3050992256506
 30
0.0
 10
61.47158470294276
 20
587.3051282582908
 30
0.0
 10
61.46851399865027
 20
587.3054058527615
 30
0.0
 10
61.4652896023111
 20
587.3062106564455
 30
0.0
 10
61.46198665403632
 20
587.3075323992192
 30
0.0
 10
61.45668407208014
 20
587.3096543365914
 30
0.0
 10
61.45107839625449
 20
587.3131641646859
 30
0.0
 10
61.44553597372997
 20
587.3179349672693
 30
0.0
 10
61.44061226635226
 20
587.3221731926615
 30
0.0
 10
61.43563393670655
 20
587.3275009604508
 30
0.0
 10
61.43093860736268
 20
587.3336813623662
 30
0.0
 10
61.42653226694937
 20
587.3394813718513
 30
0.0
 10
61.42227806626549
 20
587.3461697058407
 30
0.0
 10
61.41852035066818
 20
587.3533352502152
 30
0.0
 10
61.41475302788406
 20
587.360519114423
 30
0.0
 10
61.4113911915427
 20
587.368378667965
 30
0.0
 10
61.40876673846472
 20
587.3762468531445
 30
0.0
  0
ELLIPSE
  5
18F
330
75
100
AcDbEntity
  8
$DDT_AUDIT_GENERATED_(9D)
  6
Continuous
 62
     7
100
AcDbEllipse
 10
59.707397035
 20
602.8165691533
 30
0.0
 11
-0.815496940417796
 21
-16.20641501222261
 31
0.0
210
0.0
220
0.0
230
0.9999999999999999
 40
0.4980973489
 41
0.3199932635279959
 42
0.3723378036213794
  0
ARC
  5
190
330
75
100
AcDbEntity
  8
$DDT_AUDIT_GENERATED_(9D)
  6
Continuous
 62
     7
100
AcDbCircle
 10
61.4749389073
 20
587.3981204275
 30
0.0
 40
0.0696936810976936
100
AcDbArc
 50
179.9374188358
 51
198.2915873229
  0
SPLINE
  5
191
330
75
100
AcDbEntity
  8
$DDT_AUDIT_GENERATED_(9D)
  6
Continuous
 62
     7
100
AcDbSpline
210
0.0
220
0.0
230
1.0
 70
     8
 71
     3
 72
     9
 73
     5
 74
     0
 42
0.0000000051817241
 43
0.0000000001
 40
0.0
 40
0.0
 40
0.0
 40
0.0
 40
0.0488724335923824
 40
0.1040769431742384
 40
0.1040769431742384
 40
0.1040769431742384
 40
0.1040769431742384
 10
68.85985146845383
 20
592.4322593894994
 30
0.0
 10
68.8571506894827
 20
592.4096660300223
 30
0.0
 10
68.85139920958201
 20
592.3615520398324
 30
0.0
 10
68.78948929982451
 20
592.3137801645842
 30
0.0
 10
68.74461638721078
 20
592.2886209924475
 30
0.0
  0
SPLINE
  5
192
330
75
100
AcDbEntity
  8
$DDT_AUDIT_GENERATED_(9D)
  6
Continuous
 62
     7
100
AcDbSpline
210
0.0
220
0.0
230
1.0
 70
     8
 71
     3
 72
     8
 73
     4
 74
     0
 42
0.0000001708223455
 43
0.0000000001
 40
0.0
 40
0.0
 40
0.0
 40
0.0
 40
0.0547651718412287
 40
0.0547651718412287
 40
0.0547651718412287
 40
0.0547651718412287
 10
67.82916110947892
 20
592.0946524494112
 30
0.0
 10
67.82821123677282
 20
592.0938978036802
 30
0.0
 10
67.82725164417727
 20
592.0935303929195
 30
0.0
 10
67.82628640508545
 20
592.0935403575896
 30
0.0
  0
SPLINE
  5
193
330
75
100
AcDbEntity
  8
$DDT_AUDIT_GENERATED_(9D)
  6
Continuous
 62
     7
100
AcDbSpline
210
0.0
220
0.0
230
1.0
 70
     8
 71
     3
 72
     8
 73
     4
 74
     0
 42
0.0000001708673739
 43
0.0000000001
 40
0.9447831524109203
 40
0.9447831524109203
 40
0.9447831524109203
 40
0.9447831524109203
 40
1.0
 40
1.0
 40
1.0
 40
1.0
 10
46.41057575683501
 20
592.0935450936776
 30
0.0
 10
46.4096019550649
 20
592.0935260415206
 30
0.0
 10
46.40863413645601
 20
592.0938916889082
 30
0.0
 10
46.40767656708549
 20
592.0946524494112
 30
0.0
  0
LINE
  5
194
330
75
100
AcDbEntity
  8
$DDT_AUDIT_GENERATED_(9D)
  6
Continuous
 62
     7
100
AcDbLine
 10
63.5885580532
 20
592.8472500195
 30
0.0
 11
64.2264245925
 21
592.9028437515
 31
0.0
  0
LINE
  5
195
330
75
100
AcDbEntity
  8
$DDT_AUDIT_GENERATED_(9D)
  6
Continuous
 62
     7
100
AcDbLine
 10
64.5785075469
 20
592.7609702361
 30
0.0
 11
64.5785075469
 21
592.8746799607
 31
0.0
  0
ELLIPSE
  5
196
330
75
100
AcDbEntity
  8
$DDT_AUDIT_GENERATED_(9D)
  6
Continuous
 62
     7
100
AcDbEllipse
 10
57.1184188383
 20
592.1970604471
 30
0.0
 11
9.875000000032909
 21
1.332267629550188E-12
 31
0.0
210
0.0
220
0.0
230
1.0
 40
0.0871557427
 41
0.7144525876606749
 42
0.8563437391315225
  0
LINE
  5
197
330
75
100
AcDbEntity
  8
$DDT_AUDIT_GENERATED_(9D)
  6
Continuous
 62
     7
100
AcDbLine
 10
65.2163740862
 20
592.8165639681
 30
0.0
 11
64.5785075469
 21
592.7609702361
 31
0.0
  0
LINE
  5
198
330
75
100
AcDbEntity
  8
$DDT_AUDIT_GENERATED_(9D)
  6
Continuous
 62
     7
100
AcDbLine
 10
49.6583301297
 20
592.7609702361
 30
0.0
 11
49.6583301297
 21
592.8746799607
 31
0.0
  0
LINE
  5
199
330
75
100
AcDbEntity
  8
$DDT_AUDIT_GENERATED_(9D)
  6
Continuous
 62
     7
100
AcDbLine
 10
49.6583301297
 20
592.7609702361
 30
0.0
 11
49.0204635904
 21
592.8165639681
 31
0.0
  0
ELLIPSE
  5
19A
330
75
100
AcDbEntity
  8
$DDT_AUDIT_GENERATED_(9D)
  6
Continuous
 62
     7
100
AcDbEllipse
 10
57.1184188386
 20
592.1970604471
 30
0.0
 11
-9.87500000033738
 21
1.917910275039958E-11
 31
0.0
210
0.0
220
0.0
230
1.0
 40
0.0871557427
 41
-0.8563437391197031
 42
-0.7144525876518486
  0
LINE
  5
19B
330
75
100
AcDbEntity
  8
$DDT_AUDIT_GENERATED_(9D)
  6
Continuous
 62
     7
100
AcDbLine
 10
50.010413084
 20
592.9028437515
 30
0.0
 11
50.6482796234
 21
592.8472500195
 31
0.0
  0
LINE
  5
19C
330
75
100
AcDbEntity
  8
$DDT_AUDIT_GENERATED_(9D)
  6
Continuous
 62
     7
100
AcDbLine
 10
56.4184188383
 20
593.0555583386
 30
0.0
 11
56.4184188383
 21
593.1341797484
 31
0.0
  0
ARC
  5
19D
330
75
100
AcDbEntity
  8
$DDT_AUDIT_GENERATED_(9D)
  6
Continuous
 62
     7
100
AcDbCircle
 10
57.1184188383
 20
480.0376628149
 30
0.0
 40
113.0200633011151
100
AcDbArc
 50
89.6451311306
 51
90.3548688694
  0
LINE
  5
19E
330
75
100
AcDbEntity
  8
$DDT_AUDIT_GENERATED_(9D)
  6
Continuous
 62
     7
100
AcDbLine
 10
57.8184188383
 20
593.1341797484
 30
0.0
 11
57.8184188383
 21
593.0555583386
 31
0.0
  0
ARC
  5
19F
330
75
100
AcDbEntity
  8
$DDT_AUDIT_GENERATED_(9D)
  6
Continuous
 62
     7
100
AcDbCircle
 10
57.1184188383
 20
469.7660825908
 30
0.0
 40
123.3700830682797
100
AcDbArc
 50
89.6749028625
 51
90.3250971375
  0
ELLIPSE
  5
1A0
330
75
100
AcDbEntity
  8
$DDT_AUDIT_GENERATED_(9D)
  6
Continuous
 62
     7
100
AcDbEllipse
 10
57.1184188382
 20
592.1970604471
 30
0.0
 11
-10.77499999991266
 21
-5.884182030513330E-12
 31
0.0
210
0.0
220
0.0
230
1.0
 40
0.0871557427
 41
-0.8504091449757212
 42
-0.7203871818243393
  0
ELLIPSE
  5
1A1
330
75
100
AcDbEntity
  8
$DDT_AUDIT_GENERATED_(9D)
  6
Continuous
 62
     7
100
AcDbEllipse
 10
57.1184188383
 20
592.1970604471
 30
0.0
 11
-10.7750000000002
 21
5.551115123125783E-14
 31
0.0
210
0.0
220
0.0
230
1.0
 40
0.0871557427
 41
-1.461530310353861
 42
-0.8946641798385127
  0
ELLIPSE
  5
1A2
330
75
100
AcDbEntity
  8
$DDT_AUDIT_GENERATED_(9D)
  6
Continuous
 62
     7
100
AcDbEllipse
 10
57.1184188383
 20
592.1970604471
 30
0.0
 11
-10.77500000000018
 21
8.326672684688675E-14
 31
0.0
210
0.0
220
0.0
230
1.0
 40
0.0871557427
 41
-0.6761321469563777
 42
-0.1092660164409809
  0
ELLIPSE
  5
1A3
330
75
100
AcDbEntity
  8
$DDT_AUDIT_GENERATED_(9D)
  6
Continuous
 62
     7
100
AcDbEllipse
 10
57.1184188383
 20
592.1970604471
 30
0.0
 11
-10.77500000000064
 21
-8.326672684688674E-14
 31
0.0
210
0.0
220
0.0
230
1.0
 40
0.0871557427
 41
0.1092660164410292
 42
0.4914054767010139
  0
ELLIPSE
  5
1A4
330
75
100
AcDbEntity
  8
$DDT_AUDIT_GENERATED_(9D)
  6
Continuous
 62
     7
100
AcDbEllipse
 10
57.1184188383
 20
592.1970604471
 30
0.0
 11
10.77500000000045
 21
-1.110223024625157E-13
 31
0.0
210
0.0
220
0.0
230
1.0
 40
0.0871557427
 41
-0.4914054767010274
 42
-0.1092660164410706
  0
ELLIPSE
  5
1A5
330
75
100
AcDbEntity
  8
$DDT_AUDIT_GENERATED_(9D)
  6
Continuous
 62
     7
100
AcDbEllipse
 10
57.1184188383
 20
592.1970604471
 30
0.0
 11
10.77499999999929
 21
-1.110223024625157E-13
 31
0.0
210
0.0
220
0.0
230
1.0
 40
0.0871557427
 41
0.8946641798384838
 42
1.461530310353906
  0
ELLIPSE
  5
1A6
330
75
100
AcDbEntity
  8
$DDT_AUDIT_GENERATED_(9D)
  6
Continuous
 62
     7
100
AcDbEllipse
 10
57.1184188387
 20
592.1970604472
 30
0.0
 11
10.77499999958869
 21
-2.486899575160351E-11
 31
0.0
210
0.0
220
0.0
230
1.0
 40
0.0871557427
 41
0.7203871818333796
 42
0.8504091449873163
  0
ELLIPSE
  5
1A7
330
75
100
AcDbEntity
  8
$DDT_AUDIT_GENERATED_(9D)
  6
Continuous
 62
     7
100
AcDbEllipse
 10
57.1184188383
 20
592.1970604471
 30
0.0
 11
10.77499999999928
 21
2.775557561562891E-14
 31
0.0
210
0.0
220
0.0
230
1.0
 40
0.0871557427
 41
0.1092660164410404
 42
0.6761321469564007
  0
LINE
  5
1A8
330
75
100
AcDbEntity
  8
$DDT_AUDIT_GENERATED_(9D)
  6
Continuous
 62
     7
100
AcDbLine
 10
57.4821495079
 20
587.2125510774
 30
0.0
 11
57.4821495079
 21
587.4927723662
 31
0.0
  0
LINE
  5
1A9
330
75
100
AcDbEntity
  8
$DDT_AUDIT_GENERATED_(9D)
  6
Continuous
 62
     7
100
AcDbLine
 10
56.7546881687
 20
587.2125510774
 30
0.0
 11
56.7546881687
 21
587.4927723662
 31
0.0
  0
LINE
  5
1AA
330
75
100
AcDbEntity
  8
$DDT_AUDIT_GENERATED_(9D)
  6
Continuous
 62
     7
100
AcDbLine
 10
56.1744511482
 20
587.1467484917
 30
0.0
 11
56.1744511482
 21
587.4114213459
 31
0.0
  0
LINE
  5
1AB
330
75
100
AcDbEntity
  8
$DDT_AUDIT_GENERATED_(9D)
  6
Continuous
 62
     7
100
AcDbLine
 10
51.5238947298
 20
587.344156249
 30
0.0
 11
51.5238947298
 21
587.3809449443
 31
0.0
  0
LINE
  5
1AC
330
75
100
AcDbEntity
  8
$DDT_AUDIT_GENERATED_(9D)
  6
Continuous
 62
     7
100
AcDbLine
 10
62.7129429467
 20
587.344156249
 30
0.0
 11
62.7129429467
 21
587.3809449443
 31
0.0
  0
LINE
  5
1AD
330
75
100
AcDbEntity
  8
$DDT_AUDIT_GENERATED_(9D)
  6
Continuous
 62
     7
100
AcDbLine
 10
58.0623865284
 20
587.1467484917
 30
0.0
 11
58.0623865284
 21
587.4114213459
 31
0.0
  0
LINE
  5
1AE
330
75
100
AcDbEntity
  8
$DDT_AUDIT_GENERATED_(9D)
  6
Continuous
 62
     7
100
AcDbLine
 10
50.9436577093
 20
587.4099588348
 30
0.0
 11
50.9436577093
 21
587.4467475301
 31
0.0
  0
LINE
  5
1AF
330
75
100
AcDbEntity
  8
$DDT_AUDIT_GENERATED_(9D)
  6
Continuous
 62
     7
100
AcDbLine
 10
63.2931799673
 20
587.4099588348
 30
0.0
 11
63.2931799673
 21
587.4467475301
 31
0.0
  0
LINE
  5
1B0
330
75
100
AcDbEntity
  8
$DDT_AUDIT_GENERATED_(9D)
  6
Continuous
 62
     7
100
AcDbLine
 10
60.6777832478
 20
586.9892231529
 30
0.0
 11
60.6777832478
 21
587.0913351292
 31
0.0
  0
LINE
  5
1B1
330
75
100
AcDbEntity
  8
$DDT_AUDIT_GENERATED_(9D)
  6
Continuous
 62
     7
100
AcDbLine
 10
61.405244587
 20
587.1865740545
 30
0.0
 11
61.405244587
 21
587.2697205223
 31
0.0
  0
LINE
  5
1B2
330
75
100
AcDbEntity
  8
$DDT_AUDIT_GENERATED_(9D)
  6
Continuous
 62
     7
100
AcDbLine
 10
60.6777832478
 20
587.1960798543
 30
0.0
 11
60.6777832478
 21
587.4334895151
 31
0.0
  0
LINE
  5
1B3
330
75
100
AcDbEntity
  8
$DDT_AUDIT_GENERATED_(9D)
  6
Continuous
 62
     7
100
AcDbLine
 10
61.405244587
 20
587.398196551
 30
0.0
 11
61.405244587
 21
587.6143012598
 31
0.0
  0
LINE
  5
1B4
330
75
100
AcDbEntity
  8
$DDT_AUDIT_GENERATED_(9D)
  6
Continuous
 62
     7
100
AcDbLine
 10
60.6777832478
 20
587.5470014384
 30
0.0
 11
60.6777832478
 21
587.7050535843
 31
0.0
  0
LINE
  5
1B5
330
75
100
AcDbEntity
  8
$DDT_AUDIT_GENERATED_(9D)
  6
Continuous
 62
     7
100
AcDbLine
 10
61.9854816076
 20
587.2855365769
 30
0.0
 11
61.9854816076
 21
587.3190277982
 31
0.0
  0
LINE
  5
1B6
330
75
100
AcDbEntity
  8
$DDT_AUDIT_GENERATED_(9D)
  6
Continuous
 62
     7
100
AcDbLine
 10
62.7129429467
 20
587.552841548
 30
0.0
 11
62.7129429467
 21
587.5619784038
 31
0.0
  0
LINE
  5
1B7
330
75
100
AcDbEntity
  8
$DDT_AUDIT_GENERATED_(9D)
  6
Continuous
 62
     7
100
AcDbLine
 10
61.9854816076
 20
587.4214632563
 30
0.0
 11
61.9854816076
 21
587.5918752252
 31
0.0
  0
LINE
  5
1B8
330
75
100
AcDbEntity
  8
$DDT_AUDIT_GENERATED_(9D)
  6
Continuous
 62
     7
100
AcDbLine
 10
60.0975462273
 20
586.8326510565
 30
0.0
 11
60.0975462273
 21
586.85756946
 31
0.0
  0
LINE
  5
1B9
330
75
100
AcDbEntity
  8
$DDT_AUDIT_GENERATED_(9D)
  6
Continuous
 62
     7
100
AcDbLine
 10
60.0975462273
 20
586.9721897383
 30
0.0
 11
60.0975462273
 21
587.1263561938
 31
0.0
  0
LINE
  5
1BA
330
75
100
AcDbEntity
  8
$DDT_AUDIT_GENERATED_(9D)
  6
Continuous
 62
     7
100
AcDbLine
 10
60.0975462273
 20
587.2533988652
 30
0.0
 11
60.0975462273
 21
587.5402371997
 31
0.0
  0
LINE
  5
1BB
330
75
100
AcDbEntity
  8
$DDT_AUDIT_GENERATED_(9D)
  6
Continuous
 62
     7
100
AcDbLine
 10
52.251356069
 20
587.4214632563
 30
0.0
 11
52.251356069
 21
587.5917827761
 31
0.0
  0
LINE
  5
1BC
330
75
100
AcDbEntity
  8
$DDT_AUDIT_GENERATED_(9D)
  6
Continuous
 62
     7
100
AcDbLine
 10
52.251356069
 20
587.2855365769
 30
0.0
 11
52.251356069
 21
587.3189310826
 31
0.0
  0
LINE
  5
1BD
330
75
100
AcDbEntity
  8
$DDT_AUDIT_GENERATED_(9D)
  6
Continuous
 62
     7
100
AcDbLine
 10
51.5238947298
 20
587.552841548
 30
0.0
 11
51.5238947298
 21
587.5622569998
 31
0.0
  0
LINE
  5
1BE
330
75
100
AcDbEntity
  8
$DDT_AUDIT_GENERATED_(9D)
  6
Continuous
 62
     7
100
AcDbLine
 10
53.5590544287
 20
587.5470014384
 30
0.0
 11
53.5590544287
 21
587.7050535843
 31
0.0
  0
LINE
  5
1BF
330
75
100
AcDbEntity
  8
$DDT_AUDIT_GENERATED_(9D)
  6
Continuous
 62
     7
100
AcDbLine
 10
54.1392914493
 20
587.2533988652
 30
0.0
 11
54.1392914493
 21
587.5404323528
 31
0.0
  0
LINE
  5
1C0
330
75
100
AcDbEntity
  8
$DDT_AUDIT_GENERATED_(9D)
  6
Continuous
 62
     7
100
AcDbLine
 10
53.5590544287
 20
587.1960798543
 30
0.0
 11
53.5590544287
 21
587.4333612599
 31
0.0
  0
LINE
  5
1C1
330
75
100
AcDbEntity
  8
$DDT_AUDIT_GENERATED_(9D)
  6
Continuous
 62
     7
100
AcDbLine
 10
52.8315930895
 20
587.398196551
 30
0.0
 11
52.8315930895
 21
587.6145798171
 31
0.0
  0
LINE
  5
1C2
330
75
100
AcDbEntity
  8
$DDT_AUDIT_GENERATED_(9D)
  6
Continuous
 62
     7
100
AcDbLine
 10
54.1392914493
 20
586.9721897383
 30
0.0
 11
54.1392914493
 21
587.1265654217
 31
0.0
  0
LINE
  5
1C3
330
75
100
AcDbEntity
  8
$DDT_AUDIT_GENERATED_(9D)
  6
Continuous
 62
     7
100
AcDbLine
 10
53.5590544287
 20
586.9892231529
 30
0.0
 11
53.5590544287
 21
587.0912003473
 31
0.0
  0
LINE
  5
1C4
330
75
100
AcDbEntity
  8
$DDT_AUDIT_GENERATED_(9D)
  6
Continuous
 62
     7
100
AcDbLine
 10
52.8315930895
 20
587.1865740545
 30
0.0
 11
52.8315930895
 21
587.2700102001
 31
0.0
  0
LINE
  5
1C5
330
75
100
AcDbEntity
  8
$DDT_AUDIT_GENERATED_(9D)
  6
Continuous
 62
     7
100
AcDbLine
 10
54.1392914493
 20
586.8326510565
 30
0.0
 11
54.1392914493
 21
586.8577852388
 31
0.0
  0
LINE
  5
1C6
330
75
100
AcDbEntity
  8
$DDT_AUDIT_GENERATED_(9D)
  6
Continuous
 62
     7
100
AcDbLine
 10
66.6184188383
 20
588.4555659108
 30
0.0
 11
66.6184188383
 21
592.1970604471
 31
0.0
  0
LINE
  5
1C7
330
75
100
AcDbEntity
  8
$DDT_AUDIT_GENERATED_(9D)
  6
Continuous
 62
     7
100
AcDbLine
 10
47.6184188383
 20
592.1970604471
 30
0.0
 11
47.6184188383
 21
588.4555659108
 31
0.0
  0
ARC
  5
1C8
330
75
100
AcDbEntity
  8
$DDT_AUDIT_GENERATED_(9D)
  6
Continuous
 62
     7
100
AcDbCircle
 10
64.7438182412
 20
588.373467036
 30
0.0
 40
1.588481867167266
100
AcDbArc
 50
279.3339949065
 51
308.9839997291
  0
ARC
  5
1C9
330
75
100
AcDbEntity
  8
$DDT_AUDIT_GENERATED_(9D)
  6
Continuous
 62
     7
100
AcDbCircle
 10
49.4185802405
 20
588.2327903019
 30
0.0
 40
1.43032613484366
100
AcDbArc
 50
229.814073305
 51
260.2705463467
  0
LINE
  5
1CA
330
75
100
AcDbEntity
  8
$DDT_AUDIT_GENERATED_(9D)
  6
Continuous
 62
     7
100
AcDbLine
 10
47.9466165677
 20
587.6809444113
 30
0.0
 11
48.4750587405
 21
587.1565317133
 31
0.0
  0
LINE
  5
1CB
330
75
100
AcDbEntity
  8
$DDT_AUDIT_GENERATED_(9D)
  6
Continuous
 62
     7
100
AcDbLine
 10
65.7617789361
 20
587.1565317133
 30
0.0
 11
66.2902211088
 21
587.6809444113
 31
0.0
  0
LINE
  5
1CC
330
75
100
AcDbEntity
  8
$DDT_AUDIT_GENERATED_(9D)
  6
Continuous
 62
     7
100
AcDbLine
 10
68.3200502395
 20
592.0473906584
 30
0.0
 11
68.7428772897
 21
592.2877726405
 31
0.0
  0
ARC
  5
1CD
330
75
100
AcDbEntity
  8
$DDT_AUDIT_GENERATED_(9D)
  6
Continuous
 62
     7
100
AcDbCircle
 10
65.5439169073
 20
588.4500359894
 30
0.0
 40
1.071200888036053
100
AcDbArc
 50
313.3421531383
 51
0.2741164993
  0
ARC
  5
1CE
330
75
100
AcDbEntity
  8
$DDT_AUDIT_GENERATED_(9D)
  6
Continuous
 62
     7
100
AcDbCircle
 10
48.6965877597
 20
588.458512942
 30
0.0
 40
1.07817294903604
100
AcDbArc
 50
180.156609996
 51
227.1064985858
  0
SPLINE
  5
1CF
330
75
100
AcDbEntity
  8
$DDT_AUDIT_GENERATED_(9D)
  6
Continuous
 62
     7
100
AcDbSpline
210
0.0
220
0.0
230
1.0
 70
     8
 71
     3
 72
     9
 73
     5
 74
     0
 42
0.0000002965653471
 43
0.0000000001
 40
0.0
 40
0.0
 40
0.0
 40
0.0
 40
0.5400552285772541
 40
0.6718918108698104
 40
0.6718918108698104
 40
0.6718918108698104
 40
0.6718918108698104
 10
64.54827945901519
 20
587.3731417554594
 30
0.0
 10
64.5576666384478
 20
587.3693421377884
 30
0.0
 10
64.56710164336786
 20
587.3663564066474
 30
0.0
 10
64.56908180751095
 20
587.3647857147728
 30
0.0
 10
64.56918504317245
 20
587.3648056411089
 30
0.0
  0
SPLINE
  5
1D0
330
75
100
AcDbEntity
  8
$DDT_AUDIT_GENERATED_(9D)
  6
Continuous
 62
     7
100
AcDbSpline
210
0.0
220
0.0
230
1.0
 70
     8
 71
     3
 72
     8
 73
     4
 74
     0
 42
0.0000022002058185
 43
0.0000000001
 40
0.0
 40
0.0
 40
0.0
 40
0.0
 40
0.2200205818477233
 40
0.2200205818477233
 40
0.2200205818477233
 40
0.2200205818477233
 10
63.08041572578585
 20
587.1999631767046
 30
0.0
 10
63.08065937919602
 20
587.1999019638396
 30
0.0
 10
63.08085320730342
 20
587.1999100031555
 30
0.0
 10
63.08090606337039
 20
587.200052934125
 30
0.0
  0
SPLINE
  5
1D1
330
75
100
AcDbEntity
  8
$DDT_AUDIT_GENERATED_(9D)
  6
Continuous
 62
     7
100
AcDbSpline
210
0.0
220
0.0
230
1.0
 70
     8
 71
     3
 72
     8
 73
     4
 74
     0
 42
0.0000021428378804
 43
0.0000000001
 40
0.7857162119557759
 40
0.7857162119557759
 40
0.7857162119557759
 40
0.7857162119557759
 40
1.0
 40
1.0
 40
1.0
 40
1.0
 10
51.15597200337078
 20
587.2000697115076
 30
0.0
 10
51.15602447587624
 20
587.1999310465517
 30
0.0
 10
51.15620636610766
 20
587.1999173954665
 30
0.0
 10
51.15643473001349
 20
587.1999682641108
 30
0.0
  0
SPLINE
  5
1D2
330
75
100
AcDbEntity
  8
$DDT_AUDIT_GENERATED_(9D)
  6
Continuous
 62
     7
100
AcDbSpline
210
0.0
220
0.0
230
1.0
 70
     8
 71
     3
 72
     9
 73
     5
 74
     0
 42
0.0000002977498137
 43
0.0000000001
 40
0.3271310217256659
 40
0.3271310217256659
 40
0.3271310217256659
 40
0.3271310217256659
 40
0.4580959375037819
 40
1.0
 40
1.0
 40
1.0
 40
1.0
 10
49.66769160985302
 20
587.364879180528
 30
0.0
 10
49.66779520091414
 20
587.3648592830814
 30
0.0
 10
49.6697698721685
 20
587.3664093922985
 30
0.0
 10
49.67918018969396
 20
587.3693683431018
 30
0.0
 10
49.68856474033069
 20
587.3731504676169
 30
0.0
  0
LINE
  5
1D3
330
75
100
AcDbEntity
  8
$DDT_AUDIT_GENERATED_(9D)
  6
Continuous
 62
     7
100
AcDbLine
 10
51.4776817083
 20
587.3809449443
 30
0.0
 11
51.6737081261
 21
587.3809449443
 31
0.0
  0
LINE
  5
1D4
330
75
100
AcDbEntity
  8
$DDT_AUDIT_GENERATED_(9D)
  6
Continuous
 62
     7
100
AcDbLine
 10
51.0837098283
 20
587.3205614944
 30
0.0
 11
51.4837110209
 21
587.3809449443
 31
0.0
  0
LINE
  5
1D5
330
75
100
AcDbEntity
  8
$DDT_AUDIT_GENERATED_(9D)
  6
Continuous
 62
     7
100
AcDbLine
 10
50.9838414183
 20
587.4467475301
 30
0.0
 11
51.3838426108
 21
587.3863640802
 31
0.0
  0
LINE
  5
1D6
330
75
100
AcDbEntity
  8
$DDT_AUDIT_GENERATED_(9D)
  6
Continuous
 62
     7
100
AcDbLine
 10
50.1700083486
 20
587.4467475301
 30
0.0
 11
50.9898457308
 21
587.4467475301
 31
0.0
  0
LINE
  5
1D7
330
75
100
AcDbEntity
  8
$DDT_AUDIT_GENERATED_(9D)
  6
Continuous
 62
     7
100
AcDbLine
 10
49.6884809932
 20
587.3731506394
 30
0.0
 11
50.1760126611
 21
587.4467475301
 31
0.0
  0
LINE
  5
1D8
330
75
100
AcDbEntity
  8
$DDT_AUDIT_GENERATED_(9D)
  6
Continuous
 62
     7
100
AcDbLine
 10
50.0764593781
 20
587.3151423585
 30
0.0
 11
50.9898707308
 21
587.3151423585
 31
0.0
  0
LINE
  5
1D9
330
75
100
AcDbEntity
  8
$DDT_AUDIT_GENERATED_(9D)
  6
Continuous
 62
     7
100
AcDbLine
 10
50.9838414183
 20
587.3151423585
 30
0.0
 11
51.3838426108
 21
587.2547589086
 31
0.0
  0
LINE
  5
1DA
330
75
100
AcDbEntity
  8
$DDT_AUDIT_GENERATED_(9D)
  6
Continuous
 62
     7
100
AcDbLine
 10
51.4777067083
 20
587.2493397727
 30
0.0
 11
52.0669300644
 21
587.2493397727
 31
0.0
  0
LINE
  5
1DB
330
75
100
AcDbEntity
  8
$DDT_AUDIT_GENERATED_(9D)
  6
Continuous
 62
     7
100
AcDbLine
 10
51.1582440467
 20
587.2002078724
 30
0.0
 11
51.4837110209
 21
587.2493397727
 31
0.0
  0
LINE
  5
1DC
330
75
100
AcDbEntity
  8
$DDT_AUDIT_GENERATED_(9D)
  6
Continuous
 62
     7
100
AcDbLine
 10
52.3319053982
 20
587.1141713045
 30
0.0
 11
52.431948043
 21
587.1292735596
 31
0.0
  0
LINE
  5
1DD
330
75
100
AcDbEntity
  8
$DDT_AUDIT_GENERATED_(9D)
  6
Continuous
 62
     7
100
AcDbLine
 10
51.1399435881
 20
587.554787803
 30
0.0
 11
51.1975664776
 21
587.5460891568
 31
0.0
  0
LINE
  5
1DE
330
75
100
AcDbEntity
  8
$DDT_AUDIT_GENERATED_(9D)
  6
Continuous
 62
     7
100
AcDbLine
 10
56.2146348571
 20
587.0519320154
 30
0.0
 11
56.6540921059
 21
586.9855923513
 31
0.0
  0
LINE
  5
1DF
330
75
100
AcDbEntity
  8
$DDT_AUDIT_GENERATED_(9D)
  6
Continuous
 62
     7
100
AcDbLine
 10
55.8184188383
 20
587.0519320154
 30
0.0
 11
56.2206391697
 21
587.0519320154
 31
0.0
  0
LINE
  5
1E0
330
75
100
AcDbEntity
  8
$DDT_AUDIT_GENERATED_(9D)
  6
Continuous
 62
     7
100
AcDbLine
 10
57.5223332169
 20
587.1177346012
 30
0.0
 11
57.9223344094
 21
587.0573511513
 31
0.0
  0
LINE
  5
1E1
330
75
100
AcDbEntity
  8
$DDT_AUDIT_GENERATED_(9D)
  6
Continuous
 62
     7
100
AcDbLine
 10
56.7085001472
 20
587.1177346012
 30
0.0
 11
57.5283375294
 21
587.1177346012
 31
0.0
  0
LINE
  5
1E2
330
75
100
AcDbEntity
  8
$DDT_AUDIT_GENERATED_(9D)
  6
Continuous
 62
     7
100
AcDbLine
 10
56.3145032672
 20
587.0573511513
 30
0.0
 11
56.7145044597
 21
587.1177346012
 31
0.0
  0
LINE
  5
1E3
330
75
100
AcDbEntity
  8
$DDT_AUDIT_GENERATED_(9D)
  6
Continuous
 62
     7
100
AcDbLine
 10
63.039271199
 20
587.5460891568
 30
0.0
 11
63.0968940885
 21
587.554787803
 31
0.0
  0
LINE
  5
1E4
330
75
100
AcDbEntity
  8
$DDT_AUDIT_GENERATED_(9D)
  6
Continuous
 62
     7
100
AcDbLine
 10
62.8529950658
 20
587.3863640802
 30
0.0
 11
63.2529962583
 21
587.4467475301
 31
0.0
  0
LINE
  5
1E5
330
75
100
AcDbEntity
  8
$DDT_AUDIT_GENERATED_(9D)
  6
Continuous
 62
     7
100
AcDbLine
 10
63.2469919457
 20
587.4467475301
 30
0.0
 11
64.066829328
 21
587.4467475301
 31
0.0
  0
LINE
  5
1E6
330
75
100
AcDbEntity
  8
$DDT_AUDIT_GENERATED_(9D)
  6
Continuous
 62
     7
100
AcDbLine
 10
64.0608250154
 20
587.4467475301
 30
0.0
 11
64.5483550912
 21
587.3731508797
 31
0.0
  0
LINE
  5
1E7
330
75
100
AcDbEntity
  8
$DDT_AUDIT_GENERATED_(9D)
  6
Continuous
 62
     7
100
AcDbLine
 10
62.8529950658
 20
587.2547589086
 30
0.0
 11
63.2529962583
 21
587.3151423585
 31
0.0
  0
LINE
  5
1E8
330
75
100
AcDbEntity
  8
$DDT_AUDIT_GENERATED_(9D)
  6
Continuous
 62
     7
100
AcDbLine
 10
63.2469669457
 20
587.3151423585
 30
0.0
 11
64.1605929488
 21
587.3151423585
 31
0.0
  0
LINE
  5
1E9
330
75
100
AcDbEntity
  8
$DDT_AUDIT_GENERATED_(9D)
  6
Continuous
 62
     7
100
AcDbLine
 10
62.7531266557
 20
587.3809449443
 30
0.0
 11
63.1531278482
 21
587.3205614944
 31
0.0
  0
LINE
  5
1EA
330
75
100
AcDbEntity
  8
$DDT_AUDIT_GENERATED_(9D)
  6
Continuous
 62
     7
100
AcDbLine
 10
62.5631295505
 20
587.3809449443
 30
0.0
 11
62.7591559683
 21
587.3809449443
 31
0.0
  0
LINE
  5
1EB
330
75
100
AcDbEntity
  8
$DDT_AUDIT_GENERATED_(9D)
  6
Continuous
 62
     7
100
AcDbLine
 10
58.0161985069
 20
587.0519320154
 30
0.0
 11
58.4184188383
 21
587.0519320154
 31
0.0
  0
LINE
  5
1EC
330
75
100
AcDbEntity
  8
$DDT_AUDIT_GENERATED_(9D)
  6
Continuous
 62
     7
100
AcDbLine
 10
57.5827455755
 20
586.985592352
 30
0.0
 11
58.0222028194
 21
587.0519320154
 31
0.0
  0
LINE
  5
1ED
330
75
100
AcDbEntity
  8
$DDT_AUDIT_GENERATED_(9D)
  6
Continuous
 62
     7
100
AcDbLine
 10
62.1699076121
 20
587.2493397727
 30
0.0
 11
62.7591309683
 21
587.2493397727
 31
0.0
  0
LINE
  5
1EE
330
75
100
AcDbEntity
  8
$DDT_AUDIT_GENERATED_(9D)
  6
Continuous
 62
     7
100
AcDbLine
 10
62.7531266557
 20
587.2493397727
 30
0.0
 11
63.0790324024
 21
587.2001416361
 31
0.0
  0
LINE
  5
1EF
330
75
100
AcDbEntity
  8
$DDT_AUDIT_GENERATED_(9D)
  6
Continuous
 62
     7
100
AcDbLine
 10
61.8048896336
 20
587.1292735596
 30
0.0
 11
61.9049295834
 21
587.1141717114
 31
0.0
  0
ARC
  5
1F0
330
75
100
AcDbEntity
  8
$DDT_AUDIT_GENERATED_(9D)
  6
Continuous
 62
     7
100
AcDbCircle
 10
55.7384188383
 20
586.5849379727
 30
0.0
 40
0.0799999999999741
100
AcDbArc
 50
265.1789552914
 51
0.0
  0
ARC
  5
1F1
330
75
100
AcDbEntity
  8
$DDT_AUDIT_GENERATED_(9D)
  6
Continuous
 62
     7
100
AcDbCircle
 10
55.7406710155
 20
587.263537187
 30
0.0
 40
0.0800000000004686
100
AcDbArc
 50
346.3724408148
 51
353.0393426022
  0
LINE
  5
1F2
330
75
100
AcDbEntity
  8
$DDT_AUDIT_GENERATED_(9D)
  6
Continuous
 62
     7
100
AcDbLine
 10
56.4295317786
 20
587.15109674
 30
0.0
 11
56.6146360497
 21
587.1231537371
 31
0.0
  0
ARC
  5
1F3
330
75
100
AcDbEntity
  8
$DDT_AUDIT_GENERATED_(9D)
  6
Continuous
 62
     7
100
AcDbCircle
 10
56.441473137
 20
587.2302004944
 30
0.0
 40
0.0800000000000031
100
AcDbArc
 50
219.2017367281
 51
261.4155506449
  0
ARC
  5
1F4
330
75
100
AcDbEntity
  8
$DDT_AUDIT_GENERATED_(9D)
  6
Continuous
 62
     7
100
AcDbCircle
 10
58.4961666611
 20
587.263537187
 30
0.0
 40
0.0799999999950607
100
AcDbArc
 50
186.9606573996
 51
193.6275591854
  0
ARC
  5
1F5
330
75
100
AcDbEntity
  8
$DDT_AUDIT_GENERATED_(9D)
  6
Continuous
 62
     7
100
AcDbCircle
 10
58.4984188383
 20
586.5849379727
 30
0.0
 40
0.08
100
AcDbArc
 50
180.0
 51
274.8210447086
  0
LINE
  5
1F6
330
75
100
AcDbEntity
  8
$DDT_AUDIT_GENERATED_(9D)
  6
Continuous
 62
     7
100
AcDbLine
 10
57.6222016269
 20
587.1231537371
 30
0.0
 11
57.807305898
 21
587.15109674
 31
0.0
  0
ARC
  5
1F7
330
75
100
AcDbEntity
  8
$DDT_AUDIT_GENERATED_(9D)
  6
Continuous
 62
     7
100
AcDbCircle
 10
57.7953645396
 20
587.2302004944
 30
0.0
 40
0.0799999999999802
100
AcDbArc
 50
278.5844493551
 51
320.7982632719
  0
SPLINE
  5
1F8
330
75
100
AcDbEntity
  8
$DDT_AUDIT_GENERATED_(9D)
  6
Continuous
 62
     7
100
AcDbSpline
210
0.0
220
0.0
230
1.0
 70
     8
 71
     3
 72
    12
 73
     8
 74
     0
 42
0.0000000418406722
 43
0.0000000001
 40
0.0
 40
0.0
 40
0.0
 40
0.0
 40
0.1123647779306509
 40
0.2272609482822915
 40
0.4676022588773379
 40
0.7274242640202648
 40
0.9593888666263372
 40
0.9593888666263372
 40
0.9593888666263372
 40
0.9593888666263372
 10
58.26841883828219
 20
587.4114436764279
 30
0.0
 10
58.2780900237239
 20
587.410916147364
 30
0.0
 10
58.29469968550428
 20
587.409756410575
 30
0.0
 10
58.33043608489644
 20
587.3974035465163
 30
0.0
 10
58.36983394974593
 20
587.3679527854398
 30
0.0
 10
58.40223029422066
 20
587.3172540613939
 30
0.0
 10
58.41152092570669
 20
587.2819699733537
 30
0.0
 10
58.41557506588097
 20
587.2630924886448
 30
0.0
  0
LINE
  5
1F9
330
75
100
AcDbEntity
  8
$DDT_AUDIT_GENERATED_(9D)
  6
Continuous
 62
     7
100
AcDbLine
 10
58.0444713711
 20
587.4114213459
 30
0.0
 11
58.2684188383
 21
587.4114213459
 31
0.0
  0
LINE
  5
1FA
330
75
100
AcDbEntity
  8
$DDT_AUDIT_GENERATED_(9D)
  6
Continuous
 62
     7
100
AcDbLine
 10
57.8574741502
 20
587.1797786276
 30
0.0
 11
58.0585866883
 21
587.4176120969
 31
0.0
  0
LINE
  5
1FB
330
75
100
AcDbEntity
  8
$DDT_AUDIT_GENERATED_(9D)
  6
Continuous
 62
     7
100
AcDbLine
 10
56.3252110317
 20
587.4927723662
 30
0.0
 11
57.9116266448
 21
587.4927723662
 31
0.0
  0
LINE
  5
1FC
330
75
100
AcDbEntity
  8
$DDT_AUDIT_GENERATED_(9D)
  6
Continuous
 62
     7
100
AcDbLine
 10
56.1782509883
 20
587.4176120969
 30
0.0
 11
56.3793635263
 21
587.1797786276
 31
0.0
  0
LINE
  5
1FD
330
75
100
AcDbEntity
  8
$DDT_AUDIT_GENERATED_(9D)
  6
Continuous
 62
     7
100
AcDbLine
 10
55.9684188383
 20
587.4114213459
 30
0.0
 11
56.1923663055
 21
587.4114213459
 31
0.0
  0
SPLINE
  5
1FE
330
75
100
AcDbEntity
  8
$DDT_AUDIT_GENERATED_(9D)
  6
Continuous
 62
     7
100
AcDbSpline
210
0.0
220
0.0
230
1.0
 70
     8
 71
     3
 72
    12
 73
     8
 74
     0
 42
0.0000000418406336
 43
0.0000000001
 40
0.0405968220027544
 40
0.0405968220027544
 40
0.0405968220027544
 40
0.0405968220027544
 40
0.2725757359797998
 40
0.5323977411227533
 40
0.7727390517177571
 40
0.8876352220693965
 40
1.0
 40
1.0
 40
1.0
 40
1.0
 10
55.82126186031007
 20
587.2630889946029
 30
0.0
 10
55.82531621013904
 20
587.2819679197638
 30
0.0
 10
55.83460674907164
 20
587.3172530703534
 30
0.0
 10
55.86700372681832
 20
587.3679527854397
 30
0.0
 10
55.90640159166786
 20
587.3974035465164
 30
0.0
 10
55.94213799106006
 20
587.4097564105751
 30
0.0
 10
55.95874765284047
 20
587.410916147364
 30
0.0
 10
55.96841883828219
 20
587.4114436764279
 30
0.0
  0
ARC
  5
1FF
330
75
100
AcDbEntity
  8
$DDT_AUDIT_GENERATED_(9D)
  6
Continuous
 62
     7
100
AcDbCircle
 10
61.7310721313
 20
591.932268182
 30
0.0
 40
4.665994768416509
100
AcDbArc
 50
250.0308594142
 51
255.1561871952
  0
ARC
  5
200
330
75
100
AcDbEntity
  8
$DDT_AUDIT_GENERATED_(9D)
  6
Continuous
 62
     7
100
AcDbCircle
 10
57.1033360346
 20
603.4840994667
 30
0.0
 40
16.2232508910433
100
AcDbArc
 50
277.7666924444
 51
280.8743152111
  0
ARC
  5
201
330
75
100
AcDbEntity
  8
$DDT_AUDIT_GENERATED_(9D)
  6
Continuous
 62
     7
100
AcDbCircle
 10
57.100137168
 20
603.3761311562
 30
0.0
 40
16.52455891905727
100
AcDbArc
 50
277.6347715618
 51
280.684062261
  0
ARC
  5
202
330
75
100
AcDbEntity
  8
$DDT_AUDIT_GENERATED_(9D)
  6
Continuous
 62
     7
100
AcDbCircle
 10
57.0984837012
 20
603.2568836738
 30
0.0
 40
16.67192476483224
100
AcDbArc
 50
277.5723195033
 51
280.5938827622
  0
ARC
  5
203
330
75
100
AcDbEntity
  8
$DDT_AUDIT_GENERATED_(9D)
  6
Continuous
 62
     7
100
AcDbCircle
 10
57.0749316319
 20
603.3721539744
 30
0.0
 40
16.67517342198922
100
AcDbArc
 50
282.3580113098
 51
285.3085591081
  0
ARC
  5
204
330
75
100
AcDbEntity
  8
$DDT_AUDIT_GENERATED_(9D)
  6
Continuous
 62
     7
100
AcDbCircle
 10
59.2900848881
 20
586.6710879322
 30
0.0
 40
0.0799999999999928
100
AcDbArc
 50
277.6000567539
 51
309.110332622
  0
LINE
  5
205
330
75
100
AcDbEntity
  8
$DDT_AUDIT_GENERATED_(9D)
  6
Continuous
 62
     7
100
AcDbLine
 10
62.8866274128
 20
587.4923970852
 30
0.0
 11
63.1531278482
 21
587.452166666
 31
0.0
  0
ARC
  5
206
330
75
100
AcDbEntity
  8
$DDT_AUDIT_GENERATED_(9D)
  6
Continuous
 62
     7
100
AcDbCircle
 10
55.5640682543
 20
593.7458438964
 30
0.0
 40
7.743953523976221
100
AcDbArc
 50
307.4015308651
 51
308.8300939854
  0
ARC
  5
207
330
75
100
AcDbEntity
  8
$DDT_AUDIT_GENERATED_(9D)
  6
Continuous
 62
     7
100
AcDbCircle
 10
57.0817701785
 20
603.2365476082
 30
0.0
 40
16.65614680593641
100
AcDbArc
 50
287.0222295455
 51
290.0473626609
  0
ARC
  5
208
330
75
100
AcDbEntity
  8
$DDT_AUDIT_GENERATED_(9D)
  6
Continuous
 62
     7
100
AcDbCircle
 10
57.0856663488
 20
603.3545425984
 30
0.0
 40
16.50706357263453
100
AcDbArc
 50
287.1672721232
 51
287.6719741088
  0
ARC
  5
209
330
75
100
AcDbEntity
  8
$DDT_AUDIT_GENERATED_(9D)
  6
Continuous
 62
     7
100
AcDbCircle
 10
57.1335093521
 20
603.4841464443
 30
0.0
 40
16.22329847962259
100
AcDbArc
 50
259.1256893479
 51
262.2333029967
  0
ARC
  5
20A
330
75
100
AcDbEntity
  8
$DDT_AUDIT_GENERATED_(9D)
  6
Continuous
 62
     7
100
AcDbCircle
 10
52.5033444689
 20
591.9399172681
 30
0.0
 40
4.67400884642157
100
AcDbArc
 50
284.8484795538
 51
289.9706056262
  0
ARC
  5
20B
330
75
100
AcDbEntity
  8
$DDT_AUDIT_GENERATED_(9D)
  6
Continuous
 62
     7
100
AcDbCircle
 10
57.1367086757
 20
603.3761818087
 30
0.0
 40
16.52461020752978
100
AcDbArc
 50
259.3159424723
 51
262.3652237049
  0
ARC
  5
20C
330
75
100
AcDbEntity
  8
$DDT_AUDIT_GENERATED_(9D)
  6
Continuous
 62
     7
100
AcDbCircle
 10
57.1383623492
 20
603.2569360523
 30
0.0
 40
16.67197779008172
100
AcDbArc
 50
259.406122044
 51
262.4276756906
  0
ARC
  5
20D
330
75
100
AcDbEntity
  8
$DDT_AUDIT_GENERATED_(9D)
  6
Continuous
 62
     7
100
AcDbCircle
 10
54.9467527884
 20
586.6710879322
 30
0.0
 40
0.0800000000000002
100
AcDbArc
 50
230.889667378
 51
262.3999432461
  0
ARC
  5
20E
330
75
100
AcDbEntity
  8
$DDT_AUDIT_GENERATED_(9D)
  6
Continuous
 62
     7
100
AcDbCircle
 10
58.6628475788
 20
593.7337687677
 30
0.0
 40
7.728334581928679
100
AcDbArc
 50
231.1753055122
 51
232.6025281426
  0
ARC
  5
20F
330
75
100
AcDbEntity
  8
$DDT_AUDIT_GENERATED_(9D)
  6
Continuous
 62
     7
100
AcDbCircle
 10
57.2602057095
 20
592.7324448016
 30
0.0
 40
6.45875524390414
100
AcDbArc
 50
235.1867555797
 51
239.4475542834
  0
ARC
  5
210
330
75
100
AcDbEntity
  8
$DDT_AUDIT_GENERATED_(9D)
  6
Continuous
 62
     7
100
AcDbCircle
 10
51.9700334898
 20
591.7220538068
 30
0.0
 40
4.174778203879878
100
AcDbArc
 50
275.6468317753
 51
281.2191367606
  0
ARC
  5
211
330
75
100
AcDbEntity
  8
$DDT_AUDIT_GENERATED_(9D)
  6
Continuous
 62
     7
100
AcDbCircle
 10
57.1568601561
 20
603.4795543218
 30
0.0
 40
16.44493942634318
100
AcDbArc
 50
254.4890224387
 51
257.4834118248
  0
ARC
  5
212
330
75
100
AcDbEntity
  8
$DDT_AUDIT_GENERATED_(9D)
  6
Continuous
 62
     7
100
AcDbCircle
 10
57.1619283271
 20
603.3722444655
 30
0.0
 40
16.67526658520486
100
AcDbArc
 50
254.691449136
 51
257.6419804461
  0
ARC
  5
213
330
75
100
AcDbEntity
  8
$DDT_AUDIT_GENERATED_(9D)
  6
Continuous
 62
     7
100
AcDbCircle
 10
57.1512027245
 20
603.3546353827
 30
0.0
 40
16.50716149025929
100
AcDbArc
 50
252.3139130284
 51
252.8327188124
  0
ARC
  5
214
330
75
100
AcDbEntity
  8
$DDT_AUDIT_GENERATED_(9D)
  6
Continuous
 62
     7
100
AcDbCircle
 10
57.1550999279
 20
603.2366443356
 30
0.0
 40
16.65624878934965
100
AcDbArc
 50
249.9526466024
 51
252.9777611912
  0
LINE
  5
215
330
75
100
AcDbEntity
  8
$DDT_AUDIT_GENERATED_(9D)
  6
Continuous
 62
     7
100
AcDbLine
 10
51.0837098283
 20
587.452166666
 30
0.0
 11
51.3502102638
 21
587.4923970852
 31
0.0
  0
ARC
  5
216
330
75
100
AcDbEntity
  8
$DDT_AUDIT_GENERATED_(9D)
  6
Continuous
 62
     7
100
AcDbCircle
 10
56.9686382727
 20
592.7448633402
 30
0.0
 40
6.473513079659511
100
AcDbArc
 50
300.557501357
 51
304.8126023491
  0
ARC
  5
217
330
75
100
AcDbEntity
  8
$DDT_AUDIT_GENERATED_(9D)
  6
Continuous
 62
     7
100
AcDbCircle
 10
57.0799990893
 20
603.4794679026
 30
0.0
 40
16.44485038659511
100
AcDbArc
 50
282.5165800669
 51
285.5109856697
  0
ARC
  5
218
330
75
100
AcDbEntity
  8
$DDT_AUDIT_GENERATED_(9D)
  6
Continuous
 62
     7
100
AcDbCircle
 10
62.266176777
 20
591.7178974023
 30
0.0
 40
4.170580239860191
100
AcDbArc
 50
258.7857863183
 51
264.3561272723
  0
SPLINE
  5
219
330
75
100
AcDbEntity
  8
$DDT_AUDIT_GENERATED_(9D)
  6
Continuous
 62
     7
100
AcDbSpline
210
0.0
220
0.0
230
1.0
 70
     8
 71
     3
 72
     8
 73
     4
 74
     0
 42
0.0000001977145432
 43
0.0000000001
 40
0.0
 40
0.0
 40
0.0
 40
0.0
 40
1.0
 40
1.0
 40
1.0
 40
1.0
 10
45.78985753453975
 20
592.2336031630804
 30
0.0
 10
45.79123558895913
 20
592.2552452776595
 30
0.0
 10
45.79813507027406
 20
592.2688653390048
 30
0.0
 10
45.81055597848453
 20
592.2744633471166
 30
0.0
  0
LINE
  5
21A
330
75
100
AcDbEntity
  8
$DDT_AUDIT_GENERATED_(9D)
  6
Continuous
 62
     7
100
AcDbLine
 10
45.3586591773
 20
592.466687725
 30
0.0
 11
45.7894293119
 21
592.2217197217
 31
0.0
  0
SPLINE
  5
21B
330
75
100
AcDbEntity
  8
$DDT_AUDIT_GENERATED_(9D)
  6
Continuous
 62
     7
100
AcDbSpline
210
0.0
220
0.0
230
1.0
 70
     8
 71
     3
 72
     8
 73
     4
 74
     0
 42
0.000000195580644
 43
0.0000000001
 40
0.8851538365015623
 40
0.8851538365015623
 40
0.8851538365015623
 40
0.8851538365015623
 40
1.0
 40
1.0
 40
1.0
 40
1.0
 10
45.78697395426455
 20
592.240103454021
 30
0.0
 10
45.78616855694695
 20
592.2421435295894
 30
0.0
 10
45.78581689041029
 20
592.2440380286721
 30
0.0
 10
45.78591895465455
 20
592.2457869512692
 30
0.0
  0
LINE
  5
21C
330
75
100
AcDbEntity
  8
$DDT_AUDIT_GENERATED_(9D)
  6
Continuous
 62
     7
100
AcDbLine
 10
64.6379298407
 20
592.7053233809
 30
0.0
 11
65.5345356352
 21
592.7834677249
 31
0.0
  0
LINE
  5
21D
330
75
100
AcDbEntity
  8
$DDT_AUDIT_GENERATED_(9D)
  6
Continuous
 62
     7
100
AcDbLine
 10
66.6184188383
 20
592.0935108588
 30
0.0
 11
67.8262328225
 21
592.0935108588
 31
0.0
  0
LINE
  5
21E
330
75
100
AcDbEntity
  8
$DDT_AUDIT_GENERATED_(9D)
  6
Continuous
 62
     7
100
AcDbLine
 10
46.4106052028
 20
592.0935108588
 30
0.0
 11
47.6184188383
 21
592.0935108588
 31
0.0
  0
LINE
  5
21F
330
75
100
AcDbEntity
  8
$DDT_AUDIT_GENERATED_(9D)
  6
Continuous
 62
     7
100
AcDbLine
 10
48.7023020413
 20
592.7834677249
 30
0.0
 11
49.5989106057
 21
592.7053231395
 31
0.0
  0
ARC
  5
220
330
75
100
AcDbEntity
  8
$DDT_AUDIT_GENERATED_(9D)
  6
Continuous
 62
     7
100
AcDbCircle
 10
57.1184188383
 20
602.946844952
 30
0.0
 40
16.5
100
AcDbArc
 50
262.3999432461
 51
265.1789552914
  0
ARC
  5
221
330
75
100
AcDbEntity
  8
$DDT_AUDIT_GENERATED_(9D)
  6
Continuous
 62
     7
100
AcDbCircle
 10
57.1184188383
 20
602.946844952
 30
0.0
 40
16.49999999999998
100
AcDbArc
 50
257.7823786554
 51
258.1492205871
  0
ARC
  5
222
330
75
100
AcDbEntity
  8
$DDT_AUDIT_GENERATED_(9D)
  6
Continuous
 62
     7
100
AcDbCircle
 10
57.1184188383
 20
602.946844952
 30
0.0
 40
16.49999999999999
100
AcDbArc
 50
254.1378683873
 51
254.5198900302
  0
ARC
  5
223
330
75
100
AcDbEntity
  8
$DDT_AUDIT_GENERATED_(9D)
  6
Continuous
 62
     7
100
AcDbCircle
 10
57.1184188383
 20
602.946844952
 30
0.0
 40
16.5
100
AcDbArc
 50
285.4801099698
 51
285.8621316127
  0
ARC
  5
224
330
75
100
AcDbEntity
  8
$DDT_AUDIT_GENERATED_(9D)
  6
Continuous
 62
     7
100
AcDbCircle
 10
57.1184188383
 20
602.946844952
 30
0.0
 40
16.50000000000002
100
AcDbArc
 50
281.8507794129
 51
282.2176213446
  0
ARC
  5
225
330
75
100
AcDbEntity
  8
$DDT_AUDIT_GENERATED_(9D)
  6
Continuous
 62
     7
100
AcDbCircle
 10
57.1184188383
 20
602.946844952
 30
0.0
 40
16.50000000000001
100
AcDbArc
 50
274.8210447086
 51
277.6000567539
  0
LINE
  5
227
330
75
100
AcDbEntity
  8
$DDT_AUDIT_GENERATED_(226)
  6
Continuous
 62
     7
100
AcDbLine
 10
82.6184188383
 20
440.8989654358
 30
0.0
 11
31.6184188383
 21
440.8989654358
 31
0.0
  0
LINE
  5
228
330
75
100
AcDbEntity
  8
$DDT_AUDIT_GENERATED_(226)
  6
Continuous
 62
     7
100
AcDbLine
 10
41.6184188383
 20
612.9527769819
 30
0.0
 11
41.6184188383
 21
613.4763074556
 31
0.0
  0
LINE
  5
229
330
75
100
AcDbEntity
  8
$DDT_AUDIT_GENERATED_(226)
  6
Continuous
 62
     7
100
AcDbLine
 10
72.6184188383
 20
613.4763074556
 30
0.0
 11
72.6184188383
 21
612.9527769819
 31
0.0
  0
ARC
  5
22A
330
75
100
AcDbEntity
  8
$DDT_AUDIT_GENERATED_(226)
  6
Continuous
 62
     7
100
AcDbCircle
 10
4708.023510511
 20
542.9687532177
 30
0.0
 40
4666.9377320459
100
AcDbArc
 50
179.1587262622
 51
179.9479969532
  0
SPLINE
  5
22B
330
75
100
AcDbEntity
  8
$DDT_AUDIT_GENERATED_(226)
  6
Continuous
 62
     7
100
AcDbSpline
210
0.0
220
0.0
230
1.0
 70
     8
 71
     3
 72
    10
 73
     6
 74
     0
 42
0.0000000005297606
 43
0.0000000001
 40
0.1233549393784198
 40
0.1233549393784198
 40
0.1233549393784198
 40
0.1233549393784198
 40
0.1250000000000015
 40
0.1250000000000015
 40
0.1471526357208337
 40
0.1471526357208337
 40
0.1471526357208337
 40
0.1471526357208337
 10
44.12746002721708
 20
615.9048538189047
 30
0.0
 10
44.13674462443757
 20
615.9072435833368
 30
0.0
 10
44.14608747082794
 20
615.9096329030034
 30
0.0
 10
44.28208395268569
 20
615.9441897488332
 30
0.0
 10
44.41850755032885
 20
615.9760872127779
 30
0.0
 10
44.56471069998314
 20
616.0076155416281
 30
0.0
  0
SPLINE
  5
22C
330
75
100
AcDbEntity
  8
$DDT_AUDIT_GENERATED_(226)
  6
Continuous
 62
     7
100
AcDbSpline
210
0.0
220
0.0
230
1.0
 70
     8
 71
     3
 72
    24
 73
    20
 74
     0
 42
0.0000000002801865
 43
0.0000000001
 40
0.1471526357208337
 40
0.1471526357208337
 40
0.1471526357208337
 40
0.1471526357208337
 40
0.1875000000000022
 40
0.1875000000000022
 40
0.250000000000003
 40
0.250000000000003
 40
0.3750000000000032
 40
0.3750000000000032
 40
0.5000000000000033
 40
0.5000000000000033
 40
0.5625000000000034
 40
0.5625000000000034
 40
0.6250000000000034
 40
0.6250000000000034
 40
0.6875000000000036
 40
0.6875000000000036
 40
0.7500000000000038
 40
0.7500000000000038
 40
0.8534882480239511
 40
0.8534882480239511
 40
0.8534882480239511
 40
0.8534882480239511
 10
44.56471069998314
 20
616.0076155416281
 30
0.0
 10
44.83099557065051
 20
616.0650391812014
 30
0.0
 10
45.12972175912899
 20
616.1212383036503
 30
0.0
 10
45.97313546548223
 20
616.2598532842304
 30
0.0
 10
46.56762347558497
 20
616.3399367328395
 30
0.0
 10
48.51152929579915
 20
616.5515315280867
 30
0.0
 10
50.07312011223158
 20
616.6577989791675
 30
0.0
 10
53.43930707255214
 20
616.7858612008306
 30
0.0
 10
55.28252269298738
 20
616.8124912239456
 30
0.0
 10
58.02174009834978
 20
616.8126409158943
 30
0.0
 10
58.94938910502898
 20
616.8057631716159
 30
0.0
 10
60.74701133666029
 20
616.7766627086535
 30
0.0
 10
61.61978339128552
 20
616.7544602826936
 30
0.0
 10
63.31401858111533
 20
616.6902421332211
 30
0.0
 10
64.133588512204
 20
616.6478780972378
 30
0.0
 10
65.65213108304809
 20
616.5440400054486
 30
0.0
 10
66.36064694770157
 20
616.4822999986224
 30
0.0
 10
68.10239051401001
 20
616.2929083412425
 30
0.0
 10
68.99965401478607
 20
616.153123123564
 30
0.0
 10
69.68244376776774
 20
616.0053656796817
 30
0.0
  0
SPLINE
  5
22D
330
75
100
AcDbEntity
  8
$DDT_AUDIT_GENERATED_(226)
  6
Continuous
 62
     7
100
AcDbSpline
210
0.0
220
0.0
230
1.0
 70
     8
 71
     3
 72
    10
 73
     6
 74
     0
 42
0.0000000005268905
 43
0.0000000001
 40
0.8534882480239511
 40
0.8534882480239511
 40
0.8534882480239511
 40
0.8534882480239511
 40
0.8750000000000027
 40
0.8750000000000027
 40
0.8752039912477798
 40
0.8752039912477798
 40
0.8752039912477798
 40
0.8752039912477798
 10
69.68244376776774
 20
616.0053656796817
 30
0.0
 10
69.82437296357877
 20
615.9746518397425
 30
0.0
 10
69.95703506395911
 20
615.9435935316255
 30
0.0
 10
70.08136611918859
 20
615.912017488147
 30
0.0
 10
70.08253312488463
 20
615.9117208715602
 30
0.0
 10
70.08369920725896
 20
615.9114242544574
 30
0.0
  0
ARC
  5
22E
330
75
100
AcDbEntity
  8
$DDT_AUDIT_GENERATED_(226)
  6
Continuous
 62
     7
100
AcDbCircle
 10
70.6250883749
 20
613.4740105943
 30
0.0
 40
1.993331786697242
100
AcDbArc
 50
0.0660203632
 51
1.0216291122
  0
ELLIPSE
  5
22F
330
75
100
AcDbEntity
  8
$DDT_AUDIT_GENERATED_(226)
  6
Continuous
 62
     7
100
AcDbEllipse
 10
57.1184188383
 20
592.530785671
 30
0.0
 11
15.50000000000011
 21
0.0
 31
0.0
210
0.0
220
0.0
230
1.0
 40
0.0871557427
 41
0.0002086347640457
 42
3.14111393604367
  0
ELLIPSE
  5
230
330
75
100
AcDbEntity
  8
$DDT_AUDIT_GENERATED_(226)
  6
Continuous
 62
     7
100
AcDbEllipse
 10
57.1184188383
 20
592.032688322
 30
0.0
 11
15.00000000000011
 21
0.0
 31
0.0
210
0.0
220
0.0
230
1.0
 40
0.0871557427
 41
0.0
 42
0.5772611641046222
  0
ELLIPSE
  5
231
330
75
100
AcDbEntity
  8
$DDT_AUDIT_GENERATED_(226)
  6
Continuous
 62
     7
100
AcDbEllipse
 10
57.1184188383
 20
592.032688322
 30
0.0
 11
15.00000000000011
 21
0.0
 31
0.0
210
0.0
220
0.0
230
1.0
 40
0.0871557427
 41
0.5772611641046222
 42
2.536254060796612
  0
ELLIPSE
  5
232
330
75
100
AcDbEntity
  8
$DDT_AUDIT_GENERATED_(226)
  6
Continuous
 62
     7
100
AcDbEllipse
 10
57.1184188383
 20
592.032688322
 30
0.0
 11
15.00000000000011
 21
0.0
 31
0.0
210
0.0
220
0.0
230
1.0
 40
0.0871557427
 41
2.536254060796612
 42
4.026536015765988
  0
ELLIPSE
  5
233
330
75
100
AcDbEntity
  8
$DDT_AUDIT_GENERATED_(226)
  6
Continuous
 62
     7
100
AcDbEllipse
 10
57.1184188383
 20
592.032688322
 30
0.0
 11
15.00000000000011
 21
0.0
 31
0.0
210
0.0
220
0.0
230
1.0
 40
0.0871557427
 41
-0.8849433621761893
 42
-0.8380072887425385
  0
LINE
  5
234
330
75
100
AcDbEntity
  8
$DDT_AUDIT_GENERATED_(226)
  6
Continuous
 62
     7
100
AcDbLine
 10
32.6184188383
 20
568.6989654358
 30
0.0
 11
41.184197175
 21
568.6989654358
 31
0.0
  0
LINE
  5
235
330
75
100
AcDbEntity
  8
$DDT_AUDIT_GENERATED_(226)
  6
Continuous
 62
     7
100
AcDbLine
 10
73.0630427284
 20
568.6989654358
 30
0.0
 11
81.6184188383
 21
568.6989654358
 31
0.0
  0
ELLIPSE
  5
236
330
75
100
AcDbEntity
  8
$DDT_AUDIT_GENERATED_(226)
  6
Continuous
 62
     7
100
AcDbEllipse
 10
57.1184188383
 20
592.032688322
 30
0.0
 11
-12.75000000000002
 21
0.0
 31
0.0
210
0.0
220
0.0
230
1.0
 40
0.0871557427
 41
5.678857603225829
 42
6.283185307179586
  0
ELLIPSE
  5
237
330
75
100
AcDbEntity
  8
$DDT_AUDIT_GENERATED_(226)
  6
Continuous
 62
     7
100
AcDbEllipse
 10
57.1184188383
 20
592.032688322
 30
0.0
 11
-12.75000000000002
 21
0.0
 31
0.0
210
0.0
220
0.0
230
1.0
 40
0.0871557427
 41
3.696304738134493
 42
5.678857603225829
  0
ELLIPSE
  5
238
330
75
100
AcDbEntity
  8
$DDT_AUDIT_GENERATED_(226)
  6
Continuous
 62
     7
100
AcDbEllipse
 10
57.1184188383
 20
592.032688322
 30
0.0
 11
-12.75000000000002
 21
0.0
 31
0.0
210
0.0
220
0.0
230
1.0
 40
0.0871557427
 41
2.411478151083731
 42
3.696304738134493
  0
ELLIPSE
  5
239
330
75
100
AcDbEntity
  8
$DDT_AUDIT_GENERATED_(226)
  6
Continuous
 62
     7
100
AcDbEllipse
 10
57.1184188383
 20
592.032688322
 30
0.0
 11
-12.75000000000002
 21
0.0
 31
0.0
210
0.0
220
0.0
230
1.0
 40
0.0871557427
 41
0.0
 42
0.7301145025060685
  0
ARC
  5
23A
330
75
100
AcDbEntity
  8
$DDT_AUDIT_GENERATED_(226)
  6
Continuous
 62
     7
100
AcDbCircle
 10
-4593.7634195237
 20
542.9688292926
 30
0.0
 40
4666.91448023975
100
AcDbArc
 50
359.8804365992
 51
0.8386321648
  0
LINE
  5
23B
330
75
100
AcDbEntity
  8
$DDT_AUDIT_GENERATED_(226)
  6
Continuous
 62
     7
100
AcDbLine
 10
72.9738417239
 20
499.9364368644
 30
0.0
 11
72.9758190538
 21
500.940545805
 31
0.0
  0
SPLINE
  5
23C
330
75
100
AcDbEntity
  8
$DDT_AUDIT_GENERATED_(226)
  6
Continuous
 62
     7
100
AcDbSpline
210
0.0
220
0.0
230
1.0
 70
     8
 71
     3
 72
     8
 73
     4
 74
     0
 42
0.0000000001675602
 43
0.0000000001
 40
0.0
 40
0.0
 40
0.0
 40
0.0
 40
0.0012116162682174
 40
0.0012116162682174
 40
0.0012116162682174
 40
0.0012116162682174
 10
41.26299595271509
 20
499.9364368646375
 30
0.0
 10
41.26305221682877
 20
499.9123379369165
 30
0.0
 10
41.26311927507404
 20
499.888234914895
 30
0.0
 10
41.26319727450052
 20
499.8641278457675
 30
0.0
  0
SPLINE
  5
23D
330
75
100
AcDbEntity
  8
$DDT_AUDIT_GENERATED_(226)
  6
Continuous
 62
     7
100
AcDbSpline
210
0.0
220
0.0
230
1.0
 70
     8
 71
     3
 72
    30
 73
    26
 74
     0
 42
0.0000000001658746
 43
0.0000000001
 40
0.0012116162682174
 40
0.0012116162682174
 40
0.0012116162682174
 40
0.0012116162682174
 40
0.1250000000000002
 40
0.1250000000000002
 40
0.1875000000000003
 40
0.1875000000000003
 40
0.2500000000000004
 40
0.2500000000000004
 40
0.3125000000000005
 40
0.3125000000000005
 40
0.3750000000000006
 40
0.3750000000000006
 40
0.5000000000000006
 40
0.5000000000000006
 40
0.6250000000000008
 40
0.6250000000000008
 40
0.6875000000000007
 40
0.6875000000000007
 40
0.7500000000000004
 40
0.7500000000000004
 40
0.8125000000000003
 40
0.8125000000000003
 40
0.8750000000000002
 40
0.8750000000000002
 40
0.9987252206995338
 40
0.9987252206995338
 40
0.9987252206995338
 40
0.9987252206995338
 10
41.26319727450052
 20
499.8641278457675
 30
0.0
 10
41.27116631815671
 20
497.4011573475339
 30
0.0
 10
41.39334264602918
 20
494.8959419603717
 30
0.0
 10
41.98507611346247
 20
491.1380272491277
 30
0.0
 10
42.25760710889136
 20
489.8764737386124
 30
0.0
 10
43.02552791109855
 20
487.4607580001863
 30
0.0
 10
43.53699544618739
 20
486.2826286013874
 30
0.0
 10
44.83668651076432
 20
484.2017013924043
 30
0.0
 10
45.6434029435899
 20
483.2701597175769
 30
0.0
 10
47.51623456256989
 20
481.7331814978324
 30
0.0
 10
48.57532944491339
 20
481.1248052017402
 30
0.0
 10
51.99200963396498
 20
479.7123002860396
 30
0.0
 10
54.54714374552999
 20
479.3110987009693
 30
0.0
 10
59.65549190775018
 20
479.30729196454
 30
0.0
 10
62.21531651202858
 20
479.7063935722109
 30
0.0
 10
65.62888247237375
 20
481.1082354877301
 30
0.0
 10
66.68187130948239
 20
481.70689108178
 30
0.0
 10
68.57367178405656
 20
483.2486128045536
 30
0.0
 10
69.36682017745255
 20
484.156580808451
 30
0.0
 10
70.68795338793093
 20
486.2556260652256
 30
0.0
 10
71.19685241811601
 20
487.4224916109181
 30
0.0
 10
71.97364614062896
 20
489.8518770381186
 30
0.0
 10
72.2463946695448
 20
491.1120328453652
 30
0.0
 10
72.83889542358241
 20
494.8510206057268
 30
0.0
 10
72.96545740778895
 20
497.3977138428318
 30
0.0
 10
72.97362675240257
 20
499.8603440690446
 30
0.0
  0
SPLINE
  5
23E
330
75
100
AcDbEntity
  8
$DDT_AUDIT_GENERATED_(226)
  6
Continuous
 62
     7
100
AcDbSpline
210
0.0
220
0.0
230
1.0
 70
     8
 71
     3
 72
     8
 73
     4
 74
     0
 42
0.0000000001675289
 43
0.0000000001
 40
0.9987252206995338
 40
0.9987252206995338
 40
0.9987252206995338
 40
0.9987252206995338
 40
1.0
 40
1.0
 40
1.0
 40
1.0
 10
72.97362675240257
 20
499.8603440690446
 30
0.0
 10
72.97371092369241
 20
499.8857173116166
 30
0.0
 10
72.97378252663317
 20
499.9110816302109
 30
0.0
 10
72.97384172386339
 20
499.9364368644473
 30
0.0
  0
LINE
  5
23F
330
75
100
AcDbEntity
  8
$DDT_AUDIT_GENERATED_(226)
  6
Continuous
 62
     7
100
AcDbLine
 10
41.2619696532
 20
500.4576025517
 30
0.0
 11
41.2629959527
 21
499.9364368646
 31
0.0
  0
LINE
  5
240
330
75
100
AcDbEntity
  8
$DDT_AUDIT_GENERATED_(226)
  6
Continuous
 62
     7
100
AcDbLine
 10
82.6184188383
 20
440.8989654358
 30
0.0
 11
82.6184188383
 21
567.6989654358
 31
0.0
  0
LINE
  5
241
330
75
100
AcDbEntity
  8
$DDT_AUDIT_GENERATED_(226)
  6
Continuous
 62
     7
100
AcDbLine
 10
31.6184188383
 20
567.6989654358
 30
0.0
 11
31.6184188383
 21
440.8989654358
 31
0.0
  0
ARC
  5
242
330
75
100
AcDbEntity
  8
$DDT_AUDIT_GENERATED_(226)
  6
Continuous
 62
     7
100
AcDbCircle
 10
-17873.5748367243
 20
557.1616204579
 30
0.0
 40
17946.63850998752
100
AcDbArc
 50
359.8205103682
 51
359.930348975
  0
ARC
  5
243
330
75
100
AcDbEntity
  8
$DDT_AUDIT_GENERATED_(226)
  6
Continuous
 62
     7
100
AcDbCircle
 10
16627.6314594169
 20
553.9655065188
 30
0.0
 40
16586.45580629381
100
AcDbArc
 50
180.0233661556
 51
180.1850894259
  0
LINE
  5
244
330
75
100
AcDbEntity
  8
$DDT_AUDIT_GENERATED_(226)
  6
Continuous
 62
     7
100
AcDbLine
 10
41.6184188383
 20
612.9236078222
 30
0.0
 11
41.6184188383
 21
592.530785671
 31
0.0
  0
LINE
  5
245
330
75
100
AcDbEntity
  8
$DDT_AUDIT_GENERATED_(226)
  6
Continuous
 62
     7
100
AcDbLine
 10
72.6184188383
 20
592.530785671
 30
0.0
 11
72.6184188383
 21
612.9236078222
 31
0.0
  0
ARC
  5
246
330
75
100
AcDbEntity
  8
$DDT_AUDIT_GENERATED_(226)
  6
Continuous
 62
     7
100
AcDbCircle
 10
57.1275208211
 20
567.3673652933
 30
0.0
 40
50.22595835131654
100
AcDbArc
 50
75.6188110604
 51
104.2502158682
  0
ARC
  5
247
330
75
100
AcDbEntity
  8
$DDT_AUDIT_GENERATED_(226)
  6
Continuous
 62
     7
100
AcDbCircle
 10
132.4748013635
 20
609.0047122058
 30
0.0
 40
90.96931721218914
100
AcDbArc
 50
177.1129887802
 51
178.399736669
  0
SPLINE
  5
248
330
75
100
AcDbEntity
  8
$DDT_AUDIT_GENERATED_(226)
  6
Continuous
 62
     7
100
AcDbSpline
210
0.0
220
0.0
230
1.0
 70
     8
 71
     3
 72
    21
 73
    17
 74
     0
 42
0.0000000026037097
 43
0.0000000001
 40
0.0
 40
0.0
 40
0.0
 40
0.0
 40
0.0704951611992572
 40
0.2270780412304119
 40
0.3714667168731432
 40
0.4585606765356001
 40
0.5462194903875649
 40
0.6153167234362618
 40
0.673644693374897
 40
0.728579344659379
 40
0.7817353690589872
 40
0.834339987180913
 40
0.8868752473900877
 40
0.9394422339764997
 40
0.9920434222539294
 40
1.0
 40
1.0
 40
1.0
 40
1.0
 10
44.1493412257224
 20
615.9076789667696
 30
0.0
 10
44.07154290227
 20
615.8883994795632
 30
0.0
 10
43.85852416889904
 20
615.835081496739
 30
0.0
 10
43.51896240626828
 20
615.7286108609551
 30
0.0
 10
43.18741912556106
 20
615.6025179270072
 30
0.0
 10
42.90829545672838
 20
615.470208013927
 30
0.0
 10
42.67866708201814
 20
615.3378872081777
 30
0.0
 10
42.47095901412457
 20
615.1897808152133
 30
0.0
 10
42.28660821680314
 20
615.0300886884246
 30
0.0
 10
42.11526455455824
 20
614.8476712816749
 30
0.0
 10
41.95642140435286
 20
614.6341124200707
 30
0.0
 10
41.81828170332439
 20
614.3888220317626
 30
0.0
 10
41.70847946373939
 20
614.1137122634594
 30
0.0
 10
41.64135154635496
 20
613.8199095359021
 30
0.0
 10
41.61217002957551
 20
613.5905361929028
 30
0.0
 10
41.62135992787238
 20
613.4775648062378
 30
0.0
 10
41.62279082686811
 20
613.4602797942854
 30
0.0
  0
SPLINE
  5
249
330
75
100
AcDbEntity
  8
$DDT_AUDIT_GENERATED_(226)
  6
Continuous
 62
     7
100
AcDbSpline
210
0.0
220
0.0
230
1.0
 70
     8
 71
     3
 72
    21
 73
    17
 74
     0
 42
0.0000000026143171
 43
0.0000000001
 40
0.0
 40
0.0
 40
0.0
 40
0.0
 40
0.0397054702101903
 40
0.0912644347566964
 40
0.1418029109477783
 40
0.1936115731967636
 40
0.249858723815356
 40
0.3024390538195468
 40
0.3569535415927338
 40
0.4150886624029707
 40
0.4796800601303574
 40
0.5549232564587653
 40
0.6476761598184301
 40
0.7709651931776592
 40
0.946828198466754
 40
1.0
 40
1.0
 40
1.0
 40
1.0
 10
72.61386688021229
 20
613.489574597168
 30
0.0
 10
72.6128671630497
 20
613.575415414006
 30
0.0
 10
72.60976599554711
 20
613.7421727821421
 30
0.0
 10
72.55420552062802
 20
614.0160808195315
 30
0.0
 10
72.4638098805071
 20
614.2838855241547
 30
0.0
 10
72.33787780027119
 20
614.5394908435146
 30
0.0
 10
72.1841239741809
 20
614.7688084262246
 30
0.0
 10
72.015242035131
 20
614.9643719191171
 30
0.0
 10
71.84192121970834
 20
615.1268739502976
 30
0.0
 10
71.66163385580909
 20
615.2663720469438
 30
0.0
 10
71.47113052581122
 20
615.3895341619767
 30
0.0
 10
71.26053819776699
 20
615.5038047153118
 30
0.0
 10
71.00828363463191
 20
615.6184797894896
 30
0.0
 10
70.67289313772024
 20
615.743694496458
 30
0.0
 10
70.34969696030996
 20
615.8439961644035
 30
0.0
 10
70.13177139637963
 20
615.8974804050667
 30
0.0
 10
70.07248994902861
 20
615.9119169276447
 30
0.0
  0
ARC
  5
24A
330
75
100
AcDbEntity
  8
$DDT_AUDIT_GENERATED_(226)
  6
Continuous
 62
     7
100
AcDbCircle
 10
-25.1280874616
 20
608.7073937447
 30
0.0
 40
97.86566506776308
100
AcDbArc
 50
1.5365637273
 51
2.8574583655
  0
SPLINE
  5
24B
330
75
100
AcDbEntity
  8
$DDT_AUDIT_GENERATED_(226)
  6
Continuous
 62
     7
100
AcDbSpline
210
0.0
220
0.0
230
1.0
 70
     8
 71
     3
 72
    24
 73
    20
 74
     0
 42
0.000000001704503
 43
0.0000000001
 40
0.0
 40
0.0
 40
0.0
 40
0.0
 40
0.0685211249568558
 40
0.1390034649946828
 40
0.2095875850723591
 40
0.2803094485021244
 40
0.3512225673160583
 40
0.4224096935351349
 40
0.4940048711440237
 40
0.5662380168387551
 40
0.6395331053381927
 40
0.714747802427486
 40
0.7938094571597197
 40
0.852015138671114
 40
0.8941795544286193
 40
0.9306203817557278
 40
0.9637173113062629
 40
0.9955129498699644
 40
1.0
 40
1.0
 40
1.0
 40
1.0
 10
67.2267212500048
 20
591.0633963195322
 30
0.0
 10
67.46158194289188
 20
591.0824436296938
 30
0.0
 10
67.86182791065096
 20
591.1151806966307
 30
0.0
 10
68.48037093356226
 20
591.173568756676
 30
0.0
 10
69.05163189159583
 20
591.234175691959
 30
0.0
 10
69.58635321405605
 20
591.2983659230597
 30
0.0
 10
70.07828480800019
 20
591.3655325868881
 30
0.0
 10
70.52765732461371
 20
591.435837341062
 30
0.0
 10
70.9335370290675
 20
591.5094238230936
 30
0.0
 10
71.29619105166493
 20
591.5868407564657
 30
0.0
 10
71.61705830010115
 20
591.6693776877457
 30
0.0
 10
71.90034725437289
 20
591.7604763425738
 30
0.0
 10
72.12496475648135
 20
591.8560934759083
 30
0.0
 10
72.29639564805042
 20
591.9581410832535
 30
0.0
 10
72.4226950438872
 20
592.0644405265408
 30
0.0
 10
72.52271184699597
 20
592.1863811400259
 30
0.0
 10
72.59143335553149
 20
592.3331224807636
 30
0.0
 10
72.62411592849963
 20
592.4623797755721
 30
0.0
 10
72.61648327059785
 20
592.523029066574
 30
0.0
 10
72.61536839450439
 20
592.5317850584677
 30
0.0
  0
ARC
  5
24C
330
75
100
AcDbEntity
  8
$DDT_AUDIT_GENERATED_(226)
  6
Continuous
 62
     7
100
AcDbCircle
 10
51.6700607221
 20
649.1553781825
 30
0.0
 40
58.2786155293777
100
AcDbArc
 50
265.0719457636
 51
266.012444452
  0
SPLINE
  5
24D
330
75
100
AcDbEntity
  8
$DDT_AUDIT_GENERATED_(226)
  6
Continuous
 62
     7
100
AcDbSpline
210
0.0
220
0.0
230
1.0
 70
     8
 71
     3
 72
    24
 73
    20
 74
     0
 42
0.0000000018112186
 43
0.0000000001
 40
0.0
 40
0.0
 40
0.0
 40
0.0
 40
0.0018839898854731
 40
0.0366074212807866
 40
0.0708357278354577
 40
0.1067033466784806
 40
0.1476222529929624
 40
0.1986114323001211
 40
0.2676460751774012
 40
0.3467299442788874
 40
0.421421114776961
 40
0.5003665845398448
 40
0.5768496653760298
 40
0.6520186007137494
 40
0.7264394006367175
 40
0.8003976415460369
 40
0.8740525402073093
 40
0.9474994797419303
 40
1.0
 40
1.0
 40
1.0
 40
1.0
 10
41.61968504535528
 20
592.5339686599469
 30
0.0
 10
41.61920751077261
 20
592.5304445933604
 30
0.0
 10
41.61125731769608
 20
592.4715103919717
 30
0.0
 10
41.64210705329035
 20
592.3425019553522
 30
0.0
 10
41.70908011611443
 20
592.194921961426
 30
0.0
 10
41.80399732255959
 20
592.075426150165
 30
0.0
 10
41.91725042117537
 20
591.9759811954395
 30
0.0
 10
42.06412144435596
 20
591.882246380881
 30
0.0
 10
42.25932018825843
 20
591.7906837073106
 30
0.0
 10
42.51104556731988
 20
591.7018576575188
 30
0.0
 10
42.81888799116621
 20
591.616185881158
 30
0.0
 10
43.17134779391976
 20
591.5359078915865
 30
0.0
 10
43.57465827403129
 20
591.4589176138759
 30
0.0
 10
44.01811423310338
 20
591.3864189951215
 30
0.0
 10
44.50244558039824
 20
591.3176445607885
 30
0.0
 10
45.02877234276148
 20
591.2521036390476
 30
0.0
 10
45.59137758142747
 20
591.1904040458472
 30
0.0
 10
46.14858554794201
 20
591.1357526597387
 30
0.0
 10
46.49336668609728
 20
591.1065340593051
 30
0.0
 10
46.66365011441807
 20
591.0921981038647
 30
0.0
  0
ARC
  5
24E
330
75
100
AcDbEntity
  8
$DDT_AUDIT_GENERATED_(226)
  6
Continuous
 62
     7
100
AcDbCircle
 10
81.6184188383
 20
567.6989654358
 30
0.0
 40
1.000000000000001
100
AcDbArc
 50
0.0
 51
90.0
  0
ARC
  5
24F
330
75
100
AcDbEntity
  8
$DDT_AUDIT_GENERATED_(226)
  6
Continuous
 62
     7
100
AcDbCircle
 10
32.6184188383
 20
567.6989654358
 30
0.0
 40
1.000000000000001
100
AcDbArc
 50
90.0
 51
180.0
  0
SPLINE
  5
250
330
75
100
AcDbEntity
  8
$DDT_AUDIT_GENERATED_(226)
  6
Continuous
 62
     7
100
AcDbSpline
210
0.0
220
0.0
230
1.0
 70
     8
 71
     3
 72
    16
 73
    12
 74
     0
 42
0.0000000039795076
 43
0.0000000001
 40
0.2094270877647083
 40
0.2094270877647083
 40
0.2094270877647083
 40
0.2094270877647083
 40
0.2697072346244493
 40
0.3406146908351093
 40
0.4209491770603134
 40
0.5094007850651003
 40
0.6039299200215897
 40
0.7025888846513237
 40
0.8039137995404693
 40
0.9069364493908456
 40
1.0
 40
1.0
 40
1.0
 40
1.0
 10
44.75283805195127
 20
592.2584645680711
 30
0.0
 10
44.7527840506051
 20
592.2584270599045
 30
0.0
 10
44.76529221393611
 20
592.2668640187527
 30
0.0
 10
44.8231524831417
 20
592.2949136559915
 30
0.0
 10
44.93032331958894
 20
592.3355118949155
 30
0.0
 10
45.09212376577527
 20
592.3848227167183
 30
0.0
 10
45.31085968820683
 20
592.4396530465046
 30
0.0
 10
45.58676833104195
 20
592.4975646701913
 30
0.0
 10
45.91522153746193
 20
592.5561176835591
 30
0.0
 10
46.289428156365
 20
592.6138947637056
 30
0.0
 10
46.5450887523461
 20
592.6471708973407
 30
0.0
 10
46.68978102489771
 20
592.6658406801479
 30
0.0
  0
SPLINE
  5
251
330
75
100
AcDbEntity
  8
$DDT_AUDIT_GENERATED_(226)
  6
Continuous
 62
     7
100
AcDbSpline
210
0.0
220
0.0
230
1.0
 70
     8
 71
     3
 72
    15
 73
    11
 74
     0
 42
0.0000000046813732
 43
0.0000000001
 40
0.0
 40
0.0
 40
0.0
 40
0.0
 40
0.0809964674122688
 40
0.1945190274502623
 40
0.306975825775556
 40
0.4177628730600121
 40
0.5258490581888837
 40
0.6173031839208889
 40
0.6997870121348101
 40
0.7716973465525356
 40
0.7716973465525356
 40
0.7716973465525356
 40
0.7716973465525356
 10
67.88224841503481
 20
592.6207479955515
 30
0.0
 10
67.99071268168937
 20
592.6054839346176
 30
0.0
 10
68.20992135900406
 20
592.5744064312122
 30
0.0
 10
68.53767861938736
 20
592.5186238784588
 30
0.0
 10
68.84272827136036
 20
592.4583797424829
 30
0.0
 10
69.0944123014531
 20
592.3986744629717
 30
0.0
 10
69.2800437439605
 20
592.3445570611246
 30
0.0
 10
69.40276064110404
 20
592.2996627999775
 30
0.0
 10
69.46922874950948
 20
592.2683490205085
 30
0.0
 10
69.48406506564896
 20
592.2584325437297
 30
0.0
 10
69.48399564583494
 20
592.2584670656644
 30
0.0
  0
LINE
  5
252
330
75
100
AcDbEntity
  8
$DDT_AUDIT_GENERATED_(226)
  6
Continuous
 62
     7
100
AcDbLine
 10
41.2456572891
 20
501.6157824167
 30
0.0
 11
41.2391552025
 21
502.9952361301
 31
0.0
  0
LINE
  5
253
330
75
100
AcDbEntity
  8
$DDT_AUDIT_GENERATED_(226)
  6
Continuous
 62
     7
100
AcDbLine
 10
41.2606625614
 20
499.8638194877
 30
0.0
 11
41.2600859753
 21
499.9069077695
 31
0.0
  0
LINE
  5
254
330
75
100
AcDbEntity
  8
$DDT_AUDIT_GENERATED_(226)
  6
Continuous
 62
     7
100
AcDbLine
 10
72.9775381633
 20
499.9069042809
 30
0.0
 11
72.9770838452
 21
499.8600821448
 31
0.0
  0
ARC
  5
255
330
75
100
AcDbEntity
  8
$DDT_AUDIT_GENERATED_(226)
  6
Continuous
 62
     7
100
AcDbCircle
 10
-85.6749570959
 20
502.5985165403
 30
0.0
 40
158.6712377963619
100
AcDbArc
 50
359.5067294166
 51
0.1432718719
  0
ENDBLK
  5
257
330
75
100
AcDbEntity
  8
0
100
AcDbBlockEnd
  0
BLOCK
  5
2E6
330
258
100
AcDbEntity
  8
0
100
AcDbBlockBegin
  2
SE1
 70
     0
 10
0.0
 20
0.0
 30
0.0
  3
SE1
  1

  0
ARC
  5
25A
330
258
100
AcDbEntity
  8
$DDT_AUDIT_GENERATED_(77)
  6
Continuous
 62
     7
100
AcDbCircle
 10
190.9050225567
 20
562.2989654358
 30
0.0
 40
24.50000000000001
100
AcDbArc
 50
129.3785485558
 51
164.8572685595
  0
ARC
  5
25B
330
258
100
AcDbEntity
  8
$DDT_AUDIT_GENERATED_(77)
  6
Continuous
 62
     7
100
AcDbCircle
 10
190.9050225567
 20
562.2989654358
 30
0.0
 40
24.5
100
AcDbArc
 50
15.1427314405
 51
19.5358548669
  0
ARC
  5
25C
330
258
100
AcDbEntity
  8
$DDT_AUDIT_GENERATED_(7A)
  6
Continuous
 62
     7
100
AcDbCircle
 10
277.7159736585
 20
620.7070822526
 30
0.0
 40
6.751757830969331
100
AcDbArc
 50
261.2240864814
 51
278.2588658858
  0
ARC
  5
25D
330
258
100
AcDbEntity
  8
$DDT_AUDIT_GENERATED_(7A)
  6
Continuous
 62
     7
100
AcDbCircle
 10
283.9646106438
 20
653.2093831345
 30
0.0
 40
36.73030876112689
100
AcDbArc
 50
273.7528937231
 51
278.9128946914
  0
ARC
  5
25E
330
258
100
AcDbEntity
  8
$DDT_AUDIT_GENERATED_(7A)
  6
Continuous
 62
     7
100
AcDbCircle
 10
168.6241973963
 20
593.8455240204
 30
0.0
 40
3.000697060805484
100
AcDbArc
 50
130.1200614436
 51
177.4102824057
  0
ELLIPSE
  5
25F
330
258
100
AcDbEntity
  8
$DDT_AUDIT_GENERATED_(7A)
  6
Continuous
 62
     7
100
AcDbEllipse
 10
289.1863177414
 20
618.1350274375
 30
0.0
 11
-0.2658245033499845
 21
1.272524045019097
 31
0.0
210
0.0
220
0.0
230
1.0
 40
0.9999899519
 41
3.304771450110549
 42
5.892730215830801
  0
ARC
  5
260
330
258
100
AcDbEntity
  8
$DDT_AUDIT_GENERATED_(7A)
  6
Continuous
 62
     7
100
AcDbCircle
 10
286.4202886777
 20
622.2860832277
 30
0.0
 40
5.728477019721221
100
AcDbArc
 50
251.6446341565
 51
269.4843958275
  0
SPLINE
  5
261
330
258
100
AcDbEntity
  8
$DDT_AUDIT_GENERATED_(7A)
  6
Continuous
 62
     7
100
AcDbSpline
210
0.0
220
0.0
230
1.0
 70
     8
 71
     3
 72
    53
 73
    49
 74
     0
 42
0.0000000001043136
 43
0.0000000001
 40
0.0
 40
0.0
 40
0.0
 40
0.0
 40
0.0448675123049315
 40
0.0906018561394316
 40
0.1364255961011971
 40
0.1933399856032805
 40
0.2485609295364713
 40
0.3085026497598029
 40
0.3487713187471554
 40
0.3857069427820273
 40
0.3906131513061938
 40
0.3965248764547125
 40
0.4117195651374168
 40
0.4373790992902378
 40
0.4512129859673725
 40
0.4644264074181139
 40
0.4812802514912086
 40
0.4987704081449425
 40
0.514570913238687
 40
0.5309102920664458
 40
0.5437174059504088
 40
0.5591489788733549
 40
0.5917414584123878
 40
0.6054804926921125
 40
0.6212121143407319
 40
0.6307087114971875
 40
0.6362985770435647
 40
0.6494056880067041
 40
0.6715544989915555
 40
0.6843904616699436
 40
0.7147040897297332
 40
0.7465095644217511
 40
0.8117879733162222
 40
0.8197543861351566
 40
0.8277839016706917
 40
0.8411163997398969
 40
0.8473269947294141
 40
0.853219107736124
 40
0.8604965127375747
 40
0.8678442699220122
 40
0.8823069689225296
 40
0.901877624361651
 40
0.9205876218781831
 40
0.9380452608143391
 40
0.9543069716777662
 40
0.9696480468892816
 40
0.9842143116814142
 40
1.0
 40
1.0
 40
1.0
 40
1.0
 10
284.6163353857643
 20
616.8490618477313
 30
0.0
 10
283.1764249348898
 20
617.0615077059416
 30
0.0
 10
280.2687546699638
 20
617.4903348194506
 30
0.0
 10
275.8736049676627
 20
618.0168595335215
 30
0.0
 10
271.0796935090652
 20
618.4905479925334
 30
0.0
 10
265.9675623333337
 20
618.8614831775643
 30
0.0
 10
260.3893815542866
 20
619.105931426384
 30
0.0
 10
255.3462356115338
 20
619.1758393197897
 30
0.0
 10
250.896784600046
 20
619.1235963480736
 30
0.0
 10
248.2344737550542
 20
619.0376603536535
 30
0.0
 10
246.687691113242
 20
618.9627046489311
 30
0.0
 10
245.8453679365792
 20
618.9200438239125
 30
0.0
 10
244.3320413849376
 20
618.8353951194553
 30
0.0
 10
242.5651775938886
 20
618.710885606796
 30
0.0
 10
240.8660572177843
 20
618.5713334558408
 30
0.0
 10
239.4526111312126
 20
618.4419193175371
 30
0.0
 10
237.9228007729035
 20
618.2903067270437
 30
0.0
 10
236.3112868739194
 20
618.1146453924393
 30
0.0
 10
234.718703586138
 20
617.923787311794
 30
0.0
 10
233.2794401906373
 20
617.7381004509821
 30
0.0
 10
231.8556875541494
 20
617.5384268453381
 30
0.0
 10
229.9199001003644
 20
617.2529811860253
 30
0.0
 10
227.9706862221419
 20
616.9391090026143
 30
0.0
 10
226.0396853274459
 20
616.6201342109237
 30
0.0
 10
224.8373120902272
 20
616.4241238960017
 30
0.0
 10
223.8907975074089
 20
616.2706895733712
 30
0.0
 10
223.0257290956016
 20
616.1235784958563
 30
0.0
 10
221.7750977858085
 20
615.9105281775982
 30
0.0
 10
220.3045046123169
 20
615.636905866943
 30
0.0
 10
218.3119757183369
 20
615.2274799192726
 30
0.0
 10
216.0320458521738
 20
614.7037955373288
 30
0.0
 10
212.1900319891596
 20
613.6578452545541
 30
0.0
 10
209.0653823943663
 20
612.6607045655876
 30
0.0
 10
206.6889498322494
 20
611.8116606098007
 30
0.0
 10
205.8339765586624
 20
611.5017364143604
 30
0.0
 10
205.0373995707406
 20
611.1948872109635
 30
0.0
 10
204.3068821660707
 20
610.9045185353822
 30
0.0
 10
203.7532941427471
 20
610.6763414548342
 30
0.0
 10
203.1662646360986
 20
610.4385898191531
 30
0.0
 10
202.3368704915373
 20
610.0932033484459
 30
0.0
 10
201.1607725688807
 20
609.587372063902
 30
0.0
 10
199.6522591643698
 20
608.9435472070869
 30
0.0
 10
198.0513772754899
 20
608.2372392537659
 30
0.0
 10
196.5334108105245
 20
607.5607130120371
 30
0.0
 10
195.1022628981662
 20
606.918835579826
 30
0.0
 10
193.7466038531099
 20
606.3104785138378
 30
0.0
 10
192.3980102893333
 20
605.7076057069413
 30
0.0
 10
191.4991405958152
 20
605.3064634225532
 30
0.0
 10
191.0316203109282
 20
605.0978596679743
 30
0.0
  0
SPLINE
  5
262
330
258
100
AcDbEntity
  8
$DDT_AUDIT_GENERATED_(7A)
  6
Continuous
 62
     7
100
AcDbSpline
210
0.0
220
0.0
230
1.0
 70
     8
 71
     3
 72
    23
 73
    19
 74
     0
 42
0.0000000003605271
 43
0.0000000001
 40
0.0
 40
0.0
 40
0.0
 40
0.0
 40
0.0329445197814599
 40
0.072574431872785
 40
0.1128754300122719
 40
0.1593295292493683
 40
0.2052713915283888
 40
0.23575818922872
 40
0.2628602251148552
 40
0.3628777153369468
 40
0.4958829450331996
 40
0.6471913338434077
 40
0.7101487842381827
 40
0.7757227881611931
 40
0.8430196896528251
 40
0.8945393155328842
 40
0.9468687294962445
 40
1.0
 40
1.0
 40
1.0
 40
1.0
 10
191.0316203109282
 20
605.0978596679743
 30
0.0
 10
190.6100236093347
 20
604.9198118339541
 30
0.0
 10
189.6809913776877
 20
604.5273749838791
 30
0.0
 10
188.2456363924
 20
603.9040606090587
 30
0.0
 10
186.6504110320812
 20
603.2073254585956
 30
0.0
 10
184.9970645541432
 20
602.4717236272
 30
0.0
 10
183.492992191005
 20
601.7885520727699
 30
0.0
 10
182.2451082687417
 20
601.2215917745874
 30
0.0
 10
180.3695039502211
 20
600.3734841554045
 30
0.0
 10
177.3773206924514
 20
599.0060915819671
 30
0.0
 10
173.3400066802366
 20
597.1723536709526
 30
0.0
 10
170.2993034987851
 20
595.8559956688235
 30
0.0
 10
168.3793779355013
 20
595.0753861663678
 30
0.0
 10
167.2758205574093
 20
594.6420914416103
 30
0.0
 10
166.4884947269146
 20
594.340586058259
 30
0.0
 10
165.9824852462393
 20
594.1446344761713
 30
0.0
 10
165.6861542088761
 20
594.0244511422139
 30
0.0
 10
165.6465284780412
 20
593.9956279286522
 30
0.0
 10
165.6265649634733
 20
593.9811066471686
 30
0.0
  0
SPLINE
  5
263
330
258
100
AcDbEntity
  8
$DDT_AUDIT_GENERATED_(7A)
  6
Continuous
 62
     7
100
AcDbSpline
210
0.0
220
0.0
230
1.0
 70
     8
 71
     3
 72
    10
 73
     6
 74
     0
 42
0.0000000016178976
 43
0.0000000001
 40
0.0
 40
0.0
 40
0.0
 40
0.0
 40
0.5
 40
0.5
 40
1.0
 40
1.0
 40
1.0
 40
1.0
 10
233.7426505517862
 20
616.4757465891339
 30
0.0
 10
232.7143474239847
 20
616.3880135012193
 30
0.0
 10
231.6889057750741
 20
616.2829195248868
 30
0.0
 10
229.6482453183428
 20
616.0107085378968
 30
0.0
 10
228.6329483279441
 20
615.8440658690275
 30
0.0
 10
227.6268312450414
 20
615.6217277518257
 30
0.0
  0
SPLINE
  5
264
330
258
100
AcDbEntity
  8
$DDT_AUDIT_GENERATED_(7A)
  6
Continuous
 62
     7
100
AcDbSpline
210
0.0
220
0.0
230
1.0
 70
     8
 71
     3
 72
    18
 73
    14
 74
     0
 42
0.0000000003377134
 43
0.0000000001
 40
0.0
 40
0.0
 40
0.0
 40
0.0
 40
0.1250000000000001
 40
0.1250000000000001
 40
0.2500000000000002
 40
0.2500000000000002
 40
0.3750000000000002
 40
0.3750000000000002
 40
0.5000000000000003
 40
0.5000000000000003
 40
0.7500000000000001
 40
0.7500000000000001
 40
1.0
 40
1.0
 40
1.0
 40
1.0
 10
223.0329066770506
 20
614.0159400380587
 30
0.0
 10
221.9504398359597
 20
613.442779246553
 30
0.0
 10
220.942300917235
 20
612.7090523729773
 30
0.0
 10
219.2666250944949
 20
610.949721485264
 30
0.0
 10
218.5793956673919
 20
609.8968722146918
 30
0.0
 10
217.584439807674
 20
607.6609060530952
 30
0.0
 10
217.2593610539896
 20
606.4579052117838
 30
0.0
 10
216.8437664875295
 20
604.0225585061552
 30
0.0
 10
216.738233359291
 20
602.7905193971096
 30
0.0
 10
216.506201404961
 20
599.0946799669439
 30
0.0
 10
216.4793020286193
 20
596.6237789727459
 30
0.0
 10
216.4449233210901
 20
591.6851560901715
 30
0.0
 10
216.444002695127
 20
589.2157533201882
 30
0.0
 10
216.4456908218818
 20
586.7463941276304
 30
0.0
  0
LINE
  5
265
330
258
100
AcDbEntity
  8
$DDT_AUDIT_GENERATED_(7A)
  6
Continuous
 62
     7
100
AcDbLine
 10
216.4817902054
 20
573.3104494559
 30
0.0
 11
216.4920320451
 21
570.7929434607
 31
0.0
  0
LINE
  5
266
330
258
100
AcDbEntity
  8
$DDT_AUDIT_GENERATED_(7A)
  6
Continuous
 62
     7
100
AcDbLine
 10
216.1920346879
 20
570.491684223
 30
0.0
 11
197.3215995919
 21
570.491684223
 31
0.0
  0
LINE
  5
267
330
258
100
AcDbEntity
  8
$DDT_AUDIT_GENERATED_(7A)
  6
Continuous
 62
     7
100
AcDbLine
 10
191.1039373783
 20
572.1477607357
 30
0.0
 11
191.0716011616
 21
572.1663657694
 31
0.0
  0
ARC
  5
268
330
258
100
AcDbEntity
  8
$DDT_AUDIT_GENERATED_(7A)
  6
Continuous
 62
     7
100
AcDbCircle
 10
197.3215995919
 20
582.9916842229
 30
0.0
 40
12.49999999994318
100
AcDbArc
 50
240.1710487485
 51
270.0
  0
LINE
  5
269
330
258
100
AcDbEntity
  8
$DDT_AUDIT_GENERATED_(7A)
  6
Continuous
 62
     7
100
AcDbLine
 10
165.3342440079
 20
587.2116179661
 30
0.0
 11
165.6265649635
 21
593.9811066472
 31
0.0
  0
LINE
  5
26A
330
258
100
AcDbEntity
  8
$DDT_AUDIT_GENERATED_(7A)
  6
Continuous
 62
     7
100
AcDbLine
 10
191.0716011616
 20
572.1663657694
 30
0.0
 11
165.4839868937
 21
586.9393768078
 31
0.0
  0
ARC
  5
26B
330
258
100
AcDbEntity
  8
$DDT_AUDIT_GENERATED_(7A)
  6
Continuous
 62
     7
100
AcDbCircle
 10
165.6339865288
 20
587.1991855876
 30
0.0
 40
0.3000002381319906
100
AcDbArc
 50
177.6249123492
 51
240.0001710056
  0
ARC
  5
26C
330
258
100
AcDbEntity
  8
$DDT_AUDIT_GENERATED_(7A)
  6
Continuous
 62
     7
100
AcDbCircle
 10
196.0745861428
 20
569.5472144898
 30
0.0
 40
5.609821086675463
100
AcDbArc
 50
149.308178827
 51
152.3823185405
  0
ARC
  5
26D
330
258
100
AcDbEntity
  8
$DDT_AUDIT_GENERATED_(7A)
  6
Continuous
 62
     7
100
AcDbCircle
 10
216.1920346879
 20
570.791684223
 30
0.0
 40
0.3000000000000225
100
AcDbArc
 50
270.0
 51
0.2404973999
  0
SPLINE
  5
26E
330
258
100
AcDbEntity
  8
$DDT_AUDIT_GENERATED_(7A)
  6
Continuous
 62
     7
100
AcDbSpline
210
0.0
220
0.0
230
1.0
 70
     8
 71
     3
 72
     8
 73
     4
 74
     0
 42
0.0000000015907446
 43
0.0000000001
 40
0.0
 40
0.0
 40
0.0
 40
0.0
 40
1.0
 40
1.0
 40
1.0
 40
1.0
 10
216.4598617064505
 20
579.5967749314203
 30
0.0
 10
216.4660534748468
 20
577.5013311343556
 30
0.0
 10
216.4735543090999
 20
575.4058884867025
 30
0.0
 10
216.4817902053998
 20
573.3104494559149
 30
0.0
  0
ARC
  5
26F
330
258
100
AcDbEntity
  8
$DDT_AUDIT_GENERATED_(7A)
  6
Continuous
 62
     7
100
AcDbCircle
 10
245.6632438388
 20
583.2294810626
 30
0.0
 40
29.42845700686421
100
AcDbArc
 50
173.1699676451
 51
187.090789279
  0
ARC
  5
270
330
258
100
AcDbEntity
  8
$DDT_AUDIT_GENERATED_(7A)
  6
Continuous
 62
     7
100
AcDbCircle
 10
245.6614904545
 20
583.2294775873
 30
0.0
 40
29.42671660451747
100
AcDbArc
 50
187.0681000277
 51
187.0912039895
  0
ARC
  5
271
330
258
100
AcDbEntity
  8
$DDT_AUDIT_GENERATED_(7A)
  6
Continuous
 62
     7
100
AcDbCircle
 10
245.6614904545
 20
583.2294775873
 30
0.0
 40
29.42671660451747
100
AcDbArc
 50
173.1359216216
 51
173.1422226708
  0
ARC
  5
272
330
258
100
AcDbEntity
  8
$DDT_AUDIT_GENERATED_(7A)
  6
Continuous
 62
     7
100
AcDbCircle
 10
246.7209938634
 20
465.4581102021
 30
0.0
 40
151.5742950186266
100
AcDbArc
 50
78.5701262429
 51
94.9184546408
  0
ARC
  5
273
330
258
100
AcDbEntity
  8
$DDT_AUDIT_GENERATED_(7A)
  6
Continuous
 62
     7
100
AcDbCircle
 10
227.4531885081
 20
605.1314469738
 30
0.0
 40
9.924684809137078
100
AcDbArc
 50
114.7039424007
 51
133.63901257
  0
ARC
  5
274
330
258
100
AcDbEntity
  8
$DDT_AUDIT_GENERATED_(7A)
  6
Continuous
 62
     7
100
AcDbCircle
 10
351.0642498288
 20
591.7840559195
 30
0.0
 40
134.7161043125813
100
AcDbArc
 50
174.7092434222
 51
182.1617833734
  0
SPLINE
  5
275
330
258
100
AcDbEntity
  8
$DDT_AUDIT_GENERATED_(7A)
  6
Continuous
 62
     7
100
AcDbSpline
210
0.0
220
0.0
230
1.0
 70
     8
 71
     3
 72
    14
 73
    10
 74
     0
 42
0.0000000008689483
 43
0.0000000001
 40
0.0
 40
0.0
 40
0.0
 40
0.0
 40
0.1502970951521776
 40
0.2727283374065891
 40
0.3647898424051405
 40
0.4339072188100671
 40
0.5638938821528361
 40
0.7505712927783756
 40
1.0
 40
1.0
 40
1.0
 40
1.0
 10
278.624909215249
 20
614.0164975603819
 30
0.0
 10
279.2516400204858
 20
614.1126995700009
 30
0.0
 10
280.2067370635453
 20
614.2615065193424
 30
0.0
 10
281.6053662549291
 20
614.535511091023
 30
0.0
 10
282.6628868836568
 20
614.7689934101187
 30
0.0
 10
283.7503493801528
 20
615.0304307821973
 30
0.0
 10
285.1745948613207
 20
615.4076590011964
 30
0.0
 10
287.2910208690444
 20
616.0472863362015
 30
0.0
 10
288.7397032947388
 20
616.5819875976664
 30
0.0
 10
289.7256025305479
 20
616.9498314067093
 30
0.0
  0
SPLINE
  5
276
330
258
100
AcDbEntity
  8
$DDT_AUDIT_GENERATED_(7A)
  6
Continuous
 62
     7
100
AcDbSpline
210
0.0
220
0.0
230
1.0
 70
     8
 71
     3
 72
    22
 73
    18
 74
     0
 42
0.0000000000777038
 43
0.0000000001
 40
0.0
 40
0.0
 40
0.0
 40
0.0
 40
0.0646085937219074
 40
0.1381580128586668
 40
0.2143492797463249
 40
0.2920626472786433
 40
0.3703533835822898
 40
0.448422756743618
 40
0.5255962970920385
 40
0.5919436902150347
 40
0.6568550841119313
 40
0.7200706906723514
 40
0.781386757730891
 40
0.8406574764680907
 40
0.8977986966868128
 40
0.9527931999745565
 40
1.0
 40
1.0
 40
1.0
 40
1.0
 10
289.4225592508727
 20
619.3993691926063
 30
0.0
 10
286.4225063643368
 20
619.9321455306675
 30
0.0
 10
281.0030634792867
 20
620.8765388383163
 30
0.0
 10
271.6808085997467
 20
621.9573794747597
 30
0.0
 10
262.0025429456508
 20
622.611503022695
 30
0.0
 10
252.0288664586945
 20
622.7703232180728
 30
0.0
 10
241.9995590933138
 20
622.3970493976045
 30
0.0
 10
232.0231917074315
 20
621.4775464666478
 30
0.0
 10
222.622510191855
 20
620.0699140925581
 30
0.0
 10
213.8676757674051
 20
618.2577474271578
 30
0.0
 10
205.8021990382607
 20
616.1285757731893
 30
0.0
 10
198.0741253954513
 20
613.6114959051976
 30
0.0
 10
190.73997602194
 20
610.724700430045
 30
0.0
 10
183.8270301655117
 20
607.4772040351049
 30
0.0
 10
177.4420074524446
 20
603.9142364985729
 30
0.0
 10
171.5977946035119
 20
600.0901209702938
 30
0.0
 10
168.4318554127759
 20
597.5268735389175
 30
0.0
 10
166.7080862122311
 20
596.1179452407854
 30
0.0
  0
ARC
  5
277
330
258
100
AcDbEntity
  8
$DDT_AUDIT_GENERATED_(7A)
  6
Continuous
 62
     7
100
AcDbCircle
 10
227.4532088255
 20
605.1314158116
 30
0.0
 40
9.92472229277266
100
AcDbArc
 50
133.1272958225
 51
133.6395477128
  0
LINE
  5
279
330
258
100
AcDbEntity
  8
$DDT_AUDIT_GENERATED_(278)
  6
Continuous
 62
     7
100
AcDbLine
 10
165.4550225567
 20
453.4989654358
 30
0.0
 11
165.4550225567
 21
458.6989654358
 31
0.0
  0
LINE
  5
27B
330
258
100
AcDbEntity
  8
$DDT_AUDIT_GENERATED_(27A)
  6
Continuous
 62
     7
100
AcDbLine
 10
216.0736139337
 20
587.1357489086
 30
0.0
 11
216.2714963845
 21
579.5789229914
 31
0.0
  0
LINE
  5
27C
330
258
100
AcDbEntity
  8
$DDT_AUDIT_GENERATED_(99)
  6
Continuous
 62
     7
100
AcDbLine
 10
215.3550225567
 20
440.3489654358
 30
0.0
 11
166.4550225567
 21
440.3489654358
 31
0.0
  0
LINE
  5
27D
330
258
100
AcDbEntity
  8
$DDT_AUDIT_GENERATED_(99)
  6
Continuous
 62
     7
100
AcDbLine
 10
215.3550225567
 20
440.3489654358
 30
0.0
 11
215.3550225567
 21
440.8989654358
 31
0.0
  0
LINE
  5
27E
330
258
100
AcDbEntity
  8
$DDT_AUDIT_GENERATED_(99)
  6
Continuous
 62
     7
100
AcDbLine
 10
166.4550225567
 20
440.8989654358
 30
0.0
 11
166.4550225567
 21
440.3489654358
 31
0.0
  0
LINE
  5
27F
330
258
100
AcDbEntity
  8
$DDT_AUDIT_GENERATED_(9D)
  6
Continuous
 62
     7
100
AcDbLine
 10
407.9733922672
 20
587.6275863547
 30
0.0
 11
426.9010915309
 21
589.2835454669
 31
0.0
  0
LINE
  5
280
330
258
100
AcDbEntity
  8
$DDT_AUDIT_GENERATED_(9D)
  6
Continuous
 62
     7
100
AcDbLine
 10
425.8787244616
 20
587.7744843099
 30
0.0
 11
409.2422730034
 21
586.3189834061
 31
0.0
  0
ARC
  5
281
330
258
100
AcDbEntity
  8
$DDT_AUDIT_GENERATED_(9D)
  6
Continuous
 62
     7
100
AcDbCircle
 10
419.8583763415
 20
587.1101828793
 30
0.0
 40
0.095359616288892
100
AcDbArc
 50
291.1916443346
 51
3.7401010999
  0
LINE
  5
282
330
258
100
AcDbEntity
  8
$DDT_AUDIT_GENERATED_(9D)
  6
Continuous
 62
     7
100
AcDbLine
 10
419.9476816887
 20
587.1832824695
 30
0.0
 11
419.9535328617
 21
587.1164032566
 31
0.0
  0
ELLIPSE
  5
283
330
258
100
AcDbEntity
  8
$DDT_AUDIT_GENERATED_(9D)
  6
Continuous
 62
     7
100
AcDbEllipse
 10
415.4361514052
 20
602.8826923383
 30
0.0
 11
1.432334602403912
 21
-16.37165931510909
 31
0.0
210
0.0
220
0.0
230
1.0
 40
0.8660254035
 41
0.2165012234462223
 42
0.2405911520739847
  0
ARC
  5
284
330
258
100
AcDbEntity
  8
$DDT_AUDIT_GENERATED_(9D)
  6
Continuous
 62
     7
100
AcDbCircle
 10
418.367508442
 20
586.8347573511
 30
0.0
 40
0.0947436310476241
100
AcDbArc
 50
286.2193546256
 51
359.1768513051
  0
ARC
  5
285
330
258
100
AcDbEntity
  8
$DDT_AUDIT_GENERATED_(9D)
  6
Continuous
 62
     7
100
AcDbCircle
 10
418.3806780432
 20
586.8330561144
 30
0.0
 40
0.0815649616621661
100
AcDbArc
 50
0.238930127
 51
4.9990829939
  0
LINE
  5
286
330
258
100
AcDbEntity
  8
$DDT_AUDIT_GENERATED_(9D)
  6
Continuous
 62
     7
100
AcDbLine
 10
418.4516629882
 20
586.9575474608
 30
0.0
 11
418.4619327393
 21
586.8401636688
 31
0.0
  0
ARC
  5
287
330
258
100
AcDbEntity
  8
$DDT_AUDIT_GENERATED_(9D)
  6
Continuous
 62
     7
100
AcDbCircle
 10
419.797875199
 20
587.0942258389
 30
0.0
 40
0.0936888250445091
100
AcDbArc
 50
200.8194520662
 51
273.6632084088
  0
ELLIPSE
  5
288
330
258
100
AcDbEntity
  8
$DDT_AUDIT_GENERATED_(9D)
  6
Continuous
 62
     7
100
AcDbEllipse
 10
415.0582556785
 20
602.8496307786
 30
0.0
 11
1.424865707684409
 21
-16.28628928754933
 31
0.0
210
0.0
220
0.0
230
0.9999999999999998
 40
0.8660254027
 41
0.135979932323214
 42
0.1870418385972717
  0
LINE
  5
289
330
258
100
AcDbEntity
  8
$DDT_AUDIT_GENERATED_(9D)
  6
Continuous
 62
     7
100
AcDbLine
 10
419.7055872745
 20
587.0820059742
 30
0.0
 11
419.7014944837
 21
587.1287867875
 31
0.0
  0
ARC
  5
28A
330
258
100
AcDbEntity
  8
$DDT_AUDIT_GENERATED_(9D)
  6
Continuous
 62
     7
100
AcDbCircle
 10
419.7871261265
 20
587.089182865
 30
0.0
 40
0.0818540905562122
100
AcDbArc
 50
185.030099856
 51
200.1942143167
  0
ARC
  5
28B
330
258
100
AcDbEntity
  8
$DDT_AUDIT_GENERATED_(9D)
  6
Continuous
 62
     7
100
AcDbCircle
 10
418.3863777894
 20
599.10962391
 30
0.0
 40
12.05280003565369
100
AcDbArc
 50
273.3039554619
 51
276.6960445381
  0
ARC
  5
28C
330
258
100
AcDbEntity
  8
$DDT_AUDIT_GENERATED_(9D)
  6
Continuous
 62
     7
100
AcDbCircle
 10
416.8643195437
 20
586.6997427983
 30
0.0
 40
0.0942097784477466
100
AcDbArc
 50
281.2847274716
 51
354.1895514481
  0
ARC
  5
28D
330
258
100
AcDbEntity
  8
$DDT_AUDIT_GENERATED_(9D)
  6
Continuous
 62
     7
100
AcDbCircle
 10
416.8766913718
 20
586.6972869627
 30
0.0
 40
0.0816615718543035
100
AcDbArc
 50
355.0250213971
 51
4.9915044684
  0
LINE
  5
28E
330
258
100
AcDbEntity
  8
$DDT_AUDIT_GENERATED_(9D)
  6
Continuous
 62
     7
100
AcDbLine
 10
416.9534056931
 20
586.7573997062
 30
0.0
 11
416.9580432511
 21
586.7043921753
 31
0.0
  0
ARC
  5
28F
330
258
100
AcDbEntity
  8
$DDT_AUDIT_GENERATED_(9D)
  6
Continuous
 62
     7
100
AcDbCircle
 10
418.3063557603
 20
586.8259046197
 30
0.0
 40
0.0942097784478187
100
AcDbArc
 50
195.8104485518
 51
268.7152725284
  0
ELLIPSE
  5
290
330
258
100
AcDbEntity
  8
$DDT_AUDIT_GENERATED_(9D)
  6
Continuous
 62
     7
100
AcDbEllipse
 10
414.6803599677
 20
602.8165691471
 30
0.0
 11
1.414269238703303
 21
-16.16517136099518
 31
0.0
210
0.0
220
0.0
230
0.9999999999999999
 40
0.8660254037
 41
0.0556247988236342
 42
0.1065671555238756
  0
LINE
  5
291
330
258
100
AcDbEntity
  8
$DDT_AUDIT_GENERATED_(9D)
  6
Continuous
 62
     7
100
AcDbLine
 10
418.2132485707
 20
586.8142084111
 30
0.0
 11
418.2086110127
 21
586.867215942
 31
0.0
  0
ARC
  5
292
330
258
100
AcDbEntity
  8
$DDT_AUDIT_GENERATED_(9D)
  6
Continuous
 62
     7
100
AcDbCircle
 10
418.2945983394
 20
586.8213377483
 30
0.0
 40
0.0816615718544103
100
AcDbArc
 50
185.0084955316
 51
194.9749786029
  0
ELLIPSE
  5
293
330
258
100
AcDbEntity
  8
$DDT_AUDIT_GENERATED_(9D)
  6
Continuous
 62
     7
100
AcDbEllipse
 10
417.658478558
 20
603.077120749
 30
0.0
 11
1.414269240022942
 21
-16.16517134743567
 31
0.0
210
0.0
220
0.0
230
0.9999999999999999
 40
0.8660254041
 41
6.176618151407812
 42
6.227560508129217
  0
ARC
  5
294
330
258
100
AcDbEntity
  8
$DDT_AUDIT_GENERATED_(9D)
  6
Continuous
 62
     7
100
AcDbCircle
 10
415.3488661459
 20
586.7049879829
 30
0.0
 40
0.0936888250444915
100
AcDbArc
 50
276.3367915912
 51
349.1805479339
  0
ARC
  5
295
330
258
100
AcDbEntity
  8
$DDT_AUDIT_GENERATED_(9D)
  6
Continuous
 62
     7
100
AcDbCircle
 10
415.3603276192
 20
586.7018881799
 30
0.0
 40
0.0818540904909312
100
AcDbArc
 50
349.8057856771
 51
4.9699001501
  0
LINE
  5
296
330
258
100
AcDbEntity
  8
$DDT_AUDIT_GENERATED_(9D)
  6
Continuous
 62
     7
100
AcDbLine
 10
415.4377811759
 20
586.7557602085
 30
0.0
 11
415.4418739667
 21
586.7089793952
 31
0.0
  0
ARC
  5
297
330
258
100
AcDbEntity
  8
$DDT_AUDIT_GENERATED_(9D)
  6
Continuous
 62
     7
100
AcDbCircle
 10
416.8025586479
 20
586.6978419852
 30
0.0
 40
0.094743631047646
100
AcDbArc
 50
190.8231486949
 51
263.7806453743
  0
ARC
  5
298
330
258
100
AcDbEntity
  8
$DDT_AUDIT_GENERATED_(9D)
  6
Continuous
 62
     7
100
AcDbCircle
 10
414.6524677593
 20
598.7829491118
 30
0.0
 40
12.05280003568472
100
AcDbArc
 50
273.3039554619
 51
276.6960445381
  0
LINE
  5
299
330
258
100
AcDbEntity
  8
$DDT_AUDIT_GENERATED_(9D)
  6
Continuous
 62
     7
100
AcDbLine
 10
416.7086300707
 20
586.6867695615
 30
0.0
 11
416.7034115287
 21
586.7464177695
 31
0.0
  0
ARC
  5
29A
330
258
100
AcDbEntity
  8
$DDT_AUDIT_GENERATED_(9D)
  6
Continuous
 62
     7
100
AcDbCircle
 10
416.7898845393
 20
586.6938797168
 30
0.0
 40
0.0815649616615558
100
AcDbArc
 50
185.0009170062
 51
189.761069873
  0
ELLIPSE
  5
29B
330
258
100
AcDbEntity
  8
$DDT_AUDIT_GENERATED_(9D)
  6
Continuous
 62
     7
100
AcDbEllipse
 10
417.2805828386
 20
603.0440591859
 30
0.0
 11
1.424865671731307
 21
-16.2862892648491
 31
0.0
210
0.0
220
0.0
230
0.9999999999999998
 40
0.8660254033
 41
6.096143467681915
 42
6.14720537399687
  0
ARC
  5
29C
330
258
100
AcDbEntity
  8
$DDT_AUDIT_GENERATED_(9D)
  6
Continuous
 62
     7
100
AcDbCircle
 10
415.2865132408
 20
586.7101966867
 30
0.0
 40
0.0953596162889861
100
AcDbArc
 50
186.2598989002
 51
258.8083556655
  0
LINE
  5
29D
330
258
100
AcDbEntity
  8
$DDT_AUDIT_GENERATED_(9D)
  6
Continuous
 62
     7
100
AcDbLine
 10
415.1917222048
 20
586.6997988063
 30
0.0
 11
415.1858710318
 21
586.7666780191
 31
0.0
  0
ELLIPSE
  5
29E
330
258
100
AcDbEntity
  8
$DDT_AUDIT_GENERATED_(9D)
  6
Continuous
 62
     7
100
AcDbEllipse
 10
416.9026871157
 20
603.0109975631
 30
0.0
 11
1.43233460234174
 21
-16.37165929060425
 31
0.0
210
0.0
220
0.0
230
1.0
 40
0.8660254041
 41
-0.2405911533277454
 42
-0.2165012246825233
  0
ARC
  5
29F
330
258
100
AcDbEntity
  8
$DDT_AUDIT_GENERATED_(9D)
  6
Continuous
 62
     7
100
AcDbCircle
 10
419.0955700596
 20
587.191136014
 30
0.0
 40
0.093536755291986
100
AcDbArc
 50
287.8237484338
 51
356.0678859159
  0
SPLINE
  5
2A0
330
258
100
AcDbEntity
  8
$DDT_AUDIT_GENERATED_(9D)
  6
Continuous
 62
     7
100
AcDbSpline
210
0.0
220
0.0
230
1.0
 70
    12
 71
     2
 72
     6
 73
     3
 74
     0
 42
0.0000008800166107
 43
0.0000000001
 40
0.6048900223874125
 40
0.6048900223874125
 40
0.6048900223874125
 40
1.0
 40
1.0
 40
1.0
 10
419.1889932227741
 20
587.1892086183401
 30
0.0
 41
1.0
 10
419.1890016499584
 20
587.1869649214549
 30
0.0
 41
1.0
 10
419.1888866293529
 20
587.1847217798007
 30
0.0
 41
1.0
  0
ARC
  5
2A1
330
258
100
AcDbEntity
  8
$DDT_AUDIT_GENERATED_(9D)
  6
Continuous
 62
     7
100
AcDbCircle
 10
418.4309593005
 20
599.1188875542
 30
0.0
 40
12.03677849158166
100
AcDbArc
 50
273.3016972823
 51
276.6983027177
  0
ARC
  5
2A2
330
258
100
AcDbEntity
  8
$DDT_AUDIT_GENERATED_(9D)
  6
Continuous
 62
     7
100
AcDbCircle
 10
415.8198496463
 20
586.3052546308
 30
0.0
 40
4.105959016822736
100
AcDbArc
 50
12.0761819622
 51
13.1557479404
  0
SPLINE
  5
2A3
330
258
100
AcDbEntity
  8
$DDT_AUDIT_GENERATED_(9D)
  6
Continuous
 62
     7
100
AcDbSpline
210
0.0
220
0.0
230
1.0
 70
    12
 71
     2
 72
     6
 73
     3
 74
     0
 42
0.0000008800166107
 43
0.0000000001
 40
0.0
 40
0.0
 40
0.0
 40
0.3951099776054841
 40
0.3951099776054841
 40
0.3951099776054841
 10
419.8180476781746
 20
587.2397662391047
 30
0.0
 41
1.0
 10
419.81754488753
 20
587.2419553292782
 30
0.0
 41
1.0
 10
419.8171635728111
 20
587.2441664027315
 30
0.0
 41
1.0
  0
ELLIPSE
  5
2A4
330
258
100
AcDbEntity
  8
$DDT_AUDIT_GENERATED_(9D)
  6
Continuous
 62
     7
100
AcDbEllipse
 10
415.3911042262
 20
602.8787512442
 30
0.0
 11
1.431606678290398
 21
-16.36333887990779
 31
0.0
210
0.0
220
0.0
230
1.0
 40
0.866025403
 41
0.2166130634263929
 42
0.2385097901841247
  0
ARC
  5
2A5
330
258
100
AcDbEntity
  8
$DDT_AUDIT_GENERATED_(9D)
  6
Continuous
 62
     7
100
AcDbCircle
 10
417.5986388007
 20
586.9848784202
 30
0.0
 40
0.0929161097515213
100
AcDbArc
 50
282.8032394121
 51
353.4379576387
  0
ELLIPSE
  5
2A6
330
258
100
AcDbEntity
  8
$DDT_AUDIT_GENERATED_(9D)
  6
Continuous
 62
     7
100
AcDbEllipse
 10
417.7035257298
 20
603.081061879
 30
0.0
 11
1.412794354441554
 21
-16.14831337487066
 31
0.0
210
0.0
220
0.0
230
1.0
 40
0.8660254037
 41
6.176506477458729
 42
6.22750237895874
  0
LINE
  5
2A7
330
258
100
AcDbEntity
  8
$DDT_AUDIT_GENERATED_(9D)
  6
Continuous
 62
     7
100
AcDbLine
 10
418.3358153774
 20
586.8896829322
 30
0.0
 11
418.3251685407
 21
586.9701684923
 31
0.0
  0
ELLIPSE
  5
2A8
330
258
100
AcDbEntity
  8
$DDT_AUDIT_GENERATED_(9D)
  6
Continuous
 62
     7
100
AcDbEllipse
 10
417.735935426
 20
603.0838973393
 30
0.0
 11
1.40594444660011
 21
-16.07001850111192
 31
0.0
210
0.0
220
0.0
230
1.0
 40
0.8660254043
 41
6.179287374432397
 42
6.224640695297547
  0
ELLIPSE
  5
2A9
330
258
100
AcDbEntity
  8
$DDT_AUDIT_GENERATED_(9D)
  6
Continuous
 62
     7
100
AcDbEllipse
 10
414.9789665957
 20
602.8426938528
 30
0.0
 11
1.416864785571792
 21
-16.19483851792752
 31
0.0
210
0.0
220
0.0
230
1.0
 40
0.8660254034
 41
0.1389536796746098
 42
0.1844497323777445
  0
ARC
  5
2AA
330
258
100
AcDbEntity
  8
$DDT_AUDIT_GENERATED_(9D)
  6
Continuous
 62
     7
100
AcDbCircle
 10
418.4055527152
 20
586.9809693171
 30
0.0
 40
0.0811065553440706
100
AcDbArc
 50
184.9977302376
 51
187.6527168506
  0
ELLIPSE
  5
2AB
330
258
100
AcDbEntity
  8
$DDT_AUDIT_GENERATED_(9D)
  6
Continuous
 62
     7
100
AcDbEllipse
 10
415.0132085276
 20
602.8456895708
 30
0.0
 11
1.423767862087838
 21
-16.27374144757665
 31
0.0
210
0.0
220
0.0
230
0.9999999999999999
 40
0.866025405
 41
0.1360854336001681
 42
0.1871877668258965
  0
ARC
  5
2AC
330
258
100
AcDbEntity
  8
$DDT_AUDIT_GENERATED_(9D)
  6
Continuous
 62
     7
100
AcDbCircle
 10
419.0313542952
 20
587.1780418948
 30
0.0
 40
0.0924209939273729
100
AcDbArc
 50
199.2251669055
 51
272.168728641
  0
SPLINE
  5
2AD
330
258
100
AcDbEntity
  8
$DDT_AUDIT_GENERATED_(9D)
  6
Continuous
 62
     7
100
AcDbSpline
210
0.0
220
0.0
230
1.0
 70
    12
 71
     2
 72
     6
 73
     3
 74
     0
 42
0.0000006654598487
 43
0.0000000001
 40
0.0
 40
0.0
 40
0.0
 40
1.0
 40
1.0
 40
1.0
 10
417.6910077469279
 20
586.9892231528703
 30
0.0
 41
1.0
 10
417.6916694771398
 20
586.9817178344949
 30
0.0
 41
1.0
 10
417.6909461883805
 20
586.9742600573286
 30
0.0
 41
1.0
  0
LINE
  5
2AE
330
258
100
AcDbEntity
  8
$DDT_AUDIT_GENERATED_(9D)
  6
Continuous
 62
     7
100
AcDbLine
 10
417.6850230698
 20
587.0576283258
 30
0.0
 11
417.6910077469
 21
586.9892231529
 31
0.0
  0
ELLIPSE
  5
2AF
330
258
100
AcDbEntity
  8
$DDT_AUDIT_GENERATED_(9D)
  6
Continuous
 62
     7
100
AcDbEllipse
 10
419.0011076258
 20
587.171052028
 30
0.0
 11
0.006135142813584737
 21
-0.07012500321257331
 31
0.0
210
0.0
220
0.0
230
1.0
 40
0.8660254038
 41
4.711412113567288
 42
4.976612784814336
  0
ARC
  5
2B0
330
258
100
AcDbEntity
  8
$DDT_AUDIT_GENERATED_(9D)
  6
Continuous
 62
     7
100
AcDbCircle
 10
416.0891873695
 20
586.9206356426
 30
0.0
 40
0.0924209939273846
100
AcDbArc
 50
277.8312713591
 51
350.7748330945
  0
ELLIPSE
  5
2B1
330
258
100
AcDbEntity
  8
$DDT_AUDIT_GENERATED_(9D)
  6
Continuous
 62
     7
100
AcDbEllipse
 10
417.3256300107
 20
603.0480003069
 30
0.0
 11
1.42376788367371
 21
-16.27374151680899
 31
0.0
210
0.0
220
0.0
230
1.0
 40
0.8660254032
 41
6.095997542867402
 42
6.147099875980707
  0
LINE
  5
2B2
330
258
100
AcDbEntity
  8
$DDT_AUDIT_GENERATED_(9D)
  6
Continuous
 62
     7
100
AcDbLine
 10
416.8242324966
 20
586.7574365662
 30
0.0
 11
416.8207414131
 21
586.8385481735
 31
0.0
  0
ARC
  5
2B3
330
258
100
AcDbEntity
  8
$DDT_AUDIT_GENERATED_(9D)
  6
Continuous
 62
     7
100
AcDbCircle
 10
416.7397029113
 20
586.8352263442
 30
0.0
 40
0.0811065397794846
100
AcDbArc
 50
2.3472831493
 51
5.0022697629
  0
ELLIPSE
  5
2B4
330
258
100
AcDbEntity
  8
$DDT_AUDIT_GENERATED_(9D)
  6
Continuous
 62
     7
100
AcDbEllipse
 10
417.3598719279
 20
603.050996078
 30
0.0
 11
1.416864770580423
 21
-16.19483851890918
 31
0.0
210
0.0
220
0.0
230
1.0
 40
0.8660254034
 41
6.098735574791394
 42
6.144231627494998
  0
ELLIPSE
  5
2B5
330
258
100
AcDbEntity
  8
$DDT_AUDIT_GENERATED_(9D)
  6
Continuous
 62
     7
100
AcDbEllipse
 10
414.6029031084
 20
602.8097924951
 30
0.0
 11
1.405944424118122
 21
-16.07001846915748
 31
0.0
210
0.0
220
0.0
230
1.0
 40
0.8660254052
 41
0.0585446124502628
 42
0.1038979333632771
  0
ELLIPSE
  5
2B6
330
258
100
AcDbEntity
  8
$DDT_AUDIT_GENERATED_(9D)
  6
Continuous
 62
     7
100
AcDbEllipse
 10
414.6353127957
 20
602.8126280308
 30
0.0
 11
1.41279435614533
 21
-16.14831337560788
 31
0.0
210
0.0
220
0.0
230
1.0
 40
0.8660254037
 41
0.0556829282303632
 42
0.106678829728972
  0
ARC
  5
2B7
330
258
100
AcDbEntity
  8
$DDT_AUDIT_GENERATED_(9D)
  6
Continuous
 62
     7
100
AcDbCircle
 10
417.5336791817
 20
586.97919519
 30
0.0
 40
0.0929161097515842
100
AcDbArc
 50
196.5620423613
 51
267.1967605878
  0
ELLIPSE
  5
2B8
330
258
100
AcDbEntity
  8
$DDT_AUDIT_GENERATED_(9D)
  6
Continuous
 62
     7
100
AcDbEllipse
 10
416.1201883021
 20
586.9190042465
 30
0.0
 11
-0.006135142768981527
 21
0.07012500271891264
 31
0.0
210
0.0
220
0.0
230
1.0
 40
0.8660254038
 41
4.448165174946676
 42
4.713365848072946
  0
LINE
  5
2B9
330
258
100
AcDbEntity
  8
$DDT_AUDIT_GENERATED_(9D)
  6
Continuous
 62
     7
100
AcDbLine
 10
417.4419590724
 20
586.9674342172
 30
0.0
 11
417.4359743952
 21
587.0358393902
 31
0.0
  0
SPLINE
  5
2BA
330
258
100
AcDbEntity
  8
$DDT_AUDIT_GENERATED_(9D)
  6
Continuous
 62
     7
100
AcDbSpline
210
0.0
220
0.0
230
1.0
 70
    12
 71
     2
 72
     6
 73
     3
 74
     0
 42
0.0000006654598487
 43
0.0000000001
 40
0.0
 40
0.0
 40
0.0
 40
1.0
 40
1.0
 40
1.0
 10
417.4446180100129
 20
586.9527091342145
 30
0.0
 41
1.0
 10
417.4426106802212
 20
586.9599280132132
 30
0.0
 41
1.0
 10
417.441959072405
 20
586.9674342171835
 30
0.0
 41
1.0
  0
ELLIPSE
  5
2BB
330
258
100
AcDbEntity
  8
$DDT_AUDIT_GENERATED_(9D)
  6
Continuous
 62
     7
100
AcDbEllipse
 10
416.9477342937
 20
603.0149387289
 30
0.0
 11
1.431606620865444
 21
-16.36333888537281
 31
0.0
210
0.0
220
0.0
230
1.0
 40
0.8660254029
 41
-0.2404821509086608
 42
-0.2166130634145587
  0
ARC
  5
2BC
330
258
100
AcDbEntity
  8
$DDT_AUDIT_GENERATED_(9D)
  6
Continuous
 62
     7
100
AcDbCircle
 10
419.4034599637
 20
586.6187799081
 30
0.0
 40
4.105959016125575
100
AcDbArc
 50
176.8442520595
 51
177.9238180378
  0
SPLINE
  5
2BD
330
258
100
AcDbEntity
  8
$DDT_AUDIT_GENERATED_(9D)
  6
Continuous
 62
     7
100
AcDbSpline
210
0.0
220
0.0
230
1.0
 70
    12
 71
     2
 72
     6
 73
     3
 74
     0
 42
0.0000008800166107
 43
0.0000000001
 40
0.6048900223825491
 40
0.6048900223825491
 40
0.6048900223825491
 40
1.0
 40
1.0
 40
1.0
 10
415.3038339002163
 20
586.8493012216243
 30
0.0
 41
1.0
 10
415.3038423274006
 20
586.8470575247388
 30
0.0
 41
1.0
 10
415.3037273067951
 20
586.8448143830848
 30
0.0
 41
1.0
  0
ARC
  5
2BE
330
258
100
AcDbEntity
  8
$DDT_AUDIT_GENERATED_(9D)
  6
Continuous
 62
     7
100
AcDbCircle
 10
414.6069549266
 20
598.7843305222
 30
0.0
 40
12.03677849159978
100
AcDbArc
 50
273.3016972823
 51
276.6983027177
  0
ARC
  5
2BF
330
258
100
AcDbEntity
  8
$DDT_AUDIT_GENERATED_(9D)
  6
Continuous
 62
     7
100
AcDbCircle
 10
416.0236734169
 20
586.9223798823
 30
0.0
 40
0.0935367552919061
100
AcDbArc
 50
193.932114084
 51
262.1762515662
  0
SPLINE
  5
2C0
330
258
100
AcDbEntity
  8
$DDT_AUDIT_GENERATED_(9D)
  6
Continuous
 62
     7
100
AcDbSpline
210
0.0
220
0.0
230
1.0
 70
    12
 71
     2
 72
     6
 73
     3
 74
     0
 42
0.0000008800166107
 43
0.0000000001
 40
0.0
 40
0.0
 40
0.0
 40
0.3951099776059162
 40
0.3951099776059162
 40
0.3951099776059162
 10
415.9328883556168
 20
586.8998588423888
 30
0.0
 41
1.0
 10
415.9323855649722
 20
586.9020479325624
 30
0.0
 41
1.0
 10
415.9320042502533
 20
586.9042590060156
 30
0.0
 41
1.0
  0
LINE
  5
2C1
330
258
100
AcDbEntity
  8
$DDT_AUDIT_GENERATED_(9D)
  6
Continuous
 62
     7
100
AcDbLine
 10
416.8205005362
 20
586.8422984457
 30
0.0
 11
416.8083717354
 21
586.9809312722
 31
0.0
  0
LINE
  5
2C2
330
258
100
AcDbEntity
  8
$DDT_AUDIT_GENERATED_(9D)
  6
Continuous
 62
     7
100
AcDbLine
 10
418.3247545303
 20
586.9739036172
 30
0.0
 11
418.3126257296
 21
587.1125364438
 31
0.0
  0
LINE
  5
2C3
330
258
100
AcDbEntity
  8
$DDT_AUDIT_GENERATED_(9D)
  6
Continuous
 62
     7
100
AcDbLine
 10
426.9010915309
 20
589.2835454669
 30
0.0
 11
426.5881338719
 21
592.8606678781
 31
0.0
  0
LINE
  5
2C4
330
258
100
AcDbEntity
  8
$DDT_AUDIT_GENERATED_(9D)
  6
Continuous
 62
     7
100
AcDbLine
 10
407.6604346082
 20
591.2047087659
 30
0.0
 11
407.9733922672
 21
587.6275863547
 31
0.0
  0
ARC
  5
2C5
330
258
100
AcDbEntity
  8
$DDT_AUDIT_GENERATED_(9D)
  6
Continuous
 62
     7
100
AcDbCircle
 10
425.6907887882
 20
588.3967223534
 30
0.0
 40
0.650000000000003
100
AcDbArc
 50
286.8059856075
 51
320.0
  0
ARC
  5
2C6
330
258
100
AcDbEntity
  8
$DDT_AUDIT_GENERATED_(9D)
  6
Continuous
 62
     7
100
AcDbCircle
 10
409.3193030093
 20
586.9644029426
 30
0.0
 40
0.6499999999999954
100
AcDbArc
 50
230.0
 51
263.1940143925
  0
LINE
  5
2C7
330
258
100
AcDbEntity
  8
$DDT_AUDIT_GENERATED_(9D)
  6
Continuous
 62
     7
100
AcDbLine
 10
408.3267993556
 20
586.9486976543
 30
0.0
 11
408.901491063
 21
586.4664740546
 31
0.0
  0
LINE
  5
2C8
330
258
100
AcDbEntity
  8
$DDT_AUDIT_GENERATED_(9D)
  6
Continuous
 62
     7
100
AcDbLine
 10
426.1887176762
 20
587.9789104071
 30
0.0
 11
426.670941276
 21
588.5536021145
 31
0.0
  0
ARC
  5
2C9
330
258
100
AcDbEntity
  8
$DDT_AUDIT_GENERATED_(9D)
  6
Continuous
 62
     7
100
AcDbCircle
 10
408.9695869653
 20
587.7147420975
 30
0.0
 40
0.999999999999985
100
AcDbArc
 50
185.0
 51
230.0
  0
ARC
  5
2CA
330
258
100
AcDbEntity
  8
$DDT_AUDIT_GENERATED_(9D)
  6
Continuous
 62
     7
100
AcDbCircle
 10
425.9048968329
 20
589.1963897242
 30
0.0
 40
1.000000000000012
100
AcDbArc
 50
320.0
 51
5.0
  0
ARC
  5
2CB
330
258
100
AcDbEntity
  8
$DDT_AUDIT_GENERATED_(9D)
  6
Continuous
 62
     7
100
AcDbCircle
 10
416.169419263
 20
602.946844952
 30
0.0
 40
16.44190690603581
100
AcDbArc
 50
261.106047986
 51
288.893952014
  0
LINE
  5
2CC
330
258
100
AcDbEntity
  8
$DDT_AUDIT_GENERATED_(226)
  6
Continuous
 62
     7
100
AcDbLine
 10
216.4050225567
 20
440.8989654358
 30
0.0
 11
165.4050225567
 21
440.8989654358
 31
0.0
  0
ARC
  5
2CD
330
258
100
AcDbEntity
  8
$DDT_AUDIT_GENERATED_(226)
  6
Continuous
 62
     7
100
AcDbCircle
 10
440.2946176555
 20
330.1992527133
 30
0.0
 40
284.382158805378
100
AcDbArc
 50
95.0527613164
 51
142.5824321667
  0
ARC
  5
2CE
330
258
100
AcDbEntity
  8
$DDT_AUDIT_GENERATED_(226)
  6
Continuous
 62
     7
100
AcDbCircle
 10
377.2906479219
 20
1071.829320147
 30
0.0
 40
459.9220160118239
100
AcDbArc
 50
274.7340299795
 51
276.6652109215
  0
LINE
  5
2CF
330
258
100
AcDbEntity
  8
$DDT_AUDIT_GENERATED_(226)
  6
Continuous
 62
     7
100
AcDbLine
 10
432.0672047114
 20
593.3400244632
 30
0.0
 11
402.1813637687
 21
590.7253521807
 31
0.0
  0
LINE
  5
2D0
330
258
100
AcDbEntity
  8
$DDT_AUDIT_GENERATED_(226)
  6
Continuous
 62
     7
100
AcDbLine
 10
215.4050225567
 20
568.6989654358
 30
0.0
 11
166.4050225567
 21
568.6989654358
 31
0.0
  0
ARC
  5
2D1
330
258
100
AcDbEntity
  8
$DDT_AUDIT_GENERATED_(226)
  6
Continuous
 62
     7
100
AcDbCircle
 10
140.105232253
 20
456.0989654367
 30
0.0
 40
25.50768294865594
100
AcDbArc
 50
352.679899158
 51
7.3201013583
  0
ARC
  5
2D2
330
258
100
AcDbEntity
  8
$DDT_AUDIT_GENERATED_(226)
  6
Continuous
 62
     7
100
AcDbCircle
 10
278.1360659419
 20
500.9429293811
 30
0.0
 40
69.36266166576233
100
AcDbArc
 50
159.9302139324
 51
178.3170920712
  0
ARC
  5
2D3
330
258
100
AcDbEntity
  8
$DDT_AUDIT_GENERATED_(226)
  6
Continuous
 62
     7
100
AcDbCircle
 10
247.975962886
 20
498.5126547657
 30
0.0
 40
39.42654808273581
100
AcDbArc
 50
173.4939892055
 51
216.7978964307
  0
ARC
  5
2D4
330
258
100
AcDbEntity
  8
$DDT_AUDIT_GENERATED_(226)
  6
Continuous
 62
     7
100
AcDbCircle
 10
672.7920863251
 20
330.2244974394
 30
0.0
 40
382.3817779234166
100
AcDbArc
 50
132.3469383876
 51
135.7363645333
  0
LINE
  5
2D5
330
258
100
AcDbEntity
  8
$DDT_AUDIT_GENERATED_(226)
  6
Continuous
 62
     7
100
AcDbLine
 10
216.4050225567
 20
533.2811516613
 30
0.0
 11
216.4050225567
 21
567.6989654358
 31
0.0
  0
LINE
  5
2D6
330
258
100
AcDbEntity
  8
$DDT_AUDIT_GENERATED_(226)
  6
Continuous
 62
     7
100
AcDbLine
 10
216.4050225567
 20
440.8989654358
 30
0.0
 11
216.4050225567
 21
474.9391325452
 31
0.0
  0
LINE
  5
2D7
330
258
100
AcDbEntity
  8
$DDT_AUDIT_GENERATED_(226)
  6
Continuous
 62
     7
100
AcDbLine
 10
165.4050225567
 20
452.8898840356
 30
0.0
 11
165.4050225567
 21
440.8989654358
 31
0.0
  0
LINE
  5
2D8
330
258
100
AcDbEntity
  8
$DDT_AUDIT_GENERATED_(226)
  6
Continuous
 62
     7
100
AcDbLine
 10
165.4050225567
 20
567.6989654358
 30
0.0
 11
165.4050225567
 21
459.3489654358
 31
0.0
  0
SPLINE
  5
2D9
330
258
100
AcDbEntity
  8
$DDT_AUDIT_GENERATED_(226)
  6
Continuous
 62
     7
100
AcDbSpline
210
0.0
220
0.0
230
1.0
 70
     8
 71
     3
 72
    36
 73
    32
 74
     0
 42
0.0000000000449666
 43
0.0000000001
 40
0.0
 40
0.0
 40
0.0
 40
0.0
 40
0.045753308975871
 40
0.095362085634803
 40
0.1422524522875123
 40
0.186423221369227
 40
0.2278732911673507
 40
0.2666006435879912
 40
0.3026034073362856
 40
0.3318695452780392
 40
0.3590469125190219
 40
0.3841342917043316
 40
0.4071305364640399
 40
0.4280345784882539
 40
0.4468454270146434
 40
0.4643465769717146
 40
0.4836321845403732
 40
0.508246910677743
 40
0.5356090194485218
 40
0.5657205962262715
 40
0.5985840284578944
 40
0.634201922376125
 40
0.6725771306530628
 40
0.7137128508351775
 40
0.7519745044190875
 40
0.7923557221284715
 40
0.8348592684284167
 40
0.8794879634121362
 40
0.9262452336185166
 40
0.9751346632700341
 40
1.0
 40
1.0
 40
1.0
 40
1.0
 10
217.7602457775887
 20
479.301993580471
 30
0.0
 10
219.836684962194
 20
482.4008105964401
 30
0.0
 10
223.502533062755
 20
487.8396851092052
 30
0.0
 10
229.9641832363967
 20
496.4479428849286
 30
0.0
 10
236.4971736574248
 20
504.5043659839101
 30
0.0
 10
242.9760800025208
 20
511.906678760149
 30
0.0
 10
249.2853547006417
 20
518.6226006125887
 30
0.0
 10
255.3866379246327
 20
524.7021025219398
 30
0.0
 10
261.0115885137519
 20
529.9732876522473
 30
0.0
 10
266.1351822630055
 20
534.5235803475542
 30
0.0
 10
270.7452568689195
 20
538.4310636225645
 30
0.0
 10
275.0769425764537
 20
541.9461577980798
 30
0.0
 10
279.110176885314
 20
545.0894296808796
 30
0.0
 10
282.8272204393832
 20
547.880300789875
 30
0.0
 10
286.2595362576824
 20
550.3710382141055
 30
0.0
 10
289.6304444826021
 20
552.7413344887783
 30
0.0
 10
293.3924072542698
 20
555.3025230434765
 30
0.0
 10
297.8116559295919
 20
558.195746869186
 30
0.0
 10
302.9725218036658
 20
561.4187960752241
 30
0.0
 10
308.7342460602118
 20
564.8306905415452
 30
0.0
 10
315.1167145646643
 20
568.3908202873863
 30
0.0
 10
322.1397784596944
 20
572.0539112537109
 30
0.0
 10
329.82271234066
 20
575.7697078500545
 30
0.0
 10
337.8019596387041
 20
579.313167772908
 30
0.0
 10
346.0294844116291
 20
582.6507407518073
 30
0.0
 10
354.457170175575
 20
585.75644049113
 30
0.0
 10
363.4292106070151
 20
588.718457035357
 30
0.0
 10
372.9761168597486
 20
591.4983893182574
 30
0.0
 10
382.9971373321574
 20
593.9998265539168
 30
0.0
 10
391.9576904551089
 20
595.9239937880918
 30
0.0
 10
397.0023550064934
 20
596.7395829079385
 30
0.0
 10
399.004099362387
 20
597.0599913108259
 30
0.0
  0
SPLINE
  5
2DA
330
258
100
AcDbEntity
  8
$DDT_AUDIT_GENERATED_(226)
  6
Continuous
 62
     7
100
AcDbSpline
210
0.0
220
0.0
230
1.0
 70
     8
 71
     3
 72
    34
 73
    30
 74
     0
 42
0.000000000047635
 43
0.0000000001
 40
0.0
 40
0.0
 40
0.0
 40
0.0
 40
0.0566066416359028
 40
0.1099028132167808
 40
0.1598889343393104
 40
0.2065650014319961
 40
0.2499309749851696
 40
0.2899869280043171
 40
0.3267330523125778
 40
0.3532832252109226
 40
0.3777897281653994
 40
0.4002526349635238
 40
0.4206719636620062
 40
0.4390477053612454
 40
0.4560681748195876
 40
0.4747851472066528
 40
0.5027746146413269
 40
0.5343842150905335
 40
0.569613835976165
 40
0.6084633862877402
 40
0.6509329300616402
 40
0.6970224165809291
 40
0.7394092554977154
 40
0.7844557233241812
 40
0.8321617831199607
 40
0.8825272310507475
 40
0.9355518765597816
 40
0.9912359145658435
 40
1.0
 40
1.0
 40
1.0
 40
1.0
 10
414.9050225567365
 20
617.3989654357625
 30
0.0
 10
410.5692496166
 20
616.9742769346512
 30
0.0
 10
403.4830887998028
 20
616.2595089256347
 30
0.0
 10
392.2040674579497
 20
614.565604331587
 30
0.0
 10
381.9418531154396
 20
612.6391809709519
 30
0.0
 10
372.3682901989407
 20
610.4907916029708
 30
0.0
 10
363.5584938282302
 20
608.2080061979466
 30
0.0
 10
355.4856777465064
 20
605.8524812787574
 30
0.0
 10
348.6029395047437
 20
603.6329581758058
 30
0.0
 10
342.8011868780512
 20
601.6124821067962
 30
0.0
 10
337.975692991113
 20
599.8303632088549
 30
0.0
 10
333.5812728892136
 20
598.1213270217786
 30
0.0
 10
329.6114315831679
 20
596.505562402579
 30
0.0
 10
326.0154665003984
 20
594.9824253743818
 30
0.0
 10
322.5484963104872
 20
593.4609788969285
 30
0.0
 10
318.4892018719104
 20
591.6163169749017
 30
0.0
 10
313.5396048861052
 20
589.2648746705161
 30
0.0
 10
307.6094013073799
 20
586.2884197408333
 30
0.0
 10
301.0824916663803
 20
582.8113472866048
 30
0.0
 10
293.9907666586642
 20
578.7841709121072
 30
0.0
 10
286.3720574044907
 20
574.1536537233958
 30
0.0
 10
278.6998151287374
 20
569.1430231175914
 30
0.0
 10
271.0464110426596
 20
563.7842484158508
 30
0.0
 10
263.4750572446229
 20
558.1157249295152
 30
0.0
 10
255.670384235305
 20
551.8490567483807
 30
0.0
 10
247.6438010003385
 20
544.9286459768795
 30
0.0
 10
239.5849019249956
 20
537.3894967709005
 30
0.0
 10
233.543391944808
 20
531.4219641916582
 30
0.0
 10
230.6813571823271
 20
528.2709739309083
 30
0.0
 10
230.2280941974495
 20
527.7714771153439
 30
0.0
  0
LINE
  5
2DB
330
258
100
AcDbEntity
  8
$DDT_AUDIT_GENERATED_(226)
  6
Continuous
 62
     7
100
AcDbLine
 10
401.2746031507
 20
595.3528168472
 30
0.0
 11
401.6396885483
 21
591.1798716584
 31
0.0
  0
LINE
  5
2DC
330
258
100
AcDbEntity
  8
$DDT_AUDIT_GENERATED_(226)
  6
Continuous
 62
     7
100
AcDbLine
 10
432.5217241891
 20
593.8816996836
 30
0.0
 11
430.672711588
 21
615.0160104226
 31
0.0
  0
SPLINE
  5
2DD
330
258
100
AcDbEntity
  8
$DDT_AUDIT_GENERATED_(226)
  6
Continuous
 62
     7
100
AcDbSpline
210
0.0
220
0.0
230
1.0
 70
     8
 71
     3
 72
    14
 73
    10
 74
     0
 42
0.0000000006970916
 43
0.0000000001
 40
0.0
 40
0.0
 40
0.0
 40
0.0
 40
0.1581760356900419
 40
0.2854862965963686
 40
0.3819374146636343
 40
0.4524725996732973
 40
0.5798740904734478
 40
0.7623773021702985
 40
1.0
 40
1.0
 40
1.0
 40
1.0
 10
429.1939316014551
 20
616.7822413369544
 30
0.0
 10
428.3731819033238
 20
616.9172372929488
 30
0.0
 10
427.1282453314731
 20
617.1186147292913
 30
0.0
 10
425.2805445365873
 20
617.3311015784307
 30
0.0
 10
423.8850070022773
 20
617.4521444468755
 30
0.0
 10
422.4783828238618
 20
617.5432976695654
 30
0.0
 10
420.6687109413862
 20
617.6135341948298
 30
0.0
 10
418.0022780910526
 20
617.6140873555045
 30
0.0
 10
416.1513679993154
 20
617.4884311530645
 30
0.0
 10
414.9050225567364
 20
617.3989654357629
 30
0.0
  0
ARC
  5
2DE
330
258
100
AcDbEntity
  8
$DDT_AUDIT_GENERATED_(226)
  6
Continuous
 62
     7
100
AcDbCircle
 10
428.7069453722
 20
614.8868933851
 30
0.0
 40
1.948248307031729
100
AcDbArc
 50
3.719290367
 51
82.0352233056
  0
ARC
  5
2DF
330
258
100
AcDbEntity
  8
$DDT_AUDIT_GENERATED_(226)
  6
Continuous
 62
     7
100
AcDbCircle
 10
402.1377858973
 20
591.2234495298
 30
0.0
 40
0.5000000000000051
100
AcDbArc
 50
185.0
 51
275.0
  0
ARC
  5
2E0
330
258
100
AcDbEntity
  8
$DDT_AUDIT_GENERATED_(226)
  6
Continuous
 62
     7
100
AcDbCircle
 10
432.0236268401
 20
593.8381218122
 30
0.0
 40
0.5000000000000051
100
AcDbArc
 50
275.0
 51
5.0
  0
ARC
  5
2E1
330
258
100
AcDbEntity
  8
$DDT_AUDIT_GENERATED_(226)
  6
Continuous
 62
     7
100
AcDbCircle
 10
215.4050225567
 20
567.6989654358
 30
0.0
 40
1.000000000000001
100
AcDbArc
 50
0.0
 51
90.0
  0
ARC
  5
2E2
330
258
100
AcDbEntity
  8
$DDT_AUDIT_GENERATED_(226)
  6
Continuous
 62
     7
100
AcDbCircle
 10
166.4050225567
 20
567.6989654358
 30
0.0
 40
1.000000000000001
100
AcDbArc
 50
90.0
 51
180.0
  0
ARC
  5
2E3
330
258
100
AcDbEntity
  8
$DDT_AUDIT_GENERATED_(226)
  6
Continuous
 62
     7
100
AcDbCircle
 10
224.4050225557
 20
533.3057211795
 30
0.0
 40
8.00000000097598
100
AcDbArc
 50
180.1713877643
 51
316.4660759808
  0
ARC
  5
2E4
330
258
100
AcDbEntity
  8
$DDT_AUDIT_GENERATED_(226)
  6
Continuous
 62
     7
100
AcDbCircle
 10
223.8991883546
 20
475.0357007953
 30
0.0
 40
7.476635704621275
100
AcDbArc
 50
145.1893905286
 51
180.7318555077
  0
ARC
  5
2E5
330
258
100
AcDbEntity
  8
$DDT_AUDIT_GENERATED_(226)
  6
Continuous
 62
     7
100
AcDbCircle
 10
399.3099589076
 20
595.1600840556
 30
0.0
 40
1.974270324089858
100
AcDbArc
 50
5.4868550777
 51
99.2500761959
  0
ENDBLK
  5
2E7
330
258
100
AcDbEntity
  8
0
100
AcDbBlockEnd
  0
BLOCK
  5
305
330
2E8
100
AcDbEntity
  8
0
100
AcDbBlockBegin
  2
SE2
 70
     0
 10
0.0
 20
0.0
 30
0.0
  3
SE2
  1

  0
SPLINE
  5
2EA
330
2E8
100
AcDbEntity
  8
$DDT_AUDIT_GENERATED_(7A)
  6
Continuous
 62
     7
100
AcDbSpline
210
0.0
220
0.0
230
1.0
 70
    12
 71
     3
 72
    10
 73
     6
 74
     0
 42
0.0000000001193106
 43
0.0000000001
 40
0.8729029349382059
 40
0.8729029349382059
 40
0.8729029349382059
 40
0.8729029349382059
 40
0.875001552334784
 40
0.875001552334784
 40
0.881047918959173
 40
0.881047918959173
 40
0.881047918959173
 40
0.881047918959173
 10
79.96371717740787
 20
336.1648823787732
 30
0.0
 41
0.9999999999999828
 10
79.98312559553142
 20
336.2207313763679
 30
0.0
 41
0.9999999999999828
 10
80.0024348851729
 20
336.2763479575664
 30
0.0
 41
0.9999999999999828
 10
80.07700222589436
 20
336.491385414843
 30
0.0
 41
0.9999999999999829
 10
80.13208093213503
 20
336.6507794926626
 30
0.0
 41
0.999999999999983
 10
80.18680967815529
 20
336.8100708558127
 30
0.0
 41
0.999999999999983
  0
ARC
  5
2EB
330
2E8
100
AcDbEntity
  8
$DDT_AUDIT_GENERATED_(7A)
  6
Continuous
 62
     7
100
AcDbCircle
 10
51.9926147272
 20
347.3011465551
 30
0.0
 40
20.56849401236016
100
AcDbArc
 50
179.1085199315
 51
196.4816875129
  0
ARC
  5
2EC
330
2E8
100
AcDbEntity
  8
$DDT_AUDIT_GENERATED_(7A)
  6
Continuous
 62
     7
100
AcDbCircle
 10
57.1267030167
 20
348.1097404381
 30
0.0
 40
25.7300496277132
100
AcDbArc
 50
194.9645727781
 51
204.2529384697
  0
LINE
  5
2ED
330
2E8
100
AcDbEntity
  8
$DDT_AUDIT_GENERATED_(7A)
  6
Continuous
 62
     7
100
AcDbLine
 10
82.8092421014
 20
347.6531520595
 30
0.0
 11
82.8069800417
 21
347.7728370764
 31
0.0
  0
ARC
  5
2EE
330
2E8
100
AcDbEntity
  8
$DDT_AUDIT_GENERATED_(7A)
  6
Continuous
 62
     7
100
AcDbCircle
 10
62.2718156912
 20
347.2958557349
 30
0.0
 40
20.54053417557291
100
AcDbArc
 50
343.5106280146
 51
0.9966928692
  0
ARC
  5
2EF
330
2E8
100
AcDbEntity
  8
$DDT_AUDIT_GENERATED_(7A)
  6
Continuous
 62
     7
100
AcDbCircle
 10
57.0762515239
 20
348.1538548416
 30
0.0
 40
25.77419719108872
100
AcDbArc
 50
335.3609608418
 51
344.9601369096
  0
ARC
  5
2F0
330
2E8
100
AcDbEntity
  8
$DDT_AUDIT_GENERATED_(7A)
  6
Continuous
 62
     7
100
AcDbCircle
 10
56.9341637872
 20
348.0280855186
 30
0.0
 40
25.51006009354401
100
AcDbArc
 50
89.5861582239
 51
180.838560722
  0
LINE
  5
2F1
330
2E8
100
AcDbEntity
  8
$DDT_AUDIT_GENERATED_(7A)
  6
Continuous
 62
     7
100
AcDbLine
 10
31.4268357994
 20
347.6547426492
 30
0.0
 11
31.426119494
 21
347.6211784612
 31
0.0
  0
ARC
  5
2F2
330
2E8
100
AcDbEntity
  8
$DDT_AUDIT_GENERATED_(7A)
  6
Continuous
 62
     7
100
AcDbCircle
 10
57.2813698296
 20
348.0110542195
 30
0.0
 40
25.52694606497785
100
AcDbArc
 50
359.4665725186
 51
90.365749489
  0
SPLINE
  5
2F3
330
2E8
100
AcDbEntity
  8
$DDT_AUDIT_GENERATED_(7A)
  6
Continuous
 62
     7
100
AcDbSpline
210
0.0
220
0.0
230
1.0
 70
     8
 71
     3
 72
    24
 73
    20
 74
     0
 42
0.0000000006825326
 43
0.0000000001
 40
0.7297399649652118
 40
0.7297399649652118
 40
0.7297399649652118
 40
0.7297399649652118
 40
0.7314838270514178
 40
0.7557952435736037
 40
0.7821340145111494
 40
0.8112562710661584
 40
0.8402692104442661
 40
0.8682090512730697
 40
0.8885741237503071
 40
0.9086090775057849
 40
0.9257828211714544
 40
0.9390274903629533
 40
0.9446356829254055
 40
0.951562679530835
 40
0.9600773483339198
 40
0.9697300811345039
 40
0.977302151056003
 40
0.982301354743079
 40
0.9858879102264269
 40
0.9858879102264269
 40
0.9858879102264269
 40
0.9858879102264269
 10
32.85633202609817
 20
340.1407462763161
 30
0.0
 10
32.8562921582696
 20
340.1408374946545
 30
0.0
 10
32.85623536741273
 20
340.1406695610721
 30
0.0
 10
32.87210361351459
 20
340.0946338138572
 30
0.0
 10
32.91484992185735
 20
339.96924937565
 30
0.0
 10
32.98895738604165
 20
339.7513594976463
 30
0.0
 10
33.1009757936723
 20
339.4236258099548
 30
0.0
 10
33.23363653580238
 20
339.0406635519638
 30
0.0
 10
33.38170485917283
 20
338.6220841332619
 30
0.0
 10
33.53242709317636
 20
338.2043397660054
 30
0.0
 10
33.68049659250108
 20
337.7993669782119
 30
0.0
 10
33.79000596473934
 20
337.5019718910473
 30
0.0
 10
33.86554637863937
 20
337.2971424535555
 30
0.0
 10
33.91773417006323
 20
337.1556981573863
 30
0.0
 10
33.97643201466953
 20
336.9964554240913
 30
0.0
 10
34.03529478188157
 20
336.8361737673587
 30
0.0
 10
34.08419779908698
 20
336.7020559360247
 30
0.0
 10
34.11422266062667
 20
336.6190772793307
 30
0.0
 10
34.11861382130935
 20
336.6070163829949
 30
0.0
 10
34.1186523673162
 20
336.6070962020721
 30
0.0
  0
SPLINE
  5
2F4
330
2E8
100
AcDbEntity
  8
$DDT_AUDIT_GENERATED_(7A)
  6
Continuous
 62
     7
100
AcDbSpline
210
0.0
220
0.0
230
1.0
 70
     8
 71
     3
 72
    59
 73
    55
 74
     0
 42
0.0000000001202721
 43
0.0000000001
 40
0.0
 40
0.0
 40
0.0
 40
0.0
 40
0.0312306797016195
 40
0.0672265508266932
 40
0.099880024330502
 40
0.1274486084141168
 40
0.1490630882413101
 40
0.1647588452616595
 40
0.1766167534746586
 40
0.1870288271187465
 40
0.2012803574141045
 40
0.2149697041449848
 40
0.2282603791504816
 40
0.2437534435572801
 40
0.258543289114076
 40
0.26606836817674
 40
0.2697049700007744
 40
0.2718383461910987
 40
0.2786972269210277
 40
0.2888478345091461
 40
0.3017981336542233
 40
0.3162651371767427
 40
0.334649428979741
 40
0.3577196756660229
 40
0.3697997891358273
 40
0.3764083330975752
 40
0.3885889195348978
 40
0.4146777299029988
 40
0.441138161568399
 40
0.465592396776935
 40
0.4823764287841176
 40
0.4984957252517089
 40
0.5140702743413808
 40
0.5330444440046627
 40
0.5499090480619621
 40
0.5590842345278836
 40
0.5687237334278041
 40
0.5788451288310636
 40
0.6065939024818857
 40
0.6357182925794584
 40
0.655825725881414
 40
0.6706031826653791
 40
0.6839099594270084
 40
0.6974529680018305
 40
0.709000810424479
 40
0.7243509871927553
 40
0.7463238565947214
 40
0.7767357052827984
 40
0.8151511822755309
 40
0.8606638617668205
 40
0.8872811476201661
 40
0.9231143465210497
 40
0.9601039395527147
 40
1.0
 40
1.0
 40
1.0
 40
1.0
 10
34.27170062075518
 20
336.1695766590407
 30
0.0
 10
34.56389144171316
 20
335.3316772130781
 30
0.0
 10
35.08657104338486
 20
333.8348083583624
 30
0.0
 10
35.92403251470683
 20
331.2431923825366
 30
0.0
 10
36.6414686534164
 20
328.8424908589609
 30
0.0
 10
37.25444714554727
 20
326.7135697025695
 30
0.0
 10
37.71852754527387
 20
325.0451830561996
 30
0.0
 10
38.07217275438427
 20
323.7580283545774
 30
0.0
 10
38.34030823551711
 20
322.7688305919983
 30
0.0
 10
38.59996910291321
 20
321.8080018257677
 30
0.0
 10
38.87115540098383
 20
320.7992175276543
 30
0.0
 10
39.16074682900654
 20
319.713443717901
 30
0.0
 10
39.45576302532264
 20
318.5906032888822
 30
0.0
 10
39.75689021149333
 20
317.4287746483471
 30
0.0
 10
40.01296319988051
 20
316.4185869145412
 30
0.0
 10
40.18408450764618
 20
315.7252211840346
 30
0.0
 10
40.26916238926037
 20
315.3727077287195
 30
0.0
 10
40.35007657798935
 20
315.0358034628515
 30
0.0
 10
40.47374972677409
 20
314.5181679374333
 30
0.0
 10
40.66068616556075
 20
313.7089391683867
 30
0.0
 10
40.88515934320239
 20
312.6891771355751
 30
0.0
 10
41.13531937184227
 20
311.4430797274968
 30
0.0
 10
41.40500510942384
 20
309.9132615104807
 30
0.0
 10
41.62136480746221
 20
308.4390028563611
 30
0.0
 10
41.76539402221293
 20
307.2846859141493
 30
0.0
 10
41.86103666677835
 20
306.4309796340323
 30
0.0
 10
41.99461209077134
 20
305.1858151533864
 30
0.0
 10
42.16387425862343
 20
303.3849626904033
 30
0.0
 10
42.34801973744909
 20
301.236061577545
 30
0.0
 10
42.51094889414013
 20
299.3436447298094
 30
0.0
 10
42.6442182561936
 20
297.7381215538789
 30
0.0
 10
42.74607283928382
 20
296.3790380141904
 30
0.0
 10
42.8361792260398
 20
294.9565783399433
 30
0.0
 10
42.91394134070183
 20
293.5112882745532
 30
0.0
 10
42.9653282457447
 20
292.2444983271055
 30
0.0
 10
42.99862484205622
 20
291.2397988040595
 30
0.0
 10
43.02389633197166
 20
290.4247576079626
 30
0.0
 10
43.0581578792664
 20
289.0861164717273
 30
0.0
 10
43.09423290829817
 20
287.1976056317543
 30
0.0
 10
43.12079496430902
 20
285.0269639190574
 30
0.0
 10
43.13694602080628
 20
283.221898431607
 30
0.0
 10
43.14808468877915
 20
281.8630781247194
 30
0.0
 10
43.15750468094773
 20
280.6892054838966
 30
0.0
 10
43.16463438007285
 20
279.6070048211269
 30
0.0
 10
43.17180453774014
 20
278.4664433832911
 30
0.0
 10
43.17964810629103
 20
277.0903374488728
 30
0.0
 10
43.18927306886899
 20
275.1792817926381
 30
0.0
 10
43.20073035019787
 20
272.6275608117293
 30
0.0
 10
43.21419569497107
 20
269.4003228712243
 30
0.0
 10
43.22871747464803
 20
266.3128511885661
 30
0.0
 10
43.24837355366877
 20
263.2555919388445
 30
0.0
 10
43.2720569904559
 20
260.524534773995
 30
0.0
 10
43.31031294617604
 20
257.2561409240711
 30
0.0
 10
43.34362393294609
 20
255.3007431107488
 30
0.0
 10
43.36654114233242
 20
254.0774203559473
 30
0.0
  0
ARC
  5
2F5
330
2E8
100
AcDbEntity
  8
$DDT_AUDIT_GENERATED_(7A)
  6
Continuous
 62
     7
100
AcDbCircle
 10
46.0571222228
 20
253.9394576185
 30
0.0
 40
2.694172979131781
100
AcDbArc
 50
177.0593851281
 51
235.7721318328
  0
ARC
  5
2F6
330
2E8
100
AcDbEntity
  8
$DDT_AUDIT_GENERATED_(7A)
  6
Continuous
 62
     7
100
AcDbCircle
 10
56.7760158582
 20
272.5293655628
 30
0.0
 40
24.1463691717558
100
AcDbArc
 50
239.5574079691
 51
270.8124714499
  0
SPLINE
  5
2F7
330
2E8
100
AcDbEntity
  8
$DDT_AUDIT_GENERATED_(7A)
  6
Continuous
 62
     7
100
AcDbSpline
210
0.0
220
0.0
230
1.0
 70
     8
 71
     3
 72
   106
 73
   102
 74
     0
 42
0.000000000120281
 43
0.0000000001
 40
0.0
 40
0.0
 40
0.0
 40
0.0
 40
0.0314976313684133
 40
0.0602527697105067
 40
0.0886472879481257
 40
0.0996261527797414
 40
0.1104771097806583
 40
0.1196678821098763
 40
0.127211427730689
 40
0.1346319437702157
 40
0.1419231547053175
 40
0.1668254980513789
 40
0.1898005237261587
 40
0.2107068488877633
 40
0.2279737525674675
 40
0.2433969631804308
 40
0.2567028795426163
 40
0.2686013833303318
 40
0.2801652251569549
 40
0.2913699074978161
 40
0.3021949174455535
 40
0.3104230677226684
 40
0.3189301397423184
 40
0.3283774802077958
 40
0.3374055091794565
 40
0.3460496654880247
 40
0.3547570598991651
 40
0.3650758539810902
 40
0.3804980760170829
 40
0.3980127631743218
 40
0.4154560946835117
 40
0.4253505612924088
 40
0.4351115946770459
 40
0.4447301769098233
 40
0.4508422744424826
 40
0.4566526523935089
 40
0.4637137827001918
 40
0.4719901494120273
 40
0.4805858509684555
 40
0.4876691255881675
 40
0.4944947330145188
 40
0.5010813995542059
 40
0.507447144692459
 40
0.5166870088534928
 40
0.5255702847256676
 40
0.5339949184558204
 40
0.5427256792339875
 40
0.5541282806512556
 40
0.5651438261271504
 40
0.5757879080701991
 40
0.584955212627993
 40
0.5933729231010895
 40
0.6020437312064976
 40
0.6110007172222129
 40
0.6203328068360909
 40
0.6261048240641754
 40
0.6320574332531772
 40
0.639360301888238
 40
0.6479697798471615
 40
0.6576274322733346
 40
0.6659664699412956
 40
0.6737465838293553
 40
0.6809932899966682
 40
0.6933384941549859
 40
0.7073378061578548
 40
0.7198397745782856
 40
0.7266454982457305
 40
0.7307640589580723
 40
0.7336690791838343
 40
0.7370063796764934
 40
0.7414675108340104
 40
0.7473157186212099
 40
0.7548469715371847
 40
0.7623335217524452
 40
0.770313639519085
 40
0.7776635008946737
 40
0.7854739147682738
 40
0.7905462075433785
 40
0.7956896182374933
 40
0.8007639004447228
 40
0.8058626803762403
 40
0.8098654061123598
 40
0.8128160365774195
 40
0.814167200933994
 40
0.816102555757688
 40
0.8189307708902531
 40
0.8226300148718061
 40
0.8271710412345776
 40
0.8335529433600894
 40
0.841067008901518
 40
0.8503157525072939
 40
0.8608721658865977
 40
0.8762390237653005
 40
0.8938039085569728
 40
0.9135996180436141
 40
0.934533749937696
 40
0.9487378199584173
 40
0.9637174443262938
 40
0.9754651494194286
 40
0.9883090163350295
 40
1.0
 40
1.0
 40
1.0
 40
1.0
 10
70.87029653423195
 20
254.0774203559473
 30
0.0
 10
70.88793701932835
 20
255.0433383395133
 30
0.0
 10
70.91600696820996
 20
256.5983652159046
 30
0.0
 10
70.94898558975794
 20
259.122507562165
 30
0.0
 10
70.96860650675531
 20
261.0184325581473
 30
0.0
 10
70.98092915680132
 20
262.4263738697099
 30
0.0
 10
70.9879032088989
 20
263.2955961929677
 30
0.0
 10
70.99353828617666
 20
264.0690961751292
 30
0.0
 10
70.99797055078714
 20
264.7465991752266
 30
0.0
 10
71.00183679780068
 20
265.3710340814994
 30
0.0
 10
71.00830422399598
 20
266.4828501613488
 30
0.0
 10
71.01623521393407
 20
268.0322336926155
 30
0.0
 10
71.02491629034208
 20
269.9656497761619
 30
0.0
 10
71.03221673697593
 20
271.6856353456976
 30
0.0
 10
71.03867028826517
 20
273.1940134552901
 30
0.0
 10
71.04448976195306
 20
274.4890227497457
 30
0.0
 10
71.04990493700194
 20
275.6332447456915
 30
0.0
 10
71.05507118794823
 20
276.6690290062128
 30
0.0
 10
71.0603413157369
 20
277.6458256327845
 30
0.0
 10
71.0658351670155
 20
278.5925423862666
 30
0.0
 10
71.07116563045216
 20
279.4453802985325
 30
0.0
 10
71.07628439185629
 20
280.2222666262113
 30
0.0
 10
71.08150784356887
 20
280.9603783787315
 30
0.0
 10
71.0876086837124
 20
281.721093368687
 30
0.0
 10
71.09385020491571
 20
282.4857152411258
 30
0.0
 10
71.10014990940611
 20
283.229502357435
 30
0.0
 10
71.10686422101142
 20
284.0097034465602
 30
0.0
 10
71.11642765533016
 20
284.9810204811515
 30
0.0
 10
71.13037793057711
 20
286.2006325103012
 30
0.0
 10
71.15116423764756
 20
287.6209532669533
 30
0.0
 10
71.17520376730612
 20
288.885148041541
 30
0.0
 10
71.20001263847544
 20
289.9304942916684
 30
0.0
 10
71.22255131868704
 20
290.7551505870304
 30
0.0
 10
71.24608751780251
 20
291.4730093838468
 30
0.0
 10
71.26646558553385
 20
292.0794761001381
 30
0.0
 10
71.28656705064515
 20
292.6137877108091
 30
0.0
 10
71.3117365837845
 20
293.2088100079596
 30
0.0
 10
71.34376440908537
 20
293.8818998225742
 30
0.0
 10
71.37975328799575
 20
294.5552488277157
 30
0.0
 10
71.41606525048765
 20
295.187465271175
 30
0.0
 10
71.45189737788911
 20
295.7628980461804
 30
0.0
 10
71.48888415720273
 20
296.3178494997804
 30
0.0
 10
71.53264912509539
 20
296.940146726771
 30
0.0
 10
71.58516559092537
 20
297.6263389313734
 30
0.0
 10
71.64499998143998
 20
298.3695685033482
 30
0.0
 10
71.70579290554838
 20
299.0979639043703
 30
0.0
 10
71.7735318103384
 20
299.8962731790364
 30
0.0
 10
71.84833864987058
 20
300.7667401116383
 30
0.0
 10
71.92708898452359
 20
301.6899667062673
 30
0.0
 10
72.00149864570793
 20
302.5500659425661
 30
0.0
 10
72.07107709315315
 20
303.3369468429303
 30
0.0
 10
72.13730661987572
 20
304.0680073639909
 30
0.0
 10
72.20589863093522
 20
304.7925639494589
 30
0.0
 10
72.28008956810426
 20
305.5415300051934
 30
0.0
 10
72.35179437962613
 20
306.2095810645369
 30
0.0
 10
72.41456868517284
 20
306.7921401058919
 30
0.0
 10
72.47551197517693
 20
307.3185070790592
 30
0.0
 10
72.55013611243716
 20
307.9227721584845
 30
0.0
 10
72.64443436926432
 20
308.6283870218296
 30
0.0
 10
72.75155659887773
 20
309.3612721118647
 30
0.0
 10
72.86321527754086
 20
310.0692186711407
 30
0.0
 10
72.97179633462707
 20
310.7094346813477
 30
0.0
 10
73.10703200903107
 20
311.4576300683492
 30
0.0
 10
73.28526081133758
 20
312.3726606140524
 30
0.0
 10
73.51215402217568
 20
313.4280951606184
 30
0.0
 10
73.71851758690077
 20
314.3290630640527
 30
0.0
 10
73.8688532518265
 20
314.9615410026562
 30
0.0
 10
73.9580656720381
 20
315.3330984727467
 30
0.0
 10
74.02482920531791
 20
315.6094745996005
 30
0.0
 10
74.09479737437829
 20
315.8952618277093
 30
0.0
 10
74.18502484437427
 20
316.2597301654559
 30
0.0
 10
74.30451577919389
 20
316.7362190780847
 30
0.0
 10
74.44606072188562
 20
317.293168550341
 30
0.0
 10
74.603900146733
 20
317.9067946455642
 30
0.0
 10
74.76155847517174
 20
318.5141215893962
 30
0.0
 10
74.92191838041478
 20
319.1270162929304
 30
0.0
 10
75.0630499159621
 20
319.6620135093192
 30
0.0
 10
75.18925841543152
 20
320.1375089088824
 30
0.0
 10
75.296658729883
 20
320.5402694877242
 30
0.0
 10
75.4043864055011
 20
320.9424385065893
 30
0.0
 10
75.50462447679276
 20
321.3157113676076
 30
0.0
 10
75.58990415563005
 20
321.6327050773501
 30
0.0
 10
75.64867018592554
 20
321.8508817639369
 30
0.0
 10
75.69284659824079
 20
322.0147551156901
 30
0.0
 10
75.73615428844032
 20
322.1753015688639
 30
0.0
 10
75.79610284429025
 20
322.3973197287165
 30
0.0
 10
75.87453896226852
 20
322.6873921850406
 30
0.0
 10
75.97822385902157
 20
323.0700874714005
 30
0.0
 10
76.10911314245774
 20
323.5517959143972
 30
0.0
 10
76.2736072233919
 20
324.1549895346698
 30
0.0
 10
76.46927646309321
 20
324.8663059533671
 30
0.0
 10
76.72239488508022
 20
325.7790805050547
 30
0.0
 10
77.03835551378774
 20
326.903545459319
 30
0.0
 10
77.42701749377493
 20
328.2597080645679
 30
0.0
 10
77.86591831743132
 20
329.7501046600433
 30
0.0
 10
78.28993719084004
 20
331.1420698932552
 30
0.0
 10
78.68719249324127
 20
332.4005618067152
 30
0.0
 10
79.02293029052002
 20
333.4277218996874
 30
0.0
 10
79.34813912777066
 20
334.3916252361375
 30
0.0
 10
79.6609855705302
 20
335.2949261548486
 30
0.0
 10
79.85406178837098
 20
335.8506150751624
 30
0.0
 10
79.96330927856664
 20
336.1644268559033
 30
0.0
  0
ARC
  5
2F8
330
2E8
100
AcDbEntity
  8
$DDT_AUDIT_GENERATED_(7A)
  6
Continuous
 62
     7
100
AcDbCircle
 10
68.173661964
 20
253.9424646725
 30
0.0
 40
2.700066266756764
100
AcDbArc
 50
304.2981841629
 51
2.8702988762
  0
ARC
  5
2F9
330
2E8
100
AcDbEntity
  8
$DDT_AUDIT_GENERATED_(7A)
  6
Continuous
 62
     7
100
AcDbCircle
 10
57.4535754256
 20
272.5567628975
 30
0.0
 40
24.1736622048742
100
AcDbArc
 50
269.205622821
 51
300.42449776
  0
SPLINE
  5
2FA
330
2E8
100
AcDbEntity
  8
$DDT_AUDIT_GENERATED_(7A)
  6
Continuous
 62
     7
100
AcDbSpline
210
0.0
220
0.0
230
1.0
 70
     8
 71
     3
 72
    26
 73
    22
 74
     0
 42
0.0000000006904743
 43
0.0000000001
 40
0.0143894966944102
 40
0.0143894966944102
 40
0.0143894966944102
 40
0.0143894966944102
 40
0.0162373405962249
 40
0.0213974465929264
 40
0.0276187459805418
 40
0.0354807688893012
 40
0.0434818411356579
 40
0.0528400091262547
 40
0.0615390810419662
 40
0.0739714589753405
 40
0.0837221347096255
 40
0.0939041860352379
 40
0.1050920480422092
 40
0.1173999145111732
 40
0.1309913172731871
 40
0.1536076043220124
 40
0.1769992469028433
 40
0.2010263105268213
 40
0.22851485039239
 40
0.2548855058759868
 40
0.2688947777195727
 40
0.2688947777195727
 40
0.2688947777195727
 40
0.2688947777195727
 10
80.12977766376962
 20
336.639505421535
 30
0.0
 10
80.12975485675095
 20
336.6393224862779
 30
0.0
 10
80.1312388054336
 20
336.6430814966188
 30
0.0
 10
80.14652334813694
 20
336.6851292300498
 30
0.0
 10
80.1790083400113
 20
336.7742899422412
 30
0.0
 10
80.22914394373427
 20
336.9112634902842
 30
0.0
 10
80.29857829457269
 20
337.1001051642679
 30
0.0
 10
80.37251165413089
 20
337.3006331612546
 30
0.0
 10
80.4558559273523
 20
337.526531643874
 30
0.0
 10
80.53796163517394
 20
337.7493960609759
 30
0.0
 10
80.63020137774475
 20
338.001047491234
 30
0.0
 10
80.71574569402401
 20
338.2358369713051
 30
0.0
 10
80.80401002701198
 20
338.4800406739548
 30
0.0
 10
80.89510621242543
 20
338.734812682541
 30
0.0
 10
81.00670335545597
 20
339.0512130836843
 30
0.0
 10
81.11883189098049
 20
339.3743326771105
 30
0.0
 10
81.2160046090458
 20
339.6579323939895
 30
0.0
 10
81.29106852542715
 20
339.8784581234612
 30
0.0
 10
81.34247073422073
 20
340.0297488648185
 30
0.0
 10
81.36675405843143
 20
340.1009197903211
 30
0.0
 10
81.36960872389868
 20
340.1099831081545
 30
0.0
 10
81.36952938707748
 20
340.1100709180196
 30
0.0
  0
LINE
  5
2FB
330
2E8
100
AcDbEntity
  8
$DDT_AUDIT_GENERATED_(226)
  6
Continuous
 62
     7
100
AcDbLine
 10
41.6184188383
 20
123.5955047255
 30
0.0
 11
41.6184188383
 21
123.6235135282
 31
0.0
  0
LINE
  5
2FC
330
2E8
100
AcDbEntity
  8
$DDT_AUDIT_GENERATED_(226)
  6
Continuous
 62
     7
100
AcDbLine
 10
72.6184188383
 20
123.6235135282
 30
0.0
 11
72.6184188383
 21
123.5955047255
 31
0.0
  0
ARC
  5
2FD
330
2E8
100
AcDbEntity
  8
$DDT_AUDIT_GENERATED_(226)
  6
Continuous
 62
     7
100
AcDbCircle
 10
25077.1143852734
 20
269.0935118781
 30
0.0
 40
25035.91859320946
100
AcDbArc
 50
179.9041430575
 51
180.3329162387
  0
ELLIPSE
  5
2FE
330
2E8
100
AcDbEntity
  8
$DDT_AUDIT_GENERATED_(226)
  6
Continuous
 62
     7
100
AcDbEllipse
 10
57.1184188383
 20
121.7910178204
 30
0.0
 11
15.49999999999996
 21
2.184363800949995E-11
 31
0.0
210
0.0
220
0.0
230
1.0
 40
0.9961946981
 41
3.141592653589793
 42
6.283185307179586
  0
ARC
  5
2FF
330
2E8
100
AcDbEntity
  8
$DDT_AUDIT_GENERATED_(226)
  6
Continuous
 62
     7
100
AcDbCircle
 10
-24962.9228628782
 20
269.0935934397
 30
0.0
 40
25035.96390819971
100
AcDbArc
 50
359.6670841772
 51
0.095877658
  0
ARC
  5
300
330
2E8
100
AcDbEntity
  8
$DDT_AUDIT_GENERATED_(226)
  6
Continuous
 62
     7
100
AcDbCircle
 10
-33761.0473735999
 20
298.7563298859
 30
0.0
 40
33834.11920338806
100
AcDbArc
 50
359.7033757318
 51
359.9448211485
  0
ARC
  5
301
330
2E8
100
AcDbEntity
  8
$DDT_AUDIT_GENERATED_(226)
  6
Continuous
 62
     7
100
AcDbCircle
 10
33891.3022708098
 20
298.8069003598
 30
0.0
 40
33850.13731008457
100
AcDbArc
 50
180.0525428905
 51
180.0538993577
  0
ARC
  5
302
330
2E8
100
AcDbEntity
  8
$DDT_AUDIT_GENERATED_(226)
  6
Continuous
 62
     7
100
AcDbCircle
 10
33891.3022708098
 20
298.8069003598
 30
0.0
 40
33850.13731008457
100
AcDbArc
 50
180.0562415503
 51
180.2965695007
  0
LINE
  5
303
330
2E8
100
AcDbEntity
  8
$DDT_AUDIT_GENERATED_(226)
  6
Continuous
 62
     7
100
AcDbLine
 10
41.6184188383
 20
123.575158576
 30
0.0
 11
41.6184188383
 21
121.7910178204
 31
0.0
  0
LINE
  5
304
330
2E8
100
AcDbEntity
  8
$DDT_AUDIT_GENERATED_(226)
  6
Continuous
 62
     7
100
AcDbLine
 10
72.6184188383
 20
121.7910178204
 30
0.0
 11
72.6184188383
 21
123.575158576
 31
0.0
  0
ENDBLK
  5
306
330
2E8
100
AcDbEntity
  8
0
100
AcDbBlockEnd
  0
ENDSEC
  0
SECTION
  2
ENTITIES
  0
INSERT
  5
5F
330
1F
100
AcDbEntity
  8
Default
100
AcDbBlockReference
  2
SEANNOT_GROUP
 10
0.0
 20
0.0
 30
0.0
  0
INSERT
  5
66
330
1F
100
AcDbEntity
  8
Default
100
AcDbBlockReference
  2
SEANNOT_GROUP1
 10
0.0
 20
0.0
 30
0.0
  0
INSERT
  5
6C
330
1F
100
AcDbEntity
  8
Default
100
AcDbBlockReference
  2
SEANNOT_GROUP2
 10
0.0
 20
0.0
 30
0.0
  0
INSERT
  5
76
330
1F
100
AcDbEntity
  8
Default
100
AcDbBlockReference
  2
SE
 10
0.0
 20
0.0
 30
0.0
  0
INSERT
  5
259
330
1F
100
AcDbEntity
  8
Default
100
AcDbBlockReference
  2
SE1
 10
0.0
 20
0.0
 30
0.0
  0
INSERT
  5
2E9
330
1F
100
AcDbEntity
  8
Default
100
AcDbBlockReference
  2
SE2
 10
0.0
 20
0.0
 30
0.0
  0
TEXT
  5
308
330
1F
100
AcDbEntity
  8
Default
  6
Continuous
 62
     7
100
AcDbText
 10
5.9362635081
 20
53.4225120485
 30
0.0
 40
10.0
  1
Grohe AG^J
  7
SEACAD_seiso_ttf
 11
5.9362635081
 21
63.4225120485
 31
0.0
100
AcDbText
 73
     3
  0
TEXT
  5
309
330
1F
100
AcDbEntity
  8
Default
  6
Continuous
 62
     7
100
AcDbText
 10
5.9362635081
 20
37.0588756849
 30
0.0
 40
10.0
  1
 
  7
SEACAD_seiso_ttf
 11
5.9362635081
 21
47.0588756849
 31
0.0
100
AcDbText
 73
     3
  0
TEXT
  5
30A
330
1F
100
AcDbEntity
  8
Default
  6
Continuous
 62
     7
100
AcDbText
 10
5.9362635081
 20
20.6952393213
 30
0.0
 40
10.0
  1
ecn:
  7
SEACAD_seiso_ttf
 11
5.9362635081
 21
30.6952393213
 31
0.0
100
AcDbText
 73
     3
  0
TEXT
  5
30B
330
1F
100
AcDbEntity
  8
Default
  6
Continuous
 62
     7
100
AcDbText
 10
5.9362635081
 20
4.3316029576
 30
0.0
 40
10.0
  1
unit: mm
  7
SEACAD_seiso_ttf
 11
5.9362635081
 21
14.3316029576
 31
0.0
100
AcDbText
 73
     3
  0
LINE
  5
30C
330
1F
100
AcDbEntity
  8
Default
  6
Continuous
 62
     7
100
AcDbLine
 10
0.0
 20
0.0
 30
0.0
 11
100.0
 21
0.0
 31
0.0
  0
LINE
  5
30D
330
1F
100
AcDbEntity
  8
Default
  6
Continuous
 62
     7
100
AcDbLine
 10
0.0
 20
0.0
 30
0.0
 11
0.0
 21
100.0
 31
0.0
  0
TEXT
  5
30E
330
1F
100
AcDbEntity
  8
Default
  6
Continuous
 62
     7
100
AcDbText
 10
24.3923665681
 20
-18.2375342018
 30
0.0
 40
10.0
  1
100 mm
  7
SEACAD_seiso_ttf
 11
24.3923665681
 21
-8.2375342018
 31
0.0
100
AcDbText
 73
     3
  0
TEXT
  5
30F
330
1F
100
AcDbEntity
  8
Default
  6
Continuous
 62
     7
100
AcDbText
 10
-7.6150308803
 20
24.6231930421
 30
0.0
 40
10.0
  1
100 mm
 50
90.0
  7
SEACAD_seiso_ttf
 11
-17.6150308803
 21
24.6231930421
 31
0.0
100
AcDbText
 73
     3
  0
TEXT
  5
310
330
1F
100
AcDbEntity
  8
Default
  6
Continuous
 62
     7
100
AcDbText
 10
28.4878128572
 20
20.0907663715
 30
0.0
 40
10.0
  1
230905
  7
SEACAD_seiso_ttf
 11
28.4878128572
 21
30.0907663715
 31
0.0
100
AcDbText
 73
     3
  0
TEXT
  5
311
330
1F
100
AcDbEntity
  8
Default
  6
Continuous
 62
     7
100
AcDbText
 10
5.9012241913
 20
36.7242780188
 30
0.0
 40
10.0
  1
33281002
  7
SEACAD_seiso_ttf
 11
5.9012241913
 21
46.7242780188
 31
0.0
100
AcDbText
 73
     3
  0
ENDSEC
  0
SECTION
  2
OBJECTS
  0
DICTIONARY
  5
C
330
0
100
AcDbDictionary
281
     1
  3
ACAD_GROUP
350
D
  3
ACAD_LAYOUT
350
1A
  3
ACAD_MLEADERSTYLE
350
315
  3
ACAD_MLINESTYLE
350
17
  3
ACAD_PLOTSETTINGS
350
19
  3
ACAD_PLOTSTYLENAME
350
E
  3
ACAD_SCALELIST
350
3B
  3
ACAD_TABLESTYLE
350
314
  3
ACAD_VISUALSTYLE
350
2A
  3
AcDbVariableDictionary
350
312
  0
DICTIONARY
  5
D
102
{ACAD_REACTORS
330
C
102
}
330
C
100
AcDbDictionary
281
     1
  0
DICTIONARY
  5
1A
102
{ACAD_REACTORS
330
C
102
}
330
C
100
AcDbDictionary
281
     1
  3
Layout1
350
1E
  3
Model
350
22
  0
DICTIONARY
  5
315
102
{ACAD_REACTORS
330
C
102
}
330
C
100
AcDbDictionary
281
     1
  0
DICTIONARY
  5
17
102
{ACAD_REACTORS
330
C
102
}
330
C
100
AcDbDictionary
281
     1
  3
Standard
350
18
  0
DICTIONARY
  5
19
102
{ACAD_REACTORS
330
C
102
}
330
C
100
AcDbDictionary
281
     1
  0
ACDBDICTIONARYWDFLT
  5
E
102
{ACAD_REACTORS
330
C
102
}
330
C
100
AcDbDictionary
281
     1
  3
Normal
350
F
100
AcDbDictionaryWithDefault
340
F
  0
DICTIONARY
  5
3B
102
{ACAD_REACTORS
330
C
102
}
330
C
100
AcDbDictionary
281
     1
  3
A0
350
3C
  3
A1
350
3D
  3
A2
350
3E
  3
A3
350
3F
  3
A4
350
40
  3
A5
350
41
  3
A6
350
42
  3
A7
350
43
  3
A8
350
44
  3
A9
350
45
  3
B0
350
46
  3
B1
350
47
  3
B2
350
48
  3
B3
350
49
  3
B4
350
4A
  3
B5
350
4B
  3
B6
350
4C
  3
B7
350
4D
  3
B8
350
4E
  3
B9
350
4F
  3
C0
350
50
  3
C1
350
51
  3
C2
350
52
  3
C3
350
53
  3
C4
350
54
  3
C5
350
55
  3
C6
350
56
  3
C7
350
57
  3
C8
350
58
  3
C9
350
59
  3
D0
350
5A
  3
D1
350
5B
  3
D2
350
5C
  0
DICTIONARY
  5
314
102
{ACAD_REACTORS
330
C
102
}
330
C
100
AcDbDictionary
281
     1
  0
DICTIONARY
  5
2A
102
{ACAD_REACTORS
330
C
102
}
330
C
100
AcDbDictionary
281
     1
  3
2dWireframe
350
2F
  3
3D Hidden
350
31
  3
3dWireframe
350
30
  3
Basic
350
32
  3
Brighten
350
36
  3
ColorChange
350
3A
  3
Conceptual
350
34
  3
Dim
350
35
  3
Facepattern
350
39
  3
Flat
350
2B
  3
FlatWithEdges
350
2C
  3
Gouraud
350
2D
  3
GouraudWithEdges
350
2E
  3
Linepattern
350
38
  3
Realistic
350
33
  3
Thicken
350
37
  0
DICTIONARY
  5
312
102
{ACAD_REACTORS
330
C
102
}
330
C
100
AcDbDictionary
281
     1
  3
CANNOSCALE
350
313
  3
PSOLHEIGHT
350
317
  3
PSOLWIDTH
350
316
  0
LAYOUT
  5
1E
102
{ACAD_REACTORS
330
1A
102
}
330
1A
100
AcDbPlotSettings
  1

  2
none_device
  4

  6

 40
0.0
 41
0.0
 42
0.0
 43
0.0
 44
0.0
 45
0.0
 46
0.0
 47
0.0
 48
0.0
 49
0.0
140
0.0
141
0.0
142
1.0
143
1.0
 70
   688
 72
     0
 73
     0
 74
     5
  7

 75
    16
147
1.0
148
0.0
149
0.0
100
AcDbLayout
  1
Layout1
 70
     1
 71
     1
 10
0.0
 20
0.0
 11
3000.0
 21
4500.0
 12
0.0
 22
0.0
 32
0.0
 14
0.0
 24
0.0
 34
0.0
 15
3000.0
 25
4500.0
 35
0.0
146
0.0
 13
0.0
 23
0.0
 33
0.0
 16
1.0
 26
0.0
 36
0.0
 17
0.0
 27
1.0
 37
0.0
 76
     0
330
1B
  0
LAYOUT
  5
22
102
{ACAD_REACTORS
330
1A
102
}
330
1A
100
AcDbPlotSettings
  1

  2
none_device
  4

  6

 40
0.0
 41
0.0
 42
0.0
 43
0.0
 44
0.0
 45
0.0
 46
0.0
 47
0.0
 48
0.0
 49
0.0
140
0.0
141
0.0
142
1.0
143
1.0
 70
  1712
 72
     0
 73
     0
 74
     0
  7

 75
     0
147
1.0
148
0.0
149
0.0
100
AcDbLayout
  1
Model
 70
     1
 71
     0
 10
0.0
 20
0.0
 11
3000.0
 21
4500.0
 12
0.0
 22
0.0
 32
0.0
 14
0.0
 24
0.0
 34
0.0
 15
3000.0
 25
4500.0
 35
0.0
146
0.0
 13
0.0
 23
0.0
 33
0.0
 16
1.0
 26
0.0
 36
0.0
 17
0.0
 27
1.0
 37
0.0
 76
     0
330
1F
331
29
  0
MLINESTYLE
  5
18
102
{ACAD_REACTORS
330
17
102
}
330
17
100
AcDbMlineStyle
  2
Standard
 70
     0
  3

 62
   256
 51
90.0
 52
90.0
 71
     2
 49
0.5
 62
   256
  6
BYLAYER
 49
-0.5
 62
   256
  6
BYLAYER
  0
ACDBPLACEHOLDER
  5
F
102
{ACAD_REACTORS
330
E
102
}
330
E
  0
SCALE
  5
3C
102
{ACAD_REACTORS
330
3B
102
}
330
3B
100
AcDbScale
 70
     0
300
1:1
140
1.0
141
1.0
290
     1
  0
SCALE
  5
3D
102
{ACAD_REACTORS
330
3B
102
}
330
3B
100
AcDbScale
 70
     0
300
1:2
140
1.0
141
2.0
290
     0
  0
SCALE
  5
3E
102
{ACAD_REACTORS
330
3B
102
}
330
3B
100
AcDbScale
 70
     0
300
1:4
140
1.0
141
4.0
290
     0
  0
SCALE
  5
3F
102
{ACAD_REACTORS
330
3B
102
}
330
3B
100
AcDbScale
 70
     0
300
1:5
140
1.0
141
5.0
290
     0
  0
SCALE
  5
40
102
{ACAD_REACTORS
330
3B
102
}
330
3B
100
AcDbScale
 70
     0
300
1:8
140
1.0
141
8.0
290
     0
  0
SCALE
  5
41
102
{ACAD_REACTORS
330
3B
102
}
330
3B
100
AcDbScale
 70
     0
300
1:10
140
1.0
141
10.0
290
     0
  0
SCALE
  5
42
102
{ACAD_REACTORS
330
3B
102
}
330
3B
100
AcDbScale
 70
     0
300
1:16
140
1.0
141
16.0
290
     0
  0
SCALE
  5
43
102
{ACAD_REACTORS
330
3B
102
}
330
3B
100
AcDbScale
 70
     0
300
1:20
140
1.0
141
20.0
290
     0
  0
SCALE
  5
44
102
{ACAD_REACTORS
330
3B
102
}
330
3B
100
AcDbScale
 70
     0
300
1:30
140
1.0
141
30.0
290
     0
  0
SCALE
  5
45
102
{ACAD_REACTORS
330
3B
102
}
330
3B
100
AcDbScale
 70
     0
300
1:40
140
1.0
141
40.0
290
     0
  0
SCALE
  5
46
102
{ACAD_REACTORS
330
3B
102
}
330
3B
100
AcDbScale
 70
     0
300
1:50
140
1.0
141
50.0
290
     0
  0
SCALE
  5
47
102
{ACAD_REACTORS
330
3B
102
}
330
3B
100
AcDbScale
 70
     0
300
1:100
140
1.0
141
100.0
290
     0
  0
SCALE
  5
48
102
{ACAD_REACTORS
330
3B
102
}
330
3B
100
AcDbScale
 70
     0
300
2:1
140
2.0
141
1.0
290
     0
  0
SCALE
  5
49
102
{ACAD_REACTORS
330
3B
102
}
330
3B
100
AcDbScale
 70
     0
300
4:1
140
4.0
141
1.0
290
     0
  0
SCALE
  5
4A
102
{ACAD_REACTORS
330
3B
102
}
330
3B
100
AcDbScale
 70
     0
300
8:1
140
8.0
141
1.0
290
     0
  0
SCALE
  5
4B
102
{ACAD_REACTORS
330
3B
102
}
330
3B
100
AcDbScale
 70
     0
300
10:1
140
10.0
141
1.0
290
     0
  0
SCALE
  5
4C
102
{ACAD_REACTORS
330
3B
102
}
330
3B
100
AcDbScale
 70
     0
300
100:1
140
100.0
141
1.0
290
     0
  0
SCALE
  5
4D
102
{ACAD_REACTORS
330
3B
102
}
330
3B
100
AcDbScale
 70
     0
300
1/128" = 1'-0"
140
0.0078125
141
12.0
290
     0
  0
SCALE
  5
4E
102
{ACAD_REACTORS
330
3B
102
}
330
3B
100
AcDbScale
 70
     0
300
1/64" = 1'-0"
140
0.015625
141
12.0
290
     0
  0
SCALE
  5
4F
102
{ACAD_REACTORS
330
3B
102
}
330
3B
100
AcDbScale
 70
     0
300
1/32" = 1'-0"
140
0.03125
141
12.0
290
     0
  0
SCALE
  5
50
102
{ACAD_REACTORS
330
3B
102
}
330
3B
100
AcDbScale
 70
     0
300
1/16" = 1'-0"
140
0.0625
141
12.0
290
     0
  0
SCALE
  5
51
102
{ACAD_REACTORS
330
3B
102
}
330
3B
100
AcDbScale
 70
     0
300
3/32" = 1'-0"
140
0.09375
141
12.0
290
     0
  0
SCALE
  5
52
102
{ACAD_REACTORS
330
3B
102
}
330
3B
100
AcDbScale
 70
     0
300
1/8" = 1'-0"
140
0.125
141
12.0
290
     0
  0
SCALE
  5
53
102
{ACAD_REACTORS
330
3B
102
}
330
3B
100
AcDbScale
 70
     0
300
3/16" = 1'-0"
140
0.1875
141
12.0
290
     0
  0
SCALE
  5
54
102
{ACAD_REACTORS
330
3B
102
}
330
3B
100
AcDbScale
 70
     0
300
1/4" = 1'-0"
140
0.25
141
12.0
290
     0
  0
SCALE
  5
55
102
{ACAD_REACTORS
330
3B
102
}
330
3B
100
AcDbScale
 70
     0
300
3/8" = 1'-0"
140
0.375
141
12.0
290
     0
  0
SCALE
  5
56
102
{ACAD_REACTORS
330
3B
102
}
330
3B
100
AcDbScale
 70
     0
300
1/2" = 1'-0"
140
0.5
141
12.0
290
     0
  0
SCALE
  5
57
102
{ACAD_REACTORS
330
3B
102
}
330
3B
100
AcDbScale
 70
     0
300
3/4" = 1'-0"
140
0.75
141
12.0
290
     0
  0
SCALE
  5
58
102
{ACAD_REACTORS
330
3B
102
}
330
3B
100
AcDbScale
 70
     0
300
1" = 1'-0"
140
1.0
141
12.0
290
     0
  0
SCALE
  5
59
102
{ACAD_REACTORS
330
3B
102
}
330
3B
100
AcDbScale
 70
     0
300
1-1/2" = 1'-0"
140
1.5
141
12.0
290
     0
  0
SCALE
  5
5A
102
{ACAD_REACTORS
330
3B
102
}
330
3B
100
AcDbScale
 70
     0
300
3" = 1'-0"
140
3.0
141
12.0
290
     0
  0
SCALE
  5
5B
102
{ACAD_REACTORS
330
3B
102
}
330
3B
100
AcDbScale
 70
     0
300
6" = 1'-0"
140
6.0
141
12.0
290
     0
  0
SCALE
  5
5C
102
{ACAD_REACTORS
330
3B
102
}
330
3B
100
AcDbScale
 70
     0
300
1'-0" = 1'-0"
140
12.0
141
12.0
290
     0
  0
VISUALSTYLE
  5
2F
102
{ACAD_REACTORS
330
2A
102
}
330
2A
100
AcDbVisualStyle
  2
2dWireframe
 70
     4
 71
     0
 72
     2
 73
     0
 90
        0
 40
-0.6
 41
-30.0
 62
     5
 63
     7
 74
     1
 91
        4
 64
     7
 65
   257
 75
     1
175
     1
 42
1.0
 92
        0
 66
   257
 43
1.0
 76
     1
 77
     6
 78
     2
 67
     7
 79
     5
170
     0
171
     0
290
     0
174
     0
 93
        1
 44
0.0
173
     0
291
     0
 45
0.0
1001
ACAD
1000
AcDbSavedByObjectVersion
1070
     0
  0
VISUALSTYLE
  5
31
102
{ACAD_REACTORS
330
2A
102
}
330
2A
100
AcDbVisualStyle
  2
3D Hidden
 70
     6
 71
     1
 72
     2
 73
     2
 90
        0
 40
-0.6
 41
-30.0
 62
     5
 63
     7
 74
     2
 91
        2
 64
     7
 65
   257
 75
     2
175
     1
 42
40.0
 92
        0
 66
   257
 43
1.0
 76
     1
 77
     6
 78
     2
 67
     7
 79
     3
170
     0
171
     0
290
     0
174
     0
 93
        1
 44
0.0
173
     0
291
     0
 45
0.0
1001
ACAD
1000
AcDbSavedByObjectVersion
1070
     0
  0
VISUALSTYLE
  5
30
102
{ACAD_REACTORS
330
2A
102
}
330
2A
100
AcDbVisualStyle
  2
3dWireframe
 70
     5
 71
     0
 72
     2
 73
     0
 90
        0
 40
-0.6
 41
-30.0
 62
     5
 63
     7
 74
     1
 91
        4
 64
     7
 65
   257
 75
     1
175
     1
 42
1.0
 92
        0
 66
   257
 43
1.0
 76
     1
 77
     6
 78
     2
 67
     7
 79
     5
170
     0
171
     0
290
     0
174
     0
 93
        1
 44
0.0
173
     0
291
     0
 45
0.0
1001
ACAD
1000
AcDbSavedByObjectVersion
1070
     0
  0
VISUALSTYLE
  5
32
102
{ACAD_REACTORS
330
2A
102
}
330
2A
100
AcDbVisualStyle
  2
Basic
 70
     7
 71
     1
 72
     0
 73
     1
 90
        0
 40
-0.6
 41
-30.0
 62
     5
 63
     7
 74
     0
 91
        4
 64
     7
 65
   257
 75
     1
175
     1
 42
1.0
 92
        8
 66
     7
 43
1.0
 76
     1
 77
     6
 78
     2
 67
     7
 79
     5
170
     0
171
     0
290
     0
174
     0
 93
        1
 44
0.0
173
     0
291
     1
 45
0.0
1001
ACAD
1000
AcDbSavedByObjectVersion
1070
     0
  0
VISUALSTYLE
  5
36
102
{ACAD_REACTORS
330
2A
102
}
330
2A
100
AcDbVisualStyle
  2
Brighten
 70
    12
 71
     2
 72
     2
 73
     0
 90
        0
 40
-0.6
 41
-30.0
 62
     5
 63
     7
 74
     1
 91
        4
 64
     7
 65
   257
 75
     1
175
     1
 42
1.0
 92
        8
 66
     7
 43
1.0
 76
     1
 77
     6
 78
     2
 67
     7
 79
     5
170
     0
171
     0
290
     0
174
     0
 93
        1
 44
50.0
173
     0
291
     1
 45
0.0
1001
ACAD
1000
AcDbSavedByObjectVersion
1070
     0
  0
VISUALSTYLE
  5
3A
102
{ACAD_REACTORS
330
2A
102
}
330
2A
100
AcDbVisualStyle
  2
ColorChange
 70
    16
 71
     2
 72
     2
 73
     3
 90
        0
 40
-0.6
 41
-30.0
 62
     5
 63
     8
 74
     1
 91
        4
 64
     7
 65
   257
 75
     1
175
     1
 42
1.0
 92
        8
 66
     8
 43
1.0
 76
     1
 77
     6
 78
     2
 67
     7
 79
     5
170
     0
171
     0
290
     0
174
     0
 93
        1
 44
0.0
173
     0
291
     1
 45
0.0
1001
ACAD
1000
AcDbSavedByObjectVersion
1070
     0
  0
VISUALSTYLE
  5
34
102
{ACAD_REACTORS
330
2A
102
}
330
2A
100
AcDbVisualStyle
  2
Conceptual
 70
     9
 71
     3
 72
     2
 73
     0
 90
        0
 40
-0.6
 41
-30.0
 62
     5
 63
     7
 74
     2
 91
        2
 64
     7
 65
   257
 75
     1
175
     1
 42
40.0
 92
        8
 66
     7
 43
1.0
 76
     1
 77
     6
 78
     2
 67
     7
 79
     3
170
     0
171
     0
290
     0
174
     0
 93
        1
 44
0.0
173
     0
291
     0
 45
0.0
1001
ACAD
1000
AcDbSavedByObjectVersion
1070
     0
  0
VISUALSTYLE
  5
35
102
{ACAD_REACTORS
330
2A
102
}
330
2A
100
AcDbVisualStyle
  2
Dim
 70
    11
 71
     2
 72
     2
 73
     0
 90
        0
 40
-0.6
 41
-30.0
 62
     5
 63
     7
 74
     1
 91
        4
 64
     7
 65
   257
 75
     1
175
     1
 42
1.0
 92
        8
 66
     7
 43
1.0
 76
     1
 77
     6
 78
     2
 67
     7
 79
     5
170
     0
171
     0
290
     0
174
     0
 93
        1
 44
-50.0
173
     0
291
     1
 45
0.0
1001
ACAD
1000
AcDbSavedByObjectVersion
1070
     0
  0
VISUALSTYLE
  5
39
102
{ACAD_REACTORS
330
2A
102
}
330
2A
100
AcDbVisualStyle
  2
Facepattern
 70
    15
 71
     2
 72
     2
 73
     0
 90
        0
 40
-0.6
 41
-30.0
 62
     5
 63
     7
 74
     1
 91
        4
 64
     7
 65
   257
 75
     1
175
     1
 42
1.0
 92
        8
 66
     7
 43
1.0
 76
     1
 77
     6
 78
     2
 67
     7
 79
     5
170
     0
171
     0
290
     0
174
     0
 93
        1
 44
0.0
173
     0
291
     1
 45
0.0
1001
ACAD
1000
AcDbSavedByObjectVersion
1070
     0
  0
VISUALSTYLE
  5
2B
102
{ACAD_REACTORS
330
2A
102
}
330
2A
100
AcDbVisualStyle
  2
Flat
 70
     0
 71
     2
 72
     1
 73
     1
 90
        2
 40
-0.6
 41
30.0
 62
     5
 63
     7
 74
     0
 91
        4
 64
     7
 65
   257
 75
     1
175
     1
 42
1.0
 92
        8
 66
     7
 43
1.0
 76
     1
 77
     6
 78
     2
 67
     7
 79
     5
170
     0
171
     0
290
     0
174
     0
 93
       13
 44
0.0
173
     0
291
     1
 45
0.0
1001
ACAD
1000
AcDbSavedByObjectVersion
1070
     0
  0
VISUALSTYLE
  5
2C
102
{ACAD_REACTORS
330
2A
102
}
330
2A
100
AcDbVisualStyle
  2
FlatWithEdges
 70
     1
 71
     2
 72
     1
 73
     1
 90
        2
 40
-0.6
 41
30.0
 62
     5
 63
     7
 74
     1
 91
        4
 64
     7
 65
   257
 75
     1
175
     1
 42
1.0
 92
        0
 66
   257
 43
1.0
 76
     1
 77
     6
 78
     2
 67
     7
 79
     5
170
     0
171
     0
290
     0
174
     0
 93
       13
 44
0.0
173
     0
291
     1
 45
0.0
1001
ACAD
1000
AcDbSavedByObjectVersion
1070
     0
  0
VISUALSTYLE
  5
2D
102
{ACAD_REACTORS
330
2A
102
}
330
2A
100
AcDbVisualStyle
  2
Gouraud
 70
     2
 71
     2
 72
     2
 73
     1
 90
        2
 40
-0.6
 41
30.0
 62
     5
 63
     7
 74
     0
 91
        4
 64
     7
 65
   257
 75
     1
175
     1
 42
1.0
 92
        0
 66
     7
 43
1.0
 76
     1
 77
     6
 78
     2
 67
     7
 79
     5
170
     0
171
     0
290
     0
174
     0
 93
       13
 44
0.0
173
     0
291
     1
 45
0.0
1001
ACAD
1000
AcDbSavedByObjectVersion
1070
     0
  0
VISUALSTYLE
  5
2E
102
{ACAD_REACTORS
330
2A
102
}
330
2A
100
AcDbVisualStyle
  2
GouraudWithEdges
 70
     3
 71
     2
 72
     2
 73
     1
 90
        2
 40
-0.6
 41
30.0
 62
     5
 63
     7
 74
     1
 91
        4
 64
     7
 65
   257
 75
     1
175
     1
 42
1.0
 92
        0
 66
   257
 43
1.0
 76
     1
 77
     6
 78
     2
 67
     7
 79
     5
170
     0
171
     0
290
     0
174
     0
 93
       13
 44
0.0
173
     0
291
     1
 45
0.0
1001
ACAD
1000
AcDbSavedByObjectVersion
1070
     0
  0
VISUALSTYLE
  5
38
102
{ACAD_REACTORS
330
2A
102
}
330
2A
100
AcDbVisualStyle
  2
Linepattern
 70
    14
 71
     2
 72
     2
 73
     0
 90
        0
 40
-0.6
 41
-30.0
 62
     5
 63
     7
 74
     1
 91
        4
 64
     7
 65
   257
 75
     7
175
     7
 42
1.0
 92
        8
 66
     7
 43
1.0
 76
     1
 77
     6
 78
     2
 67
     7
 79
     5
170
     0
171
     0
290
     0
174
     0
 93
        1
 44
0.0
173
     0
291
     1
 45
0.0
1001
ACAD
1000
AcDbSavedByObjectVersion
1070
     0
  0
VISUALSTYLE
  5
33
102
{ACAD_REACTORS
330
2A
102
}
330
2A
100
AcDbVisualStyle
  2
Realistic
 70
     8
 71
     2
 72
     2
 73
     0
 90
        0
 40
-0.6
 41
-30.0
 62
     5
 63
     7
 74
     1
 91
        0
 64
     7
 65
   257
 75
     1
175
     1
 42
1.0
 92
        8
 66
     8
 43
1.0
 76
     1
 77
     6
 78
     2
 67
     7
 79
     5
170
     0
171
     0
290
     0
174
     0
 93
       13
 44
0.0
173
     0
291
     0
 45
0.0
1001
ACAD
1000
AcDbSavedByObjectVersion
1070
     0
  0
VISUALSTYLE
  5
37
102
{ACAD_REACTORS
330
2A
102
}
330
2A
100
AcDbVisualStyle
  2
Thicken
 70
    13
 71
     2
 72
     2
 73
     0
 90
        0
 40
-0.6
 41
-30.0
 62
     5
 63
     7
 74
     1
 91
        4
 64
     7
 65
   257
 75
     1
175
     1
 42
1.0
 92
       12
 66
     7
 43
1.0
 76
     1
 77
     6
 78
     2
 67
     7
 79
     5
170
     0
171
     0
290
     0
174
     0
 93
        1
 44
0.0
173
     0
291
     1
 45
0.0
1001
ACAD
1000
AcDbSavedByObjectVersion
1070
     0
  0
DICTIONARYVAR
  5
313
102
{ACAD_REACTORS
330
312
102
}
330
312
100
DictionaryVariables
280
     0
  1
1:1
  0
DICTIONARYVAR
  5
317
102
{ACAD_REACTORS
330
312
102
}
330
312
100
DictionaryVariables
280
     0
  1
80.000000
  0
DICTIONARYVAR
  5
316
102
{ACAD_REACTORS
330
312
102
}
330
312
100
DictionaryVariables
280
     0
  1
5.000000
  0
ENDSEC
  0
EOF
