  0
SECTION
  2
HEADER
  9
$ACADVER
  1
AC1009
  9
$DWGCODEPAGE
  3
ansi_1252
  9
$INSBASE
 10
0.0
 20
0.0
 30
0.0
  9
$EXTMIN
 10
1.000000000000000E+20
 20
1.000000000000000E+20
 30
1.000000000000000E+20
  9
$EXTMAX
 10
-1.000000000000000E+20
 20
-1.000000000000000E+20
 30
-1.000000000000000E+20
  9
$LIMMIN
 10
0.0
 20
0.0
  9
$LIMMAX
 10
12.0
 20
9.0
  9
$ORTHOMODE
 70
     0
  9
$REGENMODE
 70
     1
  9
$FILLMODE
 70
     1
  9
$QTEXTMODE
 70
     0
  9
$MIRRTEXT
 70
     1
  9
$DRAGMODE
 70
     2
  9
$LTSCALE
 40
1.0
  9
$OSMODE
 70
    37
  9
$ATTMODE
 70
     1
  9
$TEXTSIZE
 40
0.2
  9
$TRACEWID
 40
0.05
  9
$TEXTSTYLE
  7
STANDARD
  9
$CLAYER
  8
0
  9
$CELTYPE
  6
BYLAYER
  9
$CECOLOR
 62
   256
  9
$DIMSCALE
 40
1.0
  9
$DIMASZ
 40
0.18
  9
$DIMEXO
 40
0.0625
  9
$DIMDLI
 40
0.38
  9
$DIMRND
 40
0.0
  9
$DIMDLE
 40
0.0
  9
$DIMEXE
 40
0.18
  9
$DIMTP
 40
0.0
  9
$DIMTM
 40
0.0
  9
$DIMTXT
 40
0.18
  9
$DIMCEN
 40
0.09
  9
$DIMTSZ
 40
0.0
  9
$DIMTOL
 70
     0
  9
$DIMLIM
 70
     0
  9
$DIMTIH
 70
     1
  9
$DIMTOH
 70
     1
  9
$DIMSE1
 70
     0
  9
$DIMSE2
 70
     0
  9
$DIMTAD
 70
     0
  9
$DIMZIN
 70
     0
  9
$DIMBLK
  1

  9
$DIMASO
 70
     1
  9
$DIMSHO
 70
     1
  9
$DIMPOST
  1

  9
$DIMAPOST
  1

  9
$DIMALT
 70
     0
  9
$DIMALTD
 70
     2
  9
$DIMALTF
 40
25.4
  9
$DIMLFAC
 40
1.0
  9
$DIMTOFL
 70
     0
  9
$DIMTVP
 40
0.0
  9
$DIMTIX
 70
     0
  9
$DIMSOXD
 70
     0
  9
$DIMSAH
 70
     0
  9
$DIMBLK1
  1

  9
$DIMBLK2
  1

  9
$DIMSTYLE
  2
STANDARD
  9
$DIMCLRD
 70
     0
  9
$DIMCLRE
 70
     0
  9
$DIMCLRT
 70
     0
  9
$DIMTFAC
 40
1.0
  9
$DIMGAP
 40
0.09
  9
$LUNITS
 70
     2
  9
$LUPREC
 70
     4
  9
$SKETCHINC
 40
0.1
  9
$FILLETRAD
 40
0.5
  9
$AUNITS
 70
     0
  9
$AUPREC
 70
     0
  9
$MENU
  1
.
  9
$ELEVATION
 40
0.0
  9
$PELEVATION
 40
0.0
  9
$THICKNESS
 40
0.0
  9
$LIMCHECK
 70
     0
  9
$CHAMFERA
 40
0.5
  9
$CHAMFERB
 40
0.5
  9
$SKPOLY
 70
     0
  9
$TDCREATE
 40
2456668.428686285
  9
$TDUPDATE
 40
2456668.428686285
  9
$TDINDWG
 40
0.0000000116
  9
$TDUSRTIMER
 40
0.0000000116
  9
$USRTIMER
 70
     1
  9
$ANGBASE
 50
0.0
  9
$ANGDIR
 70
     0
  9
$PDMODE
 70
     0
  9
$PDSIZE
 40
0.0
  9
$PLINEWID
 40
0.0
  9
$COORDS
 70
     1
  9
$SPLFRAME
 70
     0
  9
$SPLINETYPE
 70
     6
  9
$SPLINESEGS
 70
     8
  9
$ATTDIA
 70
     0
  9
$ATTREQ
 70
     1
  9
$HANDLING
 70
     1
  9
$HANDSEED
  5
B5C
  9
$SURFTAB1
 70
     6
  9
$SURFTAB2
 70
     6
  9
$SURFTYPE
 70
     6
  9
$SURFU
 70
     6
  9
$SURFV
 70
     6
  9
$UCSNAME
  2

  9
$UCSORG
 10
0.0
 20
0.0
 30
0.0
  9
$UCSXDIR
 10
1.0
 20
0.0
 30
0.0
  9
$UCSYDIR
 10
0.0
 20
1.0
 30
0.0
  9
$PUCSNAME
  2

  9
$PUCSORG
 10
0.0
 20
0.0
 30
0.0
  9
$PUCSXDIR
 10
1.0
 20
0.0
 30
0.0
  9
$PUCSYDIR
 10
0.0
 20
1.0
 30
0.0
  9
$USERI1
 70
     0
  9
$USERI2
 70
     0
  9
$USERI3
 70
     0
  9
$USERI4
 70
     0
  9
$USERI5
 70
     0
  9
$USERR1
 40
0.0
  9
$USERR2
 40
0.0
  9
$USERR3
 40
0.0
  9
$USERR4
 40
0.0
  9
$USERR5
 40
0.0
  9
$WORLDVIEW
 70
     1
  9
$SHADEDGE
 70
     3
  9
$SHADEDIF
 70
    70
  9
$TILEMODE
 70
     1
  9
$MAXACTVP
 70
    64
  9
$PLIMCHECK
 70
     0
  9
$PEXTMIN
 10
1.000000000000000E+20
 20
1.000000000000000E+20
 30
1.000000000000000E+20
  9
$PEXTMAX
 10
-1.000000000000000E+20
 20
-1.000000000000000E+20
 30
-1.000000000000000E+20
  9
$PLIMMIN
 10
0.0
 20
0.0
  9
$PLIMMAX
 10
12.0
 20
9.0
  9
$UNITMODE
 70
     0
  9
$VISRETAIN
 70
     1
  9
$PLINEGEN
 70
     0
  9
$PSLTSCALE
 70
     1
  0
ENDSEC
  0
SECTION
  2
TABLES
  0
TABLE
  2
VPORT
 70
     1
  0
VPORT
  2
*ACTIVE
 70
     0
 10
0.0
 20
0.0
 11
1.0
 21
1.0
 12
0.0
 22
0.0
 13
0.0
 23
0.0
 14
0.5
 24
0.5
 15
0.5
 25
0.5
 16
497.8703308105469
 26
-497.8703002929688
 36
498.5276794433594
 17
109.6000061035156
 27
5.889984130859375
 37
74.64999389648438
 40
622.1962038191779
 41
1.972972972850329
 42
50.0
 43
0.0
 44
0.0
 50
0.0
 51
0.0
 71
     0
 72
   100
 73
     1
 74
     3
 75
     0
 76
     0
 77
     0
 78
     0
  0
ENDTAB
  0
TABLE
  2
LTYPE
 70
     1
  0
LTYPE
  2
CONTINUOUS
 70
     0
  3
Solid line
 72
    65
 73
     0
 40
0.0
  0
ENDTAB
  0
TABLE
  2
LAYER
 70
     2
  0
LAYER
  2
0
 70
     0
 62
     7
  6
CONTINUOUS
  0
LAYER
  2
LAYER_1
 70
     0
 62
     7
  6
CONTINUOUS
  0
ENDTAB
  0
TABLE
  2
STYLE
 70
     1
  0
STYLE
  2
STANDARD
 70
     0
 40
0.0
 41
1.0
 50
0.0
 71
     0
 42
0.2
  3
txt
  4

  0
ENDTAB
  0
TABLE
  2
VIEW
 70
     0
  0
ENDTAB
  0
TABLE
  2
UCS
 70
     0
  0
ENDTAB
  0
TABLE
  2
APPID
 70
     1
  0
APPID
  2
ACAD
 70
     0
  0
ENDTAB
  0
TABLE
  2
DIMSTYLE
 70
     1
  0
DIMSTYLE
  2
STANDARD
 70
     0
  3

  4

  5

  6

  7

 40
1.0
 41
0.18
 42
0.0625
 43
0.38
 44
0.18
 45
0.0
 46
0.0
 47
0.0
 48
0.0
140
0.18
141
0.09
142
0.0
143
25.4
144
1.0
145
0.0
146
1.0
147
0.09
 71
     0
 72
     0
 73
     1
 74
     1
 75
     0
 76
     0
 77
     0
 78
     0
170
     0
171
     2
172
     0
173
     0
174
     0
175
     0
176
     0
177
     0
178
     0
  0
ENDTAB
  0
ENDSEC
  0
SECTION
  2
BLOCKS
  0
BLOCK
  8
0
  2
$MODEL_SPACE
 70
     0
 10
0.0
 20
0.0
 30
0.0
  3
$MODEL_SPACE
  1

  0
ENDBLK
  5
21
  8
0
  0
BLOCK
 67
     1
  8
0
  2
$PAPER_SPACE
 70
     0
 10
0.0
 20
0.0
 30
0.0
  3
$PAPER_SPACE
  1

  0
ENDBLK
  5
1D
 67
     1
  8
0
  0
BLOCK
  8
0
  2
38
 70
     0
 10
0.0
 20
0.0
 30
0.0
  3
38
  1

  0
POLYLINE
  5
3C
  8
0
 62
   123
 66
     1
 10
0.0
 20
0.0
 30
0.0
 70
    64
 71
    48
 72
    70
  0
VERTEX
  5
3D
  8
0
 10
213.5601654052734
 20
-44.12933731079102
 30
205.4499969482422
 70
   192
  0
VERTEX
  5
3E
  8
0
 10
215.3773498535156
 20
-46.49222946166992
 30
205.4499969482422
 70
   192
  0
VERTEX
  5
3F
  8
0
 10
215.3392028808594
 20
-46.49100112915039
 30
222.4499969482422
 70
   192
  0
VERTEX
  5
40
  8
0
 10
223.4673614501953
 20
-49.78612518310547
 30
205.4499969482422
 70
   192
  0
VERTEX
  5
41
  8
0
 10
223.3999938964844
 20
-49.79999923706055
 30
222.4499969482422
 70
   192
  0
VERTEX
  5
42
  8
0
 10
220.4536285400391
 20
-49.41302871704102
 30
205.4499969482422
 70
   192
  0
VERTEX
  5
43
  8
0
 10
213.5090179443359
 20
-44.12704467773438
 30
222.4499969482422
 70
   192
  0
VERTEX
  5
44
  8
0
 10
212.4089965820312
 20
-41.40071868896484
 30
205.4499969482422
 70
   192
  0
VERTEX
  5
45
  8
0
 10
212.3657073974609
 20
-41.3641242980957
 30
222.4499969482422
 70
   192
  0
VERTEX
  5
46
  8
0
 10
212.0
 20
-38.40000152587891
 30
222.4499969482422
 70
   192
  0
VERTEX
  5
47
  8
0
 10
212.0
 20
-38.40000152587891
 30
205.4499969482422
 70
   192
  0
VERTEX
  5
48
  8
0
 10
217.7158813476562
 20
-48.27959823608398
 30
222.4499969482422
 70
   192
  0
VERTEX
  5
49
  8
0
 10
217.7580108642578
 20
-48.29373931884766
 30
205.4499969482422
 70
   192
  0
VERTEX
  5
4A
  8
0
 10
220.4426727294922
 20
-49.39440155029297
 30
222.4499969482422
 70
   192
  0
VERTEX
  5
4B
  8
0
 10
226.3785400390625
 20
-49.39738845825195
 30
205.4499969482422
 70
   192
  0
VERTEX
  5
4C
  8
0
 10
229.1355438232422
 20
-48.24824523925781
 30
205.4499969482422
 70
   192
  0
VERTEX
  5
4D
  8
0
 10
229.1149139404297
 20
-48.23027038574219
 30
222.4499969482422
 70
   192
  0
VERTEX
  5
4E
  8
0
 10
226.3682403564453
 20
-49.39469146728516
 30
222.4499969482422
 70
   192
  0
VERTEX
  5
4F
  8
0
 10
233.2859802246094
 20
-44.07259368896484
 30
205.4499969482422
 70
   192
  0
VERTEX
  5
50
  8
0
 10
234.3935241699219
 20
-41.34416198730469
 30
222.4499969482422
 70
   192
  0
VERTEX
  5
51
  8
0
 10
233.2617645263672
 20
-44.0515022277832
 30
222.4499969482422
 70
   192
  0
VERTEX
  5
52
  8
0
 10
231.4627685546875
 20
-46.40789794921875
 30
222.4499969482422
 70
   192
  0
VERTEX
  5
53
  8
0
 10
231.4849395751953
 20
-46.41562652587891
 30
205.4499969482422
 70
   192
  0
VERTEX
  5
54
  8
0
 10
234.3909912109375
 20
-41.40071868896484
 30
205.4499969482422
 70
   192
  0
VERTEX
  5
55
  8
0
 10
234.8000030517578
 20
-38.40000152587891
 30
205.4499969482422
 70
   192
  0
VERTEX
  5
56
  8
0
 10
234.8000030517578
 20
-38.40000152587891
 30
222.4499969482422
 70
   192
  0
VERTEX
  5
57
  8
0
 10
212.4116668701172
 20
-35.394775390625
 30
205.4499969482422
 70
   192
  0
VERTEX
  5
58
  8
0
 10
212.4135284423828
 20
-35.45160675048828
 30
222.4499969482422
 70
   192
  0
VERTEX
  5
59
  8
0
 10
220.4291381835938
 20
-27.40166091918945
 30
205.4499969482422
 70
   192
  0
VERTEX
  5
5A
  8
0
 10
217.660400390625
 20
-28.55661773681641
 30
205.4499969482422
 70
   192
  0
VERTEX
  5
5B
  8
0
 10
217.6970062255859
 20
-28.56821632385254
 30
222.4499969482422
 70
   192
  0
VERTEX
  5
5C
  8
0
 10
213.5394592285156
 20
-32.7641716003418
 30
222.4499969482422
 70
   192
  0
VERTEX
  5
5D
  8
0
 10
215.3115692138672
 20
-30.38592147827148
 30
205.4499969482422
 70
   192
  0
VERTEX
  5
5E
  8
0
 10
213.5155181884766
 20
-32.72341537475586
 30
205.4499969482422
 70
   192
  0
VERTEX
  5
5F
  8
0
 10
226.3363037109375
 20
-27.38504600524902
 30
205.4499969482422
 70
   192
  0
VERTEX
  5
60
  8
0
 10
226.3326110839844
 20
-27.39822578430176
 30
222.4499969482422
 70
   192
  0
VERTEX
  5
61
  8
0
 10
229.0390625
 20
-28.5082836151123
 30
205.4499969482422
 70
   192
  0
VERTEX
  5
62
  8
0
 10
220.4169921875
 20
-27.41865348815918
 30
222.4499969482422
 70
   192
  0
VERTEX
  5
63
  8
0
 10
223.3636932373047
 20
-27.01037979125977
 30
222.4499969482422
 70
   192
  0
VERTEX
  5
64
  8
0
 10
223.3372497558594
 20
-27.0106315612793
 30
205.4499969482422
 70
   192
  0
VERTEX
  5
65
  8
0
 10
231.4296264648438
 20
-30.3123779296875
 30
205.4499969482422
 70
   192
  0
VERTEX
  5
66
  8
0
 10
231.4579620361328
 20
-30.30730247497559
 30
222.4499969482422
 70
   192
  0
VERTEX
  5
67
  8
0
 10
233.2409210205078
 20
-32.66894149780273
 30
205.4499969482422
 70
   192
  0
VERTEX
  5
68
  8
0
 10
229.1016082763672
 20
-28.5228214263916
 30
222.4499969482422
 70
   192
  0
VERTEX
  5
69
  8
0
 10
234.3883361816406
 20
-35.394775390625
 30
205.4499969482422
 70
   192
  0
VERTEX
  5
6A
  8
0
 10
233.2887420654297
 20
-32.65726089477539
 30
222.4499969482422
 70
   192
  0
VERTEX
  5
6B
  8
0
 10
234.4377136230469
 20
-35.42391586303711
 30
222.4499969482422
 70
   192
  0
VERTEX
  5
6C
  8
0
 10
215.3416137695312
 20
-30.39957618713379
 30
222.4499969482422
 70
   192
  0
VERTEX
  5
6D
  8
0
 62
   123
 10
0.0
 20
0.0
 30
0.0
 70
   128
 71
     3
 72
     2
 73
     1
  0
VERTEX
  5
6E
  8
0
 62
   123
 10
0.0
 20
0.0
 30
0.0
 70
   128
 71
     6
 72
     5
 73
     4
  0
VERTEX
  5
6F
  8
0
 62
   123
 10
0.0
 20
0.0
 30
0.0
 70
   128
 71
     1
 72
     8
 73
     7
  0
VERTEX
  5
70
  8
0
 62
   123
 10
0.0
 20
0.0
 30
0.0
 70
   128
 71
     7
 72
     3
 73
     1
  0
VERTEX
  5
71
  8
0
 62
   123
 10
0.0
 20
0.0
 30
0.0
 70
   128
 71
     8
 72
    10
 73
     9
  0
VERTEX
  5
72
  8
0
 62
   123
 10
0.0
 20
0.0
 30
0.0
 70
   128
 71
     7
 72
     8
 73
     9
  0
VERTEX
  5
73
  8
0
 62
   123
 10
0.0
 20
0.0
 30
0.0
 70
   128
 71
     8
 72
    11
 73
    10
  0
VERTEX
  5
74
  8
0
 62
   123
 10
0.0
 20
0.0
 30
0.0
 70
   128
 71
     3
 72
    12
 73
     2
  0
VERTEX
  5
75
  8
0
 62
   123
 10
0.0
 20
0.0
 30
0.0
 70
   128
 71
    14
 72
    13
 73
    12
  0
VERTEX
  5
76
  8
0
 62
   123
 10
0.0
 20
0.0
 30
0.0
 70
   128
 71
     2
 72
    12
 73
    13
  0
VERTEX
  5
77
  8
0
 62
   123
 10
0.0
 20
0.0
 30
0.0
 70
   128
 71
     6
 72
    14
 73
     5
  0
VERTEX
  5
78
  8
0
 62
   123
 10
0.0
 20
0.0
 30
0.0
 70
   128
 71
    14
 72
     6
 73
    13
  0
VERTEX
  5
79
  8
0
 62
   123
 10
0.0
 20
0.0
 30
0.0
 70
   128
 71
    17
 72
    16
 73
    15
  0
VERTEX
  5
7A
  8
0
 62
   123
 10
0.0
 20
0.0
 30
0.0
 70
   128
 71
    18
 72
    15
 73
     4
  0
VERTEX
  5
7B
  8
0
 62
   123
 10
0.0
 20
0.0
 30
0.0
 70
   128
 71
    21
 72
    20
 73
    19
  0
VERTEX
  5
7C
  8
0
 62
   123
 10
0.0
 20
0.0
 30
0.0
 70
   128
 71
    23
 72
    22
 73
    21
  0
VERTEX
  5
7D
  8
0
 62
   123
 10
0.0
 20
0.0
 30
0.0
 70
   128
 71
    26
 72
    25
 73
    24
  0
VERTEX
  5
7E
  8
0
 62
   123
 10
0.0
 20
0.0
 30
0.0
 70
   128
 71
    24
 72
    20
 73
    26
  0
VERTEX
  5
7F
  8
0
 62
   123
 10
0.0
 20
0.0
 30
0.0
 70
   128
 71
    21
 72
    19
 73
    23
  0
VERTEX
  5
80
  8
0
 62
   123
 10
0.0
 20
0.0
 30
0.0
 70
   128
 71
    19
 72
    20
 73
    24
  0
VERTEX
  5
81
  8
0
 62
   123
 10
0.0
 20
0.0
 30
0.0
 70
   128
 71
    17
 72
    22
 73
    16
  0
VERTEX
  5
82
  8
0
 62
   123
 10
0.0
 20
0.0
 30
0.0
 70
   128
 71
    16
 72
    22
 73
    23
  0
VERTEX
  5
83
  8
0
 62
   123
 10
0.0
 20
0.0
 30
0.0
 70
   128
 71
     4
 72
     5
 73
    18
  0
VERTEX
  5
84
  8
0
 62
   123
 10
0.0
 20
0.0
 30
0.0
 70
   128
 71
    18
 72
    17
 73
    15
  0
VERTEX
  5
85
  8
0
 62
   123
 10
0.0
 20
0.0
 30
0.0
 70
   128
 71
    28
 72
    10
 73
    27
  0
VERTEX
  5
86
  8
0
 62
   123
 10
0.0
 20
0.0
 30
0.0
 70
   128
 71
    31
 72
    30
 73
    29
  0
VERTEX
  5
87
  8
0
 62
   123
 10
0.0
 20
0.0
 30
0.0
 70
   128
 71
    34
 72
    33
 73
    32
  0
VERTEX
  5
88
  8
0
 62
   123
 10
0.0
 20
0.0
 30
0.0
 70
   128
 71
    37
 72
    36
 73
    35
  0
VERTEX
  5
89
  8
0
 62
   123
 10
0.0
 20
0.0
 30
0.0
 70
   128
 71
    40
 72
    39
 73
    38
  0
VERTEX
  5
8A
  8
0
 62
   123
 10
0.0
 20
0.0
 30
0.0
 70
   128
 71
    43
 72
    42
 73
    41
  0
VERTEX
  5
8B
  8
0
 62
   123
 10
0.0
 20
0.0
 30
0.0
 70
   128
 71
    37
 72
    41
 73
    44
  0
VERTEX
  5
8C
  8
0
 62
   123
 10
0.0
 20
0.0
 30
0.0
 70
   128
 71
    46
 72
    43
 73
    45
  0
VERTEX
  5
8D
  8
0
 62
   123
 10
0.0
 20
0.0
 30
0.0
 70
   128
 71
    43
 72
    46
 73
    42
  0
VERTEX
  5
8E
  8
0
 62
   123
 10
0.0
 20
0.0
 30
0.0
 70
   128
 71
    45
 72
    25
 73
    47
  0
VERTEX
  5
8F
  8
0
 62
   123
 10
0.0
 20
0.0
 30
0.0
 70
   128
 71
    47
 72
    46
 73
    45
  0
VERTEX
  5
90
  8
0
 62
   123
 10
0.0
 20
0.0
 30
0.0
 70
   128
 71
    47
 72
    25
 73
    26
  0
VERTEX
  5
91
  8
0
 62
   123
 10
0.0
 20
0.0
 30
0.0
 70
   128
 71
    36
 72
    37
 73
    44
  0
VERTEX
  5
92
  8
0
 62
   123
 10
0.0
 20
0.0
 30
0.0
 70
   128
 71
    41
 72
    42
 73
    44
  0
VERTEX
  5
93
  8
0
 62
   123
 10
0.0
 20
0.0
 30
0.0
 70
   128
 71
    35
 72
    39
 73
    40
  0
VERTEX
  5
94
  8
0
 62
   123
 10
0.0
 20
0.0
 30
0.0
 70
   128
 71
    35
 72
    36
 73
    39
  0
VERTEX
  5
95
  8
0
 62
   123
 10
0.0
 20
0.0
 30
0.0
 70
   128
 71
    38
 72
    31
 73
    29
  0
VERTEX
  5
96
  8
0
 62
   123
 10
0.0
 20
0.0
 30
0.0
 70
   128
 71
    40
 72
    38
 73
    29
  0
VERTEX
  5
97
  8
0
 62
   123
 10
0.0
 20
0.0
 30
0.0
 70
   128
 71
    48
 72
    33
 73
    30
  0
VERTEX
  5
98
  8
0
 62
   123
 10
0.0
 20
0.0
 30
0.0
 70
   128
 71
    31
 72
    48
 73
    30
  0
VERTEX
  5
99
  8
0
 62
   123
 10
0.0
 20
0.0
 30
0.0
 70
   128
 71
    28
 72
    34
 73
    32
  0
VERTEX
  5
9A
  8
0
 62
   123
 10
0.0
 20
0.0
 30
0.0
 70
   128
 71
    32
 72
    33
 73
    48
  0
VERTEX
  5
9B
  8
0
 62
   123
 10
0.0
 20
0.0
 30
0.0
 70
   128
 71
    11
 72
    27
 73
    10
  0
VERTEX
  5
9C
  8
0
 62
   123
 10
0.0
 20
0.0
 30
0.0
 70
   128
 71
    27
 72
    34
 73
    28
  0
VERTEX
  5
9D
  8
0
 62
   123
 10
0.0
 20
0.0
 30
0.0
 70
   128
 71
    13
 72
    24
 73
    45
  0
VERTEX
  5
9E
  8
0
 62
   123
 10
0.0
 20
0.0
 30
0.0
 70
   128
 71
    23
 72
     4
 73
    15
  0
VERTEX
  5
9F
  8
0
 62
   123
 10
0.0
 20
0.0
 30
0.0
 70
   128
 71
    23
 72
    19
 73
    24
  0
VERTEX
  5
A0
  8
0
 62
   123
 10
0.0
 20
0.0
 30
0.0
 70
   128
 71
     4
 72
    23
 73
    24
  0
VERTEX
  5
A1
  8
0
 62
   123
 10
0.0
 20
0.0
 30
0.0
 70
   128
 71
    23
 72
    15
 73
    16
  0
VERTEX
  5
A2
  8
0
 62
   123
 10
0.0
 20
0.0
 30
0.0
 70
   128
 71
    13
 72
     6
 73
     4
  0
VERTEX
  5
A3
  8
0
 62
   123
 10
0.0
 20
0.0
 30
0.0
 70
   128
 71
     4
 72
    24
 73
    13
  0
VERTEX
  5
A4
  8
0
 62
   123
 10
0.0
 20
0.0
 30
0.0
 70
   128
 71
     1
 72
    45
 73
    43
  0
VERTEX
  5
A5
  8
0
 62
   123
 10
0.0
 20
0.0
 30
0.0
 70
   128
 71
     2
 72
    45
 73
     1
  0
VERTEX
  5
A6
  8
0
 62
   123
 10
0.0
 20
0.0
 30
0.0
 70
   128
 71
    37
 72
    40
 73
    27
  0
VERTEX
  5
A7
  8
0
 62
   123
 10
0.0
 20
0.0
 30
0.0
 70
   128
 71
     8
 72
    27
 73
    11
  0
VERTEX
  5
A8
  8
0
 62
   123
 10
0.0
 20
0.0
 30
0.0
 70
   128
 71
    33
 72
    34
 73
    27
  0
VERTEX
  5
A9
  8
0
 62
   123
 10
0.0
 20
0.0
 30
0.0
 70
   128
 71
    30
 72
    33
 73
    29
  0
VERTEX
  5
AA
  8
0
 62
   123
 10
0.0
 20
0.0
 30
0.0
 70
   128
 71
    29
 72
    33
 73
    40
  0
VERTEX
  5
AB
  8
0
 62
   123
 10
0.0
 20
0.0
 30
0.0
 70
   128
 71
    40
 72
    37
 73
    35
  0
VERTEX
  5
AC
  8
0
 62
   123
 10
0.0
 20
0.0
 30
0.0
 70
   128
 71
    40
 72
    33
 73
    27
  0
VERTEX
  5
AD
  8
0
 62
   123
 10
0.0
 20
0.0
 30
0.0
 70
   128
 71
     1
 72
    37
 73
     8
  0
VERTEX
  5
AE
  8
0
 62
   123
 10
0.0
 20
0.0
 30
0.0
 70
   128
 71
     8
 72
    37
 73
    27
  0
VERTEX
  5
AF
  8
0
 62
   123
 10
0.0
 20
0.0
 30
0.0
 70
   128
 71
     1
 72
    43
 73
    37
  0
VERTEX
  5
B0
  8
0
 62
   123
 10
0.0
 20
0.0
 30
0.0
 70
   128
 71
    37
 72
    43
 73
    41
  0
VERTEX
  5
B1
  8
0
 62
   123
 10
0.0
 20
0.0
 30
0.0
 70
   128
 71
    25
 72
    45
 73
    24
  0
VERTEX
  5
B2
  8
0
 62
   123
 10
0.0
 20
0.0
 30
0.0
 70
   128
 71
    13
 72
    45
 73
     2
  0
SEQEND
  5
B3
  8
0
 62
   123
  0
ENDBLK
  5
B7
  8
0
  0
BLOCK
  8
0
  2
39
 70
     0
 10
0.0
 20
0.0
 30
0.0
  3
39
  1

  0
POLYLINE
  5
B9
  8
0
 62
   151
 66
     1
 10
0.0
 20
0.0
 30
0.0
 70
    64
 71
   422
 72
   842
  0
VERTEX
  5
BA
  8
0
 10
-25.44557762145996
 20
44.86111068725586
 30
5.373014450073242
 70
   192
  0
VERTEX
  5
BB
  8
0
 10
-24.79121971130371
 20
44.84074020385742
 30
5.370656967163086
 70
   192
  0
VERTEX
  5
BC
  8
0
 10
-25.37576484680176
 20
44.75766372680664
 30
5.695972919464111
 70
   192
  0
VERTEX
  5
BD
  8
0
 10
-24.71751594543457
 20
44.75772094726562
 30
5.696004867553711
 70
   192
  0
VERTEX
  5
BE
  8
0
 10
-25.50816535949707
 20
45.00143432617188
 30
5.061538696289062
 70
   192
  0
VERTEX
  5
BF
  8
0
 10
-24.85749053955078
 20
45.00143432617188
 30
5.061538696289062
 70
   192
  0
VERTEX
  5
C0
  8
0
 10
-4.115270137786865
 20
64.1764907836914
 30
-24.90080642700195
 70
   192
  0
VERTEX
  5
C1
  8
0
 10
-2.830767869949341
 20
69.75159454345703
 30
-24.8334846496582
 70
   192
  0
VERTEX
  5
C2
  8
0
 10
-2.134280681610107
 20
68.91095733642578
 30
-24.93314552307129
 70
   192
  0
VERTEX
  5
C3
  8
0
 10
-8.373740196228027
 20
76.17180633544922
 30
-23.28477668762207
 70
   192
  0
VERTEX
  5
C4
  8
0
 10
-4.256551265716553
 20
76.1995849609375
 30
-24.34550285339355
 70
   192
  0
VERTEX
  5
C5
  8
0
 10
-8.077537536621094
 20
63.45142364501953
 30
-23.95920562744141
 70
   192
  0
VERTEX
  5
C6
  8
0
 10
-11.77591705322266
 20
62.31178283691406
 30
-22.45385360717773
 70
   192
  0
VERTEX
  5
C7
  8
0
 10
-0.0000000000000562
 20
64.42683410644531
 30
-25.22299957275391
 70
   192
  0
VERTEX
  5
C8
  8
0
 10
-3.159705400466919
 20
72.0147933959961
 30
-24.69862747192383
 70
   192
  0
VERTEX
  5
C9
  8
0
 10
-3.211509704589844
 20
70.82240295410156
 30
-24.74102783203125
 70
   192
  0
VERTEX
  5
CA
  8
0
 10
-2.757383108139038
 20
73.09920501708984
 30
-24.69431304931641
 70
   192
  0
VERTEX
  5
CB
  8
0
 10
-1.115148067474365
 20
74.45912170410156
 30
-24.75683975219727
 70
   192
  0
VERTEX
  5
CC
  8
0
 10
-2.034275770187378
 20
73.93549346923828
 30
-24.72968673706055
 70
   192
  0
VERTEX
  5
CD
  8
0
 10
-0.0000000000000822
 20
76.20909118652344
 30
-24.70857429504395
 70
   192
  0
VERTEX
  5
CE
  8
0
 10
-0.0000000000000788
 20
74.67008209228516
 30
-24.77577018737793
 70
   192
  0
VERTEX
  5
CF
  8
0
 10
-15.8328685760498
 20
76.06450653076172
 30
-19.18712615966797
 70
   192
  0
VERTEX
  5
D0
  8
0
 10
-18.04969215393066
 20
59.12165069580078
 30
-18.07155418395996
 70
   192
  0
VERTEX
  5
D1
  8
0
 10
-18.94989585876465
 20
75.9878921508789
 30
-16.26140022277832
 70
   192
  0
VERTEX
  5
D2
  8
0
 10
-12.27357864379883
 20
76.1263656616211
 30
-21.54959487915039
 70
   192
  0
VERTEX
  5
D3
  8
0
 10
-15.121750831604
 20
60.838134765625
 30
-20.46074295043945
 70
   192
  0
VERTEX
  5
D4
  8
0
 10
-1.16184663772583
 20
68.33087158203125
 30
-25.02215576171875
 70
   192
  0
VERTEX
  5
D5
  8
0
 10
-20.53054618835449
 20
57.2366943359375
 30
-15.35885906219482
 70
   192
  0
VERTEX
  5
D6
  8
0
 10
-21.53409194946289
 20
75.89865112304688
 30
-12.85335350036621
 70
   192
  0
VERTEX
  5
D7
  8
0
 10
-22.57014083862305
 20
55.22446060180664
 30
-12.35659790039062
 70
   192
  0
VERTEX
  5
D8
  8
0
 10
-0.0000000000000643
 20
68.1124496459961
 30
-25.06208229064941
 70
   192
  0
VERTEX
  5
D9
  8
0
 10
-24.1466178894043
 20
53.14752578735352
 30
-9.1285982131958
 70
   192
  0
VERTEX
  5
DA
  8
0
 10
-23.50535774230957
 20
75.79948425292969
 30
-9.066484451293945
 70
   192
  0
VERTEX
  5
DB
  8
0
 10
-25.24622535705566
 20
51.04682540893555
 30
-5.717634201049805
 70
   192
  0
VERTEX
  5
DC
  8
0
 10
-24.81667137145996
 20
75.6932373046875
 30
-5.009037017822266
 70
   192
  0
VERTEX
  5
DD
  8
0
 10
-25.85027313232422
 20
48.96237182617188
 30
-2.173359632492065
 70
   192
  0
VERTEX
  5
DE
  8
0
 10
-25.43523597717285
 20
75.58267211914062
 30
-0.7866215705871582
 70
   192
  0
VERTEX
  5
DF
  8
0
 10
-25.34071731567383
 20
75.47085571289062
 30
3.483365535736084
 70
   192
  0
VERTEX
  5
E0
  8
0
 10
-25.94075393676758
 20
46.93871688842773
 30
1.434110760688782
 70
   192
  0
VERTEX
  5
E1
  8
0
 10
-24.53183555603027
 20
75.36096954345703
 30
7.679932117462158
 70
   192
  0
VERTEX
  5
E2
  8
0
 10
-25.29850387573242
 20
44.69108581542969
 30
6.030678272247314
 70
   192
  0
VERTEX
  5
E3
  8
0
 10
-25.2150764465332
 20
44.66307830810547
 30
6.369047164916992
 70
   192
  0
VERTEX
  5
E4
  8
0
 10
-23.64971923828125
 20
44.54704284667969
 30
10.8002758026123
 70
   192
  0
VERTEX
  5
E5
  8
0
 10
-21.31225204467773
 20
44.44027709960938
 30
14.87758445739746
 70
   192
  0
VERTEX
  5
E6
  8
0
 10
-21.20072364807129
 20
52.23964691162109
 30
15.00369930267334
 70
   192
  0
VERTEX
  5
E7
  8
0
 10
-23.02909851074219
 20
75.25615692138672
 30
11.68242359161377
 70
   192
  0
VERTEX
  5
E8
  8
0
 10
-21.08919715881348
 20
60.03902053833008
 30
15.12981414794922
 70
   192
  0
VERTEX
  5
E9
  8
0
 10
-20.97767066955566
 20
67.83839416503906
 30
15.2559289932251
 70
   192
  0
VERTEX
  5
EA
  8
0
 10
-20.87298202514648
 20
75.15948486328125
 30
15.37431049346924
 70
   192
  0
VERTEX
  5
EB
  8
0
 10
-20.92532539367676
 20
71.49893951416016
 30
15.31511974334717
 70
   192
  0
VERTEX
  5
EC
  8
0
 10
24.79121971130371
 20
44.84074020385742
 30
5.370656967163086
 70
   192
  0
VERTEX
  5
ED
  8
0
 10
25.37576484680176
 20
44.75766372680664
 30
5.695972919464111
 70
   192
  0
VERTEX
  5
EE
  8
0
 10
24.71751594543457
 20
44.75772094726562
 30
5.696004867553711
 70
   192
  0
VERTEX
  5
EF
  8
0
 10
25.44557762145996
 20
44.86111068725586
 30
5.373014450073242
 70
   192
  0
VERTEX
  5
F0
  8
0
 10
24.85749053955078
 20
45.00143432617188
 30
5.061538696289062
 70
   192
  0
VERTEX
  5
F1
  8
0
 10
25.50816535949707
 20
45.00143432617188
 30
5.061538696289062
 70
   192
  0
VERTEX
  5
F2
  8
0
 10
-0.0868394300341606
 20
44.15175628662109
 30
25.89568328857422
 70
   192
  0
VERTEX
  5
F3
  8
0
 10
0.0000018540022211
 20
44.15177154541016
 30
25.89509201049805
 70
   192
  0
VERTEX
  5
F4
  8
0
 10
0.2516311407089233
 20
62.05218887329102
 30
26.67529487609863
 70
   192
  0
VERTEX
  5
F5
  8
0
 10
-0.2277676165103912
 20
53.10148239135742
 30
26.28470993041992
 70
   192
  0
VERTEX
  5
F6
  8
0
 10
-0.2264035493135452
 20
44.15179443359375
 30
25.89426422119141
 70
   192
  0
VERTEX
  5
F7
  8
0
 10
1.894973039627075
 20
62.89849090576172
 30
27.1238842010498
 70
   192
  0
VERTEX
  5
F8
  8
0
 10
2.631936311721802
 20
63.27967834472656
 30
27.06836128234863
 70
   192
  0
VERTEX
  5
F9
  8
0
 10
2.906404972076416
 20
61.80830383300781
 30
90.87138366699219
 70
   192
  0
VERTEX
  5
FA
  8
0
 10
4.999887466430664
 20
67.56906127929688
 30
26.8210334777832
 70
   192
  0
VERTEX
  5
FB
  8
0
 10
5.0
 20
65.85387420654297
 30
91.04115295410156
 70
   192
  0
VERTEX
  5
FC
  8
0
 10
4.928752422332764
 20
66.70543670654297
 30
26.80663299560547
 70
   192
  0
VERTEX
  5
FD
  8
0
 10
1.544811964035034
 20
61.11142349243164
 30
90.8422622680664
 70
   192
  0
VERTEX
  5
FE
  8
0
 10
1.09607458114624
 20
62.64691543579102
 30
27.16410255432129
 70
   192
  0
VERTEX
  5
FF
  8
0
 10
0.0000000000001923
 20
60.8576545715332
 30
90.83174896240234
 70
   192
  0
VERTEX
  5
100
  8
0
 10
-0.2329794019460678
 20
62.53160858154297
 30
27.18617630004883
 70
   192
  0
VERTEX
  5
101
  8
0
 10
3.308806419372559
 20
63.78759384155273
 30
26.99835205078125
 70
   192
  0
VERTEX
  5
102
  8
0
 10
3.901294708251953
 20
64.40560913085938
 30
26.92510223388672
 70
   192
  0
VERTEX
  5
103
  8
0
 10
4.016973972320557
 20
62.90442657470703
 30
90.91731262207031
 70
   192
  0
VERTEX
  5
104
  8
0
 10
4.36570405960083
 20
65.10504150390625
 30
26.86665344238281
 70
   192
  0
VERTEX
  5
105
  8
0
 10
4.740434646606445
 20
64.29643249511719
 30
90.97576904296875
 70
   192
  0
VERTEX
  5
106
  8
0
 10
4.722797393798828
 20
65.89242553710938
 30
26.81757736206055
 70
   192
  0
VERTEX
  5
107
  8
0
 10
4.91707706451416
 20
68.42813873291016
 30
26.76027297973633
 70
   192
  0
VERTEX
  5
108
  8
0
 10
4.703990459442139
 20
69.23279571533203
 30
26.7276554107666
 70
   192
  0
VERTEX
  5
109
  8
0
 10
4.740389347076416
 20
67.4064712524414
 30
91.05730438232422
 70
   192
  0
VERTEX
  5
10A
  8
0
 10
3.297463178634644
 20
71.2945556640625
 30
26.78615379333496
 70
   192
  0
VERTEX
  5
10B
  8
0
 10
4.050773143768311
 20
68.7790298461914
 30
91.07159423828125
 70
   192
  0
VERTEX
  5
10C
  8
0
 10
3.883255243301392
 20
70.68346405029297
 30
26.74711227416992
 70
   192
  0
VERTEX
  5
10D
  8
0
 10
4.359410285949707
 20
69.98512268066406
 30
26.72321510314941
 70
   192
  0
VERTEX
  5
10E
  8
0
 10
1.557350635528564
 20
70.61544036865234
 30
91.09087371826172
 70
   192
  0
VERTEX
  5
10F
  8
0
 10
2.96150016784668
 20
69.8977279663086
 30
91.0832748413086
 70
   192
  0
VERTEX
  5
110
  8
0
 10
1.860343217849731
 20
72.17523193359375
 30
26.87417602539062
 70
   192
  0
VERTEX
  5
111
  8
0
 10
2.619004011154175
 20
71.79304504394531
 30
26.83004760742188
 70
   192
  0
VERTEX
  5
112
  8
0
 10
1.054834604263306
 20
72.42115783691406
 30
26.90471649169922
 70
   192
  0
VERTEX
  5
113
  8
0
 10
0.0000000000001917
 20
70.8542251586914
 30
91.09351348876953
 70
   192
  0
VERTEX
  5
114
  8
0
 10
0.2094395309686661
 20
72.52850341796875
 30
26.92064094543457
 70
   192
  0
VERTEX
  5
115
  8
0
 10
-0.0000000000000635
 20
79.21912384033203
 30
0.8601863980293274
 70
   192
  0
VERTEX
  5
116
  8
0
 10
-0.0000000000000366
 20
79.08312225341797
 30
-7.590603351593018
 70
   192
  0
VERTEX
  5
117
  8
0
 10
-1.536556720733643
 20
79.07943725585938
 30
-7.449676513671875
 70
   192
  0
VERTEX
  5
118
  8
0
 10
-3.108314514160156
 20
79.0676040649414
 30
-6.997915744781494
 70
   192
  0
VERTEX
  5
119
  8
0
 10
-4.620821952819824
 20
79.0470962524414
 30
-6.214610576629639
 70
   192
  0
VERTEX
  5
11A
  8
0
 10
-9.216809272766113
 20
78.15996551513672
 30
-13.27013492584229
 70
   192
  0
VERTEX
  5
11B
  8
0
 10
-6.199923992156982
 20
78.20088195800781
 30
-14.83253479003906
 70
   192
  0
VERTEX
  5
11C
  8
0
 10
-8.303359031677246
 20
78.90229797363281
 30
-0.6851934790611267
 70
   192
  0
VERTEX
  5
11D
  8
0
 10
-7.851442813873291
 20
78.94344329833984
 30
-2.256412744522095
 70
   192
  0
VERTEX
  5
11E
  8
0
 10
-16.56209182739258
 20
77.87115478515625
 30
-2.241017580032349
 70
   192
  0
VERTEX
  5
11F
  8
0
 10
-15.66068935394287
 20
77.9532241821289
 30
-5.375011444091797
 70
   192
  0
VERTEX
  5
120
  8
0
 10
-16.84295082092285
 20
77.79098510742188
 30
0.8227892518043518
 70
   192
  0
VERTEX
  5
121
  8
0
 10
-0.0000000000000507
 20
78.2318344116211
 30
-16.01472473144531
 70
   192
  0
VERTEX
  5
122
  8
0
 10
-3.064855575561523
 20
78.22447204589844
 30
-15.73362922668457
 70
   192
  0
VERTEX
  5
123
  8
0
 10
-25.10681533813477
 20
76.01716613769531
 30
0.776340126991272
 70
   192
  0
VERTEX
  5
124
  8
0
 10
-8.59524154663086
 20
76.63489532470703
 30
-22.81381607055664
 70
   192
  0
VERTEX
  5
125
  8
0
 10
-4.363876819610596
 20
76.6645736694336
 30
-23.94704627990723
 70
   192
  0
VERTEX
  5
126
  8
0
 10
-0.0000000000000627
 20
76.67438507080078
 30
-24.32187271118164
 70
   192
  0
VERTEX
  5
127
  8
0
 10
-11.91000080108643
 20
78.10269927978516
 30
-11.08313179016113
 70
   192
  0
VERTEX
  5
128
  8
0
 10
-5.971045970916748
 20
79.01837921142578
 30
-5.118162631988525
 70
   192
  0
VERTEX
  5
129
  8
0
 10
-14.09775352478027
 20
78.03219604492188
 30
-8.390863418579102
 70
   192
  0
VERTEX
  5
12A
  8
0
 10
-7.067869663238525
 20
78.98303985595703
 30
-3.768401622772217
 70
   192
  0
VERTEX
  5
12B
  8
0
 10
-8.443995475769043
 20
78.86210632324219
 30
0.8508375287055969
 70
   192
  0
VERTEX
  5
12C
  8
0
 10
-12.56376838684082
 20
76.58635711669922
 30
-20.96029090881348
 70
   192
  0
VERTEX
  5
12D
  8
0
 10
-16.14799118041992
 20
76.52049255371094
 30
-18.44497489929199
 70
   192
  0
VERTEX
  5
12E
  8
0
 10
-19.23915481567383
 20
76.4393539428711
 30
-15.34651279449463
 70
   192
  0
VERTEX
  5
12F
  8
0
 10
-21.74464225769043
 20
76.34546661376953
 30
-11.76087093353271
 70
   192
  0
VERTEX
  5
130
  8
0
 10
-23.59267997741699
 20
76.2416763305664
 30
-7.797480583190918
 70
   192
  0
VERTEX
  5
131
  8
0
 10
-24.7255859375
 20
76.13137817382812
 30
-3.585280179977417
 70
   192
  0
VERTEX
  5
132
  8
0
 10
8.443995475769043
 20
78.86210632324219
 30
0.8508375287055969
 70
   192
  0
VERTEX
  5
133
  8
0
 10
8.303359031677246
 20
78.90229797363281
 30
-0.6851934790611267
 70
   192
  0
VERTEX
  5
134
  8
0
 10
7.851442813873291
 20
78.94344329833984
 30
-2.256412744522095
 70
   192
  0
VERTEX
  5
135
  8
0
 10
7.067869663238525
 20
78.98303985595703
 30
-3.768401622772217
 70
   192
  0
VERTEX
  5
136
  8
0
 10
14.09775352478027
 20
78.03219604492188
 30
-8.390863418579102
 70
   192
  0
VERTEX
  5
137
  8
0
 10
15.66068935394287
 20
77.9532241821289
 30
-5.375011444091797
 70
   192
  0
VERTEX
  5
138
  8
0
 10
1.536556720733643
 20
79.07943725585938
 30
-7.449676513671875
 70
   192
  0
VERTEX
  5
139
  8
0
 10
3.108314514160156
 20
79.0676040649414
 30
-6.997915744781494
 70
   192
  0
VERTEX
  5
13A
  8
0
 10
3.064855575561523
 20
78.22447204589844
 30
-15.73362922668457
 70
   192
  0
VERTEX
  5
13B
  8
0
 10
6.199923992156982
 20
78.20088195800781
 30
-14.83253479003906
 70
   192
  0
VERTEX
  5
13C
  8
0
 10
16.84294891357422
 20
77.79098510742188
 30
0.8227892518043518
 70
   192
  0
VERTEX
  5
13D
  8
0
 10
16.56209182739258
 20
77.87115478515625
 30
-2.241017580032349
 70
   192
  0
VERTEX
  5
13E
  8
0
 10
23.58992958068848
 20
76.24217224121094
 30
-7.816339492797852
 70
   192
  0
VERTEX
  5
13F
  8
0
 10
24.72520637512207
 20
76.13140106201172
 30
-3.586253643035889
 70
   192
  0
VERTEX
  5
140
  8
0
 10
25.10681533813477
 20
76.01716613769531
 30
0.776340126991272
 70
   192
  0
VERTEX
  5
141
  8
0
 10
11.91000080108643
 20
78.10269927978516
 30
-11.08313179016113
 70
   192
  0
VERTEX
  5
142
  8
0
 10
5.971045970916748
 20
79.01837921142578
 30
-5.118162631988525
 70
   192
  0
VERTEX
  5
143
  8
0
 10
9.216809272766113
 20
78.15996551513672
 30
-13.27013492584229
 70
   192
  0
VERTEX
  5
144
  8
0
 10
4.620821952819824
 20
79.0470962524414
 30
-6.214610576629639
 70
   192
  0
VERTEX
  5
145
  8
0
 10
21.73514556884766
 20
76.34606170654297
 30
-11.78369331359863
 70
   192
  0
VERTEX
  5
146
  8
0
 10
19.21867370605469
 20
76.43988037109375
 30
-15.36653995513916
 70
   192
  0
VERTEX
  5
147
  8
0
 10
16.11928939819336
 20
76.52079010009766
 30
-18.45623207092285
 70
   192
  0
VERTEX
  5
148
  8
0
 10
12.53294467926025
 20
76.58636474609375
 30
-20.96037483215332
 70
   192
  0
VERTEX
  5
149
  8
0
 10
8.569356918334961
 20
76.6346664428711
 30
-22.80496406555176
 70
   192
  0
VERTEX
  5
14A
  8
0
 10
4.358304977416992
 20
76.66426086425781
 30
-23.93532562255859
 70
   192
  0
VERTEX
  5
14B
  8
0
 10
4.627327919006348
 20
78.67579650878906
 30
7.926206111907959
 70
   192
  0
VERTEX
  5
14C
  8
0
 10
3.112691164016724
 20
78.6552505493164
 30
8.710613250732422
 70
   192
  0
VERTEX
  5
14D
  8
0
 10
3.069196939468384
 20
77.35269165039062
 30
17.40254974365234
 70
   192
  0
VERTEX
  5
14E
  8
0
 10
0.0000000000000338
 20
78.63970947265625
 30
9.304136276245117
 70
   192
  0
VERTEX
  5
14F
  8
0
 10
0.0000000000000886
 20
77.34532165527344
 30
17.68404579162598
 70
   192
  0
VERTEX
  5
150
  8
0
 10
6.700210571289062
 20
75.37380981445312
 30
25.01243591308594
 70
   192
  0
VERTEX
  5
151
  8
0
 10
4.585374355316162
 20
75.3613510131836
 30
25.4769287109375
 70
   192
  0
VERTEX
  5
152
  8
0
 10
16.58555221557617
 20
77.70651245117188
 30
3.890826225280762
 70
   192
  0
VERTEX
  5
153
  8
0
 10
8.31505012512207
 20
78.82079315185547
 30
2.389003276824951
 70
   192
  0
VERTEX
  5
154
  8
0
 10
7.862497806549072
 20
78.77958679199219
 30
3.962434768676758
 70
   192
  0
VERTEX
  5
155
  8
0
 10
8.775764465332031
 20
75.3917236328125
 30
24.34513854980469
 70
   192
  0
VERTEX
  5
156
  8
0
 10
6.208706378936768
 20
77.3763198852539
 30
16.50017929077148
 70
   192
  0
VERTEX
  5
157
  8
0
 10
1.5387202501297
 20
78.6434097290039
 30
9.163010597229004
 70
   192
  0
VERTEX
  5
158
  8
0
 10
5.979453086853027
 20
78.70454406738281
 30
6.828214168548584
 70
   192
  0
VERTEX
  5
159
  8
0
 10
7.077821254730225
 20
78.73993682861328
 30
5.476552486419678
 70
   192
  0
VERTEX
  5
15A
  8
0
 10
2.458925247192383
 20
75.35363006591797
 30
25.76581954956055
 70
   192
  0
VERTEX
  5
15B
  8
0
 10
-0.2247768491506577
 20
74.9129638671875
 30
26.26857757568359
 70
   192
  0
VERTEX
  5
15C
  8
0
 10
9.229865074157715
 20
77.41728973388672
 30
14.93556690216064
 70
   192
  0
VERTEX
  5
15D
  8
0
 10
12.71462249755859
 20
75.44229888916016
 30
22.47140884399414
 70
   192
  0
VERTEX
  5
15E
  8
0
 10
14.5706844329834
 20
75.47509765625
 30
21.26619338989258
 70
   192
  0
VERTEX
  5
15F
  8
0
 10
20.56629943847656
 20
75.64019775390625
 30
15.17208385467529
 70
   192
  0
VERTEX
  5
160
  8
0
 10
14.11772346496582
 20
77.54524230957031
 30
10.04938316345215
 70
   192
  0
VERTEX
  5
161
  8
0
 10
19.23116111755371
 20
75.59444427490234
 30
16.90994262695312
 70
   192
  0
VERTEX
  5
162
  8
0
 10
11.92687129974365
 20
77.47463989257812
 30
12.74546527862549
 70
   192
  0
VERTEX
  5
163
  8
0
 10
16.2014331817627
 20
75.51065063476562
 30
19.97103881835938
 70
   192
  0
VERTEX
  5
164
  8
0
 10
17.79153251647949
 20
75.55122375488281
 30
18.4979419708252
 70
   192
  0
VERTEX
  5
165
  8
0
 10
15.6828727722168
 20
77.62432861328125
 30
7.02925968170166
 70
   192
  0
VERTEX
  5
166
  8
0
 10
10.7836971282959
 20
75.41481018066406
 30
23.48742866516113
 70
   192
  0
VERTEX
  5
167
  8
0
 10
22.87347221374512
 20
75.7461929321289
 30
11.12443161010742
 70
   192
  0
VERTEX
  5
168
  8
0
 10
24.49785232543945
 20
75.873291015625
 30
6.270582675933838
 70
   192
  0
VERTEX
  5
169
  8
0
 10
-2.090322971343994
 20
68.82183074951172
 30
-24.71136856079102
 70
   192
  0
VERTEX
  5
16A
  8
0
 10
-1.160403251647949
 20
68.28755187988281
 30
-24.77405738830566
 70
   192
  0
VERTEX
  5
16B
  8
0
 10
-0.0000000000000479
 20
68.06664276123047
 30
-24.81495094299316
 70
   192
  0
VERTEX
  5
16C
  8
0
 10
-3.192797899246216
 20
71.86652374267578
 30
-24.51627922058105
 70
   192
  0
VERTEX
  5
16D
  8
0
 10
-3.198922872543335
 20
70.7444076538086
 30
-24.5449104309082
 70
   192
  0
VERTEX
  5
16E
  8
0
 10
-2.825418710708618
 20
72.9404067993164
 30
-24.52471160888672
 70
   192
  0
VERTEX
  5
16F
  8
0
 10
-1.153692960739136
 20
74.41334533691406
 30
-24.61409187316895
 70
   192
  0
VERTEX
  5
170
  8
0
 10
-2.100762605667114
 20
73.83702850341797
 30
-24.57301330566406
 70
   192
  0
VERTEX
  5
171
  8
0
 10
-0.0000000000000615
 20
74.6454086303711
 30
-24.64267921447754
 70
   192
  0
VERTEX
  5
172
  8
0
 10
-2.789759397506714
 20
69.66948699951172
 30
-24.62688255310059
 70
   192
  0
VERTEX
  5
173
  8
0
 10
24.64040946960449
 20
44.69312286376953
 30
6.016919612884521
 70
   192
  0
VERTEX
  5
174
  8
0
 10
24.5510139465332
 20
44.66307830810547
 30
6.369047164916992
 70
   192
  0
VERTEX
  5
175
  8
0
 10
-24.64040946960449
 20
44.69312286376953
 30
6.016919612884521
 70
   192
  0
VERTEX
  5
176
  8
0
 10
-24.55101585388184
 20
44.66308212280273
 30
6.369045257568359
 70
   192
  0
VERTEX
  5
177
  8
0
 10
23.56164932250977
 20
44.54206848144531
 30
10.99026012420654
 70
   192
  0
VERTEX
  5
178
  8
0
 10
25.2150764465332
 20
44.66307830810547
 30
6.369047164916992
 70
   192
  0
VERTEX
  5
179
  8
0
 10
21.31225204467773
 20
44.44027709960938
 30
14.87758445739746
 70
   192
  0
VERTEX
  5
17A
  8
0
 10
19.0698413848877
 20
44.36877059936523
 30
17.60831642150879
 70
   192
  0
VERTEX
  5
17B
  8
0
 10
-19.07235717773438
 20
44.36879730224609
 30
17.60728645324707
 70
   192
  0
VERTEX
  5
17C
  8
0
 10
16.49421119689941
 20
44.30646133422852
 30
19.98770141601562
 70
   192
  0
VERTEX
  5
17D
  8
0
 10
-16.47115325927734
 20
44.30633163452148
 30
19.99275398254395
 70
   192
  0
VERTEX
  5
17E
  8
0
 10
0.2264102399349213
 20
44.15177536010742
 30
25.89493942260742
 70
   192
  0
VERTEX
  5
17F
  8
0
 10
3.745173692703247
 20
44.15898132324219
 30
25.6197624206543
 70
   192
  0
VERTEX
  5
180
  8
0
 10
13.61141300201416
 20
44.25356292724609
 30
22.00790214538574
 70
   192
  0
VERTEX
  5
181
  8
0
 10
10.48710060119629
 20
44.21064376831055
 30
23.64694404602051
 70
   192
  0
VERTEX
  5
182
  8
0
 10
-13.58774852752686
 20
44.25320434570312
 30
22.02150535583496
 70
   192
  0
VERTEX
  5
183
  8
0
 10
0.1264533996582031
 20
44.15176010131836
 30
25.89558792114258
 70
   192
  0
VERTEX
  5
184
  8
0
 10
-3.728585481643677
 20
44.1588249206543
 30
25.62574005126953
 70
   192
  0
VERTEX
  5
185
  8
0
 10
-7.158081531524658
 20
44.17841339111328
 30
24.87771415710449
 70
   192
  0
VERTEX
  5
186
  8
0
 10
7.180461883544922
 20
44.17875671386719
 30
24.86459732055664
 70
   192
  0
VERTEX
  5
187
  8
0
 10
-10.46901798248291
 20
44.21026611328125
 30
23.66129302978516
 70
   192
  0
VERTEX
  5
188
  8
0
 10
1.115234613418579
 20
74.43428802490234
 30
-24.61994743347168
 70
   192
  0
VERTEX
  5
189
  8
0
 10
3.162396907806396
 20
71.9779281616211
 30
-24.51789474487305
 70
   192
  0
VERTEX
  5
18A
  8
0
 10
2.830185174942017
 20
69.70980834960938
 30
-24.6136589050293
 70
   192
  0
VERTEX
  5
18B
  8
0
 10
2.762386083602905
 20
73.06107330322266
 30
-24.5327320098877
 70
   192
  0
VERTEX
  5
18C
  8
0
 10
2.036030054092407
 20
73.90618133544922
 30
-24.58329772949219
 70
   192
  0
VERTEX
  5
18D
  8
0
 10
2.131281137466431
 20
68.86519622802734
 30
-24.6993408203125
 70
   192
  0
VERTEX
  5
18E
  8
0
 10
1.15762722492218
 20
68.28330993652344
 30
-24.77885818481445
 70
   192
  0
VERTEX
  5
18F
  8
0
 10
3.210812091827393
 20
70.78754425048828
 30
-24.53953170776367
 70
   192
  0
VERTEX
  5
190
  8
0
 10
1.153205752372742
 20
74.43924713134766
 30
-24.75137901306152
 70
   192
  0
VERTEX
  5
191
  8
0
 10
2.100507020950317
 20
73.86453247070312
 30
-24.72061347961426
 70
   192
  0
VERTEX
  5
192
  8
0
 10
1.157884478569031
 20
68.33137512207031
 30
-25.01793098449707
 70
   192
  0
VERTEX
  5
193
  8
0
 10
2.825942277908325
 20
72.96985626220703
 30
-24.68830871582031
 70
   192
  0
VERTEX
  5
194
  8
0
 10
2.086918830871582
 20
68.86273193359375
 30
-24.94650650024414
 70
   192
  0
VERTEX
  5
195
  8
0
 10
3.192900657653809
 20
71.89764404296875
 30
-24.69901084899902
 70
   192
  0
VERTEX
  5
196
  8
0
 10
3.197933435440063
 20
70.77754211425781
 30
-24.74744606018066
 70
   192
  0
VERTEX
  5
197
  8
0
 10
2.787103176116943
 20
69.7065200805664
 30
-24.84780311584473
 70
   192
  0
VERTEX
  5
198
  8
0
 10
-18.69378089904785
 20
75.09365844726562
 30
18.05966949462891
 70
   192
  0
VERTEX
  5
199
  8
0
 10
-20.78520584106445
 20
75.461669921875
 30
15.32074069976807
 70
   192
  0
VERTEX
  5
19A
  8
0
 10
-13.7579345703125
 20
75.46053314208984
 30
21.79891395568848
 70
   192
  0
VERTEX
  5
19B
  8
0
 10
-9.63900089263916
 20
75.21920013427734
 30
24.26895713806152
 70
   192
  0
VERTEX
  5
19C
  8
0
 10
-9.537361145019531
 20
75.40027618408203
 30
24.02652359008789
 70
   192
  0
VERTEX
  5
19D
  8
0
 10
-16.19370651245117
 20
75.04347229003906
 30
20.45052337646484
 70
   192
  0
VERTEX
  5
19E
  8
0
 10
-17.66244506835938
 20
75.3633041381836
 30
18.99451637268066
 70
   192
  0
VERTEX
  5
19F
  8
0
 10
-13.90483856201172
 20
75.28011322021484
 30
22.01744842529297
 70
   192
  0
VERTEX
  5
1A0
  8
0
 10
-10.32079792022705
 20
74.96459197998047
 30
24.08594512939453
 70
   192
  0
VERTEX
  5
1A1
  8
0
 10
-17.47566413879395
 20
75.5428466796875
 30
18.80805206298828
 70
   192
  0
VERTEX
  5
1A2
  8
0
 10
-5.022470951080322
 20
75.181640625
 30
25.67002105712891
 70
   192
  0
VERTEX
  5
1A3
  8
0
 10
-4.969563484191895
 20
75.36311340332031
 30
25.41280364990234
 70
   192
  0
VERTEX
  5
1A4
  8
0
 10
-13.38949584960938
 20
75.00079345703125
 30
22.47719955444336
 70
   192
  0
VERTEX
  5
1A5
  8
0
 10
-20.56629943847656
 20
75.64019775390625
 30
15.17208385467529
 70
   192
  0
VERTEX
  5
1A6
  8
0
 10
-7.067253589630127
 20
74.93637084960938
 30
25.2912654876709
 70
   192
  0
VERTEX
  5
1A7
  8
0
 10
-3.675678014755249
 20
74.92022705078125
 30
25.97226524353027
 70
   192
  0
VERTEX
  5
1A8
  8
0
 10
-1.093636035919189
 20
62.64605331420898
 30
27.16473197937012
 70
   192
  0
VERTEX
  5
1A9
  8
0
 10
-1.901291370391846
 20
62.90272903442383
 30
27.12114143371582
 70
   192
  0
VERTEX
  5
1AA
  8
0
 10
-2.121866464614868
 20
62.86230087280273
 30
26.76998329162598
 70
   192
  0
VERTEX
  5
1AB
  8
0
 10
-3.692768335342407
 20
64.00743865966797
 30
26.64267158508301
 70
   192
  0
VERTEX
  5
1AC
  8
0
 10
-3.890078067779541
 20
63.73908233642578
 30
26.45654487609863
 70
   192
  0
VERTEX
  5
1AD
  8
0
 10
-2.215773105621338
 20
62.53237533569336
 30
26.60394477844238
 70
   192
  0
VERTEX
  5
1AE
  8
0
 10
-5.393498420715332
 20
67.56098175048828
 30
26.33171844482422
 70
   192
  0
VERTEX
  5
1AF
  8
0
 10
-5.007708549499512
 20
65.50843048095703
 30
26.33090972900391
 70
   192
  0
VERTEX
  5
1B0
  8
0
 10
-4.728085041046143
 20
65.65958404541016
 30
26.53894424438477
 70
   192
  0
VERTEX
  5
1B1
  8
0
 10
-0.2367247641086578
 20
62.39559936523438
 30
26.83387565612793
 70
   192
  0
VERTEX
  5
1B2
  8
0
 10
-2.658942699432373
 20
63.29562377929688
 30
27.05744361877441
 70
   192
  0
VERTEX
  5
1B3
  8
0
 10
-4.384239673614502
 20
65.13389587402344
 30
26.85440063476562
 70
   192
  0
VERTEX
  5
1B4
  8
0
 10
-5.110421180725098
 20
67.5628662109375
 30
26.50703239440918
 70
   192
  0
VERTEX
  5
1B5
  8
0
 10
-4.928542613983154
 20
66.7052001953125
 30
26.80667114257812
 70
   192
  0
VERTEX
  5
1B6
  8
0
 10
-4.999887466430664
 20
67.56906127929688
 30
26.8210334777832
 70
   192
  0
VERTEX
  5
1B7
  8
0
 10
-3.333484411239624
 20
63.80480194091797
 30
26.98776054382324
 70
   192
  0
VERTEX
  5
1B8
  8
0
 10
-3.914575338363647
 20
64.42766571044922
 30
26.91594314575195
 70
   192
  0
VERTEX
  5
1B9
  8
0
 10
-4.722305774688721
 20
65.89169311523438
 30
26.81792068481445
 70
   192
  0
VERTEX
  5
1BA
  8
0
 10
5.00831937789917
 20
65.50999450683594
 30
26.33084869384766
 70
   192
  0
VERTEX
  5
1BB
  8
0
 10
5.393498420715332
 20
67.56098175048828
 30
26.33171844482422
 70
   192
  0
VERTEX
  5
1BC
  8
0
 10
5.110421180725098
 20
67.56285858154297
 30
26.50703239440918
 70
   192
  0
VERTEX
  5
1BD
  8
0
 10
2.217177629470825
 20
62.53302383422852
 30
26.60385322570801
 70
   192
  0
VERTEX
  5
1BE
  8
0
 10
2.121867179870605
 20
62.86230087280273
 30
26.76998329162598
 70
   192
  0
VERTEX
  5
1BF
  8
0
 10
3.692768573760986
 20
64.00743865966797
 30
26.64267158508301
 70
   192
  0
VERTEX
  5
1C0
  8
0
 10
4.728085517883301
 20
65.65958404541016
 30
26.53894424438477
 70
   192
  0
VERTEX
  5
1C1
  8
0
 10
3.890645503997803
 20
63.73968887329102
 30
26.45648384094238
 70
   192
  0
VERTEX
  5
1C2
  8
0
 10
2.196660041809082
 20
72.51560974121094
 30
26.38449096679688
 70
   192
  0
VERTEX
  5
1C3
  8
0
 10
-0.2462218105792999
 20
72.98509216308594
 30
26.43720817565918
 70
   192
  0
VERTEX
  5
1C4
  8
0
 10
0.213531106710434
 20
72.66574096679688
 30
26.59287261962891
 70
   192
  0
VERTEX
  5
1C5
  8
0
 10
2.095544338226318
 20
72.21443176269531
 30
26.54751777648926
 70
   192
  0
VERTEX
  5
1C6
  8
0
 10
3.673221349716187
 20
71.08865356445312
 30
26.46719932556152
 70
   192
  0
VERTEX
  5
1C7
  8
0
 10
3.864808559417725
 20
71.3318862915039
 30
26.2874698638916
 70
   192
  0
VERTEX
  5
1C8
  8
0
 10
4.984131813049316
 20
69.59915924072266
 30
26.24020195007324
 70
   192
  0
VERTEX
  5
1C9
  8
0
 10
4.721897602081299
 20
69.45265197753906
 30
26.43554306030273
 70
   192
  0
VERTEX
  5
1CA
  8
0
 10
17.80920791625977
 20
71.4056625366211
 30
19.09864044189453
 70
   192
  0
VERTEX
  5
1CB
  8
0
 10
20.92532539367676
 20
71.49893951416016
 30
15.31511974334717
 70
   192
  0
VERTEX
  5
1CC
  8
0
 10
18.69430923461914
 20
75.09364318847656
 30
18.06015777587891
 70
   192
  0
VERTEX
  5
1CD
  8
0
 10
20.97767066955566
 20
67.83839416503906
 30
15.2559289932251
 70
   192
  0
VERTEX
  5
1CE
  8
0
 10
18.56423568725586
 20
67.73390197753906
 30
18.35152053833008
 70
   192
  0
VERTEX
  5
1CF
  8
0
 10
16.19375038146973
 20
75.04346466064453
 30
20.45060348510742
 70
   192
  0
VERTEX
  5
1D0
  8
0
 10
15.83887100219727
 20
67.66118621826172
 30
21.16824340820312
 70
   192
  0
VERTEX
  5
1D1
  8
0
 10
20.87298202514648
 20
75.15948486328125
 30
15.37431049346924
 70
   192
  0
VERTEX
  5
1D2
  8
0
 10
14.08674621582031
 20
71.32238006591797
 30
22.2789363861084
 70
   192
  0
VERTEX
  5
1D3
  8
0
 10
9.785888671875
 20
71.26094818115234
 30
24.62507629394531
 70
   192
  0
VERTEX
  5
1D4
  8
0
 10
12.66778182983398
 20
67.6248779296875
 30
23.44625091552734
 70
   192
  0
VERTEX
  5
1D5
  8
0
 10
9.149327278137207
 20
67.56148529052734
 30
25.18647956848145
 70
   192
  0
VERTEX
  5
1D6
  8
0
 10
5.102214813232422
 20
71.22297668457031
 30
26.07504463195801
 70
   192
  0
VERTEX
  5
1D7
  8
0
 10
3.675730228424072
 20
74.92024993896484
 30
25.97270774841309
 70
   192
  0
VERTEX
  5
1D8
  8
0
 10
7.067253112792969
 20
74.93641662597656
 30
25.29128265380859
 70
   192
  0
VERTEX
  5
1D9
  8
0
 10
0.2254545539617538
 20
73.94947814941406
 30
26.35294532775879
 70
   192
  0
VERTEX
  5
1DA
  8
0
 10
13.3888111114502
 20
75.00078582763672
 30
22.47647094726562
 70
   192
  0
VERTEX
  5
1DB
  8
0
 10
10.3206262588501
 20
74.96459197998047
 30
24.0865421295166
 70
   192
  0
VERTEX
  5
1DC
  8
0
 10
9.638836860656738
 20
75.21920013427734
 30
24.2690315246582
 70
   192
  0
VERTEX
  5
1DD
  8
0
 10
13.90478801727295
 20
75.28011322021484
 30
22.01748847961426
 70
   192
  0
VERTEX
  5
1DE
  8
0
 10
5.02216625213623
 20
75.181640625
 30
25.67007255554199
 70
   192
  0
VERTEX
  5
1DF
  8
0
 10
17.66242599487305
 20
75.3633041381836
 30
18.99452972412109
 70
   192
  0
VERTEX
  5
1E0
  8
0
 10
20.78520584106445
 20
75.461669921875
 30
15.32074069976807
 70
   192
  0
VERTEX
  5
1E1
  8
0
 10
24.6545352935791
 20
75.68559265136719
 30
6.769407749176025
 70
   192
  0
VERTEX
  5
1E2
  8
0
 10
23.02964019775391
 20
75.56379699707031
 30
11.420729637146
 70
   192
  0
VERTEX
  5
1E3
  8
0
 10
25.36346244812012
 20
75.8234634399414
 30
1.504462718963623
 70
   192
  0
VERTEX
  5
1E4
  8
0
 10
24.53183555603027
 20
75.36096954345703
 30
7.679932117462158
 70
   192
  0
VERTEX
  5
1E5
  8
0
 10
23.02909851074219
 20
75.25615692138672
 30
11.68242359161377
 70
   192
  0
VERTEX
  5
1E6
  8
0
 10
24.90297698974609
 20
75.97003936767578
 30
-4.093205451965332
 70
   192
  0
VERTEX
  5
1E7
  8
0
 10
16.18424415588379
 20
76.35420989990234
 30
-18.76411819458008
 70
   192
  0
VERTEX
  5
1E8
  8
0
 10
20.15511703491211
 20
76.24616241455078
 30
-14.63767147064209
 70
   192
  0
VERTEX
  5
1E9
  8
0
 10
21.53409194946289
 20
75.89865112304688
 30
-12.85335350036621
 70
   192
  0
VERTEX
  5
1EA
  8
0
 10
18.94989585876465
 20
75.9878921508789
 30
-16.26140022277832
 70
   192
  0
VERTEX
  5
1EB
  8
0
 10
11.61170482635498
 20
76.43323516845703
 30
-21.78176498413086
 70
   192
  0
VERTEX
  5
1EC
  8
0
 10
12.27357864379883
 20
76.1263656616211
 30
-21.54959487915039
 70
   192
  0
VERTEX
  5
1ED
  8
0
 10
-2.195789098739624
 20
76.5043716430664
 30
-24.4984302520752
 70
   192
  0
VERTEX
  5
1EE
  8
0
 10
6.837404251098633
 20
76.48229217529297
 30
-23.65532875061035
 70
   192
  0
VERTEX
  5
1EF
  8
0
 10
-16.18424415588379
 20
76.35420989990234
 30
-18.76411819458008
 70
   192
  0
VERTEX
  5
1F0
  8
0
 10
-11.61170482635498
 20
76.43323516845703
 30
-21.78176498413086
 70
   192
  0
VERTEX
  5
1F1
  8
0
 10
-6.837404251098633
 20
76.48229217529297
 30
-23.65532875061035
 70
   192
  0
VERTEX
  5
1F2
  8
0
 10
-23.14605331420898
 20
76.11481475830078
 30
-9.621910095214844
 70
   192
  0
VERTEX
  5
1F3
  8
0
 10
-20.15511703491211
 20
76.24616241455078
 30
-14.63767147064209
 70
   192
  0
VERTEX
  5
1F4
  8
0
 10
-24.90297698974609
 20
75.97003936767578
 30
-4.093205451965332
 70
   192
  0
VERTEX
  5
1F5
  8
0
 10
-25.36346244812012
 20
75.8234634399414
 30
1.504462718963623
 70
   192
  0
VERTEX
  5
1F6
  8
0
 10
-24.6545352935791
 20
75.68559265136719
 30
6.769407749176025
 70
   192
  0
VERTEX
  5
1F7
  8
0
 10
-24.64179801940918
 20
75.8912582397461
 30
5.584475994110107
 70
   192
  0
VERTEX
  5
1F8
  8
0
 10
-23.14888381958008
 20
75.7627182006836
 30
10.4931640625
 70
   192
  0
VERTEX
  5
1F9
  8
0
 10
-23.02964019775391
 20
75.56379699707031
 30
11.420729637146
 70
   192
  0
VERTEX
  5
1FA
  8
0
 10
2.195789098739624
 20
76.5043716430664
 30
-24.4984302520752
 70
   192
  0
VERTEX
  5
1FB
  8
0
 10
23.14605331420898
 20
76.11481475830078
 30
-9.621910095214844
 70
   192
  0
VERTEX
  5
1FC
  8
0
 10
23.50535774230957
 20
75.79948425292969
 30
-9.066484451293945
 70
   192
  0
VERTEX
  5
1FD
  8
0
 10
25.34071731567383
 20
75.47085571289062
 30
3.483365535736084
 70
   192
  0
VERTEX
  5
1FE
  8
0
 10
25.43523597717285
 20
75.58267211914062
 30
-0.7866215705871582
 70
   192
  0
VERTEX
  5
1FF
  8
0
 10
24.81667137145996
 20
75.6932373046875
 30
-5.009037017822266
 70
   192
  0
VERTEX
  5
200
  8
0
 10
15.8328685760498
 20
76.06450653076172
 30
-19.18712615966797
 70
   192
  0
VERTEX
  5
201
  8
0
 10
8.373740196228027
 20
76.17180633544922
 30
-23.28477668762207
 70
   192
  0
VERTEX
  5
202
  8
0
 10
4.256551265716553
 20
76.1995849609375
 30
-24.34550285339355
 70
   192
  0
VERTEX
  5
203
  8
0
 10
-15.68288803100586
 20
77.62432098388672
 30
7.029265403747559
 70
   192
  0
VERTEX
  5
204
  8
0
 10
-16.58556938171387
 20
77.70650482177734
 30
3.890829086303711
 70
   192
  0
VERTEX
  5
205
  8
0
 10
-8.315057754516602
 20
78.82079315185547
 30
2.389004707336426
 70
   192
  0
VERTEX
  5
206
  8
0
 10
-5.979458808898926
 20
78.70454406738281
 30
6.828220367431641
 70
   192
  0
VERTEX
  5
207
  8
0
 10
-4.62733268737793
 20
78.67579650878906
 30
7.926212787628174
 70
   192
  0
VERTEX
  5
208
  8
0
 10
-11.92688274383545
 20
77.47463989257812
 30
12.74547672271729
 70
   192
  0
VERTEX
  5
209
  8
0
 10
-7.077827930450439
 20
78.73993682861328
 30
5.47655725479126
 70
   192
  0
VERTEX
  5
20A
  8
0
 10
-3.112694263458252
 20
78.6552505493164
 30
8.71062183380127
 70
   192
  0
VERTEX
  5
20B
  8
0
 10
-1.538721799850464
 20
78.6434097290039
 30
9.163019180297852
 70
   192
  0
VERTEX
  5
20C
  8
0
 10
-3.069199800491333
 20
77.35269165039062
 30
17.40256690979004
 70
   192
  0
VERTEX
  5
20D
  8
0
 10
-7.862505435943604
 20
78.77958679199219
 30
3.962437868118286
 70
   192
  0
VERTEX
  5
20E
  8
0
 10
-14.11773681640625
 20
77.54523468017578
 30
10.04939270019531
 70
   192
  0
VERTEX
  5
20F
  8
0
 10
-9.229874610900879
 20
77.41728973388672
 30
14.93558025360107
 70
   192
  0
VERTEX
  5
210
  8
0
 10
-6.208712100982666
 20
77.3763198852539
 30
16.50019454956055
 70
   192
  0
VERTEX
  5
211
  8
0
 10
0.000000000000023
 20
73.94944763183594
 30
26.35393714904785
 70
   192
  0
VERTEX
  5
212
  8
0
 10
-3.900202035903931
 20
68.09442901611328
 30
91.56072235107422
 70
   192
  0
VERTEX
  5
213
  8
0
 10
-4.681395053863525
 20
65.84182739257812
 30
91.48735809326172
 70
   192
  0
VERTEX
  5
214
  8
0
 10
-4.499935150146484
 20
65.8407974243164
 30
91.54105377197266
 70
   192
  0
VERTEX
  5
215
  8
0
 10
-2.252528190612793
 20
69.7453384399414
 30
91.57513427734375
 70
   192
  0
VERTEX
  5
216
  8
0
 10
-0.0000000528398125
 20
70.35003662109375
 30
91.58040618896484
 70
   192
  0
VERTEX
  5
217
  8
0
 10
0.0000000025709637
 20
70.70114135742188
 30
91.44055938720703
 70
   192
  0
VERTEX
  5
218
  8
0
 10
-4.206704139709473
 20
68.27186584472656
 30
91.41584777832031
 70
   192
  0
VERTEX
  5
219
  8
0
 10
-2.430337190628052
 20
70.05242919921875
 30
91.43138122558594
 70
   192
  0
VERTEX
  5
21A
  8
0
 10
-1.871284484863281
 20
70.4908218383789
 30
91.0899658203125
 70
   192
  0
VERTEX
  5
21B
  8
0
 10
-3.587234735488892
 20
69.33718872070312
 30
91.07762908935547
 70
   192
  0
VERTEX
  5
21C
  8
0
 10
-4.508782386779785
 20
68.01524353027344
 30
91.0640869140625
 70
   192
  0
VERTEX
  5
21D
  8
0
 10
-5.0
 20
65.85389709472656
 30
91.0411605834961
 70
   192
  0
VERTEX
  5
21E
  8
0
 10
-4.848083019256592
 20
65.84619903564453
 30
91.32072448730469
 70
   192
  0
VERTEX
  5
21F
  8
0
 10
4.499935150146484
 20
65.8407974243164
 30
91.54105377197266
 70
   192
  0
VERTEX
  5
220
  8
0
 10
3.900274753570557
 20
68.09427642822266
 30
91.56072235107422
 70
   192
  0
VERTEX
  5
221
  8
0
 10
2.253323793411255
 20
69.74519348144531
 30
91.57512664794922
 70
   192
  0
VERTEX
  5
222
  8
0
 10
2.430343627929688
 20
70.05242156982422
 30
91.43138122558594
 70
   192
  0
VERTEX
  5
223
  8
0
 10
4.206703186035156
 20
68.27186584472656
 30
91.41584777832031
 70
   192
  0
VERTEX
  5
224
  8
0
 10
4.847553253173828
 20
65.8461685180664
 30
91.3210678100586
 70
   192
  0
VERTEX
  5
225
  8
0
 10
4.680865287780762
 20
65.84181213378906
 30
91.48770141601562
 70
   192
  0
VERTEX
  5
226
  8
0
 10
3.900202035903931
 20
63.58921432495117
 30
91.4427490234375
 70
   192
  0
VERTEX
  5
227
  8
0
 10
2.252528190612793
 20
61.93981552124023
 30
91.37073516845703
 70
   192
  0
VERTEX
  5
228
  8
0
 10
0.0000000552330057
 20
61.33567428588867
 30
91.3443603515625
 70
   192
  0
VERTEX
  5
229
  8
0
 10
0.0000000000082881
 20
60.99236679077148
 30
91.18632507324219
 70
   192
  0
VERTEX
  5
22A
  8
0
 10
2.430337190628052
 20
61.64067077636719
 30
91.21111297607422
 70
   192
  0
VERTEX
  5
22B
  8
0
 10
4.206704139709473
 20
63.41960525512695
 30
91.28878784179688
 70
   192
  0
VERTEX
  5
22C
  8
0
 10
-2.253323793411255
 20
61.93996047973633
 30
91.37074279785156
 70
   192
  0
VERTEX
  5
22D
  8
0
 10
-3.900274753570557
 20
63.58937072753906
 30
91.44275665283203
 70
   192
  0
VERTEX
  5
22E
  8
0
 10
-4.508577823638916
 20
63.6938591003418
 30
90.95092010498047
 70
   192
  0
VERTEX
  5
22F
  8
0
 10
-3.586628675460815
 20
62.37282180786133
 30
90.89524841308594
 70
   192
  0
VERTEX
  5
230
  8
0
 10
-4.206703186035156
 20
63.41960906982422
 30
91.28878021240234
 70
   192
  0
VERTEX
  5
231
  8
0
 10
-2.430343627929688
 20
61.64067840576172
 30
91.21111297607422
 70
   192
  0
VERTEX
  5
232
  8
0
 10
-1.870901584625244
 20
61.2205924987793
 30
90.84721374511719
 70
   192
  0
VERTEX
  5
233
  8
0
 10
-3.873552322387695
 20
70.6990966796875
 30
26.75450325012207
 70
   192
  0
VERTEX
  5
234
  8
0
 10
-1.064044833183289
 20
72.41866302490234
 30
26.90400123596191
 70
   192
  0
VERTEX
  5
235
  8
0
 10
-1.861917853355408
 20
72.17623138427734
 30
26.87626266479492
 70
   192
  0
VERTEX
  5
236
  8
0
 10
-2.599798679351807
 20
71.8052749633789
 30
26.84002685546875
 70
   192
  0
VERTEX
  5
237
  8
0
 10
-3.278435230255127
 20
71.30747985839844
 30
26.79588317871094
 70
   192
  0
VERTEX
  5
238
  8
0
 10
-4.705220222473145
 20
69.23001861572266
 30
26.72743797302246
 70
   192
  0
VERTEX
  5
239
  8
0
 10
-4.343469142913818
 20
70.00778198242188
 30
26.73347282409668
 70
   192
  0
VERTEX
  5
23A
  8
0
 10
-4.917253971099854
 20
68.42706298828125
 30
26.76034355163574
 70
   192
  0
VERTEX
  5
23B
  8
0
 10
-4.983651638031006
 20
69.600341796875
 30
26.24019432067871
 70
   192
  0
VERTEX
  5
23C
  8
0
 10
-4.722899913787842
 20
69.45014953613281
 30
26.43556976318359
 70
   192
  0
VERTEX
  5
23D
  8
0
 10
-3.863081932067871
 20
71.33369445800781
 30
26.28757858276367
 70
   192
  0
VERTEX
  5
23E
  8
0
 10
-3.676923274993896
 20
71.08476257324219
 30
26.46700096130371
 70
   192
  0
VERTEX
  5
23F
  8
0
 10
-2.199607610702515
 20
72.51426696777344
 30
26.38435173034668
 70
   192
  0
VERTEX
  5
240
  8
0
 10
-2.102864027023315
 20
72.21109008789062
 30
26.54720687866211
 70
   192
  0
VERTEX
  5
241
  8
0
 10
-9.147417068481445
 20
67.56157684326172
 30
25.18648719787598
 70
   192
  0
VERTEX
  5
242
  8
0
 10
-9.785890579223633
 20
71.26090240478516
 30
24.62508010864258
 70
   192
  0
VERTEX
  5
243
  8
0
 10
-14.08674812316895
 20
71.32233428955078
 30
22.27893829345703
 70
   192
  0
VERTEX
  5
244
  8
0
 10
-12.67906475067139
 20
67.61528015136719
 30
23.48465538024902
 70
   192
  0
VERTEX
  5
245
  8
0
 10
-18.56396102905273
 20
67.73373413085938
 30
18.35184288024902
 70
   192
  0
VERTEX
  5
246
  8
0
 10
-17.80920791625977
 20
71.4056167602539
 30
19.09864234924316
 70
   192
  0
VERTEX
  5
247
  8
0
 10
-15.83590221405029
 20
67.66187286376953
 30
21.16371917724609
 70
   192
  0
VERTEX
  5
248
  8
0
 10
-5.102215766906738
 20
71.22293090820312
 30
26.07504844665527
 70
   192
  0
VERTEX
  5
249
  8
0
 10
-18.32049751281738
 20
56.11349105834961
 30
18.6003303527832
 70
   192
  0
VERTEX
  5
24A
  8
0
 10
-5.282371044158936
 20
55.85771560668945
 30
25.89944458007812
 70
   192
  0
VERTEX
  5
24B
  8
0
 10
-10.28800106048584
 20
55.93291473388672
 30
24.30044555664062
 70
   192
  0
VERTEX
  5
24C
  8
0
 10
-14.84396362304688
 20
56.02193450927734
 30
21.67386436462402
 70
   192
  0
VERTEX
  5
24D
  8
0
 10
0.2277676314115524
 20
53.10148239135742
 30
26.28470993041992
 70
   192
  0
VERTEX
  5
24E
  8
0
 10
21.08919715881348
 20
60.03902053833008
 30
15.12981414794922
 70
   192
  0
VERTEX
  5
24F
  8
0
 10
5.282374382019043
 20
55.85759353637695
 30
25.89943885803223
 70
   192
  0
VERTEX
  5
250
  8
0
 10
18.32050704956055
 20
56.11336898803711
 30
18.60031700134277
 70
   192
  0
VERTEX
  5
251
  8
0
 10
14.8439769744873
 20
56.02180862426758
 30
21.67385101318359
 70
   192
  0
VERTEX
  5
252
  8
0
 10
10.28800964355469
 20
55.93279266357422
 30
24.30043792724609
 70
   192
  0
VERTEX
  5
253
  8
0
 10
21.20072364807129
 20
52.23964691162109
 30
15.00369930267334
 70
   192
  0
VERTEX
  5
254
  8
0
 10
25.29850387573242
 20
44.69108581542969
 30
6.030678272247314
 70
   192
  0
VERTEX
  5
255
  8
0
 10
20.54007148742676
 20
57.22845077514648
 30
-15.34678745269775
 70
   192
  0
VERTEX
  5
256
  8
0
 10
18.04009819030762
 20
59.13399124145508
 30
-18.0855712890625
 70
   192
  0
VERTEX
  5
257
  8
0
 10
25.94116973876953
 20
46.94808959960938
 30
1.417115807533264
 70
   192
  0
VERTEX
  5
258
  8
0
 10
25.84634780883789
 20
48.97695159912109
 30
-2.198383331298828
 70
   192
  0
VERTEX
  5
259
  8
0
 10
25.24072265625
 20
51.05945587158203
 30
-5.735991477966309
 70
   192
  0
VERTEX
  5
25A
  8
0
 10
24.14024543762207
 20
53.15983963012695
 30
-9.144180297851562
 70
   192
  0
VERTEX
  5
25B
  8
0
 10
22.56950569152832
 20
55.23038864135742
 30
-12.36270427703857
 70
   192
  0
VERTEX
  5
25C
  8
0
 10
15.09648704528809
 20
60.86291885375977
 30
-20.48871994018555
 70
   192
  0
VERTEX
  5
25D
  8
0
 10
11.74639511108398
 20
62.33464813232422
 30
-22.47757339477539
 70
   192
  0
VERTEX
  5
25E
  8
0
 10
8.051956176757812
 20
63.46525573730469
 30
-23.97270393371582
 70
   192
  0
VERTEX
  5
25F
  8
0
 10
4.114943981170654
 20
64.17644500732422
 30
-24.9007396697998
 70
   192
  0
VERTEX
  5
260
  8
0
 62
   151
 10
0.0
 20
0.0
 30
0.0
 70
   128
 71
     3
 72
     2
 73
     1
  0
VERTEX
  5
261
  8
0
 62
   151
 10
0.0
 20
0.0
 30
0.0
 70
   128
 71
     3
 72
     4
 73
     2
  0
VERTEX
  5
262
  8
0
 62
   151
 10
0.0
 20
0.0
 30
0.0
 70
   128
 71
     1
 72
     2
 73
     5
  0
VERTEX
  5
263
  8
0
 62
   151
 10
0.0
 20
0.0
 30
0.0
 70
   128
 71
     6
 72
     5
 73
     2
  0
VERTEX
  5
264
  8
0
 62
   151
 10
0.0
 20
0.0
 30
0.0
 70
   128
 71
     9
 72
     8
 73
     7
  0
VERTEX
  5
265
  8
0
 62
   151
 10
0.0
 20
0.0
 30
0.0
 70
   128
 71
    12
 72
    11
 73
    10
  0
VERTEX
  5
266
  8
0
 62
   151
 10
0.0
 20
0.0
 30
0.0
 70
   128
 71
     7
 72
    11
 73
    12
  0
VERTEX
  5
267
  8
0
 62
   151
 10
0.0
 20
0.0
 30
0.0
 70
   128
 71
    10
 72
    13
 73
    12
  0
VERTEX
  5
268
  8
0
 62
   151
 10
0.0
 20
0.0
 30
0.0
 70
   128
 71
    14
 72
     9
 73
     7
  0
VERTEX
  5
269
  8
0
 62
   151
 10
0.0
 20
0.0
 30
0.0
 70
   128
 71
    11
 72
     7
 73
    15
  0
VERTEX
  5
26A
  8
0
 62
   151
 10
0.0
 20
0.0
 30
0.0
 70
   128
 71
    15
 72
     7
 73
    16
  0
VERTEX
  5
26B
  8
0
 62
   151
 10
0.0
 20
0.0
 30
0.0
 70
   128
 71
    17
 72
    11
 73
    15
  0
VERTEX
  5
26C
  8
0
 62
   151
 10
0.0
 20
0.0
 30
0.0
 70
   128
 71
    11
 72
    19
 73
    18
  0
VERTEX
  5
26D
  8
0
 62
   151
 10
0.0
 20
0.0
 30
0.0
 70
   128
 71
    17
 72
    19
 73
    11
  0
VERTEX
  5
26E
  8
0
 62
   151
 10
0.0
 20
0.0
 30
0.0
 70
   128
 71
    18
 72
    21
 73
    20
  0
VERTEX
  5
26F
  8
0
 62
   151
 10
0.0
 20
0.0
 30
0.0
 70
   128
 71
    11
 72
    18
 73
    20
  0
VERTEX
  5
270
  8
0
 62
   151
 10
0.0
 20
0.0
 30
0.0
 70
   128
 71
    24
 72
    23
 73
    22
  0
VERTEX
  5
271
  8
0
 62
   151
 10
0.0
 20
0.0
 30
0.0
 70
   128
 71
     7
 72
     8
 73
    16
  0
VERTEX
  5
272
  8
0
 62
   151
 10
0.0
 20
0.0
 30
0.0
 70
   128
 71
    26
 72
    13
 73
    25
  0
VERTEX
  5
273
  8
0
 62
   151
 10
0.0
 20
0.0
 30
0.0
 70
   128
 71
    10
 72
    25
 73
    13
  0
VERTEX
  5
274
  8
0
 62
   151
 10
0.0
 20
0.0
 30
0.0
 70
   128
 71
    22
 72
    26
 73
    25
  0
VERTEX
  5
275
  8
0
 62
   151
 10
0.0
 20
0.0
 30
0.0
 70
   128
 71
    27
 72
     9
 73
    14
  0
VERTEX
  5
276
  8
0
 62
   151
 10
0.0
 20
0.0
 30
0.0
 70
   128
 71
    23
 72
    26
 73
    22
  0
VERTEX
  5
277
  8
0
 62
   151
 10
0.0
 20
0.0
 30
0.0
 70
   128
 71
    28
 72
    23
 73
    24
  0
VERTEX
  5
278
  8
0
 62
   151
 10
0.0
 20
0.0
 30
0.0
 70
   128
 71
    28
 72
    24
 73
    29
  0
VERTEX
  5
279
  8
0
 62
   151
 10
0.0
 20
0.0
 30
0.0
 70
   128
 71
    30
 72
    28
 73
    29
  0
VERTEX
  5
27A
  8
0
 62
   151
 10
0.0
 20
0.0
 30
0.0
 70
   128
 71
    27
 72
    14
 73
    31
  0
VERTEX
  5
27B
  8
0
 62
   151
 10
0.0
 20
0.0
 30
0.0
 70
   128
 71
    30
 72
    33
 73
    32
  0
VERTEX
  5
27C
  8
0
 62
   151
 10
0.0
 20
0.0
 30
0.0
 70
   128
 71
    33
 72
    30
 73
    29
  0
VERTEX
  5
27D
  8
0
 62
   151
 10
0.0
 20
0.0
 30
0.0
 70
   128
 71
    35
 72
    34
 73
    32
  0
VERTEX
  5
27E
  8
0
 62
   151
 10
0.0
 20
0.0
 30
0.0
 70
   128
 71
    32
 72
    33
 73
    35
  0
VERTEX
  5
27F
  8
0
 62
   151
 10
0.0
 20
0.0
 30
0.0
 70
   128
 71
    37
 72
    36
 73
    35
  0
VERTEX
  5
280
  8
0
 62
   151
 10
0.0
 20
0.0
 30
0.0
 70
   128
 71
    34
 72
    35
 73
    36
  0
VERTEX
  5
281
  8
0
 62
   151
 10
0.0
 20
0.0
 30
0.0
 70
   128
 71
    39
 72
    37
 73
    38
  0
VERTEX
  5
282
  8
0
 62
   151
 10
0.0
 20
0.0
 30
0.0
 70
   128
 71
    37
 72
    39
 73
    36
  0
VERTEX
  5
283
  8
0
 62
   151
 10
0.0
 20
0.0
 30
0.0
 70
   128
 71
    38
 72
    40
 73
     5
  0
VERTEX
  5
284
  8
0
 62
   151
 10
0.0
 20
0.0
 30
0.0
 70
   128
 71
     5
 72
    39
 73
    38
  0
VERTEX
  5
285
  8
0
 62
   151
 10
0.0
 20
0.0
 30
0.0
 70
   128
 71
     5
 72
    40
 73
     1
  0
VERTEX
  5
286
  8
0
 62
   151
 10
0.0
 20
0.0
 30
0.0
 70
   128
 71
    40
 72
    41
 73
     3
  0
VERTEX
  5
287
  8
0
 62
   151
 10
0.0
 20
0.0
 30
0.0
 70
   128
 71
     1
 72
    40
 73
     3
  0
VERTEX
  5
288
  8
0
 62
   151
 10
0.0
 20
0.0
 30
0.0
 70
   128
 71
    40
 72
    43
 73
    42
  0
VERTEX
  5
289
  8
0
 62
   151
 10
0.0
 20
0.0
 30
0.0
 70
   128
 71
    41
 72
    40
 73
    42
  0
VERTEX
  5
28A
  8
0
 62
   151
 10
0.0
 20
0.0
 30
0.0
 70
   128
 71
    45
 72
    44
 73
    43
  0
VERTEX
  5
28B
  8
0
 62
   151
 10
0.0
 20
0.0
 30
0.0
 70
   128
 71
    40
 72
    46
 73
    43
  0
VERTEX
  5
28C
  8
0
 62
   151
 10
0.0
 20
0.0
 30
0.0
 70
   128
 71
    47
 72
    45
 73
    46
  0
VERTEX
  5
28D
  8
0
 62
   151
 10
0.0
 20
0.0
 30
0.0
 70
   128
 71
    46
 72
    45
 73
    43
  0
VERTEX
  5
28E
  8
0
 62
   151
 10
0.0
 20
0.0
 30
0.0
 70
   128
 71
    47
 72
    46
 73
    48
  0
VERTEX
  5
28F
  8
0
 62
   151
 10
0.0
 20
0.0
 30
0.0
 70
   128
 71
    50
 72
    46
 73
    49
  0
VERTEX
  5
290
  8
0
 62
   151
 10
0.0
 20
0.0
 30
0.0
 70
   128
 71
    50
 72
    48
 73
    46
  0
VERTEX
  5
291
  8
0
 62
   151
 10
0.0
 20
0.0
 30
0.0
 70
   128
 71
    53
 72
    52
 73
    51
  0
VERTEX
  5
292
  8
0
 62
   151
 10
0.0
 20
0.0
 30
0.0
 70
   128
 71
    51
 72
    52
 73
    54
  0
VERTEX
  5
293
  8
0
 62
   151
 10
0.0
 20
0.0
 30
0.0
 70
   128
 71
    54
 72
    55
 73
    51
  0
VERTEX
  5
294
  8
0
 62
   151
 10
0.0
 20
0.0
 30
0.0
 70
   128
 71
    56
 72
    55
 73
    54
  0
VERTEX
  5
295
  8
0
 62
   151
 10
0.0
 20
0.0
 30
0.0
 70
   128
 71
    59
 72
    58
 73
    57
  0
VERTEX
  5
296
  8
0
 62
   151
 10
0.0
 20
0.0
 30
0.0
 70
   128
 71
    61
 72
    60
 73
    57
  0
VERTEX
  5
297
  8
0
 62
   151
 10
0.0
 20
0.0
 30
0.0
 70
   128
 71
    60
 72
    59
 73
    57
  0
VERTEX
  5
298
  8
0
 62
   151
 10
0.0
 20
0.0
 30
0.0
 70
   128
 71
    64
 72
    63
 73
    62
  0
VERTEX
  5
299
  8
0
 62
   151
 10
0.0
 20
0.0
 30
0.0
 70
   128
 71
    67
 72
    66
 73
    65
  0
VERTEX
  5
29A
  8
0
 62
   151
 10
0.0
 20
0.0
 30
0.0
 70
   128
 71
    62
 72
    69
 73
    68
  0
VERTEX
  5
29B
  8
0
 62
   151
 10
0.0
 20
0.0
 30
0.0
 70
   128
 71
    68
 72
    64
 73
    62
  0
VERTEX
  5
29C
  8
0
 62
   151
 10
0.0
 20
0.0
 30
0.0
 70
   128
 71
    68
 72
    69
 73
    70
  0
VERTEX
  5
29D
  8
0
 62
   151
 10
0.0
 20
0.0
 30
0.0
 70
   128
 71
    71
 72
    70
 73
    69
  0
VERTEX
  5
29E
  8
0
 62
   151
 10
0.0
 20
0.0
 30
0.0
 70
   128
 71
    72
 72
    63
 73
    64
  0
VERTEX
  5
29F
  8
0
 62
   151
 10
0.0
 20
0.0
 30
0.0
 70
   128
 71
    74
 72
    73
 73
    72
  0
VERTEX
  5
2A0
  8
0
 62
   151
 10
0.0
 20
0.0
 30
0.0
 70
   128
 71
    72
 72
    64
 73
    74
  0
VERTEX
  5
2A1
  8
0
 62
   151
 10
0.0
 20
0.0
 30
0.0
 70
   128
 71
    76
 72
    75
 73
    74
  0
VERTEX
  5
2A2
  8
0
 62
   151
 10
0.0
 20
0.0
 30
0.0
 70
   128
 71
    73
 72
    74
 73
    75
  0
VERTEX
  5
2A3
  8
0
 62
   151
 10
0.0
 20
0.0
 30
0.0
 70
   128
 71
    67
 72
    77
 73
    76
  0
VERTEX
  5
2A4
  8
0
 62
   151
 10
0.0
 20
0.0
 30
0.0
 70
   128
 71
    76
 72
    77
 73
    75
  0
VERTEX
  5
2A5
  8
0
 62
   151
 10
0.0
 20
0.0
 30
0.0
 70
   128
 71
    66
 72
    67
 73
    76
  0
VERTEX
  5
2A6
  8
0
 62
   151
 10
0.0
 20
0.0
 30
0.0
 70
   128
 71
    80
 72
    79
 73
    78
  0
VERTEX
  5
2A7
  8
0
 62
   151
 10
0.0
 20
0.0
 30
0.0
 70
   128
 71
    78
 72
    65
 73
    66
  0
VERTEX
  5
2A8
  8
0
 62
   151
 10
0.0
 20
0.0
 30
0.0
 70
   128
 71
    83
 72
    82
 73
    81
  0
VERTEX
  5
2A9
  8
0
 62
   151
 10
0.0
 20
0.0
 30
0.0
 70
   128
 71
    84
 72
    80
 73
    82
  0
VERTEX
  5
2AA
  8
0
 62
   151
 10
0.0
 20
0.0
 30
0.0
 70
   128
 71
    87
 72
    86
 73
    85
  0
VERTEX
  5
2AB
  8
0
 62
   151
 10
0.0
 20
0.0
 30
0.0
 70
   128
 71
    88
 72
    81
 73
    86
  0
VERTEX
  5
2AC
  8
0
 62
   151
 10
0.0
 20
0.0
 30
0.0
 70
   128
 71
    85
 72
    90
 73
    89
  0
VERTEX
  5
2AD
  8
0
 62
   151
 10
0.0
 20
0.0
 30
0.0
 70
   128
 71
    89
 72
    87
 73
    85
  0
VERTEX
  5
2AE
  8
0
 62
   151
 10
0.0
 20
0.0
 30
0.0
 70
   128
 71
    89
 72
    90
 73
    91
  0
VERTEX
  5
2AF
  8
0
 62
   151
 10
0.0
 20
0.0
 30
0.0
 70
   128
 71
    87
 72
    88
 73
    86
  0
VERTEX
  5
2B0
  8
0
 62
   151
 10
0.0
 20
0.0
 30
0.0
 70
   128
 71
    81
 72
    82
 73
    86
  0
VERTEX
  5
2B1
  8
0
 62
   151
 10
0.0
 20
0.0
 30
0.0
 70
   128
 71
    84
 72
    82
 73
    83
  0
VERTEX
  5
2B2
  8
0
 62
   151
 10
0.0
 20
0.0
 30
0.0
 70
   128
 71
    79
 72
    80
 73
    84
  0
VERTEX
  5
2B3
  8
0
 62
   151
 10
0.0
 20
0.0
 30
0.0
 70
   128
 71
    66
 72
    80
 73
    78
  0
VERTEX
  5
2B4
  8
0
 62
   151
 10
0.0
 20
0.0
 30
0.0
 70
   128
 71
    94
 72
    93
 73
    92
  0
VERTEX
  5
2B5
  8
0
 62
   151
 10
0.0
 20
0.0
 30
0.0
 70
   128
 71
    92
 72
    96
 73
    95
  0
VERTEX
  5
2B6
  8
0
 62
   151
 10
0.0
 20
0.0
 30
0.0
 70
   128
 71
    95
 72
    94
 73
    92
  0
VERTEX
  5
2B7
  8
0
 62
   151
 10
0.0
 20
0.0
 30
0.0
 70
   128
 71
    98
 72
    95
 73
    97
  0
VERTEX
  5
2B8
  8
0
 62
   151
 10
0.0
 20
0.0
 30
0.0
 70
   128
 71
   101
 72
   100
 73
    99
  0
VERTEX
  5
2B9
  8
0
 62
   151
 10
0.0
 20
0.0
 30
0.0
 70
   128
 71
   101
 72
   102
 73
   100
  0
VERTEX
  5
2BA
  8
0
 62
   151
 10
0.0
 20
0.0
 30
0.0
 70
   128
 71
   103
 72
   101
 73
    99
  0
VERTEX
  5
2BB
  8
0
 62
   151
 10
0.0
 20
0.0
 30
0.0
 70
   128
 71
   105
 72
   104
 73
    93
  0
VERTEX
  5
2BC
  8
0
 62
   151
 10
0.0
 20
0.0
 30
0.0
 70
   128
 71
   101
 72
   103
 73
   106
  0
VERTEX
  5
2BD
  8
0
 62
   151
 10
0.0
 20
0.0
 30
0.0
 70
   128
 71
    98
 72
    94
 73
    95
  0
VERTEX
  5
2BE
  8
0
 62
   151
 10
0.0
 20
0.0
 30
0.0
 70
   128
 71
   105
 72
    98
 73
   107
  0
VERTEX
  5
2BF
  8
0
 62
   151
 10
0.0
 20
0.0
 30
0.0
 70
   128
 71
   108
 72
   104
 73
   105
  0
VERTEX
  5
2C0
  8
0
 62
   151
 10
0.0
 20
0.0
 30
0.0
 70
   128
 71
   104
 72
   108
 73
   109
  0
VERTEX
  5
2C1
  8
0
 62
   151
 10
0.0
 20
0.0
 30
0.0
 70
   128
 71
    95
 72
    96
 73
    97
  0
VERTEX
  5
2C2
  8
0
 62
   151
 10
0.0
 20
0.0
 30
0.0
 70
   128
 71
   111
 72
   110
 73
    96
  0
VERTEX
  5
2C3
  8
0
 62
   151
 10
0.0
 20
0.0
 30
0.0
 70
   128
 71
   105
 72
    94
 73
    98
  0
VERTEX
  5
2C4
  8
0
 62
   151
 10
0.0
 20
0.0
 30
0.0
 70
   128
 71
   113
 72
   112
 73
   111
  0
VERTEX
  5
2C5
  8
0
 62
   151
 10
0.0
 20
0.0
 30
0.0
 70
   128
 71
   111
 72
   112
 73
   110
  0
VERTEX
  5
2C6
  8
0
 62
   151
 10
0.0
 20
0.0
 30
0.0
 70
   128
 71
    92
 72
   111
 73
    96
  0
VERTEX
  5
2C7
  8
0
 62
   151
 10
0.0
 20
0.0
 30
0.0
 70
   128
 71
    96
 72
   110
 73
    97
  0
VERTEX
  5
2C8
  8
0
 62
   151
 10
0.0
 20
0.0
 30
0.0
 70
   128
 71
   102
 72
   113
 73
   100
  0
VERTEX
  5
2C9
  8
0
 62
   151
 10
0.0
 20
0.0
 30
0.0
 70
   128
 71
   100
 72
    92
 73
    99
  0
VERTEX
  5
2CA
  8
0
 62
   151
 10
0.0
 20
0.0
 30
0.0
 70
   128
 71
   113
 72
   111
 73
    92
  0
VERTEX
  5
2CB
  8
0
 62
   151
 10
0.0
 20
0.0
 30
0.0
 70
   128
 71
   113
 72
   102
 73
   112
  0
VERTEX
  5
2CC
  8
0
 62
   151
 10
0.0
 20
0.0
 30
0.0
 70
   128
 71
   100
 72
   113
 73
    92
  0
VERTEX
  5
2CD
  8
0
 62
   151
 10
0.0
 20
0.0
 30
0.0
 70
   128
 71
    99
 72
    92
 73
   114
  0
VERTEX
  5
2CE
  8
0
 62
   151
 10
0.0
 20
0.0
 30
0.0
 70
   128
 71
    99
 72
   114
 73
   103
  0
VERTEX
  5
2CF
  8
0
 62
   151
 10
0.0
 20
0.0
 30
0.0
 70
   128
 71
    93
 72
    94
 73
   105
  0
VERTEX
  5
2D0
  8
0
 62
   151
 10
0.0
 20
0.0
 30
0.0
 70
   128
 71
   105
 72
   107
 73
   108
  0
VERTEX
  5
2D1
  8
0
 62
   151
 10
0.0
 20
0.0
 30
0.0
 70
   128
 71
    98
 72
   115
 73
   107
  0
VERTEX
  5
2D2
  8
0
 62
   151
 10
0.0
 20
0.0
 30
0.0
 70
   128
 71
    97
 72
   116
 73
   115
  0
VERTEX
  5
2D3
  8
0
 62
   151
 10
0.0
 20
0.0
 30
0.0
 70
   128
 71
    98
 72
    97
 73
   115
  0
VERTEX
  5
2D4
  8
0
 62
   151
 10
0.0
 20
0.0
 30
0.0
 70
   128
 71
   110
 72
   117
 73
   116
  0
VERTEX
  5
2D5
  8
0
 62
   151
 10
0.0
 20
0.0
 30
0.0
 70
   128
 71
    97
 72
   110
 73
   116
  0
VERTEX
  5
2D6
  8
0
 62
   151
 10
0.0
 20
0.0
 30
0.0
 70
   128
 71
   112
 72
   118
 73
   117
  0
VERTEX
  5
2D7
  8
0
 62
   151
 10
0.0
 20
0.0
 30
0.0
 70
   128
 71
   110
 72
   112
 73
   117
  0
VERTEX
  5
2D8
  8
0
 62
   151
 10
0.0
 20
0.0
 30
0.0
 70
   128
 71
   102
 72
   119
 73
   118
  0
VERTEX
  5
2D9
  8
0
 62
   151
 10
0.0
 20
0.0
 30
0.0
 70
   128
 71
   112
 72
   102
 73
   118
  0
VERTEX
  5
2DA
  8
0
 62
   151
 10
0.0
 20
0.0
 30
0.0
 70
   128
 71
   101
 72
   120
 73
   119
  0
VERTEX
  5
2DB
  8
0
 62
   151
 10
0.0
 20
0.0
 30
0.0
 70
   128
 71
   102
 72
   101
 73
   119
  0
VERTEX
  5
2DC
  8
0
 62
   151
 10
0.0
 20
0.0
 30
0.0
 70
   128
 71
   106
 72
   120
 73
   101
  0
VERTEX
  5
2DD
  8
0
 62
   151
 10
0.0
 20
0.0
 30
0.0
 70
   128
 71
   122
 72
   121
 73
    92
  0
VERTEX
  5
2DE
  8
0
 62
   151
 10
0.0
 20
0.0
 30
0.0
 70
   128
 71
    92
 72
   124
 73
   123
  0
VERTEX
  5
2DF
  8
0
 62
   151
 10
0.0
 20
0.0
 30
0.0
 70
   128
 71
   123
 72
   122
 73
    92
  0
VERTEX
  5
2E0
  8
0
 62
   151
 10
0.0
 20
0.0
 30
0.0
 70
   128
 71
   126
 72
   123
 73
   125
  0
VERTEX
  5
2E1
  8
0
 62
   151
 10
0.0
 20
0.0
 30
0.0
 70
   128
 71
   129
 72
   128
 73
   127
  0
VERTEX
  5
2E2
  8
0
 62
   151
 10
0.0
 20
0.0
 30
0.0
 70
   128
 71
   129
 72
   130
 73
   128
  0
VERTEX
  5
2E3
  8
0
 62
   151
 10
0.0
 20
0.0
 30
0.0
 70
   128
 71
   104
 72
   129
 73
   127
  0
VERTEX
  5
2E4
  8
0
 62
   151
 10
0.0
 20
0.0
 30
0.0
 70
   128
 71
   132
 72
   131
 73
   121
  0
VERTEX
  5
2E5
  8
0
 62
   151
 10
0.0
 20
0.0
 30
0.0
 70
   128
 71
   129
 72
   104
 73
   109
  0
VERTEX
  5
2E6
  8
0
 62
   151
 10
0.0
 20
0.0
 30
0.0
 70
   128
 71
   126
 72
   122
 73
   123
  0
VERTEX
  5
2E7
  8
0
 62
   151
 10
0.0
 20
0.0
 30
0.0
 70
   128
 71
   132
 72
   126
 73
   133
  0
VERTEX
  5
2E8
  8
0
 62
   151
 10
0.0
 20
0.0
 30
0.0
 70
   128
 71
   134
 72
   131
 73
   132
  0
VERTEX
  5
2E9
  8
0
 62
   151
 10
0.0
 20
0.0
 30
0.0
 70
   128
 71
   131
 72
   134
 73
   135
  0
VERTEX
  5
2EA
  8
0
 62
   151
 10
0.0
 20
0.0
 30
0.0
 70
   128
 71
   123
 72
   124
 73
   125
  0
VERTEX
  5
2EB
  8
0
 62
   151
 10
0.0
 20
0.0
 30
0.0
 70
   128
 71
   137
 72
   136
 73
   124
  0
VERTEX
  5
2EC
  8
0
 62
   151
 10
0.0
 20
0.0
 30
0.0
 70
   128
 71
   132
 72
   122
 73
   126
  0
VERTEX
  5
2ED
  8
0
 62
   151
 10
0.0
 20
0.0
 30
0.0
 70
   128
 71
   139
 72
   138
 73
   137
  0
VERTEX
  5
2EE
  8
0
 62
   151
 10
0.0
 20
0.0
 30
0.0
 70
   128
 71
   137
 72
   138
 73
   136
  0
VERTEX
  5
2EF
  8
0
 62
   151
 10
0.0
 20
0.0
 30
0.0
 70
   128
 71
    92
 72
   137
 73
   124
  0
VERTEX
  5
2F0
  8
0
 62
   151
 10
0.0
 20
0.0
 30
0.0
 70
   128
 71
   124
 72
   136
 73
   125
  0
VERTEX
  5
2F1
  8
0
 62
   151
 10
0.0
 20
0.0
 30
0.0
 70
   128
 71
   130
 72
   139
 73
   128
  0
VERTEX
  5
2F2
  8
0
 62
   151
 10
0.0
 20
0.0
 30
0.0
 70
   128
 71
   128
 72
    92
 73
   127
  0
VERTEX
  5
2F3
  8
0
 62
   151
 10
0.0
 20
0.0
 30
0.0
 70
   128
 71
   139
 72
   137
 73
    92
  0
VERTEX
  5
2F4
  8
0
 62
   151
 10
0.0
 20
0.0
 30
0.0
 70
   128
 71
   139
 72
   130
 73
   138
  0
VERTEX
  5
2F5
  8
0
 62
   151
 10
0.0
 20
0.0
 30
0.0
 70
   128
 71
   128
 72
   139
 73
    92
  0
VERTEX
  5
2F6
  8
0
 62
   151
 10
0.0
 20
0.0
 30
0.0
 70
   128
 71
   127
 72
    92
 73
    93
  0
VERTEX
  5
2F7
  8
0
 62
   151
 10
0.0
 20
0.0
 30
0.0
 70
   128
 71
   127
 72
    93
 73
   104
  0
VERTEX
  5
2F8
  8
0
 62
   151
 10
0.0
 20
0.0
 30
0.0
 70
   128
 71
   121
 72
   122
 73
   132
  0
VERTEX
  5
2F9
  8
0
 62
   151
 10
0.0
 20
0.0
 30
0.0
 70
   128
 71
   132
 72
   133
 73
   134
  0
VERTEX
  5
2FA
  8
0
 62
   151
 10
0.0
 20
0.0
 30
0.0
 70
   128
 71
   126
 72
   140
 73
   133
  0
VERTEX
  5
2FB
  8
0
 62
   151
 10
0.0
 20
0.0
 30
0.0
 70
   128
 71
   125
 72
   141
 73
   140
  0
VERTEX
  5
2FC
  8
0
 62
   151
 10
0.0
 20
0.0
 30
0.0
 70
   128
 71
   126
 72
   125
 73
   140
  0
VERTEX
  5
2FD
  8
0
 62
   151
 10
0.0
 20
0.0
 30
0.0
 70
   128
 71
   136
 72
   142
 73
   141
  0
VERTEX
  5
2FE
  8
0
 62
   151
 10
0.0
 20
0.0
 30
0.0
 70
   128
 71
   125
 72
   136
 73
   141
  0
VERTEX
  5
2FF
  8
0
 62
   151
 10
0.0
 20
0.0
 30
0.0
 70
   128
 71
   138
 72
   143
 73
   142
  0
VERTEX
  5
300
  8
0
 62
   151
 10
0.0
 20
0.0
 30
0.0
 70
   128
 71
   136
 72
   138
 73
   142
  0
VERTEX
  5
301
  8
0
 62
   151
 10
0.0
 20
0.0
 30
0.0
 70
   128
 71
   130
 72
   144
 73
   143
  0
VERTEX
  5
302
  8
0
 62
   151
 10
0.0
 20
0.0
 30
0.0
 70
   128
 71
   138
 72
   130
 73
   143
  0
VERTEX
  5
303
  8
0
 62
   151
 10
0.0
 20
0.0
 30
0.0
 70
   128
 71
   129
 72
   145
 73
   144
  0
VERTEX
  5
304
  8
0
 62
   151
 10
0.0
 20
0.0
 30
0.0
 70
   128
 71
   130
 72
   129
 73
   144
  0
VERTEX
  5
305
  8
0
 62
   151
 10
0.0
 20
0.0
 30
0.0
 70
   128
 71
   109
 72
   145
 73
   129
  0
VERTEX
  5
306
  8
0
 62
   151
 10
0.0
 20
0.0
 30
0.0
 70
   128
 71
   147
 72
    92
 73
   146
  0
VERTEX
  5
307
  8
0
 62
   151
 10
0.0
 20
0.0
 30
0.0
 70
   128
 71
   150
 72
   149
 73
   148
  0
VERTEX
  5
308
  8
0
 62
   151
 10
0.0
 20
0.0
 30
0.0
 70
   128
 71
   152
 72
   148
 73
   151
  0
VERTEX
  5
309
  8
0
 62
   151
 10
0.0
 20
0.0
 30
0.0
 70
   128
 71
   131
 72
   135
 73
   153
  0
VERTEX
  5
30A
  8
0
 62
   151
 10
0.0
 20
0.0
 30
0.0
 70
   128
 71
   155
 72
   154
 73
   153
  0
VERTEX
  5
30B
  8
0
 62
   151
 10
0.0
 20
0.0
 30
0.0
 70
   128
 71
   157
 72
   156
 73
   151
  0
VERTEX
  5
30C
  8
0
 62
   151
 10
0.0
 20
0.0
 30
0.0
 70
   128
 71
   147
 72
   157
 73
   158
  0
VERTEX
  5
30D
  8
0
 62
   151
 10
0.0
 20
0.0
 30
0.0
 70
   128
 71
   155
 72
    92
 73
   154
  0
VERTEX
  5
30E
  8
0
 62
   151
 10
0.0
 20
0.0
 30
0.0
 70
   128
 71
   160
 72
   159
 73
    92
  0
VERTEX
  5
30F
  8
0
 62
   151
 10
0.0
 20
0.0
 30
0.0
 70
   128
 71
   152
 72
   161
 73
   148
  0
VERTEX
  5
310
  8
0
 62
   151
 10
0.0
 20
0.0
 30
0.0
 70
   128
 71
   148
 72
   157
 73
   151
  0
VERTEX
  5
311
  8
0
 62
   151
 10
0.0
 20
0.0
 30
0.0
 70
   128
 71
   161
 72
   162
 73
   150
  0
VERTEX
  5
312
  8
0
 62
   151
 10
0.0
 20
0.0
 30
0.0
 70
   128
 71
   149
 72
    92
 73
   158
  0
VERTEX
  5
313
  8
0
 62
   151
 10
0.0
 20
0.0
 30
0.0
 70
   128
 71
   165
 72
   164
 73
   163
  0
VERTEX
  5
314
  8
0
 62
   151
 10
0.0
 20
0.0
 30
0.0
 70
   128
 71
   168
 72
   167
 73
   166
  0
VERTEX
  5
315
  8
0
 62
   151
 10
0.0
 20
0.0
 30
0.0
 70
   128
 71
   169
 72
   146
 73
   159
  0
VERTEX
  5
316
  8
0
 62
   151
 10
0.0
 20
0.0
 30
0.0
 70
   128
 71
   158
 72
    92
 73
   147
  0
VERTEX
  5
317
  8
0
 62
   151
 10
0.0
 20
0.0
 30
0.0
 70
   128
 71
   163
 72
   157
 73
   147
  0
VERTEX
  5
318
  8
0
 62
   151
 10
0.0
 20
0.0
 30
0.0
 70
   128
 71
   147
 72
   146
 73
   163
  0
VERTEX
  5
319
  8
0
 62
   151
 10
0.0
 20
0.0
 30
0.0
 70
   128
 71
   169
 72
   171
 73
   170
  0
VERTEX
  5
31A
  8
0
 62
   151
 10
0.0
 20
0.0
 30
0.0
 70
   128
 71
   157
 72
   148
 73
   158
  0
VERTEX
  5
31B
  8
0
 62
   151
 10
0.0
 20
0.0
 30
0.0
 70
   128
 71
   169
 72
   167
 73
   168
  0
VERTEX
  5
31C
  8
0
 62
   151
 10
0.0
 20
0.0
 30
0.0
 70
   128
 71
   167
 72
   159
 73
   160
  0
VERTEX
  5
31D
  8
0
 62
   151
 10
0.0
 20
0.0
 30
0.0
 70
   128
 71
    92
 72
   159
 73
   146
  0
VERTEX
  5
31E
  8
0
 62
   151
 10
0.0
 20
0.0
 30
0.0
 70
   128
 71
   169
 72
   163
 73
   146
  0
VERTEX
  5
31F
  8
0
 62
   151
 10
0.0
 20
0.0
 30
0.0
 70
   128
 71
   159
 72
   167
 73
   169
  0
VERTEX
  5
320
  8
0
 62
   151
 10
0.0
 20
0.0
 30
0.0
 70
   128
 71
   160
 72
   155
 73
   172
  0
VERTEX
  5
321
  8
0
 62
   151
 10
0.0
 20
0.0
 30
0.0
 70
   128
 71
    92
 72
   155
 73
   160
  0
VERTEX
  5
322
  8
0
 62
   151
 10
0.0
 20
0.0
 30
0.0
 70
   128
 71
   160
 72
   172
 73
   167
  0
VERTEX
  5
323
  8
0
 62
   151
 10
0.0
 20
0.0
 30
0.0
 70
   128
 71
   155
 72
   153
 73
   172
  0
VERTEX
  5
324
  8
0
 62
   151
 10
0.0
 20
0.0
 30
0.0
 70
   128
 71
   154
 72
   121
 73
   131
  0
VERTEX
  5
325
  8
0
 62
   151
 10
0.0
 20
0.0
 30
0.0
 70
   128
 71
   121
 72
   154
 73
    92
  0
VERTEX
  5
326
  8
0
 62
   151
 10
0.0
 20
0.0
 30
0.0
 70
   128
 71
   158
 72
   148
 73
   149
  0
VERTEX
  5
327
  8
0
 62
   151
 10
0.0
 20
0.0
 30
0.0
 70
   128
 71
   150
 72
   148
 73
   161
  0
VERTEX
  5
328
  8
0
 62
   151
 10
0.0
 20
0.0
 30
0.0
 70
   128
 71
   157
 72
   173
 73
   156
  0
VERTEX
  5
329
  8
0
 62
   151
 10
0.0
 20
0.0
 30
0.0
 70
   128
 71
   173
 72
   157
 73
   164
  0
VERTEX
  5
32A
  8
0
 62
   151
 10
0.0
 20
0.0
 30
0.0
 70
   128
 71
   157
 72
   163
 73
   164
  0
VERTEX
  5
32B
  8
0
 62
   151
 10
0.0
 20
0.0
 30
0.0
 70
   128
 71
   165
 72
   163
 73
   170
  0
VERTEX
  5
32C
  8
0
 62
   151
 10
0.0
 20
0.0
 30
0.0
 70
   128
 71
   163
 72
   169
 73
   170
  0
VERTEX
  5
32D
  8
0
 62
   151
 10
0.0
 20
0.0
 30
0.0
 70
   128
 71
   171
 72
   169
 73
   168
  0
VERTEX
  5
32E
  8
0
 62
   151
 10
0.0
 20
0.0
 30
0.0
 70
   128
 71
   167
 72
   174
 73
   166
  0
VERTEX
  5
32F
  8
0
 62
   151
 10
0.0
 20
0.0
 30
0.0
 70
   128
 71
   172
 72
   174
 73
   167
  0
VERTEX
  5
330
  8
0
 62
   151
 10
0.0
 20
0.0
 30
0.0
 70
   128
 71
   172
 72
   175
 73
   174
  0
VERTEX
  5
331
  8
0
 62
   151
 10
0.0
 20
0.0
 30
0.0
 70
   128
 71
   154
 72
   131
 73
   153
  0
VERTEX
  5
332
  8
0
 62
   151
 10
0.0
 20
0.0
 30
0.0
 70
   128
 71
   153
 72
   175
 73
   172
  0
VERTEX
  5
333
  8
0
 62
   151
 10
0.0
 20
0.0
 30
0.0
 70
   128
 71
   175
 72
   153
 73
   135
  0
VERTEX
  5
334
  8
0
 62
   151
 10
0.0
 20
0.0
 30
0.0
 70
   128
 71
     8
 72
     9
 73
   176
  0
VERTEX
  5
335
  8
0
 62
   151
 10
0.0
 20
0.0
 30
0.0
 70
   128
 71
   178
 72
   177
 73
    31
  0
VERTEX
  5
336
  8
0
 62
   151
 10
0.0
 20
0.0
 30
0.0
 70
   128
 71
   180
 72
   179
 73
    15
  0
VERTEX
  5
337
  8
0
 62
   151
 10
0.0
 20
0.0
 30
0.0
 70
   128
 71
    16
 72
   180
 73
    15
  0
VERTEX
  5
338
  8
0
 62
   151
 10
0.0
 20
0.0
 30
0.0
 70
   128
 71
    17
 72
   181
 73
    19
  0
VERTEX
  5
339
  8
0
 62
   151
 10
0.0
 20
0.0
 30
0.0
 70
   128
 71
    17
 72
    15
 73
   181
  0
VERTEX
  5
33A
  8
0
 62
   151
 10
0.0
 20
0.0
 30
0.0
 70
   128
 71
    18
 72
   183
 73
   182
  0
VERTEX
  5
33B
  8
0
 62
   151
 10
0.0
 20
0.0
 30
0.0
 70
   128
 71
   183
 72
    18
 73
    19
  0
VERTEX
  5
33C
  8
0
 62
   151
 10
0.0
 20
0.0
 30
0.0
 70
   128
 71
    21
 72
    18
 73
   184
  0
VERTEX
  5
33D
  8
0
 62
   151
 10
0.0
 20
0.0
 30
0.0
 70
   128
 71
   184
 72
    18
 73
   182
  0
VERTEX
  5
33E
  8
0
 62
   151
 10
0.0
 20
0.0
 30
0.0
 70
   128
 71
   181
 72
    15
 73
   179
  0
VERTEX
  5
33F
  8
0
 62
   151
 10
0.0
 20
0.0
 30
0.0
 70
   128
 71
    19
 72
   181
 73
   183
  0
VERTEX
  5
340
  8
0
 62
   151
 10
0.0
 20
0.0
 30
0.0
 70
   128
 71
   180
 72
    16
 73
   185
  0
VERTEX
  5
341
  8
0
 62
   151
 10
0.0
 20
0.0
 30
0.0
 70
   128
 71
   185
 72
     8
 73
   176
  0
VERTEX
  5
342
  8
0
 62
   151
 10
0.0
 20
0.0
 30
0.0
 70
   128
 71
     8
 72
   185
 73
    16
  0
VERTEX
  5
343
  8
0
 62
   151
 10
0.0
 20
0.0
 30
0.0
 70
   128
 71
     9
 72
   177
 73
   176
  0
VERTEX
  5
344
  8
0
 62
   151
 10
0.0
 20
0.0
 30
0.0
 70
   128
 71
   177
 72
    27
 73
    31
  0
VERTEX
  5
345
  8
0
 62
   151
 10
0.0
 20
0.0
 30
0.0
 70
   128
 71
     9
 72
    27
 73
   177
  0
VERTEX
  5
346
  8
0
 62
   151
 10
0.0
 20
0.0
 30
0.0
 70
   128
 71
    53
 72
     4
 73
   186
  0
VERTEX
  5
347
  8
0
 62
   151
 10
0.0
 20
0.0
 30
0.0
 70
   128
 71
   188
 72
   187
 73
   186
  0
VERTEX
  5
348
  8
0
 62
   151
 10
0.0
 20
0.0
 30
0.0
 70
   128
 71
    42
 72
    43
 73
   189
  0
VERTEX
  5
349
  8
0
 62
   151
 10
0.0
 20
0.0
 30
0.0
 70
   128
 71
   186
 72
     4
 73
   188
  0
VERTEX
  5
34A
  8
0
 62
   151
 10
0.0
 20
0.0
 30
0.0
 70
   128
 71
   187
 72
   188
 73
   189
  0
VERTEX
  5
34B
  8
0
 62
   151
 10
0.0
 20
0.0
 30
0.0
 70
   128
 71
   187
 72
   189
 73
   190
  0
VERTEX
  5
34C
  8
0
 62
   151
 10
0.0
 20
0.0
 30
0.0
 70
   128
 71
   187
 72
   190
 73
   191
  0
VERTEX
  5
34D
  8
0
 62
   151
 10
0.0
 20
0.0
 30
0.0
 70
   128
 71
   193
 72
   192
 73
    44
  0
VERTEX
  5
34E
  8
0
 62
   151
 10
0.0
 20
0.0
 30
0.0
 70
   128
 71
   196
 72
   195
 73
   194
  0
VERTEX
  5
34F
  8
0
 62
   151
 10
0.0
 20
0.0
 30
0.0
 70
   128
 71
   198
 72
    61
 73
   197
  0
VERTEX
  5
350
  8
0
 62
   151
 10
0.0
 20
0.0
 30
0.0
 70
   128
 71
   201
 72
   200
 73
   199
  0
VERTEX
  5
351
  8
0
 62
   151
 10
0.0
 20
0.0
 30
0.0
 70
   128
 71
   197
 72
    57
 73
    58
  0
VERTEX
  5
352
  8
0
 62
   151
 10
0.0
 20
0.0
 30
0.0
 70
   128
 71
    57
 72
   197
 73
    61
  0
VERTEX
  5
353
  8
0
 62
   151
 10
0.0
 20
0.0
 30
0.0
 70
   128
 71
    58
 72
   202
 73
   197
  0
VERTEX
  5
354
  8
0
 62
   151
 10
0.0
 20
0.0
 30
0.0
 70
   128
 71
   198
 72
   204
 73
   203
  0
VERTEX
  5
355
  8
0
 62
   151
 10
0.0
 20
0.0
 30
0.0
 70
   128
 71
   203
 72
    61
 73
   198
  0
VERTEX
  5
356
  8
0
 62
   151
 10
0.0
 20
0.0
 30
0.0
 70
   128
 71
   206
 72
   204
 73
   205
  0
VERTEX
  5
357
  8
0
 62
   151
 10
0.0
 20
0.0
 30
0.0
 70
   128
 71
   198
 72
   205
 73
   204
  0
VERTEX
  5
358
  8
0
 62
   151
 10
0.0
 20
0.0
 30
0.0
 70
   128
 71
   206
 72
   200
 73
   201
  0
VERTEX
  5
359
  8
0
 62
   151
 10
0.0
 20
0.0
 30
0.0
 70
   128
 71
   200
 72
   206
 73
   205
  0
VERTEX
  5
35A
  8
0
 62
   151
 10
0.0
 20
0.0
 30
0.0
 70
   128
 71
   199
 72
   195
 73
   196
  0
VERTEX
  5
35B
  8
0
 62
   151
 10
0.0
 20
0.0
 30
0.0
 70
   128
 71
   199
 72
   196
 73
   201
  0
VERTEX
  5
35C
  8
0
 62
   151
 10
0.0
 20
0.0
 30
0.0
 70
   128
 71
   193
 72
    44
 73
   194
  0
VERTEX
  5
35D
  8
0
 62
   151
 10
0.0
 20
0.0
 30
0.0
 70
   128
 71
   193
 72
   194
 73
   195
  0
VERTEX
  5
35E
  8
0
 62
   151
 10
0.0
 20
0.0
 30
0.0
 70
   128
 71
   190
 72
    43
 73
   192
  0
VERTEX
  5
35F
  8
0
 62
   151
 10
0.0
 20
0.0
 30
0.0
 70
   128
 71
    43
 72
    44
 73
   192
  0
VERTEX
  5
360
  8
0
 62
   151
 10
0.0
 20
0.0
 30
0.0
 70
   128
 71
   189
 72
    43
 73
   190
  0
VERTEX
  5
361
  8
0
 62
   151
 10
0.0
 20
0.0
 30
0.0
 70
   128
 71
   181
 72
   179
 73
   180
  0
VERTEX
  5
362
  8
0
 62
   151
 10
0.0
 20
0.0
 30
0.0
 70
   128
 71
   184
 72
   178
 73
   207
  0
VERTEX
  5
363
  8
0
 62
   151
 10
0.0
 20
0.0
 30
0.0
 70
   128
 71
   185
 72
   183
 73
   181
  0
VERTEX
  5
364
  8
0
 62
   151
 10
0.0
 20
0.0
 30
0.0
 70
   128
 71
   181
 72
   180
 73
   185
  0
VERTEX
  5
365
  8
0
 62
   151
 10
0.0
 20
0.0
 30
0.0
 70
   128
 71
   185
 72
   176
 73
   183
  0
VERTEX
  5
366
  8
0
 62
   151
 10
0.0
 20
0.0
 30
0.0
 70
   128
 71
   183
 72
   176
 73
   182
  0
VERTEX
  5
367
  8
0
 62
   151
 10
0.0
 20
0.0
 30
0.0
 70
   128
 71
   184
 72
   182
 73
   177
  0
VERTEX
  5
368
  8
0
 62
   151
 10
0.0
 20
0.0
 30
0.0
 70
   128
 71
   176
 72
   177
 73
   182
  0
VERTEX
  5
369
  8
0
 62
   151
 10
0.0
 20
0.0
 30
0.0
 70
   128
 71
   178
 72
   184
 73
   177
  0
VERTEX
  5
36A
  8
0
 62
   151
 10
0.0
 20
0.0
 30
0.0
 70
   128
 71
   210
 72
   209
 73
   208
  0
VERTEX
  5
36B
  8
0
 62
   151
 10
0.0
 20
0.0
 30
0.0
 70
   128
 71
   213
 72
   212
 73
   211
  0
VERTEX
  5
36C
  8
0
 62
   151
 10
0.0
 20
0.0
 30
0.0
 70
   128
 71
   212
 72
   209
 73
   210
  0
VERTEX
  5
36D
  8
0
 62
   151
 10
0.0
 20
0.0
 30
0.0
 70
   128
 71
   208
 72
   209
 73
   214
  0
VERTEX
  5
36E
  8
0
 62
   151
 10
0.0
 20
0.0
 30
0.0
 70
   128
 71
   210
 72
   211
 73
   212
  0
VERTEX
  5
36F
  8
0
 62
   151
 10
0.0
 20
0.0
 30
0.0
 70
   128
 71
   213
 72
   207
 73
   178
  0
VERTEX
  5
370
  8
0
 62
   151
 10
0.0
 20
0.0
 30
0.0
 70
   128
 71
   213
 72
   211
 73
   207
  0
VERTEX
  5
371
  8
0
 62
   151
 10
0.0
 20
0.0
 30
0.0
 70
   128
 71
   216
 72
   215
 73
   207
  0
VERTEX
  5
372
  8
0
 62
   151
 10
0.0
 20
0.0
 30
0.0
 70
   128
 71
   217
 72
   213
 73
    31
  0
VERTEX
  5
373
  8
0
 62
   151
 10
0.0
 20
0.0
 30
0.0
 70
   128
 71
   210
 72
   218
 73
   211
  0
VERTEX
  5
374
  8
0
 62
   151
 10
0.0
 20
0.0
 30
0.0
 70
   128
 71
   213
 72
   217
 73
   212
  0
VERTEX
  5
375
  8
0
 62
   151
 10
0.0
 20
0.0
 30
0.0
 70
   128
 71
   209
 72
   212
 73
   219
  0
VERTEX
  5
376
  8
0
 62
   151
 10
0.0
 20
0.0
 30
0.0
 70
   128
 71
   213
 72
   178
 73
    31
  0
VERTEX
  5
377
  8
0
 62
   151
 10
0.0
 20
0.0
 30
0.0
 70
   128
 71
   219
 72
   212
 73
   217
  0
VERTEX
  5
378
  8
0
 62
   151
 10
0.0
 20
0.0
 30
0.0
 70
   128
 71
   208
 72
   221
 73
   220
  0
VERTEX
  5
379
  8
0
 62
   151
 10
0.0
 20
0.0
 30
0.0
 70
   128
 71
   214
 72
   221
 73
   208
  0
VERTEX
  5
37A
  8
0
 62
   151
 10
0.0
 20
0.0
 30
0.0
 70
   128
 71
   211
 72
   218
 73
   216
  0
VERTEX
  5
37B
  8
0
 62
   151
 10
0.0
 20
0.0
 30
0.0
 70
   128
 71
   222
 72
   209
 73
   219
  0
VERTEX
  5
37C
  8
0
 62
   151
 10
0.0
 20
0.0
 30
0.0
 70
   128
 71
   220
 72
   218
 73
   210
  0
VERTEX
  5
37D
  8
0
 62
   151
 10
0.0
 20
0.0
 30
0.0
 70
   128
 71
   222
 72
   221
 73
   214
  0
VERTEX
  5
37E
  8
0
 62
   151
 10
0.0
 20
0.0
 30
0.0
 70
   128
 71
   222
 72
   214
 73
   209
  0
VERTEX
  5
37F
  8
0
 62
   151
 10
0.0
 20
0.0
 30
0.0
 70
   128
 71
   220
 72
   210
 73
   208
  0
VERTEX
  5
380
  8
0
 62
   151
 10
0.0
 20
0.0
 30
0.0
 70
   128
 71
    21
 72
   207
 73
   215
  0
VERTEX
  5
381
  8
0
 62
   151
 10
0.0
 20
0.0
 30
0.0
 70
   128
 71
   216
 72
   207
 73
   211
  0
VERTEX
  5
382
  8
0
 62
   151
 10
0.0
 20
0.0
 30
0.0
 70
   128
 71
    21
 72
   184
 73
   207
  0
VERTEX
  5
383
  8
0
 62
   151
 10
0.0
 20
0.0
 30
0.0
 70
   128
 71
    49
 72
   224
 73
   223
  0
VERTEX
  5
384
  8
0
 62
   151
 10
0.0
 20
0.0
 30
0.0
 70
   128
 71
   227
 72
   226
 73
   225
  0
VERTEX
  5
385
  8
0
 62
   151
 10
0.0
 20
0.0
 30
0.0
 70
   128
 71
   223
 72
   229
 73
   228
  0
VERTEX
  5
386
  8
0
 62
   151
 10
0.0
 20
0.0
 30
0.0
 70
   128
 71
   226
 72
   231
 73
   230
  0
VERTEX
  5
387
  8
0
 62
   151
 10
0.0
 20
0.0
 30
0.0
 70
   128
 71
   232
 72
   230
 73
   229
  0
VERTEX
  5
388
  8
0
 62
   151
 10
0.0
 20
0.0
 30
0.0
 70
   128
 71
   227
 72
   234
 73
   233
  0
VERTEX
  5
389
  8
0
 62
   151
 10
0.0
 20
0.0
 30
0.0
 70
   128
 71
   162
 72
   233
 73
   234
  0
VERTEX
  5
38A
  8
0
 62
   151
 10
0.0
 20
0.0
 30
0.0
 70
   128
 71
   227
 72
   233
 73
   226
  0
VERTEX
  5
38B
  8
0
 62
   151
 10
0.0
 20
0.0
 30
0.0
 70
   128
 71
   225
 72
   226
 73
   230
  0
VERTEX
  5
38C
  8
0
 62
   151
 10
0.0
 20
0.0
 30
0.0
 70
   128
 71
   230
 72
   228
 73
   229
  0
VERTEX
  5
38D
  8
0
 62
   151
 10
0.0
 20
0.0
 30
0.0
 70
   128
 71
   230
 72
   235
 73
   228
  0
VERTEX
  5
38E
  8
0
 62
   151
 10
0.0
 20
0.0
 30
0.0
 70
   128
 71
   236
 72
   229
 73
   224
  0
VERTEX
  5
38F
  8
0
 62
   151
 10
0.0
 20
0.0
 30
0.0
 70
   128
 71
   232
 72
   229
 73
   236
  0
VERTEX
  5
390
  8
0
 62
   151
 10
0.0
 20
0.0
 30
0.0
 70
   128
 71
   224
 72
   229
 73
   223
  0
VERTEX
  5
391
  8
0
 62
   151
 10
0.0
 20
0.0
 30
0.0
 70
   128
 71
   235
 72
   230
 73
   231
  0
VERTEX
  5
392
  8
0
 62
   151
 10
0.0
 20
0.0
 30
0.0
 70
   128
 71
   225
 72
   230
 73
   232
  0
VERTEX
  5
393
  8
0
 62
   151
 10
0.0
 20
0.0
 30
0.0
 70
   128
 71
   226
 72
   237
 73
   231
  0
VERTEX
  5
394
  8
0
 62
   151
 10
0.0
 20
0.0
 30
0.0
 70
   128
 71
   233
 72
   238
 73
   237
  0
VERTEX
  5
395
  8
0
 62
   151
 10
0.0
 20
0.0
 30
0.0
 70
   128
 71
   226
 72
   233
 73
   237
  0
VERTEX
  5
396
  8
0
 62
   151
 10
0.0
 20
0.0
 30
0.0
 70
   128
 71
   162
 72
   238
 73
   233
  0
VERTEX
  5
397
  8
0
 62
   151
 10
0.0
 20
0.0
 30
0.0
 70
   128
 71
   241
 72
   240
 73
   239
  0
VERTEX
  5
398
  8
0
 62
   151
 10
0.0
 20
0.0
 30
0.0
 70
   128
 71
   241
 72
   243
 73
   242
  0
VERTEX
  5
399
  8
0
 62
   151
 10
0.0
 20
0.0
 30
0.0
 70
   128
 71
   241
 72
   244
 73
   243
  0
VERTEX
  5
39A
  8
0
 62
   151
 10
0.0
 20
0.0
 30
0.0
 70
   128
 71
   247
 72
   246
 73
   245
  0
VERTEX
  5
39B
  8
0
 62
   151
 10
0.0
 20
0.0
 30
0.0
 70
   128
 71
   239
 72
    71
 73
   248
  0
VERTEX
  5
39C
  8
0
 62
   151
 10
0.0
 20
0.0
 30
0.0
 70
   128
 71
   248
 72
    59
 73
   244
  0
VERTEX
  5
39D
  8
0
 62
   151
 10
0.0
 20
0.0
 30
0.0
 70
   128
 71
   241
 72
   239
 73
   248
  0
VERTEX
  5
39E
  8
0
 62
   151
 10
0.0
 20
0.0
 30
0.0
 70
   128
 71
   241
 72
   248
 73
   244
  0
VERTEX
  5
39F
  8
0
 62
   151
 10
0.0
 20
0.0
 30
0.0
 70
   128
 71
   242
 72
   243
 73
   246
  0
VERTEX
  5
3A0
  8
0
 62
   151
 10
0.0
 20
0.0
 30
0.0
 70
   128
 71
   242
 72
   249
 73
   241
  0
VERTEX
  5
3A1
  8
0
 62
   151
 10
0.0
 20
0.0
 30
0.0
 70
   128
 71
   246
 72
   247
 73
   242
  0
VERTEX
  5
3A2
  8
0
 62
   151
 10
0.0
 20
0.0
 30
0.0
 70
   128
 71
   250
 72
   242
 73
   247
  0
VERTEX
  5
3A3
  8
0
 62
   151
 10
0.0
 20
0.0
 30
0.0
 70
   128
 71
   252
 72
   247
 73
   251
  0
VERTEX
  5
3A4
  8
0
 62
   151
 10
0.0
 20
0.0
 30
0.0
 70
   128
 71
   247
 72
   245
 73
   251
  0
VERTEX
  5
3A5
  8
0
 62
   151
 10
0.0
 20
0.0
 30
0.0
 70
   128
 71
   252
 72
   251
 73
   253
  0
VERTEX
  5
3A6
  8
0
 62
   151
 10
0.0
 20
0.0
 30
0.0
 70
   128
 71
   241
 72
   249
 73
   240
  0
VERTEX
  5
3A7
  8
0
 62
   151
 10
0.0
 20
0.0
 30
0.0
 70
   128
 71
   242
 72
   254
 73
   249
  0
VERTEX
  5
3A8
  8
0
 62
   151
 10
0.0
 20
0.0
 30
0.0
 70
   128
 71
   242
 72
   255
 73
   254
  0
VERTEX
  5
3A9
  8
0
 62
   151
 10
0.0
 20
0.0
 30
0.0
 70
   128
 71
   250
 72
   255
 73
   242
  0
VERTEX
  5
3AA
  8
0
 62
   151
 10
0.0
 20
0.0
 30
0.0
 70
   128
 71
   247
 72
   256
 73
   250
  0
VERTEX
  5
3AB
  8
0
 62
   151
 10
0.0
 20
0.0
 30
0.0
 70
   128
 71
   252
 72
   256
 73
   247
  0
VERTEX
  5
3AC
  8
0
 62
   151
 10
0.0
 20
0.0
 30
0.0
 70
   128
 71
   259
 72
   258
 73
   257
  0
VERTEX
  5
3AD
  8
0
 62
   151
 10
0.0
 20
0.0
 30
0.0
 70
   128
 71
   261
 72
   260
 73
    59
  0
VERTEX
  5
3AE
  8
0
 62
   151
 10
0.0
 20
0.0
 30
0.0
 70
   128
 71
    75
 72
   263
 73
   262
  0
VERTEX
  5
3AF
  8
0
 62
   151
 10
0.0
 20
0.0
 30
0.0
 70
   128
 71
   264
 72
   263
 73
   257
  0
VERTEX
  5
3B0
  8
0
 62
   151
 10
0.0
 20
0.0
 30
0.0
 70
   128
 71
   263
 72
    77
 73
    67
  0
VERTEX
  5
3B1
  8
0
 62
   151
 10
0.0
 20
0.0
 30
0.0
 70
   128
 71
   259
 72
    67
 73
    65
  0
VERTEX
  5
3B2
  8
0
 62
   151
 10
0.0
 20
0.0
 30
0.0
 70
   128
 71
    72
 72
   262
 73
   261
  0
VERTEX
  5
3B3
  8
0
 62
   151
 10
0.0
 20
0.0
 30
0.0
 70
   128
 71
    69
 72
    62
 73
   261
  0
VERTEX
  5
3B4
  8
0
 62
   151
 10
0.0
 20
0.0
 30
0.0
 70
   128
 71
    75
 72
    77
 73
   263
  0
VERTEX
  5
3B5
  8
0
 62
   151
 10
0.0
 20
0.0
 30
0.0
 70
   128
 71
   263
 72
    67
 73
   259
  0
VERTEX
  5
3B6
  8
0
 62
   151
 10
0.0
 20
0.0
 30
0.0
 70
   128
 71
   262
 72
   263
 73
   264
  0
VERTEX
  5
3B7
  8
0
 62
   151
 10
0.0
 20
0.0
 30
0.0
 70
   128
 71
   262
 72
   264
 73
   260
  0
VERTEX
  5
3B8
  8
0
 62
   151
 10
0.0
 20
0.0
 30
0.0
 70
   128
 71
   262
 72
   260
 73
   261
  0
VERTEX
  5
3B9
  8
0
 62
   151
 10
0.0
 20
0.0
 30
0.0
 70
   128
 71
    69
 72
   248
 73
    71
  0
VERTEX
  5
3BA
  8
0
 62
   151
 10
0.0
 20
0.0
 30
0.0
 70
   128
 71
   261
 72
   248
 73
    69
  0
VERTEX
  5
3BB
  8
0
 62
   151
 10
0.0
 20
0.0
 30
0.0
 70
   128
 71
   262
 72
    73
 73
    75
  0
VERTEX
  5
3BC
  8
0
 62
   151
 10
0.0
 20
0.0
 30
0.0
 70
   128
 71
   257
 72
   263
 73
   259
  0
VERTEX
  5
3BD
  8
0
 62
   151
 10
0.0
 20
0.0
 30
0.0
 70
   128
 71
   262
 72
    72
 73
    73
  0
VERTEX
  5
3BE
  8
0
 62
   151
 10
0.0
 20
0.0
 30
0.0
 70
   128
 71
   261
 72
    63
 73
    72
  0
VERTEX
  5
3BF
  8
0
 62
   151
 10
0.0
 20
0.0
 30
0.0
 70
   128
 71
    63
 72
   261
 73
    62
  0
VERTEX
  5
3C0
  8
0
 62
   151
 10
0.0
 20
0.0
 30
0.0
 70
   128
 71
   248
 72
   261
 73
    59
  0
VERTEX
  5
3C1
  8
0
 62
   151
 10
0.0
 20
0.0
 30
0.0
 70
   128
 71
   267
 72
   266
 73
   265
  0
VERTEX
  5
3C2
  8
0
 62
   151
 10
0.0
 20
0.0
 30
0.0
 70
   128
 71
   269
 72
    88
 73
   268
  0
VERTEX
  5
3C3
  8
0
 62
   151
 10
0.0
 20
0.0
 30
0.0
 70
   128
 71
   268
 72
   265
 73
   270
  0
VERTEX
  5
3C4
  8
0
 62
   151
 10
0.0
 20
0.0
 30
0.0
 70
   128
 71
   272
 72
   271
 73
   258
  0
VERTEX
  5
3C5
  8
0
 62
   151
 10
0.0
 20
0.0
 30
0.0
 70
   128
 71
   267
 72
    89
 73
    91
  0
VERTEX
  5
3C6
  8
0
 62
   151
 10
0.0
 20
0.0
 30
0.0
 70
   128
 71
    89
 72
   268
 73
    87
  0
VERTEX
  5
3C7
  8
0
 62
   151
 10
0.0
 20
0.0
 30
0.0
 70
   128
 71
   268
 72
    89
 73
   267
  0
VERTEX
  5
3C8
  8
0
 62
   151
 10
0.0
 20
0.0
 30
0.0
 70
   128
 71
   267
 72
   265
 73
   268
  0
VERTEX
  5
3C9
  8
0
 62
   151
 10
0.0
 20
0.0
 30
0.0
 70
   128
 71
   270
 72
   269
 73
   268
  0
VERTEX
  5
3CA
  8
0
 62
   151
 10
0.0
 20
0.0
 30
0.0
 70
   128
 71
    83
 72
   269
 73
   272
  0
VERTEX
  5
3CB
  8
0
 62
   151
 10
0.0
 20
0.0
 30
0.0
 70
   128
 71
   269
 72
   270
 73
   271
  0
VERTEX
  5
3CC
  8
0
 62
   151
 10
0.0
 20
0.0
 30
0.0
 70
   128
 71
   258
 72
   259
 73
   272
  0
VERTEX
  5
3CD
  8
0
 62
   151
 10
0.0
 20
0.0
 30
0.0
 70
   128
 71
   269
 72
   271
 73
   272
  0
VERTEX
  5
3CE
  8
0
 62
   151
 10
0.0
 20
0.0
 30
0.0
 70
   128
 71
    78
 72
   259
 73
    65
  0
VERTEX
  5
3CF
  8
0
 62
   151
 10
0.0
 20
0.0
 30
0.0
 70
   128
 71
    78
 72
    79
 73
   259
  0
VERTEX
  5
3D0
  8
0
 62
   151
 10
0.0
 20
0.0
 30
0.0
 70
   128
 71
   268
 72
    88
 73
    87
  0
VERTEX
  5
3D1
  8
0
 62
   151
 10
0.0
 20
0.0
 30
0.0
 70
   128
 71
   269
 72
    81
 73
    88
  0
VERTEX
  5
3D2
  8
0
 62
   151
 10
0.0
 20
0.0
 30
0.0
 70
   128
 71
   269
 72
    83
 73
    81
  0
VERTEX
  5
3D3
  8
0
 62
   151
 10
0.0
 20
0.0
 30
0.0
 70
   128
 71
   272
 72
    84
 73
    83
  0
VERTEX
  5
3D4
  8
0
 62
   151
 10
0.0
 20
0.0
 30
0.0
 70
   128
 71
   272
 72
    79
 73
    84
  0
VERTEX
  5
3D5
  8
0
 62
   151
 10
0.0
 20
0.0
 30
0.0
 70
   128
 71
    79
 72
   272
 73
   259
  0
VERTEX
  5
3D6
  8
0
 62
   151
 10
0.0
 20
0.0
 30
0.0
 70
   128
 71
   275
 72
   274
 73
   273
  0
VERTEX
  5
3D7
  8
0
 62
   151
 10
0.0
 20
0.0
 30
0.0
 70
   128
 71
   277
 72
   274
 73
   276
  0
VERTEX
  5
3D8
  8
0
 62
   151
 10
0.0
 20
0.0
 30
0.0
 70
   128
 71
   278
 72
   275
 73
   273
  0
VERTEX
  5
3D9
  8
0
 62
   151
 10
0.0
 20
0.0
 30
0.0
 70
   128
 71
   279
 72
   273
 73
   277
  0
VERTEX
  5
3DA
  8
0
 62
   151
 10
0.0
 20
0.0
 30
0.0
 70
   128
 71
   280
 72
   274
 73
   275
  0
VERTEX
  5
3DB
  8
0
 62
   151
 10
0.0
 20
0.0
 30
0.0
 70
   128
 71
   281
 72
   278
 73
   273
  0
VERTEX
  5
3DC
  8
0
 62
   151
 10
0.0
 20
0.0
 30
0.0
 70
   128
 71
   279
 72
   281
 73
   273
  0
VERTEX
  5
3DD
  8
0
 62
   151
 10
0.0
 20
0.0
 30
0.0
 70
   128
 71
   281
 72
   283
 73
   282
  0
VERTEX
  5
3DE
  8
0
 62
   151
 10
0.0
 20
0.0
 30
0.0
 70
   128
 71
   283
 72
   284
 73
   282
  0
VERTEX
  5
3DF
  8
0
 62
   151
 10
0.0
 20
0.0
 30
0.0
 70
   128
 71
   282
 72
   271
 73
   285
  0
VERTEX
  5
3E0
  8
0
 62
   151
 10
0.0
 20
0.0
 30
0.0
 70
   128
 71
   287
 72
   285
 73
   286
  0
VERTEX
  5
3E1
  8
0
 62
   151
 10
0.0
 20
0.0
 30
0.0
 70
   128
 71
   270
 72
   265
 73
   286
  0
VERTEX
  5
3E2
  8
0
 62
   151
 10
0.0
 20
0.0
 30
0.0
 70
   128
 71
   265
 72
   266
 73
   288
  0
VERTEX
  5
3E3
  8
0
 62
   151
 10
0.0
 20
0.0
 30
0.0
 70
   128
 71
   288
 72
   162
 73
   286
  0
VERTEX
  5
3E4
  8
0
 62
   151
 10
0.0
 20
0.0
 30
0.0
 70
   128
 71
   286
 72
   265
 73
   288
  0
VERTEX
  5
3E5
  8
0
 62
   151
 10
0.0
 20
0.0
 30
0.0
 70
   128
 71
   286
 72
   285
 73
   270
  0
VERTEX
  5
3E6
  8
0
 62
   151
 10
0.0
 20
0.0
 30
0.0
 70
   128
 71
   271
 72
   282
 73
   284
  0
VERTEX
  5
3E7
  8
0
 62
   151
 10
0.0
 20
0.0
 30
0.0
 70
   128
 71
   271
 72
   284
 73
   258
  0
VERTEX
  5
3E8
  8
0
 62
   151
 10
0.0
 20
0.0
 30
0.0
 70
   128
 71
   281
 72
   289
 73
   278
  0
VERTEX
  5
3E9
  8
0
 62
   151
 10
0.0
 20
0.0
 30
0.0
 70
   128
 71
   277
 72
   273
 73
   274
  0
VERTEX
  5
3EA
  8
0
 62
   151
 10
0.0
 20
0.0
 30
0.0
 70
   128
 71
   289
 72
   281
 73
   290
  0
VERTEX
  5
3EB
  8
0
 62
   151
 10
0.0
 20
0.0
 30
0.0
 70
   128
 71
   283
 72
   281
 73
   279
  0
VERTEX
  5
3EC
  8
0
 62
   151
 10
0.0
 20
0.0
 30
0.0
 70
   128
 71
   282
 72
   290
 73
   281
  0
VERTEX
  5
3ED
  8
0
 62
   151
 10
0.0
 20
0.0
 30
0.0
 70
   128
 71
   287
 72
   290
 73
   282
  0
VERTEX
  5
3EE
  8
0
 62
   151
 10
0.0
 20
0.0
 30
0.0
 70
   128
 71
   282
 72
   285
 73
   287
  0
VERTEX
  5
3EF
  8
0
 62
   151
 10
0.0
 20
0.0
 30
0.0
 70
   128
 71
   285
 72
   271
 73
   270
  0
VERTEX
  5
3F0
  8
0
 62
   151
 10
0.0
 20
0.0
 30
0.0
 70
   128
 71
   173
 72
   292
 73
   291
  0
VERTEX
  5
3F1
  8
0
 62
   151
 10
0.0
 20
0.0
 30
0.0
 70
   128
 71
   293
 72
   151
 73
   291
  0
VERTEX
  5
3F2
  8
0
 62
   151
 10
0.0
 20
0.0
 30
0.0
 70
   128
 71
   162
 72
   293
 73
   286
  0
VERTEX
  5
3F3
  8
0
 62
   151
 10
0.0
 20
0.0
 30
0.0
 70
   128
 71
   292
 72
   170
 73
   294
  0
VERTEX
  5
3F4
  8
0
 62
   151
 10
0.0
 20
0.0
 30
0.0
 70
   128
 71
   171
 72
   294
 73
   170
  0
VERTEX
  5
3F5
  8
0
 62
   151
 10
0.0
 20
0.0
 30
0.0
 70
   128
 71
   295
 72
   168
 73
   166
  0
VERTEX
  5
3F6
  8
0
 62
   151
 10
0.0
 20
0.0
 30
0.0
 70
   128
 71
   275
 72
   295
 73
   280
  0
VERTEX
  5
3F7
  8
0
 62
   151
 10
0.0
 20
0.0
 30
0.0
 70
   128
 71
   294
 72
   171
 73
   168
  0
VERTEX
  5
3F8
  8
0
 62
   151
 10
0.0
 20
0.0
 30
0.0
 70
   128
 71
   294
 72
   168
 73
   295
  0
VERTEX
  5
3F9
  8
0
 62
   151
 10
0.0
 20
0.0
 30
0.0
 70
   128
 71
   165
 72
   170
 73
   292
  0
VERTEX
  5
3FA
  8
0
 62
   151
 10
0.0
 20
0.0
 30
0.0
 70
   128
 71
   294
 72
   275
 73
   278
  0
VERTEX
  5
3FB
  8
0
 62
   151
 10
0.0
 20
0.0
 30
0.0
 70
   128
 71
   289
 72
   291
 73
   292
  0
VERTEX
  5
3FC
  8
0
 62
   151
 10
0.0
 20
0.0
 30
0.0
 70
   128
 71
   164
 72
   292
 73
   173
  0
VERTEX
  5
3FD
  8
0
 62
   151
 10
0.0
 20
0.0
 30
0.0
 70
   128
 71
   293
 72
   291
 73
   287
  0
VERTEX
  5
3FE
  8
0
 62
   151
 10
0.0
 20
0.0
 30
0.0
 70
   128
 71
   156
 72
   291
 73
   151
  0
VERTEX
  5
3FF
  8
0
 62
   151
 10
0.0
 20
0.0
 30
0.0
 70
   128
 71
   287
 72
   291
 73
   290
  0
VERTEX
  5
400
  8
0
 62
   151
 10
0.0
 20
0.0
 30
0.0
 70
   128
 71
   151
 72
   293
 73
   152
  0
VERTEX
  5
401
  8
0
 62
   151
 10
0.0
 20
0.0
 30
0.0
 70
   128
 71
   161
 72
   293
 73
   162
  0
VERTEX
  5
402
  8
0
 62
   151
 10
0.0
 20
0.0
 30
0.0
 70
   128
 71
   152
 72
   293
 73
   161
  0
VERTEX
  5
403
  8
0
 62
   151
 10
0.0
 20
0.0
 30
0.0
 70
   128
 71
   293
 72
   287
 73
   286
  0
VERTEX
  5
404
  8
0
 62
   151
 10
0.0
 20
0.0
 30
0.0
 70
   128
 71
   290
 72
   291
 73
   289
  0
VERTEX
  5
405
  8
0
 62
   151
 10
0.0
 20
0.0
 30
0.0
 70
   128
 71
   291
 72
   156
 73
   173
  0
VERTEX
  5
406
  8
0
 62
   151
 10
0.0
 20
0.0
 30
0.0
 70
   128
 71
   289
 72
   292
 73
   278
  0
VERTEX
  5
407
  8
0
 62
   151
 10
0.0
 20
0.0
 30
0.0
 70
   128
 71
   292
 72
   164
 73
   165
  0
VERTEX
  5
408
  8
0
 62
   151
 10
0.0
 20
0.0
 30
0.0
 70
   128
 71
   292
 72
   294
 73
   278
  0
VERTEX
  5
409
  8
0
 62
   151
 10
0.0
 20
0.0
 30
0.0
 70
   128
 71
   294
 72
   295
 73
   275
  0
VERTEX
  5
40A
  8
0
 62
   151
 10
0.0
 20
0.0
 30
0.0
 70
   128
 71
   297
 72
   174
 73
   296
  0
VERTEX
  5
40B
  8
0
 62
   151
 10
0.0
 20
0.0
 30
0.0
 70
   128
 71
   135
 72
   298
 73
   175
  0
VERTEX
  5
40C
  8
0
 62
   151
 10
0.0
 20
0.0
 30
0.0
 70
   128
 71
   299
 72
   297
 73
   296
  0
VERTEX
  5
40D
  8
0
 62
   151
 10
0.0
 20
0.0
 30
0.0
 70
   128
 71
   300
 72
   280
 73
   295
  0
VERTEX
  5
40E
  8
0
 62
   151
 10
0.0
 20
0.0
 30
0.0
 70
   128
 71
   134
 72
   133
 73
   301
  0
VERTEX
  5
40F
  8
0
 62
   151
 10
0.0
 20
0.0
 30
0.0
 70
   128
 71
   303
 72
   141
 73
   302
  0
VERTEX
  5
410
  8
0
 62
   151
 10
0.0
 20
0.0
 30
0.0
 70
   128
 71
   303
 72
   305
 73
   304
  0
VERTEX
  5
411
  8
0
 62
   151
 10
0.0
 20
0.0
 30
0.0
 70
   128
 71
   306
 72
   143
 73
   144
  0
VERTEX
  5
412
  8
0
 62
   151
 10
0.0
 20
0.0
 30
0.0
 70
   128
 71
   302
 72
   306
 73
   307
  0
VERTEX
  5
413
  8
0
 62
   151
 10
0.0
 20
0.0
 30
0.0
 70
   128
 71
   109
 72
   108
 73
   308
  0
VERTEX
  5
414
  8
0
 62
   151
 10
0.0
 20
0.0
 30
0.0
 70
   128
 71
   145
 72
   309
 73
   144
  0
VERTEX
  5
415
  8
0
 62
   151
 10
0.0
 20
0.0
 30
0.0
 70
   128
 71
   311
 72
   115
 73
   310
  0
VERTEX
  5
416
  8
0
 62
   151
 10
0.0
 20
0.0
 30
0.0
 70
   128
 71
   308
 72
   108
 73
   312
  0
VERTEX
  5
417
  8
0
 62
   151
 10
0.0
 20
0.0
 30
0.0
 70
   128
 71
   310
 72
   116
 73
   117
  0
VERTEX
  5
418
  8
0
 62
   151
 10
0.0
 20
0.0
 30
0.0
 70
   128
 71
   314
 72
   118
 73
   313
  0
VERTEX
  5
419
  8
0
 62
   151
 10
0.0
 20
0.0
 30
0.0
 70
   128
 71
   118
 72
   119
 73
   313
  0
VERTEX
  5
41A
  8
0
 62
   151
 10
0.0
 20
0.0
 30
0.0
 70
   128
 71
   119
 72
   120
 73
   315
  0
VERTEX
  5
41B
  8
0
 62
   151
 10
0.0
 20
0.0
 30
0.0
 70
   128
 71
   315
 72
   313
 73
   119
  0
VERTEX
  5
41C
  8
0
 62
   151
 10
0.0
 20
0.0
 30
0.0
 70
   128
 71
   106
 72
   316
 73
   120
  0
VERTEX
  5
41D
  8
0
 62
   151
 10
0.0
 20
0.0
 30
0.0
 70
   128
 71
   315
 72
   120
 73
   316
  0
VERTEX
  5
41E
  8
0
 62
   151
 10
0.0
 20
0.0
 30
0.0
 70
   128
 71
   316
 72
   318
 73
   317
  0
VERTEX
  5
41F
  8
0
 62
   151
 10
0.0
 20
0.0
 30
0.0
 70
   128
 71
   318
 72
   316
 73
   106
  0
VERTEX
  5
420
  8
0
 62
   151
 10
0.0
 20
0.0
 30
0.0
 70
   128
 71
   320
 72
   318
 73
   319
  0
VERTEX
  5
421
  8
0
 62
   151
 10
0.0
 20
0.0
 30
0.0
 70
   128
 71
   320
 72
   317
 73
   318
  0
VERTEX
  5
422
  8
0
 62
   151
 10
0.0
 20
0.0
 30
0.0
 70
   128
 71
   320
 72
   319
 73
   224
  0
VERTEX
  5
423
  8
0
 62
   151
 10
0.0
 20
0.0
 30
0.0
 70
   128
 71
   224
 72
   319
 73
   236
  0
VERTEX
  5
424
  8
0
 62
   151
 10
0.0
 20
0.0
 30
0.0
 70
   128
 71
    49
 72
   320
 73
   224
  0
VERTEX
  5
425
  8
0
 62
   151
 10
0.0
 20
0.0
 30
0.0
 70
   128
 71
   117
 72
   118
 73
   314
  0
VERTEX
  5
426
  8
0
 62
   151
 10
0.0
 20
0.0
 30
0.0
 70
   128
 71
   315
 72
    35
 73
   313
  0
VERTEX
  5
427
  8
0
 62
   151
 10
0.0
 20
0.0
 30
0.0
 70
   128
 71
   310
 72
   117
 73
   314
  0
VERTEX
  5
428
  8
0
 62
   151
 10
0.0
 20
0.0
 30
0.0
 70
   128
 71
   310
 72
    22
 73
   311
  0
VERTEX
  5
429
  8
0
 62
   151
 10
0.0
 20
0.0
 30
0.0
 70
   128
 71
   310
 72
   115
 73
   116
  0
VERTEX
  5
42A
  8
0
 62
   151
 10
0.0
 20
0.0
 30
0.0
 70
   128
 71
   107
 72
   115
 73
   311
  0
VERTEX
  5
42B
  8
0
 62
   151
 10
0.0
 20
0.0
 30
0.0
 70
   128
 71
   312
 72
   107
 73
   311
  0
VERTEX
  5
42C
  8
0
 62
   151
 10
0.0
 20
0.0
 30
0.0
 70
   128
 71
   312
 72
   108
 73
   107
  0
VERTEX
  5
42D
  8
0
 62
   151
 10
0.0
 20
0.0
 30
0.0
 70
   128
 71
   145
 72
   321
 73
   309
  0
VERTEX
  5
42E
  8
0
 62
   151
 10
0.0
 20
0.0
 30
0.0
 70
   128
 71
   109
 72
   308
 73
   321
  0
VERTEX
  5
42F
  8
0
 62
   151
 10
0.0
 20
0.0
 30
0.0
 70
   128
 71
   309
 72
   306
 73
   144
  0
VERTEX
  5
430
  8
0
 62
   151
 10
0.0
 20
0.0
 30
0.0
 70
   128
 71
   145
 72
   109
 73
   321
  0
VERTEX
  5
431
  8
0
 62
   151
 10
0.0
 20
0.0
 30
0.0
 70
   128
 71
   142
 72
   143
 73
   302
  0
VERTEX
  5
432
  8
0
 62
   151
 10
0.0
 20
0.0
 30
0.0
 70
   128
 71
   306
 72
   302
 73
   143
  0
VERTEX
  5
433
  8
0
 62
   151
 10
0.0
 20
0.0
 30
0.0
 70
   128
 71
   302
 72
   141
 73
   142
  0
VERTEX
  5
434
  8
0
 62
   151
 10
0.0
 20
0.0
 30
0.0
 70
   128
 71
   303
 72
   140
 73
   141
  0
VERTEX
  5
435
  8
0
 62
   151
 10
0.0
 20
0.0
 30
0.0
 70
   128
 71
   133
 72
   322
 73
   301
  0
VERTEX
  5
436
  8
0
 62
   151
 10
0.0
 20
0.0
 30
0.0
 70
   128
 71
   322
 72
   140
 73
   303
  0
VERTEX
  5
437
  8
0
 62
   151
 10
0.0
 20
0.0
 30
0.0
 70
   128
 71
   135
 72
   134
 73
   301
  0
VERTEX
  5
438
  8
0
 62
   151
 10
0.0
 20
0.0
 30
0.0
 70
   128
 71
   301
 72
   322
 73
   323
  0
VERTEX
  5
439
  8
0
 62
   151
 10
0.0
 20
0.0
 30
0.0
 70
   128
 71
   135
 72
   301
 73
   298
  0
VERTEX
  5
43A
  8
0
 62
   151
 10
0.0
 20
0.0
 30
0.0
 70
   128
 71
   296
 72
   174
 73
   175
  0
VERTEX
  5
43B
  8
0
 62
   151
 10
0.0
 20
0.0
 30
0.0
 70
   128
 71
   175
 72
   298
 73
   296
  0
VERTEX
  5
43C
  8
0
 62
   151
 10
0.0
 20
0.0
 30
0.0
 70
   128
 71
   295
 72
   166
 73
   297
  0
VERTEX
  5
43D
  8
0
 62
   151
 10
0.0
 20
0.0
 30
0.0
 70
   128
 71
   300
 72
   295
 73
   297
  0
VERTEX
  5
43E
  8
0
 62
   151
 10
0.0
 20
0.0
 30
0.0
 70
   128
 71
   166
 72
   174
 73
   297
  0
VERTEX
  5
43F
  8
0
 62
   151
 10
0.0
 20
0.0
 30
0.0
 70
   128
 71
   297
 72
   299
 73
   300
  0
VERTEX
  5
440
  8
0
 62
   151
 10
0.0
 20
0.0
 30
0.0
 70
   128
 71
   296
 72
   324
 73
   299
  0
VERTEX
  5
441
  8
0
 62
   151
 10
0.0
 20
0.0
 30
0.0
 70
   128
 71
   298
 72
   325
 73
   324
  0
VERTEX
  5
442
  8
0
 62
   151
 10
0.0
 20
0.0
 30
0.0
 70
   128
 71
   296
 72
   298
 73
   324
  0
VERTEX
  5
443
  8
0
 62
   151
 10
0.0
 20
0.0
 30
0.0
 70
   128
 71
   301
 72
   326
 73
   325
  0
VERTEX
  5
444
  8
0
 62
   151
 10
0.0
 20
0.0
 30
0.0
 70
   128
 71
   298
 72
   301
 73
   325
  0
VERTEX
  5
445
  8
0
 62
   151
 10
0.0
 20
0.0
 30
0.0
 70
   128
 71
   323
 72
   326
 73
   301
  0
VERTEX
  5
446
  8
0
 62
   151
 10
0.0
 20
0.0
 30
0.0
 70
   128
 71
   323
 72
   322
 73
   304
  0
VERTEX
  5
447
  8
0
 62
   151
 10
0.0
 20
0.0
 30
0.0
 70
   128
 71
   322
 72
   133
 73
   140
  0
VERTEX
  5
448
  8
0
 62
   151
 10
0.0
 20
0.0
 30
0.0
 70
   128
 71
   322
 72
   303
 73
   304
  0
VERTEX
  5
449
  8
0
 62
   151
 10
0.0
 20
0.0
 30
0.0
 70
   128
 71
   302
 72
   327
 73
   305
  0
VERTEX
  5
44A
  8
0
 62
   151
 10
0.0
 20
0.0
 30
0.0
 70
   128
 71
   303
 72
   302
 73
   305
  0
VERTEX
  5
44B
  8
0
 62
   151
 10
0.0
 20
0.0
 30
0.0
 70
   128
 71
   327
 72
   302
 73
   307
  0
VERTEX
  5
44C
  8
0
 62
   151
 10
0.0
 20
0.0
 30
0.0
 70
   128
 71
   306
 72
   328
 73
   307
  0
VERTEX
  5
44D
  8
0
 62
   151
 10
0.0
 20
0.0
 30
0.0
 70
   128
 71
   309
 72
   329
 73
   328
  0
VERTEX
  5
44E
  8
0
 62
   151
 10
0.0
 20
0.0
 30
0.0
 70
   128
 71
   306
 72
   309
 73
   328
  0
VERTEX
  5
44F
  8
0
 62
   151
 10
0.0
 20
0.0
 30
0.0
 70
   128
 71
   321
 72
    20
 73
   329
  0
VERTEX
  5
450
  8
0
 62
   151
 10
0.0
 20
0.0
 30
0.0
 70
   128
 71
   309
 72
   321
 73
   329
  0
VERTEX
  5
451
  8
0
 62
   151
 10
0.0
 20
0.0
 30
0.0
 70
   128
 71
    11
 72
    20
 73
   308
  0
VERTEX
  5
452
  8
0
 62
   151
 10
0.0
 20
0.0
 30
0.0
 70
   128
 71
   321
 72
   308
 73
    20
  0
VERTEX
  5
453
  8
0
 62
   151
 10
0.0
 20
0.0
 30
0.0
 70
   128
 71
    10
 72
    11
 73
   312
  0
VERTEX
  5
454
  8
0
 62
   151
 10
0.0
 20
0.0
 30
0.0
 70
   128
 71
   308
 72
   312
 73
    11
  0
VERTEX
  5
455
  8
0
 62
   151
 10
0.0
 20
0.0
 30
0.0
 70
   128
 71
    25
 72
    10
 73
   311
  0
VERTEX
  5
456
  8
0
 62
   151
 10
0.0
 20
0.0
 30
0.0
 70
   128
 71
   312
 72
   311
 73
    10
  0
VERTEX
  5
457
  8
0
 62
   151
 10
0.0
 20
0.0
 30
0.0
 70
   128
 71
    25
 72
   311
 73
    22
  0
VERTEX
  5
458
  8
0
 62
   151
 10
0.0
 20
0.0
 30
0.0
 70
   128
 71
   310
 72
    24
 73
    22
  0
VERTEX
  5
459
  8
0
 62
   151
 10
0.0
 20
0.0
 30
0.0
 70
   128
 71
   314
 72
    29
 73
    24
  0
VERTEX
  5
45A
  8
0
 62
   151
 10
0.0
 20
0.0
 30
0.0
 70
   128
 71
   310
 72
   314
 73
    24
  0
VERTEX
  5
45B
  8
0
 62
   151
 10
0.0
 20
0.0
 30
0.0
 70
   128
 71
   313
 72
    33
 73
    29
  0
VERTEX
  5
45C
  8
0
 62
   151
 10
0.0
 20
0.0
 30
0.0
 70
   128
 71
   314
 72
   313
 73
    29
  0
VERTEX
  5
45D
  8
0
 62
   151
 10
0.0
 20
0.0
 30
0.0
 70
   128
 71
    33
 72
   313
 73
    35
  0
VERTEX
  5
45E
  8
0
 62
   151
 10
0.0
 20
0.0
 30
0.0
 70
   128
 71
   315
 72
    37
 73
    35
  0
VERTEX
  5
45F
  8
0
 62
   151
 10
0.0
 20
0.0
 30
0.0
 70
   128
 71
   316
 72
    38
 73
    37
  0
VERTEX
  5
460
  8
0
 62
   151
 10
0.0
 20
0.0
 30
0.0
 70
   128
 71
   315
 72
   316
 73
    37
  0
VERTEX
  5
461
  8
0
 62
   151
 10
0.0
 20
0.0
 30
0.0
 70
   128
 71
   317
 72
    40
 73
    38
  0
VERTEX
  5
462
  8
0
 62
   151
 10
0.0
 20
0.0
 30
0.0
 70
   128
 71
   316
 72
   317
 73
    38
  0
VERTEX
  5
463
  8
0
 62
   151
 10
0.0
 20
0.0
 30
0.0
 70
   128
 71
   320
 72
    46
 73
    40
  0
VERTEX
  5
464
  8
0
 62
   151
 10
0.0
 20
0.0
 30
0.0
 70
   128
 71
   317
 72
   320
 73
    40
  0
VERTEX
  5
465
  8
0
 62
   151
 10
0.0
 20
0.0
 30
0.0
 70
   128
 71
    49
 72
    46
 73
   320
  0
VERTEX
  5
466
  8
0
 62
   151
 10
0.0
 20
0.0
 30
0.0
 70
   128
 71
   318
 72
   331
 73
   330
  0
VERTEX
  5
467
  8
0
 62
   151
 10
0.0
 20
0.0
 30
0.0
 70
   128
 71
   331
 72
   332
 73
   330
  0
VERTEX
  5
468
  8
0
 62
   151
 10
0.0
 20
0.0
 30
0.0
 70
   128
 71
   318
 72
   330
 73
   319
  0
VERTEX
  5
469
  8
0
 62
   151
 10
0.0
 20
0.0
 30
0.0
 70
   128
 71
   103
 72
   114
 73
   331
  0
VERTEX
  5
46A
  8
0
 62
   151
 10
0.0
 20
0.0
 30
0.0
 70
   128
 71
   318
 72
   106
 73
   103
  0
VERTEX
  5
46B
  8
0
 62
   151
 10
0.0
 20
0.0
 30
0.0
 70
   128
 71
   334
 72
   333
 73
    92
  0
VERTEX
  5
46C
  8
0
 62
   151
 10
0.0
 20
0.0
 30
0.0
 70
   128
 71
   336
 72
   333
 73
   335
  0
VERTEX
  5
46D
  8
0
 62
   151
 10
0.0
 20
0.0
 30
0.0
 70
   128
 71
   338
 72
   337
 73
    92
  0
VERTEX
  5
46E
  8
0
 62
   151
 10
0.0
 20
0.0
 30
0.0
 70
   128
 71
   339
 72
   337
 73
   338
  0
VERTEX
  5
46F
  8
0
 62
   151
 10
0.0
 20
0.0
 30
0.0
 70
   128
 71
   162
 72
   339
 73
   150
  0
VERTEX
  5
470
  8
0
 62
   151
 10
0.0
 20
0.0
 30
0.0
 70
   128
 71
   333
 72
   336
 73
    92
  0
VERTEX
  5
471
  8
0
 62
   151
 10
0.0
 20
0.0
 30
0.0
 70
   128
 71
    92
 72
   340
 73
   332
  0
VERTEX
  5
472
  8
0
 62
   151
 10
0.0
 20
0.0
 30
0.0
 70
   128
 71
    92
 72
   332
 73
   114
  0
VERTEX
  5
473
  8
0
 62
   151
 10
0.0
 20
0.0
 30
0.0
 70
   128
 71
   340
 72
   336
 73
   341
  0
VERTEX
  5
474
  8
0
 62
   151
 10
0.0
 20
0.0
 30
0.0
 70
   128
 71
   342
 72
   225
 73
   335
  0
VERTEX
  5
475
  8
0
 62
   151
 10
0.0
 20
0.0
 30
0.0
 70
   128
 71
    92
 72
   336
 73
   340
  0
VERTEX
  5
476
  8
0
 62
   151
 10
0.0
 20
0.0
 30
0.0
 70
   128
 71
   340
 72
   341
 73
   330
  0
VERTEX
  5
477
  8
0
 62
   151
 10
0.0
 20
0.0
 30
0.0
 70
   128
 71
   342
 72
   333
 73
   334
  0
VERTEX
  5
478
  8
0
 62
   151
 10
0.0
 20
0.0
 30
0.0
 70
   128
 71
   336
 72
   335
 73
   341
  0
VERTEX
  5
479
  8
0
 62
   151
 10
0.0
 20
0.0
 30
0.0
 70
   128
 71
   333
 72
   342
 73
   335
  0
VERTEX
  5
47A
  8
0
 62
   151
 10
0.0
 20
0.0
 30
0.0
 70
   128
 71
   334
 72
   337
 73
   343
  0
VERTEX
  5
47B
  8
0
 62
   151
 10
0.0
 20
0.0
 30
0.0
 70
   128
 71
    92
 72
   337
 73
   334
  0
VERTEX
  5
47C
  8
0
 62
   151
 10
0.0
 20
0.0
 30
0.0
 70
   128
 71
   334
 72
   343
 73
   342
  0
VERTEX
  5
47D
  8
0
 62
   151
 10
0.0
 20
0.0
 30
0.0
 70
   128
 71
   337
 72
   339
 73
   343
  0
VERTEX
  5
47E
  8
0
 62
   151
 10
0.0
 20
0.0
 30
0.0
 70
   128
 71
   338
 72
   149
 73
   150
  0
VERTEX
  5
47F
  8
0
 62
   151
 10
0.0
 20
0.0
 30
0.0
 70
   128
 71
   149
 72
   338
 73
    92
  0
VERTEX
  5
480
  8
0
 62
   151
 10
0.0
 20
0.0
 30
0.0
 70
   128
 71
   332
 72
   331
 73
   114
  0
VERTEX
  5
481
  8
0
 62
   151
 10
0.0
 20
0.0
 30
0.0
 70
   128
 71
   331
 72
   318
 73
   103
  0
VERTEX
  5
482
  8
0
 62
   151
 10
0.0
 20
0.0
 30
0.0
 70
   128
 71
   236
 72
   319
 73
   341
  0
VERTEX
  5
483
  8
0
 62
   151
 10
0.0
 20
0.0
 30
0.0
 70
   128
 71
   340
 72
   330
 73
   332
  0
VERTEX
  5
484
  8
0
 62
   151
 10
0.0
 20
0.0
 30
0.0
 70
   128
 71
   330
 72
   341
 73
   319
  0
VERTEX
  5
485
  8
0
 62
   151
 10
0.0
 20
0.0
 30
0.0
 70
   128
 71
   232
 72
   236
 73
   335
  0
VERTEX
  5
486
  8
0
 62
   151
 10
0.0
 20
0.0
 30
0.0
 70
   128
 71
   341
 72
   335
 73
   236
  0
VERTEX
  5
487
  8
0
 62
   151
 10
0.0
 20
0.0
 30
0.0
 70
   128
 71
   232
 72
   335
 73
   225
  0
VERTEX
  5
488
  8
0
 62
   151
 10
0.0
 20
0.0
 30
0.0
 70
   128
 71
   342
 72
   227
 73
   225
  0
VERTEX
  5
489
  8
0
 62
   151
 10
0.0
 20
0.0
 30
0.0
 70
   128
 71
   343
 72
   227
 73
   342
  0
VERTEX
  5
48A
  8
0
 62
   151
 10
0.0
 20
0.0
 30
0.0
 70
   128
 71
   343
 72
   234
 73
   227
  0
VERTEX
  5
48B
  8
0
 62
   151
 10
0.0
 20
0.0
 30
0.0
 70
   128
 71
   338
 72
   150
 73
   339
  0
VERTEX
  5
48C
  8
0
 62
   151
 10
0.0
 20
0.0
 30
0.0
 70
   128
 71
   339
 72
   234
 73
   343
  0
VERTEX
  5
48D
  8
0
 62
   151
 10
0.0
 20
0.0
 30
0.0
 70
   128
 71
   234
 72
   339
 73
   162
  0
VERTEX
  5
48E
  8
0
 62
   151
 10
0.0
 20
0.0
 30
0.0
 70
   128
 71
   162
 72
   288
 73
   344
  0
VERTEX
  5
48F
  8
0
 62
   151
 10
0.0
 20
0.0
 30
0.0
 70
   128
 71
   266
 72
   344
 73
   288
  0
VERTEX
  5
490
  8
0
 62
   151
 10
0.0
 20
0.0
 30
0.0
 70
   128
 71
   344
 72
   266
 73
   288
  0
VERTEX
  5
491
  8
0
 62
   151
 10
0.0
 20
0.0
 30
0.0
 70
   128
 71
   162
 72
   344
 73
   288
  0
VERTEX
  5
492
  8
0
 62
   151
 10
0.0
 20
0.0
 30
0.0
 70
   128
 71
   347
 72
   346
 73
   345
  0
VERTEX
  5
493
  8
0
 62
   151
 10
0.0
 20
0.0
 30
0.0
 70
   128
 71
   350
 72
   349
 73
   348
  0
VERTEX
  5
494
  8
0
 62
   151
 10
0.0
 20
0.0
 30
0.0
 70
   128
 71
   351
 72
   345
 73
   346
  0
VERTEX
  5
495
  8
0
 62
   151
 10
0.0
 20
0.0
 30
0.0
 70
   128
 71
    90
 72
   350
 73
   352
  0
VERTEX
  5
496
  8
0
 62
   151
 10
0.0
 20
0.0
 30
0.0
 70
   128
 71
   353
 72
    90
 73
   352
  0
VERTEX
  5
497
  8
0
 62
   151
 10
0.0
 20
0.0
 30
0.0
 70
   128
 71
   353
 72
   352
 73
   354
  0
VERTEX
  5
498
  8
0
 62
   151
 10
0.0
 20
0.0
 30
0.0
 70
   128
 71
   355
 72
   354
 73
   351
  0
VERTEX
  5
499
  8
0
 62
   151
 10
0.0
 20
0.0
 30
0.0
 70
   128
 71
   354
 72
   352
 73
   351
  0
VERTEX
  5
49A
  8
0
 62
   151
 10
0.0
 20
0.0
 30
0.0
 70
   128
 71
   355
 72
   357
 73
   356
  0
VERTEX
  5
49B
  8
0
 62
   151
 10
0.0
 20
0.0
 30
0.0
 70
   128
 71
   357
 72
   355
 73
   351
  0
VERTEX
  5
49C
  8
0
 62
   151
 10
0.0
 20
0.0
 30
0.0
 70
   128
 71
   357
 72
   351
 73
   346
  0
VERTEX
  5
49D
  8
0
 62
   151
 10
0.0
 20
0.0
 30
0.0
 70
   128
 71
   352
 72
   348
 73
   345
  0
VERTEX
  5
49E
  8
0
 62
   151
 10
0.0
 20
0.0
 30
0.0
 70
   128
 71
   351
 72
   352
 73
   345
  0
VERTEX
  5
49F
  8
0
 62
   151
 10
0.0
 20
0.0
 30
0.0
 70
   128
 71
   348
 72
   352
 73
   350
  0
VERTEX
  5
4A0
  8
0
 62
   151
 10
0.0
 20
0.0
 30
0.0
 70
   128
 71
   359
 72
   358
 73
   345
  0
VERTEX
  5
4A1
  8
0
 62
   151
 10
0.0
 20
0.0
 30
0.0
 70
   128
 71
   347
 72
   345
 73
   358
  0
VERTEX
  5
4A2
  8
0
 62
   151
 10
0.0
 20
0.0
 30
0.0
 70
   128
 71
   345
 72
   348
 73
   359
  0
VERTEX
  5
4A3
  8
0
 62
   151
 10
0.0
 20
0.0
 30
0.0
 70
   128
 71
   359
 72
   348
 73
   360
  0
VERTEX
  5
4A4
  8
0
 62
   151
 10
0.0
 20
0.0
 30
0.0
 70
   128
 71
   348
 72
   349
 73
   360
  0
VERTEX
  5
4A5
  8
0
 62
   151
 10
0.0
 20
0.0
 30
0.0
 70
   128
 71
    82
 72
   362
 73
   361
  0
VERTEX
  5
4A6
  8
0
 62
   151
 10
0.0
 20
0.0
 30
0.0
 70
   128
 71
    80
 72
   363
 73
   362
  0
VERTEX
  5
4A7
  8
0
 62
   151
 10
0.0
 20
0.0
 30
0.0
 70
   128
 71
    66
 72
   363
 73
    80
  0
VERTEX
  5
4A8
  8
0
 62
   151
 10
0.0
 20
0.0
 30
0.0
 70
   128
 71
   350
 72
   361
 73
   349
  0
VERTEX
  5
4A9
  8
0
 62
   151
 10
0.0
 20
0.0
 30
0.0
 70
   128
 71
   360
 72
   349
 73
   361
  0
VERTEX
  5
4AA
  8
0
 62
   151
 10
0.0
 20
0.0
 30
0.0
 70
   128
 71
   350
 72
    90
 73
    85
  0
VERTEX
  5
4AB
  8
0
 62
   151
 10
0.0
 20
0.0
 30
0.0
 70
   128
 71
    85
 72
   361
 73
   350
  0
VERTEX
  5
4AC
  8
0
 62
   151
 10
0.0
 20
0.0
 30
0.0
 70
   128
 71
   361
 72
    86
 73
    82
  0
VERTEX
  5
4AD
  8
0
 62
   151
 10
0.0
 20
0.0
 30
0.0
 70
   128
 71
   362
 72
    82
 73
    80
  0
VERTEX
  5
4AE
  8
0
 62
   151
 10
0.0
 20
0.0
 30
0.0
 70
   128
 71
   359
 72
   364
 73
   358
  0
VERTEX
  5
4AF
  8
0
 62
   151
 10
0.0
 20
0.0
 30
0.0
 70
   128
 71
   363
 72
   364
 73
   362
  0
VERTEX
  5
4B0
  8
0
 62
   151
 10
0.0
 20
0.0
 30
0.0
 70
   128
 71
   362
 72
   359
 73
   360
  0
VERTEX
  5
4B1
  8
0
 62
   151
 10
0.0
 20
0.0
 30
0.0
 70
   128
 71
    86
 72
   361
 73
    85
  0
VERTEX
  5
4B2
  8
0
 62
   151
 10
0.0
 20
0.0
 30
0.0
 70
   128
 71
   361
 72
   362
 73
   360
  0
VERTEX
  5
4B3
  8
0
 62
   151
 10
0.0
 20
0.0
 30
0.0
 70
   128
 71
   359
 72
   362
 73
   364
  0
VERTEX
  5
4B4
  8
0
 62
   151
 10
0.0
 20
0.0
 30
0.0
 70
   128
 71
   358
 72
   364
 73
   365
  0
VERTEX
  5
4B5
  8
0
 62
   151
 10
0.0
 20
0.0
 30
0.0
 70
   128
 71
   368
 72
   367
 73
   366
  0
VERTEX
  5
4B6
  8
0
 62
   151
 10
0.0
 20
0.0
 30
0.0
 70
   128
 71
   366
 72
   365
 73
   369
  0
VERTEX
  5
4B7
  8
0
 62
   151
 10
0.0
 20
0.0
 30
0.0
 70
   128
 71
   368
 72
   369
 73
    68
  0
VERTEX
  5
4B8
  8
0
 62
   151
 10
0.0
 20
0.0
 30
0.0
 70
   128
 71
    70
 72
   368
 73
    68
  0
VERTEX
  5
4B9
  8
0
 62
   151
 10
0.0
 20
0.0
 30
0.0
 70
   128
 71
    64
 72
   369
 73
   370
  0
VERTEX
  5
4BA
  8
0
 62
   151
 10
0.0
 20
0.0
 30
0.0
 70
   128
 71
   370
 72
    74
 73
    64
  0
VERTEX
  5
4BB
  8
0
 62
   151
 10
0.0
 20
0.0
 30
0.0
 70
   128
 71
   365
 72
   370
 73
   369
  0
VERTEX
  5
4BC
  8
0
 62
   151
 10
0.0
 20
0.0
 30
0.0
 70
   128
 71
    76
 72
   370
 73
   363
  0
VERTEX
  5
4BD
  8
0
 62
   151
 10
0.0
 20
0.0
 30
0.0
 70
   128
 71
   370
 72
   364
 73
   363
  0
VERTEX
  5
4BE
  8
0
 62
   151
 10
0.0
 20
0.0
 30
0.0
 70
   128
 71
    76
 72
   363
 73
    66
  0
VERTEX
  5
4BF
  8
0
 62
   151
 10
0.0
 20
0.0
 30
0.0
 70
   128
 71
    76
 72
    74
 73
   370
  0
VERTEX
  5
4C0
  8
0
 62
   151
 10
0.0
 20
0.0
 30
0.0
 70
   128
 71
   370
 72
   365
 73
   364
  0
VERTEX
  5
4C1
  8
0
 62
   151
 10
0.0
 20
0.0
 30
0.0
 70
   128
 71
   366
 72
   369
 73
   368
  0
VERTEX
  5
4C2
  8
0
 62
   151
 10
0.0
 20
0.0
 30
0.0
 70
   128
 71
    68
 72
   369
 73
    64
  0
VERTEX
  5
4C3
  8
0
 62
   151
 10
0.0
 20
0.0
 30
0.0
 70
   128
 71
   367
 72
   371
 73
   366
  0
VERTEX
  5
4C4
  8
0
 62
   151
 10
0.0
 20
0.0
 30
0.0
 70
   128
 71
   372
 72
   366
 73
   371
  0
VERTEX
  5
4C5
  8
0
 62
   151
 10
0.0
 20
0.0
 30
0.0
 70
   128
 71
   366
 72
   372
 73
   365
  0
VERTEX
  5
4C6
  8
0
 62
   151
 10
0.0
 20
0.0
 30
0.0
 70
   128
 71
   347
 72
   365
 73
   372
  0
VERTEX
  5
4C7
  8
0
 62
   151
 10
0.0
 20
0.0
 30
0.0
 70
   128
 71
   347
 72
   358
 73
   365
  0
VERTEX
  5
4C8
  8
0
 62
   151
 10
0.0
 20
0.0
 30
0.0
 70
   128
 71
   375
 72
   374
 73
   373
  0
VERTEX
  5
4C9
  8
0
 62
   151
 10
0.0
 20
0.0
 30
0.0
 70
   128
 71
   374
 72
   375
 73
   376
  0
VERTEX
  5
4CA
  8
0
 62
   151
 10
0.0
 20
0.0
 30
0.0
 70
   128
 71
   356
 72
   357
 73
   373
  0
VERTEX
  5
4CB
  8
0
 62
   151
 10
0.0
 20
0.0
 30
0.0
 70
   128
 71
   376
 72
   368
 73
   377
  0
VERTEX
  5
4CC
  8
0
 62
   151
 10
0.0
 20
0.0
 30
0.0
 70
   128
 71
   371
 72
   367
 73
   376
  0
VERTEX
  5
4CD
  8
0
 62
   151
 10
0.0
 20
0.0
 30
0.0
 70
   128
 71
   377
 72
   368
 73
    70
  0
VERTEX
  5
4CE
  8
0
 62
   151
 10
0.0
 20
0.0
 30
0.0
 70
   128
 71
   367
 72
   368
 73
   376
  0
VERTEX
  5
4CF
  8
0
 62
   151
 10
0.0
 20
0.0
 30
0.0
 70
   128
 71
   357
 72
   375
 73
   373
  0
VERTEX
  5
4D0
  8
0
 62
   151
 10
0.0
 20
0.0
 30
0.0
 70
   128
 71
   372
 72
   346
 73
   347
  0
VERTEX
  5
4D1
  8
0
 62
   151
 10
0.0
 20
0.0
 30
0.0
 70
   128
 71
   357
 72
   346
 73
   375
  0
VERTEX
  5
4D2
  8
0
 62
   151
 10
0.0
 20
0.0
 30
0.0
 70
   128
 71
   372
 72
   371
 73
   375
  0
VERTEX
  5
4D3
  8
0
 62
   151
 10
0.0
 20
0.0
 30
0.0
 70
   128
 71
   374
 72
   376
 73
   377
  0
VERTEX
  5
4D4
  8
0
 62
   151
 10
0.0
 20
0.0
 30
0.0
 70
   128
 71
   376
 72
   375
 73
   371
  0
VERTEX
  5
4D5
  8
0
 62
   151
 10
0.0
 20
0.0
 30
0.0
 70
   128
 71
   346
 72
   372
 73
   375
  0
VERTEX
  5
4D6
  8
0
 62
   151
 10
0.0
 20
0.0
 30
0.0
 70
   128
 71
   377
 72
    70
 73
   239
  0
VERTEX
  5
4D7
  8
0
 62
   151
 10
0.0
 20
0.0
 30
0.0
 70
   128
 71
   356
 72
   252
 73
   253
  0
VERTEX
  5
4D8
  8
0
 62
   151
 10
0.0
 20
0.0
 30
0.0
 70
   128
 71
   374
 72
   255
 73
   373
  0
VERTEX
  5
4D9
  8
0
 62
   151
 10
0.0
 20
0.0
 30
0.0
 70
   128
 71
   378
 72
   354
 73
   355
  0
VERTEX
  5
4DA
  8
0
 62
   151
 10
0.0
 20
0.0
 30
0.0
 70
   128
 71
   353
 72
   380
 73
   379
  0
VERTEX
  5
4DB
  8
0
 62
   151
 10
0.0
 20
0.0
 30
0.0
 70
   128
 71
   381
 72
   380
 73
   353
  0
VERTEX
  5
4DC
  8
0
 62
   151
 10
0.0
 20
0.0
 30
0.0
 70
   128
 71
   379
 72
    91
 73
    90
  0
VERTEX
  5
4DD
  8
0
 62
   151
 10
0.0
 20
0.0
 30
0.0
 70
   128
 71
    90
 72
   353
 73
   379
  0
VERTEX
  5
4DE
  8
0
 62
   151
 10
0.0
 20
0.0
 30
0.0
 70
   128
 71
   354
 72
   381
 73
   353
  0
VERTEX
  5
4DF
  8
0
 62
   151
 10
0.0
 20
0.0
 30
0.0
 70
   128
 71
   382
 72
   354
 73
   378
  0
VERTEX
  5
4E0
  8
0
 62
   151
 10
0.0
 20
0.0
 30
0.0
 70
   128
 71
   382
 72
   381
 73
   354
  0
VERTEX
  5
4E1
  8
0
 62
   151
 10
0.0
 20
0.0
 30
0.0
 70
   128
 71
   384
 72
   355
 73
   383
  0
VERTEX
  5
4E2
  8
0
 62
   151
 10
0.0
 20
0.0
 30
0.0
 70
   128
 71
   355
 72
   384
 73
   378
  0
VERTEX
  5
4E3
  8
0
 62
   151
 10
0.0
 20
0.0
 30
0.0
 70
   128
 71
   355
 72
   356
 73
   385
  0
VERTEX
  5
4E4
  8
0
 62
   151
 10
0.0
 20
0.0
 30
0.0
 70
   128
 71
   385
 72
   383
 73
   355
  0
VERTEX
  5
4E5
  8
0
 62
   151
 10
0.0
 20
0.0
 30
0.0
 70
   128
 71
   385
 72
   356
 73
   253
  0
VERTEX
  5
4E6
  8
0
 62
   151
 10
0.0
 20
0.0
 30
0.0
 70
   128
 71
   256
 72
   373
 73
   250
  0
VERTEX
  5
4E7
  8
0
 62
   151
 10
0.0
 20
0.0
 30
0.0
 70
   128
 71
   373
 72
   256
 73
   252
  0
VERTEX
  5
4E8
  8
0
 62
   151
 10
0.0
 20
0.0
 30
0.0
 70
   128
 71
   356
 72
   373
 73
   252
  0
VERTEX
  5
4E9
  8
0
 62
   151
 10
0.0
 20
0.0
 30
0.0
 70
   128
 71
   250
 72
   373
 73
   255
  0
VERTEX
  5
4EA
  8
0
 62
   151
 10
0.0
 20
0.0
 30
0.0
 70
   128
 71
   249
 72
   254
 73
   374
  0
VERTEX
  5
4EB
  8
0
 62
   151
 10
0.0
 20
0.0
 30
0.0
 70
   128
 71
   374
 72
   254
 73
   255
  0
VERTEX
  5
4EC
  8
0
 62
   151
 10
0.0
 20
0.0
 30
0.0
 70
   128
 71
   249
 72
   377
 73
   240
  0
VERTEX
  5
4ED
  8
0
 62
   151
 10
0.0
 20
0.0
 30
0.0
 70
   128
 71
   377
 72
   249
 73
   374
  0
VERTEX
  5
4EE
  8
0
 62
   151
 10
0.0
 20
0.0
 30
0.0
 70
   128
 71
    71
 72
   239
 73
    70
  0
VERTEX
  5
4EF
  8
0
 62
   151
 10
0.0
 20
0.0
 30
0.0
 70
   128
 71
   239
 72
   240
 73
   377
  0
VERTEX
  5
4F0
  8
0
 62
   151
 10
0.0
 20
0.0
 30
0.0
 70
   128
 71
   251
 72
   245
 73
   386
  0
VERTEX
  5
4F1
  8
0
 62
   151
 10
0.0
 20
0.0
 30
0.0
 70
   128
 71
   386
 72
   388
 73
   387
  0
VERTEX
  5
4F2
  8
0
 62
   151
 10
0.0
 20
0.0
 30
0.0
 70
   128
 71
   389
 72
   384
 73
   387
  0
VERTEX
  5
4F3
  8
0
 62
   151
 10
0.0
 20
0.0
 30
0.0
 70
   128
 71
   391
 72
   390
 73
   266
  0
VERTEX
  5
4F4
  8
0
 62
   151
 10
0.0
 20
0.0
 30
0.0
 70
   128
 71
   387
 72
   383
 73
   385
  0
VERTEX
  5
4F5
  8
0
 62
   151
 10
0.0
 20
0.0
 30
0.0
 70
   128
 71
   251
 72
   385
 73
   253
  0
VERTEX
  5
4F6
  8
0
 62
   151
 10
0.0
 20
0.0
 30
0.0
 70
   128
 71
   382
 72
   389
 73
   391
  0
VERTEX
  5
4F7
  8
0
 62
   151
 10
0.0
 20
0.0
 30
0.0
 70
   128
 71
   380
 72
   267
 73
   379
  0
VERTEX
  5
4F8
  8
0
 62
   151
 10
0.0
 20
0.0
 30
0.0
 70
   128
 71
   384
 72
   383
 73
   387
  0
VERTEX
  5
4F9
  8
0
 62
   151
 10
0.0
 20
0.0
 30
0.0
 70
   128
 71
   387
 72
   385
 73
   251
  0
VERTEX
  5
4FA
  8
0
 62
   151
 10
0.0
 20
0.0
 30
0.0
 70
   128
 71
   389
 72
   387
 73
   388
  0
VERTEX
  5
4FB
  8
0
 62
   151
 10
0.0
 20
0.0
 30
0.0
 70
   128
 71
   389
 72
   388
 73
   390
  0
VERTEX
  5
4FC
  8
0
 62
   151
 10
0.0
 20
0.0
 30
0.0
 70
   128
 71
   267
 72
   380
 73
   391
  0
VERTEX
  5
4FD
  8
0
 62
   151
 10
0.0
 20
0.0
 30
0.0
 70
   128
 71
   389
 72
   390
 73
   391
  0
VERTEX
  5
4FE
  8
0
 62
   151
 10
0.0
 20
0.0
 30
0.0
 70
   128
 71
    91
 72
   379
 73
   267
  0
VERTEX
  5
4FF
  8
0
 62
   151
 10
0.0
 20
0.0
 30
0.0
 70
   128
 71
   389
 72
   378
 73
   384
  0
VERTEX
  5
500
  8
0
 62
   151
 10
0.0
 20
0.0
 30
0.0
 70
   128
 71
   386
 72
   387
 73
   251
  0
VERTEX
  5
501
  8
0
 62
   151
 10
0.0
 20
0.0
 30
0.0
 70
   128
 71
   389
 72
   382
 73
   378
  0
VERTEX
  5
502
  8
0
 62
   151
 10
0.0
 20
0.0
 30
0.0
 70
   128
 71
   391
 72
   381
 73
   382
  0
VERTEX
  5
503
  8
0
 62
   151
 10
0.0
 20
0.0
 30
0.0
 70
   128
 71
   381
 72
   391
 73
   380
  0
VERTEX
  5
504
  8
0
 62
   151
 10
0.0
 20
0.0
 30
0.0
 70
   128
 71
   267
 72
   391
 73
   266
  0
VERTEX
  5
505
  8
0
 62
   151
 10
0.0
 20
0.0
 30
0.0
 70
   128
 71
   238
 72
   288
 73
   390
  0
VERTEX
  5
506
  8
0
 62
   151
 10
0.0
 20
0.0
 30
0.0
 70
   128
 71
   386
 72
   245
 73
   392
  0
VERTEX
  5
507
  8
0
 62
   151
 10
0.0
 20
0.0
 30
0.0
 70
   128
 71
   395
 72
   394
 73
   393
  0
VERTEX
  5
508
  8
0
 62
   151
 10
0.0
 20
0.0
 30
0.0
 70
   128
 71
   238
 72
   162
 73
   288
  0
VERTEX
  5
509
  8
0
 62
   151
 10
0.0
 20
0.0
 30
0.0
 70
   128
 71
    50
 72
   396
 73
    48
  0
VERTEX
  5
50A
  8
0
 62
   151
 10
0.0
 20
0.0
 30
0.0
 70
   128
 71
   397
 72
   396
 73
    50
  0
VERTEX
  5
50B
  8
0
 62
   151
 10
0.0
 20
0.0
 30
0.0
 70
   128
 71
   223
 72
    50
 73
    49
  0
VERTEX
  5
50C
  8
0
 62
   151
 10
0.0
 20
0.0
 30
0.0
 70
   128
 71
   397
 72
   398
 73
   396
  0
VERTEX
  5
50D
  8
0
 62
   151
 10
0.0
 20
0.0
 30
0.0
 70
   128
 71
   394
 72
   398
 73
   397
  0
VERTEX
  5
50E
  8
0
 62
   151
 10
0.0
 20
0.0
 30
0.0
 70
   128
 71
   228
 72
   397
 73
   223
  0
VERTEX
  5
50F
  8
0
 62
   151
 10
0.0
 20
0.0
 30
0.0
 70
   128
 71
   392
 72
   393
 73
   386
  0
VERTEX
  5
510
  8
0
 62
   151
 10
0.0
 20
0.0
 30
0.0
 70
   128
 71
   395
 72
   398
 73
   394
  0
VERTEX
  5
511
  8
0
 62
   151
 10
0.0
 20
0.0
 30
0.0
 70
   128
 71
   399
 72
   393
 73
   237
  0
VERTEX
  5
512
  8
0
 62
   151
 10
0.0
 20
0.0
 30
0.0
 70
   128
 71
   399
 72
   386
 73
   393
  0
VERTEX
  5
513
  8
0
 62
   151
 10
0.0
 20
0.0
 30
0.0
 70
   128
 71
   399
 72
   237
 73
   238
  0
VERTEX
  5
514
  8
0
 62
   151
 10
0.0
 20
0.0
 30
0.0
 70
   128
 71
   231
 72
   237
 73
   393
  0
VERTEX
  5
515
  8
0
 62
   151
 10
0.0
 20
0.0
 30
0.0
 70
   128
 71
   266
 72
   390
 73
   288
  0
VERTEX
  5
516
  8
0
 62
   151
 10
0.0
 20
0.0
 30
0.0
 70
   128
 71
   390
 72
   388
 73
   238
  0
VERTEX
  5
517
  8
0
 62
   151
 10
0.0
 20
0.0
 30
0.0
 70
   128
 71
   399
 72
   388
 73
   386
  0
VERTEX
  5
518
  8
0
 62
   151
 10
0.0
 20
0.0
 30
0.0
 70
   128
 71
   388
 72
   399
 73
   238
  0
VERTEX
  5
519
  8
0
 62
   151
 10
0.0
 20
0.0
 30
0.0
 70
   128
 71
   235
 72
   231
 73
   394
  0
VERTEX
  5
51A
  8
0
 62
   151
 10
0.0
 20
0.0
 30
0.0
 70
   128
 71
   393
 72
   392
 73
   395
  0
VERTEX
  5
51B
  8
0
 62
   151
 10
0.0
 20
0.0
 30
0.0
 70
   128
 71
   393
 72
   394
 73
   231
  0
VERTEX
  5
51C
  8
0
 62
   151
 10
0.0
 20
0.0
 30
0.0
 70
   128
 71
   235
 72
   394
 73
   228
  0
VERTEX
  5
51D
  8
0
 62
   151
 10
0.0
 20
0.0
 30
0.0
 70
   128
 71
   394
 72
   397
 73
   228
  0
VERTEX
  5
51E
  8
0
 62
   151
 10
0.0
 20
0.0
 30
0.0
 70
   128
 71
   397
 72
    50
 73
   223
  0
VERTEX
  5
51F
  8
0
 62
   151
 10
0.0
 20
0.0
 30
0.0
 70
   128
 71
   400
 72
    45
 73
    47
  0
VERTEX
  5
520
  8
0
 62
   151
 10
0.0
 20
0.0
 30
0.0
 70
   128
 71
   243
 72
   244
 73
   401
  0
VERTEX
  5
521
  8
0
 62
   151
 10
0.0
 20
0.0
 30
0.0
 70
   128
 71
   244
 72
    59
 73
    60
  0
VERTEX
  5
522
  8
0
 62
   151
 10
0.0
 20
0.0
 30
0.0
 70
   128
 71
   395
 72
   392
 73
   402
  0
VERTEX
  5
523
  8
0
 62
   151
 10
0.0
 20
0.0
 30
0.0
 70
   128
 71
   402
 72
   392
 73
   401
  0
VERTEX
  5
524
  8
0
 62
   151
 10
0.0
 20
0.0
 30
0.0
 70
   128
 71
   246
 72
   392
 73
   245
  0
VERTEX
  5
525
  8
0
 62
   151
 10
0.0
 20
0.0
 30
0.0
 70
   128
 71
   403
 72
   395
 73
   402
  0
VERTEX
  5
526
  8
0
 62
   151
 10
0.0
 20
0.0
 30
0.0
 70
   128
 71
   194
 72
    45
 73
   400
  0
VERTEX
  5
527
  8
0
 62
   151
 10
0.0
 20
0.0
 30
0.0
 70
   128
 71
   403
 72
   400
 73
   398
  0
VERTEX
  5
528
  8
0
 62
   151
 10
0.0
 20
0.0
 30
0.0
 70
   128
 71
    44
 72
    45
 73
   194
  0
VERTEX
  5
529
  8
0
 62
   151
 10
0.0
 20
0.0
 30
0.0
 70
   128
 71
    48
 72
   396
 73
    47
  0
VERTEX
  5
52A
  8
0
 62
   151
 10
0.0
 20
0.0
 30
0.0
 70
   128
 71
   196
 72
   400
 73
   403
  0
VERTEX
  5
52B
  8
0
 62
   151
 10
0.0
 20
0.0
 30
0.0
 70
   128
 71
   194
 72
   400
 73
   196
  0
VERTEX
  5
52C
  8
0
 62
   151
 10
0.0
 20
0.0
 30
0.0
 70
   128
 71
   243
 72
   401
 73
   246
  0
VERTEX
  5
52D
  8
0
 62
   151
 10
0.0
 20
0.0
 30
0.0
 70
   128
 71
   201
 72
   402
 73
   206
  0
VERTEX
  5
52E
  8
0
 62
   151
 10
0.0
 20
0.0
 30
0.0
 70
   128
 71
   203
 72
   401
 73
    60
  0
VERTEX
  5
52F
  8
0
 62
   151
 10
0.0
 20
0.0
 30
0.0
 70
   128
 71
   401
 72
   392
 73
   246
  0
VERTEX
  5
530
  8
0
 62
   151
 10
0.0
 20
0.0
 30
0.0
 70
   128
 71
   401
 72
   244
 73
    60
  0
VERTEX
  5
531
  8
0
 62
   151
 10
0.0
 20
0.0
 30
0.0
 70
   128
 71
   203
 72
    60
 73
    61
  0
VERTEX
  5
532
  8
0
 62
   151
 10
0.0
 20
0.0
 30
0.0
 70
   128
 71
   400
 72
   396
 73
   398
  0
VERTEX
  5
533
  8
0
 62
   151
 10
0.0
 20
0.0
 30
0.0
 70
   128
 71
   396
 72
   400
 73
    47
  0
VERTEX
  5
534
  8
0
 62
   151
 10
0.0
 20
0.0
 30
0.0
 70
   128
 71
   196
 72
   403
 73
   201
  0
VERTEX
  5
535
  8
0
 62
   151
 10
0.0
 20
0.0
 30
0.0
 70
   128
 71
   395
 72
   403
 73
   398
  0
VERTEX
  5
536
  8
0
 62
   151
 10
0.0
 20
0.0
 30
0.0
 70
   128
 71
   403
 72
   402
 73
   201
  0
VERTEX
  5
537
  8
0
 62
   151
 10
0.0
 20
0.0
 30
0.0
 70
   128
 71
   206
 72
   402
 73
   204
  0
VERTEX
  5
538
  8
0
 62
   151
 10
0.0
 20
0.0
 30
0.0
 70
   128
 71
   401
 72
   204
 73
   402
  0
VERTEX
  5
539
  8
0
 62
   151
 10
0.0
 20
0.0
 30
0.0
 70
   128
 71
   204
 72
   401
 73
   203
  0
VERTEX
  5
53A
  8
0
 62
   151
 10
0.0
 20
0.0
 30
0.0
 70
   128
 71
    58
 72
    59
 73
   202
  0
VERTEX
  5
53B
  8
0
 62
   151
 10
0.0
 20
0.0
 30
0.0
 70
   128
 71
   404
 72
   197
 73
   202
  0
VERTEX
  5
53C
  8
0
 62
   151
 10
0.0
 20
0.0
 30
0.0
 70
   128
 71
   202
 72
    59
 73
   404
  0
VERTEX
  5
53D
  8
0
 62
   151
 10
0.0
 20
0.0
 30
0.0
 70
   128
 71
   276
 72
   405
 73
   277
  0
VERTEX
  5
53E
  8
0
 62
   151
 10
0.0
 20
0.0
 30
0.0
 70
   128
 71
   198
 72
   404
 73
   406
  0
VERTEX
  5
53F
  8
0
 62
   151
 10
0.0
 20
0.0
 30
0.0
 70
   128
 71
   405
 72
   407
 73
   277
  0
VERTEX
  5
540
  8
0
 62
   151
 10
0.0
 20
0.0
 30
0.0
 70
   128
 71
   195
 72
   199
 73
   408
  0
VERTEX
  5
541
  8
0
 62
   151
 10
0.0
 20
0.0
 30
0.0
 70
   128
 71
   193
 72
   195
 73
   407
  0
VERTEX
  5
542
  8
0
 62
   151
 10
0.0
 20
0.0
 30
0.0
 70
   128
 71
   258
 72
   284
 73
   257
  0
VERTEX
  5
543
  8
0
 62
   151
 10
0.0
 20
0.0
 30
0.0
 70
   128
 71
   199
 72
   200
 73
   409
  0
VERTEX
  5
544
  8
0
 62
   151
 10
0.0
 20
0.0
 30
0.0
 70
   128
 71
   406
 72
   205
 73
   198
  0
VERTEX
  5
545
  8
0
 62
   151
 10
0.0
 20
0.0
 30
0.0
 70
   128
 71
   406
 72
   404
 73
   260
  0
VERTEX
  5
546
  8
0
 62
   151
 10
0.0
 20
0.0
 30
0.0
 70
   128
 71
   197
 72
   404
 73
   198
  0
VERTEX
  5
547
  8
0
 62
   151
 10
0.0
 20
0.0
 30
0.0
 70
   128
 71
   260
 72
   404
 73
    59
  0
VERTEX
  5
548
  8
0
 62
   151
 10
0.0
 20
0.0
 30
0.0
 70
   128
 71
   409
 72
   205
 73
   406
  0
VERTEX
  5
549
  8
0
 62
   151
 10
0.0
 20
0.0
 30
0.0
 70
   128
 71
   199
 72
   409
 73
   408
  0
VERTEX
  5
54A
  8
0
 62
   151
 10
0.0
 20
0.0
 30
0.0
 70
   128
 71
   205
 72
   409
 73
   200
  0
VERTEX
  5
54B
  8
0
 62
   151
 10
0.0
 20
0.0
 30
0.0
 70
   128
 71
   257
 72
   406
 73
   264
  0
VERTEX
  5
54C
  8
0
 62
   151
 10
0.0
 20
0.0
 30
0.0
 70
   128
 71
   279
 72
   407
 73
   408
  0
VERTEX
  5
54D
  8
0
 62
   151
 10
0.0
 20
0.0
 30
0.0
 70
   128
 71
   192
 72
   193
 73
   410
  0
VERTEX
  5
54E
  8
0
 62
   151
 10
0.0
 20
0.0
 30
0.0
 70
   128
 71
   407
 72
   405
 73
   410
  0
VERTEX
  5
54F
  8
0
 62
   151
 10
0.0
 20
0.0
 30
0.0
 70
   128
 71
   283
 72
   279
 73
   408
  0
VERTEX
  5
550
  8
0
 62
   151
 10
0.0
 20
0.0
 30
0.0
 70
   128
 71
   410
 72
   193
 73
   407
  0
VERTEX
  5
551
  8
0
 62
   151
 10
0.0
 20
0.0
 30
0.0
 70
   128
 71
   407
 72
   279
 73
   277
  0
VERTEX
  5
552
  8
0
 62
   151
 10
0.0
 20
0.0
 30
0.0
 70
   128
 71
   283
 72
   409
 73
   284
  0
VERTEX
  5
553
  8
0
 62
   151
 10
0.0
 20
0.0
 30
0.0
 70
   128
 71
   408
 72
   407
 73
   195
  0
VERTEX
  5
554
  8
0
 62
   151
 10
0.0
 20
0.0
 30
0.0
 70
   128
 71
   408
 72
   409
 73
   283
  0
VERTEX
  5
555
  8
0
 62
   151
 10
0.0
 20
0.0
 30
0.0
 70
   128
 71
   406
 72
   257
 73
   284
  0
VERTEX
  5
556
  8
0
 62
   151
 10
0.0
 20
0.0
 30
0.0
 70
   128
 71
   284
 72
   409
 73
   406
  0
VERTEX
  5
557
  8
0
 62
   151
 10
0.0
 20
0.0
 30
0.0
 70
   128
 71
   406
 72
   260
 73
   264
  0
VERTEX
  5
558
  8
0
 62
   151
 10
0.0
 20
0.0
 30
0.0
 70
   128
 71
    52
 72
    53
 73
   411
  0
VERTEX
  5
559
  8
0
 62
   151
 10
0.0
 20
0.0
 30
0.0
 70
   128
 71
   186
 72
   187
 73
   191
  0
VERTEX
  5
55A
  8
0
 62
   151
 10
0.0
 20
0.0
 30
0.0
 70
   128
 71
   191
 72
   411
 73
   186
  0
VERTEX
  5
55B
  8
0
 62
   151
 10
0.0
 20
0.0
 30
0.0
 70
   128
 71
   186
 72
   411
 73
    53
  0
VERTEX
  5
55C
  8
0
 62
   151
 10
0.0
 20
0.0
 30
0.0
 70
   128
 71
   329
 72
    20
 73
   215
  0
VERTEX
  5
55D
  8
0
 62
   151
 10
0.0
 20
0.0
 30
0.0
 70
   128
 71
   413
 72
   412
 73
   305
  0
VERTEX
  5
55E
  8
0
 62
   151
 10
0.0
 20
0.0
 30
0.0
 70
   128
 71
    54
 72
   299
 73
    56
  0
VERTEX
  5
55F
  8
0
 62
   151
 10
0.0
 20
0.0
 30
0.0
 70
   128
 71
   324
 72
   414
 73
    56
  0
VERTEX
  5
560
  8
0
 62
   151
 10
0.0
 20
0.0
 30
0.0
 70
   128
 71
   191
 72
   190
 73
   299
  0
VERTEX
  5
561
  8
0
 62
   151
 10
0.0
 20
0.0
 30
0.0
 70
   128
 71
   411
 72
   299
 73
    52
  0
VERTEX
  5
562
  8
0
 62
   151
 10
0.0
 20
0.0
 30
0.0
 70
   128
 71
   192
 72
   300
 73
   190
  0
VERTEX
  5
563
  8
0
 62
   151
 10
0.0
 20
0.0
 30
0.0
 70
   128
 71
   299
 72
   190
 73
   300
  0
VERTEX
  5
564
  8
0
 62
   151
 10
0.0
 20
0.0
 30
0.0
 70
   128
 71
   410
 72
   405
 73
   300
  0
VERTEX
  5
565
  8
0
 62
   151
 10
0.0
 20
0.0
 30
0.0
 70
   128
 71
   410
 72
   300
 73
   192
  0
VERTEX
  5
566
  8
0
 62
   151
 10
0.0
 20
0.0
 30
0.0
 70
   128
 71
   300
 72
   276
 73
   274
  0
VERTEX
  5
567
  8
0
 62
   151
 10
0.0
 20
0.0
 30
0.0
 70
   128
 71
   405
 72
   276
 73
   300
  0
VERTEX
  5
568
  8
0
 62
   151
 10
0.0
 20
0.0
 30
0.0
 70
   128
 71
   411
 72
   191
 73
   299
  0
VERTEX
  5
569
  8
0
 62
   151
 10
0.0
 20
0.0
 30
0.0
 70
   128
 71
   280
 72
   300
 73
   274
  0
VERTEX
  5
56A
  8
0
 62
   151
 10
0.0
 20
0.0
 30
0.0
 70
   128
 71
   299
 72
    54
 73
    52
  0
VERTEX
  5
56B
  8
0
 62
   151
 10
0.0
 20
0.0
 30
0.0
 70
   128
 71
   299
 72
   324
 73
    56
  0
VERTEX
  5
56C
  8
0
 62
   151
 10
0.0
 20
0.0
 30
0.0
 70
   128
 71
   414
 72
   325
 73
   415
  0
VERTEX
  5
56D
  8
0
 62
   151
 10
0.0
 20
0.0
 30
0.0
 70
   128
 71
   324
 72
   325
 73
   414
  0
VERTEX
  5
56E
  8
0
 62
   151
 10
0.0
 20
0.0
 30
0.0
 70
   128
 71
   325
 72
   326
 73
   415
  0
VERTEX
  5
56F
  8
0
 62
   151
 10
0.0
 20
0.0
 30
0.0
 70
   128
 71
   417
 72
   416
 73
   326
  0
VERTEX
  5
570
  8
0
 62
   151
 10
0.0
 20
0.0
 30
0.0
 70
   128
 71
   326
 72
   416
 73
   415
  0
VERTEX
  5
571
  8
0
 62
   151
 10
0.0
 20
0.0
 30
0.0
 70
   128
 71
   417
 72
   323
 73
   418
  0
VERTEX
  5
572
  8
0
 62
   151
 10
0.0
 20
0.0
 30
0.0
 70
   128
 71
   323
 72
   417
 73
   326
  0
VERTEX
  5
573
  8
0
 62
   151
 10
0.0
 20
0.0
 30
0.0
 70
   128
 71
   304
 72
   412
 73
   418
  0
VERTEX
  5
574
  8
0
 62
   151
 10
0.0
 20
0.0
 30
0.0
 70
   128
 71
   418
 72
   323
 73
   304
  0
VERTEX
  5
575
  8
0
 62
   151
 10
0.0
 20
0.0
 30
0.0
 70
   128
 71
   305
 72
   327
 73
   413
  0
VERTEX
  5
576
  8
0
 62
   151
 10
0.0
 20
0.0
 30
0.0
 70
   128
 71
   304
 72
   305
 73
   412
  0
VERTEX
  5
577
  8
0
 62
   151
 10
0.0
 20
0.0
 30
0.0
 70
   128
 71
   419
 72
   327
 73
   307
  0
VERTEX
  5
578
  8
0
 62
   151
 10
0.0
 20
0.0
 30
0.0
 70
   128
 71
   327
 72
   419
 73
   413
  0
VERTEX
  5
579
  8
0
 62
   151
 10
0.0
 20
0.0
 30
0.0
 70
   128
 71
   307
 72
   328
 73
   420
  0
VERTEX
  5
57A
  8
0
 62
   151
 10
0.0
 20
0.0
 30
0.0
 70
   128
 71
   420
 72
   419
 73
   307
  0
VERTEX
  5
57B
  8
0
 62
   151
 10
0.0
 20
0.0
 30
0.0
 70
   128
 71
   329
 72
   421
 73
   328
  0
VERTEX
  5
57C
  8
0
 62
   151
 10
0.0
 20
0.0
 30
0.0
 70
   128
 71
   420
 72
   328
 73
   421
  0
VERTEX
  5
57D
  8
0
 62
   151
 10
0.0
 20
0.0
 30
0.0
 70
   128
 71
   422
 72
   329
 73
   220
  0
VERTEX
  5
57E
  8
0
 62
   151
 10
0.0
 20
0.0
 30
0.0
 70
   128
 71
   329
 72
   422
 73
   421
  0
VERTEX
  5
57F
  8
0
 62
   151
 10
0.0
 20
0.0
 30
0.0
 70
   128
 71
   219
 72
   217
 73
    14
  0
VERTEX
  5
580
  8
0
 62
   151
 10
0.0
 20
0.0
 30
0.0
 70
   128
 71
   217
 72
    31
 73
    14
  0
VERTEX
  5
581
  8
0
 62
   151
 10
0.0
 20
0.0
 30
0.0
 70
   128
 71
    20
 72
    21
 73
   215
  0
VERTEX
  5
582
  8
0
 62
   151
 10
0.0
 20
0.0
 30
0.0
 70
   128
 71
   219
 72
   422
 73
   222
  0
VERTEX
  5
583
  8
0
 62
   151
 10
0.0
 20
0.0
 30
0.0
 70
   128
 71
   422
 72
   219
 73
    14
  0
VERTEX
  5
584
  8
0
 62
   151
 10
0.0
 20
0.0
 30
0.0
 70
   128
 71
   220
 72
   221
 73
   422
  0
VERTEX
  5
585
  8
0
 62
   151
 10
0.0
 20
0.0
 30
0.0
 70
   128
 71
   221
 72
   222
 73
   422
  0
VERTEX
  5
586
  8
0
 62
   151
 10
0.0
 20
0.0
 30
0.0
 70
   128
 71
   218
 72
   329
 73
   216
  0
VERTEX
  5
587
  8
0
 62
   151
 10
0.0
 20
0.0
 30
0.0
 70
   128
 71
   218
 72
   220
 73
   329
  0
VERTEX
  5
588
  8
0
 62
   151
 10
0.0
 20
0.0
 30
0.0
 70
   128
 71
   215
 72
   216
 73
   329
  0
VERTEX
  5
589
  8
0
 62
   151
 10
0.0
 20
0.0
 30
0.0
 70
   128
 71
     4
 72
     3
 73
   188
  0
VERTEX
  5
58A
  8
0
 62
   151
 10
0.0
 20
0.0
 30
0.0
 70
   128
 71
    41
 72
    42
 73
   189
  0
VERTEX
  5
58B
  8
0
 62
   151
 10
0.0
 20
0.0
 30
0.0
 70
   128
 71
    41
 72
   189
 73
   188
  0
VERTEX
  5
58C
  8
0
 62
   151
 10
0.0
 20
0.0
 30
0.0
 70
   128
 71
     3
 72
    41
 73
   188
  0
VERTEX
  5
58D
  8
0
 62
   151
 10
0.0
 20
0.0
 30
0.0
 70
   128
 71
    51
 72
     6
 73
     2
  0
VERTEX
  5
58E
  8
0
 62
   151
 10
0.0
 20
0.0
 30
0.0
 70
   128
 71
   414
 72
    39
 73
    55
  0
VERTEX
  5
58F
  8
0
 62
   151
 10
0.0
 20
0.0
 30
0.0
 70
   128
 71
     2
 72
     4
 73
    53
  0
VERTEX
  5
590
  8
0
 62
   151
 10
0.0
 20
0.0
 30
0.0
 70
   128
 71
     2
 72
    53
 73
    51
  0
VERTEX
  5
591
  8
0
 62
   151
 10
0.0
 20
0.0
 30
0.0
 70
   128
 71
     6
 72
    51
 73
    55
  0
VERTEX
  5
592
  8
0
 62
   151
 10
0.0
 20
0.0
 30
0.0
 70
   128
 71
     6
 72
    55
 73
    39
  0
VERTEX
  5
593
  8
0
 62
   151
 10
0.0
 20
0.0
 30
0.0
 70
   128
 71
     6
 72
    39
 73
     5
  0
VERTEX
  5
594
  8
0
 62
   151
 10
0.0
 20
0.0
 30
0.0
 70
   128
 71
    34
 72
   416
 73
    32
  0
VERTEX
  5
595
  8
0
 62
   151
 10
0.0
 20
0.0
 30
0.0
 70
   128
 71
   415
 72
    36
 73
   414
  0
VERTEX
  5
596
  8
0
 62
   151
 10
0.0
 20
0.0
 30
0.0
 70
   128
 71
    23
 72
    28
 73
   412
  0
VERTEX
  5
597
  8
0
 62
   151
 10
0.0
 20
0.0
 30
0.0
 70
   128
 71
   418
 72
    30
 73
   417
  0
VERTEX
  5
598
  8
0
 62
   151
 10
0.0
 20
0.0
 30
0.0
 70
   128
 71
   420
 72
    12
 73
    13
  0
VERTEX
  5
599
  8
0
 62
   151
 10
0.0
 20
0.0
 30
0.0
 70
   128
 71
   413
 72
   419
 73
    26
  0
VERTEX
  5
59A
  8
0
 62
   151
 10
0.0
 20
0.0
 30
0.0
 70
   128
 71
   422
 72
    14
 73
     7
  0
VERTEX
  5
59B
  8
0
 62
   151
 10
0.0
 20
0.0
 30
0.0
 70
   128
 71
    12
 72
   421
 73
     7
  0
VERTEX
  5
59C
  8
0
 62
   151
 10
0.0
 20
0.0
 30
0.0
 70
   128
 71
   421
 72
    12
 73
   420
  0
VERTEX
  5
59D
  8
0
 62
   151
 10
0.0
 20
0.0
 30
0.0
 70
   128
 71
   422
 72
     7
 73
   421
  0
VERTEX
  5
59E
  8
0
 62
   151
 10
0.0
 20
0.0
 30
0.0
 70
   128
 71
   419
 72
   420
 73
    13
  0
VERTEX
  5
59F
  8
0
 62
   151
 10
0.0
 20
0.0
 30
0.0
 70
   128
 71
    26
 72
   419
 73
    13
  0
VERTEX
  5
5A0
  8
0
 62
   151
 10
0.0
 20
0.0
 30
0.0
 70
   128
 71
   413
 72
    23
 73
   412
  0
VERTEX
  5
5A1
  8
0
 62
   151
 10
0.0
 20
0.0
 30
0.0
 70
   128
 71
    26
 72
    23
 73
   413
  0
VERTEX
  5
5A2
  8
0
 62
   151
 10
0.0
 20
0.0
 30
0.0
 70
   128
 71
    28
 72
    30
 73
   418
  0
VERTEX
  5
5A3
  8
0
 62
   151
 10
0.0
 20
0.0
 30
0.0
 70
   128
 71
    28
 72
   418
 73
   412
  0
VERTEX
  5
5A4
  8
0
 62
   151
 10
0.0
 20
0.0
 30
0.0
 70
   128
 71
    32
 72
   416
 73
   417
  0
VERTEX
  5
5A5
  8
0
 62
   151
 10
0.0
 20
0.0
 30
0.0
 70
   128
 71
    32
 72
   417
 73
    30
  0
VERTEX
  5
5A6
  8
0
 62
   151
 10
0.0
 20
0.0
 30
0.0
 70
   128
 71
    36
 72
   415
 73
    34
  0
VERTEX
  5
5A7
  8
0
 62
   151
 10
0.0
 20
0.0
 30
0.0
 70
   128
 71
   415
 72
   416
 73
    34
  0
VERTEX
  5
5A8
  8
0
 62
   151
 10
0.0
 20
0.0
 30
0.0
 70
   128
 71
    56
 72
   414
 73
    55
  0
VERTEX
  5
5A9
  8
0
 62
   151
 10
0.0
 20
0.0
 30
0.0
 70
   128
 71
   414
 72
    36
 73
    39
  0
SEQEND
  5
5AA
  8
0
 62
   151
  0
ENDBLK
  5
5AD
  8
0
  0
BLOCK
  8
0
  2
40
 70
     0
 10
0.0
 20
0.0
 30
0.0
  3
40
  1

  0
POLYLINE
  5
5AF
  8
0
 62
   151
 66
     1
 10
0.0
 20
0.0
 30
0.0
 70
    64
 71
   152
 72
   284
  0
VERTEX
  5
5B0
  8
0
 10
-2.388053178787231
 20
-24.657958984375
 30
20.5
 70
   192
  0
VERTEX
  5
5B1
  8
0
 10
-4.290609836578369
 20
-25.11843299865723
 30
178.5
 70
   192
  0
VERTEX
  5
5B2
  8
0
 10
0.0947395265102386
 20
-24.43630218505859
 30
178.5
 70
   192
  0
VERTEX
  5
5B3
  8
0
 10
-6.932300567626953
 20
-26.27071189880371
 30
20.5
 70
   192
  0
VERTEX
  5
5B4
  8
0
 10
-8.201290130615234
 20
-27.06076431274414
 30
178.5
 70
   192
  0
VERTEX
  5
5B5
  8
0
 10
-11.30508232116699
 20
-30.0859489440918
 30
178.5
 70
   192
  0
VERTEX
  5
5B6
  8
0
 10
-10.69630241394043
 20
-29.32464599609375
 30
20.5
 70
   192
  0
VERTEX
  5
5B7
  8
0
 10
-13.20517253875732
 20
-33.53689956665039
 30
20.5
 70
   192
  0
VERTEX
  5
5B8
  8
0
 10
-13.35640907287598
 20
-33.98872756958008
 30
178.5
 70
   192
  0
VERTEX
  5
5B9
  8
0
 10
-14.0
 20
-38.40000152587891
 30
20.5
 70
   192
  0
VERTEX
  5
5BA
  8
0
 10
-14.0
 20
-38.40000152587891
 30
178.5
 70
   192
  0
VERTEX
  5
5BB
  8
0
 10
2.475708484649658
 20
-24.63895416259766
 30
20.5
 70
   192
  0
VERTEX
  5
5BC
  8
0
 10
7.049906730651855
 20
-26.40000915527344
 30
20.5
 70
   192
  0
VERTEX
  5
5BD
  8
0
 10
4.391937255859375
 20
-25.16620826721191
 30
178.5
 70
   192
  0
VERTEX
  5
5BE
  8
0
 10
8.237374305725098
 20
-27.1851692199707
 30
178.5
 70
   192
  0
VERTEX
  5
5BF
  8
0
 10
10.72506999969482
 20
-29.56447410583496
 30
20.5
 70
   192
  0
VERTEX
  5
5C0
  8
0
 10
11.31519508361816
 20
-30.32161521911621
 30
178.5
 70
   192
  0
VERTEX
  5
5C1
  8
0
 10
13.09206962585449
 20
-33.6310920715332
 30
20.5
 70
   192
  0
VERTEX
  5
5C2
  8
0
 10
14.0
 20
-38.40000152587891
 30
20.5
 70
   192
  0
VERTEX
  5
5C3
  8
0
 10
13.24851989746094
 20
-34.07638168334961
 30
178.5
 70
   192
  0
VERTEX
  5
5C4
  8
0
 10
14.0
 20
-38.40000152587891
 30
178.5
 70
   192
  0
VERTEX
  5
5C5
  8
0
 10
18.85480308532715
 20
-28.74482727050781
 30
228.8048400878906
 70
   192
  0
VERTEX
  5
5C6
  8
0
 10
33.03787612915039
 20
-28.74482727050781
 30
234.6796569824219
 70
   192
  0
VERTEX
  5
5C7
  8
0
 10
21.97192192077637
 20
-24.95999908447266
 30
223.4246673583984
 70
   192
  0
VERTEX
  5
5C8
  8
0
 10
48.0
 20
-30.32161521911621
 30
215.1847991943359
 70
   192
  0
VERTEX
  5
5C9
  8
0
 10
39.05515289306641
 20
-33.85945892333984
 30
212.0860290527344
 70
   192
  0
VERTEX
  5
5CA
  8
0
 10
38.25598526000977
 20
-28.74482727050781
 30
215.0867462158203
 70
   192
  0
VERTEX
  5
5CB
  8
0
 10
34.63809585571289
 20
-24.95999908447266
 30
228.6711730957031
 70
   192
  0
VERTEX
  5
5CC
  8
0
 10
48.0
 20
-27.06076431274414
 30
234.7012939453125
 70
   192
  0
VERTEX
  5
5CD
  8
0
 10
8.234171867370605
 20
-27.1851692199707
 30
218.2658233642578
 70
   192
  0
VERTEX
  5
5CE
  8
0
 10
6.057823181152344
 20
-30.32161521911621
 30
220.4421844482422
 70
   192
  0
VERTEX
  5
5CF
  8
0
 10
32.23870849609375
 20
-33.85945892333984
 30
237.6803741455078
 70
   192
  0
VERTEX
  5
5D0
  8
0
 10
17.29807472229004
 20
-33.85945892333984
 30
231.4917602539062
 70
   192
  0
VERTEX
  5
5D1
  8
0
 10
32.04395294189453
 20
-38.40000152587891
 30
238.4116363525391
 70
   192
  0
VERTEX
  5
5D2
  8
0
 10
48.0
 20
-30.0859489440918
 30
237.8050842285156
 70
   192
  0
VERTEX
  5
5D3
  8
0
 10
48.0
 20
-33.98872756958008
 30
239.8564147949219
 70
   192
  0
VERTEX
  5
5D4
  8
0
 10
48.0
 20
-38.40000152587891
 30
240.5
 70
   192
  0
VERTEX
  5
5D5
  8
0
 10
4.690755844116211
 20
-34.07638168334961
 30
221.8092498779297
 70
   192
  0
VERTEX
  5
5D6
  8
0
 10
16.91870307922363
 20
-38.40000152587891
 30
232.1465606689453
 70
   192
  0
VERTEX
  5
5D7
  8
0
 10
48.0
 20
-25.11843299865723
 30
230.7906036376953
 70
   192
  0
VERTEX
  5
5D8
  8
0
 10
4.159379482269287
 20
-38.40000152587891
 30
222.3406219482422
 70
   192
  0
VERTEX
  5
5D9
  8
0
 10
25.90220069885254
 20
-24.95999908447266
 30
216.6409759521484
 70
   192
  0
VERTEX
  5
5DA
  8
0
 10
48.0
 20
-24.43630218505859
 30
226.4052581787109
 70
   192
  0
VERTEX
  5
5DB
  8
0
 10
36.65576553344727
 20
-24.95999908447266
 30
221.0952453613281
 70
   192
  0
VERTEX
  5
5DC
  8
0
 10
17.09279441833496
 20
-25.11843299865723
 30
209.4072113037109
 70
   192
  0
VERTEX
  5
5DD
  8
0
 10
13.99188327789307
 20
-24.43630218505859
 30
212.5081176757812
 70
   192
  0
VERTEX
  5
5DE
  8
0
 10
29.01931953430176
 20
-28.74482727050781
 30
211.2608032226562
 70
   192
  0
VERTEX
  5
5DF
  8
0
 10
48.0
 20
-27.1851692199707
 30
218.2626190185547
 70
   192
  0
VERTEX
  5
5E0
  8
0
 10
30.57604789733887
 20
-33.85945892333984
 30
208.5738830566406
 70
   192
  0
VERTEX
  5
5E1
  8
0
 10
30.95541763305664
 20
-38.40000152587891
 30
207.9190826416016
 70
   192
  0
VERTEX
  5
5E2
  8
0
 10
39.24990844726562
 20
-38.40000152587891
 30
211.3547668457031
 70
   192
  0
VERTEX
  5
5E3
  8
0
 10
48.0
 20
-38.40000152587891
 30
212.5
 70
   192
  0
VERTEX
  5
5E4
  8
0
 10
48.0
 20
-34.07638168334961
 30
213.2514801025391
 70
   192
  0
VERTEX
  5
5E5
  8
0
 10
22.05277442932129
 20
-30.0859489440918
 30
204.4472198486328
 70
   192
  0
VERTEX
  5
5E6
  8
0
 10
23.50328254699707
 20
-33.98872756958008
 30
202.9967193603516
 70
   192
  0
VERTEX
  5
5E7
  8
0
 10
23.95837020874023
 20
-38.40000152587891
 30
202.5416259765625
 70
   192
  0
VERTEX
  5
5E8
  8
0
 10
19.85806274414062
 20
-27.06076431274414
 30
206.6419372558594
 70
   192
  0
VERTEX
  5
5E9
  8
0
 10
10.95330619812012
 20
-25.16620826721191
 30
215.5466918945312
 70
   192
  0
VERTEX
  5
5EA
  8
0
 10
48.0
 20
-25.16620826721191
 30
222.1080627441406
 70
   192
  0
VERTEX
  5
5EB
  8
0
 10
-8.179656982421875
 20
-28.74482727050781
 30
193.4621276855469
 70
   192
  0
VERTEX
  5
5EC
  8
0
 10
-2.304835557937622
 20
-28.74482727050781
 30
207.6452026367188
 70
   192
  0
VERTEX
  5
5ED
  8
0
 10
-2.171166181564331
 20
-24.95999908447266
 30
191.8619079589844
 70
   192
  0
VERTEX
  5
5EE
  8
0
 10
17.92612457275391
 20
-33.85945892333984
 30
195.9239501953125
 70
   192
  0
VERTEX
  5
5EF
  8
0
 10
15.2391996383667
 20
-28.74482727050781
 30
197.4806823730469
 70
   192
  0
VERTEX
  5
5F0
  8
0
 10
3.075335264205933
 20
-24.95999908447266
 30
204.528076171875
 70
   192
  0
VERTEX
  5
5F1
  8
0
 10
-4.991759777069092
 20
-33.85945892333984
 30
209.2019195556641
 70
   192
  0
VERTEX
  5
5F2
  8
0
 10
-11.18037223815918
 20
-33.85945892333984
 30
194.2612915039062
 70
   192
  0
VERTEX
  5
5F3
  8
0
 10
-5.646556854248047
 20
-38.40000152587891
 30
209.581298828125
 70
   192
  0
VERTEX
  5
5F4
  8
0
 10
-11.91163921356201
 20
-38.40000152587891
 30
194.4560546875
 70
   192
  0
VERTEX
  5
5F5
  8
0
 10
5.404757022857666
 20
-24.95999908447266
 30
189.84423828125
 70
   192
  0
VERTEX
  5
5F6
  8
0
 10
9.859028816223145
 20
-24.95999908447266
 30
200.5977935791016
 70
   192
  0
VERTEX
  5
5F7
  8
0
 10
11.41324806213379
 20
-28.74482727050781
 30
188.2440185546875
 70
   192
  0
VERTEX
  5
5F8
  8
0
 10
14.41396331787109
 20
-33.85945892333984
 30
187.4448394775391
 70
   192
  0
VERTEX
  5
5F9
  8
0
 10
15.14523029327393
 20
-38.40000152587891
 30
187.2500915527344
 70
   192
  0
VERTEX
  5
5FA
  8
0
 10
18.5809211730957
 20
-38.40000152587891
 30
195.5445861816406
 70
   192
  0
VERTEX
  5
5FB
  8
0
 10
-2.171166181564331
 20
-51.84000015258789
 30
191.8619079589844
 70
   192
  0
VERTEX
  5
5FC
  8
0
 10
-4.290609836578369
 20
-51.68156433105469
 30
178.5
 70
   192
  0
VERTEX
  5
5FD
  8
0
 10
0.0947395265102386
 20
-52.36369705200195
 30
178.5
 70
   192
  0
VERTEX
  5
5FE
  8
0
 10
-11.18037223815918
 20
-42.9405403137207
 30
194.2612915039062
 70
   192
  0
VERTEX
  5
5FF
  8
0
 10
-13.35640907287598
 20
-42.81127166748047
 30
178.5
 70
   192
  0
VERTEX
  5
600
  8
0
 10
-11.30508232116699
 20
-46.71405029296875
 30
178.5
 70
   192
  0
VERTEX
  5
601
  8
0
 10
5.404757022857666
 20
-51.84000015258789
 30
189.84423828125
 70
   192
  0
VERTEX
  5
602
  8
0
 10
3.075335264205933
 20
-51.84000015258789
 30
204.528076171875
 70
   192
  0
VERTEX
  5
603
  8
0
 10
4.391937255859375
 20
-51.63379287719727
 30
178.5
 70
   192
  0
VERTEX
  5
604
  8
0
 10
8.237374305725098
 20
-49.61483001708984
 30
178.5
 70
   192
  0
VERTEX
  5
605
  8
0
 10
17.92612457275391
 20
-42.9405403137207
 30
195.9239501953125
 70
   192
  0
VERTEX
  5
606
  8
0
 10
23.50328254699707
 20
-42.81127166748047
 30
202.9967193603516
 70
   192
  0
VERTEX
  5
607
  8
0
 10
22.05277442932129
 20
-46.71405029296875
 30
204.4472198486328
 70
   192
  0
VERTEX
  5
608
  8
0
 10
11.41324806213379
 20
-48.05517196655273
 30
188.2440185546875
 70
   192
  0
VERTEX
  5
609
  8
0
 10
15.2391996383667
 20
-48.05517196655273
 30
197.4806823730469
 70
   192
  0
VERTEX
  5
60A
  8
0
 10
9.859028816223145
 20
-51.84000015258789
 30
200.5977935791016
 70
   192
  0
VERTEX
  5
60B
  8
0
 10
14.41396331787109
 20
-42.9405403137207
 30
187.4448394775391
 70
   192
  0
VERTEX
  5
60C
  8
0
 10
13.24851989746094
 20
-42.72361755371094
 30
178.5
 70
   192
  0
VERTEX
  5
60D
  8
0
 10
-2.304835557937622
 20
-48.05517196655273
 30
207.6452026367188
 70
   192
  0
VERTEX
  5
60E
  8
0
 10
13.99188327789307
 20
-52.36369705200195
 30
212.5081176757812
 70
   192
  0
VERTEX
  5
60F
  8
0
 10
-8.179656982421875
 20
-48.05517196655273
 30
193.4621276855469
 70
   192
  0
VERTEX
  5
610
  8
0
 10
-4.991759777069092
 20
-42.9405403137207
 30
209.2019195556641
 70
   192
  0
VERTEX
  5
611
  8
0
 10
8.234171867370605
 20
-49.61483001708984
 30
218.2658233642578
 70
   192
  0
VERTEX
  5
612
  8
0
 10
-8.201290130615234
 20
-49.73923492431641
 30
178.5
 70
   192
  0
VERTEX
  5
613
  8
0
 10
6.057823181152344
 20
-46.47838592529297
 30
220.4421844482422
 70
   192
  0
VERTEX
  5
614
  8
0
 10
4.690755844116211
 20
-42.72361755371094
 30
221.8092498779297
 70
   192
  0
VERTEX
  5
615
  8
0
 10
10.95330619812012
 20
-51.63379287719727
 30
215.5466918945312
 70
   192
  0
VERTEX
  5
616
  8
0
 10
11.31519508361816
 20
-46.47838592529297
 30
178.5
 70
   192
  0
VERTEX
  5
617
  8
0
 10
19.85806274414062
 20
-49.73923492431641
 30
206.6419372558594
 70
   192
  0
VERTEX
  5
618
  8
0
 10
17.09279441833496
 20
-51.68156433105469
 30
209.4072113037109
 70
   192
  0
VERTEX
  5
619
  8
0
 10
126.0
 20
-24.66043853759766
 30
229.0362854003906
 70
   192
  0
VERTEX
  5
61A
  8
0
 10
126.0
 20
-24.60783958435059
 30
224.1696014404297
 70
   192
  0
VERTEX
  5
61B
  8
0
 10
126.0
 20
-26.27055168151855
 30
233.4911956787109
 70
   192
  0
VERTEX
  5
61C
  8
0
 10
126.0
 20
-29.49017333984375
 30
237.2797698974609
 70
   192
  0
VERTEX
  5
61D
  8
0
 10
126.0
 20
-33.53332138061523
 30
239.6160430908203
 70
   192
  0
VERTEX
  5
61E
  8
0
 10
126.0
 20
-38.40000152587891
 30
240.5
 70
   192
  0
VERTEX
  5
61F
  8
0
 10
126.0
 20
-26.27055168151855
 30
219.5088043212891
 70
   192
  0
VERTEX
  5
620
  8
0
 10
126.0
 20
-29.33297538757324
 30
215.8774261474609
 70
   192
  0
VERTEX
  5
621
  8
0
 10
126.0
 20
-33.53332138061523
 30
213.3839569091797
 70
   192
  0
VERTEX
  5
622
  8
0
 10
126.0
 20
-38.40000152587891
 30
212.5
 70
   192
  0
VERTEX
  5
623
  8
0
 10
126.0
 20
-43.16890716552734
 30
213.4079284667969
 70
   192
  0
VERTEX
  5
624
  8
0
 10
126.0
 20
-52.16104507446289
 30
224.0242919921875
 70
   192
  0
VERTEX
  5
625
  8
0
 10
126.0
 20
-47.23552703857422
 30
215.7749328613281
 70
   192
  0
VERTEX
  5
626
  8
0
 10
126.0
 20
-50.39999008178711
 30
219.4500885009766
 70
   192
  0
VERTEX
  5
627
  8
0
 10
126.0
 20
-52.14204025268555
 30
228.8880462646484
 70
   192
  0
VERTEX
  5
628
  8
0
 10
126.0
 20
-47.4753532409668
 30
237.1963043212891
 70
   192
  0
VERTEX
  5
629
  8
0
 10
126.0
 20
-50.52928924560547
 30
233.4322967529297
 70
   192
  0
VERTEX
  5
62A
  8
0
 10
126.0
 20
-43.26309967041016
 30
239.7051696777344
 70
   192
  0
VERTEX
  5
62B
  8
0
 10
48.0
 20
-42.81127166748047
 30
239.8564147949219
 70
   192
  0
VERTEX
  5
62C
  8
0
 10
48.0
 20
-51.68156433105469
 30
230.7906036376953
 70
   192
  0
VERTEX
  5
62D
  8
0
 10
48.0
 20
-49.73923492431641
 30
234.7012939453125
 70
   192
  0
VERTEX
  5
62E
  8
0
 10
48.0
 20
-46.71405029296875
 30
237.8050842285156
 70
   192
  0
VERTEX
  5
62F
  8
0
 10
48.0
 20
-51.63379287719727
 30
222.1080627441406
 70
   192
  0
VERTEX
  5
630
  8
0
 10
48.0
 20
-49.61483001708984
 30
218.2626190185547
 70
   192
  0
VERTEX
  5
631
  8
0
 10
48.0
 20
-52.36369705200195
 30
226.4052581787109
 70
   192
  0
VERTEX
  5
632
  8
0
 10
48.0
 20
-46.47838592529297
 30
215.1847991943359
 70
   192
  0
VERTEX
  5
633
  8
0
 10
48.0
 20
-42.72361755371094
 30
213.2514801025391
 70
   192
  0
VERTEX
  5
634
  8
0
 10
21.97192192077637
 20
-51.84000015258789
 30
223.4246673583984
 70
   192
  0
VERTEX
  5
635
  8
0
 10
17.29807472229004
 20
-42.9405403137207
 30
231.4917602539062
 70
   192
  0
VERTEX
  5
636
  8
0
 10
25.90220069885254
 20
-51.84000015258789
 30
216.6409759521484
 70
   192
  0
VERTEX
  5
637
  8
0
 10
34.63809585571289
 20
-51.84000015258789
 30
228.6711730957031
 70
   192
  0
VERTEX
  5
638
  8
0
 10
39.05515289306641
 20
-42.9405403137207
 30
212.0860290527344
 70
   192
  0
VERTEX
  5
639
  8
0
 10
29.01931953430176
 20
-48.05517196655273
 30
211.2608032226562
 70
   192
  0
VERTEX
  5
63A
  8
0
 10
38.25598526000977
 20
-48.05517196655273
 30
215.0867462158203
 70
   192
  0
VERTEX
  5
63B
  8
0
 10
36.65576553344727
 20
-51.84000015258789
 30
221.0952453613281
 70
   192
  0
VERTEX
  5
63C
  8
0
 10
30.57604789733887
 20
-42.9405403137207
 30
208.5738830566406
 70
   192
  0
VERTEX
  5
63D
  8
0
 10
33.03787612915039
 20
-48.05517196655273
 30
234.6796569824219
 70
   192
  0
VERTEX
  5
63E
  8
0
 10
18.85480308532715
 20
-48.05517196655273
 30
228.8048400878906
 70
   192
  0
VERTEX
  5
63F
  8
0
 10
32.23870849609375
 20
-42.9405403137207
 30
237.6803741455078
 70
   192
  0
VERTEX
  5
640
  8
0
 10
-13.09206962585449
 20
-43.16890716552734
 30
20.5
 70
   192
  0
VERTEX
  5
641
  8
0
 10
-2.475708484649658
 20
-52.16104507446289
 30
20.5
 70
   192
  0
VERTEX
  5
642
  8
0
 10
-10.72506999969482
 20
-47.23552703857422
 30
20.5
 70
   192
  0
VERTEX
  5
643
  8
0
 10
10.69630241394043
 20
-47.4753532409668
 30
20.5
 70
   192
  0
VERTEX
  5
644
  8
0
 10
2.388053178787231
 20
-52.14204025268555
 30
20.5
 70
   192
  0
VERTEX
  5
645
  8
0
 10
6.932300567626953
 20
-50.52928924560547
 30
20.5
 70
   192
  0
VERTEX
  5
646
  8
0
 10
13.20517253875732
 20
-43.26309967041016
 30
20.5
 70
   192
  0
VERTEX
  5
647
  8
0
 10
-7.049906730651855
 20
-50.39999008178711
 30
20.5
 70
   192
  0
VERTEX
  5
648
  8
0
 62
   151
 10
0.0
 20
0.0
 30
0.0
 70
   128
 71
     3
 72
     2
 73
     1
  0
VERTEX
  5
649
  8
0
 62
   151
 10
0.0
 20
0.0
 30
0.0
 70
   128
 71
     5
 72
     4
 73
     2
  0
VERTEX
  5
64A
  8
0
 62
   151
 10
0.0
 20
0.0
 30
0.0
 70
   128
 71
     1
 72
     2
 73
     4
  0
VERTEX
  5
64B
  8
0
 62
   151
 10
0.0
 20
0.0
 30
0.0
 70
   128
 71
     7
 72
     5
 73
     6
  0
VERTEX
  5
64C
  8
0
 62
   151
 10
0.0
 20
0.0
 30
0.0
 70
   128
 71
     5
 72
     7
 73
     4
  0
VERTEX
  5
64D
  8
0
 62
   151
 10
0.0
 20
0.0
 30
0.0
 70
   128
 71
     6
 72
     9
 73
     8
  0
VERTEX
  5
64E
  8
0
 62
   151
 10
0.0
 20
0.0
 30
0.0
 70
   128
 71
     8
 72
     7
 73
     6
  0
VERTEX
  5
64F
  8
0
 62
   151
 10
0.0
 20
0.0
 30
0.0
 70
   128
 71
     8
 72
     9
 73
    10
  0
VERTEX
  5
650
  8
0
 62
   151
 10
0.0
 20
0.0
 30
0.0
 70
   128
 71
     9
 72
    11
 73
    10
  0
VERTEX
  5
651
  8
0
 62
   151
 10
0.0
 20
0.0
 30
0.0
 70
   128
 71
    12
 72
     3
 73
     1
  0
VERTEX
  5
652
  8
0
 62
   151
 10
0.0
 20
0.0
 30
0.0
 70
   128
 71
    14
 72
    12
 73
    13
  0
VERTEX
  5
653
  8
0
 62
   151
 10
0.0
 20
0.0
 30
0.0
 70
   128
 71
    12
 72
    14
 73
     3
  0
VERTEX
  5
654
  8
0
 62
   151
 10
0.0
 20
0.0
 30
0.0
 70
   128
 71
    13
 72
    16
 73
    15
  0
VERTEX
  5
655
  8
0
 62
   151
 10
0.0
 20
0.0
 30
0.0
 70
   128
 71
    15
 72
    14
 73
    13
  0
VERTEX
  5
656
  8
0
 62
   151
 10
0.0
 20
0.0
 30
0.0
 70
   128
 71
    18
 72
    17
 73
    16
  0
VERTEX
  5
657
  8
0
 62
   151
 10
0.0
 20
0.0
 30
0.0
 70
   128
 71
    15
 72
    16
 73
    17
  0
VERTEX
  5
658
  8
0
 62
   151
 10
0.0
 20
0.0
 30
0.0
 70
   128
 71
    20
 72
    18
 73
    19
  0
VERTEX
  5
659
  8
0
 62
   151
 10
0.0
 20
0.0
 30
0.0
 70
   128
 71
    18
 72
    20
 73
    17
  0
VERTEX
  5
65A
  8
0
 62
   151
 10
0.0
 20
0.0
 30
0.0
 70
   128
 71
    21
 72
    20
 73
    19
  0
VERTEX
  5
65B
  8
0
 62
   151
 10
0.0
 20
0.0
 30
0.0
 70
   128
 71
    24
 72
    23
 73
    22
  0
VERTEX
  5
65C
  8
0
 62
   151
 10
0.0
 20
0.0
 30
0.0
 70
   128
 71
    27
 72
    26
 73
    25
  0
VERTEX
  5
65D
  8
0
 62
   151
 10
0.0
 20
0.0
 30
0.0
 70
   128
 71
    29
 72
    23
 73
    28
  0
VERTEX
  5
65E
  8
0
 62
   151
 10
0.0
 20
0.0
 30
0.0
 70
   128
 71
    31
 72
    30
 73
    22
  0
VERTEX
  5
65F
  8
0
 62
   151
 10
0.0
 20
0.0
 30
0.0
 70
   128
 71
    34
 72
    33
 73
    32
  0
VERTEX
  5
660
  8
0
 62
   151
 10
0.0
 20
0.0
 30
0.0
 70
   128
 71
    32
 72
    33
 73
    22
  0
VERTEX
  5
661
  8
0
 62
   151
 10
0.0
 20
0.0
 30
0.0
 70
   128
 71
    35
 72
    32
 73
    23
  0
VERTEX
  5
662
  8
0
 62
   151
 10
0.0
 20
0.0
 30
0.0
 70
   128
 71
    37
 72
    32
 73
    36
  0
VERTEX
  5
663
  8
0
 62
   151
 10
0.0
 20
0.0
 30
0.0
 70
   128
 71
    39
 72
    38
 73
    33
  0
VERTEX
  5
664
  8
0
 62
   151
 10
0.0
 20
0.0
 30
0.0
 70
   128
 71
    33
 72
    34
 73
    39
  0
VERTEX
  5
665
  8
0
 62
   151
 10
0.0
 20
0.0
 30
0.0
 70
   128
 71
    40
 72
    29
 73
    28
  0
VERTEX
  5
666
  8
0
 62
   151
 10
0.0
 20
0.0
 30
0.0
 70
   128
 71
    39
 72
    41
 73
    38
  0
VERTEX
  5
667
  8
0
 62
   151
 10
0.0
 20
0.0
 30
0.0
 70
   128
 71
    42
 72
    28
 73
    24
  0
VERTEX
  5
668
  8
0
 62
   151
 10
0.0
 20
0.0
 30
0.0
 70
   128
 71
    28
 72
    44
 73
    43
  0
VERTEX
  5
669
  8
0
 62
   151
 10
0.0
 20
0.0
 30
0.0
 70
   128
 71
    42
 72
    46
 73
    45
  0
VERTEX
  5
66A
  8
0
 62
   151
 10
0.0
 20
0.0
 30
0.0
 70
   128
 71
    44
 72
    47
 73
    27
  0
VERTEX
  5
66B
  8
0
 62
   151
 10
0.0
 20
0.0
 30
0.0
 70
   128
 71
    47
 72
    44
 73
    42
  0
VERTEX
  5
66C
  8
0
 62
   151
 10
0.0
 20
0.0
 30
0.0
 70
   128
 71
    48
 72
    44
 73
    27
  0
VERTEX
  5
66D
  8
0
 62
   151
 10
0.0
 20
0.0
 30
0.0
 70
   128
 71
    47
 72
    49
 73
    27
  0
VERTEX
  5
66E
  8
0
 62
   151
 10
0.0
 20
0.0
 30
0.0
 70
   128
 71
    49
 72
    50
 73
    26
  0
VERTEX
  5
66F
  8
0
 62
   151
 10
0.0
 20
0.0
 30
0.0
 70
   128
 71
    26
 72
    50
 73
    51
  0
VERTEX
  5
670
  8
0
 62
   151
 10
0.0
 20
0.0
 30
0.0
 70
   128
 71
    53
 72
    51
 73
    52
  0
VERTEX
  5
671
  8
0
 62
   151
 10
0.0
 20
0.0
 30
0.0
 70
   128
 71
    55
 72
    49
 73
    54
  0
VERTEX
  5
672
  8
0
 62
   151
 10
0.0
 20
0.0
 30
0.0
 70
   128
 71
    56
 72
    49
 73
    55
  0
VERTEX
  5
673
  8
0
 62
   151
 10
0.0
 20
0.0
 30
0.0
 70
   128
 71
    56
 72
    50
 73
    49
  0
VERTEX
  5
674
  8
0
 62
   151
 10
0.0
 20
0.0
 30
0.0
 70
   128
 71
    47
 72
    57
 73
    54
  0
VERTEX
  5
675
  8
0
 62
   151
 10
0.0
 20
0.0
 30
0.0
 70
   128
 71
    26
 72
    53
 73
    25
  0
VERTEX
  5
676
  8
0
 62
   151
 10
0.0
 20
0.0
 30
0.0
 70
   128
 71
    53
 72
    26
 73
    51
  0
VERTEX
  5
677
  8
0
 62
   151
 10
0.0
 20
0.0
 30
0.0
 70
   128
 71
    49
 72
    47
 73
    54
  0
VERTEX
  5
678
  8
0
 62
   151
 10
0.0
 20
0.0
 30
0.0
 70
   128
 71
    42
 72
    45
 73
    57
  0
VERTEX
  5
679
  8
0
 62
   151
 10
0.0
 20
0.0
 30
0.0
 70
   128
 71
    48
 72
    27
 73
    25
  0
VERTEX
  5
67A
  8
0
 62
   151
 10
0.0
 20
0.0
 30
0.0
 70
   128
 71
    26
 72
    27
 73
    49
  0
VERTEX
  5
67B
  8
0
 62
   151
 10
0.0
 20
0.0
 30
0.0
 70
   128
 71
    57
 72
    47
 73
    42
  0
VERTEX
  5
67C
  8
0
 62
   151
 10
0.0
 20
0.0
 30
0.0
 70
   128
 71
    24
 72
    58
 73
    46
  0
VERTEX
  5
67D
  8
0
 62
   151
 10
0.0
 20
0.0
 30
0.0
 70
   128
 71
    44
 72
    59
 73
    43
  0
VERTEX
  5
67E
  8
0
 62
   151
 10
0.0
 20
0.0
 30
0.0
 70
   128
 71
    48
 72
    59
 73
    44
  0
VERTEX
  5
67F
  8
0
 62
   151
 10
0.0
 20
0.0
 30
0.0
 70
   128
 71
    42
 72
    24
 73
    46
  0
VERTEX
  5
680
  8
0
 62
   151
 10
0.0
 20
0.0
 30
0.0
 70
   128
 71
    58
 72
    24
 73
    30
  0
VERTEX
  5
681
  8
0
 62
   151
 10
0.0
 20
0.0
 30
0.0
 70
   128
 71
    40
 72
    28
 73
    43
  0
VERTEX
  5
682
  8
0
 62
   151
 10
0.0
 20
0.0
 30
0.0
 70
   128
 71
    44
 72
    28
 73
    42
  0
VERTEX
  5
683
  8
0
 62
   151
 10
0.0
 20
0.0
 30
0.0
 70
   128
 71
    24
 72
    22
 73
    30
  0
VERTEX
  5
684
  8
0
 62
   151
 10
0.0
 20
0.0
 30
0.0
 70
   128
 71
    31
 72
    33
 73
    38
  0
VERTEX
  5
685
  8
0
 62
   151
 10
0.0
 20
0.0
 30
0.0
 70
   128
 71
    35
 72
    23
 73
    29
  0
VERTEX
  5
686
  8
0
 62
   151
 10
0.0
 20
0.0
 30
0.0
 70
   128
 71
    28
 72
    23
 73
    24
  0
VERTEX
  5
687
  8
0
 62
   151
 10
0.0
 20
0.0
 30
0.0
 70
   128
 71
    22
 72
    33
 73
    31
  0
VERTEX
  5
688
  8
0
 62
   151
 10
0.0
 20
0.0
 30
0.0
 70
   128
 71
    34
 72
    32
 73
    37
  0
VERTEX
  5
689
  8
0
 62
   151
 10
0.0
 20
0.0
 30
0.0
 70
   128
 71
    36
 72
    32
 73
    35
  0
VERTEX
  5
68A
  8
0
 62
   151
 10
0.0
 20
0.0
 30
0.0
 70
   128
 71
    23
 72
    32
 73
    22
  0
VERTEX
  5
68B
  8
0
 62
   151
 10
0.0
 20
0.0
 30
0.0
 70
   128
 71
    62
 72
    61
 73
    60
  0
VERTEX
  5
68C
  8
0
 62
   151
 10
0.0
 20
0.0
 30
0.0
 70
   128
 71
    64
 72
    63
 73
    54
  0
VERTEX
  5
68D
  8
0
 62
   151
 10
0.0
 20
0.0
 30
0.0
 70
   128
 71
    30
 72
    61
 73
    65
  0
VERTEX
  5
68E
  8
0
 62
   151
 10
0.0
 20
0.0
 30
0.0
 70
   128
 71
     6
 72
     5
 73
    60
  0
VERTEX
  5
68F
  8
0
 62
   151
 10
0.0
 20
0.0
 30
0.0
 70
   128
 71
    68
 72
    67
 73
    66
  0
VERTEX
  5
690
  8
0
 62
   151
 10
0.0
 20
0.0
 30
0.0
 70
   128
 71
    66
 72
    67
 73
    60
  0
VERTEX
  5
691
  8
0
 62
   151
 10
0.0
 20
0.0
 30
0.0
 70
   128
 71
    31
 72
    66
 73
    61
  0
VERTEX
  5
692
  8
0
 62
   151
 10
0.0
 20
0.0
 30
0.0
 70
   128
 71
    41
 72
    66
 73
    38
  0
VERTEX
  5
693
  8
0
 62
   151
 10
0.0
 20
0.0
 30
0.0
 70
   128
 71
    69
 72
     9
 73
    67
  0
VERTEX
  5
694
  8
0
 62
   151
 10
0.0
 20
0.0
 30
0.0
 70
   128
 71
    67
 72
    68
 73
    69
  0
VERTEX
  5
695
  8
0
 62
   151
 10
0.0
 20
0.0
 30
0.0
 70
   128
 71
    58
 72
    30
 73
    65
  0
VERTEX
  5
696
  8
0
 62
   151
 10
0.0
 20
0.0
 30
0.0
 70
   128
 71
    69
 72
    11
 73
     9
  0
VERTEX
  5
697
  8
0
 62
   151
 10
0.0
 20
0.0
 30
0.0
 70
   128
 71
    70
 72
    65
 73
    62
  0
VERTEX
  5
698
  8
0
 62
   151
 10
0.0
 20
0.0
 30
0.0
 70
   128
 71
    65
 72
    71
 73
    46
  0
VERTEX
  5
699
  8
0
 62
   151
 10
0.0
 20
0.0
 30
0.0
 70
   128
 71
    70
 72
     3
 73
    14
  0
VERTEX
  5
69A
  8
0
 62
   151
 10
0.0
 20
0.0
 30
0.0
 70
   128
 71
    71
 72
    72
 73
    64
  0
VERTEX
  5
69B
  8
0
 62
   151
 10
0.0
 20
0.0
 30
0.0
 70
   128
 71
    72
 72
    71
 73
    70
  0
VERTEX
  5
69C
  8
0
 62
   151
 10
0.0
 20
0.0
 30
0.0
 70
   128
 71
    57
 72
    71
 73
    64
  0
VERTEX
  5
69D
  8
0
 62
   151
 10
0.0
 20
0.0
 30
0.0
 70
   128
 71
    72
 72
    73
 73
    64
  0
VERTEX
  5
69E
  8
0
 62
   151
 10
0.0
 20
0.0
 30
0.0
 70
   128
 71
    73
 72
    74
 73
    63
  0
VERTEX
  5
69F
  8
0
 62
   151
 10
0.0
 20
0.0
 30
0.0
 70
   128
 71
    63
 72
    74
 73
    75
  0
VERTEX
  5
6A0
  8
0
 62
   151
 10
0.0
 20
0.0
 30
0.0
 70
   128
 71
    55
 72
    75
 73
    56
  0
VERTEX
  5
6A1
  8
0
 62
   151
 10
0.0
 20
0.0
 30
0.0
 70
   128
 71
    20
 72
    73
 73
    17
  0
VERTEX
  5
6A2
  8
0
 62
   151
 10
0.0
 20
0.0
 30
0.0
 70
   128
 71
    21
 72
    73
 73
    20
  0
VERTEX
  5
6A3
  8
0
 62
   151
 10
0.0
 20
0.0
 30
0.0
 70
   128
 71
    21
 72
    74
 73
    73
  0
VERTEX
  5
6A4
  8
0
 62
   151
 10
0.0
 20
0.0
 30
0.0
 70
   128
 71
    72
 72
    15
 73
    17
  0
VERTEX
  5
6A5
  8
0
 62
   151
 10
0.0
 20
0.0
 30
0.0
 70
   128
 71
    63
 72
    55
 73
    54
  0
VERTEX
  5
6A6
  8
0
 62
   151
 10
0.0
 20
0.0
 30
0.0
 70
   128
 71
    55
 72
    63
 73
    75
  0
VERTEX
  5
6A7
  8
0
 62
   151
 10
0.0
 20
0.0
 30
0.0
 70
   128
 71
    73
 72
    72
 73
    17
  0
VERTEX
  5
6A8
  8
0
 62
   151
 10
0.0
 20
0.0
 30
0.0
 70
   128
 71
    70
 72
    14
 73
    15
  0
VERTEX
  5
6A9
  8
0
 62
   151
 10
0.0
 20
0.0
 30
0.0
 70
   128
 71
    57
 72
    64
 73
    54
  0
VERTEX
  5
6AA
  8
0
 62
   151
 10
0.0
 20
0.0
 30
0.0
 70
   128
 71
    63
 72
    64
 73
    73
  0
VERTEX
  5
6AB
  8
0
 62
   151
 10
0.0
 20
0.0
 30
0.0
 70
   128
 71
    15
 72
    72
 73
    70
  0
VERTEX
  5
6AC
  8
0
 62
   151
 10
0.0
 20
0.0
 30
0.0
 70
   128
 71
    62
 72
     2
 73
     3
  0
VERTEX
  5
6AD
  8
0
 62
   151
 10
0.0
 20
0.0
 30
0.0
 70
   128
 71
    71
 72
    45
 73
    46
  0
VERTEX
  5
6AE
  8
0
 62
   151
 10
0.0
 20
0.0
 30
0.0
 70
   128
 71
    57
 72
    45
 73
    71
  0
VERTEX
  5
6AF
  8
0
 62
   151
 10
0.0
 20
0.0
 30
0.0
 70
   128
 71
    70
 72
    62
 73
     3
  0
VERTEX
  5
6B0
  8
0
 62
   151
 10
0.0
 20
0.0
 30
0.0
 70
   128
 71
     2
 72
    62
 73
     5
  0
VERTEX
  5
6B1
  8
0
 62
   151
 10
0.0
 20
0.0
 30
0.0
 70
   128
 71
    58
 72
    65
 73
    46
  0
VERTEX
  5
6B2
  8
0
 62
   151
 10
0.0
 20
0.0
 30
0.0
 70
   128
 71
    71
 72
    65
 73
    70
  0
VERTEX
  5
6B3
  8
0
 62
   151
 10
0.0
 20
0.0
 30
0.0
 70
   128
 71
    62
 72
    60
 73
     5
  0
VERTEX
  5
6B4
  8
0
 62
   151
 10
0.0
 20
0.0
 30
0.0
 70
   128
 71
     6
 72
    67
 73
     9
  0
VERTEX
  5
6B5
  8
0
 62
   151
 10
0.0
 20
0.0
 30
0.0
 70
   128
 71
    31
 72
    61
 73
    30
  0
VERTEX
  5
6B6
  8
0
 62
   151
 10
0.0
 20
0.0
 30
0.0
 70
   128
 71
    65
 72
    61
 73
    62
  0
VERTEX
  5
6B7
  8
0
 62
   151
 10
0.0
 20
0.0
 30
0.0
 70
   128
 71
    60
 72
    67
 73
     6
  0
VERTEX
  5
6B8
  8
0
 62
   151
 10
0.0
 20
0.0
 30
0.0
 70
   128
 71
    68
 72
    66
 73
    41
  0
VERTEX
  5
6B9
  8
0
 62
   151
 10
0.0
 20
0.0
 30
0.0
 70
   128
 71
    38
 72
    66
 73
    31
  0
VERTEX
  5
6BA
  8
0
 62
   151
 10
0.0
 20
0.0
 30
0.0
 70
   128
 71
    61
 72
    66
 73
    60
  0
VERTEX
  5
6BB
  8
0
 62
   151
 10
0.0
 20
0.0
 30
0.0
 70
   128
 71
    78
 72
    77
 73
    76
  0
VERTEX
  5
6BC
  8
0
 62
   151
 10
0.0
 20
0.0
 30
0.0
 70
   128
 71
    81
 72
    80
 73
    79
  0
VERTEX
  5
6BD
  8
0
 62
   151
 10
0.0
 20
0.0
 30
0.0
 70
   128
 71
    80
 72
    69
 73
    79
  0
VERTEX
  5
6BE
  8
0
 62
   151
 10
0.0
 20
0.0
 30
0.0
 70
   128
 71
    78
 72
    76
 73
    82
  0
VERTEX
  5
6BF
  8
0
 62
   151
 10
0.0
 20
0.0
 30
0.0
 70
   128
 71
    80
 72
    11
 73
    69
  0
VERTEX
  5
6C0
  8
0
 62
   151
 10
0.0
 20
0.0
 30
0.0
 70
   128
 71
    82
 72
    76
 73
    83
  0
VERTEX
  5
6C1
  8
0
 62
   151
 10
0.0
 20
0.0
 30
0.0
 70
   128
 71
    82
 72
    85
 73
    84
  0
VERTEX
  5
6C2
  8
0
 62
   151
 10
0.0
 20
0.0
 30
0.0
 70
   128
 71
    88
 72
    87
 73
    86
  0
VERTEX
  5
6C3
  8
0
 62
   151
 10
0.0
 20
0.0
 30
0.0
 70
   128
 71
    91
 72
    90
 73
    89
  0
VERTEX
  5
6C4
  8
0
 62
   151
 10
0.0
 20
0.0
 30
0.0
 70
   128
 71
    93
 72
    92
 73
    21
  0
VERTEX
  5
6C5
  8
0
 62
   151
 10
0.0
 20
0.0
 30
0.0
 70
   128
 71
    90
 72
    88
 73
    86
  0
VERTEX
  5
6C6
  8
0
 62
   151
 10
0.0
 20
0.0
 30
0.0
 70
   128
 71
    21
 72
    92
 73
    74
  0
VERTEX
  5
6C7
  8
0
 62
   151
 10
0.0
 20
0.0
 30
0.0
 70
   128
 71
    86
 72
    92
 73
    90
  0
VERTEX
  5
6C8
  8
0
 62
   151
 10
0.0
 20
0.0
 30
0.0
 70
   128
 71
    87
 72
    56
 73
    75
  0
VERTEX
  5
6C9
  8
0
 62
   151
 10
0.0
 20
0.0
 30
0.0
 70
   128
 71
    82
 72
    89
 73
    85
  0
VERTEX
  5
6CA
  8
0
 62
   151
 10
0.0
 20
0.0
 30
0.0
 70
   128
 71
    91
 72
    89
 73
    82
  0
VERTEX
  5
6CB
  8
0
 62
   151
 10
0.0
 20
0.0
 30
0.0
 70
   128
 71
    94
 72
    83
 73
    76
  0
VERTEX
  5
6CC
  8
0
 62
   151
 10
0.0
 20
0.0
 30
0.0
 70
   128
 71
    91
 72
    83
 73
    95
  0
VERTEX
  5
6CD
  8
0
 62
   151
 10
0.0
 20
0.0
 30
0.0
 70
   128
 71
    97
 72
    94
 73
    96
  0
VERTEX
  5
6CE
  8
0
 62
   151
 10
0.0
 20
0.0
 30
0.0
 70
   128
 71
    83
 72
    94
 73
    98
  0
VERTEX
  5
6CF
  8
0
 62
   151
 10
0.0
 20
0.0
 30
0.0
 70
   128
 71
    81
 72
    96
 73
    99
  0
VERTEX
  5
6D0
  8
0
 62
   151
 10
0.0
 20
0.0
 30
0.0
 70
   128
 71
    96
 72
    79
 73
    97
  0
VERTEX
  5
6D1
  8
0
 62
   151
 10
0.0
 20
0.0
 30
0.0
 70
   128
 71
    41
 72
    97
 73
    68
  0
VERTEX
  5
6D2
  8
0
 62
   151
 10
0.0
 20
0.0
 30
0.0
 70
   128
 71
    79
 72
    68
 73
    97
  0
VERTEX
  5
6D3
  8
0
 62
   151
 10
0.0
 20
0.0
 30
0.0
 70
   128
 71
    96
 72
    81
 73
    79
  0
VERTEX
  5
6D4
  8
0
 62
   151
 10
0.0
 20
0.0
 30
0.0
 70
   128
 71
    68
 72
    79
 73
    69
  0
VERTEX
  5
6D5
  8
0
 62
   151
 10
0.0
 20
0.0
 30
0.0
 70
   128
 71
    97
 72
   101
 73
   100
  0
VERTEX
  5
6D6
  8
0
 62
   151
 10
0.0
 20
0.0
 30
0.0
 70
   128
 71
    41
 72
   101
 73
    97
  0
VERTEX
  5
6D7
  8
0
 62
   151
 10
0.0
 20
0.0
 30
0.0
 70
   128
 71
    77
 72
    99
 73
    76
  0
VERTEX
  5
6D8
  8
0
 62
   151
 10
0.0
 20
0.0
 30
0.0
 70
   128
 71
   100
 72
    94
 73
    97
  0
VERTEX
  5
6D9
  8
0
 62
   151
 10
0.0
 20
0.0
 30
0.0
 70
   128
 71
    76
 72
    99
 73
    96
  0
VERTEX
  5
6DA
  8
0
 62
   151
 10
0.0
 20
0.0
 30
0.0
 70
   128
 71
    94
 72
   100
 73
    98
  0
VERTEX
  5
6DB
  8
0
 62
   151
 10
0.0
 20
0.0
 30
0.0
 70
   128
 71
    94
 72
    76
 73
    96
  0
VERTEX
  5
6DC
  8
0
 62
   151
 10
0.0
 20
0.0
 30
0.0
 70
   128
 71
    84
 72
    78
 73
    82
  0
VERTEX
  5
6DD
  8
0
 62
   151
 10
0.0
 20
0.0
 30
0.0
 70
   128
 71
    83
 72
   102
 73
    95
  0
VERTEX
  5
6DE
  8
0
 62
   151
 10
0.0
 20
0.0
 30
0.0
 70
   128
 71
    98
 72
   102
 73
    83
  0
VERTEX
  5
6DF
  8
0
 62
   151
 10
0.0
 20
0.0
 30
0.0
 70
   128
 71
   103
 72
    85
 73
    89
  0
VERTEX
  5
6E0
  8
0
 62
   151
 10
0.0
 20
0.0
 30
0.0
 70
   128
 71
   105
 72
   104
 73
    91
  0
VERTEX
  5
6E1
  8
0
 62
   151
 10
0.0
 20
0.0
 30
0.0
 70
   128
 71
   105
 72
    91
 73
    95
  0
VERTEX
  5
6E2
  8
0
 62
   151
 10
0.0
 20
0.0
 30
0.0
 70
   128
 71
    91
 72
    82
 73
    83
  0
VERTEX
  5
6E3
  8
0
 62
   151
 10
0.0
 20
0.0
 30
0.0
 70
   128
 71
    92
 72
    93
 73
   103
  0
VERTEX
  5
6E4
  8
0
 62
   151
 10
0.0
 20
0.0
 30
0.0
 70
   128
 71
   104
 72
    90
 73
    91
  0
VERTEX
  5
6E5
  8
0
 62
   151
 10
0.0
 20
0.0
 30
0.0
 70
   128
 71
    74
 72
    86
 73
    75
  0
VERTEX
  5
6E6
  8
0
 62
   151
 10
0.0
 20
0.0
 30
0.0
 70
   128
 71
    90
 72
   104
 73
    88
  0
VERTEX
  5
6E7
  8
0
 62
   151
 10
0.0
 20
0.0
 30
0.0
 70
   128
 71
    89
 72
    92
 73
   103
  0
VERTEX
  5
6E8
  8
0
 62
   151
 10
0.0
 20
0.0
 30
0.0
 70
   128
 71
    92
 72
    89
 73
    90
  0
VERTEX
  5
6E9
  8
0
 62
   151
 10
0.0
 20
0.0
 30
0.0
 70
   128
 71
    86
 72
    87
 73
    75
  0
VERTEX
  5
6EA
  8
0
 62
   151
 10
0.0
 20
0.0
 30
0.0
 70
   128
 71
    92
 72
    86
 73
    74
  0
VERTEX
  5
6EB
  8
0
 62
   151
 10
0.0
 20
0.0
 30
0.0
 70
   128
 71
   107
 72
   106
 73
    43
  0
VERTEX
  5
6EC
  8
0
 62
   151
 10
0.0
 20
0.0
 30
0.0
 70
   128
 71
   108
 72
    40
 73
   106
  0
VERTEX
  5
6ED
  8
0
 62
   151
 10
0.0
 20
0.0
 30
0.0
 70
   128
 71
    43
 72
   106
 73
    40
  0
VERTEX
  5
6EE
  8
0
 62
   151
 10
0.0
 20
0.0
 30
0.0
 70
   128
 71
    29
 72
   108
 73
   109
  0
VERTEX
  5
6EF
  8
0
 62
   151
 10
0.0
 20
0.0
 30
0.0
 70
   128
 71
   108
 72
    29
 73
    40
  0
VERTEX
  5
6F0
  8
0
 62
   151
 10
0.0
 20
0.0
 30
0.0
 70
   128
 71
   109
 72
   110
 73
    35
  0
VERTEX
  5
6F1
  8
0
 62
   151
 10
0.0
 20
0.0
 30
0.0
 70
   128
 71
    35
 72
    29
 73
   109
  0
VERTEX
  5
6F2
  8
0
 62
   151
 10
0.0
 20
0.0
 30
0.0
 70
   128
 71
   111
 72
    36
 73
   110
  0
VERTEX
  5
6F3
  8
0
 62
   151
 10
0.0
 20
0.0
 30
0.0
 70
   128
 71
    35
 72
   110
 73
    36
  0
VERTEX
  5
6F4
  8
0
 62
   151
 10
0.0
 20
0.0
 30
0.0
 70
   128
 71
   111
 72
    37
 73
    36
  0
VERTEX
  5
6F5
  8
0
 62
   151
 10
0.0
 20
0.0
 30
0.0
 70
   128
 71
    43
 72
    59
 73
   107
  0
VERTEX
  5
6F6
  8
0
 62
   151
 10
0.0
 20
0.0
 30
0.0
 70
   128
 71
   112
 72
    59
 73
    48
  0
VERTEX
  5
6F7
  8
0
 62
   151
 10
0.0
 20
0.0
 30
0.0
 70
   128
 71
    59
 72
   112
 73
   107
  0
VERTEX
  5
6F8
  8
0
 62
   151
 10
0.0
 20
0.0
 30
0.0
 70
   128
 71
    48
 72
    25
 73
   113
  0
VERTEX
  5
6F9
  8
0
 62
   151
 10
0.0
 20
0.0
 30
0.0
 70
   128
 71
   113
 72
   112
 73
    48
  0
VERTEX
  5
6FA
  8
0
 62
   151
 10
0.0
 20
0.0
 30
0.0
 70
   128
 71
    53
 72
   114
 73
    25
  0
VERTEX
  5
6FB
  8
0
 62
   151
 10
0.0
 20
0.0
 30
0.0
 70
   128
 71
   113
 72
    25
 73
   114
  0
VERTEX
  5
6FC
  8
0
 62
   151
 10
0.0
 20
0.0
 30
0.0
 70
   128
 71
    53
 72
   115
 73
   114
  0
VERTEX
  5
6FD
  8
0
 62
   151
 10
0.0
 20
0.0
 30
0.0
 70
   128
 71
    52
 72
   115
 73
    53
  0
VERTEX
  5
6FE
  8
0
 62
   151
 10
0.0
 20
0.0
 30
0.0
 70
   128
 71
   118
 72
   117
 73
   116
  0
VERTEX
  5
6FF
  8
0
 62
   151
 10
0.0
 20
0.0
 30
0.0
 70
   128
 71
   113
 72
   107
 73
   112
  0
VERTEX
  5
700
  8
0
 62
   151
 10
0.0
 20
0.0
 30
0.0
 70
   128
 71
   116
 72
   117
 73
   115
  0
VERTEX
  5
701
  8
0
 62
   151
 10
0.0
 20
0.0
 30
0.0
 70
   128
 71
   118
 72
   119
 73
   117
  0
VERTEX
  5
702
  8
0
 62
   151
 10
0.0
 20
0.0
 30
0.0
 70
   128
 71
   113
 72
   117
 73
   120
  0
VERTEX
  5
703
  8
0
 62
   151
 10
0.0
 20
0.0
 30
0.0
 70
   128
 71
   113
 72
   120
 73
   121
  0
VERTEX
  5
704
  8
0
 62
   151
 10
0.0
 20
0.0
 30
0.0
 70
   128
 71
   121
 72
   120
 73
   122
  0
VERTEX
  5
705
  8
0
 62
   151
 10
0.0
 20
0.0
 30
0.0
 70
   128
 71
   110
 72
   106
 73
   111
  0
VERTEX
  5
706
  8
0
 62
   151
 10
0.0
 20
0.0
 30
0.0
 70
   128
 71
   106
 72
   110
 73
   109
  0
VERTEX
  5
707
  8
0
 62
   151
 10
0.0
 20
0.0
 30
0.0
 70
   128
 71
   106
 72
   123
 73
   111
  0
VERTEX
  5
708
  8
0
 62
   151
 10
0.0
 20
0.0
 30
0.0
 70
   128
 71
   108
 72
   106
 73
   109
  0
VERTEX
  5
709
  8
0
 62
   151
 10
0.0
 20
0.0
 30
0.0
 70
   128
 71
   106
 72
   107
 73
   121
  0
VERTEX
  5
70A
  8
0
 62
   151
 10
0.0
 20
0.0
 30
0.0
 70
   128
 71
   121
 72
   123
 73
   106
  0
VERTEX
  5
70B
  8
0
 62
   151
 10
0.0
 20
0.0
 30
0.0
 70
   128
 71
   107
 72
   113
 73
   121
  0
VERTEX
  5
70C
  8
0
 62
   151
 10
0.0
 20
0.0
 30
0.0
 70
   128
 71
   113
 72
   114
 73
   117
  0
VERTEX
  5
70D
  8
0
 62
   151
 10
0.0
 20
0.0
 30
0.0
 70
   128
 71
   114
 72
   115
 73
   117
  0
VERTEX
  5
70E
  8
0
 62
   151
 10
0.0
 20
0.0
 30
0.0
 70
   128
 71
    37
 72
   111
 73
   124
  0
VERTEX
  5
70F
  8
0
 62
   151
 10
0.0
 20
0.0
 30
0.0
 70
   128
 71
   125
 72
   122
 73
   120
  0
VERTEX
  5
710
  8
0
 62
   151
 10
0.0
 20
0.0
 30
0.0
 70
   128
 71
   127
 72
   121
 73
   126
  0
VERTEX
  5
711
  8
0
 62
   151
 10
0.0
 20
0.0
 30
0.0
 70
   128
 71
   129
 72
   128
 73
   119
  0
VERTEX
  5
712
  8
0
 62
   151
 10
0.0
 20
0.0
 30
0.0
 70
   128
 71
   117
 72
   128
 73
   130
  0
VERTEX
  5
713
  8
0
 62
   151
 10
0.0
 20
0.0
 30
0.0
 70
   128
 71
   131
 72
   118
 73
   116
  0
VERTEX
  5
714
  8
0
 62
   151
 10
0.0
 20
0.0
 30
0.0
 70
   128
 71
   118
 72
   131
 73
   129
  0
VERTEX
  5
715
  8
0
 62
   151
 10
0.0
 20
0.0
 30
0.0
 70
   128
 71
   116
 72
   115
 73
   132
  0
VERTEX
  5
716
  8
0
 62
   151
 10
0.0
 20
0.0
 30
0.0
 70
   128
 71
   132
 72
   131
 73
   116
  0
VERTEX
  5
717
  8
0
 62
   151
 10
0.0
 20
0.0
 30
0.0
 70
   128
 71
   132
 72
   115
 73
    52
  0
VERTEX
  5
718
  8
0
 62
   151
 10
0.0
 20
0.0
 30
0.0
 70
   128
 71
   119
 72
   128
 73
   117
  0
VERTEX
  5
719
  8
0
 62
   151
 10
0.0
 20
0.0
 30
0.0
 70
   128
 71
   118
 72
   129
 73
   119
  0
VERTEX
  5
71A
  8
0
 62
   151
 10
0.0
 20
0.0
 30
0.0
 70
   128
 71
   130
 72
   125
 73
   120
  0
VERTEX
  5
71B
  8
0
 62
   151
 10
0.0
 20
0.0
 30
0.0
 70
   128
 71
   117
 72
   130
 73
   120
  0
VERTEX
  5
71C
  8
0
 62
   151
 10
0.0
 20
0.0
 30
0.0
 70
   128
 71
   126
 72
   121
 73
   122
  0
VERTEX
  5
71D
  8
0
 62
   151
 10
0.0
 20
0.0
 30
0.0
 70
   128
 71
   125
 72
   126
 73
   122
  0
VERTEX
  5
71E
  8
0
 62
   151
 10
0.0
 20
0.0
 30
0.0
 70
   128
 71
   124
 72
   123
 73
   127
  0
VERTEX
  5
71F
  8
0
 62
   151
 10
0.0
 20
0.0
 30
0.0
 70
   128
 71
   127
 72
   123
 73
   121
  0
VERTEX
  5
720
  8
0
 62
   151
 10
0.0
 20
0.0
 30
0.0
 70
   128
 71
   123
 72
   124
 73
   111
  0
VERTEX
  5
721
  8
0
 62
   151
 10
0.0
 20
0.0
 30
0.0
 70
   128
 71
    95
 72
   102
 73
   133
  0
VERTEX
  5
722
  8
0
 62
   151
 10
0.0
 20
0.0
 30
0.0
 70
   128
 71
   100
 72
   101
 73
   134
  0
VERTEX
  5
723
  8
0
 62
   151
 10
0.0
 20
0.0
 30
0.0
 70
   128
 71
   101
 72
    39
 73
   134
  0
VERTEX
  5
724
  8
0
 62
   151
 10
0.0
 20
0.0
 30
0.0
 70
   128
 71
    95
 72
   133
 73
   135
  0
VERTEX
  5
725
  8
0
 62
   151
 10
0.0
 20
0.0
 30
0.0
 70
   128
 71
   101
 72
    41
 73
    39
  0
VERTEX
  5
726
  8
0
 62
   151
 10
0.0
 20
0.0
 30
0.0
 70
   128
 71
   135
 72
   133
 73
   136
  0
VERTEX
  5
727
  8
0
 62
   151
 10
0.0
 20
0.0
 30
0.0
 70
   128
 71
   135
 72
   104
 73
   105
  0
VERTEX
  5
728
  8
0
 62
   151
 10
0.0
 20
0.0
 30
0.0
 70
   128
 71
   131
 72
   132
 73
   137
  0
VERTEX
  5
729
  8
0
 62
   151
 10
0.0
 20
0.0
 30
0.0
 70
   128
 71
   140
 72
   139
 73
   138
  0
VERTEX
  5
72A
  8
0
 62
   151
 10
0.0
 20
0.0
 30
0.0
 70
   128
 71
    87
 72
   141
 73
    56
  0
VERTEX
  5
72B
  8
0
 62
   151
 10
0.0
 20
0.0
 30
0.0
 70
   128
 71
   139
 72
   131
 73
   137
  0
VERTEX
  5
72C
  8
0
 62
   151
 10
0.0
 20
0.0
 30
0.0
 70
   128
 71
    56
 72
   141
 73
    50
  0
VERTEX
  5
72D
  8
0
 62
   151
 10
0.0
 20
0.0
 30
0.0
 70
   128
 71
   137
 72
   141
 73
   139
  0
VERTEX
  5
72E
  8
0
 62
   151
 10
0.0
 20
0.0
 30
0.0
 70
   128
 71
   132
 72
    52
 73
    51
  0
VERTEX
  5
72F
  8
0
 62
   151
 10
0.0
 20
0.0
 30
0.0
 70
   128
 71
   135
 72
   138
 73
   104
  0
VERTEX
  5
730
  8
0
 62
   151
 10
0.0
 20
0.0
 30
0.0
 70
   128
 71
   140
 72
   138
 73
   135
  0
VERTEX
  5
731
  8
0
 62
   151
 10
0.0
 20
0.0
 30
0.0
 70
   128
 71
   142
 72
   136
 73
   133
  0
VERTEX
  5
732
  8
0
 62
   151
 10
0.0
 20
0.0
 30
0.0
 70
   128
 71
   140
 72
   136
 73
   130
  0
VERTEX
  5
733
  8
0
 62
   151
 10
0.0
 20
0.0
 30
0.0
 70
   128
 71
   144
 72
   142
 73
   143
  0
VERTEX
  5
734
  8
0
 62
   151
 10
0.0
 20
0.0
 30
0.0
 70
   128
 71
   136
 72
   142
 73
   126
  0
VERTEX
  5
735
  8
0
 62
   151
 10
0.0
 20
0.0
 30
0.0
 70
   128
 71
   100
 72
   143
 73
    98
  0
VERTEX
  5
736
  8
0
 62
   151
 10
0.0
 20
0.0
 30
0.0
 70
   128
 71
   143
 72
   134
 73
   144
  0
VERTEX
  5
737
  8
0
 62
   151
 10
0.0
 20
0.0
 30
0.0
 70
   128
 71
    37
 72
   144
 73
    34
  0
VERTEX
  5
738
  8
0
 62
   151
 10
0.0
 20
0.0
 30
0.0
 70
   128
 71
   134
 72
    34
 73
   144
  0
VERTEX
  5
739
  8
0
 62
   151
 10
0.0
 20
0.0
 30
0.0
 70
   128
 71
   143
 72
   100
 73
   134
  0
VERTEX
  5
73A
  8
0
 62
   151
 10
0.0
 20
0.0
 30
0.0
 70
   128
 71
    34
 72
   134
 73
    39
  0
VERTEX
  5
73B
  8
0
 62
   151
 10
0.0
 20
0.0
 30
0.0
 70
   128
 71
   144
 72
   124
 73
   127
  0
VERTEX
  5
73C
  8
0
 62
   151
 10
0.0
 20
0.0
 30
0.0
 70
   128
 71
    37
 72
   124
 73
   144
  0
VERTEX
  5
73D
  8
0
 62
   151
 10
0.0
 20
0.0
 30
0.0
 70
   128
 71
   102
 72
    98
 73
   133
  0
VERTEX
  5
73E
  8
0
 62
   151
 10
0.0
 20
0.0
 30
0.0
 70
   128
 71
   127
 72
   142
 73
   144
  0
VERTEX
  5
73F
  8
0
 62
   151
 10
0.0
 20
0.0
 30
0.0
 70
   128
 71
   133
 72
    98
 73
   143
  0
VERTEX
  5
740
  8
0
 62
   151
 10
0.0
 20
0.0
 30
0.0
 70
   128
 71
   142
 72
   127
 73
   126
  0
VERTEX
  5
741
  8
0
 62
   151
 10
0.0
 20
0.0
 30
0.0
 70
   128
 71
   142
 72
   133
 73
   143
  0
VERTEX
  5
742
  8
0
 62
   151
 10
0.0
 20
0.0
 30
0.0
 70
   128
 71
   105
 72
    95
 73
   135
  0
VERTEX
  5
743
  8
0
 62
   151
 10
0.0
 20
0.0
 30
0.0
 70
   128
 71
   136
 72
   125
 73
   130
  0
VERTEX
  5
744
  8
0
 62
   151
 10
0.0
 20
0.0
 30
0.0
 70
   128
 71
   126
 72
   125
 73
   136
  0
VERTEX
  5
745
  8
0
 62
   151
 10
0.0
 20
0.0
 30
0.0
 70
   128
 71
    88
 72
   104
 73
   138
  0
VERTEX
  5
746
  8
0
 62
   151
 10
0.0
 20
0.0
 30
0.0
 70
   128
 71
   128
 72
   129
 73
   140
  0
VERTEX
  5
747
  8
0
 62
   151
 10
0.0
 20
0.0
 30
0.0
 70
   128
 71
   128
 72
   140
 73
   130
  0
VERTEX
  5
748
  8
0
 62
   151
 10
0.0
 20
0.0
 30
0.0
 70
   128
 71
   140
 72
   135
 73
   136
  0
VERTEX
  5
749
  8
0
 62
   151
 10
0.0
 20
0.0
 30
0.0
 70
   128
 71
   141
 72
    87
 73
    88
  0
VERTEX
  5
74A
  8
0
 62
   151
 10
0.0
 20
0.0
 30
0.0
 70
   128
 71
   129
 72
   139
 73
   140
  0
VERTEX
  5
74B
  8
0
 62
   151
 10
0.0
 20
0.0
 30
0.0
 70
   128
 71
    50
 72
   137
 73
    51
  0
VERTEX
  5
74C
  8
0
 62
   151
 10
0.0
 20
0.0
 30
0.0
 70
   128
 71
   139
 72
   129
 73
   131
  0
VERTEX
  5
74D
  8
0
 62
   151
 10
0.0
 20
0.0
 30
0.0
 70
   128
 71
   138
 72
   141
 73
    88
  0
VERTEX
  5
74E
  8
0
 62
   151
 10
0.0
 20
0.0
 30
0.0
 70
   128
 71
   141
 72
   138
 73
   139
  0
VERTEX
  5
74F
  8
0
 62
   151
 10
0.0
 20
0.0
 30
0.0
 70
   128
 71
   137
 72
   132
 73
    51
  0
VERTEX
  5
750
  8
0
 62
   151
 10
0.0
 20
0.0
 30
0.0
 70
   128
 71
   141
 72
   137
 73
    50
  0
VERTEX
  5
751
  8
0
 62
   151
 10
0.0
 20
0.0
 30
0.0
 70
   128
 71
   145
 72
    10
 73
    80
  0
VERTEX
  5
752
  8
0
 62
   151
 10
0.0
 20
0.0
 30
0.0
 70
   128
 71
   146
 72
    77
 73
    78
  0
VERTEX
  5
753
  8
0
 62
   151
 10
0.0
 20
0.0
 30
0.0
 70
   128
 71
    81
 72
    99
 73
   147
  0
VERTEX
  5
754
  8
0
 62
   151
 10
0.0
 20
0.0
 30
0.0
 70
   128
 71
   103
 72
   148
 73
    85
  0
VERTEX
  5
755
  8
0
 62
   151
 10
0.0
 20
0.0
 30
0.0
 70
   128
 71
    84
 72
   150
 73
   149
  0
VERTEX
  5
756
  8
0
 62
   151
 10
0.0
 20
0.0
 30
0.0
 70
   128
 71
   151
 72
   103
 73
    93
  0
VERTEX
  5
757
  8
0
 62
   151
 10
0.0
 20
0.0
 30
0.0
 70
   128
 71
   103
 72
   151
 73
   148
  0
VERTEX
  5
758
  8
0
 62
   151
 10
0.0
 20
0.0
 30
0.0
 70
   128
 71
    93
 72
    21
 73
    19
  0
VERTEX
  5
759
  8
0
 62
   151
 10
0.0
 20
0.0
 30
0.0
 70
   128
 71
    19
 72
   151
 73
    93
  0
VERTEX
  5
75A
  8
0
 62
   151
 10
0.0
 20
0.0
 30
0.0
 70
   128
 71
   150
 72
    84
 73
    85
  0
VERTEX
  5
75B
  8
0
 62
   151
 10
0.0
 20
0.0
 30
0.0
 70
   128
 71
    85
 72
   148
 73
   150
  0
VERTEX
  5
75C
  8
0
 62
   151
 10
0.0
 20
0.0
 30
0.0
 70
   128
 71
   149
 72
   146
 73
    78
  0
VERTEX
  5
75D
  8
0
 62
   151
 10
0.0
 20
0.0
 30
0.0
 70
   128
 71
    84
 72
   149
 73
    78
  0
VERTEX
  5
75E
  8
0
 62
   151
 10
0.0
 20
0.0
 30
0.0
 70
   128
 71
   152
 72
    99
 73
    77
  0
VERTEX
  5
75F
  8
0
 62
   151
 10
0.0
 20
0.0
 30
0.0
 70
   128
 71
   146
 72
   152
 73
    77
  0
VERTEX
  5
760
  8
0
 62
   151
 10
0.0
 20
0.0
 30
0.0
 70
   128
 71
   145
 72
    81
 73
   147
  0
VERTEX
  5
761
  8
0
 62
   151
 10
0.0
 20
0.0
 30
0.0
 70
   128
 71
   147
 72
    99
 73
   152
  0
VERTEX
  5
762
  8
0
 62
   151
 10
0.0
 20
0.0
 30
0.0
 70
   128
 71
    11
 72
    80
 73
    10
  0
VERTEX
  5
763
  8
0
 62
   151
 10
0.0
 20
0.0
 30
0.0
 70
   128
 71
    80
 72
    81
 73
   145
  0
SEQEND
  5
764
  8
0
 62
   151
  0
ENDBLK
  5
767
  8
0
  0
BLOCK
  8
0
  2
41
 70
     0
 10
0.0
 20
0.0
 30
0.0
  3
41
  1

  0
POLYLINE
  5
769
  8
0
 62
   151
 66
     1
 10
0.0
 20
0.0
 30
0.0
 70
    64
 71
   138
 72
   250
  0
VERTEX
  5
76A
  8
0
 10
2.88095235824585
 20
-58.84085845947266
 30
-91.19999694824219
 70
   192
  0
VERTEX
  5
76B
  8
0
 10
5.248425006866455
 20
-58.46827697753906
 30
-87.9000015258789
 70
   192
  0
VERTEX
  5
76C
  8
0
 10
-0.0468411445617676
 20
-58.98939514160156
 30
-87.9000015258789
 70
   192
  0
VERTEX
  5
76D
  8
0
 10
8.408159255981445
 20
-57.6514892578125
 30
-91.19999694824219
 70
   192
  0
VERTEX
  5
76E
  8
0
 10
10.31303024291992
 20
-56.94987869262695
 30
-87.9000015258789
 70
   192
  0
VERTEX
  5
76F
  8
0
 10
14.97968292236328
 20
-54.48625564575195
 30
-87.9000015258789
 70
   192
  0
VERTEX
  5
770
  8
0
 10
13.48301696777344
 20
-55.39250946044922
 30
-91.19999694824219
 70
   192
  0
VERTEX
  5
771
  8
0
 10
18.11611557006836
 20
-52.00598907470703
 30
-91.19999694824219
 70
   192
  0
VERTEX
  5
772
  8
0
 10
19.11120414733887
 20
-51.13786697387695
 30
-87.9000015258789
 70
   192
  0
VERTEX
  5
773
  8
0
 10
21.87448310852051
 20
-47.81120300292969
 30
-91.19999694824219
 70
   192
  0
VERTEX
  5
774
  8
0
 10
22.4916877746582
 20
-47.03166198730469
 30
-87.9000015258789
 70
   192
  0
VERTEX
  5
775
  8
0
 10
24.97808647155762
 20
-42.38028335571289
 30
-87.9000015258789
 70
   192
  0
VERTEX
  5
776
  8
0
 10
24.67801094055176
 20
-42.95238876342773
 30
-91.19999694824219
 70
   192
  0
VERTEX
  5
777
  8
0
 10
26.38651657104492
 20
-37.68198776245117
 30
-91.19999694824219
 70
   192
  0
VERTEX
  5
778
  8
0
 10
26.51374435424805
 20
-37.30001449584961
 30
-87.9000015258789
 70
   192
  0
VERTEX
  5
779
  8
0
 10
27.0
 20
-32.0
 30
-91.19999694824219
 70
   192
  0
VERTEX
  5
77A
  8
0
 10
27.0
 20
-32.0
 30
-87.9000015258789
 70
   192
  0
VERTEX
  5
77B
  8
0
 10
-2.775609970092773
 20
-58.84085845947266
 30
-91.19999694824219
 70
   192
  0
VERTEX
  5
77C
  8
0
 10
-8.300494194030762
 20
-57.69140625
 30
-91.19999694824219
 70
   192
  0
VERTEX
  5
77D
  8
0
 10
-5.307981014251709
 20
-58.45281219482422
 30
-87.9000015258789
 70
   192
  0
VERTEX
  5
77E
  8
0
 10
-10.35704612731934
 20
-56.89268493652344
 30
-87.9000015258789
 70
   192
  0
VERTEX
  5
77F
  8
0
 10
-13.48301696777344
 20
-55.39250946044922
 30
-91.19999694824219
 70
   192
  0
VERTEX
  5
780
  8
0
 10
-15.02399635314941
 20
-54.36038208007812
 30
-87.9000015258789
 70
   192
  0
VERTEX
  5
781
  8
0
 10
-17.99785995483398
 20
-52.10383987426758
 30
-91.19999694824219
 70
   192
  0
VERTEX
  5
782
  8
0
 10
-21.83443069458008
 20
-47.88332748413086
 30
-91.19999694824219
 70
   192
  0
VERTEX
  5
783
  8
0
 10
-19.08980751037598
 20
-50.99630737304688
 30
-87.9000015258789
 70
   192
  0
VERTEX
  5
784
  8
0
 10
-22.42024421691895
 20
-46.93757247924805
 30
-87.9000015258789
 70
   192
  0
VERTEX
  5
785
  8
0
 10
-24.63795852661133
 20
-43.02451324462891
 30
-91.19999694824219
 70
   192
  0
VERTEX
  5
786
  8
0
 10
-24.91996574401855
 20
-42.25894165039062
 30
-87.9000015258789
 70
   192
  0
VERTEX
  5
787
  8
0
 10
-26.38651657104492
 20
-37.68198776245117
 30
-91.19999694824219
 70
   192
  0
VERTEX
  5
788
  8
0
 10
-27.0
 20
-32.0
 30
-91.19999694824219
 70
   192
  0
VERTEX
  5
789
  8
0
 10
-26.44932746887207
 20
-37.27352523803711
 30
-87.9000015258789
 70
   192
  0
VERTEX
  5
78A
  8
0
 10
-27.0
 20
-32.0
 30
-87.9000015258789
 70
   192
  0
VERTEX
  5
78B
  8
0
 10
-18.0
 20
-32.0
 30
-86.69999694824219
 70
   192
  0
VERTEX
  5
78C
  8
0
 10
-22.06781196594238
 20
-36.45814514160156
 30
-87.19779968261719
 70
   192
  0
VERTEX
  5
78D
  8
0
 10
-17.56763076782227
 20
-35.75725173950195
 30
-86.69999694824219
 70
   192
  0
VERTEX
  5
78E
  8
0
 10
-1.91868531703949
 20
-49.88838577270508
 30
-86.69999694824219
 70
   192
  0
VERTEX
  5
78F
  8
0
 10
-4.059834480285645
 20
-54.14455032348633
 30
-87.19779968261719
 70
   192
  0
VERTEX
  5
790
  8
0
 10
4.059834480285645
 20
-54.14455032348633
 30
-87.19779968261719
 70
   192
  0
VERTEX
  5
791
  8
0
 10
1.839943170547485
 20
-49.88047409057617
 30
-86.69999694824219
 70
   192
  0
VERTEX
  5
792
  8
0
 10
16.96232223510742
 20
-46.80348205566406
 30
-87.19779968261719
 70
   192
  0
VERTEX
  5
793
  8
0
 10
11.42999458312988
 20
-51.39635467529297
 30
-87.19779968261719
 70
   192
  0
VERTEX
  5
794
  8
0
 10
9.002528190612793
 20
-47.59554290771484
 30
-86.69999694824219
 70
   192
  0
VERTEX
  5
795
  8
0
 10
5.522261619567871
 20
-49.11026000976562
 30
-86.69999694824219
 70
   192
  0
VERTEX
  5
796
  8
0
 10
12.02614784240723
 20
-45.42636489868164
 30
-86.69999694824219
 70
   192
  0
VERTEX
  5
797
  8
0
 10
20.39469718933105
 20
-41.53518295288086
 30
-87.19779968261719
 70
   192
  0
VERTEX
  5
798
  8
0
 10
16.48003578186035
 20
-39.37371063232422
 30
-86.69999694824219
 70
   192
  0
VERTEX
  5
799
  8
0
 10
14.59556770324707
 20
-42.63186645507812
 30
-86.69999694824219
 70
   192
  0
VERTEX
  5
79A
  8
0
 10
22.06781196594238
 20
-36.45814514160156
 30
-87.19779968261719
 70
   192
  0
VERTEX
  5
79B
  8
0
 10
18.0
 20
-32.0
 30
-86.69999694824219
 70
   192
  0
VERTEX
  5
79C
  8
0
 10
17.63750648498535
 20
-35.79267501831055
 30
-86.69999694824219
 70
   192
  0
VERTEX
  5
79D
  8
0
 10
22.51362609863281
 20
-32.0
 30
-87.19779968261719
 70
   192
  0
VERTEX
  5
79E
  8
0
 10
-11.42999458312988
 20
-51.39635467529297
 30
-87.19779968261719
 70
   192
  0
VERTEX
  5
79F
  8
0
 10
-5.618942737579346
 20
-49.05849456787109
 30
-86.69999694824219
 70
   192
  0
VERTEX
  5
7A0
  8
0
 10
-9.004728317260742
 20
-47.52386856079102
 30
-86.69999694824219
 70
   192
  0
VERTEX
  5
7A1
  8
0
 10
-12.05349731445312
 20
-45.27167510986328
 30
-86.69999694824219
 70
   192
  0
VERTEX
  5
7A2
  8
0
 10
-16.96232223510742
 20
-46.80348205566406
 30
-87.19779968261719
 70
   192
  0
VERTEX
  5
7A3
  8
0
 10
-20.39469718933105
 20
-41.53518295288086
 30
-87.19779968261719
 70
   192
  0
VERTEX
  5
7A4
  8
0
 10
-14.54320526123047
 20
-42.48063278198242
 30
-86.69999694824219
 70
   192
  0
VERTEX
  5
7A5
  8
0
 10
-16.41536521911621
 20
-39.25079345703125
 30
-86.69999694824219
 70
   192
  0
VERTEX
  5
7A6
  8
0
 10
-22.51362609863281
 20
-32.0
 30
-87.19779968261719
 70
   192
  0
VERTEX
  5
7A7
  8
0
 10
-4.630447864532471
 20
-49.37121963500977
 30
-11.69999980926514
 70
   192
  0
VERTEX
  5
7A8
  8
0
 10
0.0573382936418056
 20
-49.98361206054688
 30
-11.69999980926514
 70
   192
  0
VERTEX
  5
7A9
  8
0
 10
4.710021495819092
 20
-49.33896636962891
 30
-11.69999980926514
 70
   192
  0
VERTEX
  5
7AA
  8
0
 10
9.004728317260742
 20
-47.52386856079102
 30
-11.69999980926514
 70
   192
  0
VERTEX
  5
7AB
  8
0
 10
12.72376728057861
 20
-44.63224792480469
 30
-11.69999980926514
 70
   192
  0
VERTEX
  5
7AC
  8
0
 10
15.5692720413208
 20
-40.89867782592773
 30
-11.69999980926514
 70
   192
  0
VERTEX
  5
7AD
  8
0
 10
17.34705352783203
 20
-36.65535736083984
 30
-11.69999980926514
 70
   192
  0
VERTEX
  5
7AE
  8
0
 10
18.0
 20
-32.0
 30
-11.69999980926514
 70
   192
  0
VERTEX
  5
7AF
  8
0
 10
-9.002528190612793
 20
-47.59554290771484
 30
-11.69999980926514
 70
   192
  0
VERTEX
  5
7B0
  8
0
 10
-12.72310256958008
 20
-44.7779426574707
 30
-11.69999980926514
 70
   192
  0
VERTEX
  5
7B1
  8
0
 10
-15.61380577087402
 20
-41.06748199462891
 30
-11.69999980926514
 70
   192
  0
VERTEX
  5
7B2
  8
0
 10
-17.427978515625
 20
-36.69908142089844
 30
-11.69999980926514
 70
   192
  0
VERTEX
  5
7B3
  8
0
 10
-18.0
 20
-32.0
 30
-11.69999980926514
 70
   192
  0
VERTEX
  5
7B4
  8
0
 10
17.63750648498535
 20
-28.20732688903809
 30
-86.69999694824219
 70
   192
  0
VERTEX
  5
7B5
  8
0
 10
12.02614784240723
 20
-18.57363700866699
 30
-86.69999694824219
 70
   192
  0
VERTEX
  5
7B6
  8
0
 10
12.72310256958008
 20
-19.22205543518066
 30
-11.69999980926514
 70
   192
  0
VERTEX
  5
7B7
  8
0
 10
14.59556770324707
 20
-21.36813163757324
 30
-86.69999694824219
 70
   192
  0
VERTEX
  5
7B8
  8
0
 10
16.48003578186035
 20
-24.62629127502441
 30
-86.69999694824219
 70
   192
  0
VERTEX
  5
7B9
  8
0
 10
15.61380577087402
 20
-22.93251800537109
 30
-11.69999980926514
 70
   192
  0
VERTEX
  5
7BA
  8
0
 10
17.427978515625
 20
-27.30091667175293
 30
-11.69999980926514
 70
   192
  0
VERTEX
  5
7BB
  8
0
 10
4.630447864532471
 20
-14.6287784576416
 30
-11.69999980926514
 70
   192
  0
VERTEX
  5
7BC
  8
0
 10
1.839943170547485
 20
-14.11952590942383
 30
-86.69999694824219
 70
   192
  0
VERTEX
  5
7BD
  8
0
 10
-0.0573382936418056
 20
-14.01638889312744
 30
-11.69999980926514
 70
   192
  0
VERTEX
  5
7BE
  8
0
 10
9.002528190612793
 20
-16.40445518493652
 30
-86.69999694824219
 70
   192
  0
VERTEX
  5
7BF
  8
0
 10
5.522261619567871
 20
-14.88973903656006
 30
-86.69999694824219
 70
   192
  0
VERTEX
  5
7C0
  8
0
 10
9.002528190612793
 20
-16.40445518493652
 30
-11.69999980926514
 70
   192
  0
VERTEX
  5
7C1
  8
0
 10
-5.618942737579346
 20
-14.94150543212891
 30
-86.69999694824219
 70
   192
  0
VERTEX
  5
7C2
  8
0
 10
-9.004728317260742
 20
-16.47613143920898
 30
-86.69999694824219
 70
   192
  0
VERTEX
  5
7C3
  8
0
 10
-9.004728317260742
 20
-16.47613143920898
 30
-11.69999980926514
 70
   192
  0
VERTEX
  5
7C4
  8
0
 10
-1.91868531703949
 20
-14.11161422729492
 30
-86.69999694824219
 70
   192
  0
VERTEX
  5
7C5
  8
0
 10
-4.710021495819092
 20
-14.66103267669678
 30
-11.69999980926514
 70
   192
  0
VERTEX
  5
7C6
  8
0
 10
-12.05349731445312
 20
-18.72832489013672
 30
-86.69999694824219
 70
   192
  0
VERTEX
  5
7C7
  8
0
 10
-14.54320526123047
 20
-21.51936531066895
 30
-86.69999694824219
 70
   192
  0
VERTEX
  5
7C8
  8
0
 10
-12.72376728057861
 20
-19.36775016784668
 30
-11.69999980926514
 70
   192
  0
VERTEX
  5
7C9
  8
0
 10
-15.5692720413208
 20
-23.10132217407227
 30
-11.69999980926514
 70
   192
  0
VERTEX
  5
7CA
  8
0
 10
-16.41536521911621
 20
-24.74920463562012
 30
-86.69999694824219
 70
   192
  0
VERTEX
  5
7CB
  8
0
 10
-17.56763076782227
 20
-28.24275016784668
 30
-86.69999694824219
 70
   192
  0
VERTEX
  5
7CC
  8
0
 10
-17.34705352783203
 20
-27.34464073181152
 30
-11.69999980926514
 70
   192
  0
VERTEX
  5
7CD
  8
0
 10
20.39469718933105
 20
-22.46481704711914
 30
-87.19779968261719
 70
   192
  0
VERTEX
  5
7CE
  8
0
 10
22.06781196594238
 20
-27.54185676574707
 30
-87.19779968261719
 70
   192
  0
VERTEX
  5
7CF
  8
0
 10
22.4916877746582
 20
-16.96833801269531
 30
-87.9000015258789
 70
   192
  0
VERTEX
  5
7D0
  8
0
 10
16.96232223510742
 20
-17.19651985168457
 30
-87.19779968261719
 70
   192
  0
VERTEX
  5
7D1
  8
0
 10
24.97808647155762
 20
-21.61971664428711
 30
-87.9000015258789
 70
   192
  0
VERTEX
  5
7D2
  8
0
 10
26.51374435424805
 20
-26.69998550415039
 30
-87.9000015258789
 70
   192
  0
VERTEX
  5
7D3
  8
0
 10
11.42999458312988
 20
-12.60364532470703
 30
-87.19779968261719
 70
   192
  0
VERTEX
  5
7D4
  8
0
 10
4.059834480285645
 20
-9.855449676513672
 30
-87.19779968261719
 70
   192
  0
VERTEX
  5
7D5
  8
0
 10
-4.059834480285645
 20
-9.855449676513672
 30
-87.19779968261719
 70
   192
  0
VERTEX
  5
7D6
  8
0
 10
-11.42999458312988
 20
-12.60364532470703
 30
-87.19779968261719
 70
   192
  0
VERTEX
  5
7D7
  8
0
 10
-16.96232223510742
 20
-17.19651985168457
 30
-87.19779968261719
 70
   192
  0
VERTEX
  5
7D8
  8
0
 10
-20.39469718933105
 20
-22.46481704711914
 30
-87.19779968261719
 70
   192
  0
VERTEX
  5
7D9
  8
0
 10
-26.44932746887207
 20
-26.72647476196289
 30
-87.9000015258789
 70
   192
  0
VERTEX
  5
7DA
  8
0
 10
-22.06781196594238
 20
-27.54185676574707
 30
-87.19779968261719
 70
   192
  0
VERTEX
  5
7DB
  8
0
 10
-19.08980751037598
 20
-13.00369453430176
 30
-87.9000015258789
 70
   192
  0
VERTEX
  5
7DC
  8
0
 10
-22.42024421691895
 20
-17.06242752075195
 30
-87.9000015258789
 70
   192
  0
VERTEX
  5
7DD
  8
0
 10
10.31303024291992
 20
-7.050122737884521
 30
-87.9000015258789
 70
   192
  0
VERTEX
  5
7DE
  8
0
 10
14.97968292236328
 20
-9.51374340057373
 30
-87.9000015258789
 70
   192
  0
VERTEX
  5
7DF
  8
0
 10
-0.0468411445617676
 20
-5.010604858398438
 30
-87.9000015258789
 70
   192
  0
VERTEX
  5
7E0
  8
0
 10
-5.307981014251709
 20
-5.547186374664307
 30
-87.9000015258789
 70
   192
  0
VERTEX
  5
7E1
  8
0
 10
19.11120414733887
 20
-12.86213493347168
 30
-87.9000015258789
 70
   192
  0
VERTEX
  5
7E2
  8
0
 10
5.248425006866455
 20
-5.531722068786621
 30
-87.9000015258789
 70
   192
  0
VERTEX
  5
7E3
  8
0
 10
-10.35704612731934
 20
-7.107314109802246
 30
-87.9000015258789
 70
   192
  0
VERTEX
  5
7E4
  8
0
 10
-15.02399635314941
 20
-9.639616966247559
 30
-87.9000015258789
 70
   192
  0
VERTEX
  5
7E5
  8
0
 10
-24.91996574401855
 20
-21.74105834960938
 30
-87.9000015258789
 70
   192
  0
VERTEX
  5
7E6
  8
0
 10
26.38651657104492
 20
-26.3180103302002
 30
-91.19999694824219
 70
   192
  0
VERTEX
  5
7E7
  8
0
 10
17.99785995483398
 20
-11.89616107940674
 30
-91.19999694824219
 70
   192
  0
VERTEX
  5
7E8
  8
0
 10
24.63795852661133
 20
-20.97548484802246
 30
-91.19999694824219
 70
   192
  0
VERTEX
  5
7E9
  8
0
 10
2.775609970092773
 20
-5.159143447875977
 30
-91.19999694824219
 70
   192
  0
VERTEX
  5
7EA
  8
0
 10
-2.88095235824585
 20
-5.159143447875977
 30
-91.19999694824219
 70
   192
  0
VERTEX
  5
7EB
  8
0
 10
8.300494194030762
 20
-6.308592796325684
 30
-91.19999694824219
 70
   192
  0
VERTEX
  5
7EC
  8
0
 10
-13.48301696777344
 20
-8.607491493225098
 30
-91.19999694824219
 70
   192
  0
VERTEX
  5
7ED
  8
0
 10
-8.408159255981445
 20
-6.348512172698975
 30
-91.19999694824219
 70
   192
  0
VERTEX
  5
7EE
  8
0
 10
-21.87448310852051
 20
-16.18879890441895
 30
-91.19999694824219
 70
   192
  0
VERTEX
  5
7EF
  8
0
 10
-18.11611557006836
 20
-11.99400901794434
 30
-91.19999694824219
 70
   192
  0
VERTEX
  5
7F0
  8
0
 10
-24.67801094055176
 20
-21.04760932922363
 30
-91.19999694824219
 70
   192
  0
VERTEX
  5
7F1
  8
0
 10
-26.38651657104492
 20
-26.3180103302002
 30
-91.19999694824219
 70
   192
  0
VERTEX
  5
7F2
  8
0
 10
13.48301696777344
 20
-8.607491493225098
 30
-91.19999694824219
 70
   192
  0
VERTEX
  5
7F3
  8
0
 10
21.83443069458008
 20
-16.11667442321777
 30
-91.19999694824219
 70
   192
  0
VERTEX
  5
7F4
  8
0
 62
   151
 10
0.0
 20
0.0
 30
0.0
 70
   128
 71
     3
 72
     2
 73
     1
  0
VERTEX
  5
7F5
  8
0
 62
   151
 10
0.0
 20
0.0
 30
0.0
 70
   128
 71
     5
 72
     4
 73
     2
  0
VERTEX
  5
7F6
  8
0
 62
   151
 10
0.0
 20
0.0
 30
0.0
 70
   128
 71
     1
 72
     2
 73
     4
  0
VERTEX
  5
7F7
  8
0
 62
   151
 10
0.0
 20
0.0
 30
0.0
 70
   128
 71
     7
 72
     5
 73
     6
  0
VERTEX
  5
7F8
  8
0
 62
   151
 10
0.0
 20
0.0
 30
0.0
 70
   128
 71
     5
 72
     7
 73
     4
  0
VERTEX
  5
7F9
  8
0
 62
   151
 10
0.0
 20
0.0
 30
0.0
 70
   128
 71
     6
 72
     9
 73
     8
  0
VERTEX
  5
7FA
  8
0
 62
   151
 10
0.0
 20
0.0
 30
0.0
 70
   128
 71
     8
 72
     7
 73
     6
  0
VERTEX
  5
7FB
  8
0
 62
   151
 10
0.0
 20
0.0
 30
0.0
 70
   128
 71
    11
 72
    10
 73
     9
  0
VERTEX
  5
7FC
  8
0
 62
   151
 10
0.0
 20
0.0
 30
0.0
 70
   128
 71
     8
 72
     9
 73
    10
  0
VERTEX
  5
7FD
  8
0
 62
   151
 10
0.0
 20
0.0
 30
0.0
 70
   128
 71
    13
 72
    11
 73
    12
  0
VERTEX
  5
7FE
  8
0
 62
   151
 10
0.0
 20
0.0
 30
0.0
 70
   128
 71
    11
 72
    13
 73
    10
  0
VERTEX
  5
7FF
  8
0
 62
   151
 10
0.0
 20
0.0
 30
0.0
 70
   128
 71
    12
 72
    15
 73
    14
  0
VERTEX
  5
800
  8
0
 62
   151
 10
0.0
 20
0.0
 30
0.0
 70
   128
 71
    14
 72
    13
 73
    12
  0
VERTEX
  5
801
  8
0
 62
   151
 10
0.0
 20
0.0
 30
0.0
 70
   128
 71
    14
 72
    15
 73
    16
  0
VERTEX
  5
802
  8
0
 62
   151
 10
0.0
 20
0.0
 30
0.0
 70
   128
 71
    15
 72
    17
 73
    16
  0
VERTEX
  5
803
  8
0
 62
   151
 10
0.0
 20
0.0
 30
0.0
 70
   128
 71
    18
 72
     3
 73
     1
  0
VERTEX
  5
804
  8
0
 62
   151
 10
0.0
 20
0.0
 30
0.0
 70
   128
 71
    20
 72
    18
 73
    19
  0
VERTEX
  5
805
  8
0
 62
   151
 10
0.0
 20
0.0
 30
0.0
 70
   128
 71
    18
 72
    20
 73
     3
  0
VERTEX
  5
806
  8
0
 62
   151
 10
0.0
 20
0.0
 30
0.0
 70
   128
 71
    19
 72
    22
 73
    21
  0
VERTEX
  5
807
  8
0
 62
   151
 10
0.0
 20
0.0
 30
0.0
 70
   128
 71
    21
 72
    20
 73
    19
  0
VERTEX
  5
808
  8
0
 62
   151
 10
0.0
 20
0.0
 30
0.0
 70
   128
 71
    24
 72
    23
 73
    22
  0
VERTEX
  5
809
  8
0
 62
   151
 10
0.0
 20
0.0
 30
0.0
 70
   128
 71
    21
 72
    22
 73
    23
  0
VERTEX
  5
80A
  8
0
 62
   151
 10
0.0
 20
0.0
 30
0.0
 70
   128
 71
    26
 72
    24
 73
    25
  0
VERTEX
  5
80B
  8
0
 62
   151
 10
0.0
 20
0.0
 30
0.0
 70
   128
 71
    24
 72
    26
 73
    23
  0
VERTEX
  5
80C
  8
0
 62
   151
 10
0.0
 20
0.0
 30
0.0
 70
   128
 71
    25
 72
    28
 73
    27
  0
VERTEX
  5
80D
  8
0
 62
   151
 10
0.0
 20
0.0
 30
0.0
 70
   128
 71
    27
 72
    26
 73
    25
  0
VERTEX
  5
80E
  8
0
 62
   151
 10
0.0
 20
0.0
 30
0.0
 70
   128
 71
    30
 72
    29
 73
    28
  0
VERTEX
  5
80F
  8
0
 62
   151
 10
0.0
 20
0.0
 30
0.0
 70
   128
 71
    27
 72
    28
 73
    29
  0
VERTEX
  5
810
  8
0
 62
   151
 10
0.0
 20
0.0
 30
0.0
 70
   128
 71
    32
 72
    30
 73
    31
  0
VERTEX
  5
811
  8
0
 62
   151
 10
0.0
 20
0.0
 30
0.0
 70
   128
 71
    30
 72
    32
 73
    29
  0
VERTEX
  5
812
  8
0
 62
   151
 10
0.0
 20
0.0
 30
0.0
 70
   128
 71
    33
 72
    32
 73
    31
  0
VERTEX
  5
813
  8
0
 62
   151
 10
0.0
 20
0.0
 30
0.0
 70
   128
 71
    36
 72
    35
 73
    34
  0
VERTEX
  5
814
  8
0
 62
   151
 10
0.0
 20
0.0
 30
0.0
 70
   128
 71
    39
 72
    38
 73
    37
  0
VERTEX
  5
815
  8
0
 62
   151
 10
0.0
 20
0.0
 30
0.0
 70
   128
 71
    37
 72
    40
 73
    39
  0
VERTEX
  5
816
  8
0
 62
   151
 10
0.0
 20
0.0
 30
0.0
 70
   128
 71
    41
 72
    11
 73
     9
  0
VERTEX
  5
817
  8
0
 62
   151
 10
0.0
 20
0.0
 30
0.0
 70
   128
 71
    44
 72
    43
 73
    42
  0
VERTEX
  5
818
  8
0
 62
   151
 10
0.0
 20
0.0
 30
0.0
 70
   128
 71
    43
 72
    45
 73
    42
  0
VERTEX
  5
819
  8
0
 62
   151
 10
0.0
 20
0.0
 30
0.0
 70
   128
 71
    42
 72
    39
 73
    44
  0
VERTEX
  5
81A
  8
0
 62
   151
 10
0.0
 20
0.0
 30
0.0
 70
   128
 71
    45
 72
    41
 73
    42
  0
VERTEX
  5
81B
  8
0
 62
   151
 10
0.0
 20
0.0
 30
0.0
 70
   128
 71
    48
 72
    47
 73
    46
  0
VERTEX
  5
81C
  8
0
 62
   151
 10
0.0
 20
0.0
 30
0.0
 70
   128
 71
    48
 72
    41
 73
    45
  0
VERTEX
  5
81D
  8
0
 62
   151
 10
0.0
 20
0.0
 30
0.0
 70
   128
 71
    44
 72
    39
 73
    40
  0
VERTEX
  5
81E
  8
0
 62
   151
 10
0.0
 20
0.0
 30
0.0
 70
   128
 71
    49
 72
    46
 73
    47
  0
VERTEX
  5
81F
  8
0
 62
   151
 10
0.0
 20
0.0
 30
0.0
 70
   128
 71
    49
 72
    15
 73
    46
  0
VERTEX
  5
820
  8
0
 62
   151
 10
0.0
 20
0.0
 30
0.0
 70
   128
 71
    46
 72
    41
 73
    48
  0
VERTEX
  5
821
  8
0
 62
   151
 10
0.0
 20
0.0
 30
0.0
 70
   128
 71
    52
 72
    51
 73
    50
  0
VERTEX
  5
822
  8
0
 62
   151
 10
0.0
 20
0.0
 30
0.0
 70
   128
 71
    49
 72
    47
 73
    51
  0
VERTEX
  5
823
  8
0
 62
   151
 10
0.0
 20
0.0
 30
0.0
 70
   128
 71
     3
 72
    38
 73
    39
  0
VERTEX
  5
824
  8
0
 62
   151
 10
0.0
 20
0.0
 30
0.0
 70
   128
 71
    49
 72
    52
 73
    17
  0
VERTEX
  5
825
  8
0
 62
   151
 10
0.0
 20
0.0
 30
0.0
 70
   128
 71
     3
 72
    39
 73
     2
  0
VERTEX
  5
826
  8
0
 62
   151
 10
0.0
 20
0.0
 30
0.0
 70
   128
 71
    38
 72
    21
 73
    53
  0
VERTEX
  5
827
  8
0
 62
   151
 10
0.0
 20
0.0
 30
0.0
 70
   128
 71
    38
 72
    53
 73
    54
  0
VERTEX
  5
828
  8
0
 62
   151
 10
0.0
 20
0.0
 30
0.0
 70
   128
 71
    56
 72
    55
 73
    53
  0
VERTEX
  5
829
  8
0
 62
   151
 10
0.0
 20
0.0
 30
0.0
 70
   128
 71
    53
 72
    55
 73
    54
  0
VERTEX
  5
82A
  8
0
 62
   151
 10
0.0
 20
0.0
 30
0.0
 70
   128
 71
    23
 72
    53
 73
    21
  0
VERTEX
  5
82B
  8
0
 62
   151
 10
0.0
 20
0.0
 30
0.0
 70
   128
 71
    57
 72
    56
 73
    53
  0
VERTEX
  5
82C
  8
0
 62
   151
 10
0.0
 20
0.0
 30
0.0
 70
   128
 71
    57
 72
    27
 73
    58
  0
VERTEX
  5
82D
  8
0
 62
   151
 10
0.0
 20
0.0
 30
0.0
 70
   128
 71
    57
 72
    58
 73
    59
  0
VERTEX
  5
82E
  8
0
 62
   151
 10
0.0
 20
0.0
 30
0.0
 70
   128
 71
    36
 72
    60
 73
    58
  0
VERTEX
  5
82F
  8
0
 62
   151
 10
0.0
 20
0.0
 30
0.0
 70
   128
 71
    58
 72
    60
 73
    59
  0
VERTEX
  5
830
  8
0
 62
   151
 10
0.0
 20
0.0
 30
0.0
 70
   128
 71
    35
 72
    58
 73
    29
  0
VERTEX
  5
831
  8
0
 62
   151
 10
0.0
 20
0.0
 30
0.0
 70
   128
 71
    35
 72
    36
 73
    58
  0
VERTEX
  5
832
  8
0
 62
   151
 10
0.0
 20
0.0
 30
0.0
 70
   128
 71
    34
 72
    35
 73
    61
  0
VERTEX
  5
833
  8
0
 62
   151
 10
0.0
 20
0.0
 30
0.0
 70
   128
 71
    61
 72
    32
 73
    33
  0
VERTEX
  5
834
  8
0
 62
   151
 10
0.0
 20
0.0
 30
0.0
 70
   128
 71
    35
 72
    32
 73
    61
  0
VERTEX
  5
835
  8
0
 62
   151
 10
0.0
 20
0.0
 30
0.0
 70
   128
 71
    32
 72
    35
 73
    29
  0
VERTEX
  5
836
  8
0
 62
   151
 10
0.0
 20
0.0
 30
0.0
 70
   128
 71
    58
 72
    27
 73
    29
  0
VERTEX
  5
837
  8
0
 62
   151
 10
0.0
 20
0.0
 30
0.0
 70
   128
 71
    57
 72
    26
 73
    27
  0
VERTEX
  5
838
  8
0
 62
   151
 10
0.0
 20
0.0
 30
0.0
 70
   128
 71
    26
 72
    57
 73
    23
  0
VERTEX
  5
839
  8
0
 62
   151
 10
0.0
 20
0.0
 30
0.0
 70
   128
 71
    57
 72
    59
 73
    56
  0
VERTEX
  5
83A
  8
0
 62
   151
 10
0.0
 20
0.0
 30
0.0
 70
   128
 71
    57
 72
    53
 73
    23
  0
VERTEX
  5
83B
  8
0
 62
   151
 10
0.0
 20
0.0
 30
0.0
 70
   128
 71
    38
 72
    20
 73
    21
  0
VERTEX
  5
83C
  8
0
 62
   151
 10
0.0
 20
0.0
 30
0.0
 70
   128
 71
    20
 72
    38
 73
     3
  0
VERTEX
  5
83D
  8
0
 62
   151
 10
0.0
 20
0.0
 30
0.0
 70
   128
 71
    38
 72
    54
 73
    37
  0
VERTEX
  5
83E
  8
0
 62
   151
 10
0.0
 20
0.0
 30
0.0
 70
   128
 71
    39
 72
     5
 73
     2
  0
VERTEX
  5
83F
  8
0
 62
   151
 10
0.0
 20
0.0
 30
0.0
 70
   128
 71
    42
 72
     6
 73
     5
  0
VERTEX
  5
840
  8
0
 62
   151
 10
0.0
 20
0.0
 30
0.0
 70
   128
 71
    39
 72
    42
 73
     5
  0
VERTEX
  5
841
  8
0
 62
   151
 10
0.0
 20
0.0
 30
0.0
 70
   128
 71
     6
 72
    42
 73
     9
  0
VERTEX
  5
842
  8
0
 62
   151
 10
0.0
 20
0.0
 30
0.0
 70
   128
 71
    42
 72
    41
 73
     9
  0
VERTEX
  5
843
  8
0
 62
   151
 10
0.0
 20
0.0
 30
0.0
 70
   128
 71
    46
 72
    12
 73
    11
  0
VERTEX
  5
844
  8
0
 62
   151
 10
0.0
 20
0.0
 30
0.0
 70
   128
 71
    41
 72
    46
 73
    11
  0
VERTEX
  5
845
  8
0
 62
   151
 10
0.0
 20
0.0
 30
0.0
 70
   128
 71
    12
 72
    46
 73
    15
  0
VERTEX
  5
846
  8
0
 62
   151
 10
0.0
 20
0.0
 30
0.0
 70
   128
 71
    15
 72
    49
 73
    17
  0
VERTEX
  5
847
  8
0
 62
   151
 10
0.0
 20
0.0
 30
0.0
 70
   128
 71
    49
 72
    51
 73
    52
  0
VERTEX
  5
848
  8
0
 62
   151
 10
0.0
 20
0.0
 30
0.0
 70
   128
 71
    63
 72
    37
 73
    62
  0
VERTEX
  5
849
  8
0
 62
   151
 10
0.0
 20
0.0
 30
0.0
 70
   128
 71
    40
 72
    63
 73
    64
  0
VERTEX
  5
84A
  8
0
 62
   151
 10
0.0
 20
0.0
 30
0.0
 70
   128
 71
    63
 72
    40
 73
    37
  0
VERTEX
  5
84B
  8
0
 62
   151
 10
0.0
 20
0.0
 30
0.0
 70
   128
 71
    64
 72
    65
 73
    44
  0
VERTEX
  5
84C
  8
0
 62
   151
 10
0.0
 20
0.0
 30
0.0
 70
   128
 71
    44
 72
    40
 73
    64
  0
VERTEX
  5
84D
  8
0
 62
   151
 10
0.0
 20
0.0
 30
0.0
 70
   128
 71
    65
 72
    45
 73
    43
  0
VERTEX
  5
84E
  8
0
 62
   151
 10
0.0
 20
0.0
 30
0.0
 70
   128
 71
    44
 72
    65
 73
    43
  0
VERTEX
  5
84F
  8
0
 62
   151
 10
0.0
 20
0.0
 30
0.0
 70
   128
 71
    48
 72
    45
 73
    66
  0
VERTEX
  5
850
  8
0
 62
   151
 10
0.0
 20
0.0
 30
0.0
 70
   128
 71
    65
 72
    66
 73
    45
  0
VERTEX
  5
851
  8
0
 62
   151
 10
0.0
 20
0.0
 30
0.0
 70
   128
 71
    48
 72
    67
 73
    47
  0
VERTEX
  5
852
  8
0
 62
   151
 10
0.0
 20
0.0
 30
0.0
 70
   128
 71
    67
 72
    48
 73
    66
  0
VERTEX
  5
853
  8
0
 62
   151
 10
0.0
 20
0.0
 30
0.0
 70
   128
 71
    68
 72
    51
 73
    47
  0
VERTEX
  5
854
  8
0
 62
   151
 10
0.0
 20
0.0
 30
0.0
 70
   128
 71
    47
 72
    67
 73
    68
  0
VERTEX
  5
855
  8
0
 62
   151
 10
0.0
 20
0.0
 30
0.0
 70
   128
 71
    68
 72
    69
 73
    51
  0
VERTEX
  5
856
  8
0
 62
   151
 10
0.0
 20
0.0
 30
0.0
 70
   128
 71
    69
 72
    50
 73
    51
  0
VERTEX
  5
857
  8
0
 62
   151
 10
0.0
 20
0.0
 30
0.0
 70
   128
 71
    62
 72
    37
 73
    54
  0
VERTEX
  5
858
  8
0
 62
   151
 10
0.0
 20
0.0
 30
0.0
 70
   128
 71
    54
 72
    55
 73
    70
  0
VERTEX
  5
859
  8
0
 62
   151
 10
0.0
 20
0.0
 30
0.0
 70
   128
 71
    70
 72
    62
 73
    54
  0
VERTEX
  5
85A
  8
0
 62
   151
 10
0.0
 20
0.0
 30
0.0
 70
   128
 71
    71
 72
    70
 73
    56
  0
VERTEX
  5
85B
  8
0
 62
   151
 10
0.0
 20
0.0
 30
0.0
 70
   128
 71
    55
 72
    56
 73
    70
  0
VERTEX
  5
85C
  8
0
 62
   151
 10
0.0
 20
0.0
 30
0.0
 70
   128
 71
    71
 72
    59
 73
    72
  0
VERTEX
  5
85D
  8
0
 62
   151
 10
0.0
 20
0.0
 30
0.0
 70
   128
 71
    59
 72
    71
 73
    56
  0
VERTEX
  5
85E
  8
0
 62
   151
 10
0.0
 20
0.0
 30
0.0
 70
   128
 71
    60
 72
    73
 73
    72
  0
VERTEX
  5
85F
  8
0
 62
   151
 10
0.0
 20
0.0
 30
0.0
 70
   128
 71
    72
 72
    59
 73
    60
  0
VERTEX
  5
860
  8
0
 62
   151
 10
0.0
 20
0.0
 30
0.0
 70
   128
 71
    74
 72
    73
 73
    36
  0
VERTEX
  5
861
  8
0
 62
   151
 10
0.0
 20
0.0
 30
0.0
 70
   128
 71
    60
 72
    36
 73
    73
  0
VERTEX
  5
862
  8
0
 62
   151
 10
0.0
 20
0.0
 30
0.0
 70
   128
 71
    34
 72
    74
 73
    36
  0
VERTEX
  5
863
  8
0
 62
   151
 10
0.0
 20
0.0
 30
0.0
 70
   128
 71
    50
 72
    69
 73
    75
  0
VERTEX
  5
864
  8
0
 62
   151
 10
0.0
 20
0.0
 30
0.0
 70
   128
 71
    78
 72
    77
 73
    76
  0
VERTEX
  5
865
  8
0
 62
   151
 10
0.0
 20
0.0
 30
0.0
 70
   128
 71
    81
 72
    80
 73
    79
  0
VERTEX
  5
866
  8
0
 62
   151
 10
0.0
 20
0.0
 30
0.0
 70
   128
 71
    84
 72
    83
 73
    82
  0
VERTEX
  5
867
  8
0
 62
   151
 10
0.0
 20
0.0
 30
0.0
 70
   128
 71
    87
 72
    86
 73
    85
  0
VERTEX
  5
868
  8
0
 62
   151
 10
0.0
 20
0.0
 30
0.0
 70
   128
 71
    90
 72
    89
 73
    88
  0
VERTEX
  5
869
  8
0
 62
   151
 10
0.0
 20
0.0
 30
0.0
 70
   128
 71
    84
 72
    92
 73
    91
  0
VERTEX
  5
86A
  8
0
 62
   151
 10
0.0
 20
0.0
 30
0.0
 70
   128
 71
    95
 72
    94
 73
    93
  0
VERTEX
  5
86B
  8
0
 62
   151
 10
0.0
 20
0.0
 30
0.0
 70
   128
 71
    93
 72
    90
 73
    95
  0
VERTEX
  5
86C
  8
0
 62
   151
 10
0.0
 20
0.0
 30
0.0
 70
   128
 71
    97
 72
    94
 73
    96
  0
VERTEX
  5
86D
  8
0
 62
   151
 10
0.0
 20
0.0
 30
0.0
 70
   128
 71
    95
 72
    96
 73
    94
  0
VERTEX
  5
86E
  8
0
 62
   151
 10
0.0
 20
0.0
 30
0.0
 70
   128
 71
    97
 72
    99
 73
    98
  0
VERTEX
  5
86F
  8
0
 62
   151
 10
0.0
 20
0.0
 30
0.0
 70
   128
 71
    99
 72
    97
 73
    96
  0
VERTEX
  5
870
  8
0
 62
   151
 10
0.0
 20
0.0
 30
0.0
 70
   128
 71
    74
 72
    34
 73
    98
  0
VERTEX
  5
871
  8
0
 62
   151
 10
0.0
 20
0.0
 30
0.0
 70
   128
 71
    98
 72
    99
 73
    74
  0
VERTEX
  5
872
  8
0
 62
   151
 10
0.0
 20
0.0
 30
0.0
 70
   128
 71
    92
 72
    90
 73
    88
  0
VERTEX
  5
873
  8
0
 62
   151
 10
0.0
 20
0.0
 30
0.0
 70
   128
 71
    89
 72
    90
 73
    93
  0
VERTEX
  5
874
  8
0
 62
   151
 10
0.0
 20
0.0
 30
0.0
 70
   128
 71
    84
 72
    91
 73
    83
  0
VERTEX
  5
875
  8
0
 62
   151
 10
0.0
 20
0.0
 30
0.0
 70
   128
 71
    92
 72
    88
 73
    91
  0
VERTEX
  5
876
  8
0
 62
   151
 10
0.0
 20
0.0
 30
0.0
 70
   128
 71
    82
 72
    86
 73
    87
  0
VERTEX
  5
877
  8
0
 62
   151
 10
0.0
 20
0.0
 30
0.0
 70
   128
 71
    82
 72
    83
 73
    86
  0
VERTEX
  5
878
  8
0
 62
   151
 10
0.0
 20
0.0
 30
0.0
 70
   128
 71
    76
 72
    77
 73
    87
  0
VERTEX
  5
879
  8
0
 62
   151
 10
0.0
 20
0.0
 30
0.0
 70
   128
 71
    85
 72
    76
 73
    87
  0
VERTEX
  5
87A
  8
0
 62
   151
 10
0.0
 20
0.0
 30
0.0
 70
   128
 71
    79
 72
    80
 73
    78
  0
VERTEX
  5
87B
  8
0
 62
   151
 10
0.0
 20
0.0
 30
0.0
 70
   128
 71
    78
 72
    80
 73
    77
  0
VERTEX
  5
87C
  8
0
 62
   151
 10
0.0
 20
0.0
 30
0.0
 70
   128
 71
    69
 72
    81
 73
    75
  0
VERTEX
  5
87D
  8
0
 62
   151
 10
0.0
 20
0.0
 30
0.0
 70
   128
 71
    75
 72
    81
 73
    79
  0
VERTEX
  5
87E
  8
0
 62
   151
 10
0.0
 20
0.0
 30
0.0
 70
   128
 71
   101
 72
    75
 73
   100
  0
VERTEX
  5
87F
  8
0
 62
   151
 10
0.0
 20
0.0
 30
0.0
 70
   128
 71
   100
 72
   103
 73
   102
  0
VERTEX
  5
880
  8
0
 62
   151
 10
0.0
 20
0.0
 30
0.0
 70
   128
 71
   100
 72
   104
 73
   101
  0
VERTEX
  5
881
  8
0
 62
   151
 10
0.0
 20
0.0
 30
0.0
 70
   128
 71
   105
 72
    17
 73
    52
  0
VERTEX
  5
882
  8
0
 62
   151
 10
0.0
 20
0.0
 30
0.0
 70
   128
 71
   103
 72
    76
 73
   106
  0
VERTEX
  5
883
  8
0
 62
   151
 10
0.0
 20
0.0
 30
0.0
 70
   128
 71
   108
 72
   107
 73
    83
  0
VERTEX
  5
884
  8
0
 62
   151
 10
0.0
 20
0.0
 30
0.0
 70
   128
 71
   106
 72
    86
 73
   107
  0
VERTEX
  5
885
  8
0
 62
   151
 10
0.0
 20
0.0
 30
0.0
 70
   128
 71
   109
 72
   108
 73
    88
  0
VERTEX
  5
886
  8
0
 62
   151
 10
0.0
 20
0.0
 30
0.0
 70
   128
 71
    88
 72
   108
 73
    91
  0
VERTEX
  5
887
  8
0
 62
   151
 10
0.0
 20
0.0
 30
0.0
 70
   128
 71
   110
 72
    93
 73
    94
  0
VERTEX
  5
888
  8
0
 62
   151
 10
0.0
 20
0.0
 30
0.0
 70
   128
 71
    93
 72
   109
 73
    89
  0
VERTEX
  5
889
  8
0
 62
   151
 10
0.0
 20
0.0
 30
0.0
 70
   128
 71
   113
 72
   112
 73
   111
  0
VERTEX
  5
88A
  8
0
 62
   151
 10
0.0
 20
0.0
 30
0.0
 70
   128
 71
    94
 72
   111
 73
   110
  0
VERTEX
  5
88B
  8
0
 62
   151
 10
0.0
 20
0.0
 30
0.0
 70
   128
 71
    98
 72
    34
 73
    61
  0
VERTEX
  5
88C
  8
0
 62
   151
 10
0.0
 20
0.0
 30
0.0
 70
   128
 71
    97
 72
   113
 73
   111
  0
VERTEX
  5
88D
  8
0
 62
   151
 10
0.0
 20
0.0
 30
0.0
 70
   128
 71
   113
 72
    61
 73
    33
  0
VERTEX
  5
88E
  8
0
 62
   151
 10
0.0
 20
0.0
 30
0.0
 70
   128
 71
    98
 72
   113
 73
    97
  0
VERTEX
  5
88F
  8
0
 62
   151
 10
0.0
 20
0.0
 30
0.0
 70
   128
 71
   109
 72
    93
 73
   110
  0
VERTEX
  5
890
  8
0
 62
   151
 10
0.0
 20
0.0
 30
0.0
 70
   128
 71
   111
 72
    94
 73
    97
  0
VERTEX
  5
891
  8
0
 62
   151
 10
0.0
 20
0.0
 30
0.0
 70
   128
 71
   110
 72
   115
 73
   114
  0
VERTEX
  5
892
  8
0
 62
   151
 10
0.0
 20
0.0
 30
0.0
 70
   128
 71
   117
 72
   106
 73
   116
  0
VERTEX
  5
893
  8
0
 62
   151
 10
0.0
 20
0.0
 30
0.0
 70
   128
 71
   109
 72
    88
 73
    89
  0
VERTEX
  5
894
  8
0
 62
   151
 10
0.0
 20
0.0
 30
0.0
 70
   128
 71
    91
 72
   108
 73
    83
  0
VERTEX
  5
895
  8
0
 62
   151
 10
0.0
 20
0.0
 30
0.0
 70
   128
 71
   108
 72
   118
 73
   107
  0
VERTEX
  5
896
  8
0
 62
   151
 10
0.0
 20
0.0
 30
0.0
 70
   128
 71
   107
 72
   116
 73
   106
  0
VERTEX
  5
897
  8
0
 62
   151
 10
0.0
 20
0.0
 30
0.0
 70
   128
 71
   119
 72
   118
 73
   108
  0
VERTEX
  5
898
  8
0
 62
   151
 10
0.0
 20
0.0
 30
0.0
 70
   128
 71
    76
 72
    85
 73
   106
  0
VERTEX
  5
899
  8
0
 62
   151
 10
0.0
 20
0.0
 30
0.0
 70
   128
 71
    85
 72
    86
 73
   106
  0
VERTEX
  5
89A
  8
0
 62
   151
 10
0.0
 20
0.0
 30
0.0
 70
   128
 71
    79
 72
    78
 73
   100
  0
VERTEX
  5
89B
  8
0
 62
   151
 10
0.0
 20
0.0
 30
0.0
 70
   128
 71
    78
 72
   103
 73
   100
  0
VERTEX
  5
89C
  8
0
 62
   151
 10
0.0
 20
0.0
 30
0.0
 70
   128
 71
    79
 72
   100
 73
    75
  0
VERTEX
  5
89D
  8
0
 62
   151
 10
0.0
 20
0.0
 30
0.0
 70
   128
 71
    50
 72
   101
 73
    52
  0
VERTEX
  5
89E
  8
0
 62
   151
 10
0.0
 20
0.0
 30
0.0
 70
   128
 71
   104
 72
   105
 73
   101
  0
VERTEX
  5
89F
  8
0
 62
   151
 10
0.0
 20
0.0
 30
0.0
 70
   128
 71
    75
 72
   101
 73
    50
  0
VERTEX
  5
8A0
  8
0
 62
   151
 10
0.0
 20
0.0
 30
0.0
 70
   128
 71
   101
 72
   105
 73
    52
  0
VERTEX
  5
8A1
  8
0
 62
   151
 10
0.0
 20
0.0
 30
0.0
 70
   128
 71
   100
 72
   102
 73
   104
  0
VERTEX
  5
8A2
  8
0
 62
   151
 10
0.0
 20
0.0
 30
0.0
 70
   128
 71
   103
 72
   120
 73
   102
  0
VERTEX
  5
8A3
  8
0
 62
   151
 10
0.0
 20
0.0
 30
0.0
 70
   128
 71
   120
 72
   103
 73
   117
  0
VERTEX
  5
8A4
  8
0
 62
   151
 10
0.0
 20
0.0
 30
0.0
 70
   128
 71
   103
 72
    78
 73
    76
  0
VERTEX
  5
8A5
  8
0
 62
   151
 10
0.0
 20
0.0
 30
0.0
 70
   128
 71
   103
 72
   106
 73
   117
  0
VERTEX
  5
8A6
  8
0
 62
   151
 10
0.0
 20
0.0
 30
0.0
 70
   128
 71
   107
 72
   121
 73
   116
  0
VERTEX
  5
8A7
  8
0
 62
   151
 10
0.0
 20
0.0
 30
0.0
 70
   128
 71
   121
 72
   107
 73
   118
  0
VERTEX
  5
8A8
  8
0
 62
   151
 10
0.0
 20
0.0
 30
0.0
 70
   128
 71
   107
 72
    86
 73
    83
  0
VERTEX
  5
8A9
  8
0
 62
   151
 10
0.0
 20
0.0
 30
0.0
 70
   128
 71
   108
 72
   122
 73
   119
  0
VERTEX
  5
8AA
  8
0
 62
   151
 10
0.0
 20
0.0
 30
0.0
 70
   128
 71
   109
 72
   123
 73
   122
  0
VERTEX
  5
8AB
  8
0
 62
   151
 10
0.0
 20
0.0
 30
0.0
 70
   128
 71
   108
 72
   109
 73
   122
  0
VERTEX
  5
8AC
  8
0
 62
   151
 10
0.0
 20
0.0
 30
0.0
 70
   128
 71
   123
 72
   109
 73
   114
  0
VERTEX
  5
8AD
  8
0
 62
   151
 10
0.0
 20
0.0
 30
0.0
 70
   128
 71
   109
 72
   110
 73
   114
  0
VERTEX
  5
8AE
  8
0
 62
   151
 10
0.0
 20
0.0
 30
0.0
 70
   128
 71
   111
 72
   124
 73
   115
  0
VERTEX
  5
8AF
  8
0
 62
   151
 10
0.0
 20
0.0
 30
0.0
 70
   128
 71
   110
 72
   111
 73
   115
  0
VERTEX
  5
8B0
  8
0
 62
   151
 10
0.0
 20
0.0
 30
0.0
 70
   128
 71
   124
 72
   111
 73
   112
  0
VERTEX
  5
8B1
  8
0
 62
   151
 10
0.0
 20
0.0
 30
0.0
 70
   128
 71
   112
 72
   113
 73
    33
  0
VERTEX
  5
8B2
  8
0
 62
   151
 10
0.0
 20
0.0
 30
0.0
 70
   128
 71
   113
 72
    98
 73
    61
  0
VERTEX
  5
8B3
  8
0
 62
   151
 10
0.0
 20
0.0
 30
0.0
 70
   128
 71
   125
 72
    16
 73
   105
  0
VERTEX
  5
8B4
  8
0
 62
   151
 10
0.0
 20
0.0
 30
0.0
 70
   128
 71
   126
 72
   120
 73
   117
  0
VERTEX
  5
8B5
  8
0
 62
   151
 10
0.0
 20
0.0
 30
0.0
 70
   128
 71
   104
 72
   102
 73
   127
  0
VERTEX
  5
8B6
  8
0
 62
   151
 10
0.0
 20
0.0
 30
0.0
 70
   128
 71
   118
 72
   129
 73
   128
  0
VERTEX
  5
8B7
  8
0
 62
   151
 10
0.0
 20
0.0
 30
0.0
 70
   128
 71
   116
 72
   121
 73
   130
  0
VERTEX
  5
8B8
  8
0
 62
   151
 10
0.0
 20
0.0
 30
0.0
 70
   128
 71
   122
 72
   123
 73
   131
  0
VERTEX
  5
8B9
  8
0
 62
   151
 10
0.0
 20
0.0
 30
0.0
 70
   128
 71
   132
 72
   119
 73
   122
  0
VERTEX
  5
8BA
  8
0
 62
   151
 10
0.0
 20
0.0
 30
0.0
 70
   128
 71
   114
 72
   115
 73
   133
  0
VERTEX
  5
8BB
  8
0
 62
   151
 10
0.0
 20
0.0
 30
0.0
 70
   128
 71
   133
 72
   134
 73
   114
  0
VERTEX
  5
8BC
  8
0
 62
   151
 10
0.0
 20
0.0
 30
0.0
 70
   128
 71
   124
 72
   135
 73
   115
  0
VERTEX
  5
8BD
  8
0
 62
   151
 10
0.0
 20
0.0
 30
0.0
 70
   128
 71
   133
 72
   115
 73
   135
  0
VERTEX
  5
8BE
  8
0
 62
   151
 10
0.0
 20
0.0
 30
0.0
 70
   128
 71
   136
 72
   124
 73
   112
  0
VERTEX
  5
8BF
  8
0
 62
   151
 10
0.0
 20
0.0
 30
0.0
 70
   128
 71
   124
 72
   136
 73
   135
  0
VERTEX
  5
8C0
  8
0
 62
   151
 10
0.0
 20
0.0
 30
0.0
 70
   128
 71
   112
 72
    33
 73
    31
  0
VERTEX
  5
8C1
  8
0
 62
   151
 10
0.0
 20
0.0
 30
0.0
 70
   128
 71
    31
 72
   136
 73
   112
  0
VERTEX
  5
8C2
  8
0
 62
   151
 10
0.0
 20
0.0
 30
0.0
 70
   128
 71
   123
 72
   134
 73
   131
  0
VERTEX
  5
8C3
  8
0
 62
   151
 10
0.0
 20
0.0
 30
0.0
 70
   128
 71
   134
 72
   123
 73
   114
  0
VERTEX
  5
8C4
  8
0
 62
   151
 10
0.0
 20
0.0
 30
0.0
 70
   128
 71
   132
 72
   129
 73
   119
  0
VERTEX
  5
8C5
  8
0
 62
   151
 10
0.0
 20
0.0
 30
0.0
 70
   128
 71
   132
 72
   122
 73
   131
  0
VERTEX
  5
8C6
  8
0
 62
   151
 10
0.0
 20
0.0
 30
0.0
 70
   128
 71
   121
 72
   118
 73
   128
  0
VERTEX
  5
8C7
  8
0
 62
   151
 10
0.0
 20
0.0
 30
0.0
 70
   128
 71
   118
 72
   119
 73
   129
  0
VERTEX
  5
8C8
  8
0
 62
   151
 10
0.0
 20
0.0
 30
0.0
 70
   128
 71
   116
 72
   130
 73
   137
  0
VERTEX
  5
8C9
  8
0
 62
   151
 10
0.0
 20
0.0
 30
0.0
 70
   128
 71
   121
 72
   128
 73
   130
  0
VERTEX
  5
8CA
  8
0
 62
   151
 10
0.0
 20
0.0
 30
0.0
 70
   128
 71
   126
 72
   117
 73
   137
  0
VERTEX
  5
8CB
  8
0
 62
   151
 10
0.0
 20
0.0
 30
0.0
 70
   128
 71
   116
 72
   137
 73
   117
  0
VERTEX
  5
8CC
  8
0
 62
   151
 10
0.0
 20
0.0
 30
0.0
 70
   128
 71
   138
 72
   102
 73
   120
  0
VERTEX
  5
8CD
  8
0
 62
   151
 10
0.0
 20
0.0
 30
0.0
 70
   128
 71
   126
 72
   138
 73
   120
  0
VERTEX
  5
8CE
  8
0
 62
   151
 10
0.0
 20
0.0
 30
0.0
 70
   128
 71
   125
 72
   104
 73
   127
  0
VERTEX
  5
8CF
  8
0
 62
   151
 10
0.0
 20
0.0
 30
0.0
 70
   128
 71
   127
 72
   102
 73
   138
  0
VERTEX
  5
8D0
  8
0
 62
   151
 10
0.0
 20
0.0
 30
0.0
 70
   128
 71
    17
 72
   105
 73
    16
  0
VERTEX
  5
8D1
  8
0
 62
   151
 10
0.0
 20
0.0
 30
0.0
 70
   128
 71
   105
 72
   104
 73
   125
  0
VERTEX
  5
8D2
  8
0
 62
   151
 10
0.0
 20
0.0
 30
0.0
 70
   128
 71
    14
 72
    24
 73
    22
  0
VERTEX
  5
8D3
  8
0
 62
   151
 10
0.0
 20
0.0
 30
0.0
 70
   128
 71
     4
 72
    18
 73
     1
  0
VERTEX
  5
8D4
  8
0
 62
   151
 10
0.0
 20
0.0
 30
0.0
 70
   128
 71
    10
 72
    13
 73
    14
  0
VERTEX
  5
8D5
  8
0
 62
   151
 10
0.0
 20
0.0
 30
0.0
 70
   128
 71
     4
 72
     8
 73
    18
  0
VERTEX
  5
8D6
  8
0
 62
   151
 10
0.0
 20
0.0
 30
0.0
 70
   128
 71
     7
 72
     8
 73
     4
  0
VERTEX
  5
8D7
  8
0
 62
   151
 10
0.0
 20
0.0
 30
0.0
 70
   128
 71
    10
 72
    14
 73
    18
  0
VERTEX
  5
8D8
  8
0
 62
   151
 10
0.0
 20
0.0
 30
0.0
 70
   128
 71
    10
 72
    18
 73
     8
  0
VERTEX
  5
8D9
  8
0
 62
   151
 10
0.0
 20
0.0
 30
0.0
 70
   128
 71
    18
 72
    14
 73
    22
  0
VERTEX
  5
8DA
  8
0
 62
   151
 10
0.0
 20
0.0
 30
0.0
 70
   128
 71
    19
 72
    18
 73
    22
  0
VERTEX
  5
8DB
  8
0
 62
   151
 10
0.0
 20
0.0
 30
0.0
 70
   128
 71
    28
 72
   138
 73
   126
  0
VERTEX
  5
8DC
  8
0
 62
   151
 10
0.0
 20
0.0
 30
0.0
 70
   128
 71
    16
 72
    24
 73
    14
  0
VERTEX
  5
8DD
  8
0
 62
   151
 10
0.0
 20
0.0
 30
0.0
 70
   128
 71
    28
 72
   127
 73
   138
  0
VERTEX
  5
8DE
  8
0
 62
   151
 10
0.0
 20
0.0
 30
0.0
 70
   128
 71
   136
 72
   128
 73
   133
  0
VERTEX
  5
8DF
  8
0
 62
   151
 10
0.0
 20
0.0
 30
0.0
 70
   128
 71
   126
 72
   137
 73
   136
  0
VERTEX
  5
8E0
  8
0
 62
   151
 10
0.0
 20
0.0
 30
0.0
 70
   128
 71
   133
 72
   135
 73
   136
  0
VERTEX
  5
8E1
  8
0
 62
   151
 10
0.0
 20
0.0
 30
0.0
 70
   128
 71
   133
 72
   128
 73
   134
  0
VERTEX
  5
8E2
  8
0
 62
   151
 10
0.0
 20
0.0
 30
0.0
 70
   128
 71
   134
 72
   132
 73
   131
  0
VERTEX
  5
8E3
  8
0
 62
   151
 10
0.0
 20
0.0
 30
0.0
 70
   128
 71
   129
 72
   132
 73
   128
  0
VERTEX
  5
8E4
  8
0
 62
   151
 10
0.0
 20
0.0
 30
0.0
 70
   128
 71
   132
 72
   134
 73
   128
  0
VERTEX
  5
8E5
  8
0
 62
   151
 10
0.0
 20
0.0
 30
0.0
 70
   128
 71
   137
 72
   128
 73
   136
  0
VERTEX
  5
8E6
  8
0
 62
   151
 10
0.0
 20
0.0
 30
0.0
 70
   128
 71
   130
 72
   128
 73
   137
  0
VERTEX
  5
8E7
  8
0
 62
   151
 10
0.0
 20
0.0
 30
0.0
 70
   128
 71
    31
 72
    30
 73
   126
  0
VERTEX
  5
8E8
  8
0
 62
   151
 10
0.0
 20
0.0
 30
0.0
 70
   128
 71
   136
 72
    31
 73
   126
  0
VERTEX
  5
8E9
  8
0
 62
   151
 10
0.0
 20
0.0
 30
0.0
 70
   128
 71
   127
 72
    28
 73
    25
  0
VERTEX
  5
8EA
  8
0
 62
   151
 10
0.0
 20
0.0
 30
0.0
 70
   128
 71
    30
 72
    28
 73
   126
  0
VERTEX
  5
8EB
  8
0
 62
   151
 10
0.0
 20
0.0
 30
0.0
 70
   128
 71
   125
 72
   127
 73
    24
  0
VERTEX
  5
8EC
  8
0
 62
   151
 10
0.0
 20
0.0
 30
0.0
 70
   128
 71
    25
 72
    24
 73
   127
  0
VERTEX
  5
8ED
  8
0
 62
   151
 10
0.0
 20
0.0
 30
0.0
 70
   128
 71
    16
 72
   125
 73
    24
  0
SEQEND
  5
8EE
  8
0
 62
   151
  0
ENDBLK
  5
8F1
  8
0
  0
BLOCK
  8
0
  2
42
 70
     0
 10
0.0
 20
0.0
 30
0.0
  3
42
  1

  0
POLYLINE
  5
8F3
  8
0
 62
   151
 66
     1
 10
0.0
 20
0.0
 30
0.0
 70
    64
 71
   175
 72
   322
  0
VERTEX
  5
8F4
  8
0
 10
0.0000000000000914
 20
56.5
 30
-15.0
 70
   192
  0
VERTEX
  5
8F5
  8
0
 10
-4.55119514465332
 20
50.6202507019043
 30
-20.22753524780273
 70
   192
  0
VERTEX
  5
8F6
  8
0
 10
-3.652655601501465
 20
56.5
 30
-14.59756088256836
 70
   192
  0
VERTEX
  5
8F7
  8
0
 10
-19.13835906982422
 20
50.6202507019043
 30
7.974316596984863
 70
   192
  0
VERTEX
  5
8F8
  8
0
 10
-23.64909553527832
 20
43.20000076293945
 30
5.303305149078369
 70
   192
  0
VERTEX
  5
8F9
  8
0
 10
-21.86361503601074
 20
43.20000076293945
 30
10.49127292633057
 70
   192
  0
VERTEX
  5
8FA
  8
0
 10
-14.85653495788574
 20
56.5
 30
1.870458722114563
 70
   192
  0
VERTEX
  5
8FB
  8
0
 10
-20.73322296142578
 20
50.6202507019043
 30
-0.0000000000000066
 70
   192
  0
VERTEX
  5
8FC
  8
0
 10
-15.01371288299561
 20
50.6202507019043
 30
14.29877471923828
 70
   192
  0
VERTEX
  5
8FD
  8
0
 10
-18.998779296875
 20
43.20000076293945
 30
15.04488754272461
 70
   192
  0
VERTEX
  5
8FE
  8
0
 10
-15.16712474822998
 20
43.20000076293945
 30
18.91712760925293
 70
   192
  0
VERTEX
  5
8FF
  8
0
 10
-12.23281764984131
 20
56.5
 30
8.553248405456543
 70
   192
  0
VERTEX
  5
900
  8
0
 10
-13.97494125366211
 20
56.5
 30
5.347071170806885
 70
   192
  0
VERTEX
  5
901
  8
0
 10
-6.881742477416992
 20
56.5
 30
13.25484752655029
 70
   192
  0
VERTEX
  5
902
  8
0
 10
-9.836291313171387
 20
56.5
 30
11.21479034423828
 70
   192
  0
VERTEX
  5
903
  8
0
 10
-9.756811141967773
 20
50.6202507019043
 30
18.29401969909668
 70
   192
  0
VERTEX
  5
904
  8
0
 10
0.0000000000001062
 20
50.6202507019043
 30
20.73322296142578
 70
   192
  0
VERTEX
  5
905
  8
0
 10
0.0000000000001049
 20
56.5
 30
15.0
 70
   192
  0
VERTEX
  5
906
  8
0
 10
-3.602979183197021
 20
56.5
 30
14.51658344268799
 70
   192
  0
VERTEX
  5
907
  8
0
 10
-5.476310729980469
 20
43.20000076293945
 30
23.61465835571289
 70
   192
  0
VERTEX
  5
908
  8
0
 10
-4.55119514465332
 20
50.6202507019043
 30
20.22753524780273
 70
   192
  0
VERTEX
  5
909
  8
0
 10
0.0000000000001063
 20
43.20000076293945
 30
24.25190925598145
 70
   192
  0
VERTEX
  5
90A
  8
0
 10
-14.89266109466553
 20
56.5
 30
-1.766553640365601
 70
   192
  0
VERTEX
  5
90B
  8
0
 10
-19.13835906982422
 20
50.6202507019043
 30
-7.974316596984863
 70
   192
  0
VERTEX
  5
90C
  8
0
 10
-23.61465835571289
 20
43.20000076293945
 30
-5.476310729980469
 70
   192
  0
VERTEX
  5
90D
  8
0
 10
-14.00908374786377
 20
56.5
 30
-5.292897701263428
 70
   192
  0
VERTEX
  5
90E
  8
0
 10
-12.36660289764404
 20
56.5
 30
-8.47619915008545
 70
   192
  0
VERTEX
  5
90F
  8
0
 10
-21.81462478637695
 20
43.20000076293945
 30
-10.56461524963379
 70
   192
  0
VERTEX
  5
910
  8
0
 10
-15.01371288299561
 20
50.6202507019043
 30
-14.29877471923828
 70
   192
  0
VERTEX
  5
911
  8
0
 10
-9.756811141967773
 20
50.6202507019043
 30
-18.29401969909668
 70
   192
  0
VERTEX
  5
912
  8
0
 10
-15.04488754272461
 20
43.20000076293945
 30
-18.998779296875
 70
   192
  0
VERTEX
  5
913
  8
0
 10
-9.997056007385254
 20
56.5
 30
-11.24661731719971
 70
   192
  0
VERTEX
  5
914
  8
0
 10
-7.037624835968018
 20
56.5
 30
-13.30685806274414
 70
   192
  0
VERTEX
  5
915
  8
0
 10
-10.49127292633057
 20
43.20000076293945
 30
-21.86361503601074
 70
   192
  0
VERTEX
  5
916
  8
0
 10
0.0000000000000925
 20
50.6202507019043
 30
-20.73322296142578
 70
   192
  0
VERTEX
  5
917
  8
0
 10
0.0000000000000844
 20
43.20000076293945
 30
-24.25190925598145
 70
   192
  0
VERTEX
  5
918
  8
0
 10
-5.476310729980469
 20
43.20000076293945
 30
-23.61465835571289
 70
   192
  0
VERTEX
  5
919
  8
0
 10
-18.91712760925293
 20
43.20000076293945
 30
-15.16712474822998
 70
   192
  0
VERTEX
  5
91A
  8
0
 10
-24.25190925598145
 20
43.20000076293945
 30
-0.0000000000000124
 70
   192
  0
VERTEX
  5
91B
  8
0
 10
-10.56461524963379
 20
43.20000076293945
 30
21.81462478637695
 70
   192
  0
VERTEX
  5
91C
  8
0
 10
-25.3444995880127
 20
19.89999961853027
 30
-5.737415790557861
 70
   192
  0
VERTEX
  5
91D
  8
0
 10
-25.15545463562012
 20
43.20000076293945
 30
-5.641105651855469
 70
   192
  0
VERTEX
  5
91E
  8
0
 10
-23.43609809875488
 20
19.89999961853027
 30
-11.23903179168701
 70
   192
  0
VERTEX
  5
91F
  8
0
 10
-25.79666328430176
 20
43.20000076293945
 30
0.000000000000016
 70
   192
  0
VERTEX
  5
920
  8
0
 10
-26.0
 20
19.89999961853027
 30
-0.0000000000000009
 70
   192
  0
VERTEX
  5
921
  8
0
 10
-23.25624465942383
 20
43.20000076293945
 30
-11.15952777862549
 70
   192
  0
VERTEX
  5
922
  8
0
 10
-20.36998748779297
 20
19.89999961853027
 30
-16.22216415405273
 70
   192
  0
VERTEX
  5
923
  8
0
 10
-20.20892906188965
 20
43.20000076293945
 30
-16.0031909942627
 70
   192
  0
VERTEX
  5
924
  8
0
 10
-16.13321304321289
 20
43.20000076293945
 30
-20.12207794189453
 70
   192
  0
VERTEX
  5
925
  8
0
 10
-16.2648811340332
 20
19.89999961853027
 30
-20.35726547241211
 70
   192
  0
VERTEX
  5
926
  8
0
 10
-11.34845352172852
 20
19.89999961853027
 30
-23.462646484375
 70
   192
  0
VERTEX
  5
927
  8
0
 10
-11.23754119873047
 20
43.20000076293945
 30
-23.20413398742676
 70
   192
  0
VERTEX
  5
928
  8
0
 10
-5.825130939483643
 20
43.20000076293945
 30
-25.11882209777832
 70
   192
  0
VERTEX
  5
929
  8
0
 10
-5.827665328979492
 20
19.89999961853027
 30
-25.39096260070801
 70
   192
  0
VERTEX
  5
92A
  8
0
 10
0.0000000000000805
 20
43.20000076293945
 30
-25.79666328430176
 70
   192
  0
VERTEX
  5
92B
  8
0
 10
0.0000000000000765
 20
19.89999961853027
 30
-26.0
 70
   192
  0
VERTEX
  5
92C
  8
0
 10
-25.31081199645996
 20
19.89999961853027
 30
5.838048458099365
 70
   192
  0
VERTEX
  5
92D
  8
0
 10
-25.11882209777832
 20
43.20000076293945
 30
5.825130939483643
 70
   192
  0
VERTEX
  5
92E
  8
0
 10
-23.33249664306641
 20
19.89999961853027
 30
11.33191585540771
 70
   192
  0
VERTEX
  5
92F
  8
0
 10
-23.20413398742676
 20
43.20000076293945
 30
11.23754119873047
 70
   192
  0
VERTEX
  5
930
  8
0
 10
-20.12207794189453
 20
43.20000076293945
 30
16.13321304321289
 70
   192
  0
VERTEX
  5
931
  8
0
 10
-20.22091293334961
 20
19.89999961853027
 30
16.21585464477539
 70
   192
  0
VERTEX
  5
932
  8
0
 10
-16.11859703063965
 20
19.89999961853027
 30
20.30288696289062
 70
   192
  0
VERTEX
  5
933
  8
0
 10
-16.0031909942627
 20
43.20000076293945
 30
20.20892906188965
 70
   192
  0
VERTEX
  5
934
  8
0
 10
-11.18032264709473
 20
19.89999961853027
 30
23.39801406860352
 70
   192
  0
VERTEX
  5
935
  8
0
 10
-11.15952777862549
 20
43.20000076293945
 30
23.25624465942383
 70
   192
  0
VERTEX
  5
936
  8
0
 10
-5.825130939483643
 20
43.20000076293945
 30
25.11882209777832
 70
   192
  0
VERTEX
  5
937
  8
0
 10
-5.788569450378418
 20
19.89999961853027
 30
25.30666160583496
 70
   192
  0
VERTEX
  5
938
  8
0
 10
0.0000000000001101
 20
43.20000076293945
 30
25.79666328430176
 70
   192
  0
VERTEX
  5
939
  8
0
 10
0.0000000000001064
 20
19.89999961853027
 30
26.0
 70
   192
  0
VERTEX
  5
93A
  8
0
 10
-20.34761428833008
 20
-64.0
 30
16.17503356933594
 70
   192
  0
VERTEX
  5
93B
  8
0
 10
-15.94355869293213
 20
-64.0
 30
20.4434928894043
 70
   192
  0
VERTEX
  5
93C
  8
0
 10
-25.44226837158203
 20
-64.0
 30
-5.56142520904541
 70
   192
  0
VERTEX
  5
93D
  8
0
 10
-10.87594509124756
 20
-64.0
 30
23.5900993347168
 70
   192
  0
VERTEX
  5
93E
  8
0
 10
-5.56142520904541
 20
-64.0
 30
25.44226837158203
 70
   192
  0
VERTEX
  5
93F
  8
0
 10
-0.0000000000000175
 20
-64.0
 30
26.0
 70
   192
  0
VERTEX
  5
940
  8
0
 10
-23.53257179260254
 20
-64.0
 30
11.01482963562012
 70
   192
  0
VERTEX
  5
941
  8
0
 10
-25.44226837158203
 20
-64.0
 30
5.56142520904541
 70
   192
  0
VERTEX
  5
942
  8
0
 10
-26.0
 20
-64.0
 30
0.000000000000032
 70
   192
  0
VERTEX
  5
943
  8
0
 10
-23.5900993347168
 20
-64.0
 30
-10.87594509124756
 70
   192
  0
VERTEX
  5
944
  8
0
 10
-11.01482963562012
 20
-64.0
 30
-23.53257179260254
 70
   192
  0
VERTEX
  5
945
  8
0
 10
-16.17503356933594
 20
-64.0
 30
-20.34761428833008
 70
   192
  0
VERTEX
  5
946
  8
0
 10
-20.4434928894043
 20
-64.0
 30
-15.94355869293213
 70
   192
  0
VERTEX
  5
947
  8
0
 10
-5.56142520904541
 20
-64.0
 30
-25.44226837158203
 70
   192
  0
VERTEX
  5
948
  8
0
 10
-0.0000000000000258
 20
-64.0
 30
-26.0
 70
   192
  0
VERTEX
  5
949
  8
0
 10
-0.0000000000000921
 20
-67.43914031982422
 30
0.0000000000000131
 70
   192
  0
VERTEX
  5
94A
  8
0
 10
-12.19253158569336
 20
-66.57562255859375
 30
-4.826912403106689
 70
   192
  0
VERTEX
  5
94B
  8
0
 10
-9.272457122802734
 20
-66.57562255859375
 30
-9.272457122802734
 70
   192
  0
VERTEX
  5
94C
  8
0
 10
-13.1132345199585
 20
-66.57562255859375
 30
0.0000000000000247
 70
   192
  0
VERTEX
  5
94D
  8
0
 10
-0.0000000000001027
 20
-66.57562255859375
 30
-13.1132345199585
 70
   192
  0
VERTEX
  5
94E
  8
0
 10
-4.826912403106689
 20
-66.57562255859375
 30
-12.19253158569336
 70
   192
  0
VERTEX
  5
94F
  8
0
 10
-4.826912403106689
 20
-66.57562255859375
 30
12.19253158569336
 70
   192
  0
VERTEX
  5
950
  8
0
 10
-9.272457122802734
 20
-66.57562255859375
 30
9.272457122802734
 70
   192
  0
VERTEX
  5
951
  8
0
 10
-0.0000000000000829
 20
-66.57562255859375
 30
13.1132345199585
 70
   192
  0
VERTEX
  5
952
  8
0
 10
-12.19253158569336
 20
-66.57562255859375
 30
4.826912403106689
 70
   192
  0
VERTEX
  5
953
  8
0
 10
12.19253158569336
 20
-66.57562255859375
 30
4.826912403106689
 70
   192
  0
VERTEX
  5
954
  8
0
 10
9.272457122802734
 20
-66.57562255859375
 30
9.272457122802734
 70
   192
  0
VERTEX
  5
955
  8
0
 10
13.1132345199585
 20
-66.57562255859375
 30
0.0000000000000032
 70
   192
  0
VERTEX
  5
956
  8
0
 10
25.31081199645996
 20
-64.0
 30
5.838048458099365
 70
   192
  0
VERTEX
  5
957
  8
0
 10
4.826912403106689
 20
-66.57562255859375
 30
12.19253158569336
 70
   192
  0
VERTEX
  5
958
  8
0
 10
5.788569450378418
 20
-64.0
 30
25.30666160583496
 70
   192
  0
VERTEX
  5
959
  8
0
 10
23.33249664306641
 20
-64.0
 30
11.33191585540771
 70
   192
  0
VERTEX
  5
95A
  8
0
 10
20.22091293334961
 20
-64.0
 30
16.21585464477539
 70
   192
  0
VERTEX
  5
95B
  8
0
 10
26.0
 20
-64.0
 30
-0.0000000000000023
 70
   192
  0
VERTEX
  5
95C
  8
0
 10
16.11859703063965
 20
-64.0
 30
20.30288696289062
 70
   192
  0
VERTEX
  5
95D
  8
0
 10
11.18032264709473
 20
-64.0
 30
23.39801406860352
 70
   192
  0
VERTEX
  5
95E
  8
0
 10
4.826912403106689
 20
-66.57562255859375
 30
-12.19253158569336
 70
   192
  0
VERTEX
  5
95F
  8
0
 10
5.827665328979492
 20
-64.0
 30
-25.39096260070801
 70
   192
  0
VERTEX
  5
960
  8
0
 10
11.34845352172852
 20
-64.0
 30
-23.462646484375
 70
   192
  0
VERTEX
  5
961
  8
0
 10
9.272457122802734
 20
-66.57562255859375
 30
-9.272457122802734
 70
   192
  0
VERTEX
  5
962
  8
0
 10
20.37090110778809
 20
-64.0
 30
-16.22204971313477
 70
   192
  0
VERTEX
  5
963
  8
0
 10
23.42390632629395
 20
-64.0
 30
-11.24056911468506
 70
   192
  0
VERTEX
  5
964
  8
0
 10
16.26579475402832
 20
-64.0
 30
-20.35715103149414
 70
   192
  0
VERTEX
  5
965
  8
0
 10
25.30613327026367
 20
-64.0
 30
-5.813430786132812
 70
   192
  0
VERTEX
  5
966
  8
0
 10
12.19253158569336
 20
-66.57562255859375
 30
-4.826912403106689
 70
   192
  0
VERTEX
  5
967
  8
0
 10
23.33249664306641
 20
19.89999961853027
 30
11.33191585540771
 70
   192
  0
VERTEX
  5
968
  8
0
 10
20.22091293334961
 20
19.89999961853027
 30
16.21585464477539
 70
   192
  0
VERTEX
  5
969
  8
0
 10
16.11859703063965
 20
19.89999961853027
 30
20.30288696289062
 70
   192
  0
VERTEX
  5
96A
  8
0
 10
11.18032264709473
 20
19.89999961853027
 30
23.39801406860352
 70
   192
  0
VERTEX
  5
96B
  8
0
 10
26.0
 20
19.89999961853027
 30
-0.0000000000000293
 70
   192
  0
VERTEX
  5
96C
  8
0
 10
25.31081199645996
 20
19.89999961853027
 30
5.838048458099365
 70
   192
  0
VERTEX
  5
96D
  8
0
 10
20.36998748779297
 20
19.89999961853027
 30
-16.22216415405273
 70
   192
  0
VERTEX
  5
96E
  8
0
 10
23.43609809875488
 20
19.89999961853027
 30
-11.23903179168701
 70
   192
  0
VERTEX
  5
96F
  8
0
 10
16.2648811340332
 20
19.89999961853027
 30
-20.35726547241211
 70
   192
  0
VERTEX
  5
970
  8
0
 10
11.34845352172852
 20
19.89999961853027
 30
-23.462646484375
 70
   192
  0
VERTEX
  5
971
  8
0
 10
5.827665328979492
 20
19.89999961853027
 30
-25.39096260070801
 70
   192
  0
VERTEX
  5
972
  8
0
 10
25.3444995880127
 20
19.89999961853027
 30
-5.737415790557861
 70
   192
  0
VERTEX
  5
973
  8
0
 10
5.788569450378418
 20
19.89999961853027
 30
25.30666160583496
 70
   192
  0
VERTEX
  5
974
  8
0
 10
5.825130939483643
 20
43.20000076293945
 30
-25.11882209777832
 70
   192
  0
VERTEX
  5
975
  8
0
 10
11.15952777862549
 20
43.20000076293945
 30
-23.25624465942383
 70
   192
  0
VERTEX
  5
976
  8
0
 10
23.20413398742676
 20
43.20000076293945
 30
-11.23754119873047
 70
   192
  0
VERTEX
  5
977
  8
0
 10
25.11882209777832
 20
43.20000076293945
 30
-5.825130939483643
 70
   192
  0
VERTEX
  5
978
  8
0
 10
20.12207794189453
 20
43.20000076293945
 30
-16.13321304321289
 70
   192
  0
VERTEX
  5
979
  8
0
 10
23.25624465942383
 20
43.20000076293945
 30
11.15952777862549
 70
   192
  0
VERTEX
  5
97A
  8
0
 10
25.15545463562012
 20
43.20000076293945
 30
5.641105651855469
 70
   192
  0
VERTEX
  5
97B
  8
0
 10
25.79666328430176
 20
43.20000076293945
 30
-0.0000000000000249
 70
   192
  0
VERTEX
  5
97C
  8
0
 10
16.13321304321289
 20
43.20000076293945
 30
20.12207794189453
 70
   192
  0
VERTEX
  5
97D
  8
0
 10
20.20892906188965
 20
43.20000076293945
 30
16.0031909942627
 70
   192
  0
VERTEX
  5
97E
  8
0
 10
11.23754119873047
 20
43.20000076293945
 30
23.20413398742676
 70
   192
  0
VERTEX
  5
97F
  8
0
 10
5.825130939483643
 20
43.20000076293945
 30
25.11882209777832
 70
   192
  0
VERTEX
  5
980
  8
0
 10
16.0031909942627
 20
43.20000076293945
 30
-20.20892906188965
 70
   192
  0
VERTEX
  5
981
  8
0
 10
15.03487491607666
 20
43.20000076293945
 30
18.93783760070801
 70
   192
  0
VERTEX
  5
982
  8
0
 10
10.42862224578857
 20
43.20000076293945
 30
21.82486534118652
 70
   192
  0
VERTEX
  5
983
  8
0
 10
5.435846328735352
 20
43.20000076293945
 30
-23.6838207244873
 70
   192
  0
VERTEX
  5
984
  8
0
 10
23.64048194885254
 20
43.20000076293945
 30
-5.351664543151855
 70
   192
  0
VERTEX
  5
985
  8
0
 10
21.86038970947266
 20
43.20000076293945
 30
-10.48338413238525
 70
   192
  0
VERTEX
  5
986
  8
0
 10
10.58544921875
 20
43.20000076293945
 30
-21.88515281677246
 70
   192
  0
VERTEX
  5
987
  8
0
 10
15.1713228225708
 20
43.20000076293945
 30
-18.98855972290039
 70
   192
  0
VERTEX
  5
988
  8
0
 10
19.00042533874512
 20
43.20000076293945
 30
-15.13147926330566
 70
   192
  0
VERTEX
  5
989
  8
0
 10
24.25190925598145
 20
43.20000076293945
 30
-0.0000000000000213
 70
   192
  0
VERTEX
  5
98A
  8
0
 10
23.60905838012695
 20
43.20000076293945
 30
5.445531368255615
 70
   192
  0
VERTEX
  5
98B
  8
0
 10
21.76375389099121
 20
43.20000076293945
 30
10.57002258300781
 70
   192
  0
VERTEX
  5
98C
  8
0
 10
18.86137580871582
 20
43.20000076293945
 30
15.12559413909912
 70
   192
  0
VERTEX
  5
98D
  8
0
 10
5.399379253387451
 20
43.20000076293945
 30
23.60518646240234
 70
   192
  0
VERTEX
  5
98E
  8
0
 10
9.756811141967773
 20
50.6202507019043
 30
18.29401969909668
 70
   192
  0
VERTEX
  5
98F
  8
0
 10
3.652655601501465
 20
56.5
 30
14.59756088256836
 70
   192
  0
VERTEX
  5
990
  8
0
 10
4.55119514465332
 20
50.6202507019043
 30
20.22753524780273
 70
   192
  0
VERTEX
  5
991
  8
0
 10
15.01371288299561
 20
50.6202507019043
 30
14.29877471923828
 70
   192
  0
VERTEX
  5
992
  8
0
 10
14.00908374786377
 20
56.5
 30
5.292897701263428
 70
   192
  0
VERTEX
  5
993
  8
0
 10
12.36660289764404
 20
56.5
 30
8.47619915008545
 70
   192
  0
VERTEX
  5
994
  8
0
 10
19.13835906982422
 20
50.6202507019043
 30
7.974316596984863
 70
   192
  0
VERTEX
  5
995
  8
0
 10
19.13835906982422
 20
50.6202507019043
 30
-7.974316596984863
 70
   192
  0
VERTEX
  5
996
  8
0
 10
14.85653495788574
 20
56.5
 30
-1.870458722114563
 70
   192
  0
VERTEX
  5
997
  8
0
 10
20.73322296142578
 20
50.6202507019043
 30
-0.0000000000000227
 70
   192
  0
VERTEX
  5
998
  8
0
 10
14.89266109466553
 20
56.5
 30
1.766553640365601
 70
   192
  0
VERTEX
  5
999
  8
0
 10
12.23281764984131
 20
56.5
 30
-8.553248405456543
 70
   192
  0
VERTEX
  5
99A
  8
0
 10
15.01371288299561
 20
50.6202507019043
 30
-14.29877471923828
 70
   192
  0
VERTEX
  5
99B
  8
0
 10
9.756811141967773
 20
50.6202507019043
 30
-18.29401969909668
 70
   192
  0
VERTEX
  5
99C
  8
0
 10
4.55119514465332
 20
50.6202507019043
 30
-20.22753524780273
 70
   192
  0
VERTEX
  5
99D
  8
0
 10
6.881742477416992
 20
56.5
 30
-13.25484752655029
 70
   192
  0
VERTEX
  5
99E
  8
0
 10
9.836291313171387
 20
56.5
 30
-11.21479034423828
 70
   192
  0
VERTEX
  5
99F
  8
0
 10
3.602979183197021
 20
56.5
 30
-14.51658344268799
 70
   192
  0
VERTEX
  5
9A0
  8
0
 10
13.97494125366211
 20
56.5
 30
-5.347071170806885
 70
   192
  0
VERTEX
  5
9A1
  8
0
 10
9.997056007385254
 20
56.5
 30
11.24661731719971
 70
   192
  0
VERTEX
  5
9A2
  8
0
 10
7.037624835968018
 20
56.5
 30
13.30685806274414
 70
   192
  0
VERTEX
  5
9A3
  8
0
 62
   151
 10
0.0
 20
0.0
 30
0.0
 70
   128
 71
     3
 72
     2
 73
     1
  0
VERTEX
  5
9A4
  8
0
 62
   151
 10
0.0
 20
0.0
 30
0.0
 70
   128
 71
     6
 72
     5
 73
     4
  0
VERTEX
  5
9A5
  8
0
 62
   151
 10
0.0
 20
0.0
 30
0.0
 70
   128
 71
     4
 72
     8
 73
     7
  0
VERTEX
  5
9A6
  8
0
 62
   151
 10
0.0
 20
0.0
 30
0.0
 70
   128
 71
    11
 72
    10
 73
     9
  0
VERTEX
  5
9A7
  8
0
 62
   151
 10
0.0
 20
0.0
 30
0.0
 70
   128
 71
    13
 72
    12
 73
     4
  0
VERTEX
  5
9A8
  8
0
 62
   151
 10
0.0
 20
0.0
 30
0.0
 70
   128
 71
    16
 72
    15
 73
    14
  0
VERTEX
  5
9A9
  8
0
 62
   151
 10
0.0
 20
0.0
 30
0.0
 70
   128
 71
    12
 72
     9
 73
     4
  0
VERTEX
  5
9AA
  8
0
 62
   151
 10
0.0
 20
0.0
 30
0.0
 70
   128
 71
     4
 72
     7
 73
    13
  0
VERTEX
  5
9AB
  8
0
 62
   151
 10
0.0
 20
0.0
 30
0.0
 70
   128
 71
    15
 72
     9
 73
    12
  0
VERTEX
  5
9AC
  8
0
 62
   151
 10
0.0
 20
0.0
 30
0.0
 70
   128
 71
    19
 72
    18
 73
    17
  0
VERTEX
  5
9AD
  8
0
 62
   151
 10
0.0
 20
0.0
 30
0.0
 70
   128
 71
    21
 72
    20
 73
    16
  0
VERTEX
  5
9AE
  8
0
 62
   151
 10
0.0
 20
0.0
 30
0.0
 70
   128
 71
    19
 72
    21
 73
    14
  0
VERTEX
  5
9AF
  8
0
 62
   151
 10
0.0
 20
0.0
 30
0.0
 70
   128
 71
    21
 72
    16
 73
    14
  0
VERTEX
  5
9B0
  8
0
 62
   151
 10
0.0
 20
0.0
 30
0.0
 70
   128
 71
    21
 72
    17
 73
    22
  0
VERTEX
  5
9B1
  8
0
 62
   151
 10
0.0
 20
0.0
 30
0.0
 70
   128
 71
    24
 72
    23
 73
     8
  0
VERTEX
  5
9B2
  8
0
 62
   151
 10
0.0
 20
0.0
 30
0.0
 70
   128
 71
     9
 72
    15
 73
    16
  0
VERTEX
  5
9B3
  8
0
 62
   151
 10
0.0
 20
0.0
 30
0.0
 70
   128
 71
    24
 72
     8
 73
    25
  0
VERTEX
  5
9B4
  8
0
 62
   151
 10
0.0
 20
0.0
 30
0.0
 70
   128
 71
    27
 72
    26
 73
    24
  0
VERTEX
  5
9B5
  8
0
 62
   151
 10
0.0
 20
0.0
 30
0.0
 70
   128
 71
    24
 72
    26
 73
    23
  0
VERTEX
  5
9B6
  8
0
 62
   151
 10
0.0
 20
0.0
 30
0.0
 70
   128
 71
    29
 72
    24
 73
    28
  0
VERTEX
  5
9B7
  8
0
 62
   151
 10
0.0
 20
0.0
 30
0.0
 70
   128
 71
    29
 72
    27
 73
    24
  0
VERTEX
  5
9B8
  8
0
 62
   151
 10
0.0
 20
0.0
 30
0.0
 70
   128
 71
    29
 72
    31
 73
    30
  0
VERTEX
  5
9B9
  8
0
 62
   151
 10
0.0
 20
0.0
 30
0.0
 70
   128
 71
    29
 72
    30
 73
    32
  0
VERTEX
  5
9BA
  8
0
 62
   151
 10
0.0
 20
0.0
 30
0.0
 70
   128
 71
     3
 72
    33
 73
    30
  0
VERTEX
  5
9BB
  8
0
 62
   151
 10
0.0
 20
0.0
 30
0.0
 70
   128
 71
    30
 72
    33
 73
    32
  0
VERTEX
  5
9BC
  8
0
 62
   151
 10
0.0
 20
0.0
 30
0.0
 70
   128
 71
     2
 72
    30
 73
    34
  0
VERTEX
  5
9BD
  8
0
 62
   151
 10
0.0
 20
0.0
 30
0.0
 70
   128
 71
     2
 72
     3
 73
    30
  0
VERTEX
  5
9BE
  8
0
 62
   151
 10
0.0
 20
0.0
 30
0.0
 70
   128
 71
     1
 72
     2
 73
    35
  0
VERTEX
  5
9BF
  8
0
 62
   151
 10
0.0
 20
0.0
 30
0.0
 70
   128
 71
    35
 72
    37
 73
    36
  0
VERTEX
  5
9C0
  8
0
 62
   151
 10
0.0
 20
0.0
 30
0.0
 70
   128
 71
     2
 72
    37
 73
    35
  0
VERTEX
  5
9C1
  8
0
 62
   151
 10
0.0
 20
0.0
 30
0.0
 70
   128
 71
    37
 72
     2
 73
    34
  0
VERTEX
  5
9C2
  8
0
 62
   151
 10
0.0
 20
0.0
 30
0.0
 70
   128
 71
    30
 72
    31
 73
    34
  0
VERTEX
  5
9C3
  8
0
 62
   151
 10
0.0
 20
0.0
 30
0.0
 70
   128
 71
    29
 72
    38
 73
    31
  0
VERTEX
  5
9C4
  8
0
 62
   151
 10
0.0
 20
0.0
 30
0.0
 70
   128
 71
    38
 72
    29
 73
    28
  0
VERTEX
  5
9C5
  8
0
 62
   151
 10
0.0
 20
0.0
 30
0.0
 70
   128
 71
    29
 72
    32
 73
    27
  0
VERTEX
  5
9C6
  8
0
 62
   151
 10
0.0
 20
0.0
 30
0.0
 70
   128
 71
    24
 72
    25
 73
    28
  0
VERTEX
  5
9C7
  8
0
 62
   151
 10
0.0
 20
0.0
 30
0.0
 70
   128
 71
     8
 72
    39
 73
    25
  0
VERTEX
  5
9C8
  8
0
 62
   151
 10
0.0
 20
0.0
 30
0.0
 70
   128
 71
    39
 72
     8
 73
     5
  0
VERTEX
  5
9C9
  8
0
 62
   151
 10
0.0
 20
0.0
 30
0.0
 70
   128
 71
     8
 72
    23
 73
     7
  0
VERTEX
  5
9CA
  8
0
 62
   151
 10
0.0
 20
0.0
 30
0.0
 70
   128
 71
     8
 72
     4
 73
     5
  0
VERTEX
  5
9CB
  8
0
 62
   151
 10
0.0
 20
0.0
 30
0.0
 70
   128
 71
    10
 72
     6
 73
     4
  0
VERTEX
  5
9CC
  8
0
 62
   151
 10
0.0
 20
0.0
 30
0.0
 70
   128
 71
     4
 72
     9
 73
    10
  0
VERTEX
  5
9CD
  8
0
 62
   151
 10
0.0
 20
0.0
 30
0.0
 70
   128
 71
    40
 72
    11
 73
    16
  0
VERTEX
  5
9CE
  8
0
 62
   151
 10
0.0
 20
0.0
 30
0.0
 70
   128
 71
     9
 72
    16
 73
    11
  0
VERTEX
  5
9CF
  8
0
 62
   151
 10
0.0
 20
0.0
 30
0.0
 70
   128
 71
    40
 72
    16
 73
    20
  0
VERTEX
  5
9D0
  8
0
 62
   151
 10
0.0
 20
0.0
 30
0.0
 70
   128
 71
    20
 72
    21
 73
    22
  0
VERTEX
  5
9D1
  8
0
 62
   151
 10
0.0
 20
0.0
 30
0.0
 70
   128
 71
    21
 72
    19
 73
    17
  0
VERTEX
  5
9D2
  8
0
 62
   151
 10
0.0
 20
0.0
 30
0.0
 70
   128
 71
    43
 72
    42
 73
    41
  0
VERTEX
  5
9D3
  8
0
 62
   151
 10
0.0
 20
0.0
 30
0.0
 70
   128
 71
    45
 72
    41
 73
    44
  0
VERTEX
  5
9D4
  8
0
 62
   151
 10
0.0
 20
0.0
 30
0.0
 70
   128
 71
    47
 72
    46
 73
    43
  0
VERTEX
  5
9D5
  8
0
 62
   151
 10
0.0
 20
0.0
 30
0.0
 70
   128
 71
    46
 72
    42
 73
    43
  0
VERTEX
  5
9D6
  8
0
 62
   151
 10
0.0
 20
0.0
 30
0.0
 70
   128
 71
    42
 72
    44
 73
    41
  0
VERTEX
  5
9D7
  8
0
 62
   151
 10
0.0
 20
0.0
 30
0.0
 70
   128
 71
    48
 72
    46
 73
    47
  0
VERTEX
  5
9D8
  8
0
 62
   151
 10
0.0
 20
0.0
 30
0.0
 70
   128
 71
    48
 72
    50
 73
    49
  0
VERTEX
  5
9D9
  8
0
 62
   151
 10
0.0
 20
0.0
 30
0.0
 70
   128
 71
    51
 72
    49
 73
    50
  0
VERTEX
  5
9DA
  8
0
 62
   151
 10
0.0
 20
0.0
 30
0.0
 70
   128
 71
    49
 72
    51
 73
    52
  0
VERTEX
  5
9DB
  8
0
 62
   151
 10
0.0
 20
0.0
 30
0.0
 70
   128
 71
    52
 72
    54
 73
    53
  0
VERTEX
  5
9DC
  8
0
 62
   151
 10
0.0
 20
0.0
 30
0.0
 70
   128
 71
    48
 72
    47
 73
    50
  0
VERTEX
  5
9DD
  8
0
 62
   151
 10
0.0
 20
0.0
 30
0.0
 70
   128
 71
    56
 72
    55
 73
    53
  0
VERTEX
  5
9DE
  8
0
 62
   151
 10
0.0
 20
0.0
 30
0.0
 70
   128
 71
    54
 72
    56
 73
    53
  0
VERTEX
  5
9DF
  8
0
 62
   151
 10
0.0
 20
0.0
 30
0.0
 70
   128
 71
    51
 72
    54
 73
    52
  0
VERTEX
  5
9E0
  8
0
 62
   151
 10
0.0
 20
0.0
 30
0.0
 70
   128
 71
    45
 72
    58
 73
    57
  0
VERTEX
  5
9E1
  8
0
 62
   151
 10
0.0
 20
0.0
 30
0.0
 70
   128
 71
    58
 72
    45
 73
    44
  0
VERTEX
  5
9E2
  8
0
 62
   151
 10
0.0
 20
0.0
 30
0.0
 70
   128
 71
    60
 72
    59
 73
    57
  0
VERTEX
  5
9E3
  8
0
 62
   151
 10
0.0
 20
0.0
 30
0.0
 70
   128
 71
    57
 72
    58
 73
    60
  0
VERTEX
  5
9E4
  8
0
 62
   151
 10
0.0
 20
0.0
 30
0.0
 70
   128
 71
    62
 72
    59
 73
    61
  0
VERTEX
  5
9E5
  8
0
 62
   151
 10
0.0
 20
0.0
 30
0.0
 70
   128
 71
    60
 72
    61
 73
    59
  0
VERTEX
  5
9E6
  8
0
 62
   151
 10
0.0
 20
0.0
 30
0.0
 70
   128
 71
    62
 72
    64
 73
    63
  0
VERTEX
  5
9E7
  8
0
 62
   151
 10
0.0
 20
0.0
 30
0.0
 70
   128
 71
    64
 72
    62
 73
    61
  0
VERTEX
  5
9E8
  8
0
 62
   151
 10
0.0
 20
0.0
 30
0.0
 70
   128
 71
    66
 72
    65
 73
    63
  0
VERTEX
  5
9E9
  8
0
 62
   151
 10
0.0
 20
0.0
 30
0.0
 70
   128
 71
    63
 72
    64
 73
    66
  0
VERTEX
  5
9EA
  8
0
 62
   151
 10
0.0
 20
0.0
 30
0.0
 70
   128
 71
    68
 72
    65
 73
    67
  0
VERTEX
  5
9EB
  8
0
 62
   151
 10
0.0
 20
0.0
 30
0.0
 70
   128
 71
    66
 72
    67
 73
    65
  0
VERTEX
  5
9EC
  8
0
 62
   151
 10
0.0
 20
0.0
 30
0.0
 70
   128
 71
    69
 72
    68
 73
    67
  0
VERTEX
  5
9ED
  8
0
 62
   151
 10
0.0
 20
0.0
 30
0.0
 70
   128
 71
    70
 72
    68
 73
    69
  0
VERTEX
  5
9EE
  8
0
 62
   151
 10
0.0
 20
0.0
 30
0.0
 70
   128
 71
    72
 72
    71
 73
    63
  0
VERTEX
  5
9EF
  8
0
 62
   151
 10
0.0
 20
0.0
 30
0.0
 70
   128
 71
    73
 72
    41
 73
    45
  0
VERTEX
  5
9F0
  8
0
 62
   151
 10
0.0
 20
0.0
 30
0.0
 70
   128
 71
    72
 72
    65
 73
    74
  0
VERTEX
  5
9F1
  8
0
 62
   151
 10
0.0
 20
0.0
 30
0.0
 70
   128
 71
    65
 72
    72
 73
    63
  0
VERTEX
  5
9F2
  8
0
 62
   151
 10
0.0
 20
0.0
 30
0.0
 70
   128
 71
    68
 72
    75
 73
    74
  0
VERTEX
  5
9F3
  8
0
 62
   151
 10
0.0
 20
0.0
 30
0.0
 70
   128
 71
    74
 72
    65
 73
    68
  0
VERTEX
  5
9F4
  8
0
 62
   151
 10
0.0
 20
0.0
 30
0.0
 70
   128
 71
    75
 72
    68
 73
    76
  0
VERTEX
  5
9F5
  8
0
 62
   151
 10
0.0
 20
0.0
 30
0.0
 70
   128
 71
    68
 72
    70
 73
    76
  0
VERTEX
  5
9F6
  8
0
 62
   151
 10
0.0
 20
0.0
 30
0.0
 70
   128
 71
    62
 72
    63
 73
    71
  0
VERTEX
  5
9F7
  8
0
 62
   151
 10
0.0
 20
0.0
 30
0.0
 70
   128
 71
    77
 72
    59
 73
    62
  0
VERTEX
  5
9F8
  8
0
 62
   151
 10
0.0
 20
0.0
 30
0.0
 70
   128
 71
    62
 72
    71
 73
    77
  0
VERTEX
  5
9F9
  8
0
 62
   151
 10
0.0
 20
0.0
 30
0.0
 70
   128
 71
    57
 72
    59
 73
    78
  0
VERTEX
  5
9FA
  8
0
 62
   151
 10
0.0
 20
0.0
 30
0.0
 70
   128
 71
    77
 72
    78
 73
    59
  0
VERTEX
  5
9FB
  8
0
 62
   151
 10
0.0
 20
0.0
 30
0.0
 70
   128
 71
    45
 72
    78
 73
    79
  0
VERTEX
  5
9FC
  8
0
 62
   151
 10
0.0
 20
0.0
 30
0.0
 70
   128
 71
    78
 72
    45
 73
    57
  0
VERTEX
  5
9FD
  8
0
 62
   151
 10
0.0
 20
0.0
 30
0.0
 70
   128
 71
    41
 72
    80
 73
    43
  0
VERTEX
  5
9FE
  8
0
 62
   151
 10
0.0
 20
0.0
 30
0.0
 70
   128
 71
    50
 72
    81
 73
    51
  0
VERTEX
  5
9FF
  8
0
 62
   151
 10
0.0
 20
0.0
 30
0.0
 70
   128
 71
    47
 72
    83
 73
    82
  0
VERTEX
  5
A00
  8
0
 62
   151
 10
0.0
 20
0.0
 30
0.0
 70
   128
 71
    54
 72
    84
 73
    56
  0
VERTEX
  5
A01
  8
0
 62
   151
 10
0.0
 20
0.0
 30
0.0
 70
   128
 71
    54
 72
    51
 73
    84
  0
VERTEX
  5
A02
  8
0
 62
   151
 10
0.0
 20
0.0
 30
0.0
 70
   128
 71
    56
 72
    84
 73
    85
  0
VERTEX
  5
A03
  8
0
 62
   151
 10
0.0
 20
0.0
 30
0.0
 70
   128
 71
    50
 72
    82
 73
    81
  0
VERTEX
  5
A04
  8
0
 62
   151
 10
0.0
 20
0.0
 30
0.0
 70
   128
 71
    51
 72
    81
 73
    84
  0
VERTEX
  5
A05
  8
0
 62
   151
 10
0.0
 20
0.0
 30
0.0
 70
   128
 71
    43
 72
    83
 73
    47
  0
VERTEX
  5
A06
  8
0
 62
   151
 10
0.0
 20
0.0
 30
0.0
 70
   128
 71
    47
 72
    82
 73
    50
  0
VERTEX
  5
A07
  8
0
 62
   151
 10
0.0
 20
0.0
 30
0.0
 70
   128
 71
    73
 72
    80
 73
    41
  0
VERTEX
  5
A08
  8
0
 62
   151
 10
0.0
 20
0.0
 30
0.0
 70
   128
 71
    80
 72
    83
 73
    43
  0
VERTEX
  5
A09
  8
0
 62
   151
 10
0.0
 20
0.0
 30
0.0
 70
   128
 71
    79
 72
    73
 73
    45
  0
VERTEX
  5
A0A
  8
0
 62
   151
 10
0.0
 20
0.0
 30
0.0
 70
   128
 71
    88
 72
    87
 73
    86
  0
VERTEX
  5
A0B
  8
0
 62
   151
 10
0.0
 20
0.0
 30
0.0
 70
   128
 71
    87
 72
    73
 73
    89
  0
VERTEX
  5
A0C
  8
0
 62
   151
 10
0.0
 20
0.0
 30
0.0
 70
   128
 71
    84
 72
    91
 73
    90
  0
VERTEX
  5
A0D
  8
0
 62
   151
 10
0.0
 20
0.0
 30
0.0
 70
   128
 71
    91
 72
    88
 73
    86
  0
VERTEX
  5
A0E
  8
0
 62
   151
 10
0.0
 20
0.0
 30
0.0
 70
   128
 71
    86
 72
    87
 73
    89
  0
VERTEX
  5
A0F
  8
0
 62
   151
 10
0.0
 20
0.0
 30
0.0
 70
   128
 71
    87
 72
    83
 73
    80
  0
VERTEX
  5
A10
  8
0
 62
   151
 10
0.0
 20
0.0
 30
0.0
 70
   128
 71
    90
 72
    85
 73
    84
  0
VERTEX
  5
A11
  8
0
 62
   151
 10
0.0
 20
0.0
 30
0.0
 70
   128
 71
    79
 72
    89
 73
    73
  0
VERTEX
  5
A12
  8
0
 62
   151
 10
0.0
 20
0.0
 30
0.0
 70
   128
 71
    80
 72
    73
 73
    87
  0
VERTEX
  5
A13
  8
0
 62
   151
 10
0.0
 20
0.0
 30
0.0
 70
   128
 71
    83
 72
    88
 73
    82
  0
VERTEX
  5
A14
  8
0
 62
   151
 10
0.0
 20
0.0
 30
0.0
 70
   128
 71
    82
 72
    88
 73
    81
  0
VERTEX
  5
A15
  8
0
 62
   151
 10
0.0
 20
0.0
 30
0.0
 70
   128
 71
    83
 72
    87
 73
    88
  0
VERTEX
  5
A16
  8
0
 62
   151
 10
0.0
 20
0.0
 30
0.0
 70
   128
 71
    88
 72
    91
 73
    81
  0
VERTEX
  5
A17
  8
0
 62
   151
 10
0.0
 20
0.0
 30
0.0
 70
   128
 71
    81
 72
    91
 73
    84
  0
VERTEX
  5
A18
  8
0
 62
   151
 10
0.0
 20
0.0
 30
0.0
 70
   128
 71
    90
 72
    91
 73
    86
  0
VERTEX
  5
A19
  8
0
 62
   151
 10
0.0
 20
0.0
 30
0.0
 70
   128
 71
    93
 72
    92
 73
    86
  0
VERTEX
  5
A1A
  8
0
 62
   151
 10
0.0
 20
0.0
 30
0.0
 70
   128
 71
    92
 72
    75
 73
    94
  0
VERTEX
  5
A1B
  8
0
 62
   151
 10
0.0
 20
0.0
 30
0.0
 70
   128
 71
    78
 72
    95
 73
    89
  0
VERTEX
  5
A1C
  8
0
 62
   151
 10
0.0
 20
0.0
 30
0.0
 70
   128
 71
    95
 72
    93
 73
    86
  0
VERTEX
  5
A1D
  8
0
 62
   151
 10
0.0
 20
0.0
 30
0.0
 70
   128
 71
    86
 72
    92
 73
    94
  0
VERTEX
  5
A1E
  8
0
 62
   151
 10
0.0
 20
0.0
 30
0.0
 70
   128
 71
    92
 72
    72
 73
    74
  0
VERTEX
  5
A1F
  8
0
 62
   151
 10
0.0
 20
0.0
 30
0.0
 70
   128
 71
    89
 72
    79
 73
    78
  0
VERTEX
  5
A20
  8
0
 62
   151
 10
0.0
 20
0.0
 30
0.0
 70
   128
 71
    76
 72
    94
 73
    75
  0
VERTEX
  5
A21
  8
0
 62
   151
 10
0.0
 20
0.0
 30
0.0
 70
   128
 71
    74
 72
    75
 73
    92
  0
VERTEX
  5
A22
  8
0
 62
   151
 10
0.0
 20
0.0
 30
0.0
 70
   128
 71
    72
 72
    93
 73
    71
  0
VERTEX
  5
A23
  8
0
 62
   151
 10
0.0
 20
0.0
 30
0.0
 70
   128
 71
    71
 72
    93
 73
    77
  0
VERTEX
  5
A24
  8
0
 62
   151
 10
0.0
 20
0.0
 30
0.0
 70
   128
 71
    72
 72
    92
 73
    93
  0
VERTEX
  5
A25
  8
0
 62
   151
 10
0.0
 20
0.0
 30
0.0
 70
   128
 71
    93
 72
    95
 73
    77
  0
VERTEX
  5
A26
  8
0
 62
   151
 10
0.0
 20
0.0
 30
0.0
 70
   128
 71
    77
 72
    95
 73
    78
  0
VERTEX
  5
A27
  8
0
 62
   151
 10
0.0
 20
0.0
 30
0.0
 70
   128
 71
    89
 72
    95
 73
    86
  0
VERTEX
  5
A28
  8
0
 62
   151
 10
0.0
 20
0.0
 30
0.0
 70
   128
 71
    97
 72
    96
 73
    86
  0
VERTEX
  5
A29
  8
0
 62
   151
 10
0.0
 20
0.0
 30
0.0
 70
   128
 71
    96
 72
    99
 73
    98
  0
VERTEX
  5
A2A
  8
0
 62
   151
 10
0.0
 20
0.0
 30
0.0
 70
   128
 71
   101
 72
   100
 73
    94
  0
VERTEX
  5
A2B
  8
0
 62
   151
 10
0.0
 20
0.0
 30
0.0
 70
   128
 71
   100
 72
    97
 73
    86
  0
VERTEX
  5
A2C
  8
0
 62
   151
 10
0.0
 20
0.0
 30
0.0
 70
   128
 71
    86
 72
    96
 73
    98
  0
VERTEX
  5
A2D
  8
0
 62
   151
 10
0.0
 20
0.0
 30
0.0
 70
   128
 71
    96
 72
   103
 73
   102
  0
VERTEX
  5
A2E
  8
0
 62
   151
 10
0.0
 20
0.0
 30
0.0
 70
   128
 71
    94
 72
    76
 73
   101
  0
VERTEX
  5
A2F
  8
0
 62
   151
 10
0.0
 20
0.0
 30
0.0
 70
   128
 71
   104
 72
    98
 73
    99
  0
VERTEX
  5
A30
  8
0
 62
   151
 10
0.0
 20
0.0
 30
0.0
 70
   128
 71
   102
 72
    99
 73
    96
  0
VERTEX
  5
A31
  8
0
 62
   151
 10
0.0
 20
0.0
 30
0.0
 70
   128
 71
   103
 72
    97
 73
   105
  0
VERTEX
  5
A32
  8
0
 62
   151
 10
0.0
 20
0.0
 30
0.0
 70
   128
 71
   105
 72
    97
 73
   106
  0
VERTEX
  5
A33
  8
0
 62
   151
 10
0.0
 20
0.0
 30
0.0
 70
   128
 71
   103
 72
    96
 73
    97
  0
VERTEX
  5
A34
  8
0
 62
   151
 10
0.0
 20
0.0
 30
0.0
 70
   128
 71
    97
 72
   100
 73
   106
  0
VERTEX
  5
A35
  8
0
 62
   151
 10
0.0
 20
0.0
 30
0.0
 70
   128
 71
   106
 72
   100
 73
   101
  0
VERTEX
  5
A36
  8
0
 62
   151
 10
0.0
 20
0.0
 30
0.0
 70
   128
 71
    94
 72
   100
 73
    86
  0
VERTEX
  5
A37
  8
0
 62
   151
 10
0.0
 20
0.0
 30
0.0
 70
   128
 71
   109
 72
   108
 73
   107
  0
VERTEX
  5
A38
  8
0
 62
   151
 10
0.0
 20
0.0
 30
0.0
 70
   128
 71
   112
 72
   111
 73
   110
  0
VERTEX
  5
A39
  8
0
 62
   151
 10
0.0
 20
0.0
 30
0.0
 70
   128
 71
   109
 72
   107
 73
   113
  0
VERTEX
  5
A3A
  8
0
 62
   151
 10
0.0
 20
0.0
 30
0.0
 70
   128
 71
   108
 72
    85
 73
    90
  0
VERTEX
  5
A3B
  8
0
 62
   151
 10
0.0
 20
0.0
 30
0.0
 70
   128
 71
   107
 72
   110
 73
   113
  0
VERTEX
  5
A3C
  8
0
 62
   151
 10
0.0
 20
0.0
 30
0.0
 70
   128
 71
   107
 72
   108
 73
    90
  0
VERTEX
  5
A3D
  8
0
 62
   151
 10
0.0
 20
0.0
 30
0.0
 70
   128
 71
    98
 72
   104
 73
   114
  0
VERTEX
  5
A3E
  8
0
 62
   151
 10
0.0
 20
0.0
 30
0.0
 70
   128
 71
   114
 72
   115
 73
    98
  0
VERTEX
  5
A3F
  8
0
 62
   151
 10
0.0
 20
0.0
 30
0.0
 70
   128
 71
   110
 72
   107
 73
    86
  0
VERTEX
  5
A40
  8
0
 62
   151
 10
0.0
 20
0.0
 30
0.0
 70
   128
 71
    86
 72
   107
 73
    90
  0
VERTEX
  5
A41
  8
0
 62
   151
 10
0.0
 20
0.0
 30
0.0
 70
   128
 71
   113
 72
   110
 73
   111
  0
VERTEX
  5
A42
  8
0
 62
   151
 10
0.0
 20
0.0
 30
0.0
 70
   128
 71
   115
 72
    86
 73
    98
  0
VERTEX
  5
A43
  8
0
 62
   151
 10
0.0
 20
0.0
 30
0.0
 70
   128
 71
    86
 72
   115
 73
   110
  0
VERTEX
  5
A44
  8
0
 62
   151
 10
0.0
 20
0.0
 30
0.0
 70
   128
 71
   115
 72
   112
 73
   110
  0
VERTEX
  5
A45
  8
0
 62
   151
 10
0.0
 20
0.0
 30
0.0
 70
   128
 71
   112
 72
   115
 73
   114
  0
VERTEX
  5
A46
  8
0
 62
   151
 10
0.0
 20
0.0
 30
0.0
 70
   128
 71
    76
 72
    70
 73
   101
  0
VERTEX
  5
A47
  8
0
 62
   151
 10
0.0
 20
0.0
 30
0.0
 70
   128
 71
   103
 72
   117
 73
   116
  0
VERTEX
  5
A48
  8
0
 62
   151
 10
0.0
 20
0.0
 30
0.0
 70
   128
 71
   119
 72
   118
 73
   106
  0
VERTEX
  5
A49
  8
0
 62
   151
 10
0.0
 20
0.0
 30
0.0
 70
   128
 71
   120
 72
   114
 73
   104
  0
VERTEX
  5
A4A
  8
0
 62
   151
 10
0.0
 20
0.0
 30
0.0
 70
   128
 71
   121
 72
    99
 73
   102
  0
VERTEX
  5
A4B
  8
0
 62
   151
 10
0.0
 20
0.0
 30
0.0
 70
   128
 71
   122
 72
   111
 73
   112
  0
VERTEX
  5
A4C
  8
0
 62
   151
 10
0.0
 20
0.0
 30
0.0
 70
   128
 71
   114
 72
   123
 73
   112
  0
VERTEX
  5
A4D
  8
0
 62
   151
 10
0.0
 20
0.0
 30
0.0
 70
   128
 71
   125
 72
   113
 73
   124
  0
VERTEX
  5
A4E
  8
0
 62
   151
 10
0.0
 20
0.0
 30
0.0
 70
   128
 71
   111
 72
   124
 73
   113
  0
VERTEX
  5
A4F
  8
0
 62
   151
 10
0.0
 20
0.0
 30
0.0
 70
   128
 71
   109
 72
   125
 73
   126
  0
VERTEX
  5
A50
  8
0
 62
   151
 10
0.0
 20
0.0
 30
0.0
 70
   128
 71
   125
 72
   109
 73
   113
  0
VERTEX
  5
A51
  8
0
 62
   151
 10
0.0
 20
0.0
 30
0.0
 70
   128
 71
   108
 72
   126
 73
    85
  0
VERTEX
  5
A52
  8
0
 62
   151
 10
0.0
 20
0.0
 30
0.0
 70
   128
 71
   108
 72
   109
 73
   126
  0
VERTEX
  5
A53
  8
0
 62
   151
 10
0.0
 20
0.0
 30
0.0
 70
   128
 71
    85
 72
   126
 73
    56
  0
VERTEX
  5
A54
  8
0
 62
   151
 10
0.0
 20
0.0
 30
0.0
 70
   128
 71
   122
 72
   112
 73
   123
  0
VERTEX
  5
A55
  8
0
 62
   151
 10
0.0
 20
0.0
 30
0.0
 70
   128
 71
   122
 72
   124
 73
   111
  0
VERTEX
  5
A56
  8
0
 62
   151
 10
0.0
 20
0.0
 30
0.0
 70
   128
 71
   120
 72
   127
 73
   114
  0
VERTEX
  5
A57
  8
0
 62
   151
 10
0.0
 20
0.0
 30
0.0
 70
   128
 71
   127
 72
   123
 73
   114
  0
VERTEX
  5
A58
  8
0
 62
   151
 10
0.0
 20
0.0
 30
0.0
 70
   128
 71
   120
 72
    99
 73
   121
  0
VERTEX
  5
A59
  8
0
 62
   151
 10
0.0
 20
0.0
 30
0.0
 70
   128
 71
   120
 72
   104
 73
    99
  0
VERTEX
  5
A5A
  8
0
 62
   151
 10
0.0
 20
0.0
 30
0.0
 70
   128
 71
   102
 72
   103
 73
   116
  0
VERTEX
  5
A5B
  8
0
 62
   151
 10
0.0
 20
0.0
 30
0.0
 70
   128
 71
   121
 72
   102
 73
   116
  0
VERTEX
  5
A5C
  8
0
 62
   151
 10
0.0
 20
0.0
 30
0.0
 70
   128
 71
   105
 72
   118
 73
   117
  0
VERTEX
  5
A5D
  8
0
 62
   151
 10
0.0
 20
0.0
 30
0.0
 70
   128
 71
   103
 72
   105
 73
   117
  0
VERTEX
  5
A5E
  8
0
 62
   151
 10
0.0
 20
0.0
 30
0.0
 70
   128
 71
   101
 72
   119
 73
   106
  0
VERTEX
  5
A5F
  8
0
 62
   151
 10
0.0
 20
0.0
 30
0.0
 70
   128
 71
   106
 72
   118
 73
   105
  0
VERTEX
  5
A60
  8
0
 62
   151
 10
0.0
 20
0.0
 30
0.0
 70
   128
 71
   128
 72
   101
 73
    70
  0
VERTEX
  5
A61
  8
0
 62
   151
 10
0.0
 20
0.0
 30
0.0
 70
   128
 71
   128
 72
   119
 73
   101
  0
VERTEX
  5
A62
  8
0
 62
   151
 10
0.0
 20
0.0
 30
0.0
 70
   128
 71
   129
 72
    55
 73
   126
  0
VERTEX
  5
A63
  8
0
 62
   151
 10
0.0
 20
0.0
 30
0.0
 70
   128
 71
   125
 72
   124
 73
   130
  0
VERTEX
  5
A64
  8
0
 62
   151
 10
0.0
 20
0.0
 30
0.0
 70
   128
 71
   127
 72
   132
 73
   131
  0
VERTEX
  5
A65
  8
0
 62
   151
 10
0.0
 20
0.0
 30
0.0
 70
   128
 71
   133
 72
   122
 73
   123
  0
VERTEX
  5
A66
  8
0
 62
   151
 10
0.0
 20
0.0
 30
0.0
 70
   128
 71
   135
 72
   116
 73
   134
  0
VERTEX
  5
A67
  8
0
 62
   151
 10
0.0
 20
0.0
 30
0.0
 70
   128
 71
   136
 72
   120
 73
   121
  0
VERTEX
  5
A68
  8
0
 62
   151
 10
0.0
 20
0.0
 30
0.0
 70
   128
 71
   138
 72
   118
 73
   137
  0
VERTEX
  5
A69
  8
0
 62
   151
 10
0.0
 20
0.0
 30
0.0
 70
   128
 71
   138
 72
   134
 73
   117
  0
VERTEX
  5
A6A
  8
0
 62
   151
 10
0.0
 20
0.0
 30
0.0
 70
   128
 71
   119
 72
   139
 73
   137
  0
VERTEX
  5
A6B
  8
0
 62
   151
 10
0.0
 20
0.0
 30
0.0
 70
   128
 71
   137
 72
   118
 73
   119
  0
VERTEX
  5
A6C
  8
0
 62
   151
 10
0.0
 20
0.0
 30
0.0
 70
   128
 71
   140
 72
   139
 73
   128
  0
VERTEX
  5
A6D
  8
0
 62
   151
 10
0.0
 20
0.0
 30
0.0
 70
   128
 71
   119
 72
   128
 73
   139
  0
VERTEX
  5
A6E
  8
0
 62
   151
 10
0.0
 20
0.0
 30
0.0
 70
   128
 71
   140
 72
    70
 73
    69
  0
VERTEX
  5
A6F
  8
0
 62
   151
 10
0.0
 20
0.0
 30
0.0
 70
   128
 71
    70
 72
   140
 73
   128
  0
VERTEX
  5
A70
  8
0
 62
   151
 10
0.0
 20
0.0
 30
0.0
 70
   128
 71
   121
 72
   116
 73
   135
  0
VERTEX
  5
A71
  8
0
 62
   151
 10
0.0
 20
0.0
 30
0.0
 70
   128
 71
   134
 72
   116
 73
   117
  0
VERTEX
  5
A72
  8
0
 62
   151
 10
0.0
 20
0.0
 30
0.0
 70
   128
 71
   117
 72
   118
 73
   138
  0
VERTEX
  5
A73
  8
0
 62
   151
 10
0.0
 20
0.0
 30
0.0
 70
   128
 71
   121
 72
   135
 73
   136
  0
VERTEX
  5
A74
  8
0
 62
   151
 10
0.0
 20
0.0
 30
0.0
 70
   128
 71
   120
 72
   136
 73
   132
  0
VERTEX
  5
A75
  8
0
 62
   151
 10
0.0
 20
0.0
 30
0.0
 70
   128
 71
   120
 72
   132
 73
   127
  0
VERTEX
  5
A76
  8
0
 62
   151
 10
0.0
 20
0.0
 30
0.0
 70
   128
 71
   133
 72
   123
 73
   131
  0
VERTEX
  5
A77
  8
0
 62
   151
 10
0.0
 20
0.0
 30
0.0
 70
   128
 71
   127
 72
   131
 73
   123
  0
VERTEX
  5
A78
  8
0
 62
   151
 10
0.0
 20
0.0
 30
0.0
 70
   128
 71
   122
 72
   133
 73
   141
  0
VERTEX
  5
A79
  8
0
 62
   151
 10
0.0
 20
0.0
 30
0.0
 70
   128
 71
   124
 72
   141
 73
   130
  0
VERTEX
  5
A7A
  8
0
 62
   151
 10
0.0
 20
0.0
 30
0.0
 70
   128
 71
   141
 72
   124
 73
   122
  0
VERTEX
  5
A7B
  8
0
 62
   151
 10
0.0
 20
0.0
 30
0.0
 70
   128
 71
   130
 72
   129
 73
   125
  0
VERTEX
  5
A7C
  8
0
 62
   151
 10
0.0
 20
0.0
 30
0.0
 70
   128
 71
    56
 72
   126
 73
    55
  0
VERTEX
  5
A7D
  8
0
 62
   151
 10
0.0
 20
0.0
 30
0.0
 70
   128
 71
   126
 72
   125
 73
   129
  0
VERTEX
  5
A7E
  8
0
 62
   151
 10
0.0
 20
0.0
 30
0.0
 70
   128
 71
   139
 72
   143
 73
   142
  0
VERTEX
  5
A7F
  8
0
 62
   151
 10
0.0
 20
0.0
 30
0.0
 70
   128
 71
     5
 72
     6
 73
    58
  0
VERTEX
  5
A80
  8
0
 62
   151
 10
0.0
 20
0.0
 30
0.0
 70
   128
 71
    64
 72
    61
 73
    11
  0
VERTEX
  5
A81
  8
0
 62
   151
 10
0.0
 20
0.0
 30
0.0
 70
   128
 71
     6
 72
    10
 73
    60
  0
VERTEX
  5
A82
  8
0
 62
   151
 10
0.0
 20
0.0
 30
0.0
 70
   128
 71
    39
 72
     5
 73
    44
  0
VERTEX
  5
A83
  8
0
 62
   151
 10
0.0
 20
0.0
 30
0.0
 70
   128
 71
    39
 72
    42
 73
    25
  0
VERTEX
  5
A84
  8
0
 62
   151
 10
0.0
 20
0.0
 30
0.0
 70
   128
 71
    28
 72
    25
 73
    46
  0
VERTEX
  5
A85
  8
0
 62
   151
 10
0.0
 20
0.0
 30
0.0
 70
   128
 71
    49
 72
    31
 73
    38
  0
VERTEX
  5
A86
  8
0
 62
   151
 10
0.0
 20
0.0
 30
0.0
 70
   128
 71
    38
 72
    28
 73
    48
  0
VERTEX
  5
A87
  8
0
 62
   151
 10
0.0
 20
0.0
 30
0.0
 70
   128
 71
   129
 72
   144
 73
    55
  0
VERTEX
  5
A88
  8
0
 62
   151
 10
0.0
 20
0.0
 30
0.0
 70
   128
 71
   146
 72
   132
 73
   145
  0
VERTEX
  5
A89
  8
0
 62
   151
 10
0.0
 20
0.0
 30
0.0
 70
   128
 71
   148
 72
   147
 73
   141
  0
VERTEX
  5
A8A
  8
0
 62
   151
 10
0.0
 20
0.0
 30
0.0
 70
   128
 71
   147
 72
   144
 73
   130
  0
VERTEX
  5
A8B
  8
0
 62
   151
 10
0.0
 20
0.0
 30
0.0
 70
   128
 71
   133
 72
   149
 73
   148
  0
VERTEX
  5
A8C
  8
0
 62
   151
 10
0.0
 20
0.0
 30
0.0
 70
   128
 71
   136
 72
   150
 73
   145
  0
VERTEX
  5
A8D
  8
0
 62
   151
 10
0.0
 20
0.0
 30
0.0
 70
   128
 71
   151
 72
   150
 73
   135
  0
VERTEX
  5
A8E
  8
0
 62
   151
 10
0.0
 20
0.0
 30
0.0
 70
   128
 71
   146
 72
   149
 73
   131
  0
VERTEX
  5
A8F
  8
0
 62
   151
 10
0.0
 20
0.0
 30
0.0
 70
   128
 71
   152
 72
   151
 73
   134
  0
VERTEX
  5
A90
  8
0
 62
   151
 10
0.0
 20
0.0
 30
0.0
 70
   128
 71
   152
 72
   138
 73
   153
  0
VERTEX
  5
A91
  8
0
 62
   151
 10
0.0
 20
0.0
 30
0.0
 70
   128
 71
   153
 72
   137
 73
   142
  0
VERTEX
  5
A92
  8
0
 62
   151
 10
0.0
 20
0.0
 30
0.0
 70
   128
 71
    34
 72
    53
 73
    37
  0
VERTEX
  5
A93
  8
0
 62
   151
 10
0.0
 20
0.0
 30
0.0
 70
   128
 71
    55
 72
    36
 73
    53
  0
VERTEX
  5
A94
  8
0
 62
   151
 10
0.0
 20
0.0
 30
0.0
 70
   128
 71
    52
 72
    34
 73
    31
  0
VERTEX
  5
A95
  8
0
 62
   151
 10
0.0
 20
0.0
 30
0.0
 70
   128
 71
    61
 72
    10
 73
    11
  0
VERTEX
  5
A96
  8
0
 62
   151
 10
0.0
 20
0.0
 30
0.0
 70
   128
 71
    67
 72
    20
 73
    69
  0
VERTEX
  5
A97
  8
0
 62
   151
 10
0.0
 20
0.0
 30
0.0
 70
   128
 71
   154
 72
   140
 73
    22
  0
VERTEX
  5
A98
  8
0
 62
   151
 10
0.0
 20
0.0
 30
0.0
 70
   128
 71
    22
 72
   140
 73
    69
  0
VERTEX
  5
A99
  8
0
 62
   151
 10
0.0
 20
0.0
 30
0.0
 70
   128
 71
    66
 72
    64
 73
    40
  0
VERTEX
  5
A9A
  8
0
 62
   151
 10
0.0
 20
0.0
 30
0.0
 70
   128
 71
   143
 72
   139
 73
   140
  0
VERTEX
  5
A9B
  8
0
 62
   151
 10
0.0
 20
0.0
 30
0.0
 70
   128
 71
   143
 72
   140
 73
   154
  0
VERTEX
  5
A9C
  8
0
 62
   151
 10
0.0
 20
0.0
 30
0.0
 70
   128
 71
   142
 72
   137
 73
   139
  0
VERTEX
  5
A9D
  8
0
 62
   151
 10
0.0
 20
0.0
 30
0.0
 70
   128
 71
   153
 72
   138
 73
   137
  0
VERTEX
  5
A9E
  8
0
 62
   151
 10
0.0
 20
0.0
 30
0.0
 70
   128
 71
   152
 72
   134
 73
   138
  0
VERTEX
  5
A9F
  8
0
 62
   151
 10
0.0
 20
0.0
 30
0.0
 70
   128
 71
   151
 72
   135
 73
   134
  0
VERTEX
  5
AA0
  8
0
 62
   151
 10
0.0
 20
0.0
 30
0.0
 70
   128
 71
   150
 72
   136
 73
   135
  0
VERTEX
  5
AA1
  8
0
 62
   151
 10
0.0
 20
0.0
 30
0.0
 70
   128
 71
   145
 72
   132
 73
   136
  0
VERTEX
  5
AA2
  8
0
 62
   151
 10
0.0
 20
0.0
 30
0.0
 70
   128
 71
   146
 72
   131
 73
   132
  0
VERTEX
  5
AA3
  8
0
 62
   151
 10
0.0
 20
0.0
 30
0.0
 70
   128
 71
   149
 72
   133
 73
   131
  0
VERTEX
  5
AA4
  8
0
 62
   151
 10
0.0
 20
0.0
 30
0.0
 70
   128
 71
   148
 72
   141
 73
   133
  0
VERTEX
  5
AA5
  8
0
 62
   151
 10
0.0
 20
0.0
 30
0.0
 70
   128
 71
   147
 72
   130
 73
   141
  0
VERTEX
  5
AA6
  8
0
 62
   151
 10
0.0
 20
0.0
 30
0.0
 70
   128
 71
   144
 72
   129
 73
   130
  0
VERTEX
  5
AA7
  8
0
 62
   151
 10
0.0
 20
0.0
 30
0.0
 70
   128
 71
   144
 72
    36
 73
    55
  0
VERTEX
  5
AA8
  8
0
 62
   151
 10
0.0
 20
0.0
 30
0.0
 70
   128
 71
    36
 72
    37
 73
    53
  0
VERTEX
  5
AA9
  8
0
 62
   151
 10
0.0
 20
0.0
 30
0.0
 70
   128
 71
    34
 72
    52
 73
    53
  0
VERTEX
  5
AAA
  8
0
 62
   151
 10
0.0
 20
0.0
 30
0.0
 70
   128
 71
    31
 72
    49
 73
    52
  0
VERTEX
  5
AAB
  8
0
 62
   151
 10
0.0
 20
0.0
 30
0.0
 70
   128
 71
    38
 72
    48
 73
    49
  0
VERTEX
  5
AAC
  8
0
 62
   151
 10
0.0
 20
0.0
 30
0.0
 70
   128
 71
    28
 72
    46
 73
    48
  0
VERTEX
  5
AAD
  8
0
 62
   151
 10
0.0
 20
0.0
 30
0.0
 70
   128
 71
    25
 72
    42
 73
    46
  0
VERTEX
  5
AAE
  8
0
 62
   151
 10
0.0
 20
0.0
 30
0.0
 70
   128
 71
    39
 72
    44
 73
    42
  0
VERTEX
  5
AAF
  8
0
 62
   151
 10
0.0
 20
0.0
 30
0.0
 70
   128
 71
     5
 72
    58
 73
    44
  0
VERTEX
  5
AB0
  8
0
 62
   151
 10
0.0
 20
0.0
 30
0.0
 70
   128
 71
     6
 72
    60
 73
    58
  0
VERTEX
  5
AB1
  8
0
 62
   151
 10
0.0
 20
0.0
 30
0.0
 70
   128
 71
    10
 72
    61
 73
    60
  0
VERTEX
  5
AB2
  8
0
 62
   151
 10
0.0
 20
0.0
 30
0.0
 70
   128
 71
    40
 72
    64
 73
    11
  0
VERTEX
  5
AB3
  8
0
 62
   151
 10
0.0
 20
0.0
 30
0.0
 70
   128
 71
    20
 72
    66
 73
    40
  0
VERTEX
  5
AB4
  8
0
 62
   151
 10
0.0
 20
0.0
 30
0.0
 70
   128
 71
    20
 72
    22
 73
    69
  0
VERTEX
  5
AB5
  8
0
 62
   151
 10
0.0
 20
0.0
 30
0.0
 70
   128
 71
    20
 72
    67
 73
    66
  0
VERTEX
  5
AB6
  8
0
 62
   151
 10
0.0
 20
0.0
 30
0.0
 70
   128
 71
   157
 72
   156
 73
   155
  0
VERTEX
  5
AB7
  8
0
 62
   151
 10
0.0
 20
0.0
 30
0.0
 70
   128
 71
   155
 72
   158
 73
   142
  0
VERTEX
  5
AB8
  8
0
 62
   151
 10
0.0
 20
0.0
 30
0.0
 70
   128
 71
   155
 72
   143
 73
   157
  0
VERTEX
  5
AB9
  8
0
 62
   151
 10
0.0
 20
0.0
 30
0.0
 70
   128
 71
   154
 72
    22
 73
    17
  0
VERTEX
  5
ABA
  8
0
 62
   151
 10
0.0
 20
0.0
 30
0.0
 70
   128
 71
   161
 72
   160
 73
   159
  0
VERTEX
  5
ABB
  8
0
 62
   151
 10
0.0
 20
0.0
 30
0.0
 70
   128
 71
   164
 72
   163
 73
   162
  0
VERTEX
  5
ABC
  8
0
 62
   151
 10
0.0
 20
0.0
 30
0.0
 70
   128
 71
   161
 72
   165
 73
   164
  0
VERTEX
  5
ABD
  8
0
 62
   151
 10
0.0
 20
0.0
 30
0.0
 70
   128
 71
   167
 72
   162
 73
   166
  0
VERTEX
  5
ABE
  8
0
 62
   151
 10
0.0
 20
0.0
 30
0.0
 70
   128
 71
   167
 72
   148
 73
   149
  0
VERTEX
  5
ABF
  8
0
 62
   151
 10
0.0
 20
0.0
 30
0.0
 70
   128
 71
   169
 72
   144
 73
   168
  0
VERTEX
  5
AC0
  8
0
 62
   151
 10
0.0
 20
0.0
 30
0.0
 70
   128
 71
   171
 72
   170
 73
   168
  0
VERTEX
  5
AC1
  8
0
 62
   151
 10
0.0
 20
0.0
 30
0.0
 70
   128
 71
   172
 72
     1
 73
    35
  0
VERTEX
  5
AC2
  8
0
 62
   151
 10
0.0
 20
0.0
 30
0.0
 70
   128
 71
   170
 72
   169
 73
   168
  0
VERTEX
  5
AC3
  8
0
 62
   151
 10
0.0
 20
0.0
 30
0.0
 70
   128
 71
   169
 72
    35
 73
    36
  0
VERTEX
  5
AC4
  8
0
 62
   151
 10
0.0
 20
0.0
 30
0.0
 70
   128
 71
   172
 72
   169
 73
   170
  0
VERTEX
  5
AC5
  8
0
 62
   151
 10
0.0
 20
0.0
 30
0.0
 70
   128
 71
   166
 72
   171
 73
   167
  0
VERTEX
  5
AC6
  8
0
 62
   151
 10
0.0
 20
0.0
 30
0.0
 70
   128
 71
   168
 72
   167
 73
   171
  0
VERTEX
  5
AC7
  8
0
 62
   151
 10
0.0
 20
0.0
 30
0.0
 70
   128
 71
   159
 72
   165
 73
   161
  0
VERTEX
  5
AC8
  8
0
 62
   151
 10
0.0
 20
0.0
 30
0.0
 70
   128
 71
   162
 72
   163
 73
   173
  0
VERTEX
  5
AC9
  8
0
 62
   151
 10
0.0
 20
0.0
 30
0.0
 70
   128
 71
   162
 72
   173
 73
   166
  0
VERTEX
  5
ACA
  8
0
 62
   151
 10
0.0
 20
0.0
 30
0.0
 70
   128
 71
   161
 72
   164
 73
   151
  0
VERTEX
  5
ACB
  8
0
 62
   151
 10
0.0
 20
0.0
 30
0.0
 70
   128
 71
   162
 72
   146
 73
   145
  0
VERTEX
  5
ACC
  8
0
 62
   151
 10
0.0
 20
0.0
 30
0.0
 70
   128
 71
   161
 72
   158
 73
   160
  0
VERTEX
  5
ACD
  8
0
 62
   151
 10
0.0
 20
0.0
 30
0.0
 70
   128
 71
   152
 72
   158
 73
   161
  0
VERTEX
  5
ACE
  8
0
 62
   151
 10
0.0
 20
0.0
 30
0.0
 70
   128
 71
   175
 72
   174
 73
   155
  0
VERTEX
  5
ACF
  8
0
 62
   151
 10
0.0
 20
0.0
 30
0.0
 70
   128
 71
   158
 72
   155
 73
   174
  0
VERTEX
  5
AD0
  8
0
 62
   151
 10
0.0
 20
0.0
 30
0.0
 70
   128
 71
   154
 72
   157
 73
   143
  0
VERTEX
  5
AD1
  8
0
 62
   151
 10
0.0
 20
0.0
 30
0.0
 70
   128
 71
   175
 72
   155
 73
   156
  0
VERTEX
  5
AD2
  8
0
 62
   151
 10
0.0
 20
0.0
 30
0.0
 70
   128
 71
    18
 72
   157
 73
    17
  0
VERTEX
  5
AD3
  8
0
 62
   151
 10
0.0
 20
0.0
 30
0.0
 70
   128
 71
   156
 72
   157
 73
    18
  0
VERTEX
  5
AD4
  8
0
 62
   151
 10
0.0
 20
0.0
 30
0.0
 70
   128
 71
   157
 72
   154
 73
    17
  0
VERTEX
  5
AD5
  8
0
 62
   151
 10
0.0
 20
0.0
 30
0.0
 70
   128
 71
   155
 72
   142
 73
   143
  0
VERTEX
  5
AD6
  8
0
 62
   151
 10
0.0
 20
0.0
 30
0.0
 70
   128
 71
   158
 72
   153
 73
   142
  0
VERTEX
  5
AD7
  8
0
 62
   151
 10
0.0
 20
0.0
 30
0.0
 70
   128
 71
   153
 72
   158
 73
   152
  0
VERTEX
  5
AD8
  8
0
 62
   151
 10
0.0
 20
0.0
 30
0.0
 70
   128
 71
   158
 72
   174
 73
   160
  0
VERTEX
  5
AD9
  8
0
 62
   151
 10
0.0
 20
0.0
 30
0.0
 70
   128
 71
   161
 72
   151
 73
   152
  0
VERTEX
  5
ADA
  8
0
 62
   151
 10
0.0
 20
0.0
 30
0.0
 70
   128
 71
   164
 72
   150
 73
   151
  0
VERTEX
  5
ADB
  8
0
 62
   151
 10
0.0
 20
0.0
 30
0.0
 70
   128
 71
   150
 72
   164
 73
   145
  0
VERTEX
  5
ADC
  8
0
 62
   151
 10
0.0
 20
0.0
 30
0.0
 70
   128
 71
   164
 72
   165
 73
   163
  0
VERTEX
  5
ADD
  8
0
 62
   151
 10
0.0
 20
0.0
 30
0.0
 70
   128
 71
   164
 72
   162
 73
   145
  0
VERTEX
  5
ADE
  8
0
 62
   151
 10
0.0
 20
0.0
 30
0.0
 70
   128
 71
   149
 72
   146
 73
   162
  0
VERTEX
  5
ADF
  8
0
 62
   151
 10
0.0
 20
0.0
 30
0.0
 70
   128
 71
   162
 72
   167
 73
   149
  0
VERTEX
  5
AE0
  8
0
 62
   151
 10
0.0
 20
0.0
 30
0.0
 70
   128
 71
   147
 72
   148
 73
   168
  0
VERTEX
  5
AE1
  8
0
 62
   151
 10
0.0
 20
0.0
 30
0.0
 70
   128
 71
   167
 72
   168
 73
   148
  0
VERTEX
  5
AE2
  8
0
 62
   151
 10
0.0
 20
0.0
 30
0.0
 70
   128
 71
   147
 72
   168
 73
   144
  0
VERTEX
  5
AE3
  8
0
 62
   151
 10
0.0
 20
0.0
 30
0.0
 70
   128
 71
   144
 72
   169
 73
    36
  0
VERTEX
  5
AE4
  8
0
 62
   151
 10
0.0
 20
0.0
 30
0.0
 70
   128
 71
   169
 72
   172
 73
    35
  0
SEQEND
  5
AE5
  8
0
 62
   151
  0
ENDBLK
  5
AE8
  8
0
  0
BLOCK
  8
0
  2
43
 70
     0
 10
0.0
 20
0.0
 30
0.0
  3
43
  1

  0
POLYLINE
  5
AEA
  8
0
 62
   151
 66
     1
 10
0.0
 20
0.0
 30
0.0
 70
    64
 71
    36
 72
    68
  0
VERTEX
  5
AEB
  8
0
 10
246.1999969482422
 20
-36.06960296630859
 30
212.7078399658203
 70
   192
  0
VERTEX
  5
AEC
  8
0
 10
246.1999969482422
 20
-40.936279296875
 30
212.7604370117188
 70
   192
  0
VERTEX
  5
AED
  8
0
 10
126.1999969482422
 20
-40.73039627075195
 30
212.7078399658203
 70
   192
  0
VERTEX
  5
AEE
  8
0
 10
126.1999969482422
 20
-45.39119338989258
 30
214.3705444335938
 70
   192
  0
VERTEX
  5
AEF
  8
0
 10
246.1999969482422
 20
-45.39119338989258
 30
214.3705444335938
 70
   192
  0
VERTEX
  5
AF0
  8
0
 10
246.1999969482422
 20
-49.17977523803711
 30
217.5901794433594
 70
   192
  0
VERTEX
  5
AF1
  8
0
 10
126.1999969482422
 20
-49.02257919311523
 30
217.4329833984375
 70
   192
  0
VERTEX
  5
AF2
  8
0
 10
246.1999969482422
 20
-51.51604461669922
 30
221.6333160400391
 70
   192
  0
VERTEX
  5
AF3
  8
0
 10
126.1999969482422
 20
-51.51604461669922
 30
221.6333160400391
 70
   192
  0
VERTEX
  5
AF4
  8
0
 10
126.1999969482422
 20
-52.40000152587891
 30
226.5
 70
   192
  0
VERTEX
  5
AF5
  8
0
 10
246.1999969482422
 20
-52.40000152587891
 30
226.5
 70
   192
  0
VERTEX
  5
AF6
  8
0
 10
126.1999969482422
 20
-35.86371994018555
 30
212.7604370117188
 70
   192
  0
VERTEX
  5
AF7
  8
0
 10
126.1999969482422
 20
-31.40880584716797
 30
214.3705444335938
 70
   192
  0
VERTEX
  5
AF8
  8
0
 10
246.1999969482422
 20
-31.40880584716797
 30
214.3705444335938
 70
   192
  0
VERTEX
  5
AF9
  8
0
 10
126.1999969482422
 20
-27.62022399902344
 30
217.5901794433594
 70
   192
  0
VERTEX
  5
AFA
  8
0
 10
246.1999969482422
 20
-27.77742004394531
 30
217.4329833984375
 70
   192
  0
VERTEX
  5
AFB
  8
0
 10
246.1999969482422
 20
-25.28395652770996
 30
221.6333160400391
 70
   192
  0
VERTEX
  5
AFC
  8
0
 10
126.1999969482422
 20
-25.28395652770996
 30
221.6333160400391
 70
   192
  0
VERTEX
  5
AFD
  8
0
 10
246.1999969482422
 20
-24.39999961853027
 30
226.5
 70
   192
  0
VERTEX
  5
AFE
  8
0
 10
126.1999969482422
 20
-24.39999961853027
 30
226.5
 70
   192
  0
VERTEX
  5
AFF
  8
0
 10
126.1999969482422
 20
-27.67493057250977
 30
235.3355255126953
 70
   192
  0
VERTEX
  5
B00
  8
0
 10
126.1999969482422
 20
-25.30792999267578
 30
231.2689056396484
 70
   192
  0
VERTEX
  5
B01
  8
0
 10
126.1999969482422
 20
-51.60517120361328
 30
231.3630981445312
 70
   192
  0
VERTEX
  5
B02
  8
0
 10
126.1999969482422
 20
-45.33230209350586
 30
238.6292877197266
 70
   192
  0
VERTEX
  5
B03
  8
0
 10
126.1999969482422
 20
-40.78805160522461
 30
240.2420349121094
 70
   192
  0
VERTEX
  5
B04
  8
0
 10
126.1999969482422
 20
-49.0963020324707
 30
235.5753479003906
 70
   192
  0
VERTEX
  5
B05
  8
0
 10
126.1999969482422
 20
-35.92428970336914
 30
240.2610473632812
 70
   192
  0
VERTEX
  5
B06
  8
0
 10
126.1999969482422
 20
-31.35009384155273
 30
238.4999847412109
 70
   192
  0
VERTEX
  5
B07
  8
0
 10
246.1999969482422
 20
-51.50983428955078
 30
231.3761444091797
 70
   192
  0
VERTEX
  5
B08
  8
0
 10
246.1999969482422
 20
-40.73370742797852
 30
240.2915191650391
 70
   192
  0
VERTEX
  5
B09
  8
0
 10
246.1999969482422
 20
-49.02490615844727
 30
235.5693511962891
 70
   192
  0
VERTEX
  5
B0A
  8
0
 10
246.1999969482422
 20
-31.39887428283691
 30
238.6237030029297
 70
   192
  0
VERTEX
  5
B0B
  8
0
 10
246.1999969482422
 20
-27.62312316894531
 30
235.4173736572266
 70
   192
  0
VERTEX
  5
B0C
  8
0
 10
246.1999969482422
 20
-35.85756301879883
 30
240.2352600097656
 70
   192
  0
VERTEX
  5
B0D
  8
0
 10
246.1999969482422
 20
-25.29016304016113
 30
231.3761444091797
 70
   192
  0
VERTEX
  5
B0E
  8
0
 10
246.1999969482422
 20
-45.401123046875
 30
238.6237030029297
 70
   192
  0
VERTEX
  5
B0F
  8
0
 62
   151
 10
0.0
 20
0.0
 30
0.0
 70
   128
 71
     3
 72
     2
 73
     1
  0
VERTEX
  5
B10
  8
0
 62
   151
 10
0.0
 20
0.0
 30
0.0
 70
   128
 71
     5
 72
     2
 73
     4
  0
VERTEX
  5
B11
  8
0
 62
   151
 10
0.0
 20
0.0
 30
0.0
 70
   128
 71
     3
 72
     4
 73
     2
  0
VERTEX
  5
B12
  8
0
 62
   151
 10
0.0
 20
0.0
 30
0.0
 70
   128
 71
     5
 72
     7
 73
     6
  0
VERTEX
  5
B13
  8
0
 62
   151
 10
0.0
 20
0.0
 30
0.0
 70
   128
 71
     7
 72
     5
 73
     4
  0
VERTEX
  5
B14
  8
0
 62
   151
 10
0.0
 20
0.0
 30
0.0
 70
   128
 71
     9
 72
     8
 73
     6
  0
VERTEX
  5
B15
  8
0
 62
   151
 10
0.0
 20
0.0
 30
0.0
 70
   128
 71
     6
 72
     7
 73
     9
  0
VERTEX
  5
B16
  8
0
 62
   151
 10
0.0
 20
0.0
 30
0.0
 70
   128
 71
     9
 72
    10
 73
     8
  0
VERTEX
  5
B17
  8
0
 62
   151
 10
0.0
 20
0.0
 30
0.0
 70
   128
 71
    10
 72
    11
 73
     8
  0
VERTEX
  5
B18
  8
0
 62
   151
 10
0.0
 20
0.0
 30
0.0
 70
   128
 71
    12
 72
     3
 73
     1
  0
VERTEX
  5
B19
  8
0
 62
   151
 10
0.0
 20
0.0
 30
0.0
 70
   128
 71
    12
 72
    14
 73
    13
  0
VERTEX
  5
B1A
  8
0
 62
   151
 10
0.0
 20
0.0
 30
0.0
 70
   128
 71
    14
 72
    12
 73
     1
  0
VERTEX
  5
B1B
  8
0
 62
   151
 10
0.0
 20
0.0
 30
0.0
 70
   128
 71
    16
 72
    15
 73
    13
  0
VERTEX
  5
B1C
  8
0
 62
   151
 10
0.0
 20
0.0
 30
0.0
 70
   128
 71
    13
 72
    14
 73
    16
  0
VERTEX
  5
B1D
  8
0
 62
   151
 10
0.0
 20
0.0
 30
0.0
 70
   128
 71
    18
 72
    15
 73
    17
  0
VERTEX
  5
B1E
  8
0
 62
   151
 10
0.0
 20
0.0
 30
0.0
 70
   128
 71
    16
 72
    17
 73
    15
  0
VERTEX
  5
B1F
  8
0
 62
   151
 10
0.0
 20
0.0
 30
0.0
 70
   128
 71
    19
 72
    18
 73
    17
  0
VERTEX
  5
B20
  8
0
 62
   151
 10
0.0
 20
0.0
 30
0.0
 70
   128
 71
    20
 72
    18
 73
    19
  0
VERTEX
  5
B21
  8
0
 62
   151
 10
0.0
 20
0.0
 30
0.0
 70
   128
 71
     3
 72
    21
 73
     7
  0
VERTEX
  5
B22
  8
0
 62
   151
 10
0.0
 20
0.0
 30
0.0
 70
   128
 71
    12
 72
    13
 73
    15
  0
VERTEX
  5
B23
  8
0
 62
   151
 10
0.0
 20
0.0
 30
0.0
 70
   128
 71
    12
 72
    15
 73
    18
  0
VERTEX
  5
B24
  8
0
 62
   151
 10
0.0
 20
0.0
 30
0.0
 70
   128
 71
    22
 72
    21
 73
     3
  0
VERTEX
  5
B25
  8
0
 62
   151
 10
0.0
 20
0.0
 30
0.0
 70
   128
 71
    22
 72
    12
 73
    18
  0
VERTEX
  5
B26
  8
0
 62
   151
 10
0.0
 20
0.0
 30
0.0
 70
   128
 71
     3
 72
     7
 73
     4
  0
VERTEX
  5
B27
  8
0
 62
   151
 10
0.0
 20
0.0
 30
0.0
 70
   128
 71
    23
 72
    10
 73
     9
  0
VERTEX
  5
B28
  8
0
 62
   151
 10
0.0
 20
0.0
 30
0.0
 70
   128
 71
    26
 72
    25
 73
    24
  0
VERTEX
  5
B29
  8
0
 62
   151
 10
0.0
 20
0.0
 30
0.0
 70
   128
 71
    25
 72
    23
 73
     9
  0
VERTEX
  5
B2A
  8
0
 62
   151
 10
0.0
 20
0.0
 30
0.0
 70
   128
 71
    25
 72
    26
 73
    23
  0
VERTEX
  5
B2B
  8
0
 62
   151
 10
0.0
 20
0.0
 30
0.0
 70
   128
 71
    25
 72
     9
 73
     7
  0
VERTEX
  5
B2C
  8
0
 62
   151
 10
0.0
 20
0.0
 30
0.0
 70
   128
 71
    21
 72
    28
 73
    27
  0
VERTEX
  5
B2D
  8
0
 62
   151
 10
0.0
 20
0.0
 30
0.0
 70
   128
 71
     7
 72
    27
 73
    25
  0
VERTEX
  5
B2E
  8
0
 62
   151
 10
0.0
 20
0.0
 30
0.0
 70
   128
 71
    22
 72
     3
 73
    12
  0
VERTEX
  5
B2F
  8
0
 62
   151
 10
0.0
 20
0.0
 30
0.0
 70
   128
 71
    27
 72
     7
 73
    21
  0
VERTEX
  5
B30
  8
0
 62
   151
 10
0.0
 20
0.0
 30
0.0
 70
   128
 71
    18
 72
    20
 73
    22
  0
VERTEX
  5
B31
  8
0
 62
   151
 10
0.0
 20
0.0
 30
0.0
 70
   128
 71
    29
 72
    11
 73
    23
  0
VERTEX
  5
B32
  8
0
 62
   151
 10
0.0
 20
0.0
 30
0.0
 70
   128
 71
    30
 72
    25
 73
    27
  0
VERTEX
  5
B33
  8
0
 62
   151
 10
0.0
 20
0.0
 30
0.0
 70
   128
 71
    26
 72
    24
 73
    31
  0
VERTEX
  5
B34
  8
0
 62
   151
 10
0.0
 20
0.0
 30
0.0
 70
   128
 71
    33
 72
    32
 73
    21
  0
VERTEX
  5
B35
  8
0
 62
   151
 10
0.0
 20
0.0
 30
0.0
 70
   128
 71
    28
 72
    34
 73
    27
  0
VERTEX
  5
B36
  8
0
 62
   151
 10
0.0
 20
0.0
 30
0.0
 70
   128
 71
    33
 72
    22
 73
    35
  0
VERTEX
  5
B37
  8
0
 62
   151
 10
0.0
 20
0.0
 30
0.0
 70
   128
 71
    22
 72
    33
 73
    21
  0
VERTEX
  5
B38
  8
0
 62
   151
 10
0.0
 20
0.0
 30
0.0
 70
   128
 71
    20
 72
    19
 73
    35
  0
VERTEX
  5
B39
  8
0
 62
   151
 10
0.0
 20
0.0
 30
0.0
 70
   128
 71
    35
 72
    22
 73
    20
  0
VERTEX
  5
B3A
  8
0
 62
   151
 10
0.0
 20
0.0
 30
0.0
 70
   128
 71
    34
 72
    28
 73
    32
  0
VERTEX
  5
B3B
  8
0
 62
   151
 10
0.0
 20
0.0
 30
0.0
 70
   128
 71
    21
 72
    32
 73
    28
  0
VERTEX
  5
B3C
  8
0
 62
   151
 10
0.0
 20
0.0
 30
0.0
 70
   128
 71
    25
 72
    30
 73
    36
  0
VERTEX
  5
B3D
  8
0
 62
   151
 10
0.0
 20
0.0
 30
0.0
 70
   128
 71
    34
 72
    30
 73
    27
  0
VERTEX
  5
B3E
  8
0
 62
   151
 10
0.0
 20
0.0
 30
0.0
 70
   128
 71
    24
 72
    36
 73
    31
  0
VERTEX
  5
B3F
  8
0
 62
   151
 10
0.0
 20
0.0
 30
0.0
 70
   128
 71
    36
 72
    24
 73
    25
  0
VERTEX
  5
B40
  8
0
 62
   151
 10
0.0
 20
0.0
 30
0.0
 70
   128
 71
    23
 72
    26
 73
    29
  0
VERTEX
  5
B41
  8
0
 62
   151
 10
0.0
 20
0.0
 30
0.0
 70
   128
 71
    29
 72
    26
 73
    31
  0
VERTEX
  5
B42
  8
0
 62
   151
 10
0.0
 20
0.0
 30
0.0
 70
   128
 71
    10
 72
    23
 73
    11
  0
VERTEX
  5
B43
  8
0
 62
   151
 10
0.0
 20
0.0
 30
0.0
 70
   128
 71
     1
 72
    31
 73
    16
  0
VERTEX
  5
B44
  8
0
 62
   151
 10
0.0
 20
0.0
 30
0.0
 70
   128
 71
     2
 72
     5
 73
     6
  0
VERTEX
  5
B45
  8
0
 62
   151
 10
0.0
 20
0.0
 30
0.0
 70
   128
 71
     2
 72
     6
 73
     8
  0
VERTEX
  5
B46
  8
0
 62
   151
 10
0.0
 20
0.0
 30
0.0
 70
   128
 71
    29
 72
    31
 73
     1
  0
VERTEX
  5
B47
  8
0
 62
   151
 10
0.0
 20
0.0
 30
0.0
 70
   128
 71
    29
 72
     2
 73
     8
  0
VERTEX
  5
B48
  8
0
 62
   151
 10
0.0
 20
0.0
 30
0.0
 70
   128
 71
     1
 72
    16
 73
    14
  0
VERTEX
  5
B49
  8
0
 62
   151
 10
0.0
 20
0.0
 30
0.0
 70
   128
 71
    35
 72
    19
 73
    17
  0
VERTEX
  5
B4A
  8
0
 62
   151
 10
0.0
 20
0.0
 30
0.0
 70
   128
 71
    33
 72
    34
 73
    32
  0
VERTEX
  5
B4B
  8
0
 62
   151
 10
0.0
 20
0.0
 30
0.0
 70
   128
 71
    34
 72
    35
 73
    17
  0
VERTEX
  5
B4C
  8
0
 62
   151
 10
0.0
 20
0.0
 30
0.0
 70
   128
 71
    34
 72
    33
 73
    35
  0
VERTEX
  5
B4D
  8
0
 62
   151
 10
0.0
 20
0.0
 30
0.0
 70
   128
 71
    34
 72
    17
 73
    16
  0
VERTEX
  5
B4E
  8
0
 62
   151
 10
0.0
 20
0.0
 30
0.0
 70
   128
 71
    31
 72
    36
 73
    30
  0
VERTEX
  5
B4F
  8
0
 62
   151
 10
0.0
 20
0.0
 30
0.0
 70
   128
 71
    16
 72
    30
 73
    34
  0
VERTEX
  5
B50
  8
0
 62
   151
 10
0.0
 20
0.0
 30
0.0
 70
   128
 71
    29
 72
     1
 73
     2
  0
VERTEX
  5
B51
  8
0
 62
   151
 10
0.0
 20
0.0
 30
0.0
 70
   128
 71
    30
 72
    16
 73
    31
  0
VERTEX
  5
B52
  8
0
 62
   151
 10
0.0
 20
0.0
 30
0.0
 70
   128
 71
     8
 72
    11
 73
    29
  0
SEQEND
  5
B53
  8
0
 62
   151
  0
ENDBLK
  5
B56
  8
0
  0
ENDSEC
  0
SECTION
  2
ENTITIES
  0
INSERT
  5
B4
  8
LAYER_1
  2
38
 10
0.0
 20
0.0
 30
0.0
  0
INSERT
  5
5AB
  8
LAYER_1
  2
39
 10
0.0
 20
0.0
 30
0.0
  0
INSERT
  5
765
  8
LAYER_1
  2
40
 10
0.0
 20
0.0
 30
0.0
  0
INSERT
  5
8EF
  8
LAYER_1
  2
41
 10
0.0
 20
0.0
 30
0.0
  0
INSERT
  5
AE6
  8
LAYER_1
  2
42
 10
0.0
 20
0.0
 30
0.0
  0
INSERT
  5
B54
  8
LAYER_1
  2
43
 10
0.0
 20
0.0
 30
0.0
  0
ENDSEC
  0
EOF
