  0
SECTION
  2
HEADER
  9
$ACADVER
  1
AC1015
  9
$ACADMAINTVER
 70
     6
  9
$DWGCODEPAGE
  3
ANSI_1252
  9
$INSBASE
 10
0.0
 20
0.0
 30
0.0
  9
$EXTMIN
 10
0.0
 20
0.0
 30
0.0
  9
$EXTMAX
 10
3000.0
 20
4500.0
 30
0.0
  9
$LIMMIN
 10
0.0
 20
0.0
  9
$LIMMAX
 10
3000.0
 20
4500.0
  9
$ORTHOMODE
 70
     0
  9
$REGENMODE
 70
     1
  9
$FILLMODE
 70
     1
  9
$QTEXTMODE
 70
     0
  9
$MIRRTEXT
 70
     1
  9
$LTSCALE
 40
1.0
  9
$ATTMODE
 70
     1
  9
$TEXTSIZE
 40
2.5
  9
$TRACEWID
 40
1.0
  9
$TEXTSTYLE
  7
Standard
  9
$CLAYER
  8
0
  9
$CELTYPE
  6
ByLayer
  9
$CECOLOR
 62
   256
  9
$CELTSCALE
 40
1.0
  9
$DISPSILH
 70
     0
  9
$DIMSCALE
 40
1.0
  9
$DIMASZ
 40
2.5
  9
$DIMEXO
 40
0.625
  9
$DIMDLI
 40
3.75
  9
$DIMRND
 40
0.0
  9
$DIMDLE
 40
0.0
  9
$DIMEXE
 40
1.25
  9
$DIMTP
 40
0.0
  9
$DIMTM
 40
0.0
  9
$DIMTXT
 40
2.5
  9
$DIMCEN
 40
2.5
  9
$DIMTSZ
 40
0.0
  9
$DIMTOL
 70
     0
  9
$DIMLIM
 70
     0
  9
$DIMTIH
 70
     0
  9
$DIMTOH
 70
     0
  9
$DIMSE1
 70
     0
  9
$DIMSE2
 70
     0
  9
$DIMTAD
 70
     1
  9
$DIMZIN
 70
     8
  9
$DIMBLK
  1

  9
$DIMASO
 70
     1
  9
$DIMSHO
 70
     1
  9
$DIMPOST
  1

  9
$DIMAPOST
  1

  9
$DIMALT
 70
     0
  9
$DIMALTD
 70
     3
  9
$DIMALTF
 40
0.0393700787
  9
$DIMLFAC
 40
1.0
  9
$DIMTOFL
 70
     1
  9
$DIMTVP
 40
0.0
  9
$DIMTIX
 70
     0
  9
$DIMSOXD
 70
     0
  9
$DIMSAH
 70
     0
  9
$DIMBLK1
  1

  9
$DIMBLK2
  1

  9
$DIMSTYLE
  2
ISO-25
  9
$DIMCLRD
 70
     0
  9
$DIMCLRE
 70
     0
  9
$DIMCLRT
 70
     0
  9
$DIMTFAC
 40
1.0
  9
$DIMGAP
 40
0.625
  9
$DIMJUST
 70
     0
  9
$DIMSD1
 70
     0
  9
$DIMSD2
 70
     0
  9
$DIMTOLJ
 70
     0
  9
$DIMTZIN
 70
     8
  9
$DIMALTZ
 70
     0
  9
$DIMALTTZ
 70
     0
  9
$DIMUPT
 70
     0
  9
$DIMDEC
 70
     2
  9
$DIMTDEC
 70
     2
  9
$DIMALTU
 70
     2
  9
$DIMALTTD
 70
     3
  9
$DIMTXSTY
  7
Standard
  9
$DIMAUNIT
 70
     0
  9
$DIMADEC
 70
     0
  9
$DIMALTRND
 40
0.0
  9
$DIMAZIN
 70
     0
  9
$DIMDSEP
 70
    44
  9
$DIMATFIT
 70
     3
  9
$DIMFRAC
 70
     0
  9
$DIMLDRBLK
  1

  9
$DIMLUNIT
 70
     2
  9
$DIMLWD
 70
    -2
  9
$DIMLWE
 70
    -2
  9
$DIMTMOVE
 70
     0
  9
$LUNITS
 70
     2
  9
$LUPREC
 70
     4
  9
$SKETCHINC
 40
1.0
  9
$FILLETRAD
 40
10.0
  9
$AUNITS
 70
     0
  9
$AUPREC
 70
     0
  9
$MENU
  1
.
  9
$ELEVATION
 40
0.0
  9
$PELEVATION
 40
0.0
  9
$THICKNESS
 40
0.0
  9
$LIMCHECK
 70
     0
  9
$CHAMFERA
 40
10.0
  9
$CHAMFERB
 40
10.0
  9
$CHAMFERC
 40
20.0
  9
$CHAMFERD
 40
0.0
  9
$SKPOLY
 70
     0
  9
$TDCREATE
 40
2456643.437724676
  9
$TDUCREATE
 40
2456643.396058009
  9
$TDUPDATE
 40
2456643.437724688
  9
$TDUUPDATE
 40
2456643.396058021
  9
$TDINDWG
 40
0.0000000116
  9
$TDUSRTIMER
 40
0.0000000116
  9
$USRTIMER
 70
     1
  9
$ANGBASE
 50
0.0
  9
$ANGDIR
 70
     0
  9
$PDMODE
 70
     0
  9
$PDSIZE
 40
0.0
  9
$PLINEWID
 40
0.0
  9
$SPLFRAME
 70
     0
  9
$SPLINETYPE
 70
     6
  9
$SPLINESEGS
 70
     8
  9
$HANDSEED
  5
16B
  9
$SURFTAB1
 70
     6
  9
$SURFTAB2
 70
     6
  9
$SURFTYPE
 70
     6
  9
$SURFU
 70
     6
  9
$SURFV
 70
     6
  9
$UCSBASE
  2

  9
$UCSNAME
  2

  9
$UCSORG
 10
0.0
 20
0.0
 30
0.0
  9
$UCSXDIR
 10
1.0
 20
0.0
 30
0.0
  9
$UCSYDIR
 10
0.0
 20
1.0
 30
0.0
  9
$UCSORTHOREF
  2

  9
$UCSORTHOVIEW
 70
     0
  9
$UCSORGTOP
 10
0.0
 20
0.0
 30
0.0
  9
$UCSORGBOTTOM
 10
0.0
 20
0.0
 30
0.0
  9
$UCSORGLEFT
 10
0.0
 20
0.0
 30
0.0
  9
$UCSORGRIGHT
 10
0.0
 20
0.0
 30
0.0
  9
$UCSORGFRONT
 10
0.0
 20
0.0
 30
0.0
  9
$UCSORGBACK
 10
0.0
 20
0.0
 30
0.0
  9
$PUCSBASE
  2

  9
$PUCSNAME
  2

  9
$PUCSORG
 10
0.0
 20
0.0
 30
0.0
  9
$PUCSXDIR
 10
1.0
 20
0.0
 30
0.0
  9
$PUCSYDIR
 10
0.0
 20
1.0
 30
0.0
  9
$PUCSORTHOREF
  2

  9
$PUCSORTHOVIEW
 70
     0
  9
$PUCSORGTOP
 10
0.0
 20
0.0
 30
0.0
  9
$PUCSORGBOTTOM
 10
0.0
 20
0.0
 30
0.0
  9
$PUCSORGLEFT
 10
0.0
 20
0.0
 30
0.0
  9
$PUCSORGRIGHT
 10
0.0
 20
0.0
 30
0.0
  9
$PUCSORGFRONT
 10
0.0
 20
0.0
 30
0.0
  9
$PUCSORGBACK
 10
0.0
 20
0.0
 30
0.0
  9
$USERI1
 70
     0
  9
$USERI2
 70
     0
  9
$USERI3
 70
     0
  9
$USERI4
 70
     0
  9
$USERI5
 70
     0
  9
$USERR1
 40
0.0
  9
$USERR2
 40
0.0
  9
$USERR3
 40
0.0
  9
$USERR4
 40
0.0
  9
$USERR5
 40
0.0
  9
$WORLDVIEW
 70
     1
  9
$SHADEDGE
 70
     3
  9
$SHADEDIF
 70
    70
  9
$TILEMODE
 70
     1
  9
$MAXACTVP
 70
    64
  9
$PINSBASE
 10
0.0
 20
0.0
 30
0.0
  9
$PLIMCHECK
 70
     0
  9
$PEXTMIN
 10
0.0
 20
0.0
 30
0.0
  9
$PEXTMAX
 10
3000.0
 20
4500.0
 30
0.0
  9
$PLIMMIN
 10
0.0
 20
0.0
  9
$PLIMMAX
 10
3000.0
 20
4500.0
  9
$UNITMODE
 70
     0
  9
$VISRETAIN
 70
     1
  9
$PLINEGEN
 70
     0
  9
$PSLTSCALE
 70
     1
  9
$TREEDEPTH
 70
  3020
  9
$CMLSTYLE
  2
Standard
  9
$CMLJUST
 70
     0
  9
$CMLSCALE
 40
20.0
  9
$PROXYGRAPHICS
 70
     1
  9
$MEASUREMENT
 70
     1
  9
$CELWEIGHT
370
    -1
  9
$ENDCAPS
280
     0
  9
$JOINSTYLE
280
     0
  9
$LWDISPLAY
290
     0
  9
$INSUNITS
 70
     4
  9
$HYPERLINKBASE
  1

  9
$STYLESHEET
  1

  9
$XEDIT
290
     1
  9
$CEPSNTYPE
380
     0
  9
$PSTYLEMODE
290
     1
  9
$FINGERPRINTGUID
  2
{310A759C-F372-447C-8F73-E6EDFE64CC0F}
  9
$VERSIONGUID
  2
{FAEB1C32-E019-11D5-929B-00C0DF256EC4}
  9
$EXTNAMES
290
     1
  9
$PSVPSCALE
 40
0.0
  9
$OLESTARTUP
290
     0
  0
ENDSEC
  0
SECTION
  2
CLASSES
  0
CLASS
  1
ACDBDICTIONARYWDFLT
  2
AcDbDictionaryWithDefault
  3
ObjectDBX Classes
 90
        0
280
     0
281
     0
  0
CLASS
  1
VISUALSTYLE
  2
AcDbVisualStyle
  3
ObjectDBX Classes
 90
     4095
280
     0
281
     0
  0
CLASS
  1
SCALE
  2
AcDbScale
  3
ObjectDBX Classes
 90
     1153
280
     0
281
     0
  0
CLASS
  1
DICTIONARYVAR
  2
AcDbDictionaryVar
  3
ObjectDBX Classes
 90
        0
280
     0
281
     0
  0
CLASS
  1
ACDBPLACEHOLDER
  2
AcDbPlaceHolder
  3
ObjectDBX Classes
 90
        0
280
     0
281
     0
  0
CLASS
  1
LAYOUT
  2
AcDbLayout
  3
ObjectDBX Classes
 90
        0
280
     0
281
     0
  0
ENDSEC
  0
SECTION
  2
TABLES
  0
TABLE
  2
VPORT
  5
8
330
0
100
AcDbSymbolTable
 70
     1
  0
VPORT
  5
29
330
8
100
AcDbSymbolTableRecord
100
AcDbViewportTableRecord
  2
*Active
 70
     0
 10
0.0
 20
0.0
 11
1.0
 21
1.0
 12
344.1869158879
 22
148.5
 13
0.0
 23
0.0
 14
10.0
 24
10.0
 15
10.0
 25
10.0
 16
0.0
 26
0.0
 36
1.0
 17
0.0
 27
0.0
 37
0.0
 40
297.0
 41
1.9729729729
 42
50.0
 43
0.0
 44
0.0
 50
0.0
 51
0.0
 71
     0
 72
   100
 73
     1
 74
     3
 75
     0
 76
     0
 77
     0
 78
     0
281
     0
 65
     1
110
0.0
120
0.0
130
0.0
111
1.0
121
0.0
131
0.0
112
0.0
122
1.0
132
0.0
 79
     0
146
0.0
  0
ENDTAB
  0
TABLE
  2
LTYPE
  5
5
330
0
100
AcDbSymbolTable
 70
     2
  0
LTYPE
  5
14
330
5
100
AcDbSymbolTableRecord
100
AcDbLinetypeTableRecord
  2
ByBlock
 70
     0
  3

 72
    65
 73
     0
 40
0.0
  0
LTYPE
  5
15
330
5
100
AcDbSymbolTableRecord
100
AcDbLinetypeTableRecord
  2
ByLayer
 70
     0
  3

 72
    65
 73
     0
 40
0.0
  0
LTYPE
  5
16
330
5
100
AcDbSymbolTableRecord
100
AcDbLinetypeTableRecord
  2
Continuous
 70
     0
  3
Solid line
 72
    65
 73
     0
 40
0.0
  0
LTYPE
  5
60
330
5
100
AcDbSymbolTableRecord
100
AcDbLinetypeTableRecord
  2
CENTER2
 70
     0
  3
Center (.5x) ___ _ ___ _ ___ _ ___ _ ___ _ ___
 72
    65
 73
     4
 40
28.575
 49
19.05
 74
     4
 75
     0
340
0
 46
0.0
 50
0.0
 44
0.0
 45
0.0
 49
-3.175
 74
     4
 75
     0
340
0
 46
0.0
 50
0.0
 44
0.0
 45
0.0
 49
3.175
 74
     4
 75
     0
340
0
 46
0.0
 50
0.0
 44
0.0
 45
0.0
 49
-3.175
 74
     4
 75
     0
340
0
 46
0.0
 50
0.0
 44
0.0
 45
0.0
  0
ENDTAB
  0
TABLE
  2
LAYER
  5
2
330
0
100
AcDbSymbolTable
 70
     5
  0
LAYER
  5
10
330
2
100
AcDbSymbolTableRecord
100
AcDbLayerTableRecord
  2
0
 70
     0
 62
     7
  6
Continuous
370
    -3
390
F
  0
LAYER
  5
5D
330
2
100
AcDbSymbolTableRecord
100
AcDbLayerTableRecord
  2
Default
 70
     0
 62
     7
  6
Continuous
370
    -3
390
F
  0
LAYER
  5
8B
330
2
100
AcDbSymbolTableRecord
100
AcDbLayerTableRecord
  2
DV1_Standard
 70
     0
 62
     7
  6
Continuous
370
    -3
390
F
  0
LAYER
  5
A7
330
2
100
AcDbSymbolTableRecord
100
AcDbLayerTableRecord
  2
DV2_Standard
 70
     0
 62
     7
  6
Continuous
370
    -3
390
F
  0
LAYER
  5
12F
330
2
100
AcDbSymbolTableRecord
100
AcDbLayerTableRecord
  2
DV3_Standard
 70
     0
 62
     7
  6
Continuous
370
    -3
390
F
  0
ENDTAB
  0
TABLE
  2
STYLE
  5
3
330
0
100
AcDbSymbolTable
 70
     2
  0
STYLE
  5
11
330
3
100
AcDbSymbolTableRecord
100
AcDbTextStyleTableRecord
  2
Standard
 70
     0
 40
0.0
 41
1.0
 50
0.0
 71
     0
 42
2.5
  3
txt
  4

  0
STYLE
  5
15A
330
3
100
AcDbSymbolTableRecord
100
AcDbTextStyleTableRecord
  2
SEACAD_seiso_ttf
 70
     0
 40
0.0
 41
1.0
 50
0.0
 71
     0
 42
0.2
  3
seiso.ttf
  4

  0
ENDTAB
  0
TABLE
  2
VIEW
  5
6
330
0
100
AcDbSymbolTable
 70
     0
  0
ENDTAB
  0
TABLE
  2
UCS
  5
7
330
0
100
AcDbSymbolTable
 70
     0
  0
ENDTAB
  0
TABLE
  2
APPID
  5
9
330
0
100
AcDbSymbolTable
 70
     1
  0
APPID
  5
12
330
9
100
AcDbSymbolTableRecord
100
AcDbRegAppTableRecord
  2
ACAD
 70
     0
  0
ENDTAB
  0
TABLE
  2
DIMSTYLE
  5
A
330
0
100
AcDbSymbolTable
 70
     1
100
AcDbDimStyleTable
  0
DIMSTYLE
105
27
330
A
100
AcDbSymbolTableRecord
100
AcDbDimStyleTableRecord
  2
ISO-25
 70
     0
 41
2.5
 42
0.625
 43
3.75
 44
1.25
 73
     0
 74
     0
 77
     1
 78
     8
140
2.5
141
2.5
143
0.0393700787
147
0.625
171
     3
172
     1
271
     2
272
     2
274
     3
278
    44
283
     0
284
     8
340
11
  0
ENDTAB
  0
TABLE
  2
BLOCK_RECORD
  5
1
330
0
100
AcDbSymbolTable
 70
    10
  0
BLOCK_RECORD
  5
1F
330
1
100
AcDbSymbolTableRecord
100
AcDbBlockTableRecord
  2
*Model_Space
340
22
  0
BLOCK_RECORD
  5
1B
330
1
100
AcDbSymbolTableRecord
100
AcDbBlockTableRecord
  2
*Paper_Space
340
1E
  0
BLOCK_RECORD
  5
5E
330
1
100
AcDbSymbolTableRecord
100
AcDbBlockTableRecord
  2
SEANNOT_GROUP
340
0
102
{BLKREFS
331
5F
102
}
  0
BLOCK_RECORD
  5
65
330
1
100
AcDbSymbolTableRecord
100
AcDbBlockTableRecord
  2
SEANNOT_GROUP1
340
0
102
{BLKREFS
331
66
102
}
  0
BLOCK_RECORD
  5
6F
330
1
100
AcDbSymbolTableRecord
100
AcDbBlockTableRecord
  2
SEANNOT_GROUP2
340
0
102
{BLKREFS
331
70
102
}
  0
BLOCK_RECORD
  5
75
330
1
100
AcDbSymbolTableRecord
100
AcDbBlockTableRecord
  2
SEANNOT_GROUP3
340
0
102
{BLKREFS
331
76
102
}
  0
BLOCK_RECORD
  5
7C
330
1
100
AcDbSymbolTableRecord
100
AcDbBlockTableRecord
  2
SEANNOT_GROUP4
340
0
102
{BLKREFS
331
7D
102
}
  0
BLOCK_RECORD
  5
83
330
1
100
AcDbSymbolTableRecord
100
AcDbBlockTableRecord
  2
SEANNOT_GROUP5
340
0
102
{BLKREFS
331
84
102
}
  0
BLOCK_RECORD
  5
89
330
1
100
AcDbSymbolTableRecord
100
AcDbBlockTableRecord
  2
SE
340
0
102
{BLKREFS
331
8A
102
}
  0
BLOCK_RECORD
  5
A5
330
1
100
AcDbSymbolTableRecord
100
AcDbBlockTableRecord
  2
SE1
340
0
102
{BLKREFS
331
A6
102
}
  0
BLOCK_RECORD
  5
12D
330
1
100
AcDbSymbolTableRecord
100
AcDbBlockTableRecord
  2
SE2
340
0
102
{BLKREFS
331
12E
102
}
  0
ENDTAB
  0
ENDSEC
  0
SECTION
  2
BLOCKS
  0
BLOCK
  5
20
330
1F
100
AcDbEntity
  8
0
100
AcDbBlockBegin
  2
*Model_Space
 70
     0
 10
0.0
 20
0.0
 30
0.0
  3
*Model_Space
  1

  0
ENDBLK
  5
21
330
1F
100
AcDbEntity
  8
0
100
AcDbBlockEnd
  0
BLOCK
  5
1C
330
1B
100
AcDbEntity
 67
     1
  8
0
100
AcDbBlockBegin
  2
*Paper_Space
 70
     0
 10
0.0
 20
0.0
 30
0.0
  3
*Paper_Space
  1

  0
ENDBLK
  5
1D
330
1B
100
AcDbEntity
 67
     1
  8
0
100
AcDbBlockEnd
  0
BLOCK
  5
63
330
5E
100
AcDbEntity
  8
0
100
AcDbBlockBegin
  2
SEANNOT_GROUP
 70
     0
 10
0.0
 20
0.0
 30
0.0
  3
SEANNOT_GROUP
  1

  0
LINE
  5
61
330
5E
100
AcDbEntity
  8
Default
  6
CENTER2
 62
     7
100
AcDbLine
 10
51.349999553
 20
194.3500871338
 30
0.0
 11
11.350000447
 21
194.3500871338
 31
0.0
  0
LINE
  5
62
330
5E
100
AcDbEntity
  8
Default
  6
CENTER2
 62
     7
100
AcDbLine
 10
31.35
 20
214.3500866868
 30
0.0
 11
31.35
 21
174.3500875808
 31
0.0
  0
ENDBLK
  5
64
330
5E
100
AcDbEntity
  8
0
100
AcDbBlockEnd
  0
BLOCK
  5
6D
330
65
100
AcDbEntity
  8
0
100
AcDbBlockBegin
  2
SEANNOT_GROUP1
 70
     0
 10
0.0
 20
0.0
 30
0.0
  3
SEANNOT_GROUP1
  1

  0
LINE
  5
67
330
65
100
AcDbEntity
  8
Default
  6
CENTER2
 62
     7
100
AcDbLine
 10
51.349999553
 20
331.2080089166
 30
0.0
 11
11.350000447
 21
331.2080089166
 31
0.0
  0
LINE
  5
68
330
65
100
AcDbEntity
  8
Default
  6
CENTER2
 62
     7
100
AcDbLine
 10
31.35
 20
351.2080084696
 30
0.0
 11
31.35
 21
311.2080093637
 31
0.0
  0
LINE
  5
69
330
65
100
AcDbEntity
  8
Default
  6
CENTER2
 62
     7
100
AcDbLine
 10
56.3499994412
 20
331.2080089166
 30
0.0
 11
51.1
 21
331.2080089166
 31
0.0
  0
LINE
  5
6A
330
65
100
AcDbEntity
  8
Default
  6
CENTER2
 62
     7
100
AcDbLine
 10
31.35
 20
356.2080083578
 30
0.0
 11
31.35
 21
350.9580089166
 31
0.0
  0
LINE
  5
6B
330
65
100
AcDbEntity
  8
Default
  6
CENTER2
 62
     7
100
AcDbLine
 10
6.3500005588
 20
331.2080089166
 30
0.0
 11
11.6
 21
331.2080089166
 31
0.0
  0
LINE
  5
6C
330
65
100
AcDbEntity
  8
Default
  6
CENTER2
 62
     7
100
AcDbLine
 10
31.35
 20
306.2080094754
 30
0.0
 11
31.35
 21
311.4580089166
 31
0.0
  0
ENDBLK
  5
6E
330
65
100
AcDbEntity
  8
0
100
AcDbBlockEnd
  0
BLOCK
  5
73
330
6F
100
AcDbEntity
  8
0
100
AcDbBlockBegin
  2
SEANNOT_GROUP2
 70
     0
 10
0.0
 20
0.0
 30
0.0
  3
SEANNOT_GROUP2
  1

  0
LINE
  5
71
330
6F
100
AcDbEntity
  8
Default
  6
CENTER2
 62
     7
100
AcDbLine
 10
156.2283073822
 20
331.2080089166
 30
0.0
 11
116.2283082763
 21
331.2080089166
 31
0.0
  0
LINE
  5
72
330
6F
100
AcDbEntity
  8
Default
  6
CENTER2
 62
     7
100
AcDbLine
 10
136.2283078293
 20
351.2080084696
 30
0.0
 11
136.2283078293
 21
311.2080093637
 31
0.0
  0
ENDBLK
  5
74
330
6F
100
AcDbEntity
  8
0
100
AcDbBlockEnd
  0
BLOCK
  5
79
330
75
100
AcDbEntity
  8
0
100
AcDbBlockBegin
  2
SEANNOT_GROUP3
 70
     0
 10
0.0
 20
0.0
 30
0.0
  3
SEANNOT_GROUP3
  1

  0
LINE
  5
77
330
75
100
AcDbEntity
  8
Default
  6
CENTER2
 62
     7
100
AcDbLine
 10
189.7283073822
 20
301.2080089166
 30
0.0
 11
149.7283082763
 21
301.2080089166
 31
0.0
  0
LINE
  5
78
330
75
100
AcDbEntity
  8
Default
  6
CENTER2
 62
     7
100
AcDbLine
 10
169.7283078293
 20
321.2080084696
 30
0.0
 11
169.7283078293
 21
281.2080093637
 31
0.0
  0
ENDBLK
  5
7A
330
75
100
AcDbEntity
  8
0
100
AcDbBlockEnd
  0
BLOCK
  5
80
330
7C
100
AcDbEntity
  8
0
100
AcDbBlockBegin
  2
SEANNOT_GROUP4
 70
     0
 10
0.0
 20
0.0
 30
0.0
  3
SEANNOT_GROUP4
  1

  0
LINE
  5
7E
330
7C
100
AcDbEntity
  8
Default
  6
CENTER2
 62
     7
100
AcDbLine
 10
51.3604016282
 20
301.2080089166
 30
0.0
 11
11.3604025223
 21
301.2080089166
 31
0.0
  0
LINE
  5
7F
330
7C
100
AcDbEntity
  8
Default
  6
CENTER2
 62
     7
100
AcDbLine
 10
31.3604020753
 20
321.2080084696
 30
0.0
 11
31.3604020753
 21
281.2080093637
 31
0.0
  0
ENDBLK
  5
81
330
7C
100
AcDbEntity
  8
0
100
AcDbBlockEnd
  0
BLOCK
  5
87
330
83
100
AcDbEntity
  8
0
100
AcDbBlockBegin
  2
SEANNOT_GROUP5
 70
     0
 10
0.0
 20
0.0
 30
0.0
  3
SEANNOT_GROUP5
  1

  0
LINE
  5
85
330
83
100
AcDbEntity
  8
Default
  6
CENTER2
 62
     7
100
AcDbLine
 10
51.349999553
 20
160.8500871338
 30
0.0
 11
11.350000447
 21
160.8500871338
 31
0.0
  0
LINE
  5
86
330
83
100
AcDbEntity
  8
Default
  6
CENTER2
 62
     7
100
AcDbLine
 10
31.35
 20
180.8500866868
 30
0.0
 11
31.35
 21
140.8500875808
 31
0.0
  0
ENDBLK
  5
88
330
83
100
AcDbEntity
  8
0
100
AcDbBlockEnd
  0
BLOCK
  5
A3
330
89
100
AcDbEntity
  8
0
100
AcDbBlockBegin
  2
SE
 70
     0
 10
0.0
 20
0.0
 30
0.0
  3
SE
  1

  0
ARC
  5
8C
330
89
100
AcDbEntity
  8
DV1_Standard
  6
Continuous
 62
     7
100
AcDbCircle
 10
31.35
 20
331.2080089166
 30
0.0
 40
16.0
100
AcDbArc
 50
210.5851718111
 51
215.9992520162
  0
ARC
  5
8D
330
89
100
AcDbEntity
  8
DV1_Standard
  6
Continuous
 62
     7
100
AcDbCircle
 10
31.35
 20
331.2080089166
 30
0.0
 40
16.0
100
AcDbArc
 50
324.070632829
 51
324.8873098367
  0
ARC
  5
8E
330
89
100
AcDbEntity
  8
DV1_Standard
  6
Continuous
 62
     7
100
AcDbCircle
 10
31.35
 20
331.2080089166
 30
0.0
 40
16.0
100
AcDbArc
 50
354.4220153001
 51
0.0
  0
ARC
  5
8F
330
89
100
AcDbEntity
  8
DV1_Standard
  6
Continuous
 62
     7
100
AcDbCircle
 10
31.3497690038
 20
331.2129260403
 30
0.0
 40
15.51619066089209
100
AcDbArc
 50
324.6787858909
 51
89.9905884183
  0
ARC
  5
90
330
89
100
AcDbEntity
  8
DV1_Standard
  6
Continuous
 62
     7
100
AcDbCircle
 10
31.4410740104
 20
331.246836198
 30
0.0
 40
15.60870664019726
100
AcDbArc
 50
180.0613005191
 51
215.236202936
  0
ARC
  5
91
330
89
100
AcDbEntity
  8
DV1_Standard
  6
Continuous
 62
     7
100
AcDbCircle
 10
13307.6340524769
 20
304.6710648948
 30
0.0
 40
13286.42057734735
100
AcDbArc
 50
179.9579493951
 51
180.0854420696
  0
ARC
  5
92
330
89
100
AcDbEntity
  8
DV1_Standard
  6
Continuous
 62
     7
100
AcDbCircle
 10
-13278.5102373421
 20
304.7023815271
 30
0.0
 40
13319.99671608363
100
AcDbArc
 50
359.9146384252
 51
0.0418078874
  0
ARC
  5
93
330
89
100
AcDbEntity
  8
DV1_Standard
  6
Continuous
 62
     7
100
AcDbCircle
 10
51.5143088693
 20
315.4988773469
 30
0.0
 40
10.08903529521139
100
AcDbArc
 50
138.0585919099
 51
186.1284950891
  0
ARC
  5
94
330
89
100
AcDbEntity
  8
DV1_Standard
  6
Continuous
 62
     7
100
AcDbCircle
 10
51.8195267724
 20
315.300505014
 30
0.0
 40
9.963239767579639
100
AcDbArc
 50
138.1107963736
 51
147.4710265853
  0
ARC
  5
95
330
89
100
AcDbEntity
  8
DV1_Standard
  6
Continuous
 62
     7
100
AcDbCircle
 10
31.3513138177
 20
331.2085485291
 30
0.0
 40
16.00004019845302
100
AcDbArc
 50
324.6564625837
 51
89.9985329481
  0
ARC
  5
96
330
89
100
AcDbEntity
  8
DV1_Standard
  6
Continuous
 62
     7
100
AcDbCircle
 10
31.3516431205
 20
331.2078585874
 30
0.0
 40
16.00109312342455
100
AcDbArc
 50
179.9226816997
 51
215.3398519219
  0
ARC
  5
97
330
89
100
AcDbEntity
  8
DV1_Standard
  6
Continuous
 62
     7
100
AcDbCircle
 10
31.3511531162
 20
331.2079857841
 30
0.0
 40
16.00060294837082
100
AcDbArc
 50
89.9979575514
 51
179.9231348039
  0
ARC
  5
98
330
89
100
AcDbEntity
  8
DV1_Standard
  6
Continuous
 62
     7
100
AcDbCircle
 10
10.9958839098
 20
315.3400056589
 30
0.0
 40
9.851870187269101
100
AcDbArc
 50
32.6443556711
 51
42.1585174806
  0
ARC
  5
99
330
89
100
AcDbEntity
  8
DV1_Standard
  6
Continuous
 62
     7
100
AcDbCircle
 10
51.4537541178
 20
315.4332285467
 30
0.0
 40
9.536065292556428
100
AcDbArc
 50
146.9706272908
 51
186.0880421355
  0
SPLINE
  5
9A
330
89
100
AcDbEntity
  8
DV1_Standard
  6
Continuous
 62
     7
100
AcDbSpline
210
0.0
220
0.0
230
1.0
 70
     8
 71
     3
 72
    18
 73
    14
 74
     0
 42
0.0000000015383676
 43
0.0000000001
 40
0.0
 40
0.0
 40
0.0
 40
0.0
 40
0.0650791211500158
 40
0.1450978869556936
 40
0.2122457143999711
 40
0.2667449771383512
 40
0.3147143729074606
 40
0.3851965876720405
 40
0.4730327518067886
 40
0.5785588349027945
 40
0.7023299667112844
 40
0.845070297137269
 40
1.0
 40
1.0
 40
1.0
 40
1.0
 10
19.24807824076063
 20
320.6248211908458
 30
0.0
 10
19.33457493264435
 20
320.4961804071635
 30
0.0
 10
19.49661753294228
 20
320.2531993654968
 30
0.0
 10
19.73096925312683
 20
319.8456712049828
 30
0.0
 10
19.92711823820493
 20
319.4579215133617
 30
0.0
 10
20.07585769270547
 20
319.1213921486447
 30
0.0
 10
20.2118116301844
 20
318.7724183515531
 30
0.0
 10
20.35253504355752
 20
318.3480393603433
 30
0.0
 10
20.4952405183444
 20
317.7944100685928
 30
0.0
 10
20.61602269211217
 20
317.116790100172
 30
0.0
 10
20.6969595758103
 20
316.3182913971468
 30
0.0
 10
20.72904533830827
 20
315.3881715781024
 30
0.0
 10
20.73005597575959
 20
314.7914243427391
 30
0.0
 10
20.7285960630795
 20
314.4223448853752
 30
0.0
  0
ARC
  5
9B
330
89
100
AcDbEntity
  8
DV1_Standard
  6
Continuous
 62
     7
100
AcDbCircle
 10
8160.8588318752
 20
303.1489087081
 30
0.0
 40
8140.137888286033
100
AcDbArc
 50
179.920649796
 51
180.1287345798
  0
ARC
  5
9C
330
89
100
AcDbEntity
  8
DV1_Standard
  6
Continuous
 62
     7
100
AcDbCircle
 10
31.3411629685
 20
284.9161675196
 30
0.0
 40
10.59641647689886
100
AcDbArc
 50
180.3072745746
 51
270.0478253582
  0
ARC
  5
9D
330
89
100
AcDbEntity
  8
DV1_Standard
  6
Continuous
 62
     7
100
AcDbCircle
 10
31.3586536755
 20
284.9156620454
 30
0.0
 40
10.59591081647408
100
AcDbArc
 50
269.9532489973
 51
359.6953805611
  0
ARC
  5
9E
330
89
100
AcDbEntity
  8
DV1_Standard
  6
Continuous
 62
     7
100
AcDbCircle
 10
-3134.7750142745
 20
300.9717744082
 30
0.0
 40
3176.7746522295
100
AcDbArc
 50
359.7093962955
 51
0.24258477
  0
ARC
  5
9F
330
89
100
AcDbEntity
  8
DV1_Standard
  6
Continuous
 62
     7
100
AcDbCircle
 10
31.35
 20
331.2080089166
 30
0.0
 40
25.0
100
AcDbArc
 50
0.0
 51
244.8402364992
  0
ARC
  5
A0
330
89
100
AcDbEntity
  8
DV1_Standard
  6
Continuous
 62
     7
100
AcDbCircle
 10
31.35
 20
331.2080089166
 30
0.0
 40
25.0
100
AcDbArc
 50
295.1578494057
 51
0.0
  0
ARC
  5
A1
330
89
100
AcDbEntity
  8
DV1_Standard
  6
Continuous
 62
     7
100
AcDbCircle
 10
31.35
 20
331.2080089166
 30
0.0
 40
16.25
100
AcDbArc
 50
0.0
 51
224.0588928507
  0
ARC
  5
A2
330
89
100
AcDbEntity
  8
DV1_Standard
  6
Continuous
 62
     7
100
AcDbCircle
 10
31.35
 20
331.2080089166
 30
0.0
 40
16.25
100
AcDbArc
 50
315.9592677539
 51
0.0
  0
ENDBLK
  5
A4
330
89
100
AcDbEntity
  8
0
100
AcDbBlockEnd
  0
BLOCK
  5
12B
330
A5
100
AcDbEntity
  8
0
100
AcDbBlockBegin
  2
SE1
 70
     0
 10
0.0
 20
0.0
 30
0.0
  3
SE1
  1

  0
LINE
  5
A8
330
A5
100
AcDbEntity
  8
DV2_Standard
  6
Continuous
 62
     7
100
AcDbLine
 10
178.728248268
 20
301.2080089166
 30
0.0
 11
160.7283673905
 21
301.2080089166
 31
0.0
  0
SPLINE
  5
A9
330
A5
100
AcDbEntity
  8
DV2_Standard
  6
Continuous
 62
     7
100
AcDbSpline
210
0.0
220
0.0
230
1.0
 70
     8
 71
     3
 72
     8
 73
     4
 74
     0
 42
0.0000007735115276
 43
0.0000000001
 40
0.0
 40
0.0
 40
0.0
 40
0.0
 40
1.0
 40
1.0
 40
1.0
 40
1.0
 10
179.3309848065551
 20
301.8224461306112
 30
0.0
 10
179.3358167847154
 20
301.8195000670684
 30
0.0
 10
179.336789327546
 20
301.8165540035255
 30
0.0
 10
179.3338432835924
 20
301.8136079399827
 30
0.0
  0
SPLINE
  5
AA
330
A5
100
AcDbEntity
  8
DV2_Standard
  6
Continuous
 62
     7
100
AcDbSpline
210
0.0
220
0.0
230
1.0
 70
     8
 71
     3
 72
    22
 73
    18
 74
     0
 42
0.0000000004740115
 43
0.0000000001
 40
0.0
 40
0.0
 40
0.0
 40
0.0
 40
0.125
 40
0.125
 40
0.2500000000000001
 40
0.2500000000000001
 40
0.3750000000000001
 40
0.3750000000000001
 40
0.5000000000000001
 40
0.5000000000000001
 40
0.6250000000000001
 40
0.6250000000000001
 40
0.7500000000000002
 40
0.7500000000000002
 40
0.8750000000000002
 40
0.8750000000000002
 40
1.0
 40
1.0
 40
1.0
 40
1.0
 10
180.2283078292524
 20
304.9251885935927
 30
0.0
 10
180.2283078292524
 20
304.887396926926
 30
0.0
 10
179.9550209342697
 20
304.8496052602594
 30
0.0
 10
178.9030649069721
 20
304.774021926926
 30
0.0
 10
178.1248096744333
 20
304.7362302602594
 30
0.0
 10
176.181048388989
 20
304.660646926926
 30
0.0
 10
175.0163071231469
 20
304.6228552602593
 30
0.0
 10
172.4766606150249
 20
304.547271926926
 30
0.0
 10
171.1027546151979
 20
304.5094802602594
 30
0.0
 10
168.3538610433069
 20
304.433896926926
 30
0.0
 10
166.9799550434799
 20
304.3961052602593
 30
0.0
 10
164.440308535358
 20
304.320521926926
 30
0.0
 10
163.2755672695158
 20
304.2827302602594
 30
0.0
 10
161.3318059840715
 20
304.207146926926
 30
0.0
 10
160.5535507515327
 20
304.1693552602594
 30
0.0
 10
159.501594724235
 20
304.093771926926
 30
0.0
 10
159.2283078292524
 20
304.0559802602594
 30
0.0
 10
159.2283078292524
 20
304.0181885935927
 30
0.0
  0
ARC
  5
AB
330
A5
100
AcDbEntity
  8
DV2_Standard
  6
Continuous
 62
     7
100
AcDbCircle
 10
169.8818188306
 20
190.4017130421
 30
0.0
 40
114.9898964561339
100
AcDbArc
 50
84.837694525
 51
84.843692867
  0
SPLINE
  5
AC
330
A5
100
AcDbEntity
  8
DV2_Standard
  6
Continuous
 62
     7
100
AcDbSpline
210
0.0
220
0.0
230
1.0
 70
     8
 71
     3
 72
    11
 73
     7
 74
     0
 42
0.0000000009756109
 43
0.0000000001
 40
0.0
 40
0.0
 40
0.0
 40
0.0
 40
0.2573314439404386
 40
0.5829585554294068
 40
0.9085856669194136
 40
1.0
 40
1.0
 40
1.0
 40
1.0
 10
168.8137125349824
 20
301.5080704636226
 30
0.0
 10
170.1378955521022
 20
301.5493777042204
 30
0.0
 10
173.2027380111593
 20
301.642955111391
 30
0.0
 10
177.2193323709124
 20
301.7888026851349
 30
0.0
 10
178.8632658724135
 20
301.9080169881348
 30
0.0
 10
179.0268194923995
 20
301.9749611245628
 30
0.0
 10
179.026827660936
 20
301.9896350944161
 30
0.0
  0
SPLINE
  5
AD
330
A5
100
AcDbEntity
  8
DV2_Standard
  6
Continuous
 62
     7
100
AcDbSpline
210
0.0
220
0.0
230
1.0
 70
     8
 71
     3
 72
    13
 73
     9
 74
     0
 42
0.0000000005357611
 43
0.0000000001
 40
0.0
 40
0.0
 40
0.0
 40
0.0
 40
0.1469708701808722
 40
0.3227410520154059
 40
0.4985112338493793
 40
0.6742814156839132
 40
0.8500515975184472
 40
1.0
 40
1.0
 40
1.0
 40
1.0
 10
160.4418004412902
 20
302.9121690191736
 30
0.0
 10
160.5175288867841
 20
302.9558749070878
 30
0.0
 10
161.3880775528255
 20
303.0518509615747
 30
0.0
 10
164.8664627429024
 20
303.200097182635
 30
0.0
 10
169.9451693583524
 20
303.3569076823565
 30
0.0
 10
174.9614572540024
 20
303.513718182085
 30
0.0
 10
178.2996179296937
 20
303.6628498554313
 30
0.0
 10
179.0274878251902
 20
303.7597113622044
 30
0.0
 10
179.0277393070912
 20
303.8043027024045
 30
0.0
  0
SPLINE
  5
AE
330
A5
100
AcDbEntity
  8
DV2_Standard
  6
Continuous
 62
     7
100
AcDbSpline
210
0.0
220
0.0
230
1.0
 70
     8
 71
     3
 72
    14
 73
    10
 74
     0
 42
0.0000000005363815
 43
0.0000000001
 40
0.0
 40
0.0
 40
0.0
 40
0.0
 40
0.0470547000292965
 40
0.222912567503794
 40
0.3987704349777311
 40
0.5746283024522286
 40
0.7504861699267268
 40
0.9263440374006633
 40
1.0
 40
1.0
 40
1.0
 40
1.0
 10
160.4426757919467
 20
304.7262440284782
 30
0.0
 10
160.4658811977168
 20
304.7402300789402
 30
0.0
 10
160.7299667503586
 20
304.8064862959765
 30
0.0
 10
162.5229772908324
 20
304.9250126795849
 30
0.0
 10
166.9690239964724
 20
305.0818231793051
 30
0.0
 10
172.2092693415424
 20
305.2386336790307
 30
0.0
 10
176.7354227713124
 20
305.3954441787549
 30
0.0
 10
178.7586384907731
 20
305.5218772454453
 30
0.0
 10
179.0263876214354
 20
305.5960401455623
 30
0.0
 10
179.026153393278
 20
305.6179328791061
 30
0.0
  0
ARC
  5
AF
330
A5
100
AcDbEntity
  8
DV2_Standard
  6
Continuous
 62
     7
100
AcDbCircle
 10
169.0281285675
 20
475.3903974219
 30
0.0
 40
173.8824591574882
100
AcDbArc
 50
269.9293480384
 51
273.397813698
  0
ARC
  5
B0
330
A5
100
AcDbEntity
  8
DV2_Standard
  6
Continuous
 62
     7
100
AcDbCircle
 10
170.6768323843
 20
108.0156806455
 30
0.0
 40
194.6943631581914
100
AcDbArc
 50
89.7425537215
 51
93.2773887444
  0
SPLINE
  5
B1
330
A5
100
AcDbEntity
  8
DV2_Standard
  6
Continuous
 62
     7
100
AcDbSpline
210
0.0
220
0.0
230
1.0
 70
     8
 71
     3
 72
    12
 73
     8
 74
     0
 42
0.0000000011480499
 43
0.0000000001
 40
0.0
 40
0.0
 40
0.0
 40
0.0
 40
0.4062396095224678
 40
0.4062396095224678
 40
0.8124792190449355
 40
0.8124792190449355
 40
1.0
 40
1.0
 40
1.0
 40
1.0
 10
171.5516467424624
 20
302.7080784051727
 30
0.0
 10
173.5067863371891
 20
302.7619650868182
 30
0.0
 10
175.3579625196792
 20
302.8165730099399
 30
0.0
 10
178.2852039504046
 20
302.9257888561855
 30
0.0
 10
179.3552774398703
 20
302.9803967793077
 30
0.0
 10
180.107163333841
 20
303.0602117973294
 30
0.0
 10
180.2249887857631
 20
303.0854188922305
 30
0.0
 10
180.2244454562649
 20
303.1106259871316
 30
0.0
  0
LINE
  5
B2
330
A5
100
AcDbEntity
  8
DV2_Standard
  6
Continuous
 62
     7
100
AcDbLine
 10
177.204162754
 20
302.7080784052
 30
0.0
 11
171.5516467425
 21
302.7080784052
 31
0.0
  0
SPLINE
  5
B3
330
A5
100
AcDbEntity
  8
DV2_Standard
  6
Continuous
 62
     7
100
AcDbSpline
210
0.0
220
0.0
230
1.0
 70
     8
 71
     3
 72
     8
 73
     4
 74
     0
 42
0.0000005069962611
 43
0.0000000001
 40
0.0
 40
0.0
 40
0.0
 40
0.0
 40
0.9999999999999999
 40
0.9999999999999999
 40
0.9999999999999999
 40
0.9999999999999999
 10
159.2283078292524
 20
303.8398292396427
 30
0.0
 10
159.2311908484332
 20
303.8351524670165
 30
0.0
 10
159.2340436414711
 20
303.8304233419622
 30
0.0
 10
159.2413729171968
 20
303.8257228558094
 30
0.0
  0
SPLINE
  5
B4
330
A5
100
AcDbEntity
  8
DV2_Standard
  6
Continuous
 62
     7
100
AcDbSpline
210
0.0
220
0.0
230
1.0
 70
     8
 71
     3
 72
    13
 73
     9
 74
     0
 42
0.0000000033062566
 43
0.0000000001
 40
0.0
 40
0.0
 40
0.0
 40
0.0
 40
0.3278486667475997
 40
0.5009278017264267
 40
0.6638861045278406
 40
0.8054794129476396
 40
0.9175043936432667
 40
0.9999999999999999
 40
0.9999999999999999
 40
0.9999999999999999
 40
0.9999999999999999
 10
180.2153281050255
 20
302.9190776468576
 30
0.0
 10
180.1740828840733
 20
302.895851840941
 30
0.0
 10
179.9569480301949
 20
302.8606396587352
 30
0.0
 10
179.3714418088563
 20
302.8149983339241
 30
0.0
 10
178.8146948706056
 20
302.7811190601446
 30
0.0
 10
178.2268449097399
 20
302.7513775361631
 30
0.0
 10
177.6914559371914
 20
302.7275750898119
 30
0.0
 10
177.3491946568164
 20
302.7140807011499
 30
0.0
 10
177.2041627539824
 20
302.7080784051727
 30
0.0
  0
SPLINE
  5
B5
330
A5
100
AcDbEntity
  8
DV2_Standard
  6
Continuous
 62
     7
100
AcDbSpline
210
0.0
220
0.0
230
1.0
 70
     8
 71
     3
 72
     8
 73
     4
 74
     0
 42
0.0000004984522617
 43
0.0000000001
 40
0.0
 40
0.0
 40
0.0
 40
0.0
 40
1.0
 40
1.0
 40
1.0
 40
1.0
 10
159.2404607939859
 20
305.640004575976
 30
0.0
 10
159.2323712646129
 20
305.6446127972015
 30
0.0
 10
159.2283078292524
 20
305.6492210184271
 30
0.0
 10
159.2283078292524
 20
305.6538292396527
 30
0.0
  0
ARC
  5
B6
330
A5
100
AcDbEntity
  8
DV2_Standard
  6
Continuous
 62
     7
100
AcDbCircle
 10
169.2408560272
 20
420.6476396216
 30
0.0
 40
113.6218315267769
100
AcDbArc
 50
264.9444413322
 51
264.9517161629
  0
SPLINE
  5
B7
330
A5
100
AcDbEntity
  8
DV2_Standard
  6
Continuous
 62
     7
100
AcDbSpline
210
0.0
220
0.0
230
1.0
 70
     8
 71
     3
 72
     8
 73
     4
 74
     0
 42
0.0000005940418102
 43
0.0000000001
 40
0.0
 40
0.0
 40
0.0
 40
0.0
 40
1.0
 40
1.0
 40
1.0
 40
1.0
 10
180.2187506876398
 20
306.7514460919885
 30
0.0
 10
180.2251134395612
 20
306.7473602591932
 30
0.0
 10
180.2283078292524
 20
306.7432744263979
 30
0.0
 10
180.2283078292524
 20
306.7391885936026
 30
0.0
  0
LINE
  5
B8
330
A5
100
AcDbEntity
  8
DV2_Standard
  6
Continuous
 62
     7
100
AcDbLine
 10
180.1950058195
 20
310.3901885936
 30
0.0
 11
180.1950058195
 21
311.9888188524
 31
0.0
  0
SPLINE
  5
B9
330
A5
100
AcDbEntity
  8
DV2_Standard
  6
Continuous
 62
     7
100
AcDbSpline
210
0.0
220
0.0
230
1.0
 70
     8
 71
     3
 72
     8
 73
     4
 74
     0
 42
0.0000004987578809
 43
0.0000000001
 40
0.0
 40
0.0
 40
0.0
 40
0.0
 40
1.0
 40
1.0
 40
1.0
 40
1.0
 10
159.2404507649493
 20
311.082010290218
 30
0.0
 10
159.2323679061725
 20
311.0866166066962
 30
0.0
 10
159.2283078292524
 20
311.0912229231745
 30
0.0
 10
159.2283078292524
 20
311.0958292396527
 30
0.0
  0
SPLINE
  5
BA
330
A5
100
AcDbEntity
  8
DV2_Standard
  6
Continuous
 62
     7
100
AcDbSpline
210
0.0
220
0.0
230
1.0
 70
     8
 71
     3
 72
     8
 73
     4
 74
     0
 42
0.0000005081607386
 43
0.0000000001
 40
0.0
 40
0.0
 40
0.0
 40
0.0
 40
1.0
 40
1.0
 40
1.0
 40
1.0
 10
180.2164670871477
 20
308.5668342451673
 30
0.0
 10
180.2243489453913
 20
308.5622856946458
 30
0.0
 10
180.2283078292524
 20
308.5577371441242
 30
0.0
 10
180.2283078292524
 20
308.5531885936027
 30
0.0
  0
SPLINE
  5
BB
330
A5
100
AcDbEntity
  8
DV2_Standard
  6
Continuous
 62
     7
100
AcDbSpline
210
0.0
220
0.0
230
1.0
 70
     8
 71
     3
 72
     8
 73
     4
 74
     0
 42
0.0000005523863769
 43
0.0000000001
 40
0.0
 40
0.0
 40
0.0
 40
0.0
 40
1.0
 40
1.0
 40
1.0
 40
1.0
 10
159.2388760414721
 20
309.268938758229
 30
0.0
 10
159.2318406571528
 20
309.2732355853735
 30
0.0
 10
159.2283078292524
 20
309.2775324125181
 30
0.0
 10
159.2283078292524
 20
309.2818292396627
 30
0.0
  0
ARC
  5
BC
330
A5
100
AcDbEntity
  8
DV2_Standard
  6
Continuous
 62
     7
100
AcDbCircle
 10
190.0417169054
 20
45.1494486574
 30
0.0
 40
257.8783638736132
100
AcDbArc
 50
92.8534453254
 51
96.2234131682
  0
SPLINE
  5
BD
330
A5
100
AcDbEntity
  8
DV2_Standard
  6
Continuous
 62
     7
100
AcDbSpline
210
0.0
220
0.0
230
1.0
 70
     8
 71
     3
 72
    16
 73
    12
 74
     0
 42
0.0000000005899029
 43
0.0000000001
 40
0.0
 40
0.0
 40
0.0
 40
0.0
 40
0.2105905065211349
 40
0.2105905065211349
 40
0.4211810130422697
 40
0.4211810130422697
 40
0.6317715195634044
 40
0.6317715195634044
 40
0.8423620260845391
 40
0.8423620260845391
 40
1.0
 40
1.0
 40
1.0
 40
1.0
 10
162.0862598396524
 20
301.5080704636226
 30
0.0
 10
163.0083715189122
 20
301.5591494898058
 30
0.0
 10
164.2853432740391
 20
301.6094095305288
 30
0.0
 10
167.2120927563792
 20
301.7099296119728
 30
0.0
 10
168.8573862495431
 20
301.7601896526944
 30
0.0
 10
172.0862112506513
 20
301.8607097341392
 30
0.0
 10
173.6619683999772
 20
301.9109697748629
 30
0.0
 10
176.3311669780894
 20
302.0114898563115
 30
0.0
 10
177.4182536653358
 20
302.0617498970354
 30
0.0
 10
178.6397629086433
 20
302.1496321987004
 30
0.0
 10
178.9444912402802
 20
302.1872544596427
 30
0.0
 10
179.0127321788252
 20
302.224876720585
 30
0.0
  0
SPLINE
  5
BE
330
A5
100
AcDbEntity
  8
DV2_Standard
  6
Continuous
 62
     7
100
AcDbSpline
210
0.0
220
0.0
230
1.0
 70
     8
 71
     3
 72
    19
 73
    15
 74
     0
 42
0.0000000005364871
 43
0.0000000001
 40
0.0
 40
0.0
 40
0.0
 40
0.0
 40
0.0222718379767716
 40
0.0222718379767716
 40
0.1913649330374612
 40
0.1913649330374612
 40
0.3604580280981506
 40
0.3604580280981506
 40
0.5295511231588402
 40
0.5295511231588402
 40
0.6986442182195289
 40
0.6986442182195289
 40
0.8677373132802176
 40
1.0
 40
1.0
 40
1.0
 40
1.0
 10
160.427553532827
 20
303.1476110201219
 30
0.0
 10
160.4272526509768
 20
303.1542309443906
 30
0.0
 10
160.4344234762679
 20
303.1608508686594
 30
0.0
 10
160.5613215550977
 20
303.2177308336501
 30
0.0
 10
161.0983356519331
 20
303.2679908743725
 30
0.0
 10
162.9035949854819
 20
303.3685109558203
 30
0.0
 10
164.160759639594
 20
303.4187709965453
 30
0.0
 10
167.065541305235
 20
303.5192910779917
 30
0.0
 10
168.7075968257816
 20
303.5695511187135
 30
0.0
 10
171.9378817789769
 20
303.6700712001573
 30
0.0
 10
173.5261928282024
 20
303.7203312408792
 30
0.0
 10
176.2218246974566
 20
303.820851322323
 30
0.0
 10
178.1994989290414
 20
303.9104241925733
 30
0.0
 10
178.9453041349504
 20
303.9999970628284
 30
0.0
 10
179.0150616173315
 20
304.0393098923584
 30
0.0
  0
SPLINE
  5
BF
330
A5
100
AcDbEntity
  8
DV2_Standard
  6
Continuous
 62
     7
100
AcDbSpline
210
0.0
220
0.0
230
1.0
 70
     8
 71
     3
 72
    20
 73
    16
 74
     0
 42
0.0000000005365611
 43
0.0000000001
 40
0.0
 40
0.0
 40
0.0
 40
0.0
 40
0.0164999645854025
 40
0.0164999645854025
 40
0.1857344819648183
 40
0.1857344819648183
 40
0.3549689993442348
 40
0.3549689993442348
 40
0.5242035167236506
 40
0.5242035167236506
 40
0.6934380341030665
 40
0.6934380341030665
 40
0.8626725514824835
 40
0.8626725514824835
 40
1.0
 40
1.0
 40
1.0
 40
1.0
 10
160.4289357561636
 20
304.962131554183
 30
0.0
 10
160.4288763129239
 20
304.9670317891045
 30
0.0
 10
160.4328283648012
 20
304.9719320240259
 30
0.0
 10
160.5228132606669
 20
305.0270922996702
 30
0.0
 10
161.0421329135272
 20
305.0773523403948
 30
0.0
 10
162.7980396639879
 20
305.1778724218432
 30
0.0
 10
164.0410802305494
 20
305.2281324625662
 30
0.0
 10
166.920797146362
 20
305.3286525440104
 30
0.0
 10
168.5563108371901
 20
305.3789125847322
 30
0.0
 10
171.7916295652116
 20
305.479432666176
 30
0.0
 10
173.384238780894
 20
305.5296927068977
 30
0.0
 10
176.1118072605212
 20
305.6302127883425
 30
0.0
 10
177.2378201750331
 20
305.6804728290664
 30
0.0
 10
178.589004364595
 20
305.771517003323
 30
0.0
 10
178.9401420593379
 20
305.8123011368547
 30
0.0
 10
179.013050685515
 20
305.8530852703856
 30
0.0
  0
SPLINE
  5
C0
330
A5
100
AcDbEntity
  8
DV2_Standard
  6
Continuous
 62
     7
100
AcDbSpline
210
0.0
220
0.0
230
1.0
 70
     8
 71
     3
 72
    22
 73
    18
 74
     0
 42
0.0000000004740115
 43
0.0000000001
 40
0.0
 40
0.0
 40
0.0
 40
0.0
 40
0.1249999999999999
 40
0.1249999999999999
 40
0.2499999999999998
 40
0.2499999999999998
 40
0.3749999999999998
 40
0.3749999999999998
 40
0.4999999999999999
 40
0.4999999999999999
 40
0.6249999999999999
 40
0.6249999999999999
 40
0.7499999999999999
 40
0.7499999999999999
 40
0.875
 40
0.875
 40
1.0
 40
1.0
 40
1.0
 40
1.0
 10
159.2283078292524
 20
305.6538292396527
 30
0.0
 10
159.2283078292524
 20
305.6916209063194
 30
0.0
 10
159.501594724235
 20
305.729412572986
 30
0.0
 10
160.5535507515327
 20
305.8049959063193
 30
0.0
 10
161.3318059840715
 20
305.842787572986
 30
0.0
 10
163.2755672695158
 20
305.9183709063194
 30
0.0
 10
164.440308535358
 20
305.956162572986
 30
0.0
 10
166.97995504348
 20
306.0317459063193
 30
0.0
 10
168.3538610433069
 20
306.069537572986
 30
0.0
 10
171.1027546151979
 20
306.1451209063193
 30
0.0
 10
172.4766606150249
 20
306.182912572986
 30
0.0
 10
175.0163071231469
 20
306.2584959063193
 30
0.0
 10
176.181048388989
 20
306.296287572986
 30
0.0
 10
178.1248096744333
 20
306.3718709063193
 30
0.0
 10
178.9030649069721
 20
306.409662572986
 30
0.0
 10
179.9550209342697
 20
306.4852459063193
 30
0.0
 10
180.2283078292524
 20
306.523037572986
 30
0.0
 10
180.2283078292524
 20
306.5608292396527
 30
0.0
  0
SPLINE
  5
C1
330
A5
100
AcDbEntity
  8
DV2_Standard
  6
Continuous
 62
     7
100
AcDbSpline
210
0.0
220
0.0
230
1.0
 70
     8
 71
     3
 72
    22
 73
    18
 74
     0
 42
0.0000000004740115
 43
0.0000000001
 40
0.0
 40
0.0
 40
0.0
 40
0.0
 40
0.1249999999999999
 40
0.1249999999999999
 40
0.2499999999999998
 40
0.2499999999999998
 40
0.3749999999999998
 40
0.3749999999999998
 40
0.4999999999999999
 40
0.4999999999999999
 40
0.6249999999999999
 40
0.6249999999999999
 40
0.7499999999999999
 40
0.7499999999999999
 40
0.875
 40
0.875
 40
1.0
 40
1.0
 40
1.0
 40
1.0
 10
159.2283078292524
 20
303.8398292396427
 30
0.0
 10
159.2283078292524
 20
303.8776209063097
 30
0.0
 10
159.501594724235
 20
303.9154125729768
 30
0.0
 10
160.5535507515327
 20
303.990995906311
 30
0.0
 10
161.3318059840715
 20
304.0287875729781
 30
0.0
 10
163.2755672695158
 20
304.1043709063123
 30
0.0
 10
164.440308535358
 20
304.1421625729793
 30
0.0
 10
166.97995504348
 20
304.2177459063135
 30
0.0
 10
168.3538610433069
 20
304.2555375729806
 30
0.0
 10
171.1027546151979
 20
304.3311209063148
 30
0.0
 10
172.4766606150249
 20
304.3689125729818
 30
0.0
 10
175.0163071231469
 20
304.444495906316
 30
0.0
 10
176.181048388989
 20
304.4822875729831
 30
0.0
 10
178.1248096744333
 20
304.5578709063172
 30
0.0
 10
178.9030649069721
 20
304.5956625729843
 30
0.0
 10
179.9550209342697
 20
304.6712459063185
 30
0.0
 10
180.2283078292524
 20
304.7090375729856
 30
0.0
 10
180.2283078292524
 20
304.7468292396527
 30
0.0
  0
SPLINE
  5
C2
330
A5
100
AcDbEntity
  8
DV2_Standard
  6
Continuous
 62
     7
100
AcDbSpline
210
0.0
220
0.0
230
1.0
 70
     8
 71
     3
 72
    22
 73
    18
 74
     0
 42
0.0000000004740115
 43
0.0000000001
 40
0.0
 40
0.0
 40
0.0
 40
0.0
 40
0.125
 40
0.125
 40
0.2500000000000001
 40
0.2500000000000001
 40
0.3750000000000001
 40
0.3750000000000001
 40
0.5000000000000001
 40
0.5000000000000001
 40
0.6250000000000001
 40
0.6250000000000001
 40
0.7500000000000002
 40
0.7500000000000002
 40
0.8750000000000002
 40
0.8750000000000002
 40
1.0
 40
1.0
 40
1.0
 40
1.0
 10
180.2283078292524
 20
306.7391885936026
 30
0.0
 10
180.2283078292524
 20
306.701396926936
 30
0.0
 10
179.9550209342697
 20
306.6636052602694
 30
0.0
 10
178.9030649069721
 20
306.588021926936
 30
0.0
 10
178.1248096744333
 20
306.5502302602694
 30
0.0
 10
176.181048388989
 20
306.474646926936
 30
0.0
 10
175.0163071231469
 20
306.4368552602693
 30
0.0
 10
172.4766606150249
 20
306.361271926936
 30
0.0
 10
171.1027546151979
 20
306.3234802602693
 30
0.0
 10
168.3538610433069
 20
306.247896926936
 30
0.0
 10
166.9799550434799
 20
306.2101052602693
 30
0.0
 10
164.440308535358
 20
306.134521926936
 30
0.0
 10
163.2755672695158
 20
306.0967302602693
 30
0.0
 10
161.3318059840715
 20
306.021146926936
 30
0.0
 10
160.5535507515327
 20
305.9833552602693
 30
0.0
 10
159.501594724235
 20
305.9077719269361
 30
0.0
 10
159.2283078292524
 20
305.8699802602694
 30
0.0
 10
159.2283078292524
 20
305.8321885936027
 30
0.0
  0
SPLINE
  5
C3
330
A5
100
AcDbEntity
  8
DV2_Standard
  6
Continuous
 62
     7
100
AcDbSpline
210
0.0
220
0.0
230
1.0
 70
     8
 71
     3
 72
    22
 73
    18
 74
     0
 42
0.0000000004740115
 43
0.0000000001
 40
0.0
 40
0.0
 40
0.0
 40
0.0
 40
0.125
 40
0.125
 40
0.2500000000000001
 40
0.2500000000000001
 40
0.3750000000000001
 40
0.3750000000000001
 40
0.5000000000000001
 40
0.5000000000000001
 40
0.6250000000000001
 40
0.6250000000000001
 40
0.7500000000000002
 40
0.7500000000000002
 40
0.8750000000000002
 40
0.8750000000000002
 40
1.0
 40
1.0
 40
1.0
 40
1.0
 10
180.2283078292524
 20
308.5531885936027
 30
0.0
 10
180.2283078292524
 20
308.515396926936
 30
0.0
 10
179.9550209342697
 20
308.4776052602693
 30
0.0
 10
178.9030649069721
 20
308.402021926936
 30
0.0
 10
178.1248096744333
 20
308.3642302602693
 30
0.0
 10
176.181048388989
 20
308.2886469269361
 30
0.0
 10
175.0163071231469
 20
308.2508552602694
 30
0.0
 10
172.4766606150249
 20
308.175271926936
 30
0.0
 10
171.1027546151979
 20
308.1374802602693
 30
0.0
 10
168.3538610433069
 20
308.061896926936
 30
0.0
 10
166.9799550434799
 20
308.0241052602694
 30
0.0
 10
164.440308535358
 20
307.948521926936
 30
0.0
 10
163.2755672695158
 20
307.9107302602693
 30
0.0
 10
161.3318059840715
 20
307.835146926936
 30
0.0
 10
160.5535507515327
 20
307.7973552602693
 30
0.0
 10
159.501594724235
 20
307.721771926936
 30
0.0
 10
159.2283078292524
 20
307.6839802602693
 30
0.0
 10
159.2283078292524
 20
307.6461885936026
 30
0.0
  0
SPLINE
  5
C4
330
A5
100
AcDbEntity
  8
DV2_Standard
  6
Continuous
 62
     7
100
AcDbSpline
210
0.0
220
0.0
230
1.0
 70
     8
 71
     3
 72
    22
 73
    18
 74
     0
 42
0.0000000004740115
 43
0.0000000001
 40
0.0
 40
0.0
 40
0.0
 40
0.0
 40
0.1249999999999999
 40
0.1249999999999999
 40
0.2499999999999998
 40
0.2499999999999998
 40
0.3749999999999998
 40
0.3749999999999998
 40
0.4999999999999999
 40
0.4999999999999999
 40
0.6249999999999999
 40
0.6249999999999999
 40
0.7499999999999999
 40
0.7499999999999999
 40
0.875
 40
0.875
 40
1.0
 40
1.0
 40
1.0
 40
1.0
 10
159.2283078292524
 20
307.4678292396526
 30
0.0
 10
159.2283078292524
 20
307.5056209063198
 30
0.0
 10
159.501594724235
 20
307.5434125729868
 30
0.0
 10
160.5535507515327
 20
307.618995906321
 30
0.0
 10
161.3318059840715
 20
307.6567875729881
 30
0.0
 10
163.2755672695158
 20
307.7323709063223
 30
0.0
 10
164.440308535358
 20
307.7701625729894
 30
0.0
 10
166.97995504348
 20
307.8457459063235
 30
0.0
 10
168.3538610433069
 20
307.8835375729906
 30
0.0
 10
171.1027546151979
 20
307.9591209063248
 30
0.0
 10
172.4766606150249
 20
307.9969125729918
 30
0.0
 10
175.0163071231469
 20
308.072495906326
 30
0.0
 10
176.181048388989
 20
308.1102875729931
 30
0.0
 10
178.1248096744333
 20
308.1858709063272
 30
0.0
 10
178.9030649069721
 20
308.2236625729943
 30
0.0
 10
179.9550209342697
 20
308.2992459063285
 30
0.0
 10
180.2283078292524
 20
308.3370375729956
 30
0.0
 10
180.2283078292524
 20
308.3748292396627
 30
0.0
  0
SPLINE
  5
C5
330
A5
100
AcDbEntity
  8
DV2_Standard
  6
Continuous
 62
     7
100
AcDbSpline
210
0.0
220
0.0
230
1.0
 70
     8
 71
     3
 72
     9
 73
     5
 74
     0
 42
0.0000001639364959
 43
0.0000000001
 40
0.0
 40
0.0
 40
0.0
 40
0.0
 40
0.6829175387518387
 40
1.0
 40
1.0
 40
1.0
 40
1.0
 10
180.2283020258224
 20
312.7080089165927
 30
0.0
 10
180.224075186069
 20
312.7116051585407
 30
0.0
 10
180.217877302806
 20
312.7168711558887
 30
0.0
 10
180.1920473433899
 20
312.7392585992891
 30
0.0
 10
180.1821262032484
 20
312.7478666410086
 30
0.0
  0
SPLINE
  5
C6
330
A5
100
AcDbEntity
  8
DV2_Standard
  6
Continuous
 62
     7
100
AcDbSpline
210
0.0
220
0.0
230
1.0
 70
     8
 71
     3
 72
    22
 73
    18
 74
     0
 42
0.0000000004740115
 43
0.0000000001
 40
0.0
 40
0.0
 40
0.0
 40
0.0
 40
0.1249999999999999
 40
0.1249999999999999
 40
0.2499999999999998
 40
0.2499999999999998
 40
0.3749999999999998
 40
0.3749999999999998
 40
0.4999999999999999
 40
0.4999999999999999
 40
0.6249999999999999
 40
0.6249999999999999
 40
0.7499999999999999
 40
0.7499999999999999
 40
0.875
 40
0.875
 40
1.0
 40
1.0
 40
1.0
 40
1.0
 10
159.2283078292524
 20
311.0958292396527
 30
0.0
 10
159.2283078292524
 20
311.1336209063194
 30
0.0
 10
159.501594724235
 20
311.171412572986
 30
0.0
 10
160.5535507515327
 20
311.2469959063193
 30
0.0
 10
161.3318059840715
 20
311.284787572986
 30
0.0
 10
163.2755672695158
 20
311.3603709063194
 30
0.0
 10
164.440308535358
 20
311.3981625729861
 30
0.0
 10
166.97995504348
 20
311.4737459063193
 30
0.0
 10
168.3538610433069
 20
311.511537572986
 30
0.0
 10
171.1027546151979
 20
311.5871209063193
 30
0.0
 10
172.4766606150249
 20
311.624912572986
 30
0.0
 10
175.0163071231469
 20
311.7004959063193
 30
0.0
 10
176.181048388989
 20
311.738287572986
 30
0.0
 10
178.1248096744333
 20
311.8138709063193
 30
0.0
 10
178.9030649069721
 20
311.851662572986
 30
0.0
 10
179.9550209342697
 20
311.9272459063193
 30
0.0
 10
180.2283078292524
 20
311.965037572986
 30
0.0
 10
180.2283078292524
 20
312.0028292396527
 30
0.0
  0
SPLINE
  5
C7
330
A5
100
AcDbEntity
  8
DV2_Standard
  6
Continuous
 62
     7
100
AcDbSpline
210
0.0
220
0.0
230
1.0
 70
     8
 71
     3
 72
    22
 73
    18
 74
     0
 42
0.0000000004740115
 43
0.0000000001
 40
0.0
 40
0.0
 40
0.0
 40
0.0
 40
0.125
 40
0.125
 40
0.2499999999999999
 40
0.2499999999999999
 40
0.3749999999999999
 40
0.3749999999999999
 40
0.5
 40
0.5
 40
0.6250000000000001
 40
0.6250000000000001
 40
0.75
 40
0.75
 40
0.875
 40
0.875
 40
1.0
 40
1.0
 40
1.0
 40
1.0
 10
159.2283078292524
 20
309.2818292396627
 30
0.0
 10
159.2283078292524
 20
309.3196209063289
 30
0.0
 10
159.501594724235
 20
309.3574125729951
 30
0.0
 10
160.5535507515327
 20
309.4329959063277
 30
0.0
 10
161.3318059840715
 20
309.4707875729939
 30
0.0
 10
163.2755672695158
 20
309.5463709063264
 30
0.0
 10
164.440308535358
 20
309.5841625729926
 30
0.0
 10
166.9799550434799
 20
309.6597459063252
 30
0.0
 10
168.3538610433069
 20
309.6975375729914
 30
0.0
 10
171.1027546151979
 20
309.7731209063239
 30
0.0
 10
172.4766606150248
 20
309.8109125729902
 30
0.0
 10
175.0163071231469
 20
309.8864959063227
 30
0.0
 10
176.181048388989
 20
309.9242875729889
 30
0.0
 10
178.1248096744333
 20
309.9998709063214
 30
0.0
 10
178.9030649069721
 20
310.0376625729877
 30
0.0
 10
179.9550209342697
 20
310.1132459063202
 30
0.0
 10
180.2283078292524
 20
310.1510375729864
 30
0.0
 10
180.2283078292524
 20
310.1888292396527
 30
0.0
  0
SPLINE
  5
C8
330
A5
100
AcDbEntity
  8
DV2_Standard
  6
Continuous
 62
     7
100
AcDbSpline
210
0.0
220
0.0
230
1.0
 70
     8
 71
     3
 72
    22
 73
    18
 74
     0
 42
0.0000000004740115
 43
0.0000000001
 40
0.0
 40
0.0
 40
0.0
 40
0.0
 40
0.125
 40
0.125
 40
0.2500000000000001
 40
0.2500000000000001
 40
0.3750000000000001
 40
0.3750000000000001
 40
0.5000000000000001
 40
0.5000000000000001
 40
0.6250000000000001
 40
0.6250000000000001
 40
0.7500000000000002
 40
0.7500000000000002
 40
0.8750000000000002
 40
0.8750000000000002
 40
1.0
 40
1.0
 40
1.0
 40
1.0
 10
180.2283078292524
 20
310.3671885935927
 30
0.0
 10
180.2283078292524
 20
310.329396926926
 30
0.0
 10
179.9550209342697
 20
310.2916052602594
 30
0.0
 10
178.9030649069721
 20
310.216021926926
 30
0.0
 10
178.1248096744333
 20
310.1782302602594
 30
0.0
 10
176.181048388989
 20
310.102646926926
 30
0.0
 10
175.0163071231469
 20
310.0648552602593
 30
0.0
 10
172.4766606150249
 20
309.989271926926
 30
0.0
 10
171.1027546151979
 20
309.9514802602593
 30
0.0
 10
168.3538610433069
 20
309.875896926926
 30
0.0
 10
166.9799550434799
 20
309.8381052602593
 30
0.0
 10
164.440308535358
 20
309.762521926926
 30
0.0
 10
163.2755672695158
 20
309.7247302602594
 30
0.0
 10
161.3318059840715
 20
309.6491469269261
 30
0.0
 10
160.5535507515327
 20
309.6113552602594
 30
0.0
 10
159.501594724235
 20
309.535771926926
 30
0.0
 10
159.2283078292524
 20
309.4979802602593
 30
0.0
 10
159.2283078292524
 20
309.4601885935927
 30
0.0
  0
SPLINE
  5
C9
330
A5
100
AcDbEntity
  8
DV2_Standard
  6
Continuous
 62
     7
100
AcDbSpline
210
0.0
220
0.0
230
1.0
 70
     8
 71
     3
 72
    20
 73
    16
 74
     0
 42
0.0000000005363059
 43
0.0000000001
 40
0.0
 40
0.0
 40
0.0
 40
0.0
 40
0.0125946070786451
 40
0.0125946070786451
 40
0.1877922269573613
 40
0.1877922269573613
 40
0.3629898468360775
 40
0.3629898468360775
 40
0.5381874667147937
 40
0.5381874667147937
 40
0.71338508659351
 40
0.71338508659351
 40
0.888582706472226
 40
0.888582706472226
 40
1.0
 40
1.0
 40
1.0
 40
1.0
 10
160.4444609488885
 20
306.5405264161054
 30
0.0
 10
160.4508544976004
 20
306.5442705829448
 30
0.0
 10
160.459621010036
 20
306.5480147497841
 30
0.0
 10
160.6259423871948
 20
306.6038422499569
 30
0.0
 10
161.2423831374434
 20
306.6559255832905
 30
0.0
 10
163.2308155889236
 20
306.7600922499578
 30
0.0
 10
164.5949672987938
 20
306.8121755832913
 30
0.0
 10
167.6924260423339
 20
306.9163422499585
 30
0.0
 10
169.415374666419
 20
306.9684255832923
 30
0.0
 10
172.7355114436591
 20
307.072592249961
 30
0.0
 10
174.3258713234924
 20
307.1246755832954
 30
0.0
 10
176.918833753519
 20
307.2288422499626
 30
0.0
 10
177.9226941975099
 20
307.2809255832958
 30
0.0
 10
178.8423258625679
 20
307.3661314216149
 30
0.0
 10
179.0252160812185
 20
307.3992539266005
 30
0.0
 10
179.0254087103135
 20
307.4323764315861
 30
0.0
  0
SPLINE
  5
CA
330
A5
100
AcDbEntity
  8
DV2_Standard
  6
Continuous
 62
     7
100
AcDbSpline
210
0.0
220
0.0
230
1.0
 70
     8
 71
     3
 72
    19
 73
    15
 74
     0
 42
0.0000000005366211
 43
0.0000000001
 40
0.0
 40
0.0
 40
0.0
 40
0.0
 40
0.0817918810611946
 40
0.0817918810611946
 40
0.2569043517929678
 40
0.4320168225247409
 40
0.4320168225247409
 40
0.6071292932565141
 40
0.6071292932565141
 40
0.7822417639882873
 40
0.7822417639882873
 40
0.9573542347200604
 40
0.9573542347200604
 40
0.9999999999999999
 40
0.9999999999999999
 40
0.9999999999999999
 40
0.9999999999999999
 10
160.4430192703672
 20
308.3537773559098
 30
0.0
 10
160.4825786487151
 20
308.3781045428165
 30
0.0
 10
160.6197961276166
 20
308.4024317297232
 30
0.0
 10
161.3572614805829
 20
308.4788422499628
 30
0.0
 10
163.247306748778
 20
308.5830089166295
 30
0.0
 10
166.3746516463443
 20
308.6871755832962
 30
0.0
 10
169.6710691266429
 20
308.7913422499629
 30
0.0
 10
171.4046401957195
 20
308.8434255832963
 30
0.0
 10
174.5483150223329
 20
308.947592249963
 30
0.0
 10
175.9547382713769
 20
308.9996755832963
 30
0.0
 10
178.048111198286
 20
309.103842249962
 30
0.0
 10
178.724831328531
 20
309.155925583294
 30
0.0
 10
179.0014043638755
 20
309.2206929567695
 30
0.0
 10
179.027784308369
 20
309.2333769969125
 30
0.0
 10
179.0270854436798
 20
309.2460610370555
 30
0.0
  0
SPLINE
  5
CB
330
A5
100
AcDbEntity
  8
DV2_Standard
  6
Continuous
 62
     7
100
AcDbSpline
210
0.0
220
0.0
230
1.0
 70
     8
 71
     3
 72
    18
 73
    14
 74
     0
 42
0.0000000005400062
 43
0.0000000001
 40
0.0
 40
0.0
 40
0.0
 40
0.0
 40
0.156287838831154
 40
0.156287838831154
 40
0.3401961922956357
 40
0.3401961922956357
 40
0.5241045457601176
 40
0.5241045457601176
 40
0.7080128992245993
 40
0.7080128992245993
 40
0.8919212526890811
 40
0.8919212526890811
 40
1.0
 40
1.0
 40
1.0
 40
1.0
 10
160.4449873881318
 20
310.1689755255637
 30
0.0
 10
160.5250477618813
 20
310.2132366559172
 30
0.0
 10
160.936139621174
 20
310.2574977862708
 30
0.0
 10
162.4641771898314
 20
310.3538422499576
 30
0.0
 10
163.6939164394665
 20
310.4059255832909
 30
0.0
 10
166.6154643788524
 20
310.5100922499576
 30
0.0
 10
168.3008585439983
 20
310.562175583291
 30
0.0
 10
171.6559044126054
 20
310.6663422499577
 30
0.0
 10
173.3163681550714
 20
310.718425583291
 30
0.0
 10
176.1448710420956
 20
310.8225922499577
 30
0.0
 10
177.3068417236288
 20
310.8746755832912
 30
0.0
 10
178.4916921494171
 20
310.957367104433
 30
0.0
 10
178.7872427562532
 20
310.9879752922414
 30
0.0
 10
178.9294619228472
 20
311.0185834800498
 30
0.0
  0
SPLINE
  5
CC
330
A5
100
AcDbEntity
  8
DV2_Standard
  6
Continuous
 62
     7
100
AcDbSpline
210
0.0
220
0.0
230
1.0
 70
     8
 71
     3
 72
    20
 73
    16
 74
     0
 42
0.0000000005367832
 43
0.0000000001
 40
0.0
 40
0.0
 40
0.0
 40
0.0
 40
0.0301347247521694
 40
0.0301347247521694
 40
0.2056697066301815
 40
0.2056697066301815
 40
0.3812046885081937
 40
0.3812046885081937
 40
0.5567396703862062
 40
0.5567396703862062
 40
0.732274652264219
 40
0.732274652264219
 40
0.9078096341422315
 40
0.9078096341422315
 40
1.0
 40
1.0
 40
1.0
 40
1.0
 10
160.4298407407478
 20
306.7758828430982
 30
0.0
 10
160.4294458678884
 20
306.7848242315799
 30
0.0
 10
160.4424661995841
 20
306.7937656200617
 30
0.0
 10
160.6242975406418
 20
306.8547906588182
 30
0.0
 10
161.2408438308948
 20
306.9068743090928
 30
0.0
 10
163.2296252773843
 20
307.0110416096421
 30
0.0
 10
164.594018703221
 20
307.0631252599167
 30
0.0
 10
167.6920300425872
 20
307.1672925604659
 30
0.0
 10
169.4152875758335
 20
307.2193762107405
 30
0.0
 10
172.7360223281576
 20
307.3235435112898
 30
0.0
 10
174.3266701707452
 20
307.3756271615644
 30
0.0
 10
176.9201049080191
 20
307.4797944621137
 30
0.0
 10
177.9241501851855
 20
307.5318781123883
 30
0.0
 10
178.7816833400802
 20
307.6113159157933
 30
0.0
 10
178.9578688193422
 20
307.6386700689237
 30
0.0
 10
179.0103908127442
 20
307.666024222054
 30
0.0
  0
SPLINE
  5
CD
330
A5
100
AcDbEntity
  8
DV2_Standard
  6
Continuous
 62
     7
100
AcDbSpline
210
0.0
220
0.0
230
1.0
 70
     8
 71
     3
 72
    19
 73
    15
 74
     0
 42
0.0000000005362479
 43
0.0000000001
 40
0.0
 40
0.0
 40
0.0
 40
0.0
 40
0.0982740358305603
 40
0.0982740358305603
 40
0.2734681520979726
 40
0.4486622683653849
 40
0.4486622683653849
 40
0.6238563846327971
 40
0.6238563846327971
 40
0.7990505009002089
 40
0.7990505009002089
 40
0.9742446171676211
 40
0.9742446171676211
 40
1.0
 40
1.0
 40
1.0
 40
1.0
 10
160.4293365914149
 20
308.5900704319167
 30
0.0
 10
160.429701839773
 20
308.6192864274212
 30
0.0
 10
160.5709682294495
 20
308.6485024229256
 30
0.0
 10
161.3557481348271
 20
308.7298020687047
 30
0.0
 10
163.2461227787234
 20
308.833969369254
 30
0.0
 10
166.3740230890734
 20
308.9381366698033
 30
0.0
 10
169.6710287023277
 20
309.0423039703525
 30
0.0
 10
171.4049104573378
 20
309.0943876206271
 30
0.0
 10
174.5491515107914
 20
309.1985549211764
 30
0.0
 10
175.9558294109788
 20
309.250638571451
 30
0.0
 10
178.0495849853341
 20
309.3548058720003
 30
0.0
 10
178.7264309522729
 20
309.4068895222749
 30
0.0
 10
178.9815879148903
 20
309.4666300184568
 30
0.0
 10
179.0041646237168
 20
309.4742868643642
 30
0.0
 10
179.016770145458
 20
309.4819437102715
 30
0.0
  0
SPLINE
  5
CE
330
A5
100
AcDbEntity
  8
DV2_Standard
  6
Continuous
 62
     7
100
AcDbSpline
210
0.0
220
0.0
230
1.0
 70
     8
 71
     3
 72
    18
 73
    14
 74
     0
 42
0.0000000005405945
 43
0.0000000001
 40
0.0
 40
0.0
 40
0.0
 40
0.0
 40
0.1743782899906561
 40
0.1743782899906561
 40
0.3578398740197046
 40
0.3578398740197046
 40
0.5413014580487532
 40
0.5413014580487532
 40
0.7247630420778011
 40
0.7247630420778011
 40
0.9082246261068496
 40
0.9082246261068496
 40
1.0
 40
1.0
 40
1.0
 40
1.0
 10
160.4288788779317
 20
310.404214956616
 30
0.0
 10
160.4300641713561
 20
310.4537199138495
 30
0.0
 10
160.8513829633508
 20
310.5032248710831
 30
0.0
 10
162.4628625900485
 20
310.6048134785913
 30
0.0
 10
163.6928173855331
 20
310.6568971288661
 30
0.0
 10
166.6148814761995
 20
310.7610644294144
 30
0.0
 10
168.3005748807971
 20
310.8131480796872
 30
0.0
 10
171.6562191920196
 20
310.9173153802316
 30
0.0
 10
173.3169805101629
 20
310.9693990305044
 30
0.0
 10
176.1459928719586
 20
311.0735663310527
 30
0.0
 10
177.3081746097708
 20
311.1256499813274
 30
0.0
 10
178.4279808586922
 20
311.2037881132694
 30
0.0
 10
178.6977228323559
 20
311.2298425949369
 30
0.0
 10
178.8572494328127
 20
311.2557749404743
 30
0.0
  0
LINE
  5
CF
330
A5
100
AcDbEntity
  8
DV2_Standard
  6
Continuous
 62
     7
100
AcDbLine
 10
168.813712535
 20
301.5080704636
 30
0.0
 11
162.0862598397
 21
301.5080704636
 31
0.0
  0
ARC
  5
D0
330
A5
100
AcDbEntity
  8
DV2_Standard
  6
Continuous
 62
     7
100
AcDbCircle
 10
156.7283229722
 20
312.7080216826
 30
0.0
 40
2.49999708788863
100
AcDbArc
 50
359.9997074247
 51
90.0003470532
  0
ARC
  5
D1
330
A5
100
AcDbEntity
  8
DV2_Standard
  6
Continuous
 62
     7
100
AcDbCircle
 10
182.7282945058
 20
312.7080200944
 30
0.0
 40
2.499997437788542
100
AcDbArc
 50
89.9996946466
 51
180.0002561761
  0
SPLINE
  5
D2
330
A5
100
AcDbEntity
  8
DV2_Standard
  6
Continuous
 62
     7
100
AcDbSpline
210
0.0
220
0.0
230
1.0
 70
     8
 71
     3
 72
    26
 73
    22
 74
     0
 42
0.0000000003582128
 43
0.0000000001
 40
0.0
 40
0.0
 40
0.0
 40
0.0
 40
0.0192507216982476
 40
0.0377428136815083
 40
0.0763040403307384
 40
0.1456252552743517
 40
0.201720334990908
 40
0.2566762626720577
 40
0.3134745618906347
 40
0.3689137951450668
 40
0.4354075083667286
 40
0.5136254538819146
 40
0.5917862907178914
 40
0.6581153446347623
 40
0.7135530096504531
 40
0.7704058851147231
 40
0.8253292603111921
 40
0.8816517205276637
 40
0.9513308796580867
 40
0.9899573365951159
 40
1.0
 40
1.0
 40
1.0
 40
1.0
 10
182.7283078292623
 20
315.2080111005927
 30
0.0
 10
182.7230541401743
 20
315.211336821028
 30
0.0
 10
182.712753798619
 20
315.2178393035546
 30
0.0
 10
182.5999998688748
 20
315.2861576443559
 30
0.0
 10
182.2431020747598
 20
315.50015478814
 30
0.0
 10
181.3864568922334
 20
316.0081922338188
 30
0.0
 10
180.069640069127
 20
316.7404937917188
 30
0.0
 10
178.6026079351158
 20
317.493877963945
 30
0.0
 10
176.9417570823885
 20
318.2493606944395
 30
0.0
 10
174.9839399480816
 20
318.9882775381019
 30
0.0
 10
172.5933197271989
 20
319.6315298272295
 30
0.0
 10
169.7376717264419
 20
319.9274951927555
 30
0.0
 10
166.8834103991079
 20
319.6351982553718
 30
0.0
 10
164.4938418074189
 20
318.9951145144951
 30
0.0
 10
162.5352217902203
 20
318.2579276350493
 30
0.0
 10
160.8720551168307
 20
317.5026729979315
 30
0.0
 10
159.400390601169
 20
316.7477607852648
 30
0.0
 10
158.0766435840454
 20
316.0120307062279
 30
0.0
 10
157.2148616157613
 20
315.5009917532882
 30
0.0
 10
156.8805361794786
 20
315.3004974250645
 30
0.0
 10
156.7989347170078
 20
315.2511816298132
 30
0.0
 10
156.7849319637949
 20
315.2426993776804
 30
0.0
  0
SPLINE
  5
D3
330
A5
100
AcDbEntity
  8
DV2_Standard
  6
Continuous
 62
     7
100
AcDbSpline
210
0.0
220
0.0
230
1.0
 70
     8
 71
     3
 72
     9
 73
     5
 74
     0
 42
0.0000001505877398
 43
0.0000000001
 40
0.0
 40
0.0
 40
0.0
 40
0.0
 40
0.3051815948672029
 40
1.0
 40
1.0
 40
1.0
 40
1.0
 10
156.7849319637949
 20
315.2426993776804
 30
0.0
 10
156.7731483005084
 20
315.2355613526418
 30
0.0
 10
156.7411156816425
 20
315.2161024408549
 30
0.0
 10
156.7335586169032
 20
315.2113337464945
 30
0.0
 10
156.7283078292423
 20
315.2080110975227
 30
0.0
  0
LINE
  5
D4
330
A5
100
AcDbEntity
  8
DV2_Standard
  6
Continuous
 62
     7
100
AcDbLine
 10
188.2283078293
 20
346.7080089295
 30
0.0
 11
188.2283078293
 21
315.7080089038
 31
0.0
  0
LINE
  5
D5
330
A5
100
AcDbEntity
  8
DV2_Standard
  6
Continuous
 62
     7
100
AcDbLine
 10
159.547759829
 20
302.3886242913
 30
0.0
 11
160.7283673905
 21
301.2080089166
 31
0.0
  0
LINE
  5
D6
330
A5
100
AcDbEntity
  8
DV2_Standard
  6
Continuous
 62
     7
100
AcDbLine
 10
178.728248268
 20
301.2080089166
 30
0.0
 11
179.3338432837
 21
301.8136079401
 31
0.0
  0
SPLINE
  5
D7
330
A5
100
AcDbEntity
  8
DV2_Standard
  6
Continuous
 62
     7
100
AcDbSpline
210
0.0
220
0.0
230
1.0
 70
     8
 71
     3
 72
     8
 73
     4
 74
     0
 42
0.0000000072249443
 43
0.0000000001
 40
0.0
 40
0.0
 40
0.0
 40
0.0
 40
0.9999999999999999
 40
0.9999999999999999
 40
0.9999999999999999
 40
0.9999999999999999
 10
180.2243932599255
 20
304.9333397176571
 30
0.0
 10
179.8249461980701
 20
305.164249719898
 30
0.0
 10
179.4255327690396
 20
305.3951743401371
 30
0.0
 10
179.026152972834
 20
305.6261135783741
 30
0.0
  0
SPLINE
  5
D8
330
A5
100
AcDbEntity
  8
DV2_Standard
  6
Continuous
 62
     7
100
AcDbSpline
210
0.0
220
0.0
230
1.0
 70
     8
 71
     3
 72
     8
 73
     4
 74
     0
 42
0.000000007234751
 43
0.0000000001
 40
0.0
 40
0.0
 40
0.0
 40
0.0
 40
1.0
 40
1.0
 40
1.0
 40
1.0
 10
180.2243920433347
 20
303.1200239037041
 30
0.0
 10
179.8254663403172
 20
303.3506009083335
 30
0.0
 10
179.426581885934
 20
303.5811910080385
 30
0.0
 10
179.0277386801853
 20
303.811794202819
 30
0.0
  0
LINE
  5
D9
330
A5
100
AcDbEntity
  8
DV2_Standard
  6
Continuous
 62
     7
100
AcDbLine
 10
179.3170947853
 20
301.8307246629
 30
0.0
 11
179.0106521467
 21
302.0078938435
 31
0.0
  0
LINE
  5
DA
330
A5
100
AcDbEntity
  8
DV2_Standard
  6
Continuous
 62
     7
100
AcDbLine
 10
160.4473166326
 20
302.9157010819
 30
0.0
 11
159.5619319952
 21
302.4038646309
 31
0.0
  0
SPLINE
  5
DB
330
A5
100
AcDbEntity
  8
DV2_Standard
  6
Continuous
 62
     7
100
AcDbSpline
210
0.0
220
0.0
230
1.0
 70
     8
 71
     3
 72
     8
 73
     4
 74
     0
 42
0.0000000071200741
 43
0.0000000001
 40
0.0
 40
0.0
 40
0.0
 40
0.0
 40
1.0
 40
1.0
 40
1.0
 40
1.0
 10
160.4484053336046
 20
304.7297700833948
 30
0.0
 10
160.0431441007648
 20
304.4954426765394
 30
0.0
 10
159.63784103643
 20
304.2611284846971
 30
0.0
 10
159.2324961406001
 20
304.0268275078678
 30
0.0
  0
LINE
  5
DC
330
A5
100
AcDbEntity
  8
DV2_Standard
  6
Continuous
 62
     7
100
AcDbLine
 10
159.2283078293
 20
304.0181885936
 30
0.0
 11
159.2283078293
 21
303.8398292396
 31
0.0
  0
LINE
  5
DD
330
A5
100
AcDbEntity
  8
DV2_Standard
  6
Continuous
 62
     7
100
AcDbLine
 10
159.2283078293
 20
305.8321885936
 30
0.0
 11
159.2283078293
 21
305.6538292397
 31
0.0
  0
LINE
  5
DE
330
A5
100
AcDbEntity
  8
DV2_Standard
  6
Continuous
 62
     7
100
AcDbLine
 10
159.2283078293
 20
307.6461885936
 30
0.0
 11
159.2283078293
 21
307.4678292397
 31
0.0
  0
LINE
  5
DF
330
A5
100
AcDbEntity
  8
DV2_Standard
  6
Continuous
 62
     7
100
AcDbLine
 10
159.2283078293
 20
309.4601885936
 30
0.0
 11
159.2283078293
 21
309.2818292397
 31
0.0
  0
LINE
  5
E0
330
A5
100
AcDbEntity
  8
DV2_Standard
  6
Continuous
 62
     7
100
AcDbLine
 10
159.2283078293
 20
312.7080089166
 30
0.0
 11
159.2283078293
 21
311.0958292397
 31
0.0
  0
LINE
  5
E1
330
A5
100
AcDbEntity
  8
DV2_Standard
  6
Continuous
 62
     7
100
AcDbLine
 10
180.2283078293
 20
312.0028292397
 30
0.0
 11
180.2283078293
 21
312.7080089166
 31
0.0
  0
LINE
  5
E2
330
A5
100
AcDbEntity
  8
DV2_Standard
  6
Continuous
 62
     7
100
AcDbLine
 10
180.2283078293
 20
310.1888292397
 30
0.0
 11
180.2283078293
 21
310.3671885936
 31
0.0
  0
LINE
  5
E3
330
A5
100
AcDbEntity
  8
DV2_Standard
  6
Continuous
 62
     7
100
AcDbLine
 10
180.2283078293
 20
308.3748292397
 30
0.0
 11
180.2283078293
 21
308.5531885936
 31
0.0
  0
LINE
  5
E4
330
A5
100
AcDbEntity
  8
DV2_Standard
  6
Continuous
 62
     7
100
AcDbLine
 10
180.2283078293
 20
306.5608292397
 30
0.0
 11
180.2283078293
 21
306.7391885936
 31
0.0
  0
LINE
  5
E5
330
A5
100
AcDbEntity
  8
DV2_Standard
  6
Continuous
 62
     7
100
AcDbLine
 10
180.2283078293
 20
304.7468292397
 30
0.0
 11
180.2283078293
 21
304.9251885936
 31
0.0
  0
LINE
  5
E6
330
A5
100
AcDbEntity
  8
DV2_Standard
  6
Continuous
 62
     7
100
AcDbLine
 10
180.2283078293
 20
302.9328262978
 30
0.0
 11
180.2283078293
 21
303.1111947799
 31
0.0
  0
SPLINE
  5
E7
330
A5
100
AcDbEntity
  8
DV2_Standard
  6
Continuous
 62
     7
100
AcDbSpline
210
0.0
220
0.0
230
1.0
 70
     8
 71
     3
 72
     8
 73
     4
 74
     0
 42
0.000000007116315
 43
0.0000000001
 40
0.0
 40
0.0
 40
0.0
 40
0.0
 40
1.0
 40
1.0
 40
1.0
 40
1.0
 10
179.0069898285255
 20
305.848929677579
 30
0.0
 10
179.4124469225633
 20
306.0834137638876
 30
0.0
 10
179.8179449905174
 20
306.317884744822
 30
0.0
 10
180.2234840323879
 20
306.5523426203822
 30
0.0
  0
SPLINE
  5
E8
330
A5
100
AcDbEntity
  8
DV2_Standard
  6
Continuous
 62
     7
100
AcDbSpline
210
0.0
220
0.0
230
1.0
 70
     8
 71
     3
 72
     8
 73
     4
 74
     0
 42
0.0000000071150521
 43
0.0000000001
 40
0.0
 40
0.0
 40
0.0
 40
0.0
 40
1.0
 40
1.0
 40
1.0
 40
1.0
 10
179.0078725415496
 20
304.0351525293329
 30
0.0
 10
179.4134194665919
 20
304.2696478772712
 30
0.0
 10
179.8190080457764
 20
304.5041284181769
 30
0.0
 10
180.2246382791033
 20
304.7385941520501
 30
0.0
  0
SPLINE
  5
E9
330
A5
100
AcDbEntity
  8
DV2_Standard
  6
Continuous
 62
     7
100
AcDbSpline
210
0.0
220
0.0
230
1.0
 70
     8
 71
     3
 72
     8
 73
     4
 74
     0
 42
0.0000000071157518
 43
0.0000000001
 40
0.0
 40
0.0
 40
0.0
 40
0.0
 40
1.0
 40
1.0
 40
1.0
 40
1.0
 10
179.0075089587547
 20
302.2207048421821
 30
0.0
 10
179.41300581743
 20
302.4551926879964
 30
0.0
 10
179.8185444687113
 20
302.6896675457871
 30
0.0
 10
180.2241249125988
 20
302.9241294155543
 30
0.0
  0
SPLINE
  5
EA
330
A5
100
AcDbEntity
  8
DV2_Standard
  6
Continuous
 62
     7
100
AcDbSpline
210
0.0
220
0.0
230
1.0
 70
     8
 71
     3
 72
     8
 73
     4
 74
     0
 42
0.0000000072321555
 43
0.0000000001
 40
0.0
 40
0.0
 40
0.0
 40
0.0
 40
1.0
 40
1.0
 40
1.0
 40
1.0
 10
159.2313586938667
 20
303.831212227923
 30
0.0
 10
159.6304291831783
 20
303.6005549713778
 30
0.0
 10
160.0294581547634
 20
303.3698844807442
 30
0.0
 10
160.4284456086218
 20
303.1392007560222
 30
0.0
  0
SPLINE
  5
EB
330
A5
100
AcDbEntity
  8
DV2_Standard
  6
Continuous
 62
     7
100
AcDbSpline
210
0.0
220
0.0
230
1.0
 70
     8
 71
     3
 72
     8
 73
     4
 74
     0
 42
0.0000000072326246
 43
0.0000000001
 40
0.0
 40
0.0
 40
0.0
 40
0.0
 40
1.0
 40
1.0
 40
1.0
 40
1.0
 10
159.2333110827016
 20
305.6455184820679
 30
0.0
 10
159.6323303085813
 20
305.4148358006735
 30
0.0
 10
160.0313096772298
 20
305.1841392334252
 30
0.0
 10
160.4302491886471
 20
304.953428780323
 30
0.0
  0
SPLINE
  5
EC
330
A5
100
AcDbEntity
  8
DV2_Standard
  6
Continuous
 62
     7
100
AcDbSpline
210
0.0
220
0.0
230
1.0
 70
     8
 71
     3
 72
     8
 73
     4
 74
     0
 42
0.0000000071967633
 43
0.0000000001
 40
0.0
 40
0.0
 40
0.0
 40
0.0
 40
1.0
 40
1.0
 40
1.0
 40
1.0
 10
180.1263232355098
 20
310.3193852719779
 30
0.0
 10
179.7268660483913
 20
310.5535315191953
 30
0.0
 10
179.327238765721
 20
310.7876801247151
 30
0.0
 10
178.9274413874989
 20
311.0218310885372
 30
0.0
  0
SPLINE
  5
ED
330
A5
100
AcDbEntity
  8
DV2_Standard
  6
Continuous
 62
     7
100
AcDbSpline
210
0.0
220
0.0
230
1.0
 70
     8
 71
     3
 72
     8
 73
     4
 74
     0
 42
0.0000000072297522
 43
0.0000000001
 40
0.0
 40
0.0
 40
0.0
 40
0.0
 40
1.0
 40
1.0
 40
1.0
 40
1.0
 10
180.2255578455143
 20
308.5611491329048
 30
0.0
 10
179.8263583673301
 20
308.791887896515
 30
0.0
 10
179.4271996093241
 20
309.0226400114426
 30
0.0
 10
179.0280815714963
 20
309.2534054776874
 30
0.0
  0
SPLINE
  5
EE
330
A5
100
AcDbEntity
  8
DV2_Standard
  6
Continuous
 62
     7
100
AcDbSpline
210
0.0
220
0.0
230
1.0
 70
     8
 71
     3
 72
     8
 73
     4
 74
     0
 42
0.0000000071140898
 43
0.0000000001
 40
0.0
 40
0.0
 40
0.0
 40
0.0
 40
1.0
 40
1.0
 40
1.0
 40
1.0
 10
180.2286961371616
 20
306.7457472841965
 30
0.0
 10
179.8230242298315
 20
306.9802386790446
 30
0.0
 10
179.4173767993464
 20
307.2147440311756
 30
0.0
 10
179.0117538457063
 20
307.4492633405893
 30
0.0
  0
SPLINE
  5
EF
330
A5
100
AcDbEntity
  8
DV2_Standard
  6
Continuous
 62
     7
100
AcDbSpline
210
0.0
220
0.0
230
1.0
 70
     8
 71
     3
 72
     8
 73
     4
 74
     0
 42
0.0000000071153185
 43
0.0000000001
 40
0.0
 40
0.0
 40
0.0
 40
0.0
 40
1.0
 40
1.0
 40
1.0
 40
1.0
 10
160.4497765522792
 20
306.5437161177518
 30
0.0
 10
160.0442614814031
 20
306.3091982321138
 30
0.0
 10
159.6387061923705
 20
306.0746951576872
 30
0.0
 10
159.2331106851814
 20
305.8402068944723
 30
0.0
  0
SPLINE
  5
F0
330
A5
100
AcDbEntity
  8
DV2_Standard
  6
Continuous
 62
     7
100
AcDbSpline
210
0.0
220
0.0
230
1.0
 70
     8
 71
     3
 72
     8
 73
     4
 74
     0
 42
0.0000000071169629
 43
0.0000000001
 40
0.0
 40
0.0
 40
0.0
 40
0.0
 40
1.0
 40
1.0
 40
1.0
 40
1.0
 10
160.4485630050583
 20
308.357030411871
 30
0.0
 10
160.0431434303165
 20
308.1225599684142
 30
0.0
 10
159.6376873203918
 20
307.8881016161117
 30
0.0
 10
159.2321946752842
 20
307.6536553549635
 30
0.0
  0
SPLINE
  5
F1
330
A5
100
AcDbEntity
  8
DV2_Standard
  6
Continuous
 62
     7
100
AcDbSpline
210
0.0
220
0.0
230
1.0
 70
     8
 71
     3
 72
     8
 73
     4
 74
     0
 42
0.0000000071154386
 43
0.0000000001
 40
0.0
 40
0.0
 40
0.0
 40
0.0
 40
1.0
 40
1.0
 40
1.0
 40
1.0
 10
160.4495030467955
 20
310.1721926909282
 30
0.0
 10
160.0439952138856
 20
309.9376815568087
 30
0.0
 10
159.6384460550348
 20
309.7031836724084
 30
0.0
 10
159.2328555702432
 20
309.4686990377273
 30
0.0
  0
LINE
  5
F2
330
A5
100
AcDbEntity
  8
DV2_Standard
  6
Continuous
 62
     7
100
AcDbLine
 10
178.9911701251
 20
311.032761247
 30
0.0
 11
178.9911701251
 21
311.2858022764
 31
0.0
  0
LINE
  5
F3
330
A5
100
AcDbEntity
  8
DV2_Standard
  6
Continuous
 62
     7
100
AcDbLine
 10
179.028082239
 20
309.2445428575
 30
0.0
 11
179.028082239
 21
309.4881345554
 31
0.0
  0
LINE
  5
F4
330
A5
100
AcDbEntity
  8
DV2_Standard
  6
Continuous
 62
     7
100
AcDbLine
 10
179.0280722078
 20
307.4308391253
 30
0.0
 11
179.0280722078
 21
307.6747288877
 31
0.0
  0
LINE
  5
F5
330
A5
100
AcDbEntity
  8
DV2_Standard
  6
Continuous
 62
     7
100
AcDbLine
 10
160.4303985327
 20
306.7764582621
 30
0.0
 11
160.4303985327
 21
306.5325103114
 31
0.0
  0
LINE
  5
F6
330
A5
100
AcDbEntity
  8
DV2_Standard
  6
Continuous
 62
     7
100
AcDbLine
 10
160.4309365538
 20
308.5906137859
 30
0.0
 11
160.4309365538
 21
308.3468370484
 31
0.0
  0
LINE
  5
F7
330
A5
100
AcDbEntity
  8
DV2_Standard
  6
Continuous
 62
     7
100
AcDbLine
 10
160.4304048733
 20
310.4047910027
 30
0.0
 11
160.4304048733
 21
310.1611488115
 31
0.0
  0
LINE
  5
F8
330
A5
100
AcDbEntity
  8
DV2_Standard
  6
Continuous
 62
     7
100
AcDbLine
 10
179.0261534102
 20
305.6164251315
 30
0.0
 11
179.0261534102
 21
305.8600114971
 31
0.0
  0
LINE
  5
F9
330
A5
100
AcDbEntity
  8
DV2_Standard
  6
Continuous
 62
     7
100
AcDbLine
 10
179.027739372
 20
303.8028097926
 30
0.0
 11
179.027739372
 21
304.0466389757
 31
0.0
  0
LINE
  5
FA
330
A5
100
AcDbEntity
  8
DV2_Standard
  6
Continuous
 62
     7
100
AcDbLine
 10
179.0268276617
 20
301.988130691
 30
0.0
 11
179.0268276617
 21
302.2318754396
 31
0.0
  0
LINE
  5
FB
330
A5
100
AcDbEntity
  8
DV2_Standard
  6
Continuous
 62
     7
100
AcDbLine
 10
160.4284448889
 20
303.1482976803
 30
0.0
 11
160.4284448889
 21
302.904790905
 31
0.0
  0
LINE
  5
FC
330
A5
100
AcDbEntity
  8
DV2_Standard
  6
Continuous
 62
     7
100
AcDbLine
 10
160.430248536
 20
304.9628121969
 30
0.0
 11
160.430248536
 21
304.7192724206
 31
0.0
  0
SPLINE
  5
FD
330
A5
100
AcDbEntity
  8
DV2_Standard
  6
Continuous
 62
     7
100
AcDbSpline
210
0.0
220
0.0
230
1.0
 70
     8
 71
     3
 72
     8
 73
     4
 74
     0
 42
0.0000000071958793
 43
0.0000000001
 40
0.0
 40
0.0
 40
0.0
 40
0.0
 40
1.0
 40
1.0
 40
1.0
 40
1.0
 10
178.8538343706694
 20
311.2517236174056
 30
0.0
 10
179.2533063495398
 20
311.485911954289
 30
0.0
 10
179.6529781435634
 20
311.7200971408033
 30
0.0
 10
180.0528497527403
 20
311.9542791769487
 30
0.0
  0
SPLINE
  5
FE
330
A5
100
AcDbEntity
  8
DV2_Standard
  6
Continuous
 62
     7
100
AcDbSpline
210
0.0
220
0.0
230
1.0
 70
     8
 71
     3
 72
     8
 73
     4
 74
     0
 42
0.0000000071138743
 43
0.0000000001
 40
0.0
 40
0.0
 40
0.0
 40
0.0
 40
1.0
 40
1.0
 40
1.0
 40
1.0
 10
179.0101258123718
 20
309.4777534277377
 30
0.0
 10
179.4157529384341
 20
309.7122750131056
 30
0.0
 10
179.8214151460271
 20
309.9467831676071
 30
0.0
 10
180.2271124351508
 20
310.1812778912421
 30
0.0
  0
SPLINE
  5
FF
330
A5
100
AcDbEntity
  8
DV2_Standard
  6
Continuous
 62
     7
100
AcDbSpline
210
0.0
220
0.0
230
1.0
 70
     8
 71
     3
 72
     8
 73
     4
 74
     0
 42
0.0000000071146624
 43
0.0000000001
 40
0.0
 40
0.0
 40
0.0
 40
0.0
 40
1.0
 40
1.0
 40
1.0
 40
1.0
 10
179.0058008813175
 20
307.6618522292717
 30
0.0
 10
179.4113574627196
 20
307.8963566788178
 30
0.0
 10
179.8169697859445
 20
308.1308474139734
 30
0.0
 10
180.2226378509921
 20
308.3653244347382
 30
0.0
  0
SPLINE
  5
100
330
A5
100
AcDbEntity
  8
DV2_Standard
  6
Continuous
 62
     7
100
AcDbSpline
210
0.0
220
0.0
230
1.0
 70
     8
 71
     3
 72
     8
 73
     4
 74
     0
 42
0.0000000072281754
 43
0.0000000001
 40
0.0
 40
0.0
 40
0.0
 40
0.0
 40
0.9999999999999999
 40
0.9999999999999999
 40
0.9999999999999999
 40
0.9999999999999999
 10
159.2327264968359
 20
307.4593830304732
 30
0.0
 10
159.6319911320351
 20
307.2285557148584
 30
0.0
 10
160.0312153760747
 20
306.9977159108266
 30
0.0
 10
160.4303992289547
 20
306.7668636183778
 30
0.0
  0
SPLINE
  5
101
330
A5
100
AcDbEntity
  8
DV2_Standard
  6
Continuous
 62
     7
100
AcDbSpline
210
0.0
220
0.0
230
1.0
 70
     8
 71
     3
 72
     8
 73
     4
 74
     0
 42
0.0000000072183333
 43
0.0000000001
 40
0.0
 40
0.0
 40
0.0
 40
0.0
 40
0.9999999999999999
 40
0.9999999999999999
 40
0.9999999999999999
 40
0.9999999999999999
 10
159.2316518140968
 20
309.2746882194737
 30
0.0
 10
159.6314455696918
 20
309.0435343796378
 30
0.0
 10
160.031207297296
 20
308.812367983355
 30
0.0
 10
160.4309369969095
 20
308.5811890306256
 30
0.0
  0
SPLINE
  5
102
330
A5
100
AcDbEntity
  8
DV2_Standard
  6
Continuous
 62
     7
100
AcDbSpline
210
0.0
220
0.0
230
1.0
 70
     8
 71
     3
 72
     8
 73
     4
 74
     0
 42
0.0000000072311046
 43
0.0000000001
 40
0.0
 40
0.0
 40
0.0
 40
0.0
 40
1.0
 40
1.0
 40
1.0
 40
1.0
 10
159.2332209634708
 20
311.087749375892
 30
0.0
 10
159.6323228554867
 20
310.8570153062254
 30
0.0
 10
160.0313843778316
 20
310.6262672847413
 30
0.0
 10
160.4304055305056
 20
310.3955053114394
 30
0.0
  0
ARC
  5
103
330
A5
100
AcDbEntity
  8
DV2_Standard
  6
Continuous
 62
     7
100
AcDbCircle
 10
156.7651991664
 20
312.7331610521
 30
0.0
 40
2.509973616694796
100
AcDbArc
 50
359.8722310066
 51
90.3581613903
  0
ARC
  5
104
330
A5
100
AcDbEntity
  8
DV2_Standard
  6
Continuous
 62
     7
100
AcDbCircle
 10
182.6921271953
 20
312.7324471314
 30
0.0
 40
2.510684017796784
100
AcDbArc
 50
89.6581762225
 51
180.1114156437
  0
LINE
  5
105
330
A5
100
AcDbEntity
  8
DV2_Standard
  6
Continuous
 62
     7
100
AcDbLine
 10
187.7283078293
 20
347.2080089166
 30
0.0
 11
143.2283078293
 21
347.2080089166
 31
0.0
  0
LINE
  5
106
330
A5
100
AcDbEntity
  8
DV2_Standard
  6
Continuous
 62
     7
100
AcDbLine
 10
182.7283078293
 20
315.2080089166
 30
0.0
 11
187.7283078293
 21
315.2080089166
 31
0.0
  0
LINE
  5
107
330
A5
100
AcDbEntity
  8
DV2_Standard
  6
Continuous
 62
     7
100
AcDbLine
 10
143.2283078293
 20
315.2080089166
 30
0.0
 11
156.7283078292
 21
315.2080089166
 31
0.0
  0
ARC
  5
108
330
A5
100
AcDbEntity
  8
DV2_Standard
  6
Continuous
 62
     7
100
AcDbCircle
 10
187.7283078293
 20
346.7080089166
 30
0.0
 40
0.5000000000000006
100
AcDbArc
 50
0.0000007357
 51
90.0
  0
ARC
  5
109
330
A5
100
AcDbEntity
  8
DV2_Standard
  6
Continuous
 62
     7
100
AcDbCircle
 10
187.7283078293
 20
315.7080089166
 30
0.0
 40
0.5000000000000004
100
AcDbArc
 50
270.0
 51
359.9999992643
  0
LINE
  5
10A
330
A5
100
AcDbEntity
  8
DV2_Standard
  6
Continuous
 62
     7
100
AcDbLine
 10
188.3283078293
 20
317.7080089166
 30
0.0
 11
188.3283078293
 21
344.7080089166
 31
0.0
  0
LINE
  5
10B
330
A5
100
AcDbEntity
  8
DV2_Standard
  6
Continuous
 62
     7
100
AcDbLine
 10
188.3283078293
 20
344.7080089166
 30
0.0
 11
188.2283078293
 21
344.7071362298
 31
0.0
  0
LINE
  5
10C
330
A5
100
AcDbEntity
  8
DV2_Standard
  6
Continuous
 62
     7
100
AcDbLine
 10
188.2283078293
 20
317.7088816034
 30
0.0
 11
188.3283078293
 21
317.7080089166
 31
0.0
  0
LINE
  5
10D
330
A5
100
AcDbEntity
  8
DV2_Standard
  6
Continuous
 62
     7
100
AcDbLine
 10
188.3283078293
 20
317.7080089166
 30
0.0
 11
189.0282959554
 21
317.7141176205
 31
0.0
  0
LINE
  5
10E
330
A5
100
AcDbEntity
  8
DV2_Standard
  6
Continuous
 62
     7
100
AcDbLine
 10
189.0282959418
 20
344.7019002129
 30
0.0
 11
188.3283078293
 21
344.7080089166
 31
0.0
  0
ARC
  5
10F
330
A5
100
AcDbEntity
  8
DV2_Standard
  6
Continuous
 62
     7
100
AcDbCircle
 10
-298.2974787896
 20
339.2067409354
 30
0.0
 40
522.3001123248765
100
AcDbArc
 50
0.8178049446
 51
0.8252253118
  0
ARC
  5
110
330
A5
100
AcDbEntity
  8
DV2_Standard
  6
Continuous
 62
     7
100
AcDbCircle
 10
711.9287089169
 20
332.3898402123
 30
0.0
 40
487.9883665874955
100
AcDbArc
 50
180.1361634718
 51
181.1916345535
  0
ARC
  5
111
330
A5
100
AcDbEntity
  8
DV2_Standard
  6
Continuous
 62
     7
100
AcDbCircle
 10
-6171.0701806645
 20
303.8396683917
 30
0.0
 40
6395.18916334801
100
AcDbArc
 50
359.8299370183
 51
0.0948115441
  0
SPLINE
  5
112
330
A5
100
AcDbEntity
  8
DV2_Standard
  6
Continuous
 62
     7
100
AcDbSpline
210
0.0
220
0.0
230
1.0
 70
     8
 71
     3
 72
    16
 73
    12
 74
     0
 42
0.000000001436542
 43
0.0000000001
 40
0.0
 40
0.0
 40
0.0
 40
0.0
 40
0.1250000000000001
 40
0.2500000000000002
 40
0.2500000000000002
 40
0.5000000000000001
 40
0.5000000000000001
 40
0.6250000000000001
 40
0.75
 40
0.875
 40
1.0
 40
1.0
 40
1.0
 40
1.0
 10
215.3066571682824
 20
315.2077840711927
 30
0.0
 10
215.7000584402393
 20
315.2080088421212
 30
0.0
 10
216.4483204907633
 20
315.2065857281473
 30
0.0
 10
217.1227198833177
 20
315.1427146728923
 30
0.0
 10
218.0685138551534
 20
314.9771355515456
 30
0.0
 10
218.6108705192207
 20
314.7699536443649
 30
0.0
 10
219.2307447803722
 20
314.310460534571
 30
0.0
 10
219.579656939102
 20
313.9564416847674
 30
0.0
 10
219.8971491813555
 20
313.3041394612437
 30
0.0
 10
220.0263897805001
 20
312.5542815825067
 30
0.0
 10
220.0283068651426
 20
311.9996254721102
 30
0.0
 10
220.0283097265324
 20
311.7080128999827
 30
0.0
  0
ARC
  5
113
330
A5
100
AcDbEntity
  8
DV2_Standard
  6
Continuous
 62
     7
100
AcDbCircle
 10
1194.8591472596
 20
338.3178702002
 30
0.0
 40
971.4509499299184
100
AcDbArc
 50
179.4756217392
 51
179.4796953754
  0
ARC
  5
114
330
A5
100
AcDbEntity
  8
DV2_Standard
  6
Continuous
 62
     7
100
AcDbCircle
 10
-1208.4350604369
 20
339.8541409155
 30
0.0
 40
1431.90282939083
100
AcDbArc
 50
359.6548918776
 51
0.2942802151
  0
ARC
  5
115
330
A5
100
AcDbEntity
  8
DV2_Standard
  6
Continuous
 62
     7
100
AcDbCircle
 10
223.4488772062
 20
346.7085835618
 30
0.0
 40
0.5000051604988067
100
AcDbArc
 50
2.353537988
 51
89.9994384222
  0
ARC
  5
116
330
A5
100
AcDbEntity
  8
DV2_Standard
  6
Continuous
 62
     7
100
AcDbCircle
 10
189.3282959416
 20
315.5073344081
 30
0.0
 40
0.2999999999991834
100
AcDbArc
 50
180.0062215742
 51
269.9651803846
  0
LINE
  5
117
330
A5
100
AcDbEntity
  8
DV2_Standard
  6
Continuous
 62
     7
100
AcDbLine
 10
189.0282959556
 20
331.2114658803
 30
0.0
 11
189.0282959553
 21
315.5074248754
 31
0.0
  0
SPLINE
  5
118
330
A5
100
AcDbEntity
  8
DV2_Standard
  6
Continuous
 62
     7
100
AcDbSpline
210
0.0
220
0.0
230
1.0
 70
     8
 71
     3
 72
    14
 73
    10
 74
     0
 42
0.000000001327261
 43
0.0000000001
 40
0.0
 40
0.0
 40
0.0
 40
0.0
 40
0.1468567253797099
 40
0.2742301593623395
 40
0.3872621110562118
 40
0.492546444235195
 40
0.7165743628498614
 40
0.8496737554801046
 40
1.0
 40
1.0
 40
1.0
 40
1.0
 10
223.5460940193424
 20
321.9524239482797
 30
0.0
 10
223.5476175510656
 20
321.6314670946947
 30
0.0
 10
223.5504624872395
 20
321.0322916266294
 30
0.0
 10
223.5091354220273
 20
320.1626512357686
 30
0.0
 10
223.4645400645324
 20
319.3348613843549
 30
0.0
 10
223.4076300798561
 20
318.2192571802266
 30
0.0
 10
223.3679558756769
 20
316.9776667444087
 30
0.0
 10
223.3474548130346
 20
315.6011996223928
 30
0.0
 10
223.3459457580427
 20
314.8310319259157
 30
0.0
 10
223.3451323475724
 20
314.4225423517527
 30
0.0
  0
ARC
  5
119
330
A5
100
AcDbEntity
  8
DV2_Standard
  6
Continuous
 62
     7
100
AcDbCircle
 10
422.8812782228
 20
67.2301631574
 30
0.0
 40
317.677109409082
100
AcDbArc
 50
128.9108136027
 51
129.6838400893
  0
LINE
  5
11A
330
A5
100
AcDbEntity
  8
DV2_Standard
  6
Continuous
 62
     7
100
AcDbLine
 10
220.0283102028
 20
284.8617283521
 30
0.0
 11
220.0283097265
 21
311.7080129
 31
0.0
  0
ARC
  5
11B
330
A5
100
AcDbEntity
  8
DV2_Standard
  6
Continuous
 62
     7
100
AcDbCircle
 10
-1983.3517379644
 20
301.2658924175
 30
0.0
 40
2206.736090900349
100
AcDbArc
 50
359.5740788827
 51
0.3416017814
  0
SPLINE
  5
11C
330
A5
100
AcDbEntity
  8
DV2_Standard
  6
Continuous
 62
     7
100
AcDbSpline
210
0.0
220
0.0
230
1.0
 70
    12
 71
     3
 72
     8
 73
     4
 74
     0
 42
0.0000000075073788
 43
0.0000000001
 40
0.0
 40
0.0
 40
0.0
 40
0.0
 40
1.0
 40
1.0
 40
1.0
 40
1.0
 10
223.9881030538023
 20
274.8019022114027
 30
0.0
 41
1.346896723518475
 10
223.9722643350006
 20
274.3581742159315
 30
0.0
 41
0.8843554364657112
 10
223.5765073883498
 20
274.1568802541656
 30
0.0
 41
0.8843677591554918
 10
223.2085626564724
 20
274.4053892684327
 30
0.0
 41
1.346933691587816
  0
ARC
  5
11D
330
A5
100
AcDbEntity
  8
DV2_Standard
  6
Continuous
 62
     7
100
AcDbCircle
 10
-1691.8349096439
 20
300.6626790882
 30
0.0
 40
1915.22347157429
100
AcDbArc
 50
359.2144629372
 51
359.5272950906
  0
SPLINE
  5
11E
330
A5
100
AcDbEntity
  8
DV2_Standard
  6
Continuous
 62
     7
100
AcDbSpline
210
0.0
220
0.0
230
1.0
 70
    12
 71
     3
 72
    16
 73
    12
 74
     0
 42
0.0000000008798281
 43
0.0000000001
 40
0.0
 40
0.0
 40
0.0
 40
0.0
 40
0.2131834694285
 40
0.3443195578571
 40
0.4754556462857
 40
0.6065917347143
 40
0.7377278231427999
 40
0.8032958673571
 40
0.8688639115715
 40
0.9344319557856999
 40
1.0
 40
1.0
 40
1.0
 40
1.0
 10
223.2085626564724
 20
274.4053892684327
 30
0.0
 41
1.0
 10
222.7567699292824
 20
274.7105481031027
 30
0.0
 41
1.0
 10
222.1047606191024
 20
275.3398366253127
 30
0.0
 41
1.0
 10
221.3777479519324
 20
276.5097133869327
 30
0.0
 41
1.0
 10
220.8854705866923
 20
277.6691960849027
 30
0.0
 41
1.0
 10
220.5025208206824
 20
279.0152310973327
 30
0.0
 41
1.0
 10
220.2745434498324
 20
280.2707690033727
 30
0.0
 41
1.0
 10
220.1468683898224
 20
281.3493942240027
 30
0.0
 41
1.0
 10
220.0784691057824
 20
282.2363922847427
 30
0.0
 41
1.0
 10
220.0374269921224
 20
283.3037505454427
 30
0.0
 41
1.0
 10
220.0283102027724
 20
284.2655988455327
 30
0.0
 41
1.0
 10
220.0283102027724
 20
284.8617283520627
 30
0.0
 41
1.0
  0
SPLINE
  5
11F
330
A5
100
AcDbEntity
  8
DV2_Standard
  6
Continuous
 62
     7
100
AcDbSpline
210
0.0
220
0.0
230
1.0
 70
     8
 71
     3
 72
    38
 73
    34
 74
     0
 42
0.0000000001392037
 43
0.0000000001
 40
0.0
 40
0.0
 40
0.0
 40
0.0
 40
0.0485996227698373
 40
0.1013707552440204
 40
0.1510763698496929
 40
0.1977188513220346
 40
0.2412977845612072
 40
0.2818120155745297
 40
0.3192615054946254
 40
0.3536463606814679
 40
0.3819111109465653
 40
0.4077048608347899
 40
0.4310276422512152
 40
0.4522404805244049
 40
0.4727457398751574
 40
0.4926839282181364
 40
0.5120550529324298
 40
0.5531618237593272
 40
0.5914555991919016
 40
0.6029288343042065
 40
0.6154846387809303
 40
0.6299452578086144
 40
0.6463107026539106
 40
0.6645809882345025
 40
0.6905890454785995
 40
0.7196827175423265
 40
0.7518620825906517
 40
0.7871270587040062
 40
0.8254769205554993
 40
0.8661439598753438
 40
0.9097859504463935
 40
0.9564049204173581
 40
1.0
 40
1.0
 40
1.0
 40
1.0
 10
223.9895100535284
 20
274.8986478708538
 30
0.0
 10
224.0330468701969
 20
276.1684478408507
 30
0.0
 10
224.1081300148207
 20
278.4214619929147
 30
0.0
 10
224.1859302473769
 20
282.1122868872836
 30
0.0
 10
224.2207371319423
 20
285.6644679764023
 30
0.0
 10
224.2295915308076
 20
289.0200928635157
 30
0.0
 10
224.2289066402425
 20
292.1498910864656
 30
0.0
 10
224.2285572178204
 20
295.060911197603
 30
0.0
 10
224.2280083602027
 20
297.7514169051194
 30
0.0
 10
224.2275880542063
 20
300.1486455047582
 30
0.0
 10
224.2273180313054
 20
302.2667198638837
 30
0.0
 10
224.2272143288147
 20
304.1198789940318
 30
0.0
 10
224.2272650582822
 20
305.8041552109361
 30
0.0
 10
224.2274621236148
 20
307.3617806901141
 30
0.0
 10
224.2278046818024
 20
308.8383504825475
 30
0.0
 10
224.2283049733392
 20
310.2708141337899
 30
0.0
 10
224.2292193282813
 20
312.1966510368879
 30
0.0
 10
224.2306446109732
 20
314.5620748004974
 30
0.0
 10
224.2319407206646
 20
316.738356729959
 30
0.0
 10
224.2326700893748
 20
318.2308887022361
 30
0.0
 10
224.2330593382221
 20
319.1526546309976
 30
0.0
 10
224.2334015555618
 20
320.1915812441969
 30
0.0
 10
224.2336361488893
 20
321.3673604911136
 30
0.0
 10
224.2336694161787
 20
322.8196831023657
 30
0.0
 10
224.2332384793471
 20
324.5768232269462
 30
0.0
 10
224.2318581452586
 20
326.6670785811207
 30
0.0
 10
224.2290820241011
 20
328.9789543312854
 30
0.0
 10
224.2240681747115
 20
331.5127851534177
 30
0.0
 10
224.2123090446558
 20
334.2486562519403
 30
0.0
 10
224.1876414108443
 20
337.1900682025533
 30
0.0
 10
224.1414620339802
 20
340.3086593508616
 30
0.0
 10
224.0667052117446
 20
343.5790038467973
 30
0.0
 10
223.9902809262182
 20
345.5815818964371
 30
0.0
 10
223.9458179094213
 20
346.729156841557
 30
0.0
  0
LINE
  5
120
330
A5
100
AcDbEntity
  8
DV2_Standard
  6
Continuous
 62
     7
100
AcDbLine
 10
189.3281136264
 20
315.2073343516
 30
0.0
 11
215.3066716209
 21
315.2073343516
 31
0.0
  0
LINE
  5
121
330
A5
100
AcDbEntity
  8
DV2_Standard
  6
Continuous
 62
     7
100
AcDbLine
 10
223.4488815193
 20
347.2085900848
 30
0.0
 11
189.3281136268
 21
347.2085900848
 31
0.0
  0
ARC
  5
122
330
A5
100
AcDbEntity
  8
DV2_Standard
  6
Continuous
 62
     7
100
AcDbCircle
 10
223.4502012494
 20
346.6394260996
 30
0.0
 40
0.4990365087791564
100
AcDbArc
 50
1.8666496037
 51
90.8852810225
  0
ARC
  5
123
330
A5
100
AcDbEntity
  8
DV2_Standard
  6
Continuous
 62
     7
100
AcDbCircle
 10
189.3282959418
 20
346.9085900848
 30
0.0
 40
0.3000000000005011
100
AcDbArc
 50
90.058008605
 51
180.0
  0
LINE
  5
124
330
A5
100
AcDbEntity
  8
DV2_Standard
  6
Continuous
 62
     7
100
AcDbLine
 10
189.0282959418
 20
346.9085900848
 30
0.0
 11
189.0282959418
 21
331.2111087185
 31
0.0
  0
LINE
  5
125
330
A5
100
AcDbEntity
  8
DV2_Standard
  6
Continuous
 62
     7
100
AcDbLine
 10
136.2283078293
 20
356.2080089166
 30
0.0
 11
136.2283078293
 21
306.2080089166
 31
0.0
  0
LINE
  5
126
330
A5
100
AcDbEntity
  8
DV2_Standard
  6
Continuous
 62
     7
100
AcDbLine
 10
143.2283078293
 20
355.2080087877
 30
0.0
 11
143.2283078293
 21
307.2080090456
 31
0.0
  0
LINE
  5
127
330
A5
100
AcDbEntity
  8
DV2_Standard
  6
Continuous
 62
     7
100
AcDbLine
 10
142.2283078293
 20
356.2080089166
 30
0.0
 11
136.2283078293
 21
356.2080089166
 31
0.0
  0
LINE
  5
128
330
A5
100
AcDbEntity
  8
DV2_Standard
  6
Continuous
 62
     7
100
AcDbLine
 10
136.2283078293
 20
306.2080089166
 30
0.0
 11
142.2283078293
 21
306.2080089166
 31
0.0
  0
ARC
  5
129
330
A5
100
AcDbEntity
  8
DV2_Standard
  6
Continuous
 62
     7
100
AcDbCircle
 10
142.2283078293
 20
355.2080089166
 30
0.0
 40
1.000000000000002
100
AcDbArc
 50
0.0
 51
90.0
  0
ARC
  5
12A
330
A5
100
AcDbEntity
  8
DV2_Standard
  6
Continuous
 62
     7
100
AcDbCircle
 10
142.2283078293
 20
307.2080089166
 30
0.0
 40
1.000000000000001
100
AcDbArc
 50
270.0
 51
0.0
  0
ENDBLK
  5
12C
330
A5
100
AcDbEntity
  8
0
100
AcDbBlockEnd
  0
BLOCK
  5
158
330
12D
100
AcDbEntity
  8
0
100
AcDbBlockBegin
  2
SE2
 70
     0
 10
0.0
 20
0.0
 30
0.0
  3
SE2
  1

  0
LINE
  5
130
330
12D
100
AcDbEntity
  8
DV3_Standard
  6
Continuous
 62
     7
100
AcDbLine
 10
15.8499999872
 20
142.3500871338
 30
0.0
 11
46.8500000128
 21
142.3500871338
 31
0.0
  0
LINE
  5
131
330
12D
100
AcDbEntity
  8
DV3_Standard
  6
Continuous
 62
     7
100
AcDbLine
 10
47.35
 20
142.8500871338
 30
0.0
 11
47.35
 21
187.3500871338
 31
0.0
  0
LINE
  5
132
330
12D
100
AcDbEntity
  8
DV3_Standard
  6
Continuous
 62
     7
100
AcDbLine
 10
15.35
 20
187.3500871338
 30
0.0
 11
15.35
 21
142.8500871338
 31
0.0
  0
ARC
  5
133
330
12D
100
AcDbEntity
  8
DV3_Standard
  6
Continuous
 62
     7
100
AcDbCircle
 10
46.85
 20
142.8500871338
 30
0.0
 40
0.5000000000000006
100
AcDbArc
 50
270.0000007357
 51
0.0
  0
ARC
  5
134
330
12D
100
AcDbEntity
  8
DV3_Standard
  6
Continuous
 62
     7
100
AcDbCircle
 10
15.85
 20
142.8500871338
 30
0.0
 40
0.5000000000000004
100
AcDbArc
 50
180.0
 51
269.9999992643
  0
LINE
  5
135
330
12D
100
AcDbEntity
  8
DV3_Standard
  6
Continuous
 62
     7
100
AcDbLine
 10
44.85
 20
142.2500871338
 30
0.0
 11
17.85
 21
142.2500871338
 31
0.0
  0
LINE
  5
136
330
12D
100
AcDbEntity
  8
DV3_Standard
  6
Continuous
 62
     7
100
AcDbLine
 10
44.85
 20
142.2500871338
 30
0.0
 11
44.8491273132
 21
142.3500871338
 31
0.0
  0
LINE
  5
137
330
12D
100
AcDbEntity
  8
DV3_Standard
  6
Continuous
 62
     7
100
AcDbLine
 10
17.8508726868
 20
142.3500871338
 30
0.0
 11
17.85
 21
142.2500871338
 31
0.0
  0
LINE
  5
138
330
12D
100
AcDbEntity
  8
DV3_Standard
  6
Continuous
 62
     7
100
AcDbLine
 10
17.85
 20
142.2500871338
 30
0.0
 11
17.8561087037
 21
141.5500990212
 31
0.0
  0
LINE
  5
139
330
12D
100
AcDbEntity
  8
DV3_Standard
  6
Continuous
 62
     7
100
AcDbLine
 10
44.8438912959
 20
141.5500989788
 30
0.0
 11
44.85
 21
142.2500871338
 31
0.0
  0
ARC
  5
13A
330
12D
100
AcDbEntity
  8
DV3_Standard
  6
Continuous
 62
     7
100
AcDbCircle
 10
39.0220354269
 20
311.5444461477
 30
0.0
 40
205.0579959573089
100
AcDbArc
 50
267.8564845698
 51
272.1932653739
  0
ARC
  5
13B
330
12D
100
AcDbEntity
  8
DV3_Standard
  6
Continuous
 62
     7
100
AcDbCircle
 10
21.6581489091
 20
227.2784369722
 30
0.0
 40
120.7823432924738
100
AcDbArc
 50
267.2353430449
 51
268.5928886659
  0
ARC
  5
13C
330
12D
100
AcDbEntity
  8
DV3_Standard
  6
Continuous
 62
     7
100
AcDbCircle
 10
25.6336184091
 20
328.8643268858
 30
0.0
 40
222.440144236797
100
AcDbArc
 50
268.2117466988
 51
268.8623127469
  0
SPLINE
  5
13D
330
12D
100
AcDbEntity
  8
DV3_Standard
  6
Continuous
 62
     7
100
AcDbSpline
210
0.0
220
0.0
230
1.0
 70
     8
 71
     3
 72
    21
 73
    17
 74
     0
 42
0.0000000039468395
 43
0.0000000001
 40
0.0
 40
0.0
 40
0.0
 40
0.0
 40
0.0744866258381155
 40
0.1099695288945198
 40
0.1442836634468994
 40
0.2094116663679753
 40
0.2699381284119369
 40
0.3263389452537466
 40
0.3794816940597807
 40
0.4817984031558069
 40
0.7068730878860574
 40
0.7734953874982861
 40
0.8446920020860649
 40
0.9201875945783278
 40
0.9652545930828202
 40
1.0
 40
1.0
 40
1.0
 40
1.0
 10
44.00979481809
 20
106.5325746655992
 30
0.0
 10
43.88445303955588
 20
106.5288971016887
 30
0.0
 10
43.69940273261498
 20
106.5234662353464
 30
0.0
 10
43.46230301604435
 20
106.5166926765684
 30
0.0
 10
43.2425666969776
 20
106.5105357823588
 30
0.0
 10
42.98656923082081
 20
106.5035239248818
 30
0.0
 10
42.71272995371309
 20
106.4962440067417
 30
0.0
 10
42.48032263002035
 20
106.4902363368097
 30
0.0
 10
42.21819971730792
 20
106.4836326316554
 30
0.0
 10
41.82619636239542
 20
106.4741517169269
 30
0.0
 10
41.60616415824023
 20
106.4694208362909
 30
0.0
 10
41.52034198306897
 20
106.4679334512786
 30
0.0
 10
41.49357293998242
 20
106.4676405943648
 30
0.0
 10
41.4821050107945
 20
106.4676921436076
 30
0.0
 10
41.47996357095369
 20
106.4679060125755
 30
0.0
 10
41.48203225737392
 20
106.468084327254
 30
0.0
 10
41.48293268799
 20
106.4681682522092
 30
0.0
  0
SPLINE
  5
13E
330
12D
100
AcDbEntity
  8
DV3_Standard
  6
Continuous
 62
     7
100
AcDbSpline
210
0.0
220
0.0
230
1.0
 70
    12
 71
     3
 72
     8
 73
     4
 74
     0
 42
0.0000005335132788
 43
0.0000000001
 40
0.0
 40
0.0
 40
0.0
 40
0.0
 40
1.0
 40
1.0
 40
1.0
 40
1.0
 10
44.07846807648571
 20
106.5417141856146
 30
0.0
 41
1.096972899226467
 10
44.08451713025005
 20
106.5431662182213
 30
0.0
 41
1.091821745259687
 10
44.09054977733913
 20
106.5447900997555
 30
0.0
 41
1.086875811416786
 10
44.09656233770851
 20
106.5465872625838
 30
0.0
 41
1.082135097697762
  0
ARC
  5
13F
330
12D
100
AcDbEntity
  8
DV3_Standard
  6
Continuous
 62
     7
100
AcDbCircle
 10
20.4066409017
 20
208.3393716943
 30
0.0
 40
101.3289928983229
100
AcDbArc
 50
267.1398888643
 51
267.1656306078
  0
SPLINE
  5
140
330
12D
100
AcDbEntity
  8
DV3_Standard
  6
Continuous
 62
     7
100
AcDbSpline
210
0.0
220
0.0
230
1.0
 70
     8
 71
     3
 72
     8
 73
     4
 74
     0
 42
0.000000413079612
 43
0.0000000001
 40
0.0
 40
0.0
 40
0.0
 40
0.0
 40
1.0
 40
1.0
 40
1.0
 40
1.0
 10
18.62474374805057
 20
106.5414411633615
 30
0.0
 10
18.61701547150658
 20
106.5432716918301
 30
0.0
 10
18.60923079983919
 20
106.545400495077
 30
0.0
 10
18.6014084571399
 20
106.5478463368569
 30
0.0
  0
SPLINE
  5
141
330
12D
100
AcDbEntity
  8
DV3_Standard
  6
Continuous
 62
     7
100
AcDbSpline
210
0.0
220
0.0
230
1.0
 70
    12
 71
     3
 72
     8
 73
     4
 74
     0
 42
0.0000000117112193
 43
0.0000000001
 40
0.0
 40
0.0
 40
0.0
 40
0.0
 40
1.0
 40
1.0
 40
1.0
 40
1.0
 10
15.83237630364
 20
106.6366746145393
 30
0.0
 41
1.165366417104956
 10
15.54817265202742
 20
106.6470234161491
 30
0.0
 41
0.946453734396624
 10
15.35042330259831
 20
106.851738350869
 30
0.0
 41
0.944889124030584
 10
15.35056456641
 20
107.1366005174092
 30
0.0
 41
1.160672586006837
  0
ARC
  5
142
330
12D
100
AcDbEntity
  8
DV3_Standard
  6
Continuous
 62
     7
100
AcDbCircle
 10
24.2166280043
 20
2061.056348747
 30
0.0
 40
1953.939863353606
100
AcDbArc
 50
269.7400177106
 51
270.2092243341
  0
LINE
  5
143
330
12D
100
AcDbEntity
  8
DV3_Standard
  6
Continuous
 62
     7
100
AcDbLine
 10
31.3523174588
 20
141.5500989792
 30
0.0
 11
47.0496110739
 21
141.5500989789
 31
0.0
  0
ARC
  5
144
330
12D
100
AcDbEntity
  8
DV3_Standard
  6
Continuous
 62
     7
100
AcDbCircle
 10
15.6513960539
 20
141.2480744876
 30
0.0
 40
0.3020307058627191
100
AcDbArc
 50
90.3667020308
 51
179.6159393526
  0
ARC
  5
145
330
12D
100
AcDbEntity
  8
DV3_Standard
  6
Continuous
 62
     7
100
AcDbCircle
 10
31.3363960682
 20
532.4005006637
 30
0.0
 40
426.0505006637179
100
AcDbArc
 50
268.6391245087
 51
271.3645309505
  0
ARC
  5
146
330
12D
100
AcDbEntity
  8
DV3_Standard
  6
Continuous
 62
     7
100
AcDbCircle
 10
36.2191007005
 20
317.9528999044
 30
0.0
 40
211.5525408833036
100
AcDbArc
 50
271.5877326797
 51
272.1240896877
  0
LINE
  5
147
330
12D
100
AcDbEntity
  8
DV3_Standard
  6
Continuous
 62
     7
100
AcDbLine
 10
15.3505481382
 20
141.2500990211
 30
0.0
 11
15.3505481382
 21
107.1365160254
 31
0.0
  0
LINE
  5
148
330
12D
100
AcDbEntity
  8
DV3_Standard
  6
Continuous
 62
     7
100
AcDbLine
 10
47.3518038714
 20
107.1358940513
 30
0.0
 11
47.3518038714
 21
141.2502813363
 31
0.0
  0
SPLINE
  5
149
330
12D
100
AcDbEntity
  8
DV3_Standard
  6
Continuous
 62
     7
100
AcDbSpline
210
0.0
220
0.0
230
1.0
 70
     8
 71
     3
 72
     9
 73
     5
 74
     0
 42
0.0000000847567048
 43
0.0000000001
 40
0.0
 40
0.0
 40
0.0
 40
0.0
 40
0.961684465032644
 40
1.0
 40
1.0
 40
1.0
 40
1.0
 10
15.39589348987205
 20
107.1419483654529
 30
0.0
 10
15.39795298071789
 20
107.1001561354814
 30
0.0
 10
15.40025122482083
 20
107.0630887358225
 30
0.0
 10
15.40839766521983
 20
107.026419808505
 30
0.0
 10
15.40871818550716
 20
107.0250156256244
 30
0.0
  0
SPLINE
  5
14A
330
12D
100
AcDbEntity
  8
DV3_Standard
  6
Continuous
 62
     7
100
AcDbSpline
210
0.0
220
0.0
230
1.0
 70
     8
 71
     3
 72
    18
 73
    14
 74
     0
 42
0.0000000033698329
 43
0.0000000001
 40
0.0
 40
0.0
 40
0.0
 40
0.0
 40
0.0412021325491716
 40
0.0920767400548345
 40
0.1483366187300947
 40
0.2099778138754906
 40
0.2769994261543981
 40
0.3747316320334481
 40
0.482043062625843
 40
0.5989395346416009
 40
0.7254268135044852
 40
0.8615213795607465
 40
1.0
 40
1.0
 40
1.0
 40
1.0
 10
15.66634584040727
 20
106.7101641787324
 30
0.0
 10
15.69910781131431
 20
106.6955238896315
 30
0.0
 10
15.74580379879623
 20
106.6847713540636
 30
0.0
 10
15.81877595296308
 20
106.6726419029218
 30
0.0
 10
15.91280399710049
 20
106.6606137906271
 30
0.0
 10
16.0260852839634
 20
106.6495989919305
 30
0.0
 10
16.1806729303583
 20
106.63765834951
 30
0.0
 10
16.39140218918462
 20
106.6248199806403
 30
0.0
 10
16.67865802947964
 20
106.6105669018637
 30
0.0
 10
17.03786611793875
 20
106.595339342007
 30
0.0
 10
17.47767415832942
 20
106.5788222405573
 30
0.0
 10
18.01330479534475
 20
106.5605330142932
 30
0.0
 10
18.39488252533127
 20
106.5488430266529
 30
0.0
 10
18.62477102212906
 20
106.5418414170439
 30
0.0
  0
ARC
  5
14B
330
12D
100
AcDbEntity
  8
DV3_Standard
  6
Continuous
 62
     7
100
AcDbCircle
 10
15.7728639447
 20
107.0338308678
 30
0.0
 40
0.3676942451310996
100
AcDbArc
 50
162.6523924857
 51
245.4115669639
  0
SPLINE
  5
14C
330
12D
100
AcDbEntity
  8
DV3_Standard
  6
Continuous
 62
     7
100
AcDbSpline
210
0.0
220
0.0
230
1.0
 70
     8
 71
     3
 72
    23
 73
    19
 74
     0
 42
0.0000000028484193
 43
0.0000000001
 40
0.0
 40
0.0
 40
0.0
 40
0.0
 40
0.0999340233483459
 40
0.213250969897101
 40
0.3190116991072368
 40
0.4172021520481182
 40
0.5363102121871629
 40
0.6418911919298449
 40
0.7338878217337806
 40
0.8122355389045999
 40
0.876871605951931
 40
0.9277513198506486
 40
0.9568890725985134
 40
0.9783511513147737
 40
0.9923453539674023
 40
0.9967922313268811
 40
0.9985084011734773
 40
1.0
 40
1.0
 40
1.0
 40
1.0
 10
44.07833966007674
 20
106.5430040823328
 30
0.0
 10
44.28931533984637
 20
106.5506432647472
 30
0.0
 10
44.66727365857032
 20
106.5644885666348
 30
0.0
 10
45.2130422883325
 20
106.5885068779245
 30
0.0
 10
45.68693891221681
 20
106.6133366110786
 30
0.0
 10
46.11538245366076
 20
106.6412259919778
 30
0.0
 10
46.48176521219789
 20
106.6731063813253
 30
0.0
 10
46.7789170582356
 20
106.7116611457141
 30
0.0
 10
46.99021608722717
 20
106.7548942005496
 30
0.0
 10
47.13554065704869
 20
106.8038580267687
 30
0.0
 10
47.23167577791656
 20
106.8590620827552
 30
0.0
 10
47.28898012149188
 20
106.9166930386707
 30
0.0
 10
47.32188219722875
 20
106.9739292112374
 30
0.0
 10
47.33938330920962
 20
107.025238815412
 30
0.0
 10
47.34837732800552
 20
107.0714626938404
 30
0.0
 10
47.35134699405729
 20
107.111099066666
 30
0.0
 10
47.35186682182734
 20
107.1319625541949
 30
0.0
 10
47.35175976509513
 20
107.141474911693
 30
0.0
 10
47.35169582355144
 20
107.146654051079
 30
0.0
  0
ARC
  5
14D
330
12D
100
AcDbEntity
  8
DV3_Standard
  6
Continuous
 62
     7
100
AcDbCircle
 10
47.0494518618
 20
141.2500990212
 30
0.0
 40
0.3000000000004986
100
AcDbArc
 50
0.129065688
 51
89.9695734756
  0
LINE
  5
14E
330
12D
100
AcDbEntity
  8
DV3_Standard
  6
Continuous
 62
     7
100
AcDbLine
 10
47.0494518618
 20
141.5500990212
 30
0.0
 11
15.6481961286
 21
141.5500990212
 31
0.0
  0
ARC
  5
14F
330
12D
100
AcDbEntity
  8
DV3_Standard
  6
Continuous
 62
     7
100
AcDbCircle
 10
22.7710040558
 20
199.4715334983
 30
0.0
 40
93.017117036256
100
AcDbArc
 50
267.4496882103
 51
269.0190427936
  0
ARC
  5
150
330
12D
100
AcDbEntity
  8
DV3_Standard
  6
Continuous
 62
     7
100
AcDbCircle
 10
21.1791604048
 20
106.9690456036
 30
0.0
 40
0.4299394435547315
100
AcDbArc
 50
158.1110661483
 51
203.2858104796
  0
ARC
  5
151
330
12D
100
AcDbEntity
  8
DV3_Standard
  6
Continuous
 62
     7
100
AcDbCircle
 10
41.5208681738
 20
106.9690495382
 30
0.0
 40
0.429915167734149
100
AcDbArc
 50
336.7366715585
 51
2.3117033511
  0
LINE
  5
152
330
12D
100
AcDbEntity
  8
DV3_Standard
  6
Continuous
 62
     7
100
AcDbLine
 10
6.35
 20
194.3500871338
 30
0.0
 11
56.35
 21
194.3500871338
 31
0.0
  0
LINE
  5
153
330
12D
100
AcDbEntity
  8
DV3_Standard
  6
Continuous
 62
     7
100
AcDbLine
 10
7.350000129
 20
187.3500871338
 30
0.0
 11
55.349999871
 21
187.3500871338
 31
0.0
  0
LINE
  5
154
330
12D
100
AcDbEntity
  8
DV3_Standard
  6
Continuous
 62
     7
100
AcDbLine
 10
56.35
 20
188.3500871338
 30
0.0
 11
56.35
 21
194.3500871338
 31
0.0
  0
LINE
  5
155
330
12D
100
AcDbEntity
  8
DV3_Standard
  6
Continuous
 62
     7
100
AcDbLine
 10
6.35
 20
194.3500871338
 30
0.0
 11
6.35
 21
188.3500871338
 31
0.0
  0
ARC
  5
156
330
12D
100
AcDbEntity
  8
DV3_Standard
  6
Continuous
 62
     7
100
AcDbCircle
 10
55.35
 20
188.3500871338
 30
0.0
 40
1.000000000000002
100
AcDbArc
 50
269.9999963056
 51
0.0
  0
ARC
  5
157
330
12D
100
AcDbEntity
  8
DV3_Standard
  6
Continuous
 62
     7
100
AcDbCircle
 10
7.35
 20
188.3500871338
 30
0.0
 40
1.000000000000001
100
AcDbArc
 50
180.0
 51
270.0000036944
  0
ENDBLK
  5
159
330
12D
100
AcDbEntity
  8
0
100
AcDbBlockEnd
  0
ENDSEC
  0
SECTION
  2
ENTITIES
  0
INSERT
  5
5F
330
1F
100
AcDbEntity
  8
Default
100
AcDbBlockReference
  2
SEANNOT_GROUP
 10
0.0
 20
0.0
 30
0.0
  0
INSERT
  5
66
330
1F
100
AcDbEntity
  8
Default
100
AcDbBlockReference
  2
SEANNOT_GROUP1
 10
0.0
 20
0.0
 30
0.0
  0
INSERT
  5
70
330
1F
100
AcDbEntity
  8
Default
100
AcDbBlockReference
  2
SEANNOT_GROUP2
 10
0.0
 20
0.0
 30
0.0
  0
INSERT
  5
76
330
1F
100
AcDbEntity
  8
Default
100
AcDbBlockReference
  2
SEANNOT_GROUP3
 10
0.0
 20
0.0
 30
0.0
  0
LINE
  5
7B
330
1F
100
AcDbEntity
  8
Default
  6
Continuous
 62
     7
100
AcDbLine
 10
41.9996291714
 20
301.2080089166
 30
0.0
 11
20.7211749791
 21
301.2080089166
 31
0.0
  0
INSERT
  5
7D
330
1F
100
AcDbEntity
  8
Default
100
AcDbBlockReference
  2
SEANNOT_GROUP4
 10
0.0
 20
0.0
 30
0.0
  0
LINE
  5
82
330
1F
100
AcDbEntity
  8
Default
  6
Continuous
 62
     7
100
AcDbLine
 10
24.8499746976
 20
160.8500871338
 30
0.0
 11
37.8500253024
 21
160.8500871338
 31
0.0
  0
INSERT
  5
84
330
1F
100
AcDbEntity
  8
Default
100
AcDbBlockReference
  2
SEANNOT_GROUP5
 10
0.0
 20
0.0
 30
0.0
  0
INSERT
  5
8A
330
1F
100
AcDbEntity
  8
Default
100
AcDbBlockReference
  2
SE
 10
0.0
 20
0.0
 30
0.0
  0
INSERT
  5
A6
330
1F
100
AcDbEntity
  8
Default
100
AcDbBlockReference
  2
SE1
 10
0.0
 20
0.0
 30
0.0
  0
INSERT
  5
12E
330
1F
100
AcDbEntity
  8
Default
100
AcDbBlockReference
  2
SE2
 10
0.0
 20
0.0
 30
0.0
  0
TEXT
  5
15B
330
1F
100
AcDbEntity
  8
Default
  6
Continuous
 62
     7
100
AcDbText
 10
5.9362635081
 20
53.4225120485
 30
0.0
 40
10.0
  1
Grohe AG^J
  7
SEACAD_seiso_ttf
 11
5.9362635081
 21
63.4225120485
 31
0.0
100
AcDbText
 73
     3
  0
TEXT
  5
15C
330
1F
100
AcDbEntity
  8
Default
  6
Continuous
 62
     7
100
AcDbText
 10
5.9362635081
 20
37.0588756849
 30
0.0
 40
10.0
  1
 
  7
SEACAD_seiso_ttf
 11
5.9362635081
 21
47.0588756849
 31
0.0
100
AcDbText
 73
     3
  0
TEXT
  5
15D
330
1F
100
AcDbEntity
  8
Default
  6
Continuous
 62
     7
100
AcDbText
 10
5.9362635081
 20
20.6952393213
 30
0.0
 40
10.0
  1
ecn:
  7
SEACAD_seiso_ttf
 11
5.9362635081
 21
30.6952393213
 31
0.0
100
AcDbText
 73
     3
  0
TEXT
  5
15E
330
1F
100
AcDbEntity
  8
Default
  6
Continuous
 62
     7
100
AcDbText
 10
5.9362635081
 20
4.3316029576
 30
0.0
 40
10.0
  1
unit: mm
  7
SEACAD_seiso_ttf
 11
5.9362635081
 21
14.3316029576
 31
0.0
100
AcDbText
 73
     3
  0
LINE
  5
15F
330
1F
100
AcDbEntity
  8
Default
  6
Continuous
 62
     7
100
AcDbLine
 10
0.0
 20
0.0
 30
0.0
 11
100.0
 21
0.0
 31
0.0
  0
LINE
  5
160
330
1F
100
AcDbEntity
  8
Default
  6
Continuous
 62
     7
100
AcDbLine
 10
0.0
 20
0.0
 30
0.0
 11
0.0
 21
100.0
 31
0.0
  0
TEXT
  5
161
330
1F
100
AcDbEntity
  8
Default
  6
Continuous
 62
     7
100
AcDbText
 10
24.3923665681
 20
-18.2375342018
 30
0.0
 40
10.0
  1
100 mm
  7
SEACAD_seiso_ttf
 11
24.3923665681
 21
-8.2375342018
 31
0.0
100
AcDbText
 73
     3
  0
TEXT
  5
162
330
1F
100
AcDbEntity
  8
Default
  6
Continuous
 62
     7
100
AcDbText
 10
-7.6150308803
 20
24.6231930421
 30
0.0
 40
10.0
  1
100 mm
 50
90.0
  7
SEACAD_seiso_ttf
 11
-17.6150308803
 21
24.6231930421
 31
0.0
100
AcDbText
 73
     3
  0
TEXT
  5
163
330
1F
100
AcDbEntity
  8
Default
  6
Continuous
 62
     7
100
AcDbText
 10
28.4878128572
 20
20.0907663715
 30
0.0
 40
10.0
  1
222151
  7
SEACAD_seiso_ttf
 11
28.4878128572
 21
30.0907663715
 31
0.0
100
AcDbText
 73
     3
  0
TEXT
  5
164
330
1F
100
AcDbEntity
  8
Default
  6
Continuous
 62
     7
100
AcDbText
 10
5.9012241913
 20
36.7242780188
 30
0.0
 40
10.0
  1
26021000
  7
SEACAD_seiso_ttf
 11
5.9012241913
 21
46.7242780188
 31
0.0
100
AcDbText
 73
     3
  0
ENDSEC
  0
SECTION
  2
OBJECTS
  0
DICTIONARY
  5
C
330
0
100
AcDbDictionary
281
     1
  3
ACAD_GROUP
350
D
  3
ACAD_LAYOUT
350
1A
  3
ACAD_MLEADERSTYLE
350
168
  3
ACAD_MLINESTYLE
350
17
  3
ACAD_PLOTSETTINGS
350
19
  3
ACAD_PLOTSTYLENAME
350
E
  3
ACAD_SCALELIST
350
3B
  3
ACAD_TABLESTYLE
350
167
  3
ACAD_VISUALSTYLE
350
2A
  3
AcDbVariableDictionary
350
165
  0
DICTIONARY
  5
D
102
{ACAD_REACTORS
330
C
102
}
330
C
100
AcDbDictionary
281
     1
  0
DICTIONARY
  5
1A
102
{ACAD_REACTORS
330
C
102
}
330
C
100
AcDbDictionary
281
     1
  3
Layout1
350
1E
  3
Model
350
22
  0
DICTIONARY
  5
168
102
{ACAD_REACTORS
330
C
102
}
330
C
100
AcDbDictionary
281
     1
  0
DICTIONARY
  5
17
102
{ACAD_REACTORS
330
C
102
}
330
C
100
AcDbDictionary
281
     1
  3
Standard
350
18
  0
DICTIONARY
  5
19
102
{ACAD_REACTORS
330
C
102
}
330
C
100
AcDbDictionary
281
     1
  0
ACDBDICTIONARYWDFLT
  5
E
102
{ACAD_REACTORS
330
C
102
}
330
C
100
AcDbDictionary
281
     1
  3
Normal
350
F
100
AcDbDictionaryWithDefault
340
F
  0
DICTIONARY
  5
3B
102
{ACAD_REACTORS
330
C
102
}
330
C
100
AcDbDictionary
281
     1
  3
A0
350
3C
  3
A1
350
3D
  3
A2
350
3E
  3
A3
350
3F
  3
A4
350
40
  3
A5
350
41
  3
A6
350
42
  3
A7
350
43
  3
A8
350
44
  3
A9
350
45
  3
B0
350
46
  3
B1
350
47
  3
B2
350
48
  3
B3
350
49
  3
B4
350
4A
  3
B5
350
4B
  3
B6
350
4C
  3
B7
350
4D
  3
B8
350
4E
  3
B9
350
4F
  3
C0
350
50
  3
C1
350
51
  3
C2
350
52
  3
C3
350
53
  3
C4
350
54
  3
C5
350
55
  3
C6
350
56
  3
C7
350
57
  3
C8
350
58
  3
C9
350
59
  3
D0
350
5A
  3
D1
350
5B
  3
D2
350
5C
  0
DICTIONARY
  5
167
102
{ACAD_REACTORS
330
C
102
}
330
C
100
AcDbDictionary
281
     1
  0
DICTIONARY
  5
2A
102
{ACAD_REACTORS
330
C
102
}
330
C
100
AcDbDictionary
281
     1
  3
2dWireframe
350
2F
  3
3D Hidden
350
31
  3
3dWireframe
350
30
  3
Basic
350
32
  3
Brighten
350
36
  3
ColorChange
350
3A
  3
Conceptual
350
34
  3
Dim
350
35
  3
Facepattern
350
39
  3
Flat
350
2B
  3
FlatWithEdges
350
2C
  3
Gouraud
350
2D
  3
GouraudWithEdges
350
2E
  3
Linepattern
350
38
  3
Realistic
350
33
  3
Thicken
350
37
  0
DICTIONARY
  5
165
102
{ACAD_REACTORS
330
C
102
}
330
C
100
AcDbDictionary
281
     1
  3
CANNOSCALE
350
166
  3
PSOLHEIGHT
350
16A
  3
PSOLWIDTH
350
169
  0
LAYOUT
  5
1E
102
{ACAD_REACTORS
330
1A
102
}
330
1A
100
AcDbPlotSettings
  1

  2
none_device
  4

  6

 40
0.0
 41
0.0
 42
0.0
 43
0.0
 44
0.0
 45
0.0
 46
0.0
 47
0.0
 48
0.0
 49
0.0
140
0.0
141
0.0
142
1.0
143
1.0
 70
   688
 72
     0
 73
     0
 74
     5
  7

 75
    16
147
1.0
148
0.0
149
0.0
100
AcDbLayout
  1
Layout1
 70
     1
 71
     1
 10
0.0
 20
0.0
 11
3000.0
 21
4500.0
 12
0.0
 22
0.0
 32
0.0
 14
0.0
 24
0.0
 34
0.0
 15
3000.0
 25
4500.0
 35
0.0
146
0.0
 13
0.0
 23
0.0
 33
0.0
 16
1.0
 26
0.0
 36
0.0
 17
0.0
 27
1.0
 37
0.0
 76
     0
330
1B
  0
LAYOUT
  5
22
102
{ACAD_REACTORS
330
1A
102
}
330
1A
100
AcDbPlotSettings
  1

  2
none_device
  4

  6

 40
0.0
 41
0.0
 42
0.0
 43
0.0
 44
0.0
 45
0.0
 46
0.0
 47
0.0
 48
0.0
 49
0.0
140
0.0
141
0.0
142
1.0
143
1.0
 70
  1712
 72
     0
 73
     0
 74
     0
  7

 75
     0
147
1.0
148
0.0
149
0.0
100
AcDbLayout
  1
Model
 70
     1
 71
     0
 10
0.0
 20
0.0
 11
3000.0
 21
4500.0
 12
0.0
 22
0.0
 32
0.0
 14
0.0
 24
0.0
 34
0.0
 15
3000.0
 25
4500.0
 35
0.0
146
0.0
 13
0.0
 23
0.0
 33
0.0
 16
1.0
 26
0.0
 36
0.0
 17
0.0
 27
1.0
 37
0.0
 76
     0
330
1F
331
29
  0
MLINESTYLE
  5
18
102
{ACAD_REACTORS
330
17
102
}
330
17
100
AcDbMlineStyle
  2
Standard
 70
     0
  3

 62
   256
 51
90.0
 52
90.0
 71
     2
 49
0.5
 62
   256
  6
BYLAYER
 49
-0.5
 62
   256
  6
BYLAYER
  0
ACDBPLACEHOLDER
  5
F
102
{ACAD_REACTORS
330
E
102
}
330
E
  0
SCALE
  5
3C
102
{ACAD_REACTORS
330
3B
102
}
330
3B
100
AcDbScale
 70
     0
300
1:1
140
1.0
141
1.0
290
     1
  0
SCALE
  5
3D
102
{ACAD_REACTORS
330
3B
102
}
330
3B
100
AcDbScale
 70
     0
300
1:2
140
1.0
141
2.0
290
     0
  0
SCALE
  5
3E
102
{ACAD_REACTORS
330
3B
102
}
330
3B
100
AcDbScale
 70
     0
300
1:4
140
1.0
141
4.0
290
     0
  0
SCALE
  5
3F
102
{ACAD_REACTORS
330
3B
102
}
330
3B
100
AcDbScale
 70
     0
300
1:5
140
1.0
141
5.0
290
     0
  0
SCALE
  5
40
102
{ACAD_REACTORS
330
3B
102
}
330
3B
100
AcDbScale
 70
     0
300
1:8
140
1.0
141
8.0
290
     0
  0
SCALE
  5
41
102
{ACAD_REACTORS
330
3B
102
}
330
3B
100
AcDbScale
 70
     0
300
1:10
140
1.0
141
10.0
290
     0
  0
SCALE
  5
42
102
{ACAD_REACTORS
330
3B
102
}
330
3B
100
AcDbScale
 70
     0
300
1:16
140
1.0
141
16.0
290
     0
  0
SCALE
  5
43
102
{ACAD_REACTORS
330
3B
102
}
330
3B
100
AcDbScale
 70
     0
300
1:20
140
1.0
141
20.0
290
     0
  0
SCALE
  5
44
102
{ACAD_REACTORS
330
3B
102
}
330
3B
100
AcDbScale
 70
     0
300
1:30
140
1.0
141
30.0
290
     0
  0
SCALE
  5
45
102
{ACAD_REACTORS
330
3B
102
}
330
3B
100
AcDbScale
 70
     0
300
1:40
140
1.0
141
40.0
290
     0
  0
SCALE
  5
46
102
{ACAD_REACTORS
330
3B
102
}
330
3B
100
AcDbScale
 70
     0
300
1:50
140
1.0
141
50.0
290
     0
  0
SCALE
  5
47
102
{ACAD_REACTORS
330
3B
102
}
330
3B
100
AcDbScale
 70
     0
300
1:100
140
1.0
141
100.0
290
     0
  0
SCALE
  5
48
102
{ACAD_REACTORS
330
3B
102
}
330
3B
100
AcDbScale
 70
     0
300
2:1
140
2.0
141
1.0
290
     0
  0
SCALE
  5
49
102
{ACAD_REACTORS
330
3B
102
}
330
3B
100
AcDbScale
 70
     0
300
4:1
140
4.0
141
1.0
290
     0
  0
SCALE
  5
4A
102
{ACAD_REACTORS
330
3B
102
}
330
3B
100
AcDbScale
 70
     0
300
8:1
140
8.0
141
1.0
290
     0
  0
SCALE
  5
4B
102
{ACAD_REACTORS
330
3B
102
}
330
3B
100
AcDbScale
 70
     0
300
10:1
140
10.0
141
1.0
290
     0
  0
SCALE
  5
4C
102
{ACAD_REACTORS
330
3B
102
}
330
3B
100
AcDbScale
 70
     0
300
100:1
140
100.0
141
1.0
290
     0
  0
SCALE
  5
4D
102
{ACAD_REACTORS
330
3B
102
}
330
3B
100
AcDbScale
 70
     0
300
1/128" = 1'-0"
140
0.0078125
141
12.0
290
     0
  0
SCALE
  5
4E
102
{ACAD_REACTORS
330
3B
102
}
330
3B
100
AcDbScale
 70
     0
300
1/64" = 1'-0"
140
0.015625
141
12.0
290
     0
  0
SCALE
  5
4F
102
{ACAD_REACTORS
330
3B
102
}
330
3B
100
AcDbScale
 70
     0
300
1/32" = 1'-0"
140
0.03125
141
12.0
290
     0
  0
SCALE
  5
50
102
{ACAD_REACTORS
330
3B
102
}
330
3B
100
AcDbScale
 70
     0
300
1/16" = 1'-0"
140
0.0625
141
12.0
290
     0
  0
SCALE
  5
51
102
{ACAD_REACTORS
330
3B
102
}
330
3B
100
AcDbScale
 70
     0
300
3/32" = 1'-0"
140
0.09375
141
12.0
290
     0
  0
SCALE
  5
52
102
{ACAD_REACTORS
330
3B
102
}
330
3B
100
AcDbScale
 70
     0
300
1/8" = 1'-0"
140
0.125
141
12.0
290
     0
  0
SCALE
  5
53
102
{ACAD_REACTORS
330
3B
102
}
330
3B
100
AcDbScale
 70
     0
300
3/16" = 1'-0"
140
0.1875
141
12.0
290
     0
  0
SCALE
  5
54
102
{ACAD_REACTORS
330
3B
102
}
330
3B
100
AcDbScale
 70
     0
300
1/4" = 1'-0"
140
0.25
141
12.0
290
     0
  0
SCALE
  5
55
102
{ACAD_REACTORS
330
3B
102
}
330
3B
100
AcDbScale
 70
     0
300
3/8" = 1'-0"
140
0.375
141
12.0
290
     0
  0
SCALE
  5
56
102
{ACAD_REACTORS
330
3B
102
}
330
3B
100
AcDbScale
 70
     0
300
1/2" = 1'-0"
140
0.5
141
12.0
290
     0
  0
SCALE
  5
57
102
{ACAD_REACTORS
330
3B
102
}
330
3B
100
AcDbScale
 70
     0
300
3/4" = 1'-0"
140
0.75
141
12.0
290
     0
  0
SCALE
  5
58
102
{ACAD_REACTORS
330
3B
102
}
330
3B
100
AcDbScale
 70
     0
300
1" = 1'-0"
140
1.0
141
12.0
290
     0
  0
SCALE
  5
59
102
{ACAD_REACTORS
330
3B
102
}
330
3B
100
AcDbScale
 70
     0
300
1-1/2" = 1'-0"
140
1.5
141
12.0
290
     0
  0
SCALE
  5
5A
102
{ACAD_REACTORS
330
3B
102
}
330
3B
100
AcDbScale
 70
     0
300
3" = 1'-0"
140
3.0
141
12.0
290
     0
  0
SCALE
  5
5B
102
{ACAD_REACTORS
330
3B
102
}
330
3B
100
AcDbScale
 70
     0
300
6" = 1'-0"
140
6.0
141
12.0
290
     0
  0
SCALE
  5
5C
102
{ACAD_REACTORS
330
3B
102
}
330
3B
100
AcDbScale
 70
     0
300
1'-0" = 1'-0"
140
12.0
141
12.0
290
     0
  0
VISUALSTYLE
  5
2F
102
{ACAD_REACTORS
330
2A
102
}
330
2A
100
AcDbVisualStyle
  2
2dWireframe
 70
     4
 71
     0
 72
     2
 73
     0
 90
        0
 40
-0.6
 41
-30.0
 62
     5
 63
     7
 74
     1
 91
        4
 64
     7
 65
   257
 75
     1
175
     1
 42
1.0
 92
        0
 66
   257
 43
1.0
 76
     1
 77
     6
 78
     2
 67
     7
 79
     5
170
     0
171
     0
290
     0
174
     0
 93
        1
 44
0.0
173
     0
291
     0
 45
0.0
1001
ACAD
1000
AcDbSavedByObjectVersion
1070
     0
  0
VISUALSTYLE
  5
31
102
{ACAD_REACTORS
330
2A
102
}
330
2A
100
AcDbVisualStyle
  2
3D Hidden
 70
     6
 71
     1
 72
     2
 73
     2
 90
        0
 40
-0.6
 41
-30.0
 62
     5
 63
     7
 74
     2
 91
        2
 64
     7
 65
   257
 75
     2
175
     1
 42
40.0
 92
        0
 66
   257
 43
1.0
 76
     1
 77
     6
 78
     2
 67
     7
 79
     3
170
     0
171
     0
290
     0
174
     0
 93
        1
 44
0.0
173
     0
291
     0
 45
0.0
1001
ACAD
1000
AcDbSavedByObjectVersion
1070
     0
  0
VISUALSTYLE
  5
30
102
{ACAD_REACTORS
330
2A
102
}
330
2A
100
AcDbVisualStyle
  2
3dWireframe
 70
     5
 71
     0
 72
     2
 73
     0
 90
        0
 40
-0.6
 41
-30.0
 62
     5
 63
     7
 74
     1
 91
        4
 64
     7
 65
   257
 75
     1
175
     1
 42
1.0
 92
        0
 66
   257
 43
1.0
 76
     1
 77
     6
 78
     2
 67
     7
 79
     5
170
     0
171
     0
290
     0
174
     0
 93
        1
 44
0.0
173
     0
291
     0
 45
0.0
1001
ACAD
1000
AcDbSavedByObjectVersion
1070
     0
  0
VISUALSTYLE
  5
32
102
{ACAD_REACTORS
330
2A
102
}
330
2A
100
AcDbVisualStyle
  2
Basic
 70
     7
 71
     1
 72
     0
 73
     1
 90
        0
 40
-0.6
 41
-30.0
 62
     5
 63
     7
 74
     0
 91
        4
 64
     7
 65
   257
 75
     1
175
     1
 42
1.0
 92
        8
 66
     7
 43
1.0
 76
     1
 77
     6
 78
     2
 67
     7
 79
     5
170
     0
171
     0
290
     0
174
     0
 93
        1
 44
0.0
173
     0
291
     1
 45
0.0
1001
ACAD
1000
AcDbSavedByObjectVersion
1070
     0
  0
VISUALSTYLE
  5
36
102
{ACAD_REACTORS
330
2A
102
}
330
2A
100
AcDbVisualStyle
  2
Brighten
 70
    12
 71
     2
 72
     2
 73
     0
 90
        0
 40
-0.6
 41
-30.0
 62
     5
 63
     7
 74
     1
 91
        4
 64
     7
 65
   257
 75
     1
175
     1
 42
1.0
 92
        8
 66
     7
 43
1.0
 76
     1
 77
     6
 78
     2
 67
     7
 79
     5
170
     0
171
     0
290
     0
174
     0
 93
        1
 44
50.0
173
     0
291
     1
 45
0.0
1001
ACAD
1000
AcDbSavedByObjectVersion
1070
     0
  0
VISUALSTYLE
  5
3A
102
{ACAD_REACTORS
330
2A
102
}
330
2A
100
AcDbVisualStyle
  2
ColorChange
 70
    16
 71
     2
 72
     2
 73
     3
 90
        0
 40
-0.6
 41
-30.0
 62
     5
 63
     8
 74
     1
 91
        4
 64
     7
 65
   257
 75
     1
175
     1
 42
1.0
 92
        8
 66
     8
 43
1.0
 76
     1
 77
     6
 78
     2
 67
     7
 79
     5
170
     0
171
     0
290
     0
174
     0
 93
        1
 44
0.0
173
     0
291
     1
 45
0.0
1001
ACAD
1000
AcDbSavedByObjectVersion
1070
     0
  0
VISUALSTYLE
  5
34
102
{ACAD_REACTORS
330
2A
102
}
330
2A
100
AcDbVisualStyle
  2
Conceptual
 70
     9
 71
     3
 72
     2
 73
     0
 90
        0
 40
-0.6
 41
-30.0
 62
     5
 63
     7
 74
     2
 91
        2
 64
     7
 65
   257
 75
     1
175
     1
 42
40.0
 92
        8
 66
     7
 43
1.0
 76
     1
 77
     6
 78
     2
 67
     7
 79
     3
170
     0
171
     0
290
     0
174
     0
 93
        1
 44
0.0
173
     0
291
     0
 45
0.0
1001
ACAD
1000
AcDbSavedByObjectVersion
1070
     0
  0
VISUALSTYLE
  5
35
102
{ACAD_REACTORS
330
2A
102
}
330
2A
100
AcDbVisualStyle
  2
Dim
 70
    11
 71
     2
 72
     2
 73
     0
 90
        0
 40
-0.6
 41
-30.0
 62
     5
 63
     7
 74
     1
 91
        4
 64
     7
 65
   257
 75
     1
175
     1
 42
1.0
 92
        8
 66
     7
 43
1.0
 76
     1
 77
     6
 78
     2
 67
     7
 79
     5
170
     0
171
     0
290
     0
174
     0
 93
        1
 44
-50.0
173
     0
291
     1
 45
0.0
1001
ACAD
1000
AcDbSavedByObjectVersion
1070
     0
  0
VISUALSTYLE
  5
39
102
{ACAD_REACTORS
330
2A
102
}
330
2A
100
AcDbVisualStyle
  2
Facepattern
 70
    15
 71
     2
 72
     2
 73
     0
 90
        0
 40
-0.6
 41
-30.0
 62
     5
 63
     7
 74
     1
 91
        4
 64
     7
 65
   257
 75
     1
175
     1
 42
1.0
 92
        8
 66
     7
 43
1.0
 76
     1
 77
     6
 78
     2
 67
     7
 79
     5
170
     0
171
     0
290
     0
174
     0
 93
        1
 44
0.0
173
     0
291
     1
 45
0.0
1001
ACAD
1000
AcDbSavedByObjectVersion
1070
     0
  0
VISUALSTYLE
  5
2B
102
{ACAD_REACTORS
330
2A
102
}
330
2A
100
AcDbVisualStyle
  2
Flat
 70
     0
 71
     2
 72
     1
 73
     1
 90
        2
 40
-0.6
 41
30.0
 62
     5
 63
     7
 74
     0
 91
        4
 64
     7
 65
   257
 75
     1
175
     1
 42
1.0
 92
        8
 66
     7
 43
1.0
 76
     1
 77
     6
 78
     2
 67
     7
 79
     5
170
     0
171
     0
290
     0
174
     0
 93
       13
 44
0.0
173
     0
291
     1
 45
0.0
1001
ACAD
1000
AcDbSavedByObjectVersion
1070
     0
  0
VISUALSTYLE
  5
2C
102
{ACAD_REACTORS
330
2A
102
}
330
2A
100
AcDbVisualStyle
  2
FlatWithEdges
 70
     1
 71
     2
 72
     1
 73
     1
 90
        2
 40
-0.6
 41
30.0
 62
     5
 63
     7
 74
     1
 91
        4
 64
     7
 65
   257
 75
     1
175
     1
 42
1.0
 92
        0
 66
   257
 43
1.0
 76
     1
 77
     6
 78
     2
 67
     7
 79
     5
170
     0
171
     0
290
     0
174
     0
 93
       13
 44
0.0
173
     0
291
     1
 45
0.0
1001
ACAD
1000
AcDbSavedByObjectVersion
1070
     0
  0
VISUALSTYLE
  5
2D
102
{ACAD_REACTORS
330
2A
102
}
330
2A
100
AcDbVisualStyle
  2
Gouraud
 70
     2
 71
     2
 72
     2
 73
     1
 90
        2
 40
-0.6
 41
30.0
 62
     5
 63
     7
 74
     0
 91
        4
 64
     7
 65
   257
 75
     1
175
     1
 42
1.0
 92
        0
 66
     7
 43
1.0
 76
     1
 77
     6
 78
     2
 67
     7
 79
     5
170
     0
171
     0
290
     0
174
     0
 93
       13
 44
0.0
173
     0
291
     1
 45
0.0
1001
ACAD
1000
AcDbSavedByObjectVersion
1070
     0
  0
VISUALSTYLE
  5
2E
102
{ACAD_REACTORS
330
2A
102
}
330
2A
100
AcDbVisualStyle
  2
GouraudWithEdges
 70
     3
 71
     2
 72
     2
 73
     1
 90
        2
 40
-0.6
 41
30.0
 62
     5
 63
     7
 74
     1
 91
        4
 64
     7
 65
   257
 75
     1
175
     1
 42
1.0
 92
        0
 66
   257
 43
1.0
 76
     1
 77
     6
 78
     2
 67
     7
 79
     5
170
     0
171
     0
290
     0
174
     0
 93
       13
 44
0.0
173
     0
291
     1
 45
0.0
1001
ACAD
1000
AcDbSavedByObjectVersion
1070
     0
  0
VISUALSTYLE
  5
38
102
{ACAD_REACTORS
330
2A
102
}
330
2A
100
AcDbVisualStyle
  2
Linepattern
 70
    14
 71
     2
 72
     2
 73
     0
 90
        0
 40
-0.6
 41
-30.0
 62
     5
 63
     7
 74
     1
 91
        4
 64
     7
 65
   257
 75
     7
175
     7
 42
1.0
 92
        8
 66
     7
 43
1.0
 76
     1
 77
     6
 78
     2
 67
     7
 79
     5
170
     0
171
     0
290
     0
174
     0
 93
        1
 44
0.0
173
     0
291
     1
 45
0.0
1001
ACAD
1000
AcDbSavedByObjectVersion
1070
     0
  0
VISUALSTYLE
  5
33
102
{ACAD_REACTORS
330
2A
102
}
330
2A
100
AcDbVisualStyle
  2
Realistic
 70
     8
 71
     2
 72
     2
 73
     0
 90
        0
 40
-0.6
 41
-30.0
 62
     5
 63
     7
 74
     1
 91
        0
 64
     7
 65
   257
 75
     1
175
     1
 42
1.0
 92
        8
 66
     8
 43
1.0
 76
     1
 77
     6
 78
     2
 67
     7
 79
     5
170
     0
171
     0
290
     0
174
     0
 93
       13
 44
0.0
173
     0
291
     0
 45
0.0
1001
ACAD
1000
AcDbSavedByObjectVersion
1070
     0
  0
VISUALSTYLE
  5
37
102
{ACAD_REACTORS
330
2A
102
}
330
2A
100
AcDbVisualStyle
  2
Thicken
 70
    13
 71
     2
 72
     2
 73
     0
 90
        0
 40
-0.6
 41
-30.0
 62
     5
 63
     7
 74
     1
 91
        4
 64
     7
 65
   257
 75
     1
175
     1
 42
1.0
 92
       12
 66
     7
 43
1.0
 76
     1
 77
     6
 78
     2
 67
     7
 79
     5
170
     0
171
     0
290
     0
174
     0
 93
        1
 44
0.0
173
     0
291
     1
 45
0.0
1001
ACAD
1000
AcDbSavedByObjectVersion
1070
     0
  0
DICTIONARYVAR
  5
166
102
{ACAD_REACTORS
330
165
102
}
330
165
100
DictionaryVariables
280
     0
  1
1:1
  0
DICTIONARYVAR
  5
16A
102
{ACAD_REACTORS
330
165
102
}
330
165
100
DictionaryVariables
280
     0
  1
80.000000
  0
DICTIONARYVAR
  5
169
102
{ACAD_REACTORS
330
165
102
}
330
165
100
DictionaryVariables
280
     0
  1
5.000000
  0
ENDSEC
  0
EOF
