  0
SECTION
  2
HEADER
  9
$ACADVER
  1
AC1009
  9
$DWGCODEPAGE
  3
ansi_1252
  9
$INSBASE
 10
0.0
 20
0.0
 30
0.0
  9
$EXTMIN
 10
1.000000000000000E+20
 20
1.000000000000000E+20
 30
1.000000000000000E+20
  9
$EXTMAX
 10
-1.000000000000000E+20
 20
-1.000000000000000E+20
 30
-1.000000000000000E+20
  9
$LIMMIN
 10
0.0
 20
0.0
  9
$LIMMAX
 10
12.0
 20
9.0
  9
$ORTHOMODE
 70
     0
  9
$REGENMODE
 70
     1
  9
$FILLMODE
 70
     1
  9
$QTEXTMODE
 70
     0
  9
$MIRRTEXT
 70
     1
  9
$DRAGMODE
 70
     2
  9
$LTSCALE
 40
1.0
  9
$OSMODE
 70
    37
  9
$ATTMODE
 70
     1
  9
$TEXTSIZE
 40
0.2
  9
$TRACEWID
 40
0.05
  9
$TEXTSTYLE
  7
STANDARD
  9
$CLAYER
  8
0
  9
$CELTYPE
  6
BYLAYER
  9
$CECOLOR
 62
   256
  9
$DIMSCALE
 40
1.0
  9
$DIMASZ
 40
0.18
  9
$DIMEXO
 40
0.0625
  9
$DIMDLI
 40
0.38
  9
$DIMRND
 40
0.0
  9
$DIMDLE
 40
0.0
  9
$DIMEXE
 40
0.18
  9
$DIMTP
 40
0.0
  9
$DIMTM
 40
0.0
  9
$DIMTXT
 40
0.18
  9
$DIMCEN
 40
0.09
  9
$DIMTSZ
 40
0.0
  9
$DIMTOL
 70
     0
  9
$DIMLIM
 70
     0
  9
$DIMTIH
 70
     1
  9
$DIMTOH
 70
     1
  9
$DIMSE1
 70
     0
  9
$DIMSE2
 70
     0
  9
$DIMTAD
 70
     0
  9
$DIMZIN
 70
     0
  9
$DIMBLK
  1

  9
$DIMASO
 70
     1
  9
$DIMSHO
 70
     1
  9
$DIMPOST
  1

  9
$DIMAPOST
  1

  9
$DIMALT
 70
     0
  9
$DIMALTD
 70
     2
  9
$DIMALTF
 40
25.4
  9
$DIMLFAC
 40
1.0
  9
$DIMTOFL
 70
     0
  9
$DIMTVP
 40
0.0
  9
$DIMTIX
 70
     0
  9
$DIMSOXD
 70
     0
  9
$DIMSAH
 70
     0
  9
$DIMBLK1
  1

  9
$DIMBLK2
  1

  9
$DIMSTYLE
  2
STANDARD
  9
$DIMCLRD
 70
     0
  9
$DIMCLRE
 70
     0
  9
$DIMCLRT
 70
     0
  9
$DIMTFAC
 40
1.0
  9
$DIMGAP
 40
0.09
  9
$LUNITS
 70
     2
  9
$LUPREC
 70
     4
  9
$SKETCHINC
 40
0.1
  9
$FILLETRAD
 40
0.5
  9
$AUNITS
 70
     0
  9
$AUPREC
 70
     0
  9
$MENU
  1
.
  9
$ELEVATION
 40
0.0
  9
$PELEVATION
 40
0.0
  9
$THICKNESS
 40
0.0
  9
$LIMCHECK
 70
     0
  9
$CHAMFERA
 40
0.5
  9
$CHAMFERB
 40
0.5
  9
$SKPOLY
 70
     0
  9
$TDCREATE
 40
2456604.364832419
  9
$TDUPDATE
 40
2456604.364832419
  9
$TDINDWG
 40
0.0000000116
  9
$TDUSRTIMER
 40
0.0000000116
  9
$USRTIMER
 70
     1
  9
$ANGBASE
 50
0.0
  9
$ANGDIR
 70
     0
  9
$PDMODE
 70
     0
  9
$PDSIZE
 40
0.0
  9
$PLINEWID
 40
0.0
  9
$COORDS
 70
     1
  9
$SPLFRAME
 70
     0
  9
$SPLINETYPE
 70
     6
  9
$SPLINESEGS
 70
     8
  9
$ATTDIA
 70
     0
  9
$ATTREQ
 70
     1
  9
$HANDLING
 70
     1
  9
$HANDSEED
  5
655
  9
$SURFTAB1
 70
     6
  9
$SURFTAB2
 70
     6
  9
$SURFTYPE
 70
     6
  9
$SURFU
 70
     6
  9
$SURFV
 70
     6
  9
$UCSNAME
  2

  9
$UCSORG
 10
0.0
 20
0.0
 30
0.0
  9
$UCSXDIR
 10
1.0
 20
0.0
 30
0.0
  9
$UCSYDIR
 10
0.0
 20
1.0
 30
0.0
  9
$PUCSNAME
  2

  9
$PUCSORG
 10
0.0
 20
0.0
 30
0.0
  9
$PUCSXDIR
 10
1.0
 20
0.0
 30
0.0
  9
$PUCSYDIR
 10
0.0
 20
1.0
 30
0.0
  9
$USERI1
 70
     0
  9
$USERI2
 70
     0
  9
$USERI3
 70
     0
  9
$USERI4
 70
     0
  9
$USERI5
 70
     0
  9
$USERR1
 40
0.0
  9
$USERR2
 40
0.0
  9
$USERR3
 40
0.0
  9
$USERR4
 40
0.0
  9
$USERR5
 40
0.0
  9
$WORLDVIEW
 70
     1
  9
$SHADEDGE
 70
     3
  9
$SHADEDIF
 70
    70
  9
$TILEMODE
 70
     1
  9
$MAXACTVP
 70
    64
  9
$PLIMCHECK
 70
     0
  9
$PEXTMIN
 10
1.000000000000000E+20
 20
1.000000000000000E+20
 30
1.000000000000000E+20
  9
$PEXTMAX
 10
-1.000000000000000E+20
 20
-1.000000000000000E+20
 30
-1.000000000000000E+20
  9
$PLIMMIN
 10
0.0
 20
0.0
  9
$PLIMMAX
 10
12.0
 20
9.0
  9
$UNITMODE
 70
     0
  9
$VISRETAIN
 70
     1
  9
$PLINEGEN
 70
     0
  9
$PSLTSCALE
 70
     1
  0
ENDSEC
  0
SECTION
  2
TABLES
  0
TABLE
  2
VPORT
 70
     1
  0
VPORT
  2
*ACTIVE
 70
     0
 10
0.0
 20
0.0
 11
1.0
 21
1.0
 12
0.0
 22
0.0
 13
0.0
 23
0.0
 14
0.5
 24
0.5
 15
0.5
 25
0.5
 16
286.361572265625
 26
390.36962890625
 36
104.2965774536133
 17
53.64199829101562
 27
0.0
 37
82.5049819946289
 40
201.5652858911684
 41
1.972972972850329
 42
50.0
 43
0.0
 44
0.0
 50
0.0
 51
0.0
 71
     0
 72
   100
 73
     1
 74
     3
 75
     0
 76
     0
 77
     0
 78
     0
  0
ENDTAB
  0
TABLE
  2
LTYPE
 70
     1
  0
LTYPE
  2
CONTINUOUS
 70
     0
  3
Solid line
 72
    65
 73
     0
 40
0.0
  0
ENDTAB
  0
TABLE
  2
LAYER
 70
     2
  0
LAYER
  2
0
 70
     0
 62
     7
  6
CONTINUOUS
  0
LAYER
  2
LAYER_1
 70
     0
 62
     7
  6
CONTINUOUS
  0
ENDTAB
  0
TABLE
  2
STYLE
 70
     1
  0
STYLE
  2
STANDARD
 70
     0
 40
0.0
 41
1.0
 50
0.0
 71
     0
 42
0.2
  3
txt
  4

  0
ENDTAB
  0
TABLE
  2
VIEW
 70
     0
  0
ENDTAB
  0
TABLE
  2
UCS
 70
     0
  0
ENDTAB
  0
TABLE
  2
APPID
 70
     1
  0
APPID
  2
ACAD
 70
     0
  0
ENDTAB
  0
TABLE
  2
DIMSTYLE
 70
     1
  0
DIMSTYLE
  2
STANDARD
 70
     0
  3

  4

  5

  6

  7

 40
1.0
 41
0.18
 42
0.0625
 43
0.38
 44
0.18
 45
0.0
 46
0.0
 47
0.0
 48
0.0
140
0.18
141
0.09
142
0.0
143
25.4
144
1.0
145
0.0
146
1.0
147
0.09
 71
     0
 72
     0
 73
     1
 74
     1
 75
     0
 76
     0
 77
     0
 78
     0
170
     0
171
     2
172
     0
173
     0
174
     0
175
     0
176
     0
177
     0
178
     0
  0
ENDTAB
  0
ENDSEC
  0
SECTION
  2
BLOCKS
  0
BLOCK
  8
0
  2
$MODEL_SPACE
 70
     0
 10
0.0
 20
0.0
 30
0.0
  3
$MODEL_SPACE
  1

  0
ENDBLK
  5
21
  8
0
  0
BLOCK
 67
     1
  8
0
  2
$PAPER_SPACE
 70
     0
 10
0.0
 20
0.0
 30
0.0
  3
$PAPER_SPACE
  1

  0
ENDBLK
  5
1D
 67
     1
  8
0
  0
BLOCK
  8
0
  2
38
 70
     0
 10
0.0
 20
0.0
 30
0.0
  3
38
  1

  0
POLYLINE
  5
3C
  8
0
 62
     9
 66
     1
 10
0.0
 20
0.0
 30
0.0
 70
    64
 71
   105
 72
   186
  0
VERTEX
  5
3D
  8
0
 10
12.80692195892334
 20
15.36173057556152
 30
93.38172149658203
 70
   192
  0
VERTEX
  5
3E
  8
0
 10
10.53565406799316
 20
17.0
 30
97.19969940185547
 70
   192
  0
VERTEX
  5
3F
  8
0
 10
11.75946235656738
 20
16.15643310546875
 30
0.0
 70
   192
  0
VERTEX
  5
40
  8
0
 10
10.53565406799316
 20
17.0
 30
118.4996948242188
 70
   192
  0
VERTEX
  5
41
  8
0
 10
6.19102668762207
 20
19.01685333251953
 30
138.4996948242188
 70
   192
  0
VERTEX
  5
42
  8
0
 10
6.193139553070068
 20
19.0065975189209
 30
0.0
 70
   192
  0
VERTEX
  5
43
  8
0
 10
15.57416534423828
 20
12.54608821868896
 30
118.4996948242188
 70
   192
  0
VERTEX
  5
44
  8
0
 10
11.76117515563965
 20
16.17613220214844
 30
138.4996948242188
 70
   192
  0
VERTEX
  5
45
  8
0
 10
16.1883373260498
 20
11.7415132522583
 30
138.4996948242188
 70
   192
  0
VERTEX
  5
46
  8
0
 10
18.85494804382324
 20
6.662511348724365
 30
118.4996948242188
 70
   192
  0
VERTEX
  5
47
  8
0
 10
20.0
 20
0.0000000000000024
 30
118.4996948242188
 70
   192
  0
VERTEX
  5
48
  8
0
 10
19.02309608459473
 20
6.174933910369873
 30
138.4996948242188
 70
   192
  0
VERTEX
  5
49
  8
0
 10
20.0
 20
0.0000000000000024
 30
138.4996948242188
 70
   192
  0
VERTEX
  5
4A
  8
0
 10
15.05093383789062
 20
13.17077732086182
 30
90.17974090576172
 70
   192
  0
VERTEX
  5
4B
  8
0
 10
0.018365291878581
 20
19.99757957458496
 30
138.4996948242188
 70
   192
  0
VERTEX
  5
4C
  8
0
 10
16.1770076751709
 20
11.73678398132324
 30
0.0
 70
   192
  0
VERTEX
  5
4D
  8
0
 10
16.39121437072754
 20
11.45984745025635
 30
88.94368743896484
 70
   192
  0
VERTEX
  5
4E
  8
0
 10
17.59971618652344
 20
9.5
 30
88.49969482421875
 70
   192
  0
VERTEX
  5
4F
  8
0
 10
-0.0000000000000087
 20
20.0
 30
0.0
 70
   192
  0
VERTEX
  5
50
  8
0
 10
19.01418685913086
 20
6.161364555358887
 30
0.0
 70
   192
  0
VERTEX
  5
51
  8
0
 10
19.39064598083496
 20
4.899269580841064
 30
88.49969482421875
 70
   192
  0
VERTEX
  5
52
  8
0
 10
20.0
 20
0.0000000000000024
 30
0.0
 70
   192
  0
VERTEX
  5
53
  8
0
 10
20.0
 20
0.0000000000000024
 30
88.49969482421875
 70
   192
  0
VERTEX
  5
54
  8
0
 10
-6.173931121826172
 20
19.02378082275391
 30
138.4996948242188
 70
   192
  0
VERTEX
  5
55
  8
0
 10
-11.74895477294922
 20
16.18454933166504
 30
138.4996948242188
 70
   192
  0
VERTEX
  5
56
  8
0
 10
-6.171591758728027
 20
19.02398109436035
 30
0.0
 70
   192
  0
VERTEX
  5
57
  8
0
 10
-11.76100730895996
 20
16.18918800354004
 30
0.0
 70
   192
  0
VERTEX
  5
58
  8
0
 10
-16.17276954650879
 20
11.76485157012939
 30
138.4996948242188
 70
   192
  0
VERTEX
  5
59
  8
0
 10
-19.01801300048828
 20
6.188422679901123
 30
138.4996948242188
 70
   192
  0
VERTEX
  5
5A
  8
0
 10
-16.18700790405273
 20
11.7622184753418
 30
0.0
 70
   192
  0
VERTEX
  5
5B
  8
0
 10
-20.0
 20
0.0000000000000012
 30
138.4996948242188
 70
   192
  0
VERTEX
  5
5C
  8
0
 10
-19.02958488464355
 20
6.187949657440186
 30
0.0
 70
   192
  0
VERTEX
  5
5D
  8
0
 10
-20.0
 20
0.0000000000000012
 30
0.0
 70
   192
  0
VERTEX
  5
5E
  8
0
 10
23.3537712097168
 20
5.900598526000977
 30
95.477783203125
 70
   192
  0
VERTEX
  5
5F
  8
0
 10
20.38142776489258
 20
5.149601459503174
 30
92.41203308105469
 70
   192
  0
VERTEX
  5
60
  8
0
 10
21.01998138427734
 20
0.0000000000001443
 30
92.37433624267578
 70
   192
  0
VERTEX
  5
61
  8
0
 10
28.0
 20
0.0000000000001724
 30
96.49969482421875
 70
   192
  0
VERTEX
  5
62
  8
0
 10
27.14689636230469
 20
6.858975410461426
 30
96.49969482421875
 70
   192
  0
VERTEX
  5
63
  8
0
 10
24.04780578613281
 20
0.000000000000165
 30
95.44759368896484
 70
   192
  0
VERTEX
  5
64
  8
0
 10
21.22997283935547
 20
11.45954513549805
 30
95.4797134399414
 70
   192
  0
VERTEX
  5
65
  8
0
 10
18.52555465698242
 20
9.999750137329102
 30
92.45188903808594
 70
   192
  0
VERTEX
  5
66
  8
0
 10
24.63960266113281
 20
13.30000019073486
 30
96.49969482421875
 70
   192
  0
VERTEX
  5
67
  8
0
 10
147.0
 20
-14.0
 30
96.49969482421875
 70
   192
  0
VERTEX
  5
68
  8
0
 10
27.14690399169922
 20
-6.858977317810059
 30
96.49969482421875
 70
   192
  0
VERTEX
  5
69
  8
0
 10
26.40891075134277
 20
14.0
 30
96.49969482421875
 70
   192
  0
VERTEX
  5
6A
  8
0
 10
147.0
 20
14.0
 30
96.49969482421875
 70
   192
  0
VERTEX
  5
6B
  8
0
 10
19.13910102844238
 20
-13.83934593200684
 30
96.49969482421875
 70
   192
  0
VERTEX
  5
6C
  8
0
 10
17.50072288513184
 20
-14.00022220611572
 30
96.49954986572266
 70
   192
  0
VERTEX
  5
6D
  8
0
 10
22.70856475830078
 20
-13.48934555053711
 30
96.49969482421875
 70
   192
  0
VERTEX
  5
6E
  8
0
 10
20.77752876281738
 20
-13.67869186401367
 30
96.49969482421875
 70
   192
  0
VERTEX
  5
6F
  8
0
 10
24.63960266113281
 20
-13.30000019073486
 30
96.49969482421875
 70
   192
  0
VERTEX
  5
70
  8
0
 10
23.11081504821777
 20
13.40071773529053
 30
96.49969482421875
 70
   192
  0
VERTEX
  5
71
  8
0
 10
147.0
 20
14.0
 30
118.4996948242188
 70
   192
  0
VERTEX
  5
72
  8
0
 10
147.0
 20
-14.0
 30
118.4996948242188
 70
   192
  0
VERTEX
  5
73
  8
0
 10
-0.018365291878581
 20
-19.99757957458496
 30
138.4996948242188
 70
   192
  0
VERTEX
  5
74
  8
0
 10
7.676499843597412
 20
0.0000000000000036
 30
138.4996948242188
 70
   192
  0
VERTEX
  5
75
  8
0
 10
6.173931121826172
 20
-19.02378082275391
 30
138.4996948242188
 70
   192
  0
VERTEX
  5
76
  8
0
 10
19.01801300048828
 20
-6.188422679901123
 30
138.4996948242188
 70
   192
  0
VERTEX
  5
77
  8
0
 10
11.0
 20
-3.323499917984009
 30
138.4996948242188
 70
   192
  0
VERTEX
  5
78
  8
0
 10
14.32349967956543
 20
0.0000000000000071
 30
138.4996948242188
 70
   192
  0
VERTEX
  5
79
  8
0
 10
11.74895477294922
 20
-16.18454933166504
 30
138.4996948242188
 70
   192
  0
VERTEX
  5
7A
  8
0
 10
16.17276954650879
 20
-11.76485157012939
 30
138.4996948242188
 70
   192
  0
VERTEX
  5
7B
  8
0
 10
11.0
 20
3.323499917984009
 30
138.4996948242188
 70
   192
  0
VERTEX
  5
7C
  8
0
 10
-6.19102668762207
 20
-19.01685333251953
 30
138.4996948242188
 70
   192
  0
VERTEX
  5
7D
  8
0
 10
-11.76117515563965
 20
-16.17613220214844
 30
138.4996948242188
 70
   192
  0
VERTEX
  5
7E
  8
0
 10
-16.1883373260498
 20
-11.7415132522583
 30
138.4996948242188
 70
   192
  0
VERTEX
  5
7F
  8
0
 10
-19.02309608459473
 20
-6.174933910369873
 30
138.4996948242188
 70
   192
  0
VERTEX
  5
80
  8
0
 10
16.44245147705078
 20
12.47030544281006
 30
92.79993438720703
 70
   192
  0
VERTEX
  5
81
  8
0
 10
18.6008358001709
 20
12.65787792205811
 30
95.12374877929688
 70
   192
  0
VERTEX
  5
82
  8
0
 10
15.60735034942627
 20
14.70140552520752
 30
96.92259216308594
 70
   192
  0
VERTEX
  5
83
  8
0
 10
14.31123924255371
 20
14.61605453491211
 30
95.2289810180664
 70
   192
  0
VERTEX
  5
84
  8
0
 10
21.07130813598633
 20
13.7134895324707
 30
96.63487243652344
 70
   192
  0
VERTEX
  5
85
  8
0
 10
17.58456230163574
 20
11.17044448852539
 30
92.33013916015625
 70
   192
  0
VERTEX
  5
86
  8
0
 10
20.02089691162109
 20
11.93626403808594
 30
95.15116119384766
 70
   192
  0
VERTEX
  5
87
  8
0
 10
17.59971618652344
 20
-9.5
 30
88.49969482421875
 70
   192
  0
VERTEX
  5
88
  8
0
 10
18.49728584289551
 20
-9.984491348266602
 30
92.37433624267578
 70
   192
  0
VERTEX
  5
89
  8
0
 10
20.38142776489258
 20
-5.149601459503174
 30
92.41203308105469
 70
   192
  0
VERTEX
  5
8A
  8
0
 10
23.3537712097168
 20
-5.900598526000977
 30
95.477783203125
 70
   192
  0
VERTEX
  5
8B
  8
0
 10
21.16172790527344
 20
-11.42270755767822
 30
95.44759368896484
 70
   192
  0
VERTEX
  5
8C
  8
0
 10
19.5030460357666
 20
-4.430713653564453
 30
88.49969482421875
 70
   192
  0
VERTEX
  5
8D
  8
0
 10
17.57630729675293
 20
-11.18019485473633
 30
92.33255767822266
 70
   192
  0
VERTEX
  5
8E
  8
0
 10
16.34808731079102
 20
-11.52128601074219
 30
88.9727783203125
 70
   192
  0
VERTEX
  5
8F
  8
0
 10
20.0103874206543
 20
-11.94073486328125
 30
95.1503677368164
 70
   192
  0
VERTEX
  5
90
  8
0
 10
18.4005069732666
 20
-12.60583400726318
 30
94.95537567138672
 70
   192
  0
VERTEX
  5
91
  8
0
 10
16.36650466918945
 20
-12.48271465301514
 30
92.69219970703125
 70
   192
  0
VERTEX
  5
92
  8
0
 10
15.05093383789062
 20
-13.17077732086182
 30
90.17974090576172
 70
   192
  0
VERTEX
  5
93
  8
0
 10
16.26219749450684
 20
-13.24252796173096
 30
94.26596069335938
 70
   192
  0
VERTEX
  5
94
  8
0
 10
14.28285980224609
 20
-14.00000286102295
 30
91.15788269042969
 70
   192
  0
VERTEX
  5
95
  8
0
 10
15.17127704620361
 20
-14.0
 30
94.32202911376953
 70
   192
  0
VERTEX
  5
96
  8
0
 10
21.07130813598633
 20
14.0
 30
97.19969940185547
 70
   192
  0
VERTEX
  5
97
  8
0
 10
15.59408187866211
 20
14.76461601257324
 30
97.19969940185547
 70
   192
  0
VERTEX
  5
98
  8
0
 10
15.59409046173096
 20
14.76464557647705
 30
118.4996948242188
 70
   192
  0
VERTEX
  5
99
  8
0
 10
21.07130813598633
 20
14.0
 30
118.4996948242188
 70
   192
  0
VERTEX
  5
9A
  8
0
 10
17.38022994995117
 20
-9.884711265563965
 30
118.4996948242188
 70
   192
  0
VERTEX
  5
9B
  8
0
 10
19.35048675537109
 20
-5.125651359558105
 30
118.4996948242188
 70
   192
  0
VERTEX
  5
9C
  8
0
 10
14.28285694122314
 20
-14.0
 30
118.4996948242188
 70
   192
  0
VERTEX
  5
9D
  8
0
 10
-6.193139553070068
 20
-19.0065975189209
 30
0.0
 70
   192
  0
VERTEX
  5
9E
  8
0
 10
-11.75946235656738
 20
-16.15643310546875
 30
0.0
 70
   192
  0
VERTEX
  5
9F
  8
0
 10
6.171591758728027
 20
-19.02398109436035
 30
0.0
 70
   192
  0
VERTEX
  5
A0
  8
0
 10
0.0000000000000684
 20
-20.0
 30
0.0
 70
   192
  0
VERTEX
  5
A1
  8
0
 10
-16.1770076751709
 20
-11.73678398132324
 30
0.0
 70
   192
  0
VERTEX
  5
A2
  8
0
 10
-19.01418685913086
 20
-6.161364555358887
 30
0.0
 70
   192
  0
VERTEX
  5
A3
  8
0
 10
16.18700790405273
 20
-11.7622184753418
 30
0.0
 70
   192
  0
VERTEX
  5
A4
  8
0
 10
11.76100730895996
 20
-16.18918800354004
 30
0.0
 70
   192
  0
VERTEX
  5
A5
  8
0
 10
19.02958488464355
 20
-6.187949657440186
 30
0.0
 70
   192
  0
VERTEX
  5
A6
  8
0
 62
     9
 10
0.0
 20
0.0
 30
0.0
 70
   128
 71
     3
 72
     2
 73
     1
  0
VERTEX
  5
A7
  8
0
 62
     9
 10
0.0
 20
0.0
 30
0.0
 70
   128
 71
     5
 72
     4
 73
     2
  0
VERTEX
  5
A8
  8
0
 62
     9
 10
0.0
 20
0.0
 30
0.0
 70
   128
 71
     6
 72
     2
 73
     3
  0
VERTEX
  5
A9
  8
0
 62
     9
 10
0.0
 20
0.0
 30
0.0
 70
   128
 71
     4
 72
     8
 73
     7
  0
VERTEX
  5
AA
  8
0
 62
     9
 10
0.0
 20
0.0
 30
0.0
 70
   128
 71
     8
 72
     4
 73
     5
  0
VERTEX
  5
AB
  8
0
 62
     9
 10
0.0
 20
0.0
 30
0.0
 70
   128
 71
    10
 72
     7
 73
     9
  0
VERTEX
  5
AC
  8
0
 62
     9
 10
0.0
 20
0.0
 30
0.0
 70
   128
 71
     8
 72
     9
 73
     7
  0
VERTEX
  5
AD
  8
0
 62
     9
 10
0.0
 20
0.0
 30
0.0
 70
   128
 71
    12
 72
    11
 73
    10
  0
VERTEX
  5
AE
  8
0
 62
     9
 10
0.0
 20
0.0
 30
0.0
 70
   128
 71
    10
 72
     9
 73
    12
  0
VERTEX
  5
AF
  8
0
 62
     9
 10
0.0
 20
0.0
 30
0.0
 70
   128
 71
    13
 72
    11
 73
    12
  0
VERTEX
  5
B0
  8
0
 62
     9
 10
0.0
 20
0.0
 30
0.0
 70
   128
 71
     5
 72
     2
 73
     6
  0
VERTEX
  5
B1
  8
0
 62
     9
 10
0.0
 20
0.0
 30
0.0
 70
   128
 71
     1
 72
    14
 73
     3
  0
VERTEX
  5
B2
  8
0
 62
     9
 10
0.0
 20
0.0
 30
0.0
 70
   128
 71
    15
 72
     5
 73
     6
  0
VERTEX
  5
B3
  8
0
 62
     9
 10
0.0
 20
0.0
 30
0.0
 70
   128
 71
     3
 72
    14
 73
    16
  0
VERTEX
  5
B4
  8
0
 62
     9
 10
0.0
 20
0.0
 30
0.0
 70
   128
 71
    17
 72
    16
 73
    14
  0
VERTEX
  5
B5
  8
0
 62
     9
 10
0.0
 20
0.0
 30
0.0
 70
   128
 71
    18
 72
    16
 73
    17
  0
VERTEX
  5
B6
  8
0
 62
     9
 10
0.0
 20
0.0
 30
0.0
 70
   128
 71
    15
 72
     6
 73
    19
  0
VERTEX
  5
B7
  8
0
 62
     9
 10
0.0
 20
0.0
 30
0.0
 70
   128
 71
    16
 72
    18
 73
    20
  0
VERTEX
  5
B8
  8
0
 62
     9
 10
0.0
 20
0.0
 30
0.0
 70
   128
 71
    20
 72
    18
 73
    21
  0
VERTEX
  5
B9
  8
0
 62
     9
 10
0.0
 20
0.0
 30
0.0
 70
   128
 71
    22
 72
    20
 73
    21
  0
VERTEX
  5
BA
  8
0
 62
     9
 10
0.0
 20
0.0
 30
0.0
 70
   128
 71
    22
 72
    21
 73
    23
  0
VERTEX
  5
BB
  8
0
 62
     9
 10
0.0
 20
0.0
 30
0.0
 70
   128
 71
    15
 72
    19
 73
    24
  0
VERTEX
  5
BC
  8
0
 62
     9
 10
0.0
 20
0.0
 30
0.0
 70
   128
 71
    24
 72
    26
 73
    25
  0
VERTEX
  5
BD
  8
0
 62
     9
 10
0.0
 20
0.0
 30
0.0
 70
   128
 71
    26
 72
    24
 73
    19
  0
VERTEX
  5
BE
  8
0
 62
     9
 10
0.0
 20
0.0
 30
0.0
 70
   128
 71
    28
 72
    25
 73
    27
  0
VERTEX
  5
BF
  8
0
 62
     9
 10
0.0
 20
0.0
 30
0.0
 70
   128
 71
    26
 72
    27
 73
    25
  0
VERTEX
  5
C0
  8
0
 62
     9
 10
0.0
 20
0.0
 30
0.0
 70
   128
 71
    30
 72
    29
 73
    28
  0
VERTEX
  5
C1
  8
0
 62
     9
 10
0.0
 20
0.0
 30
0.0
 70
   128
 71
    28
 72
    27
 73
    30
  0
VERTEX
  5
C2
  8
0
 62
     9
 10
0.0
 20
0.0
 30
0.0
 70
   128
 71
    29
 72
    32
 73
    31
  0
VERTEX
  5
C3
  8
0
 62
     9
 10
0.0
 20
0.0
 30
0.0
 70
   128
 71
    32
 72
    29
 73
    30
  0
VERTEX
  5
C4
  8
0
 62
     9
 10
0.0
 20
0.0
 30
0.0
 70
   128
 71
    32
 72
    33
 73
    31
  0
VERTEX
  5
C5
  8
0
 62
     9
 10
0.0
 20
0.0
 30
0.0
 70
   128
 71
    36
 72
    35
 73
    34
  0
VERTEX
  5
C6
  8
0
 62
     9
 10
0.0
 20
0.0
 30
0.0
 70
   128
 71
    39
 72
    38
 73
    37
  0
VERTEX
  5
C7
  8
0
 62
     9
 10
0.0
 20
0.0
 30
0.0
 70
   128
 71
    21
 72
    35
 73
    23
  0
VERTEX
  5
C8
  8
0
 62
     9
 10
0.0
 20
0.0
 30
0.0
 70
   128
 71
    35
 72
    41
 73
    40
  0
VERTEX
  5
C9
  8
0
 62
     9
 10
0.0
 20
0.0
 30
0.0
 70
   128
 71
    41
 72
    35
 73
    21
  0
VERTEX
  5
CA
  8
0
 62
     9
 10
0.0
 20
0.0
 30
0.0
 70
   128
 71
    18
 72
    41
 73
    21
  0
VERTEX
  5
CB
  8
0
 62
     9
 10
0.0
 20
0.0
 30
0.0
 70
   128
 71
    34
 72
    42
 73
    38
  0
VERTEX
  5
CC
  8
0
 62
     9
 10
0.0
 20
0.0
 30
0.0
 70
   128
 71
    34
 72
    38
 73
    39
  0
VERTEX
  5
CD
  8
0
 62
     9
 10
0.0
 20
0.0
 30
0.0
 70
   128
 71
    35
 72
    36
 73
    23
  0
VERTEX
  5
CE
  8
0
 62
     9
 10
0.0
 20
0.0
 30
0.0
 70
   128
 71
    34
 72
    39
 73
    36
  0
VERTEX
  5
CF
  8
0
 62
     9
 10
0.0
 20
0.0
 30
0.0
 70
   128
 71
    34
 72
    40
 73
    42
  0
VERTEX
  5
D0
  8
0
 62
     9
 10
0.0
 20
0.0
 30
0.0
 70
   128
 71
    40
 72
    34
 73
    35
  0
VERTEX
  5
D1
  8
0
 62
     9
 10
0.0
 20
0.0
 30
0.0
 70
   128
 71
    44
 72
    37
 73
    43
  0
VERTEX
  5
D2
  8
0
 62
     9
 10
0.0
 20
0.0
 30
0.0
 70
   128
 71
    46
 72
    38
 73
    45
  0
VERTEX
  5
D3
  8
0
 62
     9
 10
0.0
 20
0.0
 30
0.0
 70
   128
 71
    48
 72
    47
 73
    43
  0
VERTEX
  5
D4
  8
0
 62
     9
 10
0.0
 20
0.0
 30
0.0
 70
   128
 71
    43
 72
    50
 73
    49
  0
VERTEX
  5
D5
  8
0
 62
     9
 10
0.0
 20
0.0
 30
0.0
 70
   128
 71
    47
 72
    50
 73
    43
  0
VERTEX
  5
D6
  8
0
 62
     9
 10
0.0
 20
0.0
 30
0.0
 70
   128
 71
    43
 72
    51
 73
    44
  0
VERTEX
  5
D7
  8
0
 62
     9
 10
0.0
 20
0.0
 30
0.0
 70
   128
 71
    49
 72
    51
 73
    43
  0
VERTEX
  5
D8
  8
0
 62
     9
 10
0.0
 20
0.0
 30
0.0
 70
   128
 71
    37
 72
    38
 73
    46
  0
VERTEX
  5
D9
  8
0
 62
     9
 10
0.0
 20
0.0
 30
0.0
 70
   128
 71
    37
 72
    46
 73
    43
  0
VERTEX
  5
DA
  8
0
 62
     9
 10
0.0
 20
0.0
 30
0.0
 70
   128
 71
    42
 72
    52
 73
    45
  0
VERTEX
  5
DB
  8
0
 62
     9
 10
0.0
 20
0.0
 30
0.0
 70
   128
 71
    42
 72
    45
 73
    38
  0
VERTEX
  5
DC
  8
0
 62
     9
 10
0.0
 20
0.0
 30
0.0
 70
   128
 71
    46
 72
    53
 73
    43
  0
VERTEX
  5
DD
  8
0
 62
     9
 10
0.0
 20
0.0
 30
0.0
 70
   128
 71
    53
 72
    54
 73
    43
  0
VERTEX
  5
DE
  8
0
 62
     9
 10
0.0
 20
0.0
 30
0.0
 70
   128
 71
    57
 72
    56
 73
    55
  0
VERTEX
  5
DF
  8
0
 62
     9
 10
0.0
 20
0.0
 30
0.0
 70
   128
 71
    15
 72
    56
 73
     5
  0
VERTEX
  5
E0
  8
0
 62
     9
 10
0.0
 20
0.0
 30
0.0
 70
   128
 71
    60
 72
    59
 73
    58
  0
VERTEX
  5
E1
  8
0
 62
     9
 10
0.0
 20
0.0
 30
0.0
 70
   128
 71
    59
 72
    57
 73
    61
  0
VERTEX
  5
E2
  8
0
 62
     9
 10
0.0
 20
0.0
 30
0.0
 70
   128
 71
    62
 72
    59
 73
    61
  0
VERTEX
  5
E3
  8
0
 62
     9
 10
0.0
 20
0.0
 30
0.0
 70
   128
 71
    12
 72
    63
 73
    60
  0
VERTEX
  5
E4
  8
0
 62
     9
 10
0.0
 20
0.0
 30
0.0
 70
   128
 71
    12
 72
    60
 73
    13
  0
VERTEX
  5
E5
  8
0
 62
     9
 10
0.0
 20
0.0
 30
0.0
 70
   128
 71
     8
 72
     5
 73
    63
  0
VERTEX
  5
E6
  8
0
 62
     9
 10
0.0
 20
0.0
 30
0.0
 70
   128
 71
    65
 72
    64
 73
    56
  0
VERTEX
  5
E7
  8
0
 62
     9
 10
0.0
 20
0.0
 30
0.0
 70
   128
 71
    63
 72
     5
 73
    56
  0
VERTEX
  5
E8
  8
0
 62
     9
 10
0.0
 20
0.0
 30
0.0
 70
   128
 71
    56
 72
    66
 73
    65
  0
VERTEX
  5
E9
  8
0
 62
     9
 10
0.0
 20
0.0
 30
0.0
 70
   128
 71
    56
 72
    67
 73
    66
  0
VERTEX
  5
EA
  8
0
 62
     9
 10
0.0
 20
0.0
 30
0.0
 70
   128
 71
    31
 72
    67
 73
    56
  0
VERTEX
  5
EB
  8
0
 62
     9
 10
0.0
 20
0.0
 30
0.0
 70
   128
 71
    56
 72
    15
 73
    24
  0
VERTEX
  5
EC
  8
0
 62
     9
 10
0.0
 20
0.0
 30
0.0
 70
   128
 71
    56
 72
    24
 73
    25
  0
VERTEX
  5
ED
  8
0
 62
     9
 10
0.0
 20
0.0
 30
0.0
 70
   128
 71
    25
 72
    28
 73
    56
  0
VERTEX
  5
EE
  8
0
 62
     9
 10
0.0
 20
0.0
 30
0.0
 70
   128
 71
    29
 72
    56
 73
    28
  0
VERTEX
  5
EF
  8
0
 62
     9
 10
0.0
 20
0.0
 30
0.0
 70
   128
 71
    56
 72
    29
 73
    31
  0
VERTEX
  5
F0
  8
0
 62
     9
 10
0.0
 20
0.0
 30
0.0
 70
   128
 71
    56
 72
    64
 73
    55
  0
VERTEX
  5
F1
  8
0
 62
     9
 10
0.0
 20
0.0
 30
0.0
 70
   128
 71
    62
 72
    58
 73
    59
  0
VERTEX
  5
F2
  8
0
 62
     9
 10
0.0
 20
0.0
 30
0.0
 70
   128
 71
     9
 72
    63
 73
    12
  0
VERTEX
  5
F3
  8
0
 62
     9
 10
0.0
 20
0.0
 30
0.0
 70
   128
 71
    63
 72
     9
 73
     8
  0
VERTEX
  5
F4
  8
0
 62
     9
 10
0.0
 20
0.0
 30
0.0
 70
   128
 71
    13
 72
    60
 73
    58
  0
VERTEX
  5
F5
  8
0
 62
     9
 10
0.0
 20
0.0
 30
0.0
 70
   128
 71
    56
 72
    57
 73
    59
  0
VERTEX
  5
F6
  8
0
 62
     9
 10
0.0
 20
0.0
 30
0.0
 70
   128
 71
    70
 72
    69
 73
    68
  0
VERTEX
  5
F7
  8
0
 62
     9
 10
0.0
 20
0.0
 30
0.0
 70
   128
 71
    68
 72
    14
 73
    71
  0
VERTEX
  5
F8
  8
0
 62
     9
 10
0.0
 20
0.0
 30
0.0
 70
   128
 71
    68
 72
    71
 73
    70
  0
VERTEX
  5
F9
  8
0
 62
     9
 10
0.0
 20
0.0
 30
0.0
 70
   128
 71
    72
 72
    69
 73
    70
  0
VERTEX
  5
FA
  8
0
 62
     9
 10
0.0
 20
0.0
 30
0.0
 70
   128
 71
     1
 72
    71
 73
    14
  0
VERTEX
  5
FB
  8
0
 62
     9
 10
0.0
 20
0.0
 30
0.0
 70
   128
 71
     2
 72
    71
 73
     1
  0
VERTEX
  5
FC
  8
0
 62
     9
 10
0.0
 20
0.0
 30
0.0
 70
   128
 71
    71
 72
     2
 73
    70
  0
VERTEX
  5
FD
  8
0
 62
     9
 10
0.0
 20
0.0
 30
0.0
 70
   128
 71
    73
 72
    68
 73
    69
  0
VERTEX
  5
FE
  8
0
 62
     9
 10
0.0
 20
0.0
 30
0.0
 70
   128
 71
    14
 72
    68
 73
    17
  0
VERTEX
  5
FF
  8
0
 62
     9
 10
0.0
 20
0.0
 30
0.0
 70
   128
 71
    73
 72
    69
 73
    74
  0
VERTEX
  5
100
  8
0
 62
     9
 10
0.0
 20
0.0
 30
0.0
 70
   128
 71
    68
 72
    73
 73
    17
  0
VERTEX
  5
101
  8
0
 62
     9
 10
0.0
 20
0.0
 30
0.0
 70
   128
 71
    74
 72
    69
 73
    72
  0
VERTEX
  5
102
  8
0
 62
     9
 10
0.0
 20
0.0
 30
0.0
 70
   128
 71
    74
 72
    72
 73
    52
  0
VERTEX
  5
103
  8
0
 62
     9
 10
0.0
 20
0.0
 30
0.0
 70
   128
 71
    40
 72
    52
 73
    42
  0
VERTEX
  5
104
  8
0
 62
     9
 10
0.0
 20
0.0
 30
0.0
 70
   128
 71
    52
 72
    40
 73
    74
  0
VERTEX
  5
105
  8
0
 62
     9
 10
0.0
 20
0.0
 30
0.0
 70
   128
 71
    41
 72
    18
 73
    73
  0
VERTEX
  5
106
  8
0
 62
     9
 10
0.0
 20
0.0
 30
0.0
 70
   128
 71
    41
 72
    74
 73
    40
  0
VERTEX
  5
107
  8
0
 62
     9
 10
0.0
 20
0.0
 30
0.0
 70
   128
 71
    73
 72
    18
 73
    17
  0
VERTEX
  5
108
  8
0
 62
     9
 10
0.0
 20
0.0
 30
0.0
 70
   128
 71
    73
 72
    74
 73
    41
  0
VERTEX
  5
109
  8
0
 62
     9
 10
0.0
 20
0.0
 30
0.0
 70
   128
 71
    77
 72
    76
 73
    75
  0
VERTEX
  5
10A
  8
0
 62
     9
 10
0.0
 20
0.0
 30
0.0
 70
   128
 71
    44
 72
    79
 73
    78
  0
VERTEX
  5
10B
  8
0
 62
     9
 10
0.0
 20
0.0
 30
0.0
 70
   128
 71
    51
 72
    79
 73
    44
  0
VERTEX
  5
10C
  8
0
 62
     9
 10
0.0
 20
0.0
 30
0.0
 70
   128
 71
    77
 72
    78
 73
    76
  0
VERTEX
  5
10D
  8
0
 62
     9
 10
0.0
 20
0.0
 30
0.0
 70
   128
 71
    44
 72
    78
 73
    37
  0
VERTEX
  5
10E
  8
0
 62
     9
 10
0.0
 20
0.0
 30
0.0
 70
   128
 71
    79
 72
    76
 73
    78
  0
VERTEX
  5
10F
  8
0
 62
     9
 10
0.0
 20
0.0
 30
0.0
 70
   128
 71
    77
 72
    75
 73
    80
  0
VERTEX
  5
110
  8
0
 62
     9
 10
0.0
 20
0.0
 30
0.0
 70
   128
 71
    36
 72
    80
 73
    23
  0
VERTEX
  5
111
  8
0
 62
     9
 10
0.0
 20
0.0
 30
0.0
 70
   128
 71
    39
 72
    77
 73
    36
  0
VERTEX
  5
112
  8
0
 62
     9
 10
0.0
 20
0.0
 30
0.0
 70
   128
 71
    36
 72
    77
 73
    80
  0
VERTEX
  5
113
  8
0
 62
     9
 10
0.0
 20
0.0
 30
0.0
 70
   128
 71
    78
 72
    39
 73
    37
  0
VERTEX
  5
114
  8
0
 62
     9
 10
0.0
 20
0.0
 30
0.0
 70
   128
 71
    39
 72
    78
 73
    77
  0
VERTEX
  5
115
  8
0
 62
     9
 10
0.0
 20
0.0
 30
0.0
 70
   128
 71
    82
 72
    75
 73
    81
  0
VERTEX
  5
116
  8
0
 62
     9
 10
0.0
 20
0.0
 30
0.0
 70
   128
 71
    84
 72
    81
 73
    83
  0
VERTEX
  5
117
  8
0
 62
     9
 10
0.0
 20
0.0
 30
0.0
 70
   128
 71
    82
 72
    81
 73
    85
  0
VERTEX
  5
118
  8
0
 62
     9
 10
0.0
 20
0.0
 30
0.0
 70
   128
 71
    86
 72
    82
 73
    85
  0
VERTEX
  5
119
  8
0
 62
     9
 10
0.0
 20
0.0
 30
0.0
 70
   128
 71
    83
 72
    79
 73
    49
  0
VERTEX
  5
11A
  8
0
 62
     9
 10
0.0
 20
0.0
 30
0.0
 70
   128
 71
    83
 72
    81
 73
    76
  0
VERTEX
  5
11B
  8
0
 62
     9
 10
0.0
 20
0.0
 30
0.0
 70
   128
 71
    76
 72
    79
 73
    83
  0
VERTEX
  5
11C
  8
0
 62
     9
 10
0.0
 20
0.0
 30
0.0
 70
   128
 71
    51
 72
    49
 73
    79
  0
VERTEX
  5
11D
  8
0
 62
     9
 10
0.0
 20
0.0
 30
0.0
 70
   128
 71
    50
 72
    83
 73
    49
  0
VERTEX
  5
11E
  8
0
 62
     9
 10
0.0
 20
0.0
 30
0.0
 70
   128
 71
    83
 72
    50
 73
    84
  0
VERTEX
  5
11F
  8
0
 62
     9
 10
0.0
 20
0.0
 30
0.0
 70
   128
 71
    84
 72
    85
 73
    81
  0
VERTEX
  5
120
  8
0
 62
     9
 10
0.0
 20
0.0
 30
0.0
 70
   128
 71
    76
 72
    81
 73
    75
  0
VERTEX
  5
121
  8
0
 62
     9
 10
0.0
 20
0.0
 30
0.0
 70
   128
 71
    88
 72
    86
 73
    87
  0
VERTEX
  5
122
  8
0
 62
     9
 10
0.0
 20
0.0
 30
0.0
 70
   128
 71
    47
 72
    87
 73
    85
  0
VERTEX
  5
123
  8
0
 62
     9
 10
0.0
 20
0.0
 30
0.0
 70
   128
 71
    47
 72
    85
 73
    84
  0
VERTEX
  5
124
  8
0
 62
     9
 10
0.0
 20
0.0
 30
0.0
 70
   128
 71
    87
 72
    86
 73
    85
  0
VERTEX
  5
125
  8
0
 62
     9
 10
0.0
 20
0.0
 30
0.0
 70
   128
 71
    47
 72
    84
 73
    50
  0
VERTEX
  5
126
  8
0
 62
     9
 10
0.0
 20
0.0
 30
0.0
 70
   128
 71
    87
 72
    47
 73
    48
  0
VERTEX
  5
127
  8
0
 62
     9
 10
0.0
 20
0.0
 30
0.0
 70
   128
 71
    89
 72
    87
 73
    48
  0
VERTEX
  5
128
  8
0
 62
     9
 10
0.0
 20
0.0
 30
0.0
 70
   128
 71
    89
 72
    88
 73
    87
  0
VERTEX
  5
129
  8
0
 62
     9
 10
0.0
 20
0.0
 30
0.0
 70
   128
 71
    45
 72
    52
 73
    90
  0
VERTEX
  5
12A
  8
0
 62
     9
 10
0.0
 20
0.0
 30
0.0
 70
   128
 71
    91
 72
    72
 73
    70
  0
VERTEX
  5
12B
  8
0
 62
     9
 10
0.0
 20
0.0
 30
0.0
 70
   128
 71
    90
 72
    72
 73
    91
  0
VERTEX
  5
12C
  8
0
 62
     9
 10
0.0
 20
0.0
 30
0.0
 70
   128
 71
    52
 72
    72
 73
    90
  0
VERTEX
  5
12D
  8
0
 62
     9
 10
0.0
 20
0.0
 30
0.0
 70
   128
 71
    91
 72
    70
 73
     2
  0
VERTEX
  5
12E
  8
0
 62
     9
 10
0.0
 20
0.0
 30
0.0
 70
   128
 71
    90
 72
    91
 73
    92
  0
VERTEX
  5
12F
  8
0
 62
     9
 10
0.0
 20
0.0
 30
0.0
 70
   128
 71
     2
 72
     4
 73
    91
  0
VERTEX
  5
130
  8
0
 62
     9
 10
0.0
 20
0.0
 30
0.0
 70
   128
 71
     4
 72
    92
 73
    91
  0
VERTEX
  5
131
  8
0
 62
     9
 10
0.0
 20
0.0
 30
0.0
 70
   128
 71
    92
 72
    93
 73
    90
  0
VERTEX
  5
132
  8
0
 62
     9
 10
0.0
 20
0.0
 30
0.0
 70
   128
 71
    11
 72
    93
 73
    10
  0
VERTEX
  5
133
  8
0
 62
     9
 10
0.0
 20
0.0
 30
0.0
 70
   128
 71
    53
 72
    93
 73
    11
  0
VERTEX
  5
134
  8
0
 62
     9
 10
0.0
 20
0.0
 30
0.0
 70
   128
 71
    92
 72
     7
 73
    93
  0
VERTEX
  5
135
  8
0
 62
     9
 10
0.0
 20
0.0
 30
0.0
 70
   128
 71
     7
 72
    92
 73
     4
  0
VERTEX
  5
136
  8
0
 62
     9
 10
0.0
 20
0.0
 30
0.0
 70
   128
 71
     7
 72
    10
 73
    93
  0
VERTEX
  5
137
  8
0
 62
     9
 10
0.0
 20
0.0
 30
0.0
 70
   128
 71
    54
 72
    53
 73
    11
  0
VERTEX
  5
138
  8
0
 62
     9
 10
0.0
 20
0.0
 30
0.0
 70
   128
 71
    54
 72
    95
 73
    94
  0
VERTEX
  5
139
  8
0
 62
     9
 10
0.0
 20
0.0
 30
0.0
 70
   128
 71
    11
 72
    95
 73
    54
  0
VERTEX
  5
13A
  8
0
 62
     9
 10
0.0
 20
0.0
 30
0.0
 70
   128
 71
    54
 72
    94
 73
    96
  0
VERTEX
  5
13B
  8
0
 62
     9
 10
0.0
 20
0.0
 30
0.0
 70
   128
 71
    45
 72
    93
 73
    53
  0
VERTEX
  5
13C
  8
0
 62
     9
 10
0.0
 20
0.0
 30
0.0
 70
   128
 71
    53
 72
    46
 73
    45
  0
VERTEX
  5
13D
  8
0
 62
     9
 10
0.0
 20
0.0
 30
0.0
 70
   128
 71
    45
 72
    90
 73
    93
  0
VERTEX
  5
13E
  8
0
 62
     9
 10
0.0
 20
0.0
 30
0.0
 70
   128
 71
    43
 72
    54
 73
    48
  0
VERTEX
  5
13F
  8
0
 62
     9
 10
0.0
 20
0.0
 30
0.0
 70
   128
 71
    54
 72
    96
 73
    48
  0
VERTEX
  5
140
  8
0
 62
     9
 10
0.0
 20
0.0
 30
0.0
 70
   128
 71
    96
 72
    89
 73
    48
  0
VERTEX
  5
141
  8
0
 62
     9
 10
0.0
 20
0.0
 30
0.0
 70
   128
 71
    88
 72
    89
 73
    96
  0
VERTEX
  5
142
  8
0
 62
     9
 10
0.0
 20
0.0
 30
0.0
 70
   128
 71
    58
 72
    94
 73
    95
  0
VERTEX
  5
143
  8
0
 62
     9
 10
0.0
 20
0.0
 30
0.0
 70
   128
 71
    98
 72
    97
 73
    64
  0
VERTEX
  5
144
  8
0
 62
     9
 10
0.0
 20
0.0
 30
0.0
 70
   128
 71
    57
 72
   100
 73
    99
  0
VERTEX
  5
145
  8
0
 62
     9
 10
0.0
 20
0.0
 30
0.0
 70
   128
 71
    65
 72
   101
 73
    98
  0
VERTEX
  5
146
  8
0
 62
     9
 10
0.0
 20
0.0
 30
0.0
 70
   128
 71
    98
 72
    64
 73
    65
  0
VERTEX
  5
147
  8
0
 62
     9
 10
0.0
 20
0.0
 30
0.0
 70
   128
 71
   101
 72
    66
 73
   102
  0
VERTEX
  5
148
  8
0
 62
     9
 10
0.0
 20
0.0
 30
0.0
 70
   128
 71
    66
 72
   101
 73
    65
  0
VERTEX
  5
149
  8
0
 62
     9
 10
0.0
 20
0.0
 30
0.0
 70
   128
 71
    33
 72
   102
 73
    67
  0
VERTEX
  5
14A
  8
0
 62
     9
 10
0.0
 20
0.0
 30
0.0
 70
   128
 71
    66
 72
    67
 73
   102
  0
VERTEX
  5
14B
  8
0
 62
     9
 10
0.0
 20
0.0
 30
0.0
 70
   128
 71
    33
 72
    67
 73
    31
  0
VERTEX
  5
14C
  8
0
 62
     9
 10
0.0
 20
0.0
 30
0.0
 70
   128
 71
    97
 72
    55
 73
    64
  0
VERTEX
  5
14D
  8
0
 62
     9
 10
0.0
 20
0.0
 30
0.0
 70
   128
 71
   100
 72
    55
 73
    97
  0
VERTEX
  5
14E
  8
0
 62
     9
 10
0.0
 20
0.0
 30
0.0
 70
   128
 71
    99
 72
    61
 73
    57
  0
VERTEX
  5
14F
  8
0
 62
     9
 10
0.0
 20
0.0
 30
0.0
 70
   128
 71
   100
 72
    57
 73
    55
  0
VERTEX
  5
150
  8
0
 62
     9
 10
0.0
 20
0.0
 30
0.0
 70
   128
 71
   104
 72
   103
 73
    88
  0
VERTEX
  5
151
  8
0
 62
     9
 10
0.0
 20
0.0
 30
0.0
 70
   128
 71
    99
 72
   104
 73
    61
  0
VERTEX
  5
152
  8
0
 62
     9
 10
0.0
 20
0.0
 30
0.0
 70
   128
 71
   105
 72
    75
 73
   103
  0
VERTEX
  5
153
  8
0
 62
     9
 10
0.0
 20
0.0
 30
0.0
 70
   128
 71
    86
 72
   103
 73
    82
  0
VERTEX
  5
154
  8
0
 62
     9
 10
0.0
 20
0.0
 30
0.0
 70
   128
 71
    75
 72
   105
 73
    80
  0
VERTEX
  5
155
  8
0
 62
     9
 10
0.0
 20
0.0
 30
0.0
 70
   128
 71
    95
 72
    11
 73
    13
  0
VERTEX
  5
156
  8
0
 62
     9
 10
0.0
 20
0.0
 30
0.0
 70
   128
 71
    23
 72
    80
 73
    22
  0
VERTEX
  5
157
  8
0
 62
     9
 10
0.0
 20
0.0
 30
0.0
 70
   128
 71
    80
 72
   105
 73
    22
  0
VERTEX
  5
158
  8
0
 62
     9
 10
0.0
 20
0.0
 30
0.0
 70
   128
 71
    94
 72
    62
 73
    96
  0
VERTEX
  5
159
  8
0
 62
     9
 10
0.0
 20
0.0
 30
0.0
 70
   128
 71
    75
 72
    82
 73
   103
  0
VERTEX
  5
15A
  8
0
 62
     9
 10
0.0
 20
0.0
 30
0.0
 70
   128
 71
    86
 72
    88
 73
   103
  0
VERTEX
  5
15B
  8
0
 62
     9
 10
0.0
 20
0.0
 30
0.0
 70
   128
 71
   104
 72
    88
 73
    61
  0
VERTEX
  5
15C
  8
0
 62
     9
 10
0.0
 20
0.0
 30
0.0
 70
   128
 71
    61
 72
    96
 73
    62
  0
VERTEX
  5
15D
  8
0
 62
     9
 10
0.0
 20
0.0
 30
0.0
 70
   128
 71
    88
 72
    96
 73
    61
  0
VERTEX
  5
15E
  8
0
 62
     9
 10
0.0
 20
0.0
 30
0.0
 70
   128
 71
    62
 72
    94
 73
    58
  0
VERTEX
  5
15F
  8
0
 62
     9
 10
0.0
 20
0.0
 30
0.0
 70
   128
 71
    58
 72
    95
 73
    13
  0
SEQEND
  5
160
  8
0
 62
     9
  0
ENDBLK
  5
164
  8
0
  0
BLOCK
  8
0
  2
39
 70
     0
 10
0.0
 20
0.0
 30
0.0
  3
39
  1

  0
POLYLINE
  5
166
  8
0
 62
     9
 66
     1
 10
0.0
 20
0.0
 30
0.0
 70
    64
 71
   140
 72
   250
  0
VERTEX
  5
167
  8
0
 10
0.0000000000000031
 20
0.0000000000000023
 30
150.0997009277344
 70
   192
  0
VERTEX
  5
168
  8
0
 10
0.9472304582595825
 20
-5.415536880493164
 30
149.3292236328125
 70
   192
  0
VERTEX
  5
169
  8
0
 10
-0.0000000000000005
 20
-5.497752666473389
 30
149.3292236328125
 70
   192
  0
VERTEX
  5
16A
  8
0
 10
4.896793365478516
 20
-2.499340057373047
 30
149.3292236328125
 70
   192
  0
VERTEX
  5
16B
  8
0
 10
3.887498140335083
 20
-3.887498140335083
 30
149.3292236328125
 70
   192
  0
VERTEX
  5
16C
  8
0
 10
7.61577320098877
 20
-7.61577320098877
 30
146.9519958496094
 70
   192
  0
VERTEX
  5
16D
  8
0
 10
2.499340057373047
 20
-4.896793365478516
 30
149.3292236328125
 70
   192
  0
VERTEX
  5
16E
  8
0
 10
17.26201057434082
 20
-5.610803127288818
 30
138.4996948242188
 70
   192
  0
VERTEX
  5
16F
  8
0
 10
14.9157600402832
 20
-2.608912467956543
 30
143.1654357910156
 70
   192
  0
VERTEX
  5
170
  8
0
 10
17.9231014251709
 20
-2.859505891799927
 30
138.4996948242188
 70
   192
  0
VERTEX
  5
171
  8
0
 10
9.593024253845215
 20
-4.896312713623047
 30
146.9519958496094
 70
   192
  0
VERTEX
  5
172
  8
0
 10
10.60926532745361
 20
-1.855664372444153
 30
146.9519958496094
 70
   192
  0
VERTEX
  5
173
  8
0
 10
18.15048217773438
 20
0.0000000000000005
 30
138.4996948242188
 70
   192
  0
VERTEX
  5
174
  8
0
 10
15.14220333099365
 20
0.0
 30
143.1654357910156
 70
   192
  0
VERTEX
  5
175
  8
0
 10
1.855664372444153
 20
-10.60926532745361
 30
146.9519958496094
 70
   192
  0
VERTEX
  5
176
  8
0
 10
4.896312713623047
 20
-9.593024253845215
 30
146.9519958496094
 70
   192
  0
VERTEX
  5
177
  8
0
 10
6.883815288543701
 20
-13.48700904846191
 30
143.1654357910156
 70
   192
  0
VERTEX
  5
178
  8
0
 10
5.415536880493164
 20
-0.9472304582595825
 30
149.3292236328125
 70
   192
  0
VERTEX
  5
179
  8
0
 10
10.77032947540283
 20
0.0000000000000012
 30
146.9519958496094
 70
   192
  0
VERTEX
  5
17A
  8
0
 10
2.608912467956543
 20
-14.9157600402832
 30
143.1654357910156
 70
   192
  0
VERTEX
  5
17B
  8
0
 10
16.17825698852539
 20
-8.227213859558105
 30
138.4996948242188
 70
   192
  0
VERTEX
  5
17C
  8
0
 10
14.69552326202393
 20
-10.65157127380371
 30
138.4996948242188
 70
   192
  0
VERTEX
  5
17D
  8
0
 10
13.48700904846191
 20
-6.883815288543701
 30
143.1654357910156
 70
   192
  0
VERTEX
  5
17E
  8
0
 10
5.622236728668213
 20
-17.25727462768555
 30
138.4996948242188
 70
   192
  0
VERTEX
  5
17F
  8
0
 10
8.2386474609375
 20
-16.17352104187012
 30
138.4996948242188
 70
   192
  0
VERTEX
  5
180
  8
0
 10
0.0000000000000004
 20
-18.15048217773438
 30
138.4996948242188
 70
   192
  0
VERTEX
  5
181
  8
0
 10
-0.0000000000000007
 20
-15.14220333099365
 30
143.1654357910156
 70
   192
  0
VERTEX
  5
182
  8
0
 10
2.859505891799927
 20
-17.9231014251709
 30
138.4996948242188
 70
   192
  0
VERTEX
  5
183
  8
0
 10
-0.0000000000000005
 20
-10.77032947540283
 30
146.9519958496094
 70
   192
  0
VERTEX
  5
184
  8
0
 10
5.497752666473389
 20
0.0000000000000018
 30
149.3292236328125
 70
   192
  0
VERTEX
  5
185
  8
0
 10
10.70715427398682
 20
-10.70715427398682
 30
143.1654357910156
 70
   192
  0
VERTEX
  5
186
  8
0
 10
10.66262340545654
 20
-14.68744659423828
 30
138.4996948242188
 70
   192
  0
VERTEX
  5
187
  8
0
 10
12.83432865142822
 20
-12.83432865142822
 30
138.4996948242188
 70
   192
  0
VERTEX
  5
188
  8
0
 10
-5.415536880493164
 20
-0.9472304582595825
 30
149.3292236328125
 70
   192
  0
VERTEX
  5
189
  8
0
 10
-5.497752666473389
 20
0.0000000000000021
 30
149.3292236328125
 70
   192
  0
VERTEX
  5
18A
  8
0
 10
-2.499340057373047
 20
-4.896793365478516
 30
149.3292236328125
 70
   192
  0
VERTEX
  5
18B
  8
0
 10
-3.887498140335083
 20
-3.887498140335083
 30
149.3292236328125
 70
   192
  0
VERTEX
  5
18C
  8
0
 10
-7.61577320098877
 20
-7.61577320098877
 30
146.9519958496094
 70
   192
  0
VERTEX
  5
18D
  8
0
 10
-4.896793365478516
 20
-2.499340057373047
 30
149.3292236328125
 70
   192
  0
VERTEX
  5
18E
  8
0
 10
-5.610803127288818
 20
-17.26201057434082
 30
138.4996948242188
 70
   192
  0
VERTEX
  5
18F
  8
0
 10
-2.608912467956543
 20
-14.9157600402832
 30
143.1654357910156
 70
   192
  0
VERTEX
  5
190
  8
0
 10
-2.859505891799927
 20
-17.9231014251709
 30
138.4996948242188
 70
   192
  0
VERTEX
  5
191
  8
0
 10
-4.896312713623047
 20
-9.593024253845215
 30
146.9519958496094
 70
   192
  0
VERTEX
  5
192
  8
0
 10
-1.855664372444153
 20
-10.60926532745361
 30
146.9519958496094
 70
   192
  0
VERTEX
  5
193
  8
0
 10
-10.60926532745361
 20
-1.855664372444153
 30
146.9519958496094
 70
   192
  0
VERTEX
  5
194
  8
0
 10
-9.593024253845215
 20
-4.896312713623047
 30
146.9519958496094
 70
   192
  0
VERTEX
  5
195
  8
0
 10
-13.48700904846191
 20
-6.883815288543701
 30
143.1654357910156
 70
   192
  0
VERTEX
  5
196
  8
0
 10
-0.9472304582595825
 20
-5.415536880493164
 30
149.3292236328125
 70
   192
  0
VERTEX
  5
197
  8
0
 10
-14.9157600402832
 20
-2.608912467956543
 30
143.1654357910156
 70
   192
  0
VERTEX
  5
198
  8
0
 10
-8.227213859558105
 20
-16.17825698852539
 30
138.4996948242188
 70
   192
  0
VERTEX
  5
199
  8
0
 10
-10.65157127380371
 20
-14.69552326202393
 30
138.4996948242188
 70
   192
  0
VERTEX
  5
19A
  8
0
 10
-6.883815288543701
 20
-13.48700904846191
 30
143.1654357910156
 70
   192
  0
VERTEX
  5
19B
  8
0
 10
-17.25727462768555
 20
-5.622236728668213
 30
138.4996948242188
 70
   192
  0
VERTEX
  5
19C
  8
0
 10
-16.17352104187012
 20
-8.2386474609375
 30
138.4996948242188
 70
   192
  0
VERTEX
  5
19D
  8
0
 10
-18.15048217773438
 20
-0.0000000000000001
 30
138.4996948242188
 70
   192
  0
VERTEX
  5
19E
  8
0
 10
-15.14220333099365
 20
0.0000000000000017
 30
143.1654357910156
 70
   192
  0
VERTEX
  5
19F
  8
0
 10
-17.9231014251709
 20
-2.859505891799927
 30
138.4996948242188
 70
   192
  0
VERTEX
  5
1A0
  8
0
 10
-10.77032947540283
 20
0.0000000000000019
 30
146.9519958496094
 70
   192
  0
VERTEX
  5
1A1
  8
0
 10
-10.70715427398682
 20
-10.70715427398682
 30
143.1654357910156
 70
   192
  0
VERTEX
  5
1A2
  8
0
 10
-14.68744659423828
 20
-10.66262340545654
 30
138.4996948242188
 70
   192
  0
VERTEX
  5
1A3
  8
0
 10
-12.83432865142822
 20
-12.83432865142822
 30
138.4996948242188
 70
   192
  0
VERTEX
  5
1A4
  8
0
 10
-0.9472304582595825
 20
5.415536880493164
 30
149.3292236328125
 70
   192
  0
VERTEX
  5
1A5
  8
0
 10
-0.0000000000000011
 20
5.497752666473389
 30
149.3292236328125
 70
   192
  0
VERTEX
  5
1A6
  8
0
 10
-4.896793365478516
 20
2.499340057373047
 30
149.3292236328125
 70
   192
  0
VERTEX
  5
1A7
  8
0
 10
-3.887498140335083
 20
3.887498140335083
 30
149.3292236328125
 70
   192
  0
VERTEX
  5
1A8
  8
0
 10
-7.61577320098877
 20
7.61577320098877
 30
146.9519958496094
 70
   192
  0
VERTEX
  5
1A9
  8
0
 10
-2.499340057373047
 20
4.896793365478516
 30
149.3292236328125
 70
   192
  0
VERTEX
  5
1AA
  8
0
 10
-17.26409912109375
 20
5.600255966186523
 30
138.4996948242188
 70
   192
  0
VERTEX
  5
1AB
  8
0
 10
-14.9157600402832
 20
2.608912467956543
 30
143.1654357910156
 70
   192
  0
VERTEX
  5
1AC
  8
0
 10
-17.92620468139648
 20
2.843672752380371
 30
138.4996948242188
 70
   192
  0
VERTEX
  5
1AD
  8
0
 10
-9.593024253845215
 20
4.896312713623047
 30
146.9519958496094
 70
   192
  0
VERTEX
  5
1AE
  8
0
 10
-10.60926532745361
 20
1.855664372444153
 30
146.9519958496094
 70
   192
  0
VERTEX
  5
1AF
  8
0
 10
-1.855664372444153
 20
10.60926532745361
 30
146.9519958496094
 70
   192
  0
VERTEX
  5
1B0
  8
0
 10
-4.896312713623047
 20
9.593024253845215
 30
146.9519958496094
 70
   192
  0
VERTEX
  5
1B1
  8
0
 10
-6.883815288543701
 20
13.48700904846191
 30
143.1654357910156
 70
   192
  0
VERTEX
  5
1B2
  8
0
 10
-5.415536880493164
 20
0.9472304582595825
 30
149.3292236328125
 70
   192
  0
VERTEX
  5
1B3
  8
0
 10
-2.608912467956543
 20
14.9157600402832
 30
143.1654357910156
 70
   192
  0
VERTEX
  5
1B4
  8
0
 10
-16.1752758026123
 20
8.233111381530762
 30
138.4996948242188
 70
   192
  0
VERTEX
  5
1B5
  8
0
 10
-14.68652153015137
 20
10.66496086120605
 30
138.4996948242188
 70
   192
  0
VERTEX
  5
1B6
  8
0
 10
-13.48700904846191
 20
6.883815288543701
 30
143.1654357910156
 70
   192
  0
VERTEX
  5
1B7
  8
0
 10
-5.615957736968994
 20
17.25933647155762
 30
138.4996948242188
 70
   192
  0
VERTEX
  5
1B8
  8
0
 10
-8.24758243560791
 20
16.16753959655762
 30
138.4996948242188
 70
   192
  0
VERTEX
  5
1B9
  8
0
 10
-0.0000000000000028
 20
18.15048217773438
 30
138.4996948242188
 70
   192
  0
VERTEX
  5
1BA
  8
0
 10
-0.0000000000000024
 20
15.14220333099365
 30
143.1654357910156
 70
   192
  0
VERTEX
  5
1BB
  8
0
 10
-2.843672752380371
 20
17.92620468139648
 30
138.4996948242188
 70
   192
  0
VERTEX
  5
1BC
  8
0
 10
-0.0000000000000018
 20
10.77032947540283
 30
146.9519958496094
 70
   192
  0
VERTEX
  5
1BD
  8
0
 10
-10.70715427398682
 20
10.70715427398682
 30
143.1654357910156
 70
   192
  0
VERTEX
  5
1BE
  8
0
 10
-10.67341709136963
 20
14.67958164215088
 30
138.4996948242188
 70
   192
  0
VERTEX
  5
1BF
  8
0
 10
-12.83432865142822
 20
12.83432865142822
 30
138.4996948242188
 70
   192
  0
VERTEX
  5
1C0
  8
0
 10
-0.0000000000000151
 20
-18.45000076293945
 30
138.4996948242188
 70
   192
  0
VERTEX
  5
1C1
  8
0
 10
-4.111466884613037
 20
-17.98577117919922
 30
138.4996948242188
 70
   192
  0
VERTEX
  5
1C2
  8
0
 10
-17.98761558532715
 20
-4.104989528656006
 30
138.4996948242188
 70
   192
  0
VERTEX
  5
1C3
  8
0
 10
-18.45000076293945
 20
0.0000000000000089
 30
138.4996948242188
 70
   192
  0
VERTEX
  5
1C4
  8
0
 10
-17.98577117919922
 20
4.111466884613037
 30
138.4996948242188
 70
   192
  0
VERTEX
  5
1C5
  8
0
 10
-16.61857223510742
 20
8.01101016998291
 30
138.4996948242188
 70
   192
  0
VERTEX
  5
1C6
  8
0
 10
-14.41706371307373
 20
11.51185607910156
 30
138.4996948242188
 70
   192
  0
VERTEX
  5
1C7
  8
0
 10
-11.50034809112549
 20
14.42716789245605
 30
138.4996948242188
 70
   192
  0
VERTEX
  5
1C8
  8
0
 10
-7.995596408843994
 20
16.62668228149414
 30
138.4996948242188
 70
   192
  0
VERTEX
  5
1C9
  8
0
 10
-4.104989528656006
 20
17.98761558532715
 30
138.4996948242188
 70
   192
  0
VERTEX
  5
1CA
  8
0
 10
-0.0000000000000182
 20
18.45000076293945
 30
138.4996948242188
 70
   192
  0
VERTEX
  5
1CB
  8
0
 10
2.636120796203613
 20
17.9615364074707
 30
138.4996948242188
 70
   192
  0
VERTEX
  5
1CC
  8
0
 10
4.111466884613037
 20
17.98577117919922
 30
138.4996948242188
 70
   192
  0
VERTEX
  5
1CD
  8
0
 10
8.01101016998291
 20
16.61857223510742
 30
138.4996948242188
 70
   192
  0
VERTEX
  5
1CE
  8
0
 10
5.345027446746826
 20
17.35019493103027
 30
138.4996948242188
 70
   192
  0
VERTEX
  5
1CF
  8
0
 10
10.55613613128662
 20
14.76393699645996
 30
138.4996948242188
 70
   192
  0
VERTEX
  5
1D0
  8
0
 10
8.023364067077637
 20
16.2832088470459
 30
138.4996948242188
 70
   192
  0
VERTEX
  5
1D1
  8
0
 10
11.51185607910156
 20
14.41706371307373
 30
138.4996948242188
 70
   192
  0
VERTEX
  5
1D2
  8
0
 10
12.83432865142822
 20
12.83432865142822
 30
138.4996948242188
 70
   192
  0
VERTEX
  5
1D3
  8
0
 10
14.42716789245605
 20
11.50034809112549
 30
138.4996948242188
 70
   192
  0
VERTEX
  5
1D4
  8
0
 10
16.62668228149414
 20
7.995596408843994
 30
138.4996948242188
 70
   192
  0
VERTEX
  5
1D5
  8
0
 10
14.7742280960083
 20
10.54046821594238
 30
138.4996948242188
 70
   192
  0
VERTEX
  5
1D6
  8
0
 10
17.34485244750977
 20
5.32066535949707
 30
138.4996948242188
 70
   192
  0
VERTEX
  5
1D7
  8
0
 10
16.28795623779297
 20
7.99678897857666
 30
138.4996948242188
 70
   192
  0
VERTEX
  5
1D8
  8
0
 10
17.98761558532715
 20
4.104989528656006
 30
138.4996948242188
 70
   192
  0
VERTEX
  5
1D9
  8
0
 10
17.9615364074707
 20
2.636120796203613
 30
138.4996948242188
 70
   192
  0
VERTEX
  5
1DA
  8
0
 10
17.98577117919922
 20
-4.111466884613037
 30
138.4996948242188
 70
   192
  0
VERTEX
  5
1DB
  8
0
 10
16.61857223510742
 20
-8.01101016998291
 30
138.4996948242188
 70
   192
  0
VERTEX
  5
1DC
  8
0
 10
14.41706371307373
 20
-11.51185607910156
 30
138.4996948242188
 70
   192
  0
VERTEX
  5
1DD
  8
0
 10
11.50034809112549
 20
-14.42716789245605
 30
138.4996948242188
 70
   192
  0
VERTEX
  5
1DE
  8
0
 10
7.995596408843994
 20
-16.62668228149414
 30
138.4996948242188
 70
   192
  0
VERTEX
  5
1DF
  8
0
 10
4.104989528656006
 20
-17.98761558532715
 30
138.4996948242188
 70
   192
  0
VERTEX
  5
1E0
  8
0
 10
-8.01101016998291
 20
-16.61857223510742
 30
138.4996948242188
 70
   192
  0
VERTEX
  5
1E1
  8
0
 10
-11.51185607910156
 20
-14.41706371307373
 30
138.4996948242188
 70
   192
  0
VERTEX
  5
1E2
  8
0
 10
-14.42716789245605
 20
-11.50034809112549
 30
138.4996948242188
 70
   192
  0
VERTEX
  5
1E3
  8
0
 10
-16.62668228149414
 20
-7.995596408843994
 30
138.4996948242188
 70
   192
  0
VERTEX
  5
1E4
  8
0
 10
13.48700904846191
 20
6.883815288543701
 30
143.1654357910156
 70
   192
  0
VERTEX
  5
1E5
  8
0
 10
1.855664372444153
 20
10.60926532745361
 30
146.9519958496094
 70
   192
  0
VERTEX
  5
1E6
  8
0
 10
0.9472304582595825
 20
5.415536880493164
 30
149.3292236328125
 70
   192
  0
VERTEX
  5
1E7
  8
0
 10
14.9157600402832
 20
2.608912467956543
 30
143.1654357910156
 70
   192
  0
VERTEX
  5
1E8
  8
0
 10
10.60926532745361
 20
1.855664372444153
 30
146.9519958496094
 70
   192
  0
VERTEX
  5
1E9
  8
0
 10
9.593024253845215
 20
4.896312713623047
 30
146.9519958496094
 70
   192
  0
VERTEX
  5
1EA
  8
0
 10
6.883815288543701
 20
13.48700904846191
 30
143.1654357910156
 70
   192
  0
VERTEX
  5
1EB
  8
0
 10
3.887498140335083
 20
3.887498140335083
 30
149.3292236328125
 70
   192
  0
VERTEX
  5
1EC
  8
0
 10
2.499340057373047
 20
4.896793365478516
 30
149.3292236328125
 70
   192
  0
VERTEX
  5
1ED
  8
0
 10
4.896312713623047
 20
9.593024253845215
 30
146.9519958496094
 70
   192
  0
VERTEX
  5
1EE
  8
0
 10
7.61577320098877
 20
7.61577320098877
 30
146.9519958496094
 70
   192
  0
VERTEX
  5
1EF
  8
0
 10
4.896793365478516
 20
2.499340057373047
 30
149.3292236328125
 70
   192
  0
VERTEX
  5
1F0
  8
0
 10
2.608912467956543
 20
14.9157600402832
 30
143.1654357910156
 70
   192
  0
VERTEX
  5
1F1
  8
0
 10
5.415536880493164
 20
0.9472304582595825
 30
149.3292236328125
 70
   192
  0
VERTEX
  5
1F2
  8
0
 10
10.70715427398682
 20
10.70715427398682
 30
143.1654357910156
 70
   192
  0
VERTEX
  5
1F3
  8
0
 62
     9
 10
0.0
 20
0.0
 30
0.0
 70
   128
 71
     3
 72
     2
 73
     1
  0
VERTEX
  5
1F4
  8
0
 62
     9
 10
0.0
 20
0.0
 30
0.0
 70
   128
 71
     1
 72
     5
 73
     4
  0
VERTEX
  5
1F5
  8
0
 62
     9
 10
0.0
 20
0.0
 30
0.0
 70
   128
 71
     7
 72
     6
 73
     5
  0
VERTEX
  5
1F6
  8
0
 62
     9
 10
0.0
 20
0.0
 30
0.0
 70
   128
 71
     7
 72
     1
 73
     2
  0
VERTEX
  5
1F7
  8
0
 62
     9
 10
0.0
 20
0.0
 30
0.0
 70
   128
 71
    10
 72
     9
 73
     8
  0
VERTEX
  5
1F8
  8
0
 62
     9
 10
0.0
 20
0.0
 30
0.0
 70
   128
 71
    12
 72
    11
 73
     9
  0
VERTEX
  5
1F9
  8
0
 62
     9
 10
0.0
 20
0.0
 30
0.0
 70
   128
 71
    11
 72
     4
 73
     5
  0
VERTEX
  5
1FA
  8
0
 62
     9
 10
0.0
 20
0.0
 30
0.0
 70
   128
 71
    14
 72
     9
 73
    13
  0
VERTEX
  5
1FB
  8
0
 62
     9
 10
0.0
 20
0.0
 30
0.0
 70
   128
 71
    12
 72
     9
 73
    14
  0
VERTEX
  5
1FC
  8
0
 62
     9
 10
0.0
 20
0.0
 30
0.0
 70
   128
 71
    17
 72
    16
 73
    15
  0
VERTEX
  5
1FD
  8
0
 62
     9
 10
0.0
 20
0.0
 30
0.0
 70
   128
 71
    12
 72
    19
 73
    18
  0
VERTEX
  5
1FE
  8
0
 62
     9
 10
0.0
 20
0.0
 30
0.0
 70
   128
 71
    17
 72
    15
 73
    20
  0
VERTEX
  5
1FF
  8
0
 62
     9
 10
0.0
 20
0.0
 30
0.0
 70
   128
 71
    23
 72
    22
 73
    21
  0
VERTEX
  5
200
  8
0
 62
     9
 10
0.0
 20
0.0
 30
0.0
 70
   128
 71
    17
 72
    20
 73
    24
  0
VERTEX
  5
201
  8
0
 62
     9
 10
0.0
 20
0.0
 30
0.0
 70
   128
 71
    25
 72
    17
 73
    24
  0
VERTEX
  5
202
  8
0
 62
     9
 10
0.0
 20
0.0
 30
0.0
 70
   128
 71
    28
 72
    27
 73
    26
  0
VERTEX
  5
203
  8
0
 62
     9
 10
0.0
 20
0.0
 30
0.0
 70
   128
 71
    28
 72
    24
 73
    20
  0
VERTEX
  5
204
  8
0
 62
     9
 10
0.0
 20
0.0
 30
0.0
 70
   128
 71
     3
 72
    29
 73
    15
  0
VERTEX
  5
205
  8
0
 62
     9
 10
0.0
 20
0.0
 30
0.0
 70
   128
 71
     5
 72
     1
 73
     7
  0
VERTEX
  5
206
  8
0
 62
     9
 10
0.0
 20
0.0
 30
0.0
 70
   128
 71
     2
 72
     3
 73
    15
  0
VERTEX
  5
207
  8
0
 62
     9
 10
0.0
 20
0.0
 30
0.0
 70
   128
 71
     7
 72
    16
 73
     6
  0
VERTEX
  5
208
  8
0
 62
     9
 10
0.0
 20
0.0
 30
0.0
 70
   128
 71
     5
 72
     6
 73
    11
  0
VERTEX
  5
209
  8
0
 62
     9
 10
0.0
 20
0.0
 30
0.0
 70
   128
 71
     1
 72
    18
 73
    30
  0
VERTEX
  5
20A
  8
0
 62
     9
 10
0.0
 20
0.0
 30
0.0
 70
   128
 71
    18
 72
     1
 73
     4
  0
VERTEX
  5
20B
  8
0
 62
     9
 10
0.0
 20
0.0
 30
0.0
 70
   128
 71
     4
 72
    11
 73
    12
  0
VERTEX
  5
20C
  8
0
 62
     9
 10
0.0
 20
0.0
 30
0.0
 70
   128
 71
    30
 72
    18
 73
    19
  0
VERTEX
  5
20D
  8
0
 62
     9
 10
0.0
 20
0.0
 30
0.0
 70
   128
 71
    16
 72
     2
 73
    15
  0
VERTEX
  5
20E
  8
0
 62
     9
 10
0.0
 20
0.0
 30
0.0
 70
   128
 71
    29
 72
    27
 73
    20
  0
VERTEX
  5
20F
  8
0
 62
     9
 10
0.0
 20
0.0
 30
0.0
 70
   128
 71
     6
 72
    16
 73
    31
  0
VERTEX
  5
210
  8
0
 62
     9
 10
0.0
 20
0.0
 30
0.0
 70
   128
 71
    16
 72
     7
 73
     2
  0
VERTEX
  5
211
  8
0
 62
     9
 10
0.0
 20
0.0
 30
0.0
 70
   128
 71
    31
 72
    16
 73
    17
  0
VERTEX
  5
212
  8
0
 62
     9
 10
0.0
 20
0.0
 30
0.0
 70
   128
 71
    11
 72
     6
 73
    23
  0
VERTEX
  5
213
  8
0
 62
     9
 10
0.0
 20
0.0
 30
0.0
 70
   128
 71
    31
 72
    23
 73
     6
  0
VERTEX
  5
214
  8
0
 62
     9
 10
0.0
 20
0.0
 30
0.0
 70
   128
 71
    18
 72
     4
 73
    12
  0
VERTEX
  5
215
  8
0
 62
     9
 10
0.0
 20
0.0
 30
0.0
 70
   128
 71
    11
 72
    23
 73
     9
  0
VERTEX
  5
216
  8
0
 62
     9
 10
0.0
 20
0.0
 30
0.0
 70
   128
 71
    19
 72
    12
 73
    14
  0
VERTEX
  5
217
  8
0
 62
     9
 10
0.0
 20
0.0
 30
0.0
 70
   128
 71
    20
 72
    15
 73
    29
  0
VERTEX
  5
218
  8
0
 62
     9
 10
0.0
 20
0.0
 30
0.0
 70
   128
 71
    20
 72
    27
 73
    28
  0
VERTEX
  5
219
  8
0
 62
     9
 10
0.0
 20
0.0
 30
0.0
 70
   128
 71
    32
 72
    17
 73
    25
  0
VERTEX
  5
21A
  8
0
 62
     9
 10
0.0
 20
0.0
 30
0.0
 70
   128
 71
    33
 72
    31
 73
    32
  0
VERTEX
  5
21B
  8
0
 62
     9
 10
0.0
 20
0.0
 30
0.0
 70
   128
 71
    22
 72
    31
 73
    33
  0
VERTEX
  5
21C
  8
0
 62
     9
 10
0.0
 20
0.0
 30
0.0
 70
   128
 71
    31
 72
    17
 73
    32
  0
VERTEX
  5
21D
  8
0
 62
     9
 10
0.0
 20
0.0
 30
0.0
 70
   128
 71
    23
 72
    31
 73
    22
  0
VERTEX
  5
21E
  8
0
 62
     9
 10
0.0
 20
0.0
 30
0.0
 70
   128
 71
    23
 72
    21
 73
     8
  0
VERTEX
  5
21F
  8
0
 62
     9
 10
0.0
 20
0.0
 30
0.0
 70
   128
 71
     9
 72
    23
 73
     8
  0
VERTEX
  5
220
  8
0
 62
     9
 10
0.0
 20
0.0
 30
0.0
 70
   128
 71
     9
 72
    10
 73
    13
  0
VERTEX
  5
221
  8
0
 62
     9
 10
0.0
 20
0.0
 30
0.0
 70
   128
 71
    35
 72
    34
 73
     1
  0
VERTEX
  5
222
  8
0
 62
     9
 10
0.0
 20
0.0
 30
0.0
 70
   128
 71
     1
 72
    37
 73
    36
  0
VERTEX
  5
223
  8
0
 62
     9
 10
0.0
 20
0.0
 30
0.0
 70
   128
 71
    39
 72
    38
 73
    37
  0
VERTEX
  5
224
  8
0
 62
     9
 10
0.0
 20
0.0
 30
0.0
 70
   128
 71
    39
 72
     1
 73
    34
  0
VERTEX
  5
225
  8
0
 62
     9
 10
0.0
 20
0.0
 30
0.0
 70
   128
 71
    42
 72
    41
 73
    40
  0
VERTEX
  5
226
  8
0
 62
     9
 10
0.0
 20
0.0
 30
0.0
 70
   128
 71
    44
 72
    43
 73
    41
  0
VERTEX
  5
227
  8
0
 62
     9
 10
0.0
 20
0.0
 30
0.0
 70
   128
 71
    43
 72
    36
 73
    37
  0
VERTEX
  5
228
  8
0
 62
     9
 10
0.0
 20
0.0
 30
0.0
 70
   128
 71
    27
 72
    41
 73
    26
  0
VERTEX
  5
229
  8
0
 62
     9
 10
0.0
 20
0.0
 30
0.0
 70
   128
 71
    44
 72
    41
 73
    27
  0
VERTEX
  5
22A
  8
0
 62
     9
 10
0.0
 20
0.0
 30
0.0
 70
   128
 71
    47
 72
    46
 73
    45
  0
VERTEX
  5
22B
  8
0
 62
     9
 10
0.0
 20
0.0
 30
0.0
 70
   128
 71
    44
 72
    29
 73
    48
  0
VERTEX
  5
22C
  8
0
 62
     9
 10
0.0
 20
0.0
 30
0.0
 70
   128
 71
    47
 72
    45
 73
    49
  0
VERTEX
  5
22D
  8
0
 62
     9
 10
0.0
 20
0.0
 30
0.0
 70
   128
 71
    52
 72
    51
 73
    50
  0
VERTEX
  5
22E
  8
0
 62
     9
 10
0.0
 20
0.0
 30
0.0
 70
   128
 71
    47
 72
    49
 73
    53
  0
VERTEX
  5
22F
  8
0
 62
     9
 10
0.0
 20
0.0
 30
0.0
 70
   128
 71
    54
 72
    47
 73
    53
  0
VERTEX
  5
230
  8
0
 62
     9
 10
0.0
 20
0.0
 30
0.0
 70
   128
 71
    57
 72
    56
 73
    55
  0
VERTEX
  5
231
  8
0
 62
     9
 10
0.0
 20
0.0
 30
0.0
 70
   128
 71
    57
 72
    53
 73
    49
  0
VERTEX
  5
232
  8
0
 62
     9
 10
0.0
 20
0.0
 30
0.0
 70
   128
 71
    35
 72
    58
 73
    45
  0
VERTEX
  5
233
  8
0
 62
     9
 10
0.0
 20
0.0
 30
0.0
 70
   128
 71
    37
 72
     1
 73
    39
  0
VERTEX
  5
234
  8
0
 62
     9
 10
0.0
 20
0.0
 30
0.0
 70
   128
 71
    34
 72
    35
 73
    45
  0
VERTEX
  5
235
  8
0
 62
     9
 10
0.0
 20
0.0
 30
0.0
 70
   128
 71
    39
 72
    46
 73
    38
  0
VERTEX
  5
236
  8
0
 62
     9
 10
0.0
 20
0.0
 30
0.0
 70
   128
 71
    37
 72
    38
 73
    43
  0
VERTEX
  5
237
  8
0
 62
     9
 10
0.0
 20
0.0
 30
0.0
 70
   128
 71
     1
 72
    48
 73
     3
  0
VERTEX
  5
238
  8
0
 62
     9
 10
0.0
 20
0.0
 30
0.0
 70
   128
 71
    48
 72
     1
 73
    36
  0
VERTEX
  5
239
  8
0
 62
     9
 10
0.0
 20
0.0
 30
0.0
 70
   128
 71
    36
 72
    43
 73
    44
  0
VERTEX
  5
23A
  8
0
 62
     9
 10
0.0
 20
0.0
 30
0.0
 70
   128
 71
     3
 72
    48
 73
    29
  0
VERTEX
  5
23B
  8
0
 62
     9
 10
0.0
 20
0.0
 30
0.0
 70
   128
 71
    46
 72
    34
 73
    45
  0
VERTEX
  5
23C
  8
0
 62
     9
 10
0.0
 20
0.0
 30
0.0
 70
   128
 71
    58
 72
    56
 73
    49
  0
VERTEX
  5
23D
  8
0
 62
     9
 10
0.0
 20
0.0
 30
0.0
 70
   128
 71
    38
 72
    46
 73
    59
  0
VERTEX
  5
23E
  8
0
 62
     9
 10
0.0
 20
0.0
 30
0.0
 70
   128
 71
    46
 72
    39
 73
    34
  0
VERTEX
  5
23F
  8
0
 62
     9
 10
0.0
 20
0.0
 30
0.0
 70
   128
 71
    59
 72
    46
 73
    47
  0
VERTEX
  5
240
  8
0
 62
     9
 10
0.0
 20
0.0
 30
0.0
 70
   128
 71
    43
 72
    38
 73
    52
  0
VERTEX
  5
241
  8
0
 62
     9
 10
0.0
 20
0.0
 30
0.0
 70
   128
 71
    59
 72
    52
 73
    38
  0
VERTEX
  5
242
  8
0
 62
     9
 10
0.0
 20
0.0
 30
0.0
 70
   128
 71
    48
 72
    36
 73
    44
  0
VERTEX
  5
243
  8
0
 62
     9
 10
0.0
 20
0.0
 30
0.0
 70
   128
 71
    43
 72
    52
 73
    41
  0
VERTEX
  5
244
  8
0
 62
     9
 10
0.0
 20
0.0
 30
0.0
 70
   128
 71
    29
 72
    44
 73
    27
  0
VERTEX
  5
245
  8
0
 62
     9
 10
0.0
 20
0.0
 30
0.0
 70
   128
 71
    49
 72
    45
 73
    58
  0
VERTEX
  5
246
  8
0
 62
     9
 10
0.0
 20
0.0
 30
0.0
 70
   128
 71
    49
 72
    56
 73
    57
  0
VERTEX
  5
247
  8
0
 62
     9
 10
0.0
 20
0.0
 30
0.0
 70
   128
 71
    60
 72
    47
 73
    54
  0
VERTEX
  5
248
  8
0
 62
     9
 10
0.0
 20
0.0
 30
0.0
 70
   128
 71
    61
 72
    59
 73
    60
  0
VERTEX
  5
249
  8
0
 62
     9
 10
0.0
 20
0.0
 30
0.0
 70
   128
 71
    51
 72
    59
 73
    61
  0
VERTEX
  5
24A
  8
0
 62
     9
 10
0.0
 20
0.0
 30
0.0
 70
   128
 71
    59
 72
    47
 73
    60
  0
VERTEX
  5
24B
  8
0
 62
     9
 10
0.0
 20
0.0
 30
0.0
 70
   128
 71
    52
 72
    59
 73
    51
  0
VERTEX
  5
24C
  8
0
 62
     9
 10
0.0
 20
0.0
 30
0.0
 70
   128
 71
    52
 72
    50
 73
    40
  0
VERTEX
  5
24D
  8
0
 62
     9
 10
0.0
 20
0.0
 30
0.0
 70
   128
 71
    41
 72
    52
 73
    40
  0
VERTEX
  5
24E
  8
0
 62
     9
 10
0.0
 20
0.0
 30
0.0
 70
   128
 71
    41
 72
    42
 73
    26
  0
VERTEX
  5
24F
  8
0
 62
     9
 10
0.0
 20
0.0
 30
0.0
 70
   128
 71
    63
 72
    62
 73
     1
  0
VERTEX
  5
250
  8
0
 62
     9
 10
0.0
 20
0.0
 30
0.0
 70
   128
 71
     1
 72
    65
 73
    64
  0
VERTEX
  5
251
  8
0
 62
     9
 10
0.0
 20
0.0
 30
0.0
 70
   128
 71
    67
 72
    66
 73
    65
  0
VERTEX
  5
252
  8
0
 62
     9
 10
0.0
 20
0.0
 30
0.0
 70
   128
 71
    67
 72
     1
 73
    62
  0
VERTEX
  5
253
  8
0
 62
     9
 10
0.0
 20
0.0
 30
0.0
 70
   128
 71
    70
 72
    69
 73
    68
  0
VERTEX
  5
254
  8
0
 62
     9
 10
0.0
 20
0.0
 30
0.0
 70
   128
 71
    72
 72
    71
 73
    69
  0
VERTEX
  5
255
  8
0
 62
     9
 10
0.0
 20
0.0
 30
0.0
 70
   128
 71
    71
 72
    64
 73
    65
  0
VERTEX
  5
256
  8
0
 62
     9
 10
0.0
 20
0.0
 30
0.0
 70
   128
 71
    56
 72
    69
 73
    55
  0
VERTEX
  5
257
  8
0
 62
     9
 10
0.0
 20
0.0
 30
0.0
 70
   128
 71
    72
 72
    69
 73
    56
  0
VERTEX
  5
258
  8
0
 62
     9
 10
0.0
 20
0.0
 30
0.0
 70
   128
 71
    75
 72
    74
 73
    73
  0
VERTEX
  5
259
  8
0
 62
     9
 10
0.0
 20
0.0
 30
0.0
 70
   128
 71
    72
 72
    58
 73
    76
  0
VERTEX
  5
25A
  8
0
 62
     9
 10
0.0
 20
0.0
 30
0.0
 70
   128
 71
    75
 72
    73
 73
    77
  0
VERTEX
  5
25B
  8
0
 62
     9
 10
0.0
 20
0.0
 30
0.0
 70
   128
 71
    80
 72
    79
 73
    78
  0
VERTEX
  5
25C
  8
0
 62
     9
 10
0.0
 20
0.0
 30
0.0
 70
   128
 71
    75
 72
    77
 73
    81
  0
VERTEX
  5
25D
  8
0
 62
     9
 10
0.0
 20
0.0
 30
0.0
 70
   128
 71
    82
 72
    75
 73
    81
  0
VERTEX
  5
25E
  8
0
 62
     9
 10
0.0
 20
0.0
 30
0.0
 70
   128
 71
    85
 72
    84
 73
    83
  0
VERTEX
  5
25F
  8
0
 62
     9
 10
0.0
 20
0.0
 30
0.0
 70
   128
 71
    85
 72
    81
 73
    77
  0
VERTEX
  5
260
  8
0
 62
     9
 10
0.0
 20
0.0
 30
0.0
 70
   128
 71
    63
 72
    86
 73
    73
  0
VERTEX
  5
261
  8
0
 62
     9
 10
0.0
 20
0.0
 30
0.0
 70
   128
 71
    65
 72
     1
 73
    67
  0
VERTEX
  5
262
  8
0
 62
     9
 10
0.0
 20
0.0
 30
0.0
 70
   128
 71
    62
 72
    63
 73
    73
  0
VERTEX
  5
263
  8
0
 62
     9
 10
0.0
 20
0.0
 30
0.0
 70
   128
 71
    67
 72
    74
 73
    66
  0
VERTEX
  5
264
  8
0
 62
     9
 10
0.0
 20
0.0
 30
0.0
 70
   128
 71
    65
 72
    66
 73
    71
  0
VERTEX
  5
265
  8
0
 62
     9
 10
0.0
 20
0.0
 30
0.0
 70
   128
 71
     1
 72
    76
 73
    35
  0
VERTEX
  5
266
  8
0
 62
     9
 10
0.0
 20
0.0
 30
0.0
 70
   128
 71
    76
 72
     1
 73
    64
  0
VERTEX
  5
267
  8
0
 62
     9
 10
0.0
 20
0.0
 30
0.0
 70
   128
 71
    64
 72
    71
 73
    72
  0
VERTEX
  5
268
  8
0
 62
     9
 10
0.0
 20
0.0
 30
0.0
 70
   128
 71
    35
 72
    76
 73
    58
  0
VERTEX
  5
269
  8
0
 62
     9
 10
0.0
 20
0.0
 30
0.0
 70
   128
 71
    74
 72
    62
 73
    73
  0
VERTEX
  5
26A
  8
0
 62
     9
 10
0.0
 20
0.0
 30
0.0
 70
   128
 71
    86
 72
    84
 73
    77
  0
VERTEX
  5
26B
  8
0
 62
     9
 10
0.0
 20
0.0
 30
0.0
 70
   128
 71
    66
 72
    74
 73
    87
  0
VERTEX
  5
26C
  8
0
 62
     9
 10
0.0
 20
0.0
 30
0.0
 70
   128
 71
    74
 72
    67
 73
    62
  0
VERTEX
  5
26D
  8
0
 62
     9
 10
0.0
 20
0.0
 30
0.0
 70
   128
 71
    87
 72
    74
 73
    75
  0
VERTEX
  5
26E
  8
0
 62
     9
 10
0.0
 20
0.0
 30
0.0
 70
   128
 71
    71
 72
    66
 73
    80
  0
VERTEX
  5
26F
  8
0
 62
     9
 10
0.0
 20
0.0
 30
0.0
 70
   128
 71
    87
 72
    80
 73
    66
  0
VERTEX
  5
270
  8
0
 62
     9
 10
0.0
 20
0.0
 30
0.0
 70
   128
 71
    76
 72
    64
 73
    72
  0
VERTEX
  5
271
  8
0
 62
     9
 10
0.0
 20
0.0
 30
0.0
 70
   128
 71
    71
 72
    80
 73
    69
  0
VERTEX
  5
272
  8
0
 62
     9
 10
0.0
 20
0.0
 30
0.0
 70
   128
 71
    58
 72
    72
 73
    56
  0
VERTEX
  5
273
  8
0
 62
     9
 10
0.0
 20
0.0
 30
0.0
 70
   128
 71
    77
 72
    73
 73
    86
  0
VERTEX
  5
274
  8
0
 62
     9
 10
0.0
 20
0.0
 30
0.0
 70
   128
 71
    77
 72
    84
 73
    85
  0
VERTEX
  5
275
  8
0
 62
     9
 10
0.0
 20
0.0
 30
0.0
 70
   128
 71
    88
 72
    75
 73
    82
  0
VERTEX
  5
276
  8
0
 62
     9
 10
0.0
 20
0.0
 30
0.0
 70
   128
 71
    89
 72
    87
 73
    88
  0
VERTEX
  5
277
  8
0
 62
     9
 10
0.0
 20
0.0
 30
0.0
 70
   128
 71
    79
 72
    87
 73
    89
  0
VERTEX
  5
278
  8
0
 62
     9
 10
0.0
 20
0.0
 30
0.0
 70
   128
 71
    87
 72
    75
 73
    88
  0
VERTEX
  5
279
  8
0
 62
     9
 10
0.0
 20
0.0
 30
0.0
 70
   128
 71
    80
 72
    87
 73
    79
  0
VERTEX
  5
27A
  8
0
 62
     9
 10
0.0
 20
0.0
 30
0.0
 70
   128
 71
    80
 72
    78
 73
    68
  0
VERTEX
  5
27B
  8
0
 62
     9
 10
0.0
 20
0.0
 30
0.0
 70
   128
 71
    69
 72
    80
 73
    68
  0
VERTEX
  5
27C
  8
0
 62
     9
 10
0.0
 20
0.0
 30
0.0
 70
   128
 71
    69
 72
    70
 73
    55
  0
VERTEX
  5
27D
  8
0
 62
     9
 10
0.0
 20
0.0
 30
0.0
 70
   128
 71
    42
 72
    91
 73
    90
  0
VERTEX
  5
27E
  8
0
 62
     9
 10
0.0
 20
0.0
 30
0.0
 70
   128
 71
    90
 72
    28
 73
    26
  0
VERTEX
  5
27F
  8
0
 62
     9
 10
0.0
 20
0.0
 30
0.0
 70
   128
 71
    93
 72
    92
 73
    57
  0
VERTEX
  5
280
  8
0
 62
     9
 10
0.0
 20
0.0
 30
0.0
 70
   128
 71
    70
 72
    94
 73
    93
  0
VERTEX
  5
281
  8
0
 62
     9
 10
0.0
 20
0.0
 30
0.0
 70
   128
 71
    55
 72
    70
 73
    93
  0
VERTEX
  5
282
  8
0
 62
     9
 10
0.0
 20
0.0
 30
0.0
 70
   128
 71
    94
 72
    68
 73
    95
  0
VERTEX
  5
283
  8
0
 62
     9
 10
0.0
 20
0.0
 30
0.0
 70
   128
 71
    70
 72
    68
 73
    94
  0
VERTEX
  5
284
  8
0
 62
     9
 10
0.0
 20
0.0
 30
0.0
 70
   128
 71
    78
 72
    79
 73
    95
  0
VERTEX
  5
285
  8
0
 62
     9
 10
0.0
 20
0.0
 30
0.0
 70
   128
 71
    68
 72
    78
 73
    95
  0
VERTEX
  5
286
  8
0
 62
     9
 10
0.0
 20
0.0
 30
0.0
 70
   128
 71
    79
 72
    89
 73
    96
  0
VERTEX
  5
287
  8
0
 62
     9
 10
0.0
 20
0.0
 30
0.0
 70
   128
 71
    79
 72
    96
 73
    95
  0
VERTEX
  5
288
  8
0
 62
     9
 10
0.0
 20
0.0
 30
0.0
 70
   128
 71
    89
 72
    97
 73
    96
  0
VERTEX
  5
289
  8
0
 62
     9
 10
0.0
 20
0.0
 30
0.0
 70
   128
 71
    97
 72
    88
 73
    98
  0
VERTEX
  5
28A
  8
0
 62
     9
 10
0.0
 20
0.0
 30
0.0
 70
   128
 71
    89
 72
    88
 73
    97
  0
VERTEX
  5
28B
  8
0
 62
     9
 10
0.0
 20
0.0
 30
0.0
 70
   128
 71
    82
 72
    81
 73
    98
  0
VERTEX
  5
28C
  8
0
 62
     9
 10
0.0
 20
0.0
 30
0.0
 70
   128
 71
    88
 72
    82
 73
    98
  0
VERTEX
  5
28D
  8
0
 62
     9
 10
0.0
 20
0.0
 30
0.0
 70
   128
 71
    81
 72
    99
 73
    98
  0
VERTEX
  5
28E
  8
0
 62
     9
 10
0.0
 20
0.0
 30
0.0
 70
   128
 71
    99
 72
    85
 73
   100
  0
VERTEX
  5
28F
  8
0
 62
     9
 10
0.0
 20
0.0
 30
0.0
 70
   128
 71
    81
 72
    85
 73
    99
  0
VERTEX
  5
290
  8
0
 62
     9
 10
0.0
 20
0.0
 30
0.0
 70
   128
 71
    83
 72
   101
 73
   100
  0
VERTEX
  5
291
  8
0
 62
     9
 10
0.0
 20
0.0
 30
0.0
 70
   128
 71
    85
 72
    83
 73
   100
  0
VERTEX
  5
292
  8
0
 62
     9
 10
0.0
 20
0.0
 30
0.0
 70
   128
 71
   101
 72
   102
 73
   100
  0
VERTEX
  5
293
  8
0
 62
     9
 10
0.0
 20
0.0
 30
0.0
 70
   128
 71
   102
 72
   104
 73
   103
  0
VERTEX
  5
294
  8
0
 62
     9
 10
0.0
 20
0.0
 30
0.0
 70
   128
 71
   101
 72
   104
 73
   102
  0
VERTEX
  5
295
  8
0
 62
     9
 10
0.0
 20
0.0
 30
0.0
 70
   128
 71
   106
 72
   105
 73
   103
  0
VERTEX
  5
296
  8
0
 62
     9
 10
0.0
 20
0.0
 30
0.0
 70
   128
 71
   104
 72
   106
 73
   103
  0
VERTEX
  5
297
  8
0
 62
     9
 10
0.0
 20
0.0
 30
0.0
 70
   128
 71
   105
 72
   108
 73
   107
  0
VERTEX
  5
298
  8
0
 62
     9
 10
0.0
 20
0.0
 30
0.0
 70
   128
 71
   105
 72
   107
 73
   103
  0
VERTEX
  5
299
  8
0
 62
     9
 10
0.0
 20
0.0
 30
0.0
 70
   128
 71
   108
 72
   109
 73
   107
  0
VERTEX
  5
29A
  8
0
 62
     9
 10
0.0
 20
0.0
 30
0.0
 70
   128
 71
   109
 72
   111
 73
   110
  0
VERTEX
  5
29B
  8
0
 62
     9
 10
0.0
 20
0.0
 30
0.0
 70
   128
 71
   108
 72
   111
 73
   109
  0
VERTEX
  5
29C
  8
0
 62
     9
 10
0.0
 20
0.0
 30
0.0
 70
   128
 71
   113
 72
   112
 73
   110
  0
VERTEX
  5
29D
  8
0
 62
     9
 10
0.0
 20
0.0
 30
0.0
 70
   128
 71
   111
 72
   113
 73
   110
  0
VERTEX
  5
29E
  8
0
 62
     9
 10
0.0
 20
0.0
 30
0.0
 70
   128
 71
   112
 72
   114
 73
   110
  0
VERTEX
  5
29F
  8
0
 62
     9
 10
0.0
 20
0.0
 30
0.0
 70
   128
 71
   114
 72
   115
 73
    13
  0
VERTEX
  5
2A0
  8
0
 62
     9
 10
0.0
 20
0.0
 30
0.0
 70
   128
 71
   112
 72
   115
 73
   114
  0
VERTEX
  5
2A1
  8
0
 62
     9
 10
0.0
 20
0.0
 30
0.0
 70
   128
 71
    10
 72
   116
 73
    13
  0
VERTEX
  5
2A2
  8
0
 62
     9
 10
0.0
 20
0.0
 30
0.0
 70
   128
 71
   116
 72
     8
 73
   117
  0
VERTEX
  5
2A3
  8
0
 62
     9
 10
0.0
 20
0.0
 30
0.0
 70
   128
 71
    10
 72
     8
 73
   116
  0
VERTEX
  5
2A4
  8
0
 62
     9
 10
0.0
 20
0.0
 30
0.0
 70
   128
 71
    21
 72
    22
 73
   117
  0
VERTEX
  5
2A5
  8
0
 62
     9
 10
0.0
 20
0.0
 30
0.0
 70
   128
 71
     8
 72
    21
 73
   117
  0
VERTEX
  5
2A6
  8
0
 62
     9
 10
0.0
 20
0.0
 30
0.0
 70
   128
 71
    22
 72
    33
 73
   118
  0
VERTEX
  5
2A7
  8
0
 62
     9
 10
0.0
 20
0.0
 30
0.0
 70
   128
 71
    22
 72
   118
 73
   117
  0
VERTEX
  5
2A8
  8
0
 62
     9
 10
0.0
 20
0.0
 30
0.0
 70
   128
 71
    33
 72
   119
 73
   118
  0
VERTEX
  5
2A9
  8
0
 62
     9
 10
0.0
 20
0.0
 30
0.0
 70
   128
 71
   119
 72
    32
 73
   120
  0
VERTEX
  5
2AA
  8
0
 62
     9
 10
0.0
 20
0.0
 30
0.0
 70
   128
 71
    33
 72
    32
 73
   119
  0
VERTEX
  5
2AB
  8
0
 62
     9
 10
0.0
 20
0.0
 30
0.0
 70
   128
 71
    25
 72
    24
 73
   120
  0
VERTEX
  5
2AC
  8
0
 62
     9
 10
0.0
 20
0.0
 30
0.0
 70
   128
 71
    32
 72
    25
 73
   120
  0
VERTEX
  5
2AD
  8
0
 62
     9
 10
0.0
 20
0.0
 30
0.0
 70
   128
 71
    24
 72
   121
 73
   120
  0
VERTEX
  5
2AE
  8
0
 62
     9
 10
0.0
 20
0.0
 30
0.0
 70
   128
 71
   121
 72
    28
 73
    90
  0
VERTEX
  5
2AF
  8
0
 62
     9
 10
0.0
 20
0.0
 30
0.0
 70
   128
 71
    24
 72
    28
 73
   121
  0
VERTEX
  5
2B0
  8
0
 62
     9
 10
0.0
 20
0.0
 30
0.0
 70
   128
 71
    26
 72
    42
 73
    90
  0
VERTEX
  5
2B1
  8
0
 62
     9
 10
0.0
 20
0.0
 30
0.0
 70
   128
 71
    91
 72
    40
 73
   122
  0
VERTEX
  5
2B2
  8
0
 62
     9
 10
0.0
 20
0.0
 30
0.0
 70
   128
 71
    42
 72
    40
 73
    91
  0
VERTEX
  5
2B3
  8
0
 62
     9
 10
0.0
 20
0.0
 30
0.0
 70
   128
 71
    50
 72
    51
 73
   122
  0
VERTEX
  5
2B4
  8
0
 62
     9
 10
0.0
 20
0.0
 30
0.0
 70
   128
 71
    40
 72
    50
 73
   122
  0
VERTEX
  5
2B5
  8
0
 62
     9
 10
0.0
 20
0.0
 30
0.0
 70
   128
 71
    51
 72
    61
 73
   123
  0
VERTEX
  5
2B6
  8
0
 62
     9
 10
0.0
 20
0.0
 30
0.0
 70
   128
 71
    51
 72
   123
 73
   122
  0
VERTEX
  5
2B7
  8
0
 62
     9
 10
0.0
 20
0.0
 30
0.0
 70
   128
 71
    61
 72
   124
 73
   123
  0
VERTEX
  5
2B8
  8
0
 62
     9
 10
0.0
 20
0.0
 30
0.0
 70
   128
 71
   124
 72
    60
 73
   125
  0
VERTEX
  5
2B9
  8
0
 62
     9
 10
0.0
 20
0.0
 30
0.0
 70
   128
 71
    61
 72
    60
 73
   124
  0
VERTEX
  5
2BA
  8
0
 62
     9
 10
0.0
 20
0.0
 30
0.0
 70
   128
 71
    54
 72
    53
 73
   125
  0
VERTEX
  5
2BB
  8
0
 62
     9
 10
0.0
 20
0.0
 30
0.0
 70
   128
 71
    60
 72
    54
 73
   125
  0
VERTEX
  5
2BC
  8
0
 62
     9
 10
0.0
 20
0.0
 30
0.0
 70
   128
 71
    53
 72
    92
 73
   125
  0
VERTEX
  5
2BD
  8
0
 62
     9
 10
0.0
 20
0.0
 30
0.0
 70
   128
 71
    57
 72
    55
 73
    93
  0
VERTEX
  5
2BE
  8
0
 62
     9
 10
0.0
 20
0.0
 30
0.0
 70
   128
 71
    53
 72
    57
 73
    92
  0
VERTEX
  5
2BF
  8
0
 62
     9
 10
0.0
 20
0.0
 30
0.0
 70
   128
 71
   113
 72
   126
 73
   112
  0
VERTEX
  5
2C0
  8
0
 62
     9
 10
0.0
 20
0.0
 30
0.0
 70
   128
 71
    86
 72
   128
 73
   127
  0
VERTEX
  5
2C1
  8
0
 62
     9
 10
0.0
 20
0.0
 30
0.0
 70
   128
 71
   115
 72
   112
 73
   129
  0
VERTEX
  5
2C2
  8
0
 62
     9
 10
0.0
 20
0.0
 30
0.0
 70
   128
 71
   129
 72
   112
 73
   126
  0
VERTEX
  5
2C3
  8
0
 62
     9
 10
0.0
 20
0.0
 30
0.0
 70
   128
 71
   129
 72
   126
 73
   130
  0
VERTEX
  5
2C4
  8
0
 62
     9
 10
0.0
 20
0.0
 30
0.0
 70
   128
 71
    13
 72
   115
 73
    14
  0
VERTEX
  5
2C5
  8
0
 62
     9
 10
0.0
 20
0.0
 30
0.0
 70
   128
 71
   131
 72
   130
 73
   126
  0
VERTEX
  5
2C6
  8
0
 62
     9
 10
0.0
 20
0.0
 30
0.0
 70
   128
 71
   105
 72
   106
 73
   132
  0
VERTEX
  5
2C7
  8
0
 62
     9
 10
0.0
 20
0.0
 30
0.0
 70
   128
 71
   135
 72
   134
 73
   133
  0
VERTEX
  5
2C8
  8
0
 62
     9
 10
0.0
 20
0.0
 30
0.0
 70
   128
 71
   137
 72
   136
 73
   133
  0
VERTEX
  5
2C9
  8
0
 62
     9
 10
0.0
 20
0.0
 30
0.0
 70
   128
 71
   138
 72
   127
 73
   135
  0
VERTEX
  5
2CA
  8
0
 62
     9
 10
0.0
 20
0.0
 30
0.0
 70
   128
 71
    84
 72
   138
 73
    83
  0
VERTEX
  5
2CB
  8
0
 62
     9
 10
0.0
 20
0.0
 30
0.0
 70
   128
 71
   138
 72
    84
 73
   127
  0
VERTEX
  5
2CC
  8
0
 62
     9
 10
0.0
 20
0.0
 30
0.0
 70
   128
 71
     1
 72
   133
 73
   134
  0
VERTEX
  5
2CD
  8
0
 62
     9
 10
0.0
 20
0.0
 30
0.0
 70
   128
 71
   138
 72
   104
 73
   101
  0
VERTEX
  5
2CE
  8
0
 62
     9
 10
0.0
 20
0.0
 30
0.0
 70
   128
 71
     1
 72
   139
 73
   137
  0
VERTEX
  5
2CF
  8
0
 62
     9
 10
0.0
 20
0.0
 30
0.0
 70
   128
 71
   130
 72
   139
 73
    30
  0
VERTEX
  5
2D0
  8
0
 62
     9
 10
0.0
 20
0.0
 30
0.0
 70
   128
 71
    30
 72
   139
 73
     1
  0
VERTEX
  5
2D1
  8
0
 62
     9
 10
0.0
 20
0.0
 30
0.0
 70
   128
 71
    30
 72
    19
 73
   130
  0
VERTEX
  5
2D2
  8
0
 62
     9
 10
0.0
 20
0.0
 30
0.0
 70
   128
 71
   133
 72
     1
 73
   137
  0
VERTEX
  5
2D3
  8
0
 62
     9
 10
0.0
 20
0.0
 30
0.0
 70
   128
 71
   137
 72
   131
 73
   136
  0
VERTEX
  5
2D4
  8
0
 62
     9
 10
0.0
 20
0.0
 30
0.0
 70
   128
 71
   133
 72
   136
 73
   135
  0
VERTEX
  5
2D5
  8
0
 62
     9
 10
0.0
 20
0.0
 30
0.0
 70
   128
 71
     1
 72
   128
 73
    63
  0
VERTEX
  5
2D6
  8
0
 62
     9
 10
0.0
 20
0.0
 30
0.0
 70
   128
 71
   128
 72
     1
 73
   134
  0
VERTEX
  5
2D7
  8
0
 62
     9
 10
0.0
 20
0.0
 30
0.0
 70
   128
 71
   134
 72
   135
 73
   127
  0
VERTEX
  5
2D8
  8
0
 62
     9
 10
0.0
 20
0.0
 30
0.0
 70
   128
 71
    63
 72
   128
 73
    86
  0
VERTEX
  5
2D9
  8
0
 62
     9
 10
0.0
 20
0.0
 30
0.0
 70
   128
 71
   131
 72
   139
 73
   130
  0
VERTEX
  5
2DA
  8
0
 62
     9
 10
0.0
 20
0.0
 30
0.0
 70
   128
 71
    19
 72
    14
 73
   129
  0
VERTEX
  5
2DB
  8
0
 62
     9
 10
0.0
 20
0.0
 30
0.0
 70
   128
 71
   136
 72
   131
 73
   140
  0
VERTEX
  5
2DC
  8
0
 62
     9
 10
0.0
 20
0.0
 30
0.0
 70
   128
 71
   131
 72
   137
 73
   139
  0
VERTEX
  5
2DD
  8
0
 62
     9
 10
0.0
 20
0.0
 30
0.0
 70
   128
 71
   140
 72
   131
 73
   126
  0
VERTEX
  5
2DE
  8
0
 62
     9
 10
0.0
 20
0.0
 30
0.0
 70
   128
 71
   135
 72
   136
 73
   132
  0
VERTEX
  5
2DF
  8
0
 62
     9
 10
0.0
 20
0.0
 30
0.0
 70
   128
 71
   140
 72
   132
 73
   136
  0
VERTEX
  5
2E0
  8
0
 62
     9
 10
0.0
 20
0.0
 30
0.0
 70
   128
 71
   128
 72
   134
 73
   127
  0
VERTEX
  5
2E1
  8
0
 62
     9
 10
0.0
 20
0.0
 30
0.0
 70
   128
 71
   135
 72
   132
 73
   138
  0
VERTEX
  5
2E2
  8
0
 62
     9
 10
0.0
 20
0.0
 30
0.0
 70
   128
 71
    86
 72
   127
 73
    84
  0
VERTEX
  5
2E3
  8
0
 62
     9
 10
0.0
 20
0.0
 30
0.0
 70
   128
 71
   129
 72
   130
 73
    19
  0
VERTEX
  5
2E4
  8
0
 62
     9
 10
0.0
 20
0.0
 30
0.0
 70
   128
 71
   129
 72
    14
 73
   115
  0
VERTEX
  5
2E5
  8
0
 62
     9
 10
0.0
 20
0.0
 30
0.0
 70
   128
 71
   111
 72
   126
 73
   113
  0
VERTEX
  5
2E6
  8
0
 62
     9
 10
0.0
 20
0.0
 30
0.0
 70
   128
 71
   108
 72
   140
 73
   111
  0
VERTEX
  5
2E7
  8
0
 62
     9
 10
0.0
 20
0.0
 30
0.0
 70
   128
 71
   105
 72
   140
 73
   108
  0
VERTEX
  5
2E8
  8
0
 62
     9
 10
0.0
 20
0.0
 30
0.0
 70
   128
 71
   140
 72
   126
 73
   111
  0
VERTEX
  5
2E9
  8
0
 62
     9
 10
0.0
 20
0.0
 30
0.0
 70
   128
 71
   132
 72
   140
 73
   105
  0
VERTEX
  5
2EA
  8
0
 62
     9
 10
0.0
 20
0.0
 30
0.0
 70
   128
 71
   132
 72
   106
 73
   104
  0
VERTEX
  5
2EB
  8
0
 62
     9
 10
0.0
 20
0.0
 30
0.0
 70
   128
 71
   138
 72
   132
 73
   104
  0
VERTEX
  5
2EC
  8
0
 62
     9
 10
0.0
 20
0.0
 30
0.0
 70
   128
 71
   138
 72
   101
 73
    83
  0
SEQEND
  5
2ED
  8
0
 62
     9
  0
ENDBLK
  5
2F0
  8
0
  0
BLOCK
  8
0
  2
40
 70
     0
 10
0.0
 20
0.0
 30
0.0
  3
40
  1

  0
POLYLINE
  5
2F2
  8
0
 62
     9
 66
     1
 10
0.0
 20
0.0
 30
0.0
 70
    64
 71
    53
 72
   164
  0
VERTEX
  5
2F3
  8
0
 10
-5.133077621459961
 20
19.02340507507324
 30
169.6476135253906
 70
   192
  0
VERTEX
  5
2F4
  8
0
 10
-4.077753067016602
 20
19.50387382507324
 30
143.3835296630859
 70
   192
  0
VERTEX
  5
2F5
  8
0
 10
-10.19626522064209
 20
16.94366836547852
 30
146.5686187744141
 70
   192
  0
VERTEX
  5
2F6
  8
0
 10
20.25229835510254
 20
-0.0000000000000812
 30
139.4727630615234
 70
   192
  0
VERTEX
  5
2F7
  8
0
 10
19.51126480102539
 20
7.0
 30
159.4990234375
 70
   192
  0
VERTEX
  5
2F8
  8
0
 10
20.77583694458008
 20
-0.0000000000000868
 30
159.4659118652344
 70
   192
  0
VERTEX
  5
2F9
  8
0
 10
18.94345092773438
 20
7.117412090301514
 30
139.5070343017578
 70
   192
  0
VERTEX
  5
2FA
  8
0
 10
-15.13534450531006
 20
12.47957897186279
 30
149.1397399902344
 70
   192
  0
VERTEX
  5
2FB
  8
0
 10
-10.69896697998047
 20
16.18986320495605
 30
169.7933654785156
 70
   192
  0
VERTEX
  5
2FC
  8
0
 10
2.543963670730591
 20
19.86897277832031
 30
139.9364776611328
 70
   192
  0
VERTEX
  5
2FD
  8
0
 10
8.951451301574707
 20
18.35893821716309
 30
169.3597412109375
 70
   192
  0
VERTEX
  5
2FE
  8
0
 10
9.462749481201172
 20
17.75487899780273
 30
139.7552947998047
 70
   192
  0
VERTEX
  5
2FF
  8
0
 10
15.1823902130127
 20
13.30954170227051
 30
139.6055297851562
 70
   192
  0
VERTEX
  5
300
  8
0
 10
1.031371712684631
 20
20.0
 30
169.4861907958984
 70
   192
  0
VERTEX
  5
301
  8
0
 10
-17.99003982543945
 20
6.174751758575439
 30
169.9842834472656
 70
   192
  0
VERTEX
  5
302
  8
0
 10
-15.13916873931885
 20
11.76181983947754
 30
169.9096374511719
 70
   192
  0
VERTEX
  5
303
  8
0
 10
-18.34162521362305
 20
6.60278844833374
 30
150.8088226318359
 70
   192
  0
VERTEX
  5
304
  8
0
 10
-19.44946670532227
 20
0.0000000000000382
 30
151.3855285644531
 70
   192
  0
VERTEX
  5
305
  8
0
 10
-18.97051429748535
 20
0.0000094999859357
 30
170.0099639892578
 70
   192
  0
VERTEX
  5
306
  8
0
 10
15.52970027923584
 20
13.77572727203369
 30
169.3713989257812
 70
   192
  0
VERTEX
  5
307
  8
0
 10
19.77143096923828
 20
7.0
 30
169.4344024658203
 70
   192
  0
VERTEX
  5
308
  8
0
 10
80.75527954101562
 20
7.0
 30
157.8952941894531
 70
   192
  0
VERTEX
  5
309
  8
0
 10
80.75527954101562
 20
-7.0
 30
157.8952941894531
 70
   192
  0
VERTEX
  5
30A
  8
0
 10
19.51126480102539
 20
-7.0
 30
159.4990234375
 70
   192
  0
VERTEX
  5
30B
  8
0
 10
18.76921272277832
 20
-7.065221309661865
 30
139.5115966796875
 70
   192
  0
VERTEX
  5
30C
  8
0
 10
15.18053340911865
 20
-13.32514572143555
 30
139.6055755615234
 70
   192
  0
VERTEX
  5
30D
  8
0
 10
9.447035789489746
 20
-17.76366996765137
 30
139.7557067871094
 70
   192
  0
VERTEX
  5
30E
  8
0
 10
2.543963670730591
 20
-19.86897277832031
 30
139.9364776611328
 70
   192
  0
VERTEX
  5
30F
  8
0
 10
-10.19626808166504
 20
-16.94367408752441
 30
146.5686187744141
 70
   192
  0
VERTEX
  5
310
  8
0
 10
-15.13535308837891
 20
-12.47958564758301
 30
149.1397399902344
 70
   192
  0
VERTEX
  5
311
  8
0
 10
-18.34163284301758
 20
-6.602789878845215
 30
150.8088226318359
 70
   192
  0
VERTEX
  5
312
  8
0
 10
-4.077752590179443
 20
-19.50387573242188
 30
143.3835144042969
 70
   192
  0
VERTEX
  5
313
  8
0
 10
1.044460296630859
 20
-0.0000000000000596
 30
169.9860229492188
 70
   192
  0
VERTEX
  5
314
  8
0
 10
-5.149062156677246
 20
-19.02115821838379
 30
169.6480407714844
 70
   192
  0
VERTEX
  5
315
  8
0
 10
1.031371712684631
 20
-20.0
 30
169.4861907958984
 70
   192
  0
VERTEX
  5
316
  8
0
 10
-10.7291898727417
 20
-16.17351913452148
 30
169.7941589355469
 70
   192
  0
VERTEX
  5
317
  8
0
 10
-15.15478134155273
 20
-11.73174095153809
 30
169.9100494384766
 70
   192
  0
VERTEX
  5
318
  8
0
 10
-17.98606109619141
 20
-6.138236045837402
 30
169.9841918945312
 70
   192
  0
VERTEX
  5
319
  8
0
 10
81.01544189453125
 20
7.0
 30
167.8306732177734
 70
   192
  0
VERTEX
  5
31A
  8
0
 10
81.01544189453125
 20
-7.0
 30
167.8306732177734
 70
   192
  0
VERTEX
  5
31B
  8
0
 10
19.77143096923828
 20
-7.0
 30
169.4344024658203
 70
   192
  0
VERTEX
  5
31C
  8
0
 10
8.871023178100586
 20
-18.39681053161621
 30
169.3566741943359
 70
   192
  0
VERTEX
  5
31D
  8
0
 10
15.4731559753418
 20
-13.83033084869385
 30
169.3665466308594
 70
   192
  0
VERTEX
  5
31E
  8
0
 10
15.51791667938232
 20
-13.7883186340332
 30
169.3712921142578
 70
   192
  0
VERTEX
  5
31F
  8
0
 10
8.926314353942871
 20
-18.37003326416016
 30
169.3598937988281
 70
   192
  0
VERTEX
  5
320
  8
0
 10
1.044460296630859
 20
-0.0000000000000651
 30
169.9860229492188
 70
   192
  0
VERTEX
  5
321
  8
0
 10
15.1823902130127
 20
-13.30954170227051
 30
139.6055297851562
 70
   192
  0
VERTEX
  5
322
  8
0
 10
-10.1843376159668
 20
-16.95234298706055
 30
146.5624084472656
 70
   192
  0
VERTEX
  5
323
  8
0
 10
-4.056175231933594
 20
-19.50833320617676
 30
143.3722839355469
 70
   192
  0
VERTEX
  5
324
  8
0
 10
-18.33478736877441
 20
-6.62399959564209
 30
150.8052673339844
 70
   192
  0
VERTEX
  5
325
  8
0
 10
-15.1254768371582
 20
-12.49059391021729
 30
149.1345977783203
 70
   192
  0
VERTEX
  5
326
  8
0
 10
9.462749481201172
 20
-17.75487899780273
 30
139.7552947998047
 70
   192
  0
VERTEX
  5
327
  8
0
 10
18.94345092773438
 20
-7.117412090301514
 30
139.5070343017578
 70
   192
  0
VERTEX
  5
328
  8
0
 62
     9
 10
0.0
 20
0.0
 30
0.0
 70
   128
 71
     3
 72
     2
 73
     1
  0
VERTEX
  5
329
  8
0
 62
     9
 10
0.0
 20
0.0
 30
0.0
 70
   128
 71
     6
 72
     5
 73
     4
  0
VERTEX
  5
32A
  8
0
 62
     9
 10
0.0
 20
0.0
 30
0.0
 70
   128
 71
     4
 72
     5
 73
     7
  0
VERTEX
  5
32B
  8
0
 62
     9
 10
0.0
 20
0.0
 30
0.0
 70
   128
 71
     3
 72
     9
 73
     8
  0
VERTEX
  5
32C
  8
0
 62
     9
 10
0.0
 20
0.0
 30
0.0
 70
   128
 71
    12
 72
    11
 73
    10
  0
VERTEX
  5
32D
  8
0
 62
     9
 10
0.0
 20
0.0
 30
0.0
 70
   128
 71
    13
 72
     7
 73
     5
  0
VERTEX
  5
32E
  8
0
 62
     9
 10
0.0
 20
0.0
 30
0.0
 70
   128
 71
     1
 72
     2
 73
    14
  0
VERTEX
  5
32F
  8
0
 62
     9
 10
0.0
 20
0.0
 30
0.0
 70
   128
 71
     9
 72
     3
 73
     1
  0
VERTEX
  5
330
  8
0
 62
     9
 10
0.0
 20
0.0
 30
0.0
 70
   128
 71
    17
 72
    16
 73
    15
  0
VERTEX
  5
331
  8
0
 62
     9
 10
0.0
 20
0.0
 30
0.0
 70
   128
 71
    16
 72
     8
 73
     9
  0
VERTEX
  5
332
  8
0
 62
     9
 10
0.0
 20
0.0
 30
0.0
 70
   128
 71
    15
 72
    19
 73
    18
  0
VERTEX
  5
333
  8
0
 62
     9
 10
0.0
 20
0.0
 30
0.0
 70
   128
 71
    18
 72
    17
 73
    15
  0
VERTEX
  5
334
  8
0
 62
     9
 10
0.0
 20
0.0
 30
0.0
 70
   128
 71
    17
 72
     8
 73
    16
  0
VERTEX
  5
335
  8
0
 62
     9
 10
0.0
 20
0.0
 30
0.0
 70
   128
 71
    14
 72
    10
 73
    11
  0
VERTEX
  5
336
  8
0
 62
     9
 10
0.0
 20
0.0
 30
0.0
 70
   128
 71
     2
 72
    10
 73
    14
  0
VERTEX
  5
337
  8
0
 62
     9
 10
0.0
 20
0.0
 30
0.0
 70
   128
 71
    12
 72
    20
 73
    11
  0
VERTEX
  5
338
  8
0
 62
     9
 10
0.0
 20
0.0
 30
0.0
 70
   128
 71
    13
 72
    21
 73
    20
  0
VERTEX
  5
339
  8
0
 62
     9
 10
0.0
 20
0.0
 30
0.0
 70
   128
 71
    20
 72
    12
 73
    13
  0
VERTEX
  5
33A
  8
0
 62
     9
 10
0.0
 20
0.0
 30
0.0
 70
   128
 71
    13
 72
     5
 73
    21
  0
VERTEX
  5
33B
  8
0
 62
     9
 10
0.0
 20
0.0
 30
0.0
 70
   128
 71
    22
 72
     5
 73
     6
  0
VERTEX
  5
33C
  8
0
 62
     9
 10
0.0
 20
0.0
 30
0.0
 70
   128
 71
    24
 72
    23
 73
     6
  0
VERTEX
  5
33D
  8
0
 62
     9
 10
0.0
 20
0.0
 30
0.0
 70
   128
 71
     6
 72
    23
 73
    22
  0
VERTEX
  5
33E
  8
0
 62
     9
 10
0.0
 20
0.0
 30
0.0
 70
   128
 71
    10
 72
    26
 73
    25
  0
VERTEX
  5
33F
  8
0
 62
     9
 10
0.0
 20
0.0
 30
0.0
 70
   128
 71
    10
 72
     7
 73
    12
  0
VERTEX
  5
340
  8
0
 62
     9
 10
0.0
 20
0.0
 30
0.0
 70
   128
 71
     7
 72
    13
 73
    12
  0
VERTEX
  5
341
  8
0
 62
     9
 10
0.0
 20
0.0
 30
0.0
 70
   128
 71
    10
 72
     4
 73
     7
  0
VERTEX
  5
342
  8
0
 62
     9
 10
0.0
 20
0.0
 30
0.0
 70
   128
 71
    26
 72
    10
 73
    27
  0
VERTEX
  5
343
  8
0
 62
     9
 10
0.0
 20
0.0
 30
0.0
 70
   128
 71
    10
 72
    25
 73
     4
  0
VERTEX
  5
344
  8
0
 62
     9
 10
0.0
 20
0.0
 30
0.0
 70
   128
 71
    28
 72
    27
 73
    10
  0
VERTEX
  5
345
  8
0
 62
     9
 10
0.0
 20
0.0
 30
0.0
 70
   128
 71
     2
 72
     3
 73
    29
  0
VERTEX
  5
346
  8
0
 62
     9
 10
0.0
 20
0.0
 30
0.0
 70
   128
 71
    31
 72
    30
 73
     8
  0
VERTEX
  5
347
  8
0
 62
     9
 10
0.0
 20
0.0
 30
0.0
 70
   128
 71
    32
 72
    28
 73
    10
  0
VERTEX
  5
348
  8
0
 62
     9
 10
0.0
 20
0.0
 30
0.0
 70
   128
 71
    17
 72
    31
 73
     8
  0
VERTEX
  5
349
  8
0
 62
     9
 10
0.0
 20
0.0
 30
0.0
 70
   128
 71
    31
 72
    17
 73
    18
  0
VERTEX
  5
34A
  8
0
 62
     9
 10
0.0
 20
0.0
 30
0.0
 70
   128
 71
    29
 72
     3
 73
    30
  0
VERTEX
  5
34B
  8
0
 62
     9
 10
0.0
 20
0.0
 30
0.0
 70
   128
 71
     3
 72
     8
 73
    30
  0
VERTEX
  5
34C
  8
0
 62
     9
 10
0.0
 20
0.0
 30
0.0
 70
   128
 71
     2
 72
    32
 73
    10
  0
VERTEX
  5
34D
  8
0
 62
     9
 10
0.0
 20
0.0
 30
0.0
 70
   128
 71
     2
 72
    29
 73
    32
  0
VERTEX
  5
34E
  8
0
 62
     9
 10
0.0
 20
0.0
 30
0.0
 70
   128
 71
    14
 72
    33
 73
     1
  0
VERTEX
  5
34F
  8
0
 62
     9
 10
0.0
 20
0.0
 30
0.0
 70
   128
 71
     1
 72
    33
 73
     9
  0
VERTEX
  5
350
  8
0
 62
     9
 10
0.0
 20
0.0
 30
0.0
 70
   128
 71
    35
 72
    34
 73
    33
  0
VERTEX
  5
351
  8
0
 62
     9
 10
0.0
 20
0.0
 30
0.0
 70
   128
 71
    33
 72
    16
 73
     9
  0
VERTEX
  5
352
  8
0
 62
     9
 10
0.0
 20
0.0
 30
0.0
 70
   128
 71
    33
 72
    19
 73
    15
  0
VERTEX
  5
353
  8
0
 62
     9
 10
0.0
 20
0.0
 30
0.0
 70
   128
 71
    33
 72
    15
 73
    16
  0
VERTEX
  5
354
  8
0
 62
     9
 10
0.0
 20
0.0
 30
0.0
 70
   128
 71
    33
 72
    34
 73
    36
  0
VERTEX
  5
355
  8
0
 62
     9
 10
0.0
 20
0.0
 30
0.0
 70
   128
 71
    38
 72
    33
 73
    37
  0
VERTEX
  5
356
  8
0
 62
     9
 10
0.0
 20
0.0
 30
0.0
 70
   128
 71
    38
 72
    19
 73
    33
  0
VERTEX
  5
357
  8
0
 62
     9
 10
0.0
 20
0.0
 30
0.0
 70
   128
 71
    33
 72
    36
 73
    37
  0
VERTEX
  5
358
  8
0
 62
     9
 10
0.0
 20
0.0
 30
0.0
 70
   128
 71
    40
 72
    39
 73
    23
  0
VERTEX
  5
359
  8
0
 62
     9
 10
0.0
 20
0.0
 30
0.0
 70
   128
 71
    22
 72
    23
 73
    39
  0
VERTEX
  5
35A
  8
0
 62
     9
 10
0.0
 20
0.0
 30
0.0
 70
   128
 71
    22
 72
    39
 73
    21
  0
VERTEX
  5
35B
  8
0
 62
     9
 10
0.0
 20
0.0
 30
0.0
 70
   128
 71
     5
 72
    22
 73
    21
  0
VERTEX
  5
35C
  8
0
 62
     9
 10
0.0
 20
0.0
 30
0.0
 70
   128
 71
    23
 72
    24
 73
    40
  0
VERTEX
  5
35D
  8
0
 62
     9
 10
0.0
 20
0.0
 30
0.0
 70
   128
 71
    41
 72
    40
 73
    24
  0
VERTEX
  5
35E
  8
0
 62
     9
 10
0.0
 20
0.0
 30
0.0
 70
   128
 71
    28
 72
    35
 73
    42
  0
VERTEX
  5
35F
  8
0
 62
     9
 10
0.0
 20
0.0
 30
0.0
 70
   128
 71
     4
 72
    24
 73
     6
  0
VERTEX
  5
360
  8
0
 62
     9
 10
0.0
 20
0.0
 30
0.0
 70
   128
 71
    43
 72
    41
 73
    26
  0
VERTEX
  5
361
  8
0
 62
     9
 10
0.0
 20
0.0
 30
0.0
 70
   128
 71
    34
 72
    32
 73
    29
  0
VERTEX
  5
362
  8
0
 62
     9
 10
0.0
 20
0.0
 30
0.0
 70
   128
 71
    28
 72
    32
 73
    35
  0
VERTEX
  5
363
  8
0
 62
     9
 10
0.0
 20
0.0
 30
0.0
 70
   128
 71
    37
 72
    30
 73
    31
  0
VERTEX
  5
364
  8
0
 62
     9
 10
0.0
 20
0.0
 30
0.0
 70
   128
 71
    30
 72
    36
 73
    29
  0
VERTEX
  5
365
  8
0
 62
     9
 10
0.0
 20
0.0
 30
0.0
 70
   128
 71
    31
 72
    18
 73
    38
  0
VERTEX
  5
366
  8
0
 62
     9
 10
0.0
 20
0.0
 30
0.0
 70
   128
 71
    38
 72
    37
 73
    31
  0
VERTEX
  5
367
  8
0
 62
     9
 10
0.0
 20
0.0
 30
0.0
 70
   128
 71
    38
 72
    18
 73
    19
  0
VERTEX
  5
368
  8
0
 62
     9
 10
0.0
 20
0.0
 30
0.0
 70
   128
 71
    30
 72
    37
 73
    36
  0
VERTEX
  5
369
  8
0
 62
     9
 10
0.0
 20
0.0
 30
0.0
 70
   128
 71
    27
 72
    28
 73
    42
  0
VERTEX
  5
36A
  8
0
 62
     9
 10
0.0
 20
0.0
 30
0.0
 70
   128
 71
    32
 72
    34
 73
    35
  0
VERTEX
  5
36B
  8
0
 62
     9
 10
0.0
 20
0.0
 30
0.0
 70
   128
 71
    29
 72
    36
 73
    34
  0
VERTEX
  5
36C
  8
0
 62
     9
 10
0.0
 20
0.0
 30
0.0
 70
   128
 71
    27
 72
    42
 73
    43
  0
VERTEX
  5
36D
  8
0
 62
     9
 10
0.0
 20
0.0
 30
0.0
 70
   128
 71
    41
 72
    24
 73
    26
  0
VERTEX
  5
36E
  8
0
 62
     9
 10
0.0
 20
0.0
 30
0.0
 70
   128
 71
    43
 72
    26
 73
    27
  0
VERTEX
  5
36F
  8
0
 62
     9
 10
0.0
 20
0.0
 30
0.0
 70
   128
 71
    25
 72
    24
 73
     4
  0
VERTEX
  5
370
  8
0
 62
     9
 10
0.0
 20
0.0
 30
0.0
 70
   128
 71
    25
 72
    26
 73
    24
  0
VERTEX
  5
371
  8
0
 62
     9
 10
0.0
 20
0.0
 30
0.0
 70
   128
 71
    42
 72
    35
 73
    43
  0
VERTEX
  5
372
  8
0
 62
     9
 10
0.0
 20
0.0
 30
0.0
 70
   128
 71
    43
 72
    33
 73
    41
  0
VERTEX
  5
373
  8
0
 62
     9
 10
0.0
 20
0.0
 30
0.0
 70
   128
 71
    39
 72
    40
 73
    33
  0
VERTEX
  5
374
  8
0
 62
     9
 10
0.0
 20
0.0
 30
0.0
 70
   128
 71
    33
 72
    40
 73
    41
  0
VERTEX
  5
375
  8
0
 62
     9
 10
0.0
 20
0.0
 30
0.0
 70
   128
 71
    33
 72
    21
 73
    39
  0
VERTEX
  5
376
  8
0
 62
     9
 10
0.0
 20
0.0
 30
0.0
 70
   128
 71
    11
 72
    20
 73
    14
  0
VERTEX
  5
377
  8
0
 62
     9
 10
0.0
 20
0.0
 30
0.0
 70
   128
 71
    33
 72
    43
 73
    35
  0
VERTEX
  5
378
  8
0
 62
     9
 10
0.0
 20
0.0
 30
0.0
 70
   128
 71
    33
 72
    14
 73
    20
  0
VERTEX
  5
379
  8
0
 62
     9
 10
0.0
 20
0.0
 30
0.0
 70
   128
 71
    21
 72
    33
 73
    20
  0
VERTEX
  5
37A
  8
0
 62
     9
 10
0.0
 20
0.0
 30
0.0
 70
   128
 71
     3
 72
     2
 73
     1
  0
VERTEX
  5
37B
  8
0
 62
     9
 10
0.0
 20
0.0
 30
0.0
 70
   128
 71
     6
 72
     5
 73
     4
  0
VERTEX
  5
37C
  8
0
 62
     9
 10
0.0
 20
0.0
 30
0.0
 70
   128
 71
     4
 72
     5
 73
     7
  0
VERTEX
  5
37D
  8
0
 62
     9
 10
0.0
 20
0.0
 30
0.0
 70
   128
 71
     3
 72
     9
 73
     8
  0
VERTEX
  5
37E
  8
0
 62
     9
 10
0.0
 20
0.0
 30
0.0
 70
   128
 71
    12
 72
    11
 73
    10
  0
VERTEX
  5
37F
  8
0
 62
     9
 10
0.0
 20
0.0
 30
0.0
 70
   128
 71
    13
 72
     7
 73
     5
  0
VERTEX
  5
380
  8
0
 62
     9
 10
0.0
 20
0.0
 30
0.0
 70
   128
 71
     1
 72
     2
 73
    14
  0
VERTEX
  5
381
  8
0
 62
     9
 10
0.0
 20
0.0
 30
0.0
 70
   128
 71
     9
 72
     3
 73
     1
  0
VERTEX
  5
382
  8
0
 62
     9
 10
0.0
 20
0.0
 30
0.0
 70
   128
 71
    17
 72
    16
 73
    15
  0
VERTEX
  5
383
  8
0
 62
     9
 10
0.0
 20
0.0
 30
0.0
 70
   128
 71
    16
 72
     8
 73
     9
  0
VERTEX
  5
384
  8
0
 62
     9
 10
0.0
 20
0.0
 30
0.0
 70
   128
 71
    15
 72
    19
 73
    18
  0
VERTEX
  5
385
  8
0
 62
     9
 10
0.0
 20
0.0
 30
0.0
 70
   128
 71
    18
 72
    17
 73
    15
  0
VERTEX
  5
386
  8
0
 62
     9
 10
0.0
 20
0.0
 30
0.0
 70
   128
 71
    17
 72
     8
 73
    16
  0
VERTEX
  5
387
  8
0
 62
     9
 10
0.0
 20
0.0
 30
0.0
 70
   128
 71
    14
 72
    10
 73
    11
  0
VERTEX
  5
388
  8
0
 62
     9
 10
0.0
 20
0.0
 30
0.0
 70
   128
 71
     2
 72
    10
 73
    14
  0
VERTEX
  5
389
  8
0
 62
     9
 10
0.0
 20
0.0
 30
0.0
 70
   128
 71
    12
 72
    20
 73
    11
  0
VERTEX
  5
38A
  8
0
 62
     9
 10
0.0
 20
0.0
 30
0.0
 70
   128
 71
    13
 72
    21
 73
    20
  0
VERTEX
  5
38B
  8
0
 62
     9
 10
0.0
 20
0.0
 30
0.0
 70
   128
 71
    20
 72
    12
 73
    13
  0
VERTEX
  5
38C
  8
0
 62
     9
 10
0.0
 20
0.0
 30
0.0
 70
   128
 71
    13
 72
     5
 73
    21
  0
VERTEX
  5
38D
  8
0
 62
     9
 10
0.0
 20
0.0
 30
0.0
 70
   128
 71
    45
 72
    35
 73
    44
  0
VERTEX
  5
38E
  8
0
 62
     9
 10
0.0
 20
0.0
 30
0.0
 70
   128
 71
    44
 72
    46
 73
    41
  0
VERTEX
  5
38F
  8
0
 62
     9
 10
0.0
 20
0.0
 30
0.0
 70
   128
 71
    39
 72
    40
 73
    46
  0
VERTEX
  5
390
  8
0
 62
     9
 10
0.0
 20
0.0
 30
0.0
 70
   128
 71
    46
 72
    40
 73
    41
  0
VERTEX
  5
391
  8
0
 62
     9
 10
0.0
 20
0.0
 30
0.0
 70
   128
 71
    46
 72
    21
 73
    39
  0
VERTEX
  5
392
  8
0
 62
     9
 10
0.0
 20
0.0
 30
0.0
 70
   128
 71
    11
 72
    20
 73
    14
  0
VERTEX
  5
393
  8
0
 62
     9
 10
0.0
 20
0.0
 30
0.0
 70
   128
 71
    46
 72
    44
 73
    35
  0
VERTEX
  5
394
  8
0
 62
     9
 10
0.0
 20
0.0
 30
0.0
 70
   128
 71
    46
 72
    14
 73
    20
  0
VERTEX
  5
395
  8
0
 62
     9
 10
0.0
 20
0.0
 30
0.0
 70
   128
 71
    21
 72
    46
 73
    20
  0
VERTEX
  5
396
  8
0
 62
     9
 10
0.0
 20
0.0
 30
0.0
 70
   128
 71
    28
 72
    35
 73
    45
  0
VERTEX
  5
397
  8
0
 62
     9
 10
0.0
 20
0.0
 30
0.0
 70
   128
 71
     4
 72
    24
 73
     6
  0
VERTEX
  5
398
  8
0
 62
     9
 10
0.0
 20
0.0
 30
0.0
 70
   128
 71
    44
 72
    41
 73
    47
  0
VERTEX
  5
399
  8
0
 62
     9
 10
0.0
 20
0.0
 30
0.0
 70
   128
 71
    34
 72
    49
 73
    48
  0
VERTEX
  5
39A
  8
0
 62
     9
 10
0.0
 20
0.0
 30
0.0
 70
   128
 71
    28
 72
    49
 73
    35
  0
VERTEX
  5
39B
  8
0
 62
     9
 10
0.0
 20
0.0
 30
0.0
 70
   128
 71
    37
 72
    51
 73
    50
  0
VERTEX
  5
39C
  8
0
 62
     9
 10
0.0
 20
0.0
 30
0.0
 70
   128
 71
    51
 72
    36
 73
    48
  0
VERTEX
  5
39D
  8
0
 62
     9
 10
0.0
 20
0.0
 30
0.0
 70
   128
 71
    50
 72
    18
 73
    38
  0
VERTEX
  5
39E
  8
0
 62
     9
 10
0.0
 20
0.0
 30
0.0
 70
   128
 71
    38
 72
    37
 73
    50
  0
VERTEX
  5
39F
  8
0
 62
     9
 10
0.0
 20
0.0
 30
0.0
 70
   128
 71
    38
 72
    18
 73
    19
  0
VERTEX
  5
3A0
  8
0
 62
     9
 10
0.0
 20
0.0
 30
0.0
 70
   128
 71
    51
 72
    37
 73
    36
  0
VERTEX
  5
3A1
  8
0
 62
     9
 10
0.0
 20
0.0
 30
0.0
 70
   128
 71
    52
 72
    28
 73
    45
  0
VERTEX
  5
3A2
  8
0
 62
     9
 10
0.0
 20
0.0
 30
0.0
 70
   128
 71
    49
 72
    34
 73
    35
  0
VERTEX
  5
3A3
  8
0
 62
     9
 10
0.0
 20
0.0
 30
0.0
 70
   128
 71
    48
 72
    36
 73
    34
  0
VERTEX
  5
3A4
  8
0
 62
     9
 10
0.0
 20
0.0
 30
0.0
 70
   128
 71
    52
 72
    45
 73
    44
  0
VERTEX
  5
3A5
  8
0
 62
     9
 10
0.0
 20
0.0
 30
0.0
 70
   128
 71
    41
 72
    24
 73
    47
  0
VERTEX
  5
3A6
  8
0
 62
     9
 10
0.0
 20
0.0
 30
0.0
 70
   128
 71
    44
 72
    47
 73
    52
  0
VERTEX
  5
3A7
  8
0
 62
     9
 10
0.0
 20
0.0
 30
0.0
 70
   128
 71
    53
 72
    24
 73
     4
  0
VERTEX
  5
3A8
  8
0
 62
     9
 10
0.0
 20
0.0
 30
0.0
 70
   128
 71
    53
 72
    47
 73
    24
  0
VERTEX
  5
3A9
  8
0
 62
     9
 10
0.0
 20
0.0
 30
0.0
 70
   128
 71
    23
 72
    24
 73
    40
  0
VERTEX
  5
3AA
  8
0
 62
     9
 10
0.0
 20
0.0
 30
0.0
 70
   128
 71
    41
 72
    40
 73
    24
  0
VERTEX
  5
3AB
  8
0
 62
     9
 10
0.0
 20
0.0
 30
0.0
 70
   128
 71
    22
 72
    39
 73
    21
  0
VERTEX
  5
3AC
  8
0
 62
     9
 10
0.0
 20
0.0
 30
0.0
 70
   128
 71
     5
 72
    22
 73
    21
  0
VERTEX
  5
3AD
  8
0
 62
     9
 10
0.0
 20
0.0
 30
0.0
 70
   128
 71
    40
 72
    39
 73
    23
  0
VERTEX
  5
3AE
  8
0
 62
     9
 10
0.0
 20
0.0
 30
0.0
 70
   128
 71
    22
 72
    23
 73
    39
  0
VERTEX
  5
3AF
  8
0
 62
     9
 10
0.0
 20
0.0
 30
0.0
 70
   128
 71
    14
 72
    46
 73
     1
  0
VERTEX
  5
3B0
  8
0
 62
     9
 10
0.0
 20
0.0
 30
0.0
 70
   128
 71
     1
 72
    46
 73
     9
  0
VERTEX
  5
3B1
  8
0
 62
     9
 10
0.0
 20
0.0
 30
0.0
 70
   128
 71
    35
 72
    34
 73
    46
  0
VERTEX
  5
3B2
  8
0
 62
     9
 10
0.0
 20
0.0
 30
0.0
 70
   128
 71
    46
 72
    16
 73
     9
  0
VERTEX
  5
3B3
  8
0
 62
     9
 10
0.0
 20
0.0
 30
0.0
 70
   128
 71
    46
 72
    19
 73
    15
  0
VERTEX
  5
3B4
  8
0
 62
     9
 10
0.0
 20
0.0
 30
0.0
 70
   128
 71
    46
 72
    15
 73
    16
  0
VERTEX
  5
3B5
  8
0
 62
     9
 10
0.0
 20
0.0
 30
0.0
 70
   128
 71
    46
 72
    34
 73
    36
  0
VERTEX
  5
3B6
  8
0
 62
     9
 10
0.0
 20
0.0
 30
0.0
 70
   128
 71
    38
 72
    46
 73
    37
  0
VERTEX
  5
3B7
  8
0
 62
     9
 10
0.0
 20
0.0
 30
0.0
 70
   128
 71
    38
 72
    19
 73
    46
  0
VERTEX
  5
3B8
  8
0
 62
     9
 10
0.0
 20
0.0
 30
0.0
 70
   128
 71
    46
 72
    36
 73
    37
  0
VERTEX
  5
3B9
  8
0
 62
     9
 10
0.0
 20
0.0
 30
0.0
 70
   128
 71
     2
 72
     3
 73
    48
  0
VERTEX
  5
3BA
  8
0
 62
     9
 10
0.0
 20
0.0
 30
0.0
 70
   128
 71
    50
 72
    51
 73
     8
  0
VERTEX
  5
3BB
  8
0
 62
     9
 10
0.0
 20
0.0
 30
0.0
 70
   128
 71
    49
 72
    28
 73
    10
  0
VERTEX
  5
3BC
  8
0
 62
     9
 10
0.0
 20
0.0
 30
0.0
 70
   128
 71
    17
 72
    50
 73
     8
  0
VERTEX
  5
3BD
  8
0
 62
     9
 10
0.0
 20
0.0
 30
0.0
 70
   128
 71
    50
 72
    17
 73
    18
  0
VERTEX
  5
3BE
  8
0
 62
     9
 10
0.0
 20
0.0
 30
0.0
 70
   128
 71
    48
 72
     3
 73
    51
  0
VERTEX
  5
3BF
  8
0
 62
     9
 10
0.0
 20
0.0
 30
0.0
 70
   128
 71
     3
 72
     8
 73
    51
  0
VERTEX
  5
3C0
  8
0
 62
     9
 10
0.0
 20
0.0
 30
0.0
 70
   128
 71
     2
 72
    49
 73
    10
  0
VERTEX
  5
3C1
  8
0
 62
     9
 10
0.0
 20
0.0
 30
0.0
 70
   128
 71
     2
 72
    48
 73
    49
  0
VERTEX
  5
3C2
  8
0
 62
     9
 10
0.0
 20
0.0
 30
0.0
 70
   128
 71
    10
 72
    47
 73
    53
  0
VERTEX
  5
3C3
  8
0
 62
     9
 10
0.0
 20
0.0
 30
0.0
 70
   128
 71
    10
 72
     7
 73
    12
  0
VERTEX
  5
3C4
  8
0
 62
     9
 10
0.0
 20
0.0
 30
0.0
 70
   128
 71
     7
 72
    13
 73
    12
  0
VERTEX
  5
3C5
  8
0
 62
     9
 10
0.0
 20
0.0
 30
0.0
 70
   128
 71
    10
 72
     4
 73
     7
  0
VERTEX
  5
3C6
  8
0
 62
     9
 10
0.0
 20
0.0
 30
0.0
 70
   128
 71
    47
 72
    10
 73
    52
  0
VERTEX
  5
3C7
  8
0
 62
     9
 10
0.0
 20
0.0
 30
0.0
 70
   128
 71
    10
 72
    53
 73
     4
  0
VERTEX
  5
3C8
  8
0
 62
     9
 10
0.0
 20
0.0
 30
0.0
 70
   128
 71
    28
 72
    52
 73
    10
  0
VERTEX
  5
3C9
  8
0
 62
     9
 10
0.0
 20
0.0
 30
0.0
 70
   128
 71
    22
 72
     5
 73
     6
  0
VERTEX
  5
3CA
  8
0
 62
     9
 10
0.0
 20
0.0
 30
0.0
 70
   128
 71
    24
 72
    23
 73
     6
  0
VERTEX
  5
3CB
  8
0
 62
     9
 10
0.0
 20
0.0
 30
0.0
 70
   128
 71
     6
 72
    23
 73
    22
  0
SEQEND
  5
3CC
  8
0
 62
     9
  0
ENDBLK
  5
3CF
  8
0
  0
BLOCK
  8
0
  2
41
 70
     0
 10
0.0
 20
0.0
 30
0.0
  3
41
  1

  0
POLYLINE
  5
3D1
  8
0
 62
     9
 66
     1
 10
0.0
 20
0.0
 30
0.0
 70
    64
 71
    40
 72
    58
  0
VERTEX
  5
3D2
  8
0
 10
117.1010284423828
 20
3.56945013999939
 30
97.2608871459961
 70
   192
  0
VERTEX
  5
3D3
  8
0
 10
116.5890655517578
 20
0.0000000000000354
 30
97.02215576171875
 70
   192
  0
VERTEX
  5
3D4
  8
0
 10
123.7735824584961
 20
-0.0000002880597947
 30
81.61492156982422
 70
   192
  0
VERTEX
  5
3D5
  8
0
 10
124.2857513427734
 20
3.57122015953064
 30
81.85375213623047
 70
   192
  0
VERTEX
  5
3D6
  8
0
 10
125.7721862792969
 20
6.794055461883545
 30
82.54689025878906
 70
   192
  0
VERTEX
  5
3D7
  8
0
 10
128.0926055908203
 20
9.359850883483887
 30
83.62892150878906
 70
   192
  0
VERTEX
  5
3D8
  8
0
 10
118.5868530273438
 20
6.799663066864014
 30
97.9537353515625
 70
   192
  0
VERTEX
  5
3D9
  8
0
 10
123.8346252441406
 20
10.96795558929443
 30
100.4008178710938
 70
   192
  0
VERTEX
  5
3DA
  8
0
 10
120.9074554443359
 20
9.364354133605957
 30
99.03585052490234
 70
   192
  0
VERTEX
  5
3DB
  8
0
 10
131.0180511474609
 20
11.00667190551758
 30
84.99307250976562
 70
   192
  0
VERTEX
  5
3DC
  8
0
 10
127.0795822143555
 20
11.57499980926514
 30
101.9139633178711
 70
   192
  0
VERTEX
  5
3DD
  8
0
 10
134.2640991210938
 20
11.57499980926514
 30
86.50672912597656
 70
   192
  0
VERTEX
  5
3DE
  8
0
 10
124.2886581420898
 20
-3.581612348556519
 30
81.85511016845703
 70
   192
  0
VERTEX
  5
3DF
  8
0
 10
118.5996322631836
 20
-6.806529521942139
 30
97.9596939086914
 70
   192
  0
VERTEX
  5
3E0
  8
0
 10
117.1080093383789
 20
-3.585915803909302
 30
97.2641372680664
 70
   192
  0
VERTEX
  5
3E1
  8
0
 10
125.7811889648438
 20
-6.809477806091309
 30
82.55108642578125
 70
   192
  0
VERTEX
  5
3E2
  8
0
 10
120.9198608398438
 20
-9.370463371276855
 30
99.04163360595703
 70
   192
  0
VERTEX
  5
3E3
  8
0
 10
128.1065826416016
 20
-9.369784355163574
 30
83.63543701171875
 70
   192
  0
VERTEX
  5
3E4
  8
0
 10
131.0256805419922
 20
-11.0095739364624
 30
84.99662780761719
 70
   192
  0
VERTEX
  5
3E5
  8
0
 10
123.8520584106445
 20
-10.94483280181885
 30
100.4089431762695
 70
   192
  0
VERTEX
  5
3E6
  8
0
 10
134.2640991210938
 20
-11.57499980926514
 30
86.50672912597656
 70
   192
  0
VERTEX
  5
3E7
  8
0
 10
127.0795822143555
 20
-11.57499980926514
 30
101.9139633178711
 70
   192
  0
VERTEX
  5
3E8
  8
0
 10
130.3071136474609
 20
10.94483280181885
 30
103.4189834594727
 70
   192
  0
VERTEX
  5
3E9
  8
0
 10
144.2397003173828
 20
3.581366300582886
 30
91.15843200683594
 70
   192
  0
VERTEX
  5
3EA
  8
0
 10
137.5700988769531
 20
0.000000000000036
 30
106.8057708740234
 70
   192
  0
VERTEX
  5
3EB
  8
0
 10
137.0511627197266
 20
3.585915803909302
 30
106.5637817382812
 70
   192
  0
VERTEX
  5
3EC
  8
0
 10
133.2393035888672
 20
9.370463371276855
 30
104.7862854003906
 70
   192
  0
VERTEX
  5
3ED
  8
0
 10
140.4228515625
 20
9.369279861450195
 30
89.37860870361328
 70
   192
  0
VERTEX
  5
3EE
  8
0
 10
142.7462921142578
 20
6.810070037841797
 30
90.46204376220703
 70
   192
  0
VERTEX
  5
3EF
  8
0
 10
142.7555389404297
 20
-6.795445919036865
 30
90.46635437011719
 70
   192
  0
VERTEX
  5
3F0
  8
0
 10
135.5723114013672
 20
-6.799663066864014
 30
105.8741836547852
 70
   192
  0
VERTEX
  5
3F1
  8
0
 10
137.0581359863281
 20
-3.56945013999939
 30
106.5670394897461
 70
   192
  0
VERTEX
  5
3F2
  8
0
 10
144.7546081542969
 20
0.0000002794939178
 30
91.3985366821289
 70
   192
  0
VERTEX
  5
3F3
  8
0
 10
144.242431640625
 20
-3.569875240325928
 30
91.15970611572266
 70
   192
  0
VERTEX
  5
3F4
  8
0
 10
140.4361114501953
 20
-9.35908031463623
 30
89.3847885131836
 70
   192
  0
VERTEX
  5
3F5
  8
0
 10
130.3245391845703
 20
-10.96795558929443
 30
103.4271087646484
 70
   192
  0
VERTEX
  5
3F6
  8
0
 10
133.251708984375
 20
-9.364354133605957
 30
104.7920684814453
 70
   192
  0
VERTEX
  5
3F7
  8
0
 10
137.5099182128906
 20
-11.00687217712402
 30
88.02027893066406
 70
   192
  0
VERTEX
  5
3F8
  8
0
 10
135.5595245361328
 20
6.806529521942139
 30
105.8682250976562
 70
   192
  0
VERTEX
  5
3F9
  8
0
 10
137.5009002685547
 20
11.00973129272461
 30
88.01607513427734
 70
   192
  0
VERTEX
  5
3FA
  8
0
 62
     9
 10
0.0
 20
0.0
 30
0.0
 70
   128
 71
     3
 72
     2
 73
     1
  0
VERTEX
  5
3FB
  8
0
 62
     9
 10
0.0
 20
0.0
 30
0.0
 70
   128
 71
     1
 72
     5
 73
     4
  0
VERTEX
  5
3FC
  8
0
 62
     9
 10
0.0
 20
0.0
 30
0.0
 70
   128
 71
     3
 72
     1
 73
     4
  0
VERTEX
  5
3FD
  8
0
 62
     9
 10
0.0
 20
0.0
 30
0.0
 70
   128
 71
     5
 72
     7
 73
     6
  0
VERTEX
  5
3FE
  8
0
 62
     9
 10
0.0
 20
0.0
 30
0.0
 70
   128
 71
     7
 72
     5
 73
     1
  0
VERTEX
  5
3FF
  8
0
 62
     9
 10
0.0
 20
0.0
 30
0.0
 70
   128
 71
     6
 72
     9
 73
     8
  0
VERTEX
  5
400
  8
0
 62
     9
 10
0.0
 20
0.0
 30
0.0
 70
   128
 71
     7
 72
     9
 73
     6
  0
VERTEX
  5
401
  8
0
 62
     9
 10
0.0
 20
0.0
 30
0.0
 70
   128
 71
    11
 72
    10
 73
     8
  0
VERTEX
  5
402
  8
0
 62
     9
 10
0.0
 20
0.0
 30
0.0
 70
   128
 71
     6
 72
     8
 73
    10
  0
VERTEX
  5
403
  8
0
 62
     9
 10
0.0
 20
0.0
 30
0.0
 70
   128
 71
    12
 72
    10
 73
    11
  0
VERTEX
  5
404
  8
0
 62
     9
 10
0.0
 20
0.0
 30
0.0
 70
   128
 71
     2
 72
     3
 73
    13
  0
VERTEX
  5
405
  8
0
 62
     9
 10
0.0
 20
0.0
 30
0.0
 70
   128
 71
    15
 72
    13
 73
    14
  0
VERTEX
  5
406
  8
0
 62
     9
 10
0.0
 20
0.0
 30
0.0
 70
   128
 71
    15
 72
     2
 73
    13
  0
VERTEX
  5
407
  8
0
 62
     9
 10
0.0
 20
0.0
 30
0.0
 70
   128
 71
    17
 72
    14
 73
    16
  0
VERTEX
  5
408
  8
0
 62
     9
 10
0.0
 20
0.0
 30
0.0
 70
   128
 71
    13
 72
    16
 73
    14
  0
VERTEX
  5
409
  8
0
 62
     9
 10
0.0
 20
0.0
 30
0.0
 70
   128
 71
    19
 72
    17
 73
    18
  0
VERTEX
  5
40A
  8
0
 62
     9
 10
0.0
 20
0.0
 30
0.0
 70
   128
 71
    17
 72
    16
 73
    18
  0
VERTEX
  5
40B
  8
0
 62
     9
 10
0.0
 20
0.0
 30
0.0
 70
   128
 71
    19
 72
    21
 73
    20
  0
VERTEX
  5
40C
  8
0
 62
     9
 10
0.0
 20
0.0
 30
0.0
 70
   128
 71
    20
 72
    17
 73
    19
  0
VERTEX
  5
40D
  8
0
 62
     9
 10
0.0
 20
0.0
 30
0.0
 70
   128
 71
    21
 72
    22
 73
    20
  0
VERTEX
  5
40E
  8
0
 62
     9
 10
0.0
 20
0.0
 30
0.0
 70
   128
 71
    12
 72
    11
 73
    23
  0
VERTEX
  5
40F
  8
0
 62
     9
 10
0.0
 20
0.0
 30
0.0
 70
   128
 71
    26
 72
    25
 73
    24
  0
VERTEX
  5
410
  8
0
 62
     9
 10
0.0
 20
0.0
 30
0.0
 70
   128
 71
    29
 72
    28
 73
    27
  0
VERTEX
  5
411
  8
0
 62
     9
 10
0.0
 20
0.0
 30
0.0
 70
   128
 71
    32
 72
    31
 73
    30
  0
VERTEX
  5
412
  8
0
 62
     9
 10
0.0
 20
0.0
 30
0.0
 70
   128
 71
    34
 72
    33
 73
    32
  0
VERTEX
  5
413
  8
0
 62
     9
 10
0.0
 20
0.0
 30
0.0
 70
   128
 71
    37
 72
    36
 73
    35
  0
VERTEX
  5
414
  8
0
 62
     9
 10
0.0
 20
0.0
 30
0.0
 70
   128
 71
    37
 72
    35
 73
    31
  0
VERTEX
  5
415
  8
0
 62
     9
 10
0.0
 20
0.0
 30
0.0
 70
   128
 71
    38
 72
    36
 73
    22
  0
VERTEX
  5
416
  8
0
 62
     9
 10
0.0
 20
0.0
 30
0.0
 70
   128
 71
    36
 72
    38
 73
    35
  0
VERTEX
  5
417
  8
0
 62
     9
 10
0.0
 20
0.0
 30
0.0
 70
   128
 71
    38
 72
    22
 73
    21
  0
VERTEX
  5
418
  8
0
 62
     9
 10
0.0
 20
0.0
 30
0.0
 70
   128
 71
    32
 72
    30
 73
    34
  0
VERTEX
  5
419
  8
0
 62
     9
 10
0.0
 20
0.0
 30
0.0
 70
   128
 71
    31
 72
    35
 73
    30
  0
VERTEX
  5
41A
  8
0
 62
     9
 10
0.0
 20
0.0
 30
0.0
 70
   128
 71
    25
 72
    33
 73
    24
  0
VERTEX
  5
41B
  8
0
 62
     9
 10
0.0
 20
0.0
 30
0.0
 70
   128
 71
    32
 72
    33
 73
    25
  0
VERTEX
  5
41C
  8
0
 62
     9
 10
0.0
 20
0.0
 30
0.0
 70
   128
 71
    29
 72
    39
 73
    24
  0
VERTEX
  5
41D
  8
0
 62
     9
 10
0.0
 20
0.0
 30
0.0
 70
   128
 71
    39
 72
    26
 73
    24
  0
VERTEX
  5
41E
  8
0
 62
     9
 10
0.0
 20
0.0
 30
0.0
 70
   128
 71
    40
 72
    27
 73
    28
  0
VERTEX
  5
41F
  8
0
 62
     9
 10
0.0
 20
0.0
 30
0.0
 70
   128
 71
    29
 72
    27
 73
    39
  0
VERTEX
  5
420
  8
0
 62
     9
 10
0.0
 20
0.0
 30
0.0
 70
   128
 71
    23
 72
    40
 73
    12
  0
VERTEX
  5
421
  8
0
 62
     9
 10
0.0
 20
0.0
 30
0.0
 70
   128
 71
    40
 72
    23
 73
    27
  0
VERTEX
  5
422
  8
0
 62
     9
 10
0.0
 20
0.0
 30
0.0
 70
   128
 71
    33
 72
    19
 73
    24
  0
VERTEX
  5
423
  8
0
 62
     9
 10
0.0
 20
0.0
 30
0.0
 70
   128
 71
    28
 72
    16
 73
    13
  0
VERTEX
  5
424
  8
0
 62
     9
 10
0.0
 20
0.0
 30
0.0
 70
   128
 71
    30
 72
    38
 73
    34
  0
VERTEX
  5
425
  8
0
 62
     9
 10
0.0
 20
0.0
 30
0.0
 70
   128
 71
    38
 72
    21
 73
    34
  0
VERTEX
  5
426
  8
0
 62
     9
 10
0.0
 20
0.0
 30
0.0
 70
   128
 71
    38
 72
    30
 73
    35
  0
VERTEX
  5
427
  8
0
 62
     9
 10
0.0
 20
0.0
 30
0.0
 70
   128
 71
    19
 72
    33
 73
    21
  0
VERTEX
  5
428
  8
0
 62
     9
 10
0.0
 20
0.0
 30
0.0
 70
   128
 71
    34
 72
    21
 73
    33
  0
VERTEX
  5
429
  8
0
 62
     9
 10
0.0
 20
0.0
 30
0.0
 70
   128
 71
    19
 72
    18
 73
    24
  0
VERTEX
  5
42A
  8
0
 62
     9
 10
0.0
 20
0.0
 30
0.0
 70
   128
 71
    18
 72
    29
 73
    24
  0
VERTEX
  5
42B
  8
0
 62
     9
 10
0.0
 20
0.0
 30
0.0
 70
   128
 71
    16
 72
    28
 73
    18
  0
VERTEX
  5
42C
  8
0
 62
     9
 10
0.0
 20
0.0
 30
0.0
 70
   128
 71
    29
 72
    18
 73
    28
  0
VERTEX
  5
42D
  8
0
 62
     9
 10
0.0
 20
0.0
 30
0.0
 70
   128
 71
    28
 72
    13
 73
    40
  0
VERTEX
  5
42E
  8
0
 62
     9
 10
0.0
 20
0.0
 30
0.0
 70
   128
 71
     3
 72
    12
 73
    40
  0
VERTEX
  5
42F
  8
0
 62
     9
 10
0.0
 20
0.0
 30
0.0
 70
   128
 71
    40
 72
    13
 73
     3
  0
VERTEX
  5
430
  8
0
 62
     9
 10
0.0
 20
0.0
 30
0.0
 70
   128
 71
     3
 72
     4
 73
    12
  0
VERTEX
  5
431
  8
0
 62
     9
 10
0.0
 20
0.0
 30
0.0
 70
   128
 71
     5
 72
     6
 73
    10
  0
VERTEX
  5
432
  8
0
 62
     9
 10
0.0
 20
0.0
 30
0.0
 70
   128
 71
     5
 72
    10
 73
     4
  0
VERTEX
  5
433
  8
0
 62
     9
 10
0.0
 20
0.0
 30
0.0
 70
   128
 71
    12
 72
     4
 73
    10
  0
SEQEND
  5
434
  8
0
 62
     9
  0
ENDBLK
  5
437
  8
0
  0
BLOCK
  8
0
  2
42
 70
     0
 10
0.0
 20
0.0
 30
0.0
  3
42
  1

  0
POLYLINE
  5
439
  8
0
 62
     9
 66
     1
 10
0.0
 20
0.0
 30
0.0
 70
    64
 71
    80
 72
   143
  0
VERTEX
  5
43A
  8
0
 10
4.850973129272461
 20
24.27002334594727
 30
0.0000000000110884
 70
   192
  0
VERTEX
  5
43B
  8
0
 10
0.0000000000000071
 20
24.75
 30
0.0000000000110884
 70
   192
  0
VERTEX
  5
43C
  8
0
 10
0.0000000000000071
 20
24.75
 30
-5.0
 70
   192
  0
VERTEX
  5
43D
  8
0
 10
4.850973129272461
 20
24.27002334594727
 30
-5.0
 70
   192
  0
VERTEX
  5
43E
  8
0
 10
9.471394538879395
 20
22.86596870422363
 30
0.0000000000110884
 70
   192
  0
VERTEX
  5
43F
  8
0
 10
9.471394538879395
 20
22.86596870422363
 30
-5.0
 70
   192
  0
VERTEX
  5
440
  8
0
 10
13.73134136199951
 20
20.59165382385254
 30
0.0000000000110884
 70
   192
  0
VERTEX
  5
441
  8
0
 10
13.73134136199951
 20
20.59165382385254
 30
-5.0
 70
   192
  0
VERTEX
  5
442
  8
0
 10
17.50089263916016
 20
17.50089263916016
 30
-5.0
 70
   192
  0
VERTEX
  5
443
  8
0
 10
20.59165382385254
 20
13.73134136199951
 30
-5.0
 70
   192
  0
VERTEX
  5
444
  8
0
 10
17.50089263916016
 20
17.50089263916016
 30
0.0000000000110884
 70
   192
  0
VERTEX
  5
445
  8
0
 10
22.86596870422363
 20
9.471394538879395
 30
-5.0
 70
   192
  0
VERTEX
  5
446
  8
0
 10
20.59165382385254
 20
13.73134136199951
 30
0.0000000000110884
 70
   192
  0
VERTEX
  5
447
  8
0
 10
22.86596870422363
 20
9.471394538879395
 30
0.0000000000110884
 70
   192
  0
VERTEX
  5
448
  8
0
 10
24.27002334594727
 20
4.850973129272461
 30
-5.0
 70
   192
  0
VERTEX
  5
449
  8
0
 10
24.27002334594727
 20
4.850973129272461
 30
0.0000000000110884
 70
   192
  0
VERTEX
  5
44A
  8
0
 10
24.75
 20
0.0000000000000031
 30
0.0000000000110884
 70
   192
  0
VERTEX
  5
44B
  8
0
 10
24.75
 20
0.0000000000000031
 30
-5.0
 70
   192
  0
VERTEX
  5
44C
  8
0
 10
-4.850973129272461
 20
24.27002334594727
 30
-5.0
 70
   192
  0
VERTEX
  5
44D
  8
0
 10
-4.850973129272461
 20
24.27002334594727
 30
0.0000000000110884
 70
   192
  0
VERTEX
  5
44E
  8
0
 10
-9.471394538879395
 20
22.86596870422363
 30
-5.0
 70
   192
  0
VERTEX
  5
44F
  8
0
 10
-13.73134136199951
 20
20.59165382385254
 30
-5.0
 70
   192
  0
VERTEX
  5
450
  8
0
 10
-9.471394538879395
 20
22.86596870422363
 30
0.0000000000110884
 70
   192
  0
VERTEX
  5
451
  8
0
 10
-13.73134136199951
 20
20.59165382385254
 30
0.0000000000110884
 70
   192
  0
VERTEX
  5
452
  8
0
 10
-17.50089263916016
 20
17.50089263916016
 30
0.0000000000110884
 70
   192
  0
VERTEX
  5
453
  8
0
 10
-20.59165382385254
 20
13.73134136199951
 30
0.0000000000110884
 70
   192
  0
VERTEX
  5
454
  8
0
 10
-17.50089263916016
 20
17.50089263916016
 30
-5.0
 70
   192
  0
VERTEX
  5
455
  8
0
 10
-20.59165382385254
 20
13.73134136199951
 30
-5.0
 70
   192
  0
VERTEX
  5
456
  8
0
 10
-22.86596870422363
 20
9.471394538879395
 30
0.0000000000110884
 70
   192
  0
VERTEX
  5
457
  8
0
 10
-24.27002334594727
 20
4.850973129272461
 30
0.0000000000110884
 70
   192
  0
VERTEX
  5
458
  8
0
 10
-22.86596870422363
 20
9.471394538879395
 30
-5.0
 70
   192
  0
VERTEX
  5
459
  8
0
 10
-24.75
 20
0.0000000000000001
 30
-5.0
 70
   192
  0
VERTEX
  5
45A
  8
0
 10
-24.27002334594727
 20
4.850973129272461
 30
-5.0
 70
   192
  0
VERTEX
  5
45B
  8
0
 10
-24.75
 20
0.0000000000000001
 30
0.0000000000110884
 70
   192
  0
VERTEX
  5
45C
  8
0
 10
-18.21733665466309
 20
-16.61822319030762
 30
0.0000000000110883
 70
   192
  0
VERTEX
  5
45D
  8
0
 10
-10.60979461669922
 20
-14.6027193069458
 30
0.0000000000110884
 70
   192
  0
VERTEX
  5
45E
  8
0
 10
-14.90695476531982
 20
-19.75825500488281
 30
0.0000000000110883
 70
   192
  0
VERTEX
  5
45F
  8
0
 10
-17.94896697998047
 20
-1.89786434173584
 30
0.0000000000110884
 70
   192
  0
VERTEX
  5
460
  8
0
 10
-23.08014488220215
 20
-8.946279525756836
 30
0.0000000000110884
 70
   192
  0
VERTEX
  5
461
  8
0
 10
-24.33011054992676
 20
-4.551112651824951
 30
0.0000000000110883
 70
   192
  0
VERTEX
  5
462
  8
0
 10
-15.62636470794678
 20
-9.03288459777832
 30
0.0000000000110884
 70
   192
  0
VERTEX
  5
463
  8
0
 10
-17.16904067993164
 20
5.568986892700195
 30
0.0000000000110884
 70
   192
  0
VERTEX
  5
464
  8
0
 10
-7.342963218688965
 20
16.48788261413574
 30
0.0000000000110884
 70
   192
  0
VERTEX
  5
465
  8
0
 10
-13.41694736480713
 20
12.07369422912598
 30
0.0000000000110884
 70
   192
  0
VERTEX
  5
466
  8
0
 10
-21.05696105957031
 20
-13.0466833114624
 30
0.0000000000110884
 70
   192
  0
VERTEX
  5
467
  8
0
 10
0.0000000000000036
 20
18.04999923706055
 30
0.0000000000110884
 70
   192
  0
VERTEX
  5
468
  8
0
 10
7.33442497253418
 20
16.49237442016602
 30
0.0000000000110884
 70
   192
  0
VERTEX
  5
469
  8
0
 10
-3.754193305969238
 20
-17.65531349182129
 30
0.0000000000110884
 70
   192
  0
VERTEX
  5
46A
  8
0
 10
-11.02600288391113
 20
-22.15985870361328
 30
0.0000000000110883
 70
   192
  0
VERTEX
  5
46B
  8
0
 10
-6.76932954788208
 20
-23.80685043334961
 30
0.0000000000110883
 70
   192
  0
VERTEX
  5
46C
  8
0
 10
-2.278268814086914
 20
-24.64481544494629
 30
0.0000000000110883
 70
   192
  0
VERTEX
  5
46D
  8
0
 10
3.757413387298584
 20
-17.65439796447754
 30
0.0000000000110884
 70
   192
  0
VERTEX
  5
46E
  8
0
 10
13.40905380249023
 20
12.08268356323242
 30
0.0000000000110884
 70
   192
  0
VERTEX
  5
46F
  8
0
 10
17.16550636291504
 20
5.58140754699707
 30
0.0000000000110884
 70
   192
  0
VERTEX
  5
470
  8
0
 10
2.286775588989258
 20
-24.64347076416016
 30
0.0000000000110883
 70
   192
  0
VERTEX
  5
471
  8
0
 10
11.03154182434082
 20
-22.15340042114258
 30
0.0000000000110883
 70
   192
  0
VERTEX
  5
472
  8
0
 10
6.771674633026123
 20
-23.8039608001709
 30
0.0000000000110883
 70
   192
  0
VERTEX
  5
473
  8
0
 10
17.951171875
 20
-1.879692554473877
 30
0.0000000000110884
 70
   192
  0
VERTEX
  5
474
  8
0
 10
10.61715030670166
 20
-14.5962610244751
 30
0.0000000000110884
 70
   192
  0
VERTEX
  5
475
  8
0
 10
23.07623672485352
 20
-8.934326171875
 30
0.0000000000110884
 70
   192
  0
VERTEX
  5
476
  8
0
 10
15.63500308990479
 20
-9.016465187072754
 30
0.0000000000110884
 70
   192
  0
VERTEX
  5
477
  8
0
 10
18.28038597106934
 20
-16.66356658935547
 30
0.0000000000110883
 70
   192
  0
VERTEX
  5
478
  8
0
 10
21.02915954589844
 20
-13.01890087127686
 30
0.0000000000110884
 70
   192
  0
VERTEX
  5
479
  8
0
 10
24.32741546630859
 20
-4.542532444000244
 30
0.0000000000110883
 70
   192
  0
VERTEX
  5
47A
  8
0
 10
14.91193008422852
 20
-19.7501106262207
 30
0.0000000000110883
 70
   192
  0
VERTEX
  5
47B
  8
0
 10
17.50089263916016
 20
-17.50089263916016
 30
-5.0
 70
   192
  0
VERTEX
  5
47C
  8
0
 10
20.59165382385254
 20
-13.73134136199951
 30
-5.0
 70
   192
  0
VERTEX
  5
47D
  8
0
 10
22.86596870422363
 20
-9.471394538879395
 30
-5.0
 70
   192
  0
VERTEX
  5
47E
  8
0
 10
4.850973129272461
 20
-24.27002334594727
 30
-5.0
 70
   192
  0
VERTEX
  5
47F
  8
0
 10
13.73134136199951
 20
-20.59165382385254
 30
-5.0
 70
   192
  0
VERTEX
  5
480
  8
0
 10
9.471394538879395
 20
-22.86596870422363
 30
-5.0
 70
   192
  0
VERTEX
  5
481
  8
0
 10
-4.850973129272461
 20
-24.27002334594727
 30
-5.0
 70
   192
  0
VERTEX
  5
482
  8
0
 10
-9.471394538879395
 20
-22.86596870422363
 30
-5.0
 70
   192
  0
VERTEX
  5
483
  8
0
 10
0.0000000000000071
 20
-24.75
 30
-5.0
 70
   192
  0
VERTEX
  5
484
  8
0
 10
-13.73134136199951
 20
-20.59165382385254
 30
-5.0
 70
   192
  0
VERTEX
  5
485
  8
0
 10
-17.50089263916016
 20
-17.50089263916016
 30
-5.0
 70
   192
  0
VERTEX
  5
486
  8
0
 10
-20.59165382385254
 20
-13.73134136199951
 30
-5.0
 70
   192
  0
VERTEX
  5
487
  8
0
 10
-22.86596870422363
 20
-9.471394538879395
 30
-5.0
 70
   192
  0
VERTEX
  5
488
  8
0
 10
-24.27002334594727
 20
-4.850973129272461
 30
-5.0
 70
   192
  0
VERTEX
  5
489
  8
0
 10
24.27002334594727
 20
-4.850973129272461
 30
-5.0
 70
   192
  0
VERTEX
  5
48A
  8
0
 62
     9
 10
0.0
 20
0.0
 30
0.0
 70
   128
 71
     3
 72
     2
 73
     1
  0
VERTEX
  5
48B
  8
0
 62
     9
 10
0.0
 20
0.0
 30
0.0
 70
   128
 71
     5
 72
     4
 73
     1
  0
VERTEX
  5
48C
  8
0
 62
     9
 10
0.0
 20
0.0
 30
0.0
 70
   128
 71
     3
 72
     1
 73
     4
  0
VERTEX
  5
48D
  8
0
 62
     9
 10
0.0
 20
0.0
 30
0.0
 70
   128
 71
     5
 72
     7
 73
     6
  0
VERTEX
  5
48E
  8
0
 62
     9
 10
0.0
 20
0.0
 30
0.0
 70
   128
 71
     6
 72
     4
 73
     5
  0
VERTEX
  5
48F
  8
0
 62
     9
 10
0.0
 20
0.0
 30
0.0
 70
   128
 71
     9
 72
     8
 73
     7
  0
VERTEX
  5
490
  8
0
 62
     9
 10
0.0
 20
0.0
 30
0.0
 70
   128
 71
     7
 72
     8
 73
     6
  0
VERTEX
  5
491
  8
0
 62
     9
 10
0.0
 20
0.0
 30
0.0
 70
   128
 71
    11
 72
    10
 73
     9
  0
VERTEX
  5
492
  8
0
 62
     9
 10
0.0
 20
0.0
 30
0.0
 70
   128
 71
     9
 72
     7
 73
    11
  0
VERTEX
  5
493
  8
0
 62
     9
 10
0.0
 20
0.0
 30
0.0
 70
   128
 71
    10
 72
    13
 73
    12
  0
VERTEX
  5
494
  8
0
 62
     9
 10
0.0
 20
0.0
 30
0.0
 70
   128
 71
    13
 72
    10
 73
    11
  0
VERTEX
  5
495
  8
0
 62
     9
 10
0.0
 20
0.0
 30
0.0
 70
   128
 71
    15
 72
    12
 73
    14
  0
VERTEX
  5
496
  8
0
 62
     9
 10
0.0
 20
0.0
 30
0.0
 70
   128
 71
    13
 72
    14
 73
    12
  0
VERTEX
  5
497
  8
0
 62
     9
 10
0.0
 20
0.0
 30
0.0
 70
   128
 71
    17
 72
    15
 73
    16
  0
VERTEX
  5
498
  8
0
 62
     9
 10
0.0
 20
0.0
 30
0.0
 70
   128
 71
    15
 72
    14
 73
    16
  0
VERTEX
  5
499
  8
0
 62
     9
 10
0.0
 20
0.0
 30
0.0
 70
   128
 71
    18
 72
    15
 73
    17
  0
VERTEX
  5
49A
  8
0
 62
     9
 10
0.0
 20
0.0
 30
0.0
 70
   128
 71
     2
 72
     3
 73
    19
  0
VERTEX
  5
49B
  8
0
 62
     9
 10
0.0
 20
0.0
 30
0.0
 70
   128
 71
    19
 72
    21
 73
    20
  0
VERTEX
  5
49C
  8
0
 62
     9
 10
0.0
 20
0.0
 30
0.0
 70
   128
 71
    20
 72
     2
 73
    19
  0
VERTEX
  5
49D
  8
0
 62
     9
 10
0.0
 20
0.0
 30
0.0
 70
   128
 71
    23
 72
    21
 73
    22
  0
VERTEX
  5
49E
  8
0
 62
     9
 10
0.0
 20
0.0
 30
0.0
 70
   128
 71
    21
 72
    23
 73
    20
  0
VERTEX
  5
49F
  8
0
 62
     9
 10
0.0
 20
0.0
 30
0.0
 70
   128
 71
    22
 72
    25
 73
    24
  0
VERTEX
  5
4A0
  8
0
 62
     9
 10
0.0
 20
0.0
 30
0.0
 70
   128
 71
    23
 72
    22
 73
    24
  0
VERTEX
  5
4A1
  8
0
 62
     9
 10
0.0
 20
0.0
 30
0.0
 70
   128
 71
    25
 72
    27
 73
    26
  0
VERTEX
  5
4A2
  8
0
 62
     9
 10
0.0
 20
0.0
 30
0.0
 70
   128
 71
    27
 72
    25
 73
    22
  0
VERTEX
  5
4A3
  8
0
 62
     9
 10
0.0
 20
0.0
 30
0.0
 70
   128
 71
    29
 72
    26
 73
    28
  0
VERTEX
  5
4A4
  8
0
 62
     9
 10
0.0
 20
0.0
 30
0.0
 70
   128
 71
    27
 72
    28
 73
    26
  0
VERTEX
  5
4A5
  8
0
 62
     9
 10
0.0
 20
0.0
 30
0.0
 70
   128
 71
    31
 72
    30
 73
    29
  0
VERTEX
  5
4A6
  8
0
 62
     9
 10
0.0
 20
0.0
 30
0.0
 70
   128
 71
    29
 72
    28
 73
    31
  0
VERTEX
  5
4A7
  8
0
 62
     9
 10
0.0
 20
0.0
 30
0.0
 70
   128
 71
    33
 72
    32
 73
    30
  0
VERTEX
  5
4A8
  8
0
 62
     9
 10
0.0
 20
0.0
 30
0.0
 70
   128
 71
    33
 72
    30
 73
    31
  0
VERTEX
  5
4A9
  8
0
 62
     9
 10
0.0
 20
0.0
 30
0.0
 70
   128
 71
    32
 72
    34
 73
    30
  0
VERTEX
  5
4AA
  8
0
 62
     9
 10
0.0
 20
0.0
 30
0.0
 70
   128
 71
    37
 72
    36
 73
    35
  0
VERTEX
  5
4AB
  8
0
 62
     9
 10
0.0
 20
0.0
 30
0.0
 70
   128
 71
    34
 72
    38
 73
    30
  0
VERTEX
  5
4AC
  8
0
 62
     9
 10
0.0
 20
0.0
 30
0.0
 70
   128
 71
    38
 72
    40
 73
    39
  0
VERTEX
  5
4AD
  8
0
 62
     9
 10
0.0
 20
0.0
 30
0.0
 70
   128
 71
    41
 72
    38
 73
    39
  0
VERTEX
  5
4AE
  8
0
 62
     9
 10
0.0
 20
0.0
 30
0.0
 70
   128
 71
    26
 72
    29
 73
    42
  0
VERTEX
  5
4AF
  8
0
 62
     9
 10
0.0
 20
0.0
 30
0.0
 70
   128
 71
    30
 72
    38
 73
    42
  0
VERTEX
  5
4B0
  8
0
 62
     9
 10
0.0
 20
0.0
 30
0.0
 70
   128
 71
    44
 72
    43
 73
    24
  0
VERTEX
  5
4B1
  8
0
 62
     9
 10
0.0
 20
0.0
 30
0.0
 70
   128
 71
    25
 72
    26
 73
    44
  0
VERTEX
  5
4B2
  8
0
 62
     9
 10
0.0
 20
0.0
 30
0.0
 70
   128
 71
    23
 72
    43
 73
    20
  0
VERTEX
  5
4B3
  8
0
 62
     9
 10
0.0
 20
0.0
 30
0.0
 70
   128
 71
    41
 72
    39
 73
    45
  0
VERTEX
  5
4B4
  8
0
 62
     9
 10
0.0
 20
0.0
 30
0.0
 70
   128
 71
     2
 72
    20
 73
    46
  0
VERTEX
  5
4B5
  8
0
 62
     9
 10
0.0
 20
0.0
 30
0.0
 70
   128
 71
     1
 72
    47
 73
     5
  0
VERTEX
  5
4B6
  8
0
 62
     9
 10
0.0
 20
0.0
 30
0.0
 70
   128
 71
    36
 72
    41
 73
    35
  0
VERTEX
  5
4B7
  8
0
 62
     9
 10
0.0
 20
0.0
 30
0.0
 70
   128
 71
    47
 72
     7
 73
     5
  0
VERTEX
  5
4B8
  8
0
 62
     9
 10
0.0
 20
0.0
 30
0.0
 70
   128
 71
    49
 72
    48
 73
    36
  0
VERTEX
  5
4B9
  8
0
 62
     9
 10
0.0
 20
0.0
 30
0.0
 70
   128
 71
    50
 72
    48
 73
    49
  0
VERTEX
  5
4BA
  8
0
 62
     9
 10
0.0
 20
0.0
 30
0.0
 70
   128
 71
    52
 72
    48
 73
    51
  0
VERTEX
  5
4BB
  8
0
 62
     9
 10
0.0
 20
0.0
 30
0.0
 70
   128
 71
    53
 72
     7
 73
    47
  0
VERTEX
  5
4BC
  8
0
 62
     9
 10
0.0
 20
0.0
 30
0.0
 70
   128
 71
    42
 72
    44
 73
    26
  0
VERTEX
  5
4BD
  8
0
 62
     9
 10
0.0
 20
0.0
 30
0.0
 70
   128
 71
    54
 72
    13
 73
    53
  0
VERTEX
  5
4BE
  8
0
 62
     9
 10
0.0
 20
0.0
 30
0.0
 70
   128
 71
    52
 72
    51
 73
    55
  0
VERTEX
  5
4BF
  8
0
 62
     9
 10
0.0
 20
0.0
 30
0.0
 70
   128
 71
    13
 72
    54
 73
    14
  0
VERTEX
  5
4C0
  8
0
 62
     9
 10
0.0
 20
0.0
 30
0.0
 70
   128
 71
    57
 72
    56
 73
    52
  0
VERTEX
  5
4C1
  8
0
 62
     9
 10
0.0
 20
0.0
 30
0.0
 70
   128
 71
    17
 72
    16
 73
    58
  0
VERTEX
  5
4C2
  8
0
 62
     9
 10
0.0
 20
0.0
 30
0.0
 70
   128
 71
    52
 72
    56
 73
    59
  0
VERTEX
  5
4C3
  8
0
 62
     9
 10
0.0
 20
0.0
 30
0.0
 70
   128
 71
    61
 72
    60
 73
    58
  0
VERTEX
  5
4C4
  8
0
 62
     9
 10
0.0
 20
0.0
 30
0.0
 70
   128
 71
    62
 72
    61
 73
    59
  0
VERTEX
  5
4C5
  8
0
 62
     9
 10
0.0
 20
0.0
 30
0.0
 70
   128
 71
    62
 72
    63
 73
    61
  0
VERTEX
  5
4C6
  8
0
 62
     9
 10
0.0
 20
0.0
 30
0.0
 70
   128
 71
    58
 72
    60
 73
    64
  0
VERTEX
  5
4C7
  8
0
 62
     9
 10
0.0
 20
0.0
 30
0.0
 70
   128
 71
    16
 72
    54
 73
    58
  0
VERTEX
  5
4C8
  8
0
 62
     9
 10
0.0
 20
0.0
 30
0.0
 70
   128
 71
    65
 72
    59
 73
    56
  0
VERTEX
  5
4C9
  8
0
 62
     9
 10
0.0
 20
0.0
 30
0.0
 70
   128
 71
    46
 72
    47
 73
     1
  0
VERTEX
  5
4CA
  8
0
 62
     9
 10
0.0
 20
0.0
 30
0.0
 70
   128
 71
     1
 72
     2
 73
    46
  0
VERTEX
  5
4CB
  8
0
 62
     9
 10
0.0
 20
0.0
 30
0.0
 70
   128
 71
    53
 72
    13
 73
    11
  0
VERTEX
  5
4CC
  8
0
 62
     9
 10
0.0
 20
0.0
 30
0.0
 70
   128
 71
    11
 72
     7
 73
    53
  0
VERTEX
  5
4CD
  8
0
 62
     9
 10
0.0
 20
0.0
 30
0.0
 70
   128
 71
    54
 72
    16
 73
    14
  0
VERTEX
  5
4CE
  8
0
 62
     9
 10
0.0
 20
0.0
 30
0.0
 70
   128
 71
    58
 72
    64
 73
    17
  0
VERTEX
  5
4CF
  8
0
 62
     9
 10
0.0
 20
0.0
 30
0.0
 70
   128
 71
    61
 72
    63
 73
    60
  0
VERTEX
  5
4D0
  8
0
 62
     9
 10
0.0
 20
0.0
 30
0.0
 70
   128
 71
    59
 72
    65
 73
    62
  0
VERTEX
  5
4D1
  8
0
 62
     9
 10
0.0
 20
0.0
 30
0.0
 70
   128
 71
    52
 72
    55
 73
    57
  0
VERTEX
  5
4D2
  8
0
 62
     9
 10
0.0
 20
0.0
 30
0.0
 70
   128
 71
    48
 72
    50
 73
    51
  0
VERTEX
  5
4D3
  8
0
 62
     9
 10
0.0
 20
0.0
 30
0.0
 70
   128
 71
    36
 72
    37
 73
    49
  0
VERTEX
  5
4D4
  8
0
 62
     9
 10
0.0
 20
0.0
 30
0.0
 70
   128
 71
    41
 72
    45
 73
    35
  0
VERTEX
  5
4D5
  8
0
 62
     9
 10
0.0
 20
0.0
 30
0.0
 70
   128
 71
    38
 72
    34
 73
    40
  0
VERTEX
  5
4D6
  8
0
 62
     9
 10
0.0
 20
0.0
 30
0.0
 70
   128
 71
    42
 72
    29
 73
    30
  0
VERTEX
  5
4D7
  8
0
 62
     9
 10
0.0
 20
0.0
 30
0.0
 70
   128
 71
    44
 72
    24
 73
    25
  0
VERTEX
  5
4D8
  8
0
 62
     9
 10
0.0
 20
0.0
 30
0.0
 70
   128
 71
    43
 72
    23
 73
    24
  0
VERTEX
  5
4D9
  8
0
 62
     9
 10
0.0
 20
0.0
 30
0.0
 70
   128
 71
    43
 72
    46
 73
    20
  0
VERTEX
  5
4DA
  8
0
 62
     9
 10
0.0
 20
0.0
 30
0.0
 70
   128
 71
    18
 72
    17
 73
    64
  0
VERTEX
  5
4DB
  8
0
 62
     9
 10
0.0
 20
0.0
 30
0.0
 70
   128
 71
    67
 72
    62
 73
    66
  0
VERTEX
  5
4DC
  8
0
 62
     9
 10
0.0
 20
0.0
 30
0.0
 70
   128
 71
    68
 72
    60
 73
    63
  0
VERTEX
  5
4DD
  8
0
 62
     9
 10
0.0
 20
0.0
 30
0.0
 70
   128
 71
    55
 72
    69
 73
    57
  0
VERTEX
  5
4DE
  8
0
 62
     9
 10
0.0
 20
0.0
 30
0.0
 70
   128
 71
    71
 72
    70
 73
    56
  0
VERTEX
  5
4DF
  8
0
 62
     9
 10
0.0
 20
0.0
 30
0.0
 70
   128
 71
    73
 72
    72
 73
    50
  0
VERTEX
  5
4E0
  8
0
 62
     9
 10
0.0
 20
0.0
 30
0.0
 70
   128
 71
    74
 72
    51
 73
    72
  0
VERTEX
  5
4E1
  8
0
 62
     9
 10
0.0
 20
0.0
 30
0.0
 70
   128
 71
    76
 72
    75
 73
    37
  0
VERTEX
  5
4E2
  8
0
 62
     9
 10
0.0
 20
0.0
 30
0.0
 70
   128
 71
    73
 72
    49
 73
    75
  0
VERTEX
  5
4E3
  8
0
 62
     9
 10
0.0
 20
0.0
 30
0.0
 70
   128
 71
    45
 72
    77
 73
    35
  0
VERTEX
  5
4E4
  8
0
 62
     9
 10
0.0
 20
0.0
 30
0.0
 70
   128
 71
    76
 72
    35
 73
    77
  0
VERTEX
  5
4E5
  8
0
 62
     9
 10
0.0
 20
0.0
 30
0.0
 70
   128
 71
    45
 72
    39
 73
    78
  0
VERTEX
  5
4E6
  8
0
 62
     9
 10
0.0
 20
0.0
 30
0.0
 70
   128
 71
    78
 72
    77
 73
    45
  0
VERTEX
  5
4E7
  8
0
 62
     9
 10
0.0
 20
0.0
 30
0.0
 70
   128
 71
    79
 72
    39
 73
    40
  0
VERTEX
  5
4E8
  8
0
 62
     9
 10
0.0
 20
0.0
 30
0.0
 70
   128
 71
    39
 72
    79
 73
    78
  0
VERTEX
  5
4E9
  8
0
 62
     9
 10
0.0
 20
0.0
 30
0.0
 70
   128
 71
    34
 72
    32
 73
    40
  0
VERTEX
  5
4EA
  8
0
 62
     9
 10
0.0
 20
0.0
 30
0.0
 70
   128
 71
    79
 72
    40
 73
    32
  0
VERTEX
  5
4EB
  8
0
 62
     9
 10
0.0
 20
0.0
 30
0.0
 70
   128
 71
    75
 72
    49
 73
    37
  0
VERTEX
  5
4EC
  8
0
 62
     9
 10
0.0
 20
0.0
 30
0.0
 70
   128
 71
    76
 72
    37
 73
    35
  0
VERTEX
  5
4ED
  8
0
 62
     9
 10
0.0
 20
0.0
 30
0.0
 70
   128
 71
    51
 72
    50
 73
    72
  0
VERTEX
  5
4EE
  8
0
 62
     9
 10
0.0
 20
0.0
 30
0.0
 70
   128
 71
    73
 72
    50
 73
    49
  0
VERTEX
  5
4EF
  8
0
 62
     9
 10
0.0
 20
0.0
 30
0.0
 70
   128
 71
    74
 72
    69
 73
    55
  0
VERTEX
  5
4F0
  8
0
 62
     9
 10
0.0
 20
0.0
 30
0.0
 70
   128
 71
    74
 72
    55
 73
    51
  0
VERTEX
  5
4F1
  8
0
 62
     9
 10
0.0
 20
0.0
 30
0.0
 70
   128
 71
    57
 72
    71
 73
    56
  0
VERTEX
  5
4F2
  8
0
 62
     9
 10
0.0
 20
0.0
 30
0.0
 70
   128
 71
    69
 72
    71
 73
    57
  0
VERTEX
  5
4F3
  8
0
 62
     9
 10
0.0
 20
0.0
 30
0.0
 70
   128
 71
    65
 72
    70
 73
    66
  0
VERTEX
  5
4F4
  8
0
 62
     9
 10
0.0
 20
0.0
 30
0.0
 70
   128
 71
    56
 72
    70
 73
    65
  0
VERTEX
  5
4F5
  8
0
 62
     9
 10
0.0
 20
0.0
 30
0.0
 70
   128
 71
    63
 72
    62
 73
    67
  0
VERTEX
  5
4F6
  8
0
 62
     9
 10
0.0
 20
0.0
 30
0.0
 70
   128
 71
    62
 72
    65
 73
    66
  0
VERTEX
  5
4F7
  8
0
 62
     9
 10
0.0
 20
0.0
 30
0.0
 70
   128
 71
    80
 72
    60
 73
    68
  0
VERTEX
  5
4F8
  8
0
 62
     9
 10
0.0
 20
0.0
 30
0.0
 70
   128
 71
    68
 72
    63
 73
    67
  0
VERTEX
  5
4F9
  8
0
 62
     9
 10
0.0
 20
0.0
 30
0.0
 70
   128
 71
    64
 72
    80
 73
    18
  0
VERTEX
  5
4FA
  8
0
 62
     9
 10
0.0
 20
0.0
 30
0.0
 70
   128
 71
    80
 72
    64
 73
    60
  0
VERTEX
  5
4FB
  8
0
 62
     9
 10
0.0
 20
0.0
 30
0.0
 70
   128
 71
    68
 72
    67
 73
    21
  0
VERTEX
  5
4FC
  8
0
 62
     9
 10
0.0
 20
0.0
 30
0.0
 70
   128
 71
    15
 72
     6
 73
    12
  0
VERTEX
  5
4FD
  8
0
 62
     9
 10
0.0
 20
0.0
 30
0.0
 70
   128
 71
     4
 72
    15
 73
    18
  0
VERTEX
  5
4FE
  8
0
 62
     9
 10
0.0
 20
0.0
 30
0.0
 70
   128
 71
    18
 72
    80
 73
     3
  0
VERTEX
  5
4FF
  8
0
 62
     9
 10
0.0
 20
0.0
 30
0.0
 70
   128
 71
     9
 72
    10
 73
     8
  0
VERTEX
  5
500
  8
0
 62
     9
 10
0.0
 20
0.0
 30
0.0
 70
   128
 71
    12
 72
     8
 73
    10
  0
VERTEX
  5
501
  8
0
 62
     9
 10
0.0
 20
0.0
 30
0.0
 70
   128
 71
     6
 72
    15
 73
     4
  0
VERTEX
  5
502
  8
0
 62
     9
 10
0.0
 20
0.0
 30
0.0
 70
   128
 71
    12
 72
     6
 73
     8
  0
VERTEX
  5
503
  8
0
 62
     9
 10
0.0
 20
0.0
 30
0.0
 70
   128
 71
     4
 72
    18
 73
     3
  0
VERTEX
  5
504
  8
0
 62
     9
 10
0.0
 20
0.0
 30
0.0
 70
   128
 71
    80
 72
    68
 73
    19
  0
VERTEX
  5
505
  8
0
 62
     9
 10
0.0
 20
0.0
 30
0.0
 70
   128
 71
     3
 72
    80
 73
    19
  0
VERTEX
  5
506
  8
0
 62
     9
 10
0.0
 20
0.0
 30
0.0
 70
   128
 71
    67
 72
    22
 73
    21
  0
VERTEX
  5
507
  8
0
 62
     9
 10
0.0
 20
0.0
 30
0.0
 70
   128
 71
    68
 72
    21
 73
    19
  0
VERTEX
  5
508
  8
0
 62
     9
 10
0.0
 20
0.0
 30
0.0
 70
   128
 71
    27
 72
    22
 73
    66
  0
VERTEX
  5
509
  8
0
 62
     9
 10
0.0
 20
0.0
 30
0.0
 70
   128
 71
    67
 72
    66
 73
    22
  0
VERTEX
  5
50A
  8
0
 62
     9
 10
0.0
 20
0.0
 30
0.0
 70
   128
 71
    27
 72
    66
 73
    70
  0
VERTEX
  5
50B
  8
0
 62
     9
 10
0.0
 20
0.0
 30
0.0
 70
   128
 71
    70
 72
    71
 73
    28
  0
VERTEX
  5
50C
  8
0
 62
     9
 10
0.0
 20
0.0
 30
0.0
 70
   128
 71
    28
 72
    27
 73
    70
  0
VERTEX
  5
50D
  8
0
 62
     9
 10
0.0
 20
0.0
 30
0.0
 70
   128
 71
    28
 72
    71
 73
    31
  0
VERTEX
  5
50E
  8
0
 62
     9
 10
0.0
 20
0.0
 30
0.0
 70
   128
 71
    69
 72
    33
 73
    31
  0
VERTEX
  5
50F
  8
0
 62
     9
 10
0.0
 20
0.0
 30
0.0
 70
   128
 71
    31
 72
    71
 73
    69
  0
VERTEX
  5
510
  8
0
 62
     9
 10
0.0
 20
0.0
 30
0.0
 70
   128
 71
    33
 72
    74
 73
    32
  0
VERTEX
  5
511
  8
0
 62
     9
 10
0.0
 20
0.0
 30
0.0
 70
   128
 71
    74
 72
    33
 73
    69
  0
VERTEX
  5
512
  8
0
 62
     9
 10
0.0
 20
0.0
 30
0.0
 70
   128
 71
    73
 72
    78
 73
    79
  0
VERTEX
  5
513
  8
0
 62
     9
 10
0.0
 20
0.0
 30
0.0
 70
   128
 71
    74
 72
    72
 73
    32
  0
VERTEX
  5
514
  8
0
 62
     9
 10
0.0
 20
0.0
 30
0.0
 70
   128
 71
    78
 72
    75
 73
    77
  0
VERTEX
  5
515
  8
0
 62
     9
 10
0.0
 20
0.0
 30
0.0
 70
   128
 71
    76
 72
    77
 73
    75
  0
VERTEX
  5
516
  8
0
 62
     9
 10
0.0
 20
0.0
 30
0.0
 70
   128
 71
    72
 72
    73
 73
    79
  0
VERTEX
  5
517
  8
0
 62
     9
 10
0.0
 20
0.0
 30
0.0
 70
   128
 71
    73
 72
    75
 73
    78
  0
VERTEX
  5
518
  8
0
 62
     9
 10
0.0
 20
0.0
 30
0.0
 70
   128
 71
    79
 72
    32
 73
    72
  0
SEQEND
  5
519
  8
0
 62
     9
  0
ENDBLK
  5
51C
  8
0
  0
BLOCK
  8
0
  2
43
 70
     0
 10
0.0
 20
0.0
 30
0.0
  3
43
  1

  0
POLYLINE
  5
51E
  8
0
 62
     9
 66
     1
 10
0.0
 20
0.0
 30
0.0
 70
    64
 71
   105
 72
   198
  0
VERTEX
  5
51F
  8
0
 10
-37.71601867675781
 20
1.736973524093628
 30
45.16426086425781
 70
   192
  0
VERTEX
  5
520
  8
0
 10
-26.34564781188965
 20
1.009989738464355
 30
45.91034698486328
 70
   192
  0
VERTEX
  5
521
  8
0
 10
-37.71601867675781
 20
0.968660295009613
 30
45.92121505737305
 70
   192
  0
VERTEX
  5
522
  8
0
 10
-26.34564781188965
 20
2.0
 30
44.17621231079102
 70
   192
  0
VERTEX
  5
523
  8
0
 10
-37.71601867675781
 20
1.745004415512085
 30
43.20755004882812
 70
   192
  0
VERTEX
  5
524
  8
0
 10
-26.34564781188965
 20
1.718164563179016
 30
43.17056655883789
 70
   192
  0
VERTEX
  5
525
  8
0
 10
-26.34564781188965
 20
0.0000000000000025
 30
46.17621231079102
 70
   192
  0
VERTEX
  5
526
  8
0
 10
-37.71601867675781
 20
0.0000000000000025
 30
46.17621231079102
 70
   192
  0
VERTEX
  5
527
  8
0
 10
-26.34564781188965
 20
1.732784867286682
 30
45.17082214355469
 70
   192
  0
VERTEX
  5
528
  8
0
 10
-37.71601867675781
 20
2.0
 30
44.17621231079102
 70
   192
  0
VERTEX
  5
529
  8
0
 10
-26.34564781188965
 20
0.9862242937088013
 30
42.44702529907227
 70
   192
  0
VERTEX
  5
52A
  8
0
 10
-37.71601867675781
 20
0.9880486726760864
 30
42.43923568725586
 70
   192
  0
VERTEX
  5
52B
  8
0
 10
-26.34564781188965
 20
0.0000000000000022
 30
42.17621231079102
 70
   192
  0
VERTEX
  5
52C
  8
0
 10
-37.71601867675781
 20
0.0000000000000022
 30
42.17621231079102
 70
   192
  0
VERTEX
  5
52D
  8
0
 10
-23.33610534667969
 20
1.855999946594238
 30
43.36277008056641
 70
   192
  0
VERTEX
  5
52E
  8
0
 10
-24.55485725402832
 20
1.811692357063293
 30
42.477294921875
 70
   192
  0
VERTEX
  5
52F
  8
0
 10
-23.49247741699219
 20
2.0
 30
42.1032600402832
 70
   192
  0
VERTEX
  5
530
  8
0
 10
-25.13703155517578
 20
0.9862242937088013
 30
41.56891250610352
 70
   192
  0
VERTEX
  5
531
  8
0
 10
-25.33947944641113
 20
0.9304615259170532
 30
41.90723419189453
 70
   192
  0
VERTEX
  5
532
  8
0
 10
-25.57622718811035
 20
0.0000000000000025
 30
41.73522567749023
 70
   192
  0
VERTEX
  5
533
  8
0
 10
-22.54654693603516
 20
1.732784867286682
 30
42.41061401367188
 70
   192
  0
VERTEX
  5
534
  8
0
 10
-21.84321784973145
 20
1.009989738464355
 30
42.63913726806641
 70
   192
  0
VERTEX
  5
535
  8
0
 10
-22.49373054504395
 20
0.9698461294174194
 30
43.97479248046875
 70
   192
  0
VERTEX
  5
536
  8
0
 10
-21.59036445617676
 20
0.0000000000000022
 30
42.72129440307617
 70
   192
  0
VERTEX
  5
537
  8
0
 10
-22.30056190490723
 20
0.0000000000000022
 30
44.11513519287109
 70
   192
  0
VERTEX
  5
538
  8
0
 10
-23.52563095092773
 20
0.8577597141265869
 30
45.05763244628906
 70
   192
  0
VERTEX
  5
539
  8
0
 10
-23.4067211151123
 20
0.0000000000000022
 30
45.22129440307617
 70
   192
  0
VERTEX
  5
53A
  8
0
 10
-24.44890213012695
 20
1.718164563179016
 30
41.79249954223633
 70
   192
  0
VERTEX
  5
53B
  8
0
 10
-24.83926773071289
 20
1.949759006500244
 30
43.24956512451172
 70
   192
  0
VERTEX
  5
53C
  8
0
 10
-25.31269645690918
 20
1.567879319190979
 30
42.59794616699219
 70
   192
  0
VERTEX
  5
53D
  8
0
 10
-25.75786209106445
 20
0.0000000000000025
 30
41.98522567749023
 70
   192
  0
VERTEX
  5
53E
  8
0
 10
-25.64431762695312
 20
0.8750741481781006
 30
42.14151000976562
 70
   192
  0
VERTEX
  5
53F
  8
0
 10
-25.39459037780762
 20
0.0000000000000025
 30
41.48522567749023
 70
   192
  0
VERTEX
  5
540
  8
0
 10
-24.31554794311523
 20
1.943439602851868
 30
43.97040176391602
 70
   192
  0
VERTEX
  5
541
  8
0
 10
-23.84822654724121
 20
1.549447774887085
 30
44.61361694335938
 70
   192
  0
VERTEX
  5
542
  8
0
 10
-25.19610404968262
 20
1.855999946594238
 30
44.71414184570312
 70
   192
  0
VERTEX
  5
543
  8
0
 10
-25.6616268157959
 20
1.811692357063293
 30
43.28141021728516
 70
   192
  0
VERTEX
  5
544
  8
0
 10
-25.96132469177246
 20
0.9304615259170532
 30
42.35903167724609
 70
   192
  0
VERTEX
  5
545
  8
0
 10
-26.05175590515137
 20
0.0000000000000025
 30
42.08071899414062
 70
   192
  0
VERTEX
  5
546
  8
0
 10
-24.87434577941895
 20
0.9698461294174194
 30
45.70441055297852
 70
   192
  0
VERTEX
  5
547
  8
0
 10
-24.80056190490723
 20
0.0000000000000022
 30
45.93149185180664
 70
   192
  0
VERTEX
  5
548
  8
0
 10
-23.84822654724121
 20
-1.549447774887085
 30
44.61361694335938
 70
   192
  0
VERTEX
  5
549
  8
0
 10
-24.87586784362793
 20
-0.9304615259170532
 30
45.69972610473633
 70
   192
  0
VERTEX
  5
54A
  8
0
 10
-23.52563095092773
 20
-0.8577597141265869
 30
45.05763244628906
 70
   192
  0
VERTEX
  5
54B
  8
0
 10
-25.17556762695312
 20
-1.811692357063293
 30
44.77734756469727
 70
   192
  0
VERTEX
  5
54C
  8
0
 10
-25.64108848571777
 20
-1.855999946594238
 30
43.34461975097656
 70
   192
  0
VERTEX
  5
54D
  8
0
 10
-26.34564781188965
 20
-2.0
 30
44.17621231079102
 70
   192
  0
VERTEX
  5
54E
  8
0
 10
-26.34564781188965
 20
-1.009989738464355
 30
45.91034698486328
 70
   192
  0
VERTEX
  5
54F
  8
0
 10
-25.96284675598145
 20
-0.9698461294174194
 30
42.35435104370117
 70
   192
  0
VERTEX
  5
550
  8
0
 10
-25.64431762695312
 20
-0.8750741481781006
 30
42.14151000976562
 70
   192
  0
VERTEX
  5
551
  8
0
 10
-25.31269645690918
 20
-1.567879319190979
 30
42.59794616699219
 70
   192
  0
VERTEX
  5
552
  8
0
 10
-24.31554794311523
 20
-1.943439602851868
 30
43.97040176391602
 70
   192
  0
VERTEX
  5
553
  8
0
 10
-24.83926773071289
 20
-1.949759006500244
 30
43.24956512451172
 70
   192
  0
VERTEX
  5
554
  8
0
 10
-26.34564781188965
 20
-0.9862242937088013
 30
42.44702529907227
 70
   192
  0
VERTEX
  5
555
  8
0
 10
-26.34564781188965
 20
-1.718164563179016
 30
43.17056655883789
 70
   192
  0
VERTEX
  5
556
  8
0
 10
-26.34564781188965
 20
-1.732784867286682
 30
45.17082214355469
 70
   192
  0
VERTEX
  5
557
  8
0
 10
-8.090642929077148
 20
1.90071165561676
 30
-3.287123680114746
 70
   192
  0
VERTEX
  5
558
  8
0
 10
-9.38805103302002
 20
1.902565836906433
 30
-3.287123680114746
 70
   192
  0
VERTEX
  5
559
  8
0
 10
-7.039419651031494
 20
1.168657302856445
 30
-3.287123680114746
 70
   192
  0
VERTEX
  5
55A
  8
0
 10
-6.641323566436768
 20
0.0000000000000025
 30
-3.287123680114746
 70
   192
  0
VERTEX
  5
55B
  8
0
 10
-10.44074821472168
 20
1.180510997772217
 30
-3.287123680114746
 70
   192
  0
VERTEX
  5
55C
  8
0
 10
-10.84717273712158
 20
0.0000000000000022
 30
-3.287123680114746
 70
   192
  0
VERTEX
  5
55D
  8
0
 10
-39.41754150390625
 20
-0.5130799412727356
 30
43.28546524047852
 70
   192
  0
VERTEX
  5
55E
  8
0
 10
-39.41754150390625
 20
-0.890746533870697
 30
43.66313171386719
 70
   192
  0
VERTEX
  5
55F
  8
0
 10
-38.75087738037109
 20
-1.464575886726379
 30
43.33259963989258
 70
   192
  0
VERTEX
  5
560
  8
0
 10
-37.71601867675781
 20
-1.010265946388245
 30
42.44210815429688
 70
   192
  0
VERTEX
  5
561
  8
0
 10
-38.75087738037109
 20
-0.843612015247345
 30
42.71163558959961
 70
   192
  0
VERTEX
  5
562
  8
0
 10
-37.71601867675781
 20
-1.730574727058411
 30
43.18133163452148
 70
   192
  0
VERTEX
  5
563
  8
0
 10
-39.71601867675781
 20
0.0
 30
44.17621231079102
 70
   192
  0
VERTEX
  5
564
  8
0
 10
-39.45299530029297
 20
0.000000000014378
 30
43.18815994262695
 70
   192
  0
VERTEX
  5
565
  8
0
 10
-37.71601867675781
 20
-2.0
 30
44.17621231079102
 70
   192
  0
VERTEX
  5
566
  8
0
 10
-38.70406723022461
 20
-1.736973524093628
 30
44.17621231079102
 70
   192
  0
VERTEX
  5
567
  8
0
 10
-38.6846809387207
 20
0.0000000000128295
 30
42.43120574951172
 70
   192
  0
VERTEX
  5
568
  8
0
 10
-39.46102523803711
 20
-0.968660295009613
 30
44.17621231079102
 70
   192
  0
VERTEX
  5
569
  8
0
 10
-39.41754150390625
 20
0.890746533870697
 30
43.66313171386719
 70
   192
  0
VERTEX
  5
56A
  8
0
 10
-39.41754150390625
 20
0.5130799412727356
 30
43.28546524047852
 70
   192
  0
VERTEX
  5
56B
  8
0
 10
-38.75087738037109
 20
0.843612015247345
 30
42.71163558959961
 70
   192
  0
VERTEX
  5
56C
  8
0
 10
-38.75087738037109
 20
1.464575886726379
 30
43.33259963989258
 70
   192
  0
VERTEX
  5
56D
  8
0
 10
-39.45299530029297
 20
0.9880486726760864
 30
44.17621231079102
 70
   192
  0
VERTEX
  5
56E
  8
0
 10
-38.6846809387207
 20
1.745004415512085
 30
44.17621231079102
 70
   192
  0
VERTEX
  5
56F
  8
0
 10
-39.41754150390625
 20
0.5130799412727356
 30
45.06695556640625
 70
   192
  0
VERTEX
  5
570
  8
0
 10
-39.41754150390625
 20
0.890746533870697
 30
44.68928909301758
 70
   192
  0
VERTEX
  5
571
  8
0
 10
-38.75087738037109
 20
1.464575886726379
 30
45.01982116699219
 70
   192
  0
VERTEX
  5
572
  8
0
 10
-38.75087738037109
 20
0.843612015247345
 30
45.64078521728516
 70
   192
  0
VERTEX
  5
573
  8
0
 10
-39.45299530029297
 20
0.0000000000142747
 30
45.16426086425781
 70
   192
  0
VERTEX
  5
574
  8
0
 10
-38.6846809387207
 20
0.0000000000123996
 30
45.92121505737305
 70
   192
  0
VERTEX
  5
575
  8
0
 10
-38.75087738037109
 20
-0.843612015247345
 30
45.64078521728516
 70
   192
  0
VERTEX
  5
576
  8
0
 10
-39.41754150390625
 20
-0.890746533870697
 30
44.68928909301758
 70
   192
  0
VERTEX
  5
577
  8
0
 10
-39.41754150390625
 20
-0.5130799412727356
 30
45.06695556640625
 70
   192
  0
VERTEX
  5
578
  8
0
 10
-38.75087738037109
 20
-1.464575886726379
 30
45.01982116699219
 70
   192
  0
VERTEX
  5
579
  8
0
 10
-37.71601867675781
 20
-0.9862242937088013
 30
45.9053955078125
 70
   192
  0
VERTEX
  5
57A
  8
0
 10
-37.71601867675781
 20
-1.718164563179016
 30
45.18185424804688
 70
   192
  0
VERTEX
  5
57B
  8
0
 10
-21.84321784973145
 20
-1.009989738464355
 30
42.63913726806641
 70
   192
  0
VERTEX
  5
57C
  8
0
 10
-24.44890213012695
 20
-1.718164563179016
 30
41.79249954223633
 70
   192
  0
VERTEX
  5
57D
  8
0
 10
-23.49247741699219
 20
-2.0
 30
42.1032600402832
 70
   192
  0
VERTEX
  5
57E
  8
0
 10
-9.397852897644043
 20
-1.90071165561676
 30
-3.287123680114746
 70
   192
  0
VERTEX
  5
57F
  8
0
 10
-22.54654693603516
 20
-1.732784867286682
 30
42.41061401367188
 70
   192
  0
VERTEX
  5
580
  8
0
 10
-7.047747611999512
 20
-1.180510997772217
 30
-3.287123680114746
 70
   192
  0
VERTEX
  5
581
  8
0
 10
-8.100444793701172
 20
-1.902565836906433
 30
-3.287123680114746
 70
   192
  0
VERTEX
  5
582
  8
0
 10
-25.13703155517578
 20
-0.9862242937088013
 30
41.56891250610352
 70
   192
  0
VERTEX
  5
583
  8
0
 10
-10.44907665252686
 20
-1.168657302856445
 30
-3.287123680114746
 70
   192
  0
VERTEX
  5
584
  8
0
 10
-23.28233528137207
 20
-1.811692357063293
 30
43.40183639526367
 70
   192
  0
VERTEX
  5
585
  8
0
 10
-22.49771308898926
 20
-0.9304615259170532
 30
43.97189712524414
 70
   192
  0
VERTEX
  5
586
  8
0
 10
-24.50108909606934
 20
-1.855999946594238
 30
42.51636123657227
 70
   192
  0
VERTEX
  5
587
  8
0
 10
-25.34346199035645
 20
-0.9698461294174194
 30
41.90433883666992
 70
   192
  0
VERTEX
  5
588
  8
0
 62
     9
 10
0.0
 20
0.0
 30
0.0
 70
   128
 71
     3
 72
     2
 73
     1
  0
VERTEX
  5
589
  8
0
 62
     9
 10
0.0
 20
0.0
 30
0.0
 70
   128
 71
     6
 72
     5
 73
     4
  0
VERTEX
  5
58A
  8
0
 62
     9
 10
0.0
 20
0.0
 30
0.0
 70
   128
 71
     7
 72
     2
 73
     3
  0
VERTEX
  5
58B
  8
0
 62
     9
 10
0.0
 20
0.0
 30
0.0
 70
   128
 71
     8
 72
     7
 73
     3
  0
VERTEX
  5
58C
  8
0
 62
     9
 10
0.0
 20
0.0
 30
0.0
 70
   128
 71
     2
 72
     9
 73
     1
  0
VERTEX
  5
58D
  8
0
 62
     9
 10
0.0
 20
0.0
 30
0.0
 70
   128
 71
    10
 72
     9
 73
     4
  0
VERTEX
  5
58E
  8
0
 62
     9
 10
0.0
 20
0.0
 30
0.0
 70
   128
 71
     9
 72
    10
 73
     1
  0
VERTEX
  5
58F
  8
0
 62
     9
 10
0.0
 20
0.0
 30
0.0
 70
   128
 71
    12
 72
     6
 73
    11
  0
VERTEX
  5
590
  8
0
 62
     9
 10
0.0
 20
0.0
 30
0.0
 70
   128
 71
    14
 72
    11
 73
    13
  0
VERTEX
  5
591
  8
0
 62
     9
 10
0.0
 20
0.0
 30
0.0
 70
   128
 71
     5
 72
     6
 73
    12
  0
VERTEX
  5
592
  8
0
 62
     9
 10
0.0
 20
0.0
 30
0.0
 70
   128
 71
    14
 72
    12
 73
    11
  0
VERTEX
  5
593
  8
0
 62
     9
 10
0.0
 20
0.0
 30
0.0
 70
   128
 71
     5
 72
    10
 73
     4
  0
VERTEX
  5
594
  8
0
 62
     9
 10
0.0
 20
0.0
 30
0.0
 70
   128
 71
    17
 72
    16
 73
    15
  0
VERTEX
  5
595
  8
0
 62
     9
 10
0.0
 20
0.0
 30
0.0
 70
   128
 71
    20
 72
    19
 73
    18
  0
VERTEX
  5
596
  8
0
 62
     9
 10
0.0
 20
0.0
 30
0.0
 70
   128
 71
    15
 72
    22
 73
    21
  0
VERTEX
  5
597
  8
0
 62
     9
 10
0.0
 20
0.0
 30
0.0
 70
   128
 71
    17
 72
    15
 73
    21
  0
VERTEX
  5
598
  8
0
 62
     9
 10
0.0
 20
0.0
 30
0.0
 70
   128
 71
    24
 72
    22
 73
    23
  0
VERTEX
  5
599
  8
0
 62
     9
 10
0.0
 20
0.0
 30
0.0
 70
   128
 71
    23
 72
    26
 73
    25
  0
VERTEX
  5
59A
  8
0
 62
     9
 10
0.0
 20
0.0
 30
0.0
 70
   128
 71
    23
 72
    25
 73
    24
  0
VERTEX
  5
59B
  8
0
 62
     9
 10
0.0
 20
0.0
 30
0.0
 70
   128
 71
    27
 72
    25
 73
    26
  0
VERTEX
  5
59C
  8
0
 62
     9
 10
0.0
 20
0.0
 30
0.0
 70
   128
 71
    17
 72
    28
 73
    16
  0
VERTEX
  5
59D
  8
0
 62
     9
 10
0.0
 20
0.0
 30
0.0
 70
   128
 71
    16
 72
    29
 73
    15
  0
VERTEX
  5
59E
  8
0
 62
     9
 10
0.0
 20
0.0
 30
0.0
 70
   128
 71
    29
 72
    16
 73
    30
  0
VERTEX
  5
59F
  8
0
 62
     9
 10
0.0
 20
0.0
 30
0.0
 70
   128
 71
    28
 72
    19
 73
    16
  0
VERTEX
  5
5A0
  8
0
 62
     9
 10
0.0
 20
0.0
 30
0.0
 70
   128
 71
    20
 72
    31
 73
    19
  0
VERTEX
  5
5A1
  8
0
 62
     9
 10
0.0
 20
0.0
 30
0.0
 70
   128
 71
    32
 72
    19
 73
    31
  0
VERTEX
  5
5A2
  8
0
 62
     9
 10
0.0
 20
0.0
 30
0.0
 70
   128
 71
    33
 72
    20
 73
    18
  0
VERTEX
  5
5A3
  8
0
 62
     9
 10
0.0
 20
0.0
 30
0.0
 70
   128
 71
    19
 72
    32
 73
    30
  0
VERTEX
  5
5A4
  8
0
 62
     9
 10
0.0
 20
0.0
 30
0.0
 70
   128
 71
    18
 72
    19
 73
    28
  0
VERTEX
  5
5A5
  8
0
 62
     9
 10
0.0
 20
0.0
 30
0.0
 70
   128
 71
    16
 72
    19
 73
    30
  0
VERTEX
  5
5A6
  8
0
 62
     9
 10
0.0
 20
0.0
 30
0.0
 70
   128
 71
    34
 72
    15
 73
    29
  0
VERTEX
  5
5A7
  8
0
 62
     9
 10
0.0
 20
0.0
 30
0.0
 70
   128
 71
    35
 72
    15
 73
    34
  0
VERTEX
  5
5A8
  8
0
 62
     9
 10
0.0
 20
0.0
 30
0.0
 70
   128
 71
    26
 72
    23
 73
    35
  0
VERTEX
  5
5A9
  8
0
 62
     9
 10
0.0
 20
0.0
 30
0.0
 70
   128
 71
    23
 72
    15
 73
    35
  0
VERTEX
  5
5AA
  8
0
 62
     9
 10
0.0
 20
0.0
 30
0.0
 70
   128
 71
    15
 72
    23
 73
    22
  0
VERTEX
  5
5AB
  8
0
 62
     9
 10
0.0
 20
0.0
 30
0.0
 70
   128
 71
    34
 72
    37
 73
    36
  0
VERTEX
  5
5AC
  8
0
 62
     9
 10
0.0
 20
0.0
 30
0.0
 70
   128
 71
    39
 72
    38
 73
    32
  0
VERTEX
  5
5AD
  8
0
 62
     9
 10
0.0
 20
0.0
 30
0.0
 70
   128
 71
    26
 72
    35
 73
    40
  0
VERTEX
  5
5AE
  8
0
 62
     9
 10
0.0
 20
0.0
 30
0.0
 70
   128
 71
    35
 72
    36
 73
    40
  0
VERTEX
  5
5AF
  8
0
 62
     9
 10
0.0
 20
0.0
 30
0.0
 70
   128
 71
    27
 72
    40
 73
    41
  0
VERTEX
  5
5B0
  8
0
 62
     9
 10
0.0
 20
0.0
 30
0.0
 70
   128
 71
    26
 72
    40
 73
    27
  0
VERTEX
  5
5B1
  8
0
 62
     9
 10
0.0
 20
0.0
 30
0.0
 70
   128
 71
     7
 72
    41
 73
     2
  0
VERTEX
  5
5B2
  8
0
 62
     9
 10
0.0
 20
0.0
 30
0.0
 70
   128
 71
    34
 72
    29
 73
    37
  0
VERTEX
  5
5B3
  8
0
 62
     9
 10
0.0
 20
0.0
 30
0.0
 70
   128
 71
    35
 72
    34
 73
    36
  0
VERTEX
  5
5B4
  8
0
 62
     9
 10
0.0
 20
0.0
 30
0.0
 70
   128
 71
    37
 72
    30
 73
    38
  0
VERTEX
  5
5B5
  8
0
 62
     9
 10
0.0
 20
0.0
 30
0.0
 70
   128
 71
     9
 72
    36
 73
     4
  0
VERTEX
  5
5B6
  8
0
 62
     9
 10
0.0
 20
0.0
 30
0.0
 70
   128
 71
    39
 72
    13
 73
    38
  0
VERTEX
  5
5B7
  8
0
 62
     9
 10
0.0
 20
0.0
 30
0.0
 70
   128
 71
    30
 72
    37
 73
    29
  0
VERTEX
  5
5B8
  8
0
 62
     9
 10
0.0
 20
0.0
 30
0.0
 70
   128
 71
    11
 72
    38
 73
    13
  0
VERTEX
  5
5B9
  8
0
 62
     9
 10
0.0
 20
0.0
 30
0.0
 70
   128
 71
    31
 72
    39
 73
    32
  0
VERTEX
  5
5BA
  8
0
 62
     9
 10
0.0
 20
0.0
 30
0.0
 70
   128
 71
    11
 72
     6
 73
    37
  0
VERTEX
  5
5BB
  8
0
 62
     9
 10
0.0
 20
0.0
 30
0.0
 70
   128
 71
    32
 72
    38
 73
    30
  0
VERTEX
  5
5BC
  8
0
 62
     9
 10
0.0
 20
0.0
 30
0.0
 70
   128
 71
    37
 72
    38
 73
    11
  0
VERTEX
  5
5BD
  8
0
 62
     9
 10
0.0
 20
0.0
 30
0.0
 70
   128
 71
    37
 72
     6
 73
     4
  0
VERTEX
  5
5BE
  8
0
 62
     9
 10
0.0
 20
0.0
 30
0.0
 70
   128
 71
    36
 72
    37
 73
     4
  0
VERTEX
  5
5BF
  8
0
 62
     9
 10
0.0
 20
0.0
 30
0.0
 70
   128
 71
     2
 72
    40
 73
     9
  0
VERTEX
  5
5C0
  8
0
 62
     9
 10
0.0
 20
0.0
 30
0.0
 70
   128
 71
    40
 72
    36
 73
     9
  0
VERTEX
  5
5C1
  8
0
 62
     9
 10
0.0
 20
0.0
 30
0.0
 70
   128
 71
    40
 72
     2
 73
    41
  0
VERTEX
  5
5C2
  8
0
 62
     9
 10
0.0
 20
0.0
 30
0.0
 70
   128
 71
    44
 72
    43
 73
    42
  0
VERTEX
  5
5C3
  8
0
 62
     9
 10
0.0
 20
0.0
 30
0.0
 70
   128
 71
    43
 72
    45
 73
    42
  0
VERTEX
  5
5C4
  8
0
 62
     9
 10
0.0
 20
0.0
 30
0.0
 70
   128
 71
    47
 72
    46
 73
    45
  0
VERTEX
  5
5C5
  8
0
 62
     9
 10
0.0
 20
0.0
 30
0.0
 70
   128
 71
     7
 72
    48
 73
    41
  0
VERTEX
  5
5C6
  8
0
 62
     9
 10
0.0
 20
0.0
 30
0.0
 70
   128
 71
    50
 72
    49
 73
    39
  0
VERTEX
  5
5C7
  8
0
 62
     9
 10
0.0
 20
0.0
 30
0.0
 70
   128
 71
    46
 72
    49
 73
    51
  0
VERTEX
  5
5C8
  8
0
 62
     9
 10
0.0
 20
0.0
 30
0.0
 70
   128
 71
    49
 72
    13
 73
    39
  0
VERTEX
  5
5C9
  8
0
 62
     9
 10
0.0
 20
0.0
 30
0.0
 70
   128
 71
    53
 72
    52
 73
    46
  0
VERTEX
  5
5CA
  8
0
 62
     9
 10
0.0
 20
0.0
 30
0.0
 70
   128
 71
    31
 72
    50
 73
    39
  0
VERTEX
  5
5CB
  8
0
 62
     9
 10
0.0
 20
0.0
 30
0.0
 70
   128
 71
    54
 72
    13
 73
    49
  0
VERTEX
  5
5CC
  8
0
 62
     9
 10
0.0
 20
0.0
 30
0.0
 70
   128
 71
    46
 72
    47
 73
    55
  0
VERTEX
  5
5CD
  8
0
 62
     9
 10
0.0
 20
0.0
 30
0.0
 70
   128
 71
    46
 72
    52
 73
    45
  0
VERTEX
  5
5CE
  8
0
 62
     9
 10
0.0
 20
0.0
 30
0.0
 70
   128
 71
    41
 72
    48
 73
    43
  0
VERTEX
  5
5CF
  8
0
 62
     9
 10
0.0
 20
0.0
 30
0.0
 70
   128
 71
    45
 72
    43
 73
    56
  0
VERTEX
  5
5D0
  8
0
 62
     9
 10
0.0
 20
0.0
 30
0.0
 70
   128
 71
    43
 72
    27
 73
    41
  0
VERTEX
  5
5D1
  8
0
 62
     9
 10
0.0
 20
0.0
 30
0.0
 70
   128
 71
    44
 72
    27
 73
    43
  0
VERTEX
  5
5D2
  8
0
 62
     9
 10
0.0
 20
0.0
 30
0.0
 70
   128
 71
    56
 72
    43
 73
    48
  0
VERTEX
  5
5D3
  8
0
 62
     9
 10
0.0
 20
0.0
 30
0.0
 70
   128
 71
    45
 72
    56
 73
    47
  0
VERTEX
  5
5D4
  8
0
 62
     9
 10
0.0
 20
0.0
 30
0.0
 70
   128
 71
    45
 72
    52
 73
    42
  0
VERTEX
  5
5D5
  8
0
 62
     9
 10
0.0
 20
0.0
 30
0.0
 70
   128
 71
    46
 72
    55
 73
    54
  0
VERTEX
  5
5D6
  8
0
 62
     9
 10
0.0
 20
0.0
 30
0.0
 70
   128
 71
    53
 72
    46
 73
    51
  0
VERTEX
  5
5D7
  8
0
 62
     9
 10
0.0
 20
0.0
 30
0.0
 70
   128
 71
    54
 72
    49
 73
    46
  0
VERTEX
  5
5D8
  8
0
 62
     9
 10
0.0
 20
0.0
 30
0.0
 70
   128
 71
    49
 72
    50
 73
    51
  0
VERTEX
  5
5D9
  8
0
 62
     9
 10
0.0
 20
0.0
 30
0.0
 70
   128
 71
    58
 72
    17
 73
    57
  0
VERTEX
  5
5DA
  8
0
 62
     9
 10
0.0
 20
0.0
 30
0.0
 70
   128
 71
    59
 72
    57
 73
    21
  0
VERTEX
  5
5DB
  8
0
 62
     9
 10
0.0
 20
0.0
 30
0.0
 70
   128
 71
    17
 72
    21
 73
    57
  0
VERTEX
  5
5DC
  8
0
 62
     9
 10
0.0
 20
0.0
 30
0.0
 70
   128
 71
    22
 72
    60
 73
    59
  0
VERTEX
  5
5DD
  8
0
 62
     9
 10
0.0
 20
0.0
 30
0.0
 70
   128
 71
    59
 72
    21
 73
    22
  0
VERTEX
  5
5DE
  8
0
 62
     9
 10
0.0
 20
0.0
 30
0.0
 70
   128
 71
    24
 72
    60
 73
    22
  0
VERTEX
  5
5DF
  8
0
 62
     9
 10
0.0
 20
0.0
 30
0.0
 70
   128
 71
    28
 72
    17
 73
    58
  0
VERTEX
  5
5E0
  8
0
 62
     9
 10
0.0
 20
0.0
 30
0.0
 70
   128
 71
    61
 72
    18
 73
    28
  0
VERTEX
  5
5E1
  8
0
 62
     9
 10
0.0
 20
0.0
 30
0.0
 70
   128
 71
    28
 72
    58
 73
    61
  0
VERTEX
  5
5E2
  8
0
 62
     9
 10
0.0
 20
0.0
 30
0.0
 70
   128
 71
    62
 72
    18
 73
    61
  0
VERTEX
  5
5E3
  8
0
 62
     9
 10
0.0
 20
0.0
 30
0.0
 70
   128
 71
    62
 72
    33
 73
    18
  0
VERTEX
  5
5E4
  8
0
 62
     9
 10
0.0
 20
0.0
 30
0.0
 70
   128
 71
    65
 72
    64
 73
    63
  0
VERTEX
  5
5E5
  8
0
 62
     9
 10
0.0
 20
0.0
 30
0.0
 70
   128
 71
    68
 72
    67
 73
    66
  0
VERTEX
  5
5E6
  8
0
 62
     9
 10
0.0
 20
0.0
 30
0.0
 70
   128
 71
    70
 72
    63
 73
    69
  0
VERTEX
  5
5E7
  8
0
 62
     9
 10
0.0
 20
0.0
 30
0.0
 70
   128
 71
    72
 72
    65
 73
    71
  0
VERTEX
  5
5E8
  8
0
 62
     9
 10
0.0
 20
0.0
 30
0.0
 70
   128
 71
    64
 72
    69
 73
    63
  0
VERTEX
  5
5E9
  8
0
 62
     9
 10
0.0
 20
0.0
 30
0.0
 70
   128
 71
    66
 72
    73
 73
    14
  0
VERTEX
  5
5EA
  8
0
 62
     9
 10
0.0
 20
0.0
 30
0.0
 70
   128
 71
    67
 72
    68
 73
    65
  0
VERTEX
  5
5EB
  8
0
 62
     9
 10
0.0
 20
0.0
 30
0.0
 70
   128
 71
    70
 72
    73
 73
    67
  0
VERTEX
  5
5EC
  8
0
 62
     9
 10
0.0
 20
0.0
 30
0.0
 70
   128
 71
    65
 72
    63
 73
    67
  0
VERTEX
  5
5ED
  8
0
 62
     9
 10
0.0
 20
0.0
 30
0.0
 70
   128
 71
    74
 72
    64
 73
    72
  0
VERTEX
  5
5EE
  8
0
 62
     9
 10
0.0
 20
0.0
 30
0.0
 70
   128
 71
    64
 72
    74
 73
    69
  0
VERTEX
  5
5EF
  8
0
 62
     9
 10
0.0
 20
0.0
 30
0.0
 70
   128
 71
    67
 72
    63
 73
    70
  0
VERTEX
  5
5F0
  8
0
 62
     9
 10
0.0
 20
0.0
 30
0.0
 70
   128
 71
    66
 72
    67
 73
    73
  0
VERTEX
  5
5F1
  8
0
 62
     9
 10
0.0
 20
0.0
 30
0.0
 70
   128
 71
    65
 72
    68
 73
    71
  0
VERTEX
  5
5F2
  8
0
 62
     9
 10
0.0
 20
0.0
 30
0.0
 70
   128
 71
    65
 72
    72
 73
    64
  0
VERTEX
  5
5F3
  8
0
 62
     9
 10
0.0
 20
0.0
 30
0.0
 70
   128
 71
    77
 72
    76
 73
    75
  0
VERTEX
  5
5F4
  8
0
 62
     9
 10
0.0
 20
0.0
 30
0.0
 70
   128
 71
    12
 72
    78
 73
     5
  0
VERTEX
  5
5F5
  8
0
 62
     9
 10
0.0
 20
0.0
 30
0.0
 70
   128
 71
    79
 72
    75
 73
    69
  0
VERTEX
  5
5F6
  8
0
 62
     9
 10
0.0
 20
0.0
 30
0.0
 70
   128
 71
    73
 72
    77
 73
    14
  0
VERTEX
  5
5F7
  8
0
 62
     9
 10
0.0
 20
0.0
 30
0.0
 70
   128
 71
    76
 72
    69
 73
    75
  0
VERTEX
  5
5F8
  8
0
 62
     9
 10
0.0
 20
0.0
 30
0.0
 70
   128
 71
     5
 72
    80
 73
    10
  0
VERTEX
  5
5F9
  8
0
 62
     9
 10
0.0
 20
0.0
 30
0.0
 70
   128
 71
    78
 72
    12
 73
    77
  0
VERTEX
  5
5FA
  8
0
 62
     9
 10
0.0
 20
0.0
 30
0.0
 70
   128
 71
    79
 72
    80
 73
    78
  0
VERTEX
  5
5FB
  8
0
 62
     9
 10
0.0
 20
0.0
 30
0.0
 70
   128
 71
    77
 72
    75
 73
    78
  0
VERTEX
  5
5FC
  8
0
 62
     9
 10
0.0
 20
0.0
 30
0.0
 70
   128
 71
    70
 72
    76
 73
    73
  0
VERTEX
  5
5FD
  8
0
 62
     9
 10
0.0
 20
0.0
 30
0.0
 70
   128
 71
    76
 72
    70
 73
    69
  0
VERTEX
  5
5FE
  8
0
 62
     9
 10
0.0
 20
0.0
 30
0.0
 70
   128
 71
    78
 72
    75
 73
    79
  0
VERTEX
  5
5FF
  8
0
 62
     9
 10
0.0
 20
0.0
 30
0.0
 70
   128
 71
     5
 72
    78
 73
    80
  0
VERTEX
  5
600
  8
0
 62
     9
 10
0.0
 20
0.0
 30
0.0
 70
   128
 71
    77
 72
    12
 73
    14
  0
VERTEX
  5
601
  8
0
 62
     9
 10
0.0
 20
0.0
 30
0.0
 70
   128
 71
    77
 72
    73
 73
    76
  0
VERTEX
  5
602
  8
0
 62
     9
 10
0.0
 20
0.0
 30
0.0
 70
   128
 71
    83
 72
    82
 73
    81
  0
VERTEX
  5
603
  8
0
 62
     9
 10
0.0
 20
0.0
 30
0.0
 70
   128
 71
     1
 72
    84
 73
     3
  0
VERTEX
  5
604
  8
0
 62
     9
 10
0.0
 20
0.0
 30
0.0
 70
   128
 71
    85
 72
    81
 73
    69
  0
VERTEX
  5
605
  8
0
 62
     9
 10
0.0
 20
0.0
 30
0.0
 70
   128
 71
    80
 72
    83
 73
    10
  0
VERTEX
  5
606
  8
0
 62
     9
 10
0.0
 20
0.0
 30
0.0
 70
   128
 71
    82
 72
    69
 73
    81
  0
VERTEX
  5
607
  8
0
 62
     9
 10
0.0
 20
0.0
 30
0.0
 70
   128
 71
     3
 72
    86
 73
     8
  0
VERTEX
  5
608
  8
0
 62
     9
 10
0.0
 20
0.0
 30
0.0
 70
   128
 71
    84
 72
     1
 73
    83
  0
VERTEX
  5
609
  8
0
 62
     9
 10
0.0
 20
0.0
 30
0.0
 70
   128
 71
    85
 72
    86
 73
    84
  0
VERTEX
  5
60A
  8
0
 62
     9
 10
0.0
 20
0.0
 30
0.0
 70
   128
 71
    83
 72
    81
 73
    84
  0
VERTEX
  5
60B
  8
0
 62
     9
 10
0.0
 20
0.0
 30
0.0
 70
   128
 71
    79
 72
    82
 73
    80
  0
VERTEX
  5
60C
  8
0
 62
     9
 10
0.0
 20
0.0
 30
0.0
 70
   128
 71
    82
 72
    79
 73
    69
  0
VERTEX
  5
60D
  8
0
 62
     9
 10
0.0
 20
0.0
 30
0.0
 70
   128
 71
    84
 72
    81
 73
    85
  0
VERTEX
  5
60E
  8
0
 62
     9
 10
0.0
 20
0.0
 30
0.0
 70
   128
 71
     3
 72
    84
 73
    86
  0
VERTEX
  5
60F
  8
0
 62
     9
 10
0.0
 20
0.0
 30
0.0
 70
   128
 71
    83
 72
     1
 73
    10
  0
VERTEX
  5
610
  8
0
 62
     9
 10
0.0
 20
0.0
 30
0.0
 70
   128
 71
    83
 72
    80
 73
    82
  0
VERTEX
  5
611
  8
0
 62
     9
 10
0.0
 20
0.0
 30
0.0
 70
   128
 71
    89
 72
    88
 73
    87
  0
VERTEX
  5
612
  8
0
 62
     9
 10
0.0
 20
0.0
 30
0.0
 70
   128
 71
    91
 72
    87
 73
    90
  0
VERTEX
  5
613
  8
0
 62
     9
 10
0.0
 20
0.0
 30
0.0
 70
   128
 71
     8
 72
    86
 73
    87
  0
VERTEX
  5
614
  8
0
 62
     9
 10
0.0
 20
0.0
 30
0.0
 70
   128
 71
    71
 72
    92
 73
    72
  0
VERTEX
  5
615
  8
0
 62
     9
 10
0.0
 20
0.0
 30
0.0
 70
   128
 71
    74
 72
    88
 73
    69
  0
VERTEX
  5
616
  8
0
 62
     9
 10
0.0
 20
0.0
 30
0.0
 70
   128
 71
    92
 72
    91
 73
    90
  0
VERTEX
  5
617
  8
0
 62
     9
 10
0.0
 20
0.0
 30
0.0
 70
   128
 71
    88
 72
    89
 73
    69
  0
VERTEX
  5
618
  8
0
 62
     9
 10
0.0
 20
0.0
 30
0.0
 70
   128
 71
    74
 72
    72
 73
    90
  0
VERTEX
  5
619
  8
0
 62
     9
 10
0.0
 20
0.0
 30
0.0
 70
   128
 71
    87
 72
    88
 73
    90
  0
VERTEX
  5
61A
  8
0
 62
     9
 10
0.0
 20
0.0
 30
0.0
 70
   128
 71
    85
 72
    89
 73
    86
  0
VERTEX
  5
61B
  8
0
 62
     9
 10
0.0
 20
0.0
 30
0.0
 70
   128
 71
    89
 72
    85
 73
    69
  0
VERTEX
  5
61C
  8
0
 62
     9
 10
0.0
 20
0.0
 30
0.0
 70
   128
 71
    90
 72
    88
 73
    74
  0
VERTEX
  5
61D
  8
0
 62
     9
 10
0.0
 20
0.0
 30
0.0
 70
   128
 71
    92
 72
    90
 73
    72
  0
VERTEX
  5
61E
  8
0
 62
     9
 10
0.0
 20
0.0
 30
0.0
 70
   128
 71
    87
 72
    91
 73
     8
  0
VERTEX
  5
61F
  8
0
 62
     9
 10
0.0
 20
0.0
 30
0.0
 70
   128
 71
    87
 72
    86
 73
    89
  0
VERTEX
  5
620
  8
0
 62
     9
 10
0.0
 20
0.0
 30
0.0
 70
   128
 71
    60
 72
    24
 73
    93
  0
VERTEX
  5
621
  8
0
 62
     9
 10
0.0
 20
0.0
 30
0.0
 70
   128
 71
    96
 72
    95
 73
    94
  0
VERTEX
  5
622
  8
0
 62
     9
 10
0.0
 20
0.0
 30
0.0
 70
   128
 71
    99
 72
    98
 73
    97
  0
VERTEX
  5
623
  8
0
 62
     9
 10
0.0
 20
0.0
 30
0.0
 70
   128
 71
    62
 72
   101
 73
   100
  0
VERTEX
  5
624
  8
0
 62
     9
 10
0.0
 20
0.0
 30
0.0
 70
   128
 71
    94
 72
   100
 73
   101
  0
VERTEX
  5
625
  8
0
 62
     9
 10
0.0
 20
0.0
 30
0.0
 70
   128
 71
    62
 72
   100
 73
    33
  0
VERTEX
  5
626
  8
0
 62
     9
 10
0.0
 20
0.0
 30
0.0
 70
   128
 71
    96
 72
    94
 73
   101
  0
VERTEX
  5
627
  8
0
 62
     9
 10
0.0
 20
0.0
 30
0.0
 70
   128
 71
    98
 72
    93
 73
    97
  0
VERTEX
  5
628
  8
0
 62
     9
 10
0.0
 20
0.0
 30
0.0
 70
   128
 71
    99
 72
    97
 73
    95
  0
VERTEX
  5
629
  8
0
 62
     9
 10
0.0
 20
0.0
 30
0.0
 70
   128
 71
    95
 72
    96
 73
    99
  0
VERTEX
  5
62A
  8
0
 62
     9
 10
0.0
 20
0.0
 30
0.0
 70
   128
 71
    98
 72
    60
 73
    93
  0
VERTEX
  5
62B
  8
0
 62
     9
 10
0.0
 20
0.0
 30
0.0
 70
   128
 71
    42
 72
    52
 73
   102
  0
VERTEX
  5
62C
  8
0
 62
     9
 10
0.0
 20
0.0
 30
0.0
 70
   128
 71
   103
 72
   102
 73
    93
  0
VERTEX
  5
62D
  8
0
 62
     9
 10
0.0
 20
0.0
 30
0.0
 70
   128
 71
    51
 72
   104
 73
    53
  0
VERTEX
  5
62E
  8
0
 62
     9
 10
0.0
 20
0.0
 30
0.0
 70
   128
 71
    27
 72
    44
 73
    25
  0
VERTEX
  5
62F
  8
0
 62
     9
 10
0.0
 20
0.0
 30
0.0
 70
   128
 71
    33
 72
   100
 73
    20
  0
VERTEX
  5
630
  8
0
 62
     9
 10
0.0
 20
0.0
 30
0.0
 70
   128
 71
    94
 72
    95
 73
   104
  0
VERTEX
  5
631
  8
0
 62
     9
 10
0.0
 20
0.0
 30
0.0
 70
   128
 71
    20
 72
   105
 73
    31
  0
VERTEX
  5
632
  8
0
 62
     9
 10
0.0
 20
0.0
 30
0.0
 70
   128
 71
   105
 72
    20
 73
   100
  0
VERTEX
  5
633
  8
0
 62
     9
 10
0.0
 20
0.0
 30
0.0
 70
   128
 71
    95
 72
   102
 73
   104
  0
VERTEX
  5
634
  8
0
 62
     9
 10
0.0
 20
0.0
 30
0.0
 70
   128
 71
   105
 72
    94
 73
   104
  0
VERTEX
  5
635
  8
0
 62
     9
 10
0.0
 20
0.0
 30
0.0
 70
   128
 71
    94
 72
   105
 73
   100
  0
VERTEX
  5
636
  8
0
 62
     9
 10
0.0
 20
0.0
 30
0.0
 70
   128
 71
    42
 72
   102
 73
   103
  0
VERTEX
  5
637
  8
0
 62
     9
 10
0.0
 20
0.0
 30
0.0
 70
   128
 71
   102
 72
    95
 73
    97
  0
VERTEX
  5
638
  8
0
 62
     9
 10
0.0
 20
0.0
 30
0.0
 70
   128
 71
    24
 72
    25
 73
   103
  0
VERTEX
  5
639
  8
0
 62
     9
 10
0.0
 20
0.0
 30
0.0
 70
   128
 71
    25
 72
    44
 73
   103
  0
VERTEX
  5
63A
  8
0
 62
     9
 10
0.0
 20
0.0
 30
0.0
 70
   128
 71
    93
 72
    24
 73
   103
  0
VERTEX
  5
63B
  8
0
 62
     9
 10
0.0
 20
0.0
 30
0.0
 70
   128
 71
    42
 72
   103
 73
    44
  0
VERTEX
  5
63C
  8
0
 62
     9
 10
0.0
 20
0.0
 30
0.0
 70
   128
 71
    52
 72
    53
 73
   102
  0
VERTEX
  5
63D
  8
0
 62
     9
 10
0.0
 20
0.0
 30
0.0
 70
   128
 71
   102
 72
    97
 73
    93
  0
VERTEX
  5
63E
  8
0
 62
     9
 10
0.0
 20
0.0
 30
0.0
 70
   128
 71
   104
 72
   102
 73
    53
  0
VERTEX
  5
63F
  8
0
 62
     9
 10
0.0
 20
0.0
 30
0.0
 70
   128
 71
    51
 72
    50
 73
   105
  0
VERTEX
  5
640
  8
0
 62
     9
 10
0.0
 20
0.0
 30
0.0
 70
   128
 71
   105
 72
   104
 73
    51
  0
VERTEX
  5
641
  8
0
 62
     9
 10
0.0
 20
0.0
 30
0.0
 70
   128
 71
    50
 72
    31
 73
   105
  0
VERTEX
  5
642
  8
0
 62
     9
 10
0.0
 20
0.0
 30
0.0
 70
   128
 71
     8
 72
    91
 73
    48
  0
VERTEX
  5
643
  8
0
 62
     9
 10
0.0
 20
0.0
 30
0.0
 70
   128
 71
    55
 72
    71
 73
    68
  0
VERTEX
  5
644
  8
0
 62
     9
 10
0.0
 20
0.0
 30
0.0
 70
   128
 71
    47
 72
    56
 73
    92
  0
VERTEX
  5
645
  8
0
 62
     9
 10
0.0
 20
0.0
 30
0.0
 70
   128
 71
    13
 72
    54
 73
    66
  0
VERTEX
  5
646
  8
0
 62
     9
 10
0.0
 20
0.0
 30
0.0
 70
   128
 71
    68
 72
    66
 73
    54
  0
VERTEX
  5
647
  8
0
 62
     9
 10
0.0
 20
0.0
 30
0.0
 70
   128
 71
    13
 72
    66
 73
    14
  0
VERTEX
  5
648
  8
0
 62
     9
 10
0.0
 20
0.0
 30
0.0
 70
   128
 71
    71
 72
    55
 73
    47
  0
VERTEX
  5
649
  8
0
 62
     9
 10
0.0
 20
0.0
 30
0.0
 70
   128
 71
    55
 72
    68
 73
    54
  0
VERTEX
  5
64A
  8
0
 62
     9
 10
0.0
 20
0.0
 30
0.0
 70
   128
 71
    56
 72
    91
 73
    92
  0
VERTEX
  5
64B
  8
0
 62
     9
 10
0.0
 20
0.0
 30
0.0
 70
   128
 71
    47
 72
    92
 73
    71
  0
VERTEX
  5
64C
  8
0
 62
     9
 10
0.0
 20
0.0
 30
0.0
 70
   128
 71
    48
 72
     7
 73
     8
  0
VERTEX
  5
64D
  8
0
 62
     9
 10
0.0
 20
0.0
 30
0.0
 70
   128
 71
    56
 72
    48
 73
    91
  0
SEQEND
  5
64E
  8
0
 62
     9
  0
ENDBLK
  5
651
  8
0
  0
ENDSEC
  0
SECTION
  2
ENTITIES
  0
INSERT
  5
161
  8
LAYER_1
  2
38
 10
0.0
 20
0.0
 30
0.0
  0
INSERT
  5
2EE
  8
LAYER_1
  2
39
 10
0.0
 20
0.0
 30
0.0
  0
INSERT
  5
3CD
  8
LAYER_1
  2
40
 10
0.0
 20
0.0
 30
0.0
  0
INSERT
  5
435
  8
LAYER_1
  2
41
 10
0.0
 20
0.0
 30
0.0
  0
INSERT
  5
51A
  8
LAYER_1
  2
42
 10
0.0
 20
0.0
 30
0.0
  0
INSERT
  5
64F
  8
LAYER_1
  2
43
 10
0.0
 20
0.0
 30
0.0
  0
ENDSEC
  0
EOF
