  0
SECTION
  2
HEADER
  9
$ACADVER
  1
AC1015
  9
$ACADMAINTVER
 70
     6
  9
$DWGCODEPAGE
  3
ANSI_1252
  9
$INSBASE
 10
0.0
 20
0.0
 30
0.0
  9
$EXTMIN
 10
0.0
 20
0.0
 30
0.0
  9
$EXTMAX
 10
3000.0
 20
4500.0
 30
0.0
  9
$LIMMIN
 10
0.0
 20
0.0
  9
$LIMMAX
 10
3000.0
 20
4500.0
  9
$ORTHOMODE
 70
     0
  9
$REGENMODE
 70
     1
  9
$FILLMODE
 70
     1
  9
$QTEXTMODE
 70
     0
  9
$MIRRTEXT
 70
     1
  9
$LTSCALE
 40
1.0
  9
$ATTMODE
 70
     1
  9
$TEXTSIZE
 40
2.5
  9
$TRACEWID
 40
1.0
  9
$TEXTSTYLE
  7
Standard
  9
$CLAYER
  8
0
  9
$CELTYPE
  6
ByLayer
  9
$CECOLOR
 62
   256
  9
$CELTSCALE
 40
1.0
  9
$DISPSILH
 70
     0
  9
$DIMSCALE
 40
1.0
  9
$DIMASZ
 40
2.5
  9
$DIMEXO
 40
0.625
  9
$DIMDLI
 40
3.75
  9
$DIMRND
 40
0.0
  9
$DIMDLE
 40
0.0
  9
$DIMEXE
 40
1.25
  9
$DIMTP
 40
0.0
  9
$DIMTM
 40
0.0
  9
$DIMTXT
 40
2.5
  9
$DIMCEN
 40
2.5
  9
$DIMTSZ
 40
0.0
  9
$DIMTOL
 70
     0
  9
$DIMLIM
 70
     0
  9
$DIMTIH
 70
     0
  9
$DIMTOH
 70
     0
  9
$DIMSE1
 70
     0
  9
$DIMSE2
 70
     0
  9
$DIMTAD
 70
     1
  9
$DIMZIN
 70
     8
  9
$DIMBLK
  1

  9
$DIMASO
 70
     1
  9
$DIMSHO
 70
     1
  9
$DIMPOST
  1

  9
$DIMAPOST
  1

  9
$DIMALT
 70
     0
  9
$DIMALTD
 70
     3
  9
$DIMALTF
 40
0.0393700787
  9
$DIMLFAC
 40
1.0
  9
$DIMTOFL
 70
     1
  9
$DIMTVP
 40
0.0
  9
$DIMTIX
 70
     0
  9
$DIMSOXD
 70
     0
  9
$DIMSAH
 70
     0
  9
$DIMBLK1
  1

  9
$DIMBLK2
  1

  9
$DIMSTYLE
  2
ISO-25
  9
$DIMCLRD
 70
     0
  9
$DIMCLRE
 70
     0
  9
$DIMCLRT
 70
     0
  9
$DIMTFAC
 40
1.0
  9
$DIMGAP
 40
0.625
  9
$DIMJUST
 70
     0
  9
$DIMSD1
 70
     0
  9
$DIMSD2
 70
     0
  9
$DIMTOLJ
 70
     0
  9
$DIMTZIN
 70
     8
  9
$DIMALTZ
 70
     0
  9
$DIMALTTZ
 70
     0
  9
$DIMUPT
 70
     0
  9
$DIMDEC
 70
     2
  9
$DIMTDEC
 70
     2
  9
$DIMALTU
 70
     2
  9
$DIMALTTD
 70
     3
  9
$DIMTXSTY
  7
Standard
  9
$DIMAUNIT
 70
     0
  9
$DIMADEC
 70
     0
  9
$DIMALTRND
 40
0.0
  9
$DIMAZIN
 70
     0
  9
$DIMDSEP
 70
    44
  9
$DIMATFIT
 70
     3
  9
$DIMFRAC
 70
     0
  9
$DIMLDRBLK
  1

  9
$DIMLUNIT
 70
     2
  9
$DIMLWD
 70
    -2
  9
$DIMLWE
 70
    -2
  9
$DIMTMOVE
 70
     0
  9
$LUNITS
 70
     2
  9
$LUPREC
 70
     4
  9
$SKETCHINC
 40
1.0
  9
$FILLETRAD
 40
10.0
  9
$AUNITS
 70
     0
  9
$AUPREC
 70
     0
  9
$MENU
  1
.
  9
$ELEVATION
 40
0.0
  9
$PELEVATION
 40
0.0
  9
$THICKNESS
 40
0.0
  9
$LIMCHECK
 70
     0
  9
$CHAMFERA
 40
10.0
  9
$CHAMFERB
 40
10.0
  9
$CHAMFERC
 40
20.0
  9
$CHAMFERD
 40
0.0
  9
$SKPOLY
 70
     0
  9
$TDCREATE
 40
2456602.47292375
  9
$TDUCREATE
 40
2456602.431257084
  9
$TDUPDATE
 40
2456602.472923762
  9
$TDUUPDATE
 40
2456602.431257095
  9
$TDINDWG
 40
0.0000000116
  9
$TDUSRTIMER
 40
0.0000000116
  9
$USRTIMER
 70
     1
  9
$ANGBASE
 50
0.0
  9
$ANGDIR
 70
     0
  9
$PDMODE
 70
     0
  9
$PDSIZE
 40
0.0
  9
$PLINEWID
 40
0.0
  9
$SPLFRAME
 70
     0
  9
$SPLINETYPE
 70
     6
  9
$SPLINESEGS
 70
     8
  9
$HANDSEED
  5
368
  9
$SURFTAB1
 70
     6
  9
$SURFTAB2
 70
     6
  9
$SURFTYPE
 70
     6
  9
$SURFU
 70
     6
  9
$SURFV
 70
     6
  9
$UCSBASE
  2

  9
$UCSNAME
  2

  9
$UCSORG
 10
0.0
 20
0.0
 30
0.0
  9
$UCSXDIR
 10
1.0
 20
0.0
 30
0.0
  9
$UCSYDIR
 10
0.0
 20
1.0
 30
0.0
  9
$UCSORTHOREF
  2

  9
$UCSORTHOVIEW
 70
     0
  9
$UCSORGTOP
 10
0.0
 20
0.0
 30
0.0
  9
$UCSORGBOTTOM
 10
0.0
 20
0.0
 30
0.0
  9
$UCSORGLEFT
 10
0.0
 20
0.0
 30
0.0
  9
$UCSORGRIGHT
 10
0.0
 20
0.0
 30
0.0
  9
$UCSORGFRONT
 10
0.0
 20
0.0
 30
0.0
  9
$UCSORGBACK
 10
0.0
 20
0.0
 30
0.0
  9
$PUCSBASE
  2

  9
$PUCSNAME
  2

  9
$PUCSORG
 10
0.0
 20
0.0
 30
0.0
  9
$PUCSXDIR
 10
1.0
 20
0.0
 30
0.0
  9
$PUCSYDIR
 10
0.0
 20
1.0
 30
0.0
  9
$PUCSORTHOREF
  2

  9
$PUCSORTHOVIEW
 70
     0
  9
$PUCSORGTOP
 10
0.0
 20
0.0
 30
0.0
  9
$PUCSORGBOTTOM
 10
0.0
 20
0.0
 30
0.0
  9
$PUCSORGLEFT
 10
0.0
 20
0.0
 30
0.0
  9
$PUCSORGRIGHT
 10
0.0
 20
0.0
 30
0.0
  9
$PUCSORGFRONT
 10
0.0
 20
0.0
 30
0.0
  9
$PUCSORGBACK
 10
0.0
 20
0.0
 30
0.0
  9
$USERI1
 70
     0
  9
$USERI2
 70
     0
  9
$USERI3
 70
     0
  9
$USERI4
 70
     0
  9
$USERI5
 70
     0
  9
$USERR1
 40
0.0
  9
$USERR2
 40
0.0
  9
$USERR3
 40
0.0
  9
$USERR4
 40
0.0
  9
$USERR5
 40
0.0
  9
$WORLDVIEW
 70
     1
  9
$SHADEDGE
 70
     3
  9
$SHADEDIF
 70
    70
  9
$TILEMODE
 70
     1
  9
$MAXACTVP
 70
    64
  9
$PINSBASE
 10
0.0
 20
0.0
 30
0.0
  9
$PLIMCHECK
 70
     0
  9
$PEXTMIN
 10
0.0
 20
0.0
 30
0.0
  9
$PEXTMAX
 10
3000.0
 20
4500.0
 30
0.0
  9
$PLIMMIN
 10
0.0
 20
0.0
  9
$PLIMMAX
 10
3000.0
 20
4500.0
  9
$UNITMODE
 70
     0
  9
$VISRETAIN
 70
     1
  9
$PLINEGEN
 70
     0
  9
$PSLTSCALE
 70
     1
  9
$TREEDEPTH
 70
  3020
  9
$CMLSTYLE
  2
Standard
  9
$CMLJUST
 70
     0
  9
$CMLSCALE
 40
20.0
  9
$PROXYGRAPHICS
 70
     1
  9
$MEASUREMENT
 70
     1
  9
$CELWEIGHT
370
    -1
  9
$ENDCAPS
280
     0
  9
$JOINSTYLE
280
     0
  9
$LWDISPLAY
290
     0
  9
$INSUNITS
 70
     4
  9
$HYPERLINKBASE
  1

  9
$STYLESHEET
  1

  9
$XEDIT
290
     1
  9
$CEPSNTYPE
380
     0
  9
$PSTYLEMODE
290
     1
  9
$FINGERPRINTGUID
  2
{502FA1E9-1925-4594-BD91-19BD516EC451}
  9
$VERSIONGUID
  2
{FAEB1C32-E019-11D5-929B-00C0DF256EC4}
  9
$EXTNAMES
290
     1
  9
$PSVPSCALE
 40
0.0
  9
$OLESTARTUP
290
     0
  0
ENDSEC
  0
SECTION
  2
CLASSES
  0
CLASS
  1
ACDBDICTIONARYWDFLT
  2
AcDbDictionaryWithDefault
  3
ObjectDBX Classes
 90
        0
280
     0
281
     0
  0
CLASS
  1
VISUALSTYLE
  2
AcDbVisualStyle
  3
ObjectDBX Classes
 90
     4095
280
     0
281
     0
  0
CLASS
  1
SCALE
  2
AcDbScale
  3
ObjectDBX Classes
 90
     1153
280
     0
281
     0
  0
CLASS
  1
DICTIONARYVAR
  2
AcDbDictionaryVar
  3
ObjectDBX Classes
 90
        0
280
     0
281
     0
  0
CLASS
  1
ACDBPLACEHOLDER
  2
AcDbPlaceHolder
  3
ObjectDBX Classes
 90
        0
280
     0
281
     0
  0
CLASS
  1
LAYOUT
  2
AcDbLayout
  3
ObjectDBX Classes
 90
        0
280
     0
281
     0
  0
ENDSEC
  0
SECTION
  2
TABLES
  0
TABLE
  2
VPORT
  5
8
330
0
100
AcDbSymbolTable
 70
     1
  0
VPORT
  5
29
330
8
100
AcDbSymbolTableRecord
100
AcDbViewportTableRecord
  2
*Active
 70
     0
 10
0.0
 20
0.0
 11
1.0
 21
1.0
 12
344.1869158879
 22
148.5
 13
0.0
 23
0.0
 14
10.0
 24
10.0
 15
10.0
 25
10.0
 16
0.0
 26
0.0
 36
1.0
 17
0.0
 27
0.0
 37
0.0
 40
297.0
 41
1.9729729729
 42
50.0
 43
0.0
 44
0.0
 50
0.0
 51
0.0
 71
     0
 72
   100
 73
     1
 74
     3
 75
     0
 76
     0
 77
     0
 78
     0
281
     0
 65
     1
110
0.0
120
0.0
130
0.0
111
1.0
121
0.0
131
0.0
112
0.0
122
1.0
132
0.0
 79
     0
146
0.0
  0
ENDTAB
  0
TABLE
  2
LTYPE
  5
5
330
0
100
AcDbSymbolTable
 70
     2
  0
LTYPE
  5
14
330
5
100
AcDbSymbolTableRecord
100
AcDbLinetypeTableRecord
  2
ByBlock
 70
     0
  3

 72
    65
 73
     0
 40
0.0
  0
LTYPE
  5
15
330
5
100
AcDbSymbolTableRecord
100
AcDbLinetypeTableRecord
  2
ByLayer
 70
     0
  3

 72
    65
 73
     0
 40
0.0
  0
LTYPE
  5
16
330
5
100
AcDbSymbolTableRecord
100
AcDbLinetypeTableRecord
  2
Continuous
 70
     0
  3
Solid line
 72
    65
 73
     0
 40
0.0
  0
LTYPE
  5
26A
330
5
100
AcDbSymbolTableRecord
100
AcDbLinetypeTableRecord
  2
CENTER2
 70
     0
  3
Center (.5x) ___ _ ___ _ ___ _ ___ _ ___ _ ___
 72
    65
 73
     4
 40
28.575
 49
19.05
 74
     4
 75
     0
340
0
 46
0.0
 50
0.0
 44
0.0
 45
0.0
 49
-3.175
 74
     4
 75
     0
340
0
 46
0.0
 50
0.0
 44
0.0
 45
0.0
 49
3.175
 74
     4
 75
     0
340
0
 46
0.0
 50
0.0
 44
0.0
 45
0.0
 49
-3.175
 74
     4
 75
     0
340
0
 46
0.0
 50
0.0
 44
0.0
 45
0.0
  0
ENDTAB
  0
TABLE
  2
LAYER
  5
2
330
0
100
AcDbSymbolTable
 70
    14
  0
LAYER
  5
10
330
2
100
AcDbSymbolTableRecord
100
AcDbLayerTableRecord
  2
0
 70
     0
 62
     7
  6
Continuous
370
    -3
390
F
  0
LAYER
  5
5D
330
2
100
AcDbSymbolTableRecord
100
AcDbLayerTableRecord
  2
Default
 70
     0
 62
     7
  6
Continuous
370
    -3
390
F
  0
LAYER
  5
60
330
2
100
AcDbSymbolTableRecord
100
AcDbLayerTableRecord
  2
$DDT_AUDIT_GENERATED_(60)
 70
     0
 62
     7
  6
Continuous
370
    -3
390
F
  0
LAYER
  5
72
330
2
100
AcDbSymbolTableRecord
100
AcDbLayerTableRecord
  2
$DDT_AUDIT_GENERATED_(72)
 70
     0
 62
     7
  6
Continuous
370
    -3
390
F
  0
LAYER
  5
75
330
2
100
AcDbSymbolTableRecord
100
AcDbLayerTableRecord
  2
$DDT_AUDIT_GENERATED_(75)
 70
     0
 62
     7
  6
Continuous
370
    -3
390
F
  0
LAYER
  5
A2
330
2
100
AcDbSymbolTableRecord
100
AcDbLayerTableRecord
  2
02636038_GEH_USE
 70
     0
 62
     7
  6
Continuous
370
    -3
390
F
  0
LAYER
  5
B6
330
2
100
AcDbSymbolTableRecord
100
AcDbLayerTableRecord
  2
64647040_EINSATZ
 70
     0
 62
     7
  6
Continuous
370
    -3
390
F
  0
LAYER
  5
25E
330
2
100
AcDbSymbolTableRecord
100
AcDbLayerTableRecord
  2
$DDT_AUDIT_GENERATED_(25E)
 70
     0
 62
     7
  6
Continuous
370
    -3
390
F
  0
LAYER
  5
269
330
2
100
AcDbSymbolTableRecord
100
AcDbLayerTableRecord
  2
DV1_Default
 70
     0
 62
     7
  6
Continuous
370
    -3
390
F
  0
LAYER
  5
2AE
330
2
100
AcDbSymbolTableRecord
100
AcDbLayerTableRecord
  2
$DDT_AUDIT_GENERATED_(2AE)
 70
     0
 62
     7
  6
Continuous
370
    -3
390
F
  0
LAYER
  5
2DB
330
2
100
AcDbSymbolTableRecord
100
AcDbLayerTableRecord
  2
$DDT_AUDIT_GENERATED_(2DB)
 70
     0
 62
     7
  6
Continuous
370
    -3
390
F
  0
LAYER
  5
2DE
330
2
100
AcDbSymbolTableRecord
100
AcDbLayerTableRecord
  2
$DDT_AUDIT_GENERATED_(2DE)
 70
     0
 62
     7
  6
Continuous
370
    -3
390
F
  0
LAYER
  5
2F0
330
2
100
AcDbSymbolTableRecord
100
AcDbLayerTableRecord
  2
DV2_Default
 70
     0
 62
     7
  6
Continuous
370
    -3
390
F
  0
LAYER
  5
351
330
2
100
AcDbSymbolTableRecord
100
AcDbLayerTableRecord
  2
DV3_Default
 70
     0
 62
     7
  6
Continuous
370
    -3
390
F
  0
ENDTAB
  0
TABLE
  2
STYLE
  5
3
330
0
100
AcDbSymbolTable
 70
     2
  0
STYLE
  5
11
330
3
100
AcDbSymbolTableRecord
100
AcDbTextStyleTableRecord
  2
Standard
 70
     0
 40
0.0
 41
1.0
 50
0.0
 71
     0
 42
2.5
  3
txt
  4

  0
STYLE
  5
357
330
3
100
AcDbSymbolTableRecord
100
AcDbTextStyleTableRecord
  2
SEACAD_seiso_ttf
 70
     0
 40
0.0
 41
1.0
 50
0.0
 71
     0
 42
0.2
  3
seiso.ttf
  4

  0
ENDTAB
  0
TABLE
  2
VIEW
  5
6
330
0
100
AcDbSymbolTable
 70
     0
  0
ENDTAB
  0
TABLE
  2
UCS
  5
7
330
0
100
AcDbSymbolTable
 70
     0
  0
ENDTAB
  0
TABLE
  2
APPID
  5
9
330
0
100
AcDbSymbolTable
 70
     1
  0
APPID
  5
12
330
9
100
AcDbSymbolTableRecord
100
AcDbRegAppTableRecord
  2
ACAD
 70
     0
  0
ENDTAB
  0
TABLE
  2
DIMSTYLE
  5
A
330
0
100
AcDbSymbolTable
 70
     1
100
AcDbDimStyleTable
  0
DIMSTYLE
105
27
330
A
100
AcDbSymbolTableRecord
100
AcDbDimStyleTableRecord
  2
ISO-25
 70
     0
 41
2.5
 42
0.625
 43
3.75
 44
1.25
 73
     0
 74
     0
 77
     1
 78
     8
140
2.5
141
2.5
143
0.0393700787
147
0.625
171
     3
172
     1
271
     2
272
     2
274
     3
278
    44
283
     0
284
     8
340
11
  0
ENDTAB
  0
TABLE
  2
BLOCK_RECORD
  5
1
330
0
100
AcDbSymbolTable
 70
     4
  0
BLOCK_RECORD
  5
1F
330
1
100
AcDbSymbolTableRecord
100
AcDbBlockTableRecord
  2
*Model_Space
340
22
  0
BLOCK_RECORD
  5
1B
330
1
100
AcDbSymbolTableRecord
100
AcDbBlockTableRecord
  2
*Paper_Space
340
1E
  0
BLOCK_RECORD
  5
5E
330
1
100
AcDbSymbolTableRecord
100
AcDbBlockTableRecord
  2
SE
340
0
102
{BLKREFS
331
5F
102
}
  0
BLOCK_RECORD
  5
26F
330
1
100
AcDbSymbolTableRecord
100
AcDbBlockTableRecord
  2
SE1
340
0
102
{BLKREFS
331
270
102
}
  0
BLOCK_RECORD
  5
2F5
330
1
100
AcDbSymbolTableRecord
100
AcDbBlockTableRecord
  2
SE2
340
0
102
{BLKREFS
331
2F6
102
}
  0
ENDTAB
  0
ENDSEC
  0
SECTION
  2
BLOCKS
  0
BLOCK
  5
20
330
1F
100
AcDbEntity
  8
0
100
AcDbBlockBegin
  2
*Model_Space
 70
     0
 10
0.0
 20
0.0
 30
0.0
  3
*Model_Space
  1

  0
ENDBLK
  5
21
330
1F
100
AcDbEntity
  8
0
100
AcDbBlockEnd
  0
BLOCK
  5
1C
330
1B
100
AcDbEntity
 67
     1
  8
0
100
AcDbBlockBegin
  2
*Paper_Space
 70
     0
 10
0.0
 20
0.0
 30
0.0
  3
*Paper_Space
  1

  0
ENDBLK
  5
1D
330
1B
100
AcDbEntity
 67
     1
  8
0
100
AcDbBlockEnd
  0
BLOCK
  5
26D
330
5E
100
AcDbEntity
  8
0
100
AcDbBlockBegin
  2
SE
 70
     0
 10
0.0
 20
0.0
 30
0.0
  3
SE
  1

  0
LINE
  5
61
330
5E
100
AcDbEntity
  8
$DDT_AUDIT_GENERATED_(60)
  6
Continuous
 62
     7
100
AcDbLine
 10
11.6569950025
 20
461.5398414387
 30
0.0
 11
11.6569950025
 21
467.0398414388
 31
0.0
  0
LINE
  5
62
330
5E
100
AcDbEntity
  8
$DDT_AUDIT_GENERATED_(60)
  6
Continuous
 62
     7
100
AcDbLine
 10
11.6569950025
 20
363.5398414388
 30
0.0
 11
11.6569950025
 21
461.5398414387
 31
0.0
  0
LINE
  5
63
330
5E
100
AcDbEntity
  8
$DDT_AUDIT_GENERATED_(60)
  6
Continuous
 62
     7
100
AcDbLine
 10
54.6569950025
 20
467.0398414388
 30
0.0
 11
54.6569950025
 21
461.5398414387
 31
0.0
  0
LINE
  5
64
330
5E
100
AcDbEntity
  8
$DDT_AUDIT_GENERATED_(60)
  6
Continuous
 62
     7
100
AcDbLine
 10
54.6569950025
 20
461.5398414387
 30
0.0
 11
54.6569950025
 21
363.5398414388
 31
0.0
  0
ARC
  5
65
330
5E
100
AcDbEntity
  8
$DDT_AUDIT_GENERATED_(60)
  6
Continuous
 62
     7
100
AcDbCircle
 10
12.1569950025
 20
485.0398414388
 30
0.0
 40
0.499999999999997
100
AcDbArc
 50
90.0
 51
180.0
  0
ARC
  5
66
330
5E
100
AcDbEntity
  8
$DDT_AUDIT_GENERATED_(60)
  6
Continuous
 62
     7
100
AcDbCircle
 10
54.1569950025
 20
485.0398414388
 30
0.0
 40
0.5000000000000004
100
AcDbArc
 50
0.0
 51
90.0
  0
ARC
  5
67
330
5E
100
AcDbEntity
  8
$DDT_AUDIT_GENERATED_(60)
  6
Continuous
 62
     7
100
AcDbCircle
 10
54.1569950025
 20
467.0398414388
 30
0.0
 40
0.499999999999997
100
AcDbArc
 50
270.0
 51
0.0
  0
LINE
  5
68
330
5E
100
AcDbEntity
  8
$DDT_AUDIT_GENERATED_(60)
  6
Continuous
 62
     7
100
AcDbLine
 10
11.6569950025
 20
467.0398414388
 30
0.0
 11
11.6569950025
 21
474.224009656
 31
0.0
  0
LINE
  5
69
330
5E
100
AcDbEntity
  8
$DDT_AUDIT_GENERATED_(60)
  6
Continuous
 62
     7
100
AcDbLine
 10
11.6569950025
 20
474.224009656
 30
0.0
 11
11.6569950025
 21
485.0398414388
 31
0.0
  0
LINE
  5
6A
330
5E
100
AcDbEntity
  8
$DDT_AUDIT_GENERATED_(60)
  6
Continuous
 62
     7
100
AcDbLine
 10
54.6569950025
 20
485.0398414388
 30
0.0
 11
54.6569950025
 21
474.224009656
 31
0.0
  0
LINE
  5
6B
330
5E
100
AcDbEntity
  8
$DDT_AUDIT_GENERATED_(60)
  6
Continuous
 62
     7
100
AcDbLine
 10
54.6569950025
 20
474.224009656
 30
0.0
 11
54.6569950025
 21
467.0398414388
 31
0.0
  0
LINE
  5
6C
330
5E
100
AcDbEntity
  8
$DDT_AUDIT_GENERATED_(60)
  6
Continuous
 62
     7
100
AcDbLine
 10
12.1569950025
 20
485.5398414388
 30
0.0
 11
54.1569950025
 21
485.5398414388
 31
0.0
  0
LINE
  5
6D
330
5E
100
AcDbEntity
  8
$DDT_AUDIT_GENERATED_(60)
  6
Continuous
 62
     7
100
AcDbLine
 10
54.1569950025
 20
466.5398414388
 30
0.0
 11
44.9569950025
 21
466.5398414388
 31
0.0
  0
LINE
  5
6E
330
5E
100
AcDbEntity
  8
$DDT_AUDIT_GENERATED_(60)
  6
Continuous
 62
     7
100
AcDbLine
 10
21.3569950025
 20
466.5398414388
 30
0.0
 11
12.1569950025
 21
466.5398414388
 31
0.0
  0
ARC
  5
6F
330
5E
100
AcDbEntity
  8
$DDT_AUDIT_GENERATED_(60)
  6
Continuous
 62
     7
100
AcDbCircle
 10
12.1569950025
 20
467.0398414388
 30
0.0
 40
0.499999999999997
100
AcDbArc
 50
180.0
 51
270.0
  0
ELLIPSE
  5
70
330
5E
100
AcDbEntity
  8
$DDT_AUDIT_GENERATED_(60)
  6
Continuous
 62
     7
100
AcDbEllipse
 10
33.1569950025
 20
470.3589611918
 30
0.0
 11
-12.25
 21
0.0
 31
0.0
210
0.0
220
0.0
230
1.0
 40
0.2360380379
 41
0.0
 42
0.2718890571128184
  0
ELLIPSE
  5
71
330
5E
100
AcDbEntity
  8
$DDT_AUDIT_GENERATED_(60)
  6
Continuous
 62
     7
100
AcDbEllipse
 10
33.1569950025
 20
470.3589611918
 30
0.0
 11
-12.25
 21
0.0
 31
0.0
210
0.0
220
0.0
230
1.0
 40
0.2360380379
 41
2.869703596476973
 42
6.283185307179586
  0
ARC
  5
73
330
5E
100
AcDbEntity
  8
$DDT_AUDIT_GENERATED_(72)
  6
Continuous
 62
     7
100
AcDbCircle
 10
33.1569950025
 20
477.1398414388
 30
0.0
 40
20.50000000000001
100
AcDbArc
 50
150.4572316364
 51
155.810485846
  0
ARC
  5
74
330
5E
100
AcDbEntity
  8
$DDT_AUDIT_GENERATED_(72)
  6
Continuous
 62
     7
100
AcDbCircle
 10
33.1569950025
 20
477.1398414388
 30
0.0
 40
20.5
100
AcDbArc
 50
24.189514154
 51
29.5427683652
  0
LINE
  5
76
330
5E
100
AcDbEntity
  8
$DDT_AUDIT_GENERATED_(75)
  6
Continuous
 62
     7
100
AcDbLine
 10
52.2756419213
 20
515.5020019936
 30
0.0
 11
53.7125302121
 21
499.1150023073
 31
0.0
  0
LINE
  5
77
330
5E
100
AcDbEntity
  8
$DDT_AUDIT_GENERATED_(75)
  6
Continuous
 62
     7
100
AcDbLine
 10
51.2236602971
 20
524.958613568
 30
0.0
 11
52.2756404047
 21
515.5020229118
 31
0.0
  0
ARC
  5
78
330
5E
100
AcDbEntity
  8
$DDT_AUDIT_GENERATED_(75)
  6
Continuous
 62
     7
100
AcDbCircle
 10
50.7278792972
 20
524.9147506702
 30
0.0
 40
0.4977175440297432
100
AcDbArc
 50
5.0559267548
 51
23.2734243951
  0
SPLINE
  5
79
330
5E
100
AcDbEntity
  8
$DDT_AUDIT_GENERATED_(75)
  6
Continuous
 62
     7
100
AcDbSpline
210
0.0
220
0.0
230
1.0
 70
    12
 71
     3
 72
     8
 73
     4
 74
     0
 42
0.0000025
 43
0.0000000001
 40
0.0
 40
0.0
 40
0.0
 40
0.0
 40
0.25
 40
0.25
 40
0.25
 40
0.25
 10
50.72584648161849
 20
525.4148822371694
 30
0.0
 41
1.0
 10
50.72614951765849
 20
525.4149872551328
 30
0.0
 41
1.0
 10
50.72655788705849
 20
525.4150539804309
 30
0.0
 41
1.0
 10
50.72662338426182
 20
525.41505091455
 30
0.0
 41
1.0
  0
ARC
  5
7A
330
5E
100
AcDbEntity
  8
$DDT_AUDIT_GENERATED_(75)
  6
Continuous
 62
     7
100
AcDbCircle
 10
33.1573794843
 20
-4142.3006579481
 30
0.0
 40
4667.746504600173
100
AcDbArc
 50
89.7843491617
 51
89.8323230589
  0
ARC
  5
7B
330
5E
100
AcDbEntity
  8
$DDT_AUDIT_GENERATED_(75)
  6
Continuous
 62
     7
100
AcDbCircle
 10
33.1573794843
 20
-4142.3006579481
 30
0.0
 40
4667.746504600173
100
AcDbArc
 50
89.8365709633
 51
90.2156602633
  0
ELLIPSE
  5
7C
330
5E
100
AcDbEntity
  8
$DDT_AUDIT_GENERATED_(75)
  6
Continuous
 62
     7
100
AcDbEllipse
 10
15.588427183
 20
524.915052049
 30
0.0
 11
0.001855149873743883
 21
-0.4999965584071564
 31
0.0
210
0.0
220
0.0
230
0.9999999999999998
 40
0.0320928222
 41
3.046206891999559
 42
3.141592653589808
  0
ARC
  5
7D
330
5E
100
AcDbEntity
  8
$DDT_AUDIT_GENERATED_(75)
  6
Continuous
 62
     7
100
AcDbCircle
 10
15.3265128822
 20
521.9283242142
 30
0.0
 40
0.4977073599326609
100
AcDbArc
 50
174.9834241915
 51
269.6946838684
  0
ARC
  5
7E
330
5E
100
AcDbEntity
  8
$DDT_AUDIT_GENERATED_(75)
  6
Continuous
 62
     7
100
AcDbCircle
 10
14.7060301562
 20
516.334492754
 30
0.0
 40
0.5013959621124559
100
AcDbArc
 50
175.433493465
 51
268.6277656491
  0
ARC
  5
7F
330
5E
100
AcDbEntity
  8
$DDT_AUDIT_GENERATED_(75)
  6
Continuous
 62
     7
100
AcDbCircle
 10
11.8149391292
 20
483.1440112863
 30
0.0
 40
4.439040717265204
100
AcDbArc
 50
91.5452240919
 51
91.6680209327
  0
ARC
  5
80
330
5E
100
AcDbEntity
  8
$DDT_AUDIT_GENERATED_(75)
  6
Continuous
 62
     7
100
AcDbCircle
 10
11.9847114146
 20
487.5552620586
 30
0.0
 40
0.3001059017127881
100
AcDbArc
 50
175.0473346535
 51
180.0338116178
  0
ARC
  5
81
330
5E
100
AcDbEntity
  8
$DDT_AUDIT_GENERATED_(75)
  6
Continuous
 62
     7
100
AcDbCircle
 10
15.5231243146
 20
487.4947384537
 30
0.0
 40
3.354070399127856
100
AcDbArc
 50
184.1046635704
 51
184.1874538862
  0
ARC
  5
82
330
5E
100
AcDbEntity
  8
$DDT_AUDIT_GENERATED_(75)
  6
Continuous
 62
     7
100
AcDbCircle
 10
33.1569946033
 20
29710.1891932099
 30
0.0
 40
29222.94679562558
100
AcDbArc
 50
269.9588680746
 51
270.0411319244
  0
ARC
  5
83
330
5E
100
AcDbEntity
  8
$DDT_AUDIT_GENERATED_(75)
  6
Continuous
 62
     7
100
AcDbCircle
 10
51.4639410389
 20
487.4781818007
 30
0.0
 40
2.681773959691192
100
AcDbArc
 50
355.115332136
 51
355.2174790975
  0
ARC
  5
84
330
5E
100
AcDbEntity
  8
$DDT_AUDIT_GENERATED_(75)
  6
Continuous
 62
     7
100
AcDbCircle
 10
33.1559783986
 20
1181.1311255435
 30
0.0
 40
665.5540148640246
100
AcDbArc
 50
268.4104552824
 51
271.5899639157
  0
ARC
  5
85
330
5E
100
AcDbEntity
  8
$DDT_AUDIT_GENERATED_(75)
  6
Continuous
 62
     7
100
AcDbCircle
 10
33.1575712054
 20
-6293.4747706037
 30
0.0
 40
6814.928728720981
100
AcDbArc
 50
89.8500981566
 51
90.1499351718
  0
ARC
  5
86
330
5E
100
AcDbEntity
  8
$DDT_AUDIT_GENERATED_(75)
  6
Continuous
 62
     7
100
AcDbCircle
 10
33.1569950633
 20
1213.3975838495
 30
0.0
 40
695.7234429031344
100
AcDbArc
 50
269.2141128893
 51
270.7859109368
  0
SPLINE
  5
87
330
5E
100
AcDbEntity
  8
$DDT_AUDIT_GENERATED_(75)
  6
Continuous
 62
     7
100
AcDbSpline
210
0.0
220
0.0
230
1.0
 70
     8
 71
     3
 72
    20
 73
    16
 74
     0
 42
0.0000000039315037
 43
0.0000000001
 40
0.0
 40
0.0
 40
0.0
 40
0.0
 40
0.0420334429873641
 40
0.0838521229731383
 40
0.1256407424394841
 40
0.188020415085363
 40
0.2506508449416595
 40
0.3757885947559027
 40
0.5011206247984639
 40
0.626240396162111
 40
0.7506542420702421
 40
0.8127695801403195
 40
0.8749322119382732
 40
0.9375028987380649
 40
1.0
 40
1.0
 40
1.0
 40
1.0
 10
23.61452982556551
 20
517.7397204006069
 30
0.0
 10
23.55777834367866
 20
517.7405920834153
 30
0.0
 10
23.44829889905982
 20
517.7422715998126
 30
0.0
 10
23.28491678622155
 20
517.7461854256665
 30
0.0
 10
23.0967382403877
 20
517.751910477674
 30
0.0
 10
22.88513499098402
 20
517.7602382257453
 30
0.0
 10
22.57735953987115
 20
517.7757218018896
 30
0.0
 10
22.21433841196949
 20
517.8004386809882
 30
0.0
 10
21.83302134170348
 20
517.8373724503364
 30
0.0
 10
21.52102355684458
 20
517.8799986111824
 30
0.0
 10
21.32844785535395
 20
517.9187900402728
 30
0.0
 10
21.21896638370301
 20
517.950751820358
 30
0.0
 10
21.16020630436038
 20
517.9750691795794
 30
0.0
 10
21.12291035181212
 20
517.9995276727907
 30
0.0
 10
21.11827293634584
 20
518.0156837855168
 30
0.0
 10
21.11595423248838
 20
518.02367670244
 30
0.0
  0
LINE
  5
88
330
5E
100
AcDbEntity
  8
$DDT_AUDIT_GENERATED_(75)
  6
Continuous
 62
     7
100
AcDbLine
 10
21.1161607248
 20
519.9171332734
 30
0.0
 11
21.1159512713
 21
518.0235029756
 31
0.0
  0
LINE
  5
89
330
5E
100
AcDbEntity
  8
$DDT_AUDIT_GENERATED_(75)
  6
Continuous
 62
     7
100
AcDbLine
 10
45.198038734
 20
518.0235029892
 30
0.0
 11
45.1978293917
 21
519.9171333765
 31
0.0
  0
SPLINE
  5
8A
330
5E
100
AcDbEntity
  8
$DDT_AUDIT_GENERATED_(75)
  6
Continuous
 62
     7
100
AcDbSpline
210
0.0
220
0.0
230
1.0
 70
     8
 71
     3
 72
    20
 73
    16
 74
     0
 42
0.0000000039331147
 43
0.0000000001
 40
0.0
 40
0.0
 40
0.0
 40
0.0
 40
0.0420711973593315
 40
0.0840887612898805
 40
0.1262357283892758
 40
0.1888072239484994
 40
0.2513595017260206
 40
0.3763097857496139
 40
0.5016294740886861
 40
0.6268062544110267
 40
0.7514948465231805
 40
0.8137154523913142
 40
0.8757013992890657
 40
0.9376894221695592
 40
1.0
 40
1.0
 40
1.0
 40
1.0
 10
45.19803577290839
 20
518.02367671412
 30
0.0
 10
45.19698367546213
 20
518.0183328727197
 30
0.0
 10
45.19488354087965
 20
518.0074913280592
 30
0.0
 10
45.1779610759221
 20
517.9910573042167
 30
0.0
 10
45.14667122249566
 20
517.9719259614623
 30
0.0
 10
45.09323877862859
 20
517.9501540424665
 30
0.0
 10
44.98246554012067
 20
517.9180377772299
 30
0.0
 10
44.78785318789226
 20
517.8791476947005
 30
0.0
 10
44.47388765883322
 20
517.8365643606141
 30
0.0
 10
44.09180685785632
 20
517.7998057523608
 30
0.0
 10
43.72933949195701
 20
517.7753028263656
 30
0.0
 10
43.42283372071049
 20
517.7599701298578
 30
0.0
 10
43.18657960000532
 20
517.7507652715577
 30
0.0
 10
42.94558585525704
 20
517.7437241963027
 30
0.0
 10
42.78327593811272
 20
517.7410830043661
 30
0.0
 10
42.69974959058887
 20
517.7397251832958
 30
0.0
  0
ARC
  5
8B
330
5E
100
AcDbEntity
  8
$DDT_AUDIT_GENERATED_(75)
  6
Continuous
 62
     7
100
AcDbCircle
 10
50.9908484382
 20
521.9211930204
 30
0.0
 40
0.4899919953817234
100
AcDbArc
 50
274.5069554954
 51
348.48005929
  0
LINE
  5
8C
330
5E
100
AcDbEntity
  8
$DDT_AUDIT_GENERATED_(75)
  6
Continuous
 62
     7
100
AcDbLine
 10
51.4745758311
 20
521.8225567429
 30
0.0
 11
51.484212797
 21
521.9719384035
 31
0.0
  0
ARC
  5
8D
330
5E
100
AcDbEntity
  8
$DDT_AUDIT_GENERATED_(75)
  6
Continuous
 62
     7
100
AcDbCircle
 10
51.6080325383
 20
516.3344629963
 30
0.0
 40
0.5013253316086311
100
AcDbArc
 50
271.6882339472
 51
4.5757857063
  0
ARC
  5
8E
330
5E
100
AcDbEntity
  8
$DDT_AUDIT_GENERATED_(75)
  6
Continuous
 62
     7
100
AcDbCircle
 10
54.509706559
 20
482.7274601185
 30
0.0
 40
4.855159877857956
100
AcDbArc
 50
88.6007651267
 51
88.7321550493
  0
ARC
  5
8F
330
5E
100
AcDbEntity
  8
$DDT_AUDIT_GENERATED_(75)
  6
Continuous
 62
     7
100
AcDbCircle
 10
54.3297890317
 20
487.5547941256
 30
0.0
 40
0.2996381777310324
100
AcDbArc
 50
0.0553016754
 51
5.050474718
  0
LINE
  5
90
330
5E
100
AcDbEntity
  8
$DDT_AUDIT_GENERATED_(75)
  6
Continuous
 62
     7
100
AcDbLine
 10
12.601184724
 20
499.1151974495
 30
0.0
 11
14.0380676449
 21
515.5021386606
 31
0.0
  0
LINE
  5
91
330
5E
100
AcDbEntity
  8
$DDT_AUDIT_GENERATED_(75)
  6
Continuous
 62
     7
100
AcDbLine
 10
14.0383547057
 20
515.5021137562
 30
0.0
 11
15.0903327593
 21
524.9586487602
 31
0.0
  0
LINE
  5
92
330
5E
100
AcDbEntity
  8
$DDT_AUDIT_GENERATED_(75)
  6
Continuous
 62
     7
100
AcDbLine
 10
23.6146132413
 20
520.1481485687
 30
0.0
 11
23.6146383237
 21
520.1518810923
 31
0.0
  0
LINE
  5
93
330
5E
100
AcDbEntity
  8
$DDT_AUDIT_GENERATED_(75)
  6
Continuous
 62
     7
100
AcDbLine
 10
42.699351172
 20
520.1519341078
 30
0.0
 11
42.6993766145
 21
520.1481485661
 31
0.0
  0
LINE
  5
94
330
5E
100
AcDbEntity
  8
$DDT_AUDIT_GENERATED_(75)
  6
Continuous
 62
     7
100
AcDbLine
 10
54.6285729494
 20
488.0931236221
 30
0.0
 11
53.7127012192
 21
499.119847768
 31
0.0
  0
ARC
  5
95
330
5E
100
AcDbEntity
  8
$DDT_AUDIT_GENERATED_(75)
  6
Continuous
 62
     7
100
AcDbCircle
 10
50.7255628221
 20
524.915052049
 30
0.0
 40
0.49999999999999
100
AcDbArc
 50
23.1426857425
 51
90.0
  0
ARC
  5
96
330
5E
100
AcDbEntity
  8
$DDT_AUDIT_GENERATED_(75)
  6
Continuous
 62
     7
100
AcDbCircle
 10
33.1576539649
 20
-4270.2766420706
 30
0.0
 40
4795.719932503706
100
AcDbArc
 50
89.7900813195
 51
90.2099505153
  0
ARC
  5
97
330
5E
100
AcDbEntity
  8
$DDT_AUDIT_GENERATED_(75)
  6
Continuous
 62
     7
100
AcDbCircle
 10
15.588427183
 20
524.915052049
 30
0.0
 40
0.4999999999999994
100
AcDbArc
 50
90.212585004
 51
173.681450213
  0
SPLINE
  5
98
330
5E
100
AcDbEntity
  8
$DDT_AUDIT_GENERATED_(75)
  6
Continuous
 62
     7
100
AcDbSpline
210
0.0
220
0.0
230
1.0
 70
     8
 71
     3
 72
    15
 73
    11
 74
     0
 42
0.000000014912535
 43
0.0000000001
 40
0.0
 40
0.0
 40
0.0
 40
0.0
 40
0.1035228409821117
 40
0.2150206589080711
 40
0.3357820906084638
 40
0.4643122431320227
 40
0.5976453875254568
 40
0.7327188519811152
 40
0.8672351599639035
 40
1.0
 40
1.0
 40
1.0
 40
1.0
 10
11.69593688003015
 20
487.5921967864899
 30
0.0
 10
11.69468899310134
 20
487.5658107232513
 30
0.0
 10
11.69333581346156
 20
487.5186394641742
 30
0.0
 10
11.71869483541991
 20
487.4463905243561
 30
0.0
 10
11.7637138056157
 20
487.3854187209595
 30
0.0
 10
11.82758351469801
 20
487.3362826192582
 30
0.0
 10
11.90611518792561
 20
487.3003251725016
 30
0.0
 10
11.99397302419068
 20
487.2761792180237
 30
0.0
 10
12.08927719510526
 20
487.2611402853497
 30
0.0
 10
12.14603680877723
 20
487.2567367812796
 30
0.0
 10
12.17908293066129
 20
487.2544566049719
 30
0.0
  0
SPLINE
  5
99
330
5E
100
AcDbEntity
  8
$DDT_AUDIT_GENERATED_(75)
  6
Continuous
 62
     7
100
AcDbSpline
210
0.0
220
0.0
230
1.0
 70
     8
 71
     3
 72
    13
 73
     9
 74
     0
 42
0.0000000149903816
 43
0.0000000001
 40
0.0
 40
0.0
 40
0.0
 40
0.0
 40
0.1826950322763448
 40
0.3987637064785534
 40
0.5312856479047489
 40
0.6799950809785135
 40
0.839412076184681
 40
1.0
 40
1.0
 40
1.0
 40
1.0
 10
54.13499084756928
 20
487.2544521397031
 30
0.0
 10
54.1809728984432
 20
487.2550008924741
 30
0.0
 10
54.26573862555921
 20
487.2578312465503
 30
0.0
 10
54.38832942325402
 20
487.2863464025627
 30
0.0
 10
54.48681987942773
 20
487.339840589726
 30
0.0
 10
54.55835349412892
 20
487.4050144951171
 30
0.0
 10
54.61035545051561
 20
487.4939102408136
 30
0.0
 10
54.61582040169701
 20
487.5558931045073
 30
0.0
 10
54.61805686611561
 20
487.5921932974793
 30
0.0
  0
LINE
  5
9A
330
5E
100
AcDbEntity
  8
$DDT_AUDIT_GENERATED_(75)
  6
Continuous
 62
     7
100
AcDbLine
 10
54.6296024522
 20
487.554904148
 30
0.0
 11
54.6296024522
 21
488.0682913489
 31
0.0
  0
LINE
  5
9B
330
5E
100
AcDbEntity
  8
$DDT_AUDIT_GENERATED_(75)
  6
Continuous
 62
     7
100
AcDbLine
 10
12.6012782696
 20
499.1197211561
 30
0.0
 11
11.6854170557
 21
488.0931236221
 31
0.0
  0
ARC
  5
9C
330
5E
100
AcDbEntity
  8
$DDT_AUDIT_GENERATED_(75)
  6
Continuous
 62
     7
100
AcDbCircle
 10
11.9843875529
 20
488.0682913489
 30
0.0
 40
0.3000000000000007
100
AcDbArc
 50
175.2519526682
 51
180.0
  0
LINE
  5
9D
330
5E
100
AcDbEntity
  8
$DDT_AUDIT_GENERATED_(75)
  6
Continuous
 62
     7
100
AcDbLine
 10
11.6843875529
 20
488.0682913489
 30
0.0
 11
11.6843875529
 21
487.5549039003
 31
0.0
  0
SPLINE
  5
9E
330
5E
100
AcDbEntity
  8
$DDT_AUDIT_GENERATED_(75)
  6
Continuous
 62
     7
100
AcDbSpline
210
0.0
220
0.0
230
1.0
 70
     8
 71
     3
 72
    17
 73
    13
 74
     0
 42
0.0000000038191939
 43
0.0000000001
 40
0.1945293195316681
 40
0.1945293195316681
 40
0.1945293195316681
 40
0.1945293195316681
 40
0.2159303603331752
 40
0.2760349647327272
 40
0.3505844548457959
 40
0.4727985800678749
 40
0.5439378375546364
 40
0.621750670997319
 40
0.7062492838175879
 40
0.7974358660159085
 40
0.8953557570646516
 40
1.0
 40
1.0
 40
1.0
 40
1.0
 10
21.51016762062513
 20
520.0608397348069
 30
0.0
 10
21.51166114974561
 20
520.0590917649606
 30
0.0
 10
21.52647597618859
 20
520.0576698567813
 30
0.0
 10
21.58806401305521
 20
520.0661749059022
 30
0.0
 10
21.71933041505053
 20
520.0809379215164
 30
0.0
 10
21.9089466415226
 20
520.099361743311
 30
0.0
 10
22.13741430030194
 20
520.1158092025865
 30
0.0
 10
22.35623286152755
 20
520.1283650149213
 30
0.0
 10
22.61567819865498
 20
520.1394349715956
 30
0.0
 10
22.91351098348344
 20
520.1478512053911
 30
0.0
 10
23.25734458970248
 20
520.1528122562238
 30
0.0
 10
23.47904012940581
 20
520.1520769776187
 30
0.0
 10
23.61465152768823
 20
520.1514915990641
 30
0.0
  0
ARC
  5
9F
330
5E
100
AcDbEntity
  8
$DDT_AUDIT_GENERATED_(75)
  6
Continuous
 62
     7
100
AcDbCircle
 10
33.1661763122
 20
1999.8321191397
 30
0.0
 40
1479.714675878709
100
AcDbArc
 50
269.6301531968
 51
270.3691359748
  0
SPLINE
  5
A0
330
5E
100
AcDbEntity
  8
$DDT_AUDIT_GENERATED_(75)
  6
Continuous
 62
     7
100
AcDbSpline
210
0.0
220
0.0
230
1.0
 70
     8
 71
     3
 72
    15
 73
    11
 74
     0
 42
0.0000000038735792
 43
0.0000000001
 40
0.0
 40
0.0
 40
0.0
 40
0.0
 40
0.1509741237109782
 40
0.2855416095064195
 40
0.4038263591993773
 40
0.5058725798126484
 40
0.5976101732241238
 40
0.6500898090282266
 40
0.7084238242332308
 40
0.7402476966188437
 40
0.7402476966188437
 40
0.7402476966188437
 40
0.7402476966188437
 10
42.6993384302407
 20
520.1514917514496
 30
0.0
 10
42.88466928061892
 20
520.1519004943639
 30
0.0
 10
43.1813456821296
 20
520.1521137495982
 30
0.0
 10
43.62129499752532
 20
520.1414130142745
 30
0.0
 10
43.97063501970486
 20
520.125746057851
 30
0.0
 10
44.2486810905211
 20
520.107830387353
 30
0.0
 10
44.44435977469946
 20
520.0894972673773
 30
0.0
 10
44.53809561400239
 20
520.0888016714412
 30
0.0
 10
44.57805910477888
 20
520.0997997926677
 30
0.0
 10
44.59217513833095
 20
520.1155106934586
 30
0.0
 10
44.59610400137481
 20
520.1222165585613
 30
0.0
  0
ARC
  5
A1
330
5E
100
AcDbEntity
  8
$DDT_AUDIT_GENERATED_(75)
  6
Continuous
 62
     7
100
AcDbCircle
 10
54.3296024522
 20
488.0682913489
 30
0.0
 40
0.2999999999999982
100
AcDbArc
 50
0.0
 51
4.7480473318
  0
ELLIPSE
  5
A3
330
5E
100
AcDbEntity
  8
02636038_GEH_USE
  6
Continuous
 62
     7
100
AcDbEllipse
 10
33.1569950025
 20
465.0587786749
 30
0.0
 11
10.05000000000001
 21
0.0
 31
0.0
210
0.0
220
0.0
230
1.0
 40
0.3746065934
 41
5.690415244709974
 42
6.283185307179586
  0
ELLIPSE
  5
A4
330
5E
100
AcDbEntity
  8
02636038_GEH_USE
  6
Continuous
 62
     7
100
AcDbEllipse
 10
33.1569950025
 20
465.0587786749
 30
0.0
 11
10.05000000000001
 21
0.0
 31
0.0
210
0.0
220
0.0
230
1.0
 40
0.3746065934
 41
0.0
 42
3.734362716059399
  0
ELLIPSE
  5
A5
330
5E
100
AcDbEntity
  8
02636038_GEH_USE
  6
Continuous
 62
     7
100
AcDbEllipse
 10
33.1569950025
 20
465.0587786749
 30
0.0
 11
10.75000000000001
 21
0.0
 31
0.0
210
0.0
220
0.0
230
1.0
 40
0.3746065934
 41
5.540956332601275
 42
6.283185307179586
  0
ELLIPSE
  5
A6
330
5E
100
AcDbEntity
  8
02636038_GEH_USE
  6
Continuous
 62
     7
100
AcDbEllipse
 10
33.1569950025
 20
465.0587786749
 30
0.0
 11
10.75000000000001
 21
0.0
 31
0.0
210
0.0
220
0.0
230
1.0
 40
0.3746065934
 41
0.0
 42
3.883821628168099
  0
ELLIPSE
  5
A7
330
5E
100
AcDbEntity
  8
02636038_GEH_USE
  6
Continuous
 62
     7
100
AcDbEllipse
 10
33.1569950025
 20
465.3531990914
 30
0.0
 11
-11.29999999999999
 21
-4.163336342344336E-14
 31
0.0
210
0.0
220
0.0
230
1.0
 40
0.3746065934
 41
-3.916701664304914
 42
-3.844064552164778
  0
ARC
  5
A8
330
5E
100
AcDbEntity
  8
02636038_GEH_USE
  6
Continuous
 62
     7
100
AcDbCircle
 10
33.1569950025
 20
490.2226333828
 30
0.0
 40
20.90935471822089
100
AcDbArc
 50
262.8942664973
 51
277.1057335027
  0
ELLIPSE
  5
A9
330
5E
100
AcDbEntity
  8
02636038_GEH_USE
  6
Continuous
 62
     7
100
AcDbEllipse
 10
33.1569950025
 20
467.8403302386
 30
0.0
 11
11.79999999999999
 21
0.0
 31
0.0
210
0.0
220
0.0
230
1.0
 40
0.3746065934
 41
1.200453694703178
 42
1.941138958886615
  0
LINE
  5
AA
330
5E
100
AcDbEntity
  8
02636038_GEH_USE
  6
Continuous
 62
     7
100
AcDbLine
 10
37.4278263034
 20
471.9610027662
 30
0.0
 11
28.8861637017
 21
471.9610027662
 31
0.0
  0
LINE
  5
AB
330
5E
100
AcDbEntity
  8
02636038_GEH_USE
  6
Continuous
 62
     7
100
AcDbLine
 10
37.4278263034
 20
471.9610027662
 30
0.0
 11
37.4278263034
 21
470.276836391
 31
0.0
  0
SPLINE
  5
AC
330
5E
100
AcDbEntity
  8
02636038_GEH_USE
  6
Continuous
 62
     7
100
AcDbSpline
210
0.0
220
0.0
230
1.0
 70
     8
 71
     3
 72
    14
 73
    10
 74
     0
 42
0.0000000050232859
 43
0.0000000001
 40
0.0
 40
0.0
 40
0.0
 40
0.0
 40
0.1250000000000004
 40
0.1250000000000004
 40
0.2500000000000009
 40
0.2500000000000009
 40
0.5000000000000008
 40
0.5000000000000008
 40
1.0
 40
1.0
 40
1.0
 40
1.0
 10
37.42782630336083
 20
470.2768363909597
 30
0.0
 10
37.42782630336083
 20
470.1987292187083
 30
0.0
 10
37.39569481208095
 20
470.1207185149544
 30
0.0
 10
37.29989721284989
 20
469.991656468324
 30
0.0
 10
37.23677034855699
 20
469.9369383395447
 30
0.0
 10
37.03446039777624
 20
469.7968214728605
 30
0.0
 10
36.87847078752441
 20
469.7306161684799
 30
0.0
 10
36.40770470309002
 20
469.5717227097286
 30
0.0
 10
36.07529142505241
 20
469.5145259721588
 30
0.0
 10
35.74349843382385
 20
469.4738716189262
 30
0.0
  0
SPLINE
  5
AD
330
5E
100
AcDbEntity
  8
02636038_GEH_USE
  6
Continuous
 62
     7
100
AcDbSpline
210
0.0
220
0.0
230
1.0
 70
     8
 71
     3
 72
    18
 73
    14
 74
     0
 42
0.0000000050306326
 43
0.0000000001
 40
0.0
 40
0.0
 40
0.0
 40
0.0
 40
0.2499999999999998
 40
0.2499999999999998
 40
0.4999999999999997
 40
0.4999999999999997
 40
0.6249999999999992
 40
0.6249999999999992
 40
0.7499999999999989
 40
0.7499999999999989
 40
0.8749999999999994
 40
0.8749999999999994
 40
1.0
 40
1.0
 40
1.0
 40
1.0
 10
30.57049157127269
 20
469.4738716189262
 30
0.0
 10
30.40409879110912
 20
469.4942596049261
 30
0.0
 10
30.23854623489231
 20
469.5193624194493
 30
0.0
 10
29.9101784883478
 20
469.5849284899856
 30
0.0
 10
29.74740849068948
 20
469.6252172483523
 30
0.0
 10
29.51193653292039
 20
469.7048898362571
 30
0.0
 10
29.43476759097436
 20
469.7347160845112
 30
0.0
 10
29.28444170155201
 20
469.8042906334923
 30
0.0
 10
29.21087110860331
 20
469.8442856160475
 30
0.0
 10
29.07685292580122
 20
469.9372810900782
 30
0.0
 10
29.01447454192642
 20
469.9911589710422
 30
0.0
 10
28.91799086894884
 20
470.1211117150954
 30
0.0
 10
28.8861637017357
 20
470.1973294638003
 30
0.0
 10
28.8861637017357
 20
470.2768363909597
 30
0.0
  0
LINE
  5
AE
330
5E
100
AcDbEntity
  8
02636038_GEH_USE
  6
Continuous
 62
     7
100
AcDbLine
 10
28.8861637017
 20
470.276836391
 30
0.0
 11
28.8861637017
 21
471.9610027662
 31
0.0
  0
ELLIPSE
  5
AF
330
5E
100
AcDbEntity
  8
02636038_GEH_USE
  6
Continuous
 62
     7
100
AcDbEllipse
 10
33.1569950025
 20
465.3531990914
 30
0.0
 11
11.30000000000002
 21
1.387778780781446E-14
 31
0.0
210
0.0
220
0.0
230
1.0
 40
0.3746065934
 41
3.848616057111996
 42
3.91670166430491
  0
LINE
  5
B0
330
5E
100
AcDbEntity
  8
02636038_GEH_USE
  6
Continuous
 62
     7
100
AcDbLine
 10
25.0848992907
 20
462.3909331552
 30
0.0
 11
25.2393975669
 21
462.3318536662
 31
0.0
  0
LINE
  5
B1
330
5E
100
AcDbEntity
  8
02636038_GEH_USE
  6
Continuous
 62
     7
100
AcDbLine
 10
41.0745924382
 20
462.3318536662
 30
0.0
 11
41.2290907144
 21
462.3909331552
 31
0.0
  0
SPLINE
  5
B2
330
5E
100
AcDbEntity
  8
02636038_GEH_USE
  6
Continuous
 62
     7
100
AcDbSpline
210
0.0
220
0.0
230
1.0
 70
     8
 71
     3
 72
    21
 73
    17
 74
     0
 42
0.000000001982514
 43
0.0000000001
 40
0.0
 40
0.0
 40
0.0
 40
0.0
 40
0.0559823386942074
 40
0.1228289138862007
 40
0.1900843882447411
 40
0.25852125155314
 40
0.3288362344285774
 40
0.4015872187382537
 40
0.4770943047933623
 40
0.5553332106332566
 40
0.6358951090733133
 40
0.7180886537968614
 40
0.8011594575737282
 40
0.8844629253555597
 40
0.9675442872551333
 40
1.0
 40
1.0
 40
1.0
 40
1.0
 10
21.35959601265256
 20
466.1512844311376
 30
0.0
 10
21.36104821439672
 20
466.0569733636032
 30
0.0
 10
21.36499847058543
 20
465.8823299702917
 30
0.0
 10
21.41549471475572
 20
465.5887135448203
 30
0.0
 10
21.50119242441136
 20
465.2922322924056
 30
0.0
 10
21.62329052586468
 20
464.9996970820002
 30
0.0
 10
21.78068413931566
 20
464.7136114831682
 30
0.0
 10
21.9745831566778
 20
464.4328468963776
 30
0.0
 10
22.20603645368785
 20
464.1576614092495
 30
0.0
 10
22.4758810958745
 20
463.8887114991557
 30
0.0
 10
22.78404276231765
 20
463.6273447023173
 30
0.0
 10
23.12890653043752
 20
463.3755709826116
 30
0.0
 10
23.50892163294582
 20
463.1342387910219
 30
0.0
 10
23.91769644977708
 20
462.9080447545442
 30
0.0
 10
24.27479797881275
 20
462.730188223964
 30
0.0
 10
24.47939638136683
 20
462.6427969271583
 30
0.0
 10
24.54694650910243
 20
462.6140582687022
 30
0.0
  0
SPLINE
  5
B3
330
5E
100
AcDbEntity
  8
02636038_GEH_USE
  6
Continuous
 62
     7
100
AcDbSpline
210
0.0
220
0.0
230
1.0
 70
     8
 71
     3
 72
    21
 73
    17
 74
     0
 42
0.0000000019934179
 43
0.0000000001
 40
0.0
 40
0.0
 40
0.0
 40
0.0
 40
0.0398620543543121
 40
0.1230042353332766
 40
0.2066488956629128
 40
0.290749052029555
 40
0.3751396334147756
 40
0.459287789930078
 40
0.5424697133034223
 40
0.6237850080925686
 40
0.7024190489229029
 40
0.7779566990036156
 40
0.8505012621060901
 40
0.9205615517145875
 40
0.9888640959366826
 40
1.0
 40
1.0
 40
1.0
 40
1.0
 10
41.80200863948838
 20
462.6295803678096
 30
0.0
 10
41.8839305372
 20
462.6650508554413
 30
0.0
 10
42.09846712312129
 20
462.7583928514306
 30
0.0
 10
42.46416938744989
 20
462.9436666337959
 30
0.0
 10
42.86885952074432
 20
463.1724714571669
 30
0.0
 10
43.24771145016878
 20
463.4184667441018
 30
0.0
 10
43.59501487292357
 20
463.6787953737091
 30
0.0
 10
43.90873545293123
 20
463.9540116312621
 30
0.0
 10
44.18523996613924
 20
464.2426876974517
 30
0.0
 10
44.42141907454015
 20
464.5426995976553
 30
0.0
 10
44.61509395228553
 20
464.8511606402635
 30
0.0
 10
44.76502064939488
 20
465.1644280944511
 30
0.0
 10
44.87290979431081
 20
465.4808424758147
 30
0.0
 10
44.9355574094379
 20
465.7932848925763
 30
0.0
 10
44.96105806848895
 20
466.0283154079135
 30
0.0
 10
44.95535438659935
 20
466.1424025195728
 30
0.0
 10
44.95439399244397
 20
466.1610432956318
 30
0.0
  0
LINE
  5
B4
330
5E
100
AcDbEntity
  8
02636038_GEH_USE
  6
Continuous
 62
     7
100
AcDbLine
 10
21.3569950025
 20
471.1354689392
 30
0.0
 11
21.3569950025
 21
466.1561638634
 31
0.0
  0
LINE
  5
B5
330
5E
100
AcDbEntity
  8
02636038_GEH_USE
  6
Continuous
 62
     7
100
AcDbLine
 10
44.9569950025
 20
466.1561638634
 30
0.0
 11
44.9569950025
 21
471.1354689392
 31
0.0
  0
ELLIPSE
  5
B7
330
5E
100
AcDbEntity
  8
64647040_EINSATZ
  6
Continuous
 62
     7
100
AcDbEllipse
 10
33.1569950025
 20
463.343488544
 30
0.0
 11
7.875000000000004
 21
-1.387778780781446E-14
 31
0.0
210
0.0
220
0.0
230
1.0
 40
0.3746065934
 41
0.0
 42
6.283185307179586
  0
LINE
  5
B8
330
5E
100
AcDbEntity
  8
64647040_EINSATZ
  6
Continuous
 62
     7
100
AcDbLine
 10
33.1013344056
 20
464.149653171
 30
0.0
 11
33.1012037486
 21
464.3432748589
 31
0.0
  0
SPLINE
  5
B9
330
5E
100
AcDbEntity
  8
64647040_EINSATZ
  6
Continuous
 62
     7
100
AcDbSpline
210
0.0
220
0.0
230
1.0
 70
     8
 71
     3
 72
    20
 73
    16
 74
     0
 42
0.0000000641306053
 43
0.0000000001
 40
0.0
 40
0.0
 40
0.0
 40
0.0
 40
0.1662420688397998
 40
0.1662420688397998
 40
0.1662420688397998
 40
0.3310650875766937
 40
0.3310650875766937
 40
0.3310650875766937
 40
0.5632461486775306
 40
0.5632461486775306
 40
0.5632461486775306
 40
0.8533054901458613
 40
0.8533054901458613
 40
0.8533054901458613
 40
1.0
 40
1.0
 40
1.0
 40
1.0
 10
33.02339954393382
 20
464.0325491704608
 30
0.0
 10
33.03219203152101
 20
464.0333640282186
 30
0.0
 10
33.04081422711344
 20
464.0358340837308
 30
0.0
 10
33.0484923311036
 20
464.0395908660027
 30
0.0
 10
33.05613320748979
 20
464.0433294333608
 30
0.0
 10
33.06306539661956
 20
464.0484019920343
 30
0.0
 10
33.06902497449902
 20
464.0542558143691
 30
0.0
 10
33.07738608082667
 20
464.0624685488874
 30
0.0
 10
33.08410655001197
 20
464.0724305127963
 30
0.0
 10
33.08914738608954
 20
464.0830959495902
 30
0.0
 10
33.09543048703006
 20
464.0963897792089
 30
0.0
 10
33.09932650797476
 20
464.111202970198
 30
0.0
 10
33.1008448804949
 20
464.126268803192
 30
0.0
 10
33.10162062090405
 20
464.1339659758529
 30
0.0
 10
33.10178728930296
 20
464.1418127623045
 30
0.0
 10
33.10133440562723
 20
464.1496531710148
 30
0.0
  0
SPLINE
  5
BA
330
5E
100
AcDbEntity
  8
64647040_EINSATZ
  6
Continuous
 62
     7
100
AcDbSpline
210
0.0
220
0.0
230
1.0
 70
    12
 71
     2
 72
     6
 73
     3
 74
     0
 42
0.0000004804408833
 43
0.0000000001
 40
0.0
 40
0.0
 40
0.0
 40
1.0
 40
1.0
 40
1.0
 10
33.00269000487438
 20
464.0304704394149
 30
0.0
 41
1.0
 10
33.01299129661779
 20
464.0315845696019
 30
0.0
 41
1.0
 10
33.02339954393382
 20
464.0325491704608
 30
0.0
 41
1.0
  0
SPLINE
  5
BB
330
5E
100
AcDbEntity
  8
64647040_EINSATZ
  6
Continuous
 62
     7
100
AcDbSpline
210
0.0
220
0.0
230
1.0
 70
     8
 71
     3
 72
    10
 73
     6
 74
     0
 42
0.0000000598218303
 43
0.0000000001
 40
0.3356875718561912
 40
0.3356875718561912
 40
0.3356875718561912
 40
0.3356875718561912
 40
0.5
 40
0.5
 40
1.0
 40
1.0
 40
1.0
 40
1.0
 10
32.91123277994154
 20
464.079101190445
 30
0.0
 10
32.91638351256124
 20
464.0718900101838
 30
0.0
 10
32.92221981442144
 20
464.0651700547533
 30
0.0
 10
32.94838534986629
 20
464.0405286672756
 30
0.0
 10
32.97599840416558
 20
464.0275836249419
 30
0.0
 10
33.00269000487437
 20
464.0304704394149
 30
0.0
  0
LINE
  5
BC
330
5E
100
AcDbEntity
  8
64647040_EINSATZ
  6
Continuous
 62
     7
100
AcDbLine
 10
32.6700053004
 20
464.0654516807
 30
0.0
 11
32.6145553128
 21
464.2504490794
 31
0.0
  0
SPLINE
  5
BD
330
5E
100
AcDbEntity
  8
64647040_EINSATZ
  6
Continuous
 62
     7
100
AcDbSpline
210
0.0
220
0.0
230
1.0
 70
     8
 71
     3
 72
    20
 73
    16
 74
     0
 42
0.0000000728576669
 43
0.0000000001
 40
0.0
 40
0.0
 40
0.0
 40
0.0
 40
0.1662420688398022
 40
0.1662420688398022
 40
0.1662420688398022
 40
0.331065087576697
 40
0.331065087576697
 40
0.331065087576697
 40
0.5632461486775368
 40
0.5632461486775368
 40
0.5632461486775368
 40
0.8533054901458693
 40
0.8533054901458693
 40
0.8533054901458693
 40
1.0
 40
1.0
 40
1.0
 40
1.0
 10
32.68068817459466
 20
463.9379123821299
 30
0.0
 10
32.68536727804604
 20
463.9408175880264
 30
0.0
 10
32.68905486421593
 20
463.9451977170648
 30
0.0
 10
32.69152510221344
 20
463.9505291884529
 30
0.0
 10
32.69398336316011
 20
463.955834809982
 30
0.0
 10
32.6953400535501
 20
463.9621935303144
 30
0.0
 10
32.6957838716037
 20
463.9690409492283
 30
0.0
 10
32.69640653482103
 20
463.9786476694973
 30
0.0
 10
32.69528899346701
 20
463.9894790236461
 30
0.0
 10
32.69304131175403
 20
464.0005778661907
 30
0.0
 10
32.6902397108157
 20
464.0144119101782
 30
0.0
 10
32.68560656653044
 20
464.029110723853
 30
0.0
 10
32.67981923142845
 20
464.0435141541685
 30
0.0
 10
32.67686246710323
 20
464.0508729036044
 30
0.0
 10
32.67357037503577
 20
464.0582347270305
 30
0.0
 10
32.67000530045065
 20
464.0654516806829
 30
0.0
  0
SPLINE
  5
BE
330
5E
100
AcDbEntity
  8
64647040_EINSATZ
  6
Continuous
 62
     7
100
AcDbSpline
210
0.0
220
0.0
230
1.0
 70
    12
 71
     2
 72
     6
 73
     3
 74
     0
 42
0.0000007823805836
 43
0.0000000001
 40
0.0
 40
0.0
 40
0.0
 40
1.0
 40
1.0
 40
1.0
 10
32.66996812834691
 20
463.9309568124862
 30
0.0
 41
1.0
 10
32.67514921131023
 20
463.9344732983459
 30
0.0
 41
1.0
 10
32.68068817459466
 20
463.9379123821299
 30
0.0
 41
1.0
  0
SPLINE
  5
BF
330
5E
100
AcDbEntity
  8
64647040_EINSATZ
  6
Continuous
 62
     7
100
AcDbSpline
210
0.0
220
0.0
230
1.0
 70
     8
 71
     3
 72
     8
 73
     4
 74
     0
 42
0.0000000907028849
 43
0.0000000001
 40
0.7275562210216546
 40
0.7275562210216546
 40
0.7275562210216546
 40
0.7275562210216546
 40
1.0
 40
1.0
 40
1.0
 40
1.0
 10
32.64173738488348
 20
463.927628219853
 30
0.0
 10
32.65261797371871
 20
463.925263249317
 30
0.0
 10
32.66265319505057
 20
463.9259920474578
 30
0.0
 10
32.66996812834689
 20
463.9309568124863
 30
0.0
  0
LINE
  5
C0
330
5E
100
AcDbEntity
  8
64647040_EINSATZ
  6
Continuous
 62
     7
100
AcDbLine
 10
32.523948158
 20
463.8916588225
 30
0.0
 11
32.4913790738
 21
463.9599881931
 31
0.0
  0
SPLINE
  5
C1
330
5E
100
AcDbEntity
  8
64647040_EINSATZ
  6
Continuous
 62
     7
100
AcDbSpline
210
0.0
220
0.0
230
1.0
 70
     8
 71
     3
 72
    20
 73
    16
 74
     0
 42
0.0000000688531994
 43
0.0000000001
 40
0.0
 40
0.0
 40
0.0
 40
0.0
 40
0.166242068839801
 40
0.166242068839801
 40
0.166242068839801
 40
0.3310650875766957
 40
0.3310650875766957
 40
0.3310650875766957
 40
0.5632461486775338
 40
0.5632461486775338
 40
0.5632461486775338
 40
0.8533054901458648
 40
0.8533054901458648
 40
0.8533054901458648
 40
1.0
 40
1.0
 40
1.0
 40
1.0
 10
32.61699088521981
 20
463.7802143279904
 30
0.0
 10
32.6148156491933
 20
463.783508051813
 30
0.0
 10
32.61140848797474
 20
463.7879316935867
 30
0.0
 10
32.60722382806296
 20
463.7929971430441
 30
0.0
 10
32.60305945764741
 20
463.7980380324609
 30
0.0
 10
32.59804591846709
 20
463.8038293300559
 30
0.0
 10
32.59271399409828
 20
463.8099182755342
 30
0.0
 10
32.58523346653735
 20
463.8184608806644
 30
0.0
 10
32.57693255521269
 20
463.8278308005274
 30
0.0
 10
32.56871301717272
 20
463.8373054746078
 30
0.0
 10
32.55846785418887
 20
463.8491150896615
 30
0.0
 10
32.54801957775952
 20
463.8614737625443
 30
0.0
 10
32.53831667744814
 20
463.8734736174637
 30
0.0
 10
32.53335944082953
 20
463.8796043740742
 30
0.0
 10
32.52853705118022
 20
463.8857070966483
 30
0.0
 10
32.52394815802681
 20
463.8916588225159
 30
0.0
  0
SPLINE
  5
C2
330
5E
100
AcDbEntity
  8
64647040_EINSATZ
  6
Continuous
 62
     7
100
AcDbSpline
210
0.0
220
0.0
230
1.0
 70
    12
 71
     2
 72
     6
 73
     3
 74
     0
 42
0.0000010477141042
 43
0.0000000001
 40
0.0
 40
0.0
 40
0.0
 40
1.0
 40
1.0
 40
1.0
 10
32.62253998948641
 20
463.7724563981121
 30
0.0
 41
1.0
 10
32.61956585553752
 20
463.7763153299199
 30
0.0
 41
1.0
 10
32.61699088521981
 20
463.7802143279904
 30
0.0
 41
1.0
  0
SPLINE
  5
C3
330
5E
100
AcDbEntity
  8
64647040_EINSATZ
  6
Continuous
 62
     7
100
AcDbSpline
210
0.0
220
0.0
230
1.0
 70
     8
 71
     3
 72
     8
 73
     4
 74
     0
 42
0.0000002515966858
 43
0.0000000001
 40
0.7539747293319572
 40
0.7539747293319572
 40
0.7539747293319572
 40
0.7539747293319572
 40
1.0
 40
1.0
 40
1.0
 40
1.0
 10
32.62607277027841
 20
463.7651829961258
 30
0.0
 10
32.62720966955595
 20
463.7652744316188
 30
0.0
 10
32.62633185713944
 20
463.7675364587466
 30
0.0
 10
32.62253998948641
 20
463.7724563981121
 30
0.0
  0
ELLIPSE
  5
C4
330
5E
100
AcDbEntity
  8
64647040_EINSATZ
  6
Continuous
 62
     7
100
AcDbEllipse
 10
33.1569950025
 20
463.4077024714
 30
0.0
 11
8.422375322854238
 21
0.0
 31
0.0
210
0.0
220
0.0
230
1.0
 40
0.3746065934
 41
5.895983924084101
 42
6.283185307179586
  0
ELLIPSE
  5
C5
330
5E
100
AcDbEntity
  8
64647040_EINSATZ
  6
Continuous
 62
     7
100
AcDbEllipse
 10
33.1569950025
 20
463.4077024714
 30
0.0
 11
8.422375322854238
 21
0.0
 31
0.0
210
0.0
220
0.0
230
1.0
 40
0.3746065934
 41
3.108361186510311
 42
3.567522151058316
  0
ELLIPSE
  5
C6
330
5E
100
AcDbEntity
  8
64647040_EINSATZ
  6
Continuous
 62
     7
100
AcDbEllipse
 10
33.1569950025
 20
463.4077024714
 30
0.0
 11
8.422375322854238
 21
0.0
 31
0.0
210
0.0
220
0.0
230
1.0
 40
0.3746065934
 41
0.0
 42
0.0410907530537808
  0
ELLIPSE
  5
C7
330
5E
100
AcDbEntity
  8
64647040_EINSATZ
  6
Continuous
 62
     7
100
AcDbEllipse
 10
33.1569950025
 20
463.343488544
 30
0.0
 11
8.327218268566535
 21
0.0
 31
0.0
210
0.0
220
0.0
230
1.0
 40
0.3746065934
 41
4.113327153509996
 42
5.387031197016907
  0
ELLIPSE
  5
C8
330
5E
100
AcDbEntity
  8
64647040_EINSATZ
  6
Continuous
 62
     7
100
AcDbEllipse
 10
33.1569950025
 20
463.4193741403
 30
0.0
 11
6.390109892686962
 21
0.0
 31
0.0
210
0.0
220
0.0
230
1.0
 40
0.3746065934
 41
5.976217662965129
 42
6.283185307179586
  0
ELLIPSE
  5
C9
330
5E
100
AcDbEntity
  8
64647040_EINSATZ
  6
Continuous
 62
     7
100
AcDbEllipse
 10
33.1569950025
 20
463.4193741403
 30
0.0
 11
6.390109892686962
 21
0.0
 31
0.0
210
0.0
220
0.0
230
1.0
 40
0.3746065934
 41
3.046142996306888
 42
3.447225674889838
  0
ELLIPSE
  5
CA
330
5E
100
AcDbEntity
  8
64647040_EINSATZ
  6
Continuous
 62
     7
100
AcDbEllipse
 10
33.1569950025
 20
463.4193741403
 30
0.0
 11
6.390109892686962
 21
0.0
 31
0.0
210
0.0
220
0.0
230
1.0
 40
0.3746065934
 41
0.0
 42
0.0910762313682308
  0
ELLIPSE
  5
CB
330
5E
100
AcDbEntity
  8
64647040_EINSATZ
  6
Continuous
 62
     7
100
AcDbEllipse
 10
33.1569950025
 20
463.343488544
 30
0.0
 11
-6.291771674648239
 21
0.0
 31
0.0
210
0.0
220
0.0
230
1.0
 40
0.3746065934
 41
1.027526403983379
 42
2.007193106872472
  0
ELLIPSE
  5
CC
330
5E
100
AcDbEntity
  8
64647040_EINSATZ
  6
Continuous
 62
     7
100
AcDbEllipse
 10
33.1569950025
 20
463.343488544
 30
0.0
 11
6.275000000000003
 21
0.0
 31
0.0
210
0.0
220
0.0
230
1.0
 40
0.3746065934
 41
4.107324484827819
 42
5.251882313581891
  0
ELLIPSE
  5
CD
330
5E
100
AcDbEntity
  8
64647040_EINSATZ
  6
Continuous
 62
     7
100
AcDbEllipse
 10
33.1569950025
 20
463.343488544
 30
0.0
 11
6.275000000000003
 21
0.0
 31
0.0
210
0.0
220
0.0
230
1.0
 40
0.3746065934
 41
0.6616326598842627
 42
2.430961006200032
  0
ELLIPSE
  5
CE
330
5E
100
AcDbEntity
  8
64647040_EINSATZ
  6
Continuous
 62
     7
100
AcDbEllipse
 10
33.1569950025
 20
463.4362069294
 30
0.0
 11
6.175000000000004
 21
0.0
 31
0.0
210
0.0
220
0.0
230
1.0
 40
0.3746065934
 41
0.0
 42
0.1397134828216782
  0
ELLIPSE
  5
CF
330
5E
100
AcDbEntity
  8
64647040_EINSATZ
  6
Continuous
 62
     7
100
AcDbEllipse
 10
33.1569950025
 20
463.4362069294
 30
0.0
 11
6.175000000000004
 21
0.0
 31
0.0
210
0.0
220
0.0
230
1.0
 40
0.3746065934
 41
2.99423718062257
 42
3.292622988768636
  0
ELLIPSE
  5
D0
330
5E
100
AcDbEntity
  8
64647040_EINSATZ
  6
Continuous
 62
     7
100
AcDbEllipse
 10
33.1569950025
 20
463.4362069294
 30
0.0
 11
6.175000000000004
 21
0.0
 31
0.0
210
0.0
220
0.0
230
1.0
 40
0.3746065934
 41
6.122118474407485
 42
6.283185307179586
  0
ELLIPSE
  5
D1
330
5E
100
AcDbEntity
  8
64647040_EINSATZ
  6
Continuous
 62
     7
100
AcDbEllipse
 10
33.1569950025
 20
463.4221084328
 30
0.0
 11
4.650545274088402
 21
0.0
 31
0.0
210
0.0
220
0.0
230
1.0
 40
0.3746065934
 41
6.002172322621211
 42
6.283185307179586
  0
ELLIPSE
  5
D2
330
5E
100
AcDbEntity
  8
64647040_EINSATZ
  6
Continuous
 62
     7
100
AcDbEllipse
 10
33.1569950025
 20
463.4221084328
 30
0.0
 11
4.650545274088402
 21
0.0
 31
0.0
210
0.0
220
0.0
230
1.0
 40
0.3746065934
 41
3.040717007943063
 42
3.425724271559218
  0
ELLIPSE
  5
D3
330
5E
100
AcDbEntity
  8
64647040_EINSATZ
  6
Continuous
 62
     7
100
AcDbEllipse
 10
33.1569950025
 20
463.4221084328
 30
0.0
 11
4.650545274088402
 21
0.0
 31
0.0
210
0.0
220
0.0
230
1.0
 40
0.3746065934
 41
0.0
 42
0.1034618626391749
  0
ELLIPSE
  5
D4
330
5E
100
AcDbEntity
  8
64647040_EINSATZ
  6
Continuous
 62
     7
100
AcDbEllipse
 10
33.1569950025
 20
463.343488544
 30
0.0
 11
-4.55170810432334
 21
0.0
 31
0.0
210
0.0
220
0.0
230
1.0
 40
0.3746065934
 41
1.102156490977177
 42
2.066229463526179
  0
ELLIPSE
  5
D5
330
5E
100
AcDbEntity
  8
64647040_EINSATZ
  6
Continuous
 62
     7
100
AcDbEllipse
 10
33.1569950025
 20
463.343488544
 30
0.0
 11
-4.537499999999999
 21
0.0
 31
0.0
210
0.0
220
0.0
230
1.0
 40
0.3746065934
 41
3.823714903617254
 42
5.573796577964387
  0
ELLIPSE
  5
D6
330
5E
100
AcDbEntity
  8
64647040_EINSATZ
  6
Continuous
 62
     7
100
AcDbEllipse
 10
33.1569950025
 20
463.343488544
 30
0.0
 11
-4.537499999999999
 21
0.0
 31
0.0
210
0.0
220
0.0
230
1.0
 40
0.3746065934
 41
1.068855547694821
 42
2.222775723505834
  0
ELLIPSE
  5
D7
330
5E
100
AcDbEntity
  8
64647040_EINSATZ
  6
Continuous
 62
     7
100
AcDbEllipse
 10
33.1569950025
 20
463.4362069294
 30
0.0
 11
-4.4375
 21
0.0
 31
0.0
210
0.0
220
0.0
230
1.0
 40
0.3746065934
 41
3.127821515822237
 42
3.141592653589793
  0
ELLIPSE
  5
D8
330
5E
100
AcDbEntity
  8
64647040_EINSATZ
  6
Continuous
 62
     7
100
AcDbEllipse
 10
33.1569950025
 20
463.4362069294
 30
0.0
 11
-4.4375
 21
0.0
 31
0.0
210
0.0
220
0.0
230
1.0
 40
0.3746065934
 41
6.272277780735891
 42
6.283185307179586
  0
ELLIPSE
  5
D9
330
5E
100
AcDbEntity
  8
64647040_EINSATZ
  6
Continuous
 62
     7
100
AcDbEllipse
 10
33.1569950025
 20
463.4193741403
 30
0.0
 11
-2.877609892686964
 21
0.0
 31
0.0
210
0.0
220
0.0
230
1.0
 40
0.3746065934
 41
-3.231027793269689
 42
-3.216251448560004
  0
ELLIPSE
  5
DA
330
5E
100
AcDbEntity
  8
64647040_EINSATZ
  6
Continuous
 62
     7
100
AcDbEllipse
 10
33.1569950025
 20
463.4193741403
 30
0.0
 11
-2.877609892686964
 21
0.0
 31
0.0
210
0.0
220
0.0
230
1.0
 40
0.3746065934
 41
0.0746587949701945
 42
0.0950959472426946
  0
ELLIPSE
  5
DB
330
5E
100
AcDbEntity
  8
64647040_EINSATZ
  6
Continuous
 62
     7
100
AcDbEllipse
 10
33.1569950025
 20
463.343488544
 30
0.0
 11
2.779271674648246
 21
0.0
 31
0.0
210
0.0
220
0.0
230
1.0
 40
0.3746065934
 41
0.7413350900052829
 42
2.460073572475529
  0
ELLIPSE
  5
DC
330
5E
100
AcDbEntity
  8
64647040_EINSATZ
  6
Continuous
 62
     7
100
AcDbEllipse
 10
33.1569950025
 20
463.343488544
 30
0.0
 11
2.762500000000001
 21
0.0
 31
0.0
210
0.0
220
0.0
230
1.0
 40
0.3746065934
 41
4.17147334549183
 42
5.164535590773908
  0
ELLIPSE
  5
DD
330
5E
100
AcDbEntity
  8
64647040_EINSATZ
  6
Continuous
 62
     7
100
AcDbEllipse
 10
33.1569950025
 20
463.343488544
 30
0.0
 11
2.762500000000001
 21
0.0
 31
0.0
210
0.0
220
0.0
230
1.0
 40
0.3746065934
 41
0.6742919630090946
 42
2.39927409397616
  0
ELLIPSE
  5
DE
330
5E
100
AcDbEntity
  8
64647040_EINSATZ
  6
Continuous
 62
     7
100
AcDbEllipse
 10
33.1569950025
 20
463.4362069294
 30
0.0
 11
-2.6625
 21
0.0
 31
0.0
210
0.0
220
0.0
230
1.0
 40
0.3746065934
 41
3.141592653589793
 42
3.16209854863019
  0
ELLIPSE
  5
DF
330
5E
100
AcDbEntity
  8
64647040_EINSATZ
  6
Continuous
 62
     7
100
AcDbEllipse
 10
33.1569950025
 20
463.4362069294
 30
0.0
 11
-2.6625
 21
0.0
 31
0.0
210
0.0
220
0.0
230
1.0
 40
0.3746065934
 41
6.269817681268904
 42
6.283185307179586
  0
ELLIPSE
  5
E0
330
5E
100
AcDbEntity
  8
64647040_EINSATZ
  6
Continuous
 62
     7
100
AcDbEllipse
 10
33.1569950025
 20
464.8501623077
 30
0.0
 11
-8.925000000000001
 21
0.0
 31
0.0
210
0.0
220
0.0
230
1.0
 40
0.3746065934
 41
0.0
 42
0.1309050977977321
  0
ELLIPSE
  5
E1
330
5E
100
AcDbEntity
  8
64647040_EINSATZ
  6
Continuous
 62
     7
100
AcDbEllipse
 10
33.1569950025
 20
464.8501623077
 30
0.0
 11
-8.925000000000001
 21
0.0
 31
0.0
210
0.0
220
0.0
230
1.0
 40
0.3746065934
 41
3.010687555792057
 42
3.141592653589793
  0
ELLIPSE
  5
E2
330
5E
100
AcDbEntity
  8
64647040_EINSATZ
  6
Continuous
 62
     7
100
AcDbEllipse
 10
33.1569950025
 20
464.8501623077
 30
0.0
 11
-8.925000000000001
 21
0.0
 31
0.0
210
0.0
220
0.0
230
1.0
 40
0.3746065934
 41
6.14102883466883
 42
6.283185307179586
  0
ELLIPSE
  5
E3
330
5E
100
AcDbEntity
  8
64647040_EINSATZ
  6
Continuous
 62
     7
100
AcDbEllipse
 10
33.1569950025
 20
464.8501623077
 30
0.0
 11
-4.437499999999746
 21
0.0
 31
0.0
210
0.0
220
0.0
230
1.0
 40
0.3746065934
 41
-3.61446545259071
 42
-3.594336593078995
  0
SPLINE
  5
E4
330
5E
100
AcDbEntity
  8
64647040_EINSATZ
  6
Continuous
 62
     7
100
AcDbSpline
210
0.0
220
0.0
230
1.0
 70
    12
 71
     2
 72
     6
 73
     3
 74
     0
 42
0.0000000102330537
 43
0.0000000001
 40
0.0
 40
0.0
 40
0.0
 40
1.0
 40
1.0
 40
1.0
 10
37.05384038293519
 20
463.1173192588386
 30
0.0
 41
1.0
 10
37.08133592238899
 20
463.6050566445867
 30
0.0
 41
1.0
 10
37.10753954808366
 20
464.0930672720182
 30
0.0
 41
1.0
  0
SPLINE
  5
E5
330
5E
100
AcDbEntity
  8
64647040_EINSATZ
  6
Continuous
 62
     7
100
AcDbSpline
210
0.0
220
0.0
230
1.0
 70
     8
 71
     3
 72
    20
 73
    16
 74
     0
 42
0.0000000778858823
 43
0.0000000001
 40
0.0
 40
0.0
 40
0.0
 40
0.0
 40
0.2315617251741046
 40
0.2315617251741046
 40
0.2315617251741046
 40
0.4631201961537088
 40
0.4631201961537088
 40
0.4631201961537088
 40
0.6947246952950202
 40
0.6947246952950202
 40
0.6947246952950202
 40
0.9263410357509406
 40
0.9263410357509406
 40
0.9263410357509406
 40
1.0
 40
1.0
 40
1.0
 40
1.0
 10
37.05384038293517
 20
463.1173192588386
 30
0.0
 10
37.05323573679119
 20
463.1065934371251
 30
0.0
 10
37.05170455447679
 20
463.0952903281739
 30
0.0
 10
37.04936415869926
 20
463.0843481125514
 30
0.0
 10
37.04702378234717
 20
463.0734059877501
 30
0.0
 10
37.04380901692735
 20
463.0625231125969
 30
0.0
 10
37.0399690130229
 20
463.0526037536298
 30
0.0
 10
37.03612826463019
 20
463.0426824715276
 30
0.0
 10
37.03155522761531
 20
463.0334516096781
 30
0.0
 10
37.02661151338942
 20
463.0256790622509
 30
0.0
 10
37.0216675760855
 20
463.0179061640986
 30
0.0
 10
37.01621584014228
 20
463.0113774600993
 30
0.0
 10
37.01069844562411
 20
463.0066360477459
 30
0.0
 10
37.00892112507914
 20
463.0051086946521
 30
0.0
 10
37.007126939217
 20
463.0037533470096
 30
0.0
 10
37.00533154107741
 20
463.0025818986491
 30
0.0
  0
LINE
  5
E6
330
5E
100
AcDbEntity
  8
64647040_EINSATZ
  6
Continuous
 62
     7
100
AcDbLine
 10
36.9946114948
 20
462.995626329
 30
0.0
 11
37.0053315411
 21
463.0025818986
 31
0.0
  0
SPLINE
  5
E7
330
5E
100
AcDbEntity
  8
64647040_EINSATZ
  6
Continuous
 62
     7
100
AcDbSpline
210
0.0
220
0.0
230
1.0
 70
     8
 71
     3
 72
    11
 73
     7
 74
     0
 42
0.0000001313671053
 43
0.0000000001
 40
0.0
 40
0.0
 40
0.0
 40
0.0
 40
0.2315601448090014
 40
0.2315601448090014
 40
0.2315601448090014
 40
0.2991849979700422
 40
0.2991849979700422
 40
0.2991849979700422
 40
0.2991849979700422
 10
36.99461149482961
 20
462.9956263290053
 30
0.0
 10
36.98899247742556
 20
462.9920007543943
 30
0.0
 10
36.98325735086722
 20
462.9901249010535
 30
0.0
 10
36.97788700923659
 20
462.9901526232316
 30
0.0
 10
36.97631864585131
 20
462.9901607192619
 30
0.0
 10
36.97476880772663
 20
462.9903312171135
 30
0.0
 10
36.97324849572717
 20
462.9906600470828
 30
0.0
  0
SPLINE
  5
E8
330
5E
100
AcDbEntity
  8
64647040_EINSATZ
  6
Continuous
 62
     7
100
AcDbSpline
210
0.0
220
0.0
230
1.0
 70
    12
 71
     2
 72
     6
 73
     3
 74
     0
 42
0.0000000104573887
 43
0.0000000001
 40
0.8961709860112546
 40
0.8961709860112546
 40
0.8961709860112546
 40
1.0
 40
1.0
 40
1.0
 10
34.42292543103066
 20
462.4166278833082
 30
0.0
 41
1.0
 10
34.41720517089595
 20
462.3673120575859
 30
0.0
 41
1.0
 10
34.411480742107
 20
462.3180019854535
 30
0.0
 41
1.0
  0
ARC
  5
E9
330
5E
100
AcDbEntity
  8
64647040_EINSATZ
  6
Continuous
 62
     7
100
AcDbCircle
 10
34.3045087087
 20
462.3330582296
 30
0.0
 40
0.1080264155012431
100
AcDbArc
 50
276.0295404407
 51
351.9882846965
  0
LINE
  5
EA
330
5E
100
AcDbEntity
  8
64647040_EINSATZ
  6
Continuous
 62
     7
100
AcDbLine
 10
34.3158559334
 20
462.2256294302
 30
0.0
 11
34.2951463943
 21
462.2235506992
 31
0.0
  0
ARC
  5
EB
330
5E
100
AcDbEntity
  8
64647040_EINSATZ
  6
Continuous
 62
     7
100
AcDbCircle
 10
34.2834058684
 20
462.3080936225
 30
0.0
 40
0.0853542373088023
100
AcDbArc
 50
215.3813521749
 51
277.9061342314
  0
ELLIPSE
  5
EC
330
5E
100
AcDbEntity
  8
64647040_EINSATZ
  6
Continuous
 62
     7
100
AcDbEllipse
 10
-144.2946017221
 20
501.3991177169
 30
0.0
 11
83.29370480987701
 21
-190.1211538220165
 31
0.0
210
0.0
220
0.0
230
1.0
 40
0.8401260008
 41
1.029685440489807
 42
1.031642364959434
  0
SPLINE
  5
ED
330
5E
100
AcDbEntity
  8
64647040_EINSATZ
  6
Continuous
 62
     7
100
AcDbSpline
210
0.0
220
0.0
230
1.0
 70
     8
 71
     3
 72
    20
 73
    16
 74
     0
 42
0.0000000779808214
 43
0.0000000001
 40
0.0
 40
0.0
 40
0.0
 40
0.0
 40
0.231503175539851
 40
0.231503175539851
 40
0.231503175539851
 40
0.4629973077722656
 40
0.4629973077722656
 40
0.4629973077722656
 40
0.6946193131207108
 40
0.6946193131207108
 40
0.6946193131207108
 40
0.926274237691373
 40
0.926274237691373
 40
0.926274237691373
 40
1.0
 40
1.0
 40
1.0
 40
1.0
 10
35.5158563292683
 20
463.4499532469077
 30
0.0
 10
35.51526991378302
 20
463.4392253914217
 30
0.0
 10
35.51378531326207
 20
463.4279146184971
 30
0.0
 10
35.51150979288312
 20
463.4169612894537
 30
0.0
 10
35.50923432498939
 20
463.4060082130505
 30
0.0
 10
35.50610418863932
 20
463.3951107457514
 30
0.0
 10
35.5023500633578
 20
463.3851757043898
 30
0.0
 10
35.4985939154486
 20
463.3752353102795
 30
0.0
 10
35.49410803769106
 20
463.3659844799706
 30
0.0
 10
35.48923525272163
 20
463.3581948858589
 30
0.0
 10
35.48436185650977
 20
463.35040431462
 30
0.0
 10
35.47896576638433
 20
463.3438606838013
 30
0.0
 10
35.47347842516488
 20
463.3391104212562
 30
0.0
 10
35.4717094594922
 20
463.3375790691783
 30
0.0
 10
35.46992110867475
 20
463.3362205602568
 30
0.0
 10
35.46812897338609
 20
463.3350468672035
 30
0.0
  0
SPLINE
  5
EE
330
5E
100
AcDbEntity
  8
64647040_EINSATZ
  6
Continuous
 62
     7
100
AcDbSpline
210
0.0
220
0.0
230
1.0
 70
    12
 71
     2
 72
     6
 73
     3
 74
     0
 42
0.0000007825351782
 43
0.0000000001
 40
0.0
 40
0.0
 40
0.0
 40
1.0
 40
1.0
 40
1.0
 10
35.46812897338611
 20
463.3350468672035
 30
0.0
 41
1.0
 10
35.46280633013797
 20
463.3315609978914
 30
0.0
 41
1.0
 10
35.45740892713831
 20
463.3280912975598
 30
0.0
 41
1.0
  0
SPLINE
  5
EF
330
5E
100
AcDbEntity
  8
64647040_EINSATZ
  6
Continuous
 62
     7
100
AcDbSpline
210
0.0
220
0.0
230
1.0
 70
     8
 71
     3
 72
    11
 73
     7
 74
     0
 42
0.0000001304087947
 43
0.0000000001
 40
0.0
 40
0.0
 40
0.0
 40
0.0
 40
0.2314987849631123
 40
0.2314987849631123
 40
0.2314987849631123
 40
0.2991763776958071
 40
0.2991763776958071
 40
0.2991763776958071
 40
0.2991763776958071
 10
35.4574089271383
 20
463.3280912975598
 30
0.0
 10
35.45177534877696
 20
463.3244697727802
 30
0.0
 10
35.44599980493324
 20
463.3226030325609
 30
0.0
 10
35.44057053194901
 20
463.3226429648438
 30
0.0
 10
35.43898328634395
 20
463.3226546390293
 30
0.0
 10
35.43741291514856
 20
463.3228293334848
 30
0.0
 10
35.43587085667404
 20
463.3231628737038
 30
0.0
  0
ELLIPSE
  5
F0
330
5E
100
AcDbEntity
  8
64647040_EINSATZ
  6
Continuous
 62
     7
100
AcDbEllipse
 10
-19.8754078837
 20
537.1626914411
 30
0.0
 11
-1.806456847604172
 21
-207.5588523739785
 31
0.0
210
0.0
220
0.0
230
1.0
 40
0.2807346548
 41
1.207652217695918
 42
1.211090587635856
  0
ARC
  5
F1
330
5E
100
AcDbEntity
  8
64647040_EINSATZ
  6
Continuous
 62
     7
100
AcDbCircle
 10
33.8447486759
 20
462.9753738239
 30
0.0
 40
0.1081065177844787
100
AcDbArc
 50
276.2137458806
 51
352.146191221
  0
LINE
  5
F2
330
5E
100
AcDbEntity
  8
64647040_EINSATZ
  6
Continuous
 62
     7
100
AcDbLine
 10
33.856449894
 20
462.8679024292
 30
0.0
 11
33.835740355
 21
462.8658236981
 31
0.0
  0
ARC
  5
F3
330
5E
100
AcDbEntity
  8
64647040_EINSATZ
  6
Continuous
 62
     7
100
AcDbCircle
 10
33.8241933299
 20
462.9508403279
 30
0.0
 40
0.0857972093096524
100
AcDbArc
 50
215.3660747957
 51
277.7346283319
  0
SPLINE
  5
F4
330
5E
100
AcDbEntity
  8
64647040_EINSATZ
  6
Continuous
 62
     7
100
AcDbSpline
210
0.0
220
0.0
230
1.0
 70
    12
 71
     2
 72
     6
 73
     3
 74
     0
 42
0.0000000098374499
 43
0.0000000001
 40
0.9744908612654402
 40
0.9744908612654402
 40
0.9744908612654402
 40
1.0
 40
1.0
 40
1.0
 10
32.4952844081111
 20
465.0250951727096
 30
0.0
 41
1.0
 10
32.49447108071057
 20
465.0121554892217
 30
0.0
 41
1.0
 10
32.49365806988762
 20
464.9992155823206
 30
0.0
 41
1.0
  0
ARC
  5
F5
330
5E
100
AcDbEntity
  8
64647040_EINSATZ
  6
Continuous
 62
     7
100
AcDbCircle
 10
32.3895979174
 20
465.0057303079
 30
0.0
 40
0.1042638815563528
100
AcDbArc
 50
276.4993466107
 51
356.4176512069
  0
LINE
  5
F6
330
5E
100
AcDbEntity
  8
64647040_EINSATZ
  6
Continuous
 62
     7
100
AcDbLine
 10
32.4013997425
 20
464.9021365151
 30
0.0
 11
32.3806902034
 21
464.900057784
 31
0.0
  0
ARC
  5
F7
330
5E
100
AcDbEntity
  8
64647040_EINSATZ
  6
Continuous
 62
     7
100
AcDbCircle
 10
32.3709748105
 20
464.9903781232
 30
0.0
 40
0.0908413591728123
100
AcDbArc
 50
215.9459451428
 51
276.1394686553
  0
SPLINE
  5
F8
330
5E
100
AcDbEntity
  8
64647040_EINSATZ
  6
Continuous
 62
     7
100
AcDbSpline
210
0.0
220
0.0
230
1.0
 70
    12
 71
     2
 72
     6
 73
     3
 74
     0
 42
0.0000000098641471
 43
0.0000000001
 40
0.7565601418862425
 40
0.7565601418862425
 40
0.7565601418862425
 40
1.0
 40
1.0
 40
1.0
 10
30.61228561946012
 20
464.7508014724958
 30
0.0
 41
1.0
 10
30.62443773735317
 20
464.62801040097
 30
0.0
 41
1.0
 10
30.63668065149622
 20
464.5052175447801
 30
0.0
 41
1.0
  0
SPLINE
  5
F9
330
5E
100
AcDbEntity
  8
64647040_EINSATZ
  6
Continuous
 62
     7
100
AcDbSpline
210
0.0
220
0.0
230
1.0
 70
     8
 71
     3
 72
    20
 73
    16
 74
     0
 42
0.000000077933225
 43
0.0000000001
 40
0.0
 40
0.0
 40
0.0
 40
0.0
 40
0.2348909763293502
 40
0.2348909763293502
 40
0.2348909763293502
 40
0.4699467598501541
 40
0.4699467598501541
 40
0.4699467598501541
 40
0.702546017013065
 40
0.702546017013065
 40
0.702546017013065
 40
0.9322077561171234
 40
0.9322077561171234
 40
0.9322077561171234
 40
1.0
 40
1.0
 40
1.0
 40
1.0
 10
30.63668065148068
 20
464.5052175447734
 30
0.0
 10
30.63779270350716
 20
464.4940683707445
 30
0.0
 10
30.63785549288472
 20
464.4823418113499
 30
0.0
 10
30.63686438470148
 20
464.4710006117334
 30
0.0
 10
30.63587286776076
 20
464.4596547347264
 30
0.0
 10
30.63379812096415
 20
464.448379396209
 30
0.0
 10
30.63082746625297
 20
464.4381349608573
 30
0.0
 10
30.6278876727947
 20
464.4279969519137
 30
0.0
 10
30.62398872979637
 20
464.418585074832
 30
0.0
 10
30.61947903799572
 20
464.4107084036115
 30
0.0
 10
30.61502529480899
 20
464.40292945278
 30
0.0
 10
30.60985274148746
 20
464.3964309859983
 30
0.0
 10
30.60440748184231
 20
464.3917648251599
 30
0.0
 10
30.60277869567186
 20
464.3903690830396
 30
0.0
 10
30.60111734366733
 20
464.3891255872925
 30
0.0
 10
30.59943627517987
 20
464.3880439144575
 30
0.0
  0
SPLINE
  5
FA
330
5E
100
AcDbEntity
  8
64647040_EINSATZ
  6
Continuous
 62
     7
100
AcDbSpline
210
0.0
220
0.0
230
1.0
 70
    12
 71
     2
 72
     6
 73
     3
 74
     0
 42
0.0000007825365226
 43
0.0000000001
 40
0.0
 40
0.0
 40
0.0
 40
1.0
 40
1.0
 40
1.0
 10
30.59943627517989
 20
464.3880439144575
 30
0.0
 41
1.0
 10
30.59404262260767
 20
464.3845734029865
 30
0.0
 41
1.0
 10
30.58871622893209
 20
464.3810883448139
 30
0.0
 41
1.0
  0
SPLINE
  5
FB
330
5E
100
AcDbEntity
  8
64647040_EINSATZ
  6
Continuous
 62
     7
100
AcDbSpline
210
0.0
220
0.0
230
1.0
 70
     8
 71
     3
 72
    11
 73
     7
 74
     0
 42
0.0000001259966942
 43
0.0000000001
 40
0.0
 40
0.0
 40
0.0
 40
0.0
 40
0.2280395246268691
 40
0.2280395246268691
 40
0.2280395246268691
 40
0.297620330468087
 40
0.297620330468087
 40
0.297620330468087
 40
0.297620330468087
 10
30.58871622893207
 20
464.3810883448138
 30
0.0
 10
30.58320642052164
 20
464.3774832784218
 30
0.0
 10
30.57737360277169
 20
464.3756414209894
 30
0.0
 10
30.57169366566828
 20
464.3757117957668
 30
0.0
 10
30.5699603810303
 20
464.3757332712725
 30
0.0
 10
30.56822675058089
 20
464.375932909938
 30
0.0
 10
30.56650537832376
 20
464.3763056926681
 30
0.0
  0
LINE
  5
FC
330
5E
100
AcDbEntity
  8
64647040_EINSATZ
  6
Continuous
 62
     7
100
AcDbLine
 10
33.1677150488
 20
461.5170678391
 30
0.0
 11
33.1462749563
 21
461.5170678391
 31
0.0
  0
SPLINE
  5
FD
330
5E
100
AcDbEntity
  8
64647040_EINSATZ
  6
Continuous
 62
     7
100
AcDbSpline
210
0.0
220
0.0
230
1.0
 70
    12
 71
     2
 72
     6
 73
     3
 74
     0
 42
0.0000000102054906
 43
0.0000000001
 40
0.5250309900180804
 40
0.5250309900180804
 40
0.5250309900180804
 40
1.0
 40
1.0
 40
1.0
 10
39.16208407802694
 20
463.8189624723473
 30
0.0
 41
1.0
 10
39.15572374036784
 20
463.5863386225775
 30
0.0
 41
1.0
 10
39.14913009347243
 20
463.3537374770366
 30
0.0
 41
1.0
  0
ARC
  5
FE
330
5E
100
AcDbEntity
  8
64647040_EINSATZ
  6
Continuous
 62
     7
100
AcDbCircle
 10
38.8761334661
 20
463.3491741643
 30
0.0
 40
0.2730347635973469
100
AcDbArc
 50
335.3828719897
 51
0.9576462316
  0
LINE
  5
FF
330
5E
100
AcDbEntity
  8
64647040_EINSATZ
  6
Continuous
 62
     7
100
AcDbLine
 10
39.1243525439
 20
463.2354408288
 30
0.0
 11
39.1188034396
 21
463.227682899
 31
0.0
  0
SPLINE
  5
100
330
5E
100
AcDbEntity
  8
64647040_EINSATZ
  6
Continuous
 62
     7
100
AcDbSpline
210
0.0
220
0.0
230
1.0
 70
     8
 71
     3
 72
    11
 73
     7
 74
     0
 42
0.0000002081589837
 43
0.0000000001
 40
0.0
 40
0.0
 40
0.0
 40
0.0
 40
0.2315768354864387
 40
0.2315768354864387
 40
0.2315768354864387
 40
0.2714423156742166
 40
0.2714423156742166
 40
0.2714423156742166
 40
0.2714423156742166
 10
39.11880343959675
 20
463.2276828989678
 30
0.0
 10
39.11588802794543
 20
463.2236351267607
 30
0.0
 10
39.11290142161965
 20
463.2213261559623
 30
0.0
 10
39.11009571289429
 20
463.2209466124629
 30
0.0
 10
39.10961271455904
 20
463.2208812746477
 30
0.0
 10
39.10913279667942
 20
463.220872802942
 30
0.0
 10
39.10865716251989
 20
463.2209205404025
 30
0.0
  0
SPLINE
  5
101
330
5E
100
AcDbEntity
  8
64647040_EINSATZ
  6
Continuous
 62
     7
100
AcDbSpline
210
0.0
220
0.0
230
1.0
 70
    12
 71
     2
 72
     6
 73
     3
 74
     0
 42
0.0000000102356099
 43
0.0000000001
 40
0.0
 40
0.0
 40
0.0
 40
0.4936908800319095
 40
0.4936908800319095
 40
0.4936908800319095
 10
38.55889235144127
 20
462.7918077971619
 30
0.0
 41
1.0
 10
38.57263810478732
 20
463.0325614759803
 30
0.0
 41
1.0
 10
38.58615783913982
 20
463.2733632622383
 30
0.0
 41
1.0
  0
SPLINE
  5
102
330
5E
100
AcDbEntity
  8
64647040_EINSATZ
  6
Continuous
 62
     7
100
AcDbSpline
210
0.0
220
0.0
230
1.0
 70
     8
 71
     3
 72
    20
 73
    16
 74
     0
 42
0.0000000778449561
 43
0.0000000001
 40
0.0
 40
0.0
 40
0.0
 40
0.0
 40
0.2315776519147192
 40
0.2315776519147192
 40
0.2315776519147192
 40
0.463153623065604
 40
0.463153623065604
 40
0.463153623065604
 40
0.694753363203157
 40
0.694753363203157
 40
0.694753363203157
 40
0.9263592170776642
 40
0.9263592170776642
 40
0.9263592170776642
 40
1.0
 40
1.0
 40
1.0
 40
1.0
 10
38.55889235144132
 20
462.7918077971619
 30
0.0
 10
38.5582800316874
 20
462.7810831152171
 30
0.0
 10
38.55672926523089
 20
462.7697835861964
 30
0.0
 10
38.55436163905584
 20
462.7588464663569
 30
0.0
 10
38.55199402302807
 20
462.7479093933924
 30
0.0
 10
38.54874378607104
 20
462.7370331805344
 30
0.0
 10
38.54486783494816
 20
462.7271208098826
 30
0.0
 10
38.54099149580232
 20
462.7172074468996
 30
0.0
 10
38.5363817762467
 20
462.7079848227633
 30
0.0
 10
38.53140816572655
 20
462.7002192053322
 30
0.0
 10
38.52643443933225
 20
462.6924534069794
 30
0.0
 10
38.52095911160002
 20
462.6859305916452
 30
0.0
 10
38.51542887483821
 20
462.6811925958776
 30
0.0
 10
38.51364778139512
 20
462.6796666552066
 30
0.0
 10
38.51185087368843
 20
462.6783124130288
 30
0.0
 10
38.51005383548337
 20
462.6771417381865
 30
0.0
  0
LINE
  5
103
330
5E
100
AcDbEntity
  8
64647040_EINSATZ
  6
Continuous
 62
     7
100
AcDbLine
 10
38.4993337892
 20
462.6701861685
 30
0.0
 11
38.5100538355
 21
462.6771417382
 31
0.0
  0
SPLINE
  5
104
330
5E
100
AcDbEntity
  8
64647040_EINSATZ
  6
Continuous
 62
     7
100
AcDbSpline
210
0.0
220
0.0
230
1.0
 70
     8
 71
     3
 72
    11
 73
     7
 74
     0
 42
0.0000001317748969
 43
0.0000000001
 40
0.0
 40
0.0
 40
0.0
 40
0.0
 40
0.2315768355022701
 40
0.2315768355022701
 40
0.2315768355022701
 40
0.2991873398541335
 40
0.2991873398541335
 40
0.2991873398541335
 40
0.2991873398541335
 10
38.49933378923557
 20
462.6701861685429
 30
0.0
 10
38.49372107581453
 20
462.6665589855011
 30
0.0
 10
38.48800319183576
 20
462.6646793018297
 30
0.0
 10
38.48265792106857
 20
462.6647017474699
 30
0.0
 10
38.48109732705516
 20
462.6647083006519
 30
0.0
 10
38.47955596080575
 20
462.6648770326439
 30
0.0
 10
38.47804464181449
 20
462.6652039157315
 30
0.0
  0
SPLINE
  5
105
330
5E
100
AcDbEntity
  8
64647040_EINSATZ
  6
Continuous
 62
     7
100
AcDbSpline
210
0.0
220
0.0
230
1.0
 70
    12
 71
     2
 72
     6
 73
     3
 74
     0
 42
0.0000000102876131
 43
0.0000000001
 40
0.4434559684313057
 40
0.4434559684313057
 40
0.4434559684313057
 40
1.0
 40
1.0
 40
1.0
 10
37.64470851832532
 20
462.8454292770917
 30
0.0
 41
1.0
 10
37.62273365446186
 20
462.5757972515927
 30
0.0
 41
1.0
 10
37.60052423183835
 20
462.306252096318
 30
0.0
 41
1.0
  0
ARC
  5
106
330
5E
100
AcDbEntity
  8
64647040_EINSATZ
  6
Continuous
 62
     7
100
AcDbCircle
 10
37.4706383882
 20
462.3126352284
 30
0.0
 40
0.1300425953531605
100
AcDbArc
 50
297.6330204327
 51
357.1865098928
  0
LINE
  5
107
330
5E
100
AcDbEntity
  8
64647040_EINSATZ
  6
Continuous
 62
     7
100
AcDbLine
 10
37.530953014
 20
462.1974257561
 30
0.0
 11
37.5157925792
 21
462.1917465572
 31
0.0
  0
SPLINE
  5
108
330
5E
100
AcDbEntity
  8
64647040_EINSATZ
  6
Continuous
 62
     7
100
AcDbSpline
210
0.0
220
0.0
230
1.0
 70
     8
 71
     3
 72
    11
 73
     7
 74
     0
 42
0.0000000981597769
 43
0.0000000001
 40
0.0
 40
0.0
 40
0.0
 40
0.0
 40
0.2315768354864399
 40
0.2315768354864399
 40
0.2315768354864399
 40
0.3564567639832137
 40
0.3564567639832137
 40
0.3564567639832137
 40
0.3564567639832137
 10
37.51579257919393
 20
462.1917465572286
 30
0.0
 10
37.50786506114735
 20
462.1887871498821
 30
0.0
 10
37.4998055638595
 20
462.1875869376345
 30
0.0
 10
37.49228500241979
 20
462.1882438990191
 30
0.0
 10
37.48822945992416
 20
462.1885981724114
 30
0.0
 10
37.48427041382897
 20
462.1894977394182
 30
0.0
 10
37.48050258643156
 20
462.1909091860111
 30
0.0
  0
SPLINE
  5
109
330
5E
100
AcDbEntity
  8
64647040_EINSATZ
  6
Continuous
 62
     7
100
AcDbSpline
210
0.0
220
0.0
230
1.0
 70
    12
 71
     2
 72
     6
 73
     3
 74
     0
 42
0.0000000103633107
 43
0.0000000001
 40
0.8030655710173685
 40
0.8030655710173685
 40
0.8030655710173685
 40
1.0
 40
1.0
 40
1.0
 10
36.35871403255819
 20
462.1192001051838
 30
0.0
 41
1.0
 10
36.34903587192657
 20
462.0246734742155
 30
0.0
 41
1.0
 10
36.33933693869498
 20
461.9301601932997
 30
0.0
 41
1.0
  0
ARC
  5
10A
330
5E
100
AcDbEntity
  8
64647040_EINSATZ
  6
Continuous
 62
     7
100
AcDbCircle
 10
36.2227033121
 20
461.9420283395
 30
0.0
 40
0.1172358978681102
100
AcDbArc
 50
285.3686544227
 51
354.1898212474
  0
LINE
  5
10B
330
5E
100
AcDbEntity
  8
64647040_EINSATZ
  6
Continuous
 62
     7
100
AcDbLine
 10
36.2537741823
 20
461.8289847339
 30
0.0
 11
36.2352065176
 21
461.8249689339
 31
0.0
  0
ARC
  5
10C
330
5E
100
AcDbEntity
  8
64647040_EINSATZ
  6
Continuous
 62
     7
100
AcDbCircle
 10
36.2184024752
 20
461.8927528356
 30
0.0
 40
0.0698357585384002
100
AcDbArc
 50
237.2522976198
 51
283.9232731807
  0
SPLINE
  5
10D
330
5E
100
AcDbEntity
  8
64647040_EINSATZ
  6
Continuous
 62
     7
100
AcDbSpline
210
0.0
220
0.0
230
1.0
 70
    12
 71
     2
 72
     6
 73
     3
 74
     0
 42
0.0000000104605634
 43
0.0000000001
 40
0.9214626930803662
 40
0.9214626930803662
 40
0.9214626930803662
 40
1.0
 40
1.0
 40
1.0
 10
34.86995290177891
 20
461.7637387420198
 30
0.0
 41
1.0
 10
34.8656164573753
 20
461.7264492505977
 30
0.0
 41
1.0
 10
34.86127830167197
 20
461.6891621297081
 30
0.0
 41
1.0
  0
ARC
  5
10E
330
5E
100
AcDbEntity
  8
64647040_EINSATZ
  6
Continuous
 62
     7
100
AcDbCircle
 10
34.7543569011
 20
461.7043382268
 30
0.0
 40
0.1079930549516403
100
AcDbArc
 50
275.9518391226
 51
351.921573236
  0
LINE
  5
10F
330
5E
100
AcDbEntity
  8
64647040_EINSATZ
  6
Continuous
 62
     7
100
AcDbLine
 10
34.7655549672
 20
461.5969273184
 30
0.0
 11
34.7448454282
 21
461.5948485874
 31
0.0
  0
ARC
  5
110
330
5E
100
AcDbEntity
  8
64647040_EINSATZ
  6
Continuous
 62
     7
100
AcDbCircle
 10
34.7330236401
 20
461.6791919214
 30
0.0
 40
0.0851677911984878
100
AcDbArc
 50
215.3878878795
 51
277.9787521298
  0
SPLINE
  5
111
330
5E
100
AcDbEntity
  8
64647040_EINSATZ
  6
Continuous
 62
     7
100
AcDbSpline
210
0.0
220
0.0
230
1.0
 70
    12
 71
     2
 72
     6
 73
     3
 74
     0
 42
0.0000000105769734
 43
0.0000000001
 40
0.9581763082616754
 40
0.9581763082616754
 40
0.9581763082616754
 40
1.0
 40
1.0
 40
1.0
 10
33.27188194386385
 20
461.6389305416537
 30
0.0
 41
1.0
 10
33.26947875939343
 20
461.6193056853669
 30
0.0
 41
1.0
 10
33.267075574275
 20
461.5996815253087
 30
0.0
 41
1.0
  0
ARC
  5
112
330
5E
100
AcDbEntity
  8
64647040_EINSATZ
  6
Continuous
 62
     7
100
AcDbCircle
 10
33.1705389939
 20
461.6147293683
 30
0.0
 40
0.097702348762684
100
AcDbArc
 50
268.3437177017
 51
351.1401979826
  0
LINE
  5
113
330
5E
100
AcDbEntity
  8
64647040_EINSATZ
  6
Continuous
 62
     7
100
AcDbLine
 10
33.1677150488
 20
466.2546817985
 30
0.0
 11
33.1462749563
 21
466.2546817985
 31
0.0
  0
ARC
  5
114
330
5E
100
AcDbEntity
  8
64647040_EINSATZ
  6
Continuous
 62
     7
100
AcDbCircle
 10
33.1458426692
 20
466.3542825302
 30
0.0
 40
0.099601669823933
100
AcDbArc
 50
222.9824702619
 51
270.2486735999
  0
ARC
  5
115
330
5E
100
AcDbEntity
  8
64647040_EINSATZ
  6
Continuous
 62
     7
100
AcDbCircle
 10
31.4800569176
 20
466.2767895269
 30
0.0
 40
0.1043983294246963
100
AcDbArc
 50
276.7320357219
 51
329.9731033244
  0
LINE
  5
116
330
5E
100
AcDbEntity
  8
64647040_EINSATZ
  6
Continuous
 62
     7
100
AcDbLine
 10
31.4922951192
 20
466.1731109968
 30
0.0
 11
31.4715855801
 21
466.1710322657
 31
0.0
  0
ARC
  5
117
330
5E
100
AcDbEntity
  8
64647040_EINSATZ
  6
Continuous
 62
     7
100
AcDbCircle
 10
31.4621218939
 20
466.2619379185
 30
0.0
 40
0.0913969313431689
100
AcDbArc
 50
215.9264580746
 51
275.9433385527
  0
ARC
  5
118
330
5E
100
AcDbEntity
  8
64647040_EINSATZ
  6
Continuous
 62
     7
100
AcDbCircle
 10
29.9007119882
 20
466.0356907573
 30
0.0
 40
0.107952140306095
100
AcDbArc
 50
285.9194616126
 51
1.0939933558
  0
LINE
  5
119
330
5E
100
AcDbEntity
  8
64647040_EINSATZ
  6
Continuous
 62
     7
100
AcDbLine
 10
29.9303217356
 20
465.931878776
 30
0.0
 11
29.9117540709
 21
465.927862976
 31
0.0
  0
SPLINE
  5
11A
330
5E
100
AcDbEntity
  8
64647040_EINSATZ
  6
Continuous
 62
     7
100
AcDbSpline
210
0.0
220
0.0
230
1.0
 70
     8
 71
     3
 72
    14
 73
    10
 74
     0
 42
0.0000000786077998
 43
0.0000000001
 40
0.0
 40
0.0
 40
0.0
 40
0.0
 40
0.2274863332652766
 40
0.2274863332652766
 40
0.2274863332652766
 40
0.4548919040074019
 40
0.4548919040074019
 40
0.4548919040074019
 40
0.4640245335791144
 40
0.4640245335791144
 40
0.4640245335791144
 40
0.4640245335791144
 10
29.91175407086111
 20
465.9278629760143
 30
0.0
 10
29.90217564239043
 20
465.9257834289054
 30
0.0
 10
29.89230504630822
 20
465.9255330915404
 30
0.0
 10
29.88296005084182
 20
465.9271264231694
 30
0.0
 10
29.87361689416744
 20
465.9287194412825
 30
0.0
 10
29.8645428961016
 20
465.932197408051
 30
0.0
 10
29.85646803488089
 20
465.9372586924525
 30
0.0
 10
29.85614371695877
 20
465.9374619733753
 30
0.0
 10
29.85582065780599
 20
465.9376680252432
 30
0.0
 10
29.85549889365582
 20
465.9378768118083
 30
0.0
  0
SPLINE
  5
11B
330
5E
100
AcDbEntity
  8
64647040_EINSATZ
  6
Continuous
 62
     7
100
AcDbSpline
210
0.0
220
0.0
230
1.0
 70
    12
 71
     2
 72
     6
 73
     3
 74
     0
 42
0.0000000098225984
 43
0.0000000001
 40
0.9010607234373762
 40
0.9010607234373762
 40
0.9010607234373762
 40
1.0
 40
1.0
 40
1.0
 10
28.64269368852459
 20
465.7606945602794
 30
0.0
 41
1.0
 10
28.64513020960855
 20
465.7103910068509
 30
0.0
 41
1.0
 10
28.64757305562443
 20
465.6600866374584
 30
0.0
 41
1.0
  0
SPLINE
  5
11C
330
5E
100
AcDbEntity
  8
64647040_EINSATZ
  6
Continuous
 62
     7
100
AcDbSpline
210
0.0
220
0.0
230
1.0
 70
     8
 71
     3
 72
    20
 73
    16
 74
     0
 42
0.0000000736901361
 43
0.0000000001
 40
0.0
 40
0.0
 40
0.0
 40
0.0
 40
0.2354503915139823
 40
0.2354503915139823
 40
0.2354503915139823
 40
0.4710570797773893
 40
0.4710570797773893
 40
0.4710570797773893
 40
0.7042698230198452
 40
0.7042698230198452
 40
0.7042698230198452
 40
0.9340165525562255
 40
0.9340165525562255
 40
0.9340165525562255
 40
1.0
 40
1.0
 40
1.0
 40
1.0
 10
28.64757305729938
 20
465.6600866378363
 30
0.0
 10
28.64812032874674
 20
465.6488186977426
 30
0.0
 10
28.64724612662066
 20
465.6370905527264
 30
0.0
 10
28.64501294434289
 20
465.6258667355926
 30
0.0
 10
28.64277890462716
 20
465.614638609036
 30
0.0
 10
28.63912066046485
 20
465.6036029613689
 30
0.0
 10
28.6343383018718
 20
465.5937013469567
 30
0.0
 10
28.62960449485523
 20
465.5839002559537
 30
0.0
 10
28.62363534038691
 20
465.5749357959224
 30
0.0
 10
28.61693681084641
 20
465.5675867898498
 30
0.0
 10
28.61033627454327
 20
465.5603452928793
 30
0.0
 10
28.60284303750187
 20
465.5544701773873
 30
0.0
 10
28.5950917291954
 20
465.5504673369828
 30
0.0
 10
28.59283550541284
 20
465.5493022041611
 30
0.0
 10
28.59054625532238
 20
465.5482854947537
 30
0.0
 10
28.58824080284748
 20
465.5474247133748
 30
0.0
  0
LINE
  5
11D
330
5E
100
AcDbEntity
  8
64647040_EINSATZ
  6
Continuous
 62
     7
100
AcDbLine
 10
28.5882408028
 20
465.5474247134
 30
0.0
 11
28.5730803681
 21
465.5417455145
 31
0.0
  0
SPLINE
  5
11E
330
5E
100
AcDbEntity
  8
64647040_EINSATZ
  6
Continuous
 62
     7
100
AcDbSpline
210
0.0
220
0.0
230
1.0
 70
     8
 71
     3
 72
    11
 73
     7
 74
     0
 42
0.0000000940342073
 43
0.0000000001
 40
0.0
 40
0.0
 40
0.0
 40
0.0
 40
0.227486333265265
 40
0.227486333265265
 40
0.227486333265265
 40
0.3545422733893703
 40
0.3545422733893703
 40
0.3545422733893703
 40
0.3545422733893703
 10
28.57308036805457
 20
465.5417455145424
 30
0.0
 10
28.56526509431219
 20
465.5388081466778
 30
0.0
 10
28.5571159033697
 20
465.537669111373
 30
0.0
 10
28.54930701072257
 20
465.5384164493726
 30
0.0
 10
28.54494488816223
 20
465.5388339195691
 30
0.0
 10
28.54062210354583
 20
465.5398458934417
 30
0.0
 10
28.5364460772101
 20
465.5414113391082
 30
0.0
  0
SPLINE
  5
11F
330
5E
100
AcDbEntity
  8
64647040_EINSATZ
  6
Continuous
 62
     7
100
AcDbSpline
210
0.0
220
0.0
230
1.0
 70
    12
 71
     2
 72
     6
 73
     3
 74
     0
 42
0.0000000098565629
 43
0.0000000001
 40
0.7441142294584556
 40
0.7441142294584556
 40
0.7441142294584556
 40
1.0
 40
1.0
 40
1.0
 10
27.56762531112006
 20
465.4216124478841
 30
0.0
 41
1.0
 10
27.58069262406273
 20
465.2924701147949
 30
0.0
 41
1.0
 10
27.59381131439748
 20
465.1633269441114
 30
0.0
 41
1.0
  0
SPLINE
  5
120
330
5E
100
AcDbEntity
  8
64647040_EINSATZ
  6
Continuous
 62
     7
100
AcDbSpline
210
0.0
220
0.0
230
1.0
 70
     8
 71
     3
 72
    20
 73
    16
 74
     0
 42
0.0000000779991877
 43
0.0000000001
 40
0.0
 40
0.0
 40
0.0
 40
0.0
 40
0.2354503911773445
 40
0.2354503911773445
 40
0.2354503911773445
 40
0.471057079544484
 40
0.471057079544484
 40
0.471057079544484
 40
0.7042698228896171
 40
0.7042698228896171
 40
0.7042698228896171
 40
0.9340165525271574
 40
0.9340165525271574
 40
0.9340165525271574
 40
1.0
 40
1.0
 40
1.0
 40
1.0
 10
27.59381131577315
 20
465.1633269447141
 30
0.0
 10
27.59494761224853
 20
465.1521420345697
 30
0.0
 10
27.59506284281624
 20
465.1403764586749
 30
0.0
 10
27.59414312521848
 20
465.1289971471604
 30
0.0
 10
27.593223054492
 20
465.1176134665205
 30
0.0
 10
27.59124031466025
 20
465.1062996174048
 30
0.0
 10
27.58835983927529
 20
465.0960200881615
 30
0.0
 10
27.58550860712213
 20
465.0858449190035
 30
0.0
 10
27.58169715992879
 20
465.0763981002998
 30
0.0
 10
27.57725191986268
 20
465.068499506983
 30
0.0
 10
27.57287170951126
 20
465.060716462717
 30
0.0
 10
27.56775383620069
 20
465.054219393826
 30
0.0
 10
27.56233364148939
 20
465.0495669626366
 30
0.0
 10
27.56075595012036
 20
465.0482127491953
 30
0.0
 10
27.55914509309461
 20
465.0470036947199
 30
0.0
 10
27.55751291855949
 20
465.045948717871
 30
0.0
  0
LINE
  5
121
330
5E
100
AcDbEntity
  8
64647040_EINSATZ
  6
Continuous
 62
     7
100
AcDbLine
 10
27.5575129186
 20
465.0459487179
 30
0.0
 11
27.5467928723
 21
465.0389931482
 31
0.0
  0
SPLINE
  5
122
330
5E
100
AcDbEntity
  8
64647040_EINSATZ
  6
Continuous
 62
     7
100
AcDbSpline
210
0.0
220
0.0
230
1.0
 70
     8
 71
     3
 72
    11
 73
     7
 74
     0
 42
0.0000001248563803
 43
0.0000000001
 40
0.0
 40
0.0
 40
0.0
 40
0.0
 40
0.2274863332652442
 40
0.2274863332652442
 40
0.2274863332652442
 40
0.2974782529707912
 40
0.2974782529707912
 40
0.2974782529707912
 40
0.2974782529707912
 10
27.54679287231169
 20
465.0389931482273
 30
0.0
 10
27.54127335128779
 20
465.0353981363729
 30
0.0
 10
27.53540091938058
 20
465.0335675841637
 30
0.0
 10
27.52966029268181
 20
465.0336466884094
 30
0.0
 10
27.52789376417974
 20
465.0336710306829
 30
0.0
 10
27.52612479962471
 20
465.0338762514702
 30
0.0
 10
27.52436680634023
 20
465.0342570383107
 30
0.0
  0
SPLINE
  5
123
330
5E
100
AcDbEntity
  8
64647040_EINSATZ
  6
Continuous
 62
     7
100
AcDbSpline
210
0.0
220
0.0
230
1.0
 70
    12
 71
     2
 72
     6
 73
     3
 74
     0
 42
0.0000000099207528
 43
0.0000000001
 40
0.4741653399564
 40
0.4741653399564
 40
0.4741653399564
 40
1.0
 40
1.0
 40
1.0
 10
26.84121879082125
 20
465.1055975002757
 30
0.0
 41
1.0
 10
26.88007483065103
 20
464.8434522983408
 30
0.0
 41
1.0
 10
26.91917134792216
 20
464.5813261191838
 30
0.0
 41
1.0
  0
SPLINE
  5
124
330
5E
100
AcDbEntity
  8
64647040_EINSATZ
  6
Continuous
 62
     7
100
AcDbSpline
210
0.0
220
0.0
230
1.0
 70
     8
 71
     3
 72
    20
 73
    16
 74
     0
 42
0.0000000817830734
 43
0.0000000001
 40
0.0
 40
0.0
 40
0.0
 40
0.0
 40
0.235450391868861
 40
0.235450391868861
 40
0.235450391868861
 40
0.4710570800229125
 40
0.4710570800229125
 40
0.4710570800229125
 40
0.7042698231571185
 40
0.7042698231571185
 40
0.7042698231571185
 40
0.9340165525868732
 40
0.9340165525868732
 40
0.9340165525868732
 40
1.0
 40
1.0
 40
1.0
 40
1.0
 10
26.91917134843106
 20
464.5813261196877
 30
0.0
 10
26.92081923368133
 20
464.5702785197132
 30
0.0
 10
26.92191604417006
 20
464.5585727191303
 30
0.0
 10
26.92237246848669
 20
464.547170558967
 30
0.0
 10
26.92282906804899
 20
464.5357640209055
 30
0.0
 10
26.92265695299072
 20
464.5243438988856
 30
0.0
 10
26.92187466045111
 20
464.5138837296433
 30
0.0
 10
26.92110030992072
 20
464.5035297543841
 30
0.0
 10
26.91970631382988
 20
464.4938262141822
 30
0.0
 10
26.91781729900255
 20
464.4856152287564
 30
0.0
 10
26.91595591869967
 20
464.4775243623863
 30
0.0
 10
26.91356218372837
 20
464.4706568367971
 30
0.0
 10
26.9108424799245
 20
464.4656029629585
 30
0.0
 10
26.91005083802855
 20
464.4641318989912
 30
0.0
 10
26.90922815131173
 20
464.4628028272644
 30
0.0
 10
26.90838048471366
 20
464.4616255498743
 30
0.0
  0
LINE
  5
125
330
5E
100
AcDbEntity
  8
64647040_EINSATZ
  6
Continuous
 62
     7
100
AcDbLine
 10
26.9083804847
 20
464.4616255499
 30
0.0
 11
26.9028313804
 21
464.45386762
 31
0.0
  0
SPLINE
  5
126
330
5E
100
AcDbEntity
  8
64647040_EINSATZ
  6
Continuous
 62
     7
100
AcDbSpline
210
0.0
220
0.0
230
1.0
 70
     8
 71
     3
 72
    11
 73
     7
 74
     0
 42
0.0000001927612834
 43
0.0000000001
 40
0.0
 40
0.0
 40
0.0
 40
0.0
 40
0.2274863332737972
 40
0.2274863332737972
 40
0.2274863332737972
 40
0.2698074439632629
 40
0.2698074439632629
 40
0.2698074439632629
 40
0.2698074439632629
 10
26.90283138044704
 20
464.453867619996
 30
0.0
 10
26.89998375837797
 20
464.4498599582684
 30
0.0
 10
26.89678828203585
 20
464.4475821959247
 30
0.0
 10
26.89350713550814
 20
464.4472163653181
 30
0.0
 10
26.89289662081654
 20
464.4471482961361
 30
0.0
 10
26.89228002101605
 20
464.4471460139542
 30
0.0
 10
26.89165909216308
 20
464.4472085771335
 30
0.0
  0
SPLINE
  5
127
330
5E
100
AcDbEntity
  8
64647040_EINSATZ
  6
Continuous
 62
     7
100
AcDbSpline
210
0.0
220
0.0
230
1.0
 70
    12
 71
     2
 72
     6
 73
     3
 74
     0
 42
0.0000000100221455
 43
0.0000000001
 40
0.4639580162839684
 40
0.4639580162839684
 40
0.4639580162839684
 40
1.0
 40
1.0
 40
1.0
 10
26.5708597957554
 20
464.4794053669182
 30
0.0
 41
1.0
 10
26.62011561852552
 20
464.216553570309
 30
0.0
 41
1.0
 10
26.66962875501894
 20
463.9537465570924
 30
0.0
 41
1.0
  0
ARC
  5
128
330
5E
100
AcDbEntity
  8
64647040_EINSATZ
  6
Continuous
 62
     7
100
AcDbCircle
 10
25.8056755813
 20
463.7812703412
 30
0.0
 40
0.8810012096983213
100
AcDbArc
 50
3.4492894604
 51
11.2898813825
  0
LINE
  5
129
330
5E
100
AcDbEntity
  8
64647040_EINSATZ
  6
Continuous
 62
     7
100
AcDbLine
 10
26.6850808039
 20
463.8342758676
 30
0.0
 11
26.6850808039
 21
463.8262442676
 31
0.0
  0
SPLINE
  5
12A
330
5E
100
AcDbEntity
  8
64647040_EINSATZ
  6
Continuous
 62
     7
100
AcDbSpline
210
0.0
220
0.0
230
1.0
 70
     8
 71
     3
 72
    11
 73
     7
 74
     0
 42
0.0000003368266185
 43
0.0000000001
 40
0.0
 40
0.0
 40
0.0
 40
0.0
 40
0.2274863332706406
 40
0.2274863332706406
 40
0.2274863332706406
 40
0.2614986970346783
 40
0.2614986970346783
 40
0.2614986970346783
 40
0.2614986970346783
 10
26.68508080393453
 20
463.8262442676316
 30
0.0
 10
26.68509914155837
 20
463.8220970715548
 30
0.0
 10
26.6847983872133
 20
463.8196468824779
 30
0.0
 10
26.68420032557015
 20
463.8190897374952
 30
0.0
 10
26.68411089289905
 20
463.8190064234011
 30
0.0
 10
26.68401444269397
 20
463.8189650606411
 30
0.0
 10
26.68391119738299
 20
463.8189652163485
 30
0.0
  0
LINE
  5
12B
330
5E
100
AcDbEntity
  8
64647040_EINSATZ
  6
Continuous
 62
     7
100
AcDbLine
 10
33.1677150488
 20
465.597750269
 30
0.0
 11
33.1462749563
 21
465.597750269
 31
0.0
  0
ARC
  5
12C
330
5E
100
AcDbEntity
  8
64647040_EINSATZ
  6
Continuous
 62
     7
100
AcDbCircle
 10
33.1452829352
 20
465.6968717267
 30
0.0
 40
0.0991264217797499
100
AcDbArc
 50
187.0897504151
 51
270.5734048233
  0
SPLINE
  5
12D
330
5E
100
AcDbEntity
  8
64647040_EINSATZ
  6
Continuous
 62
     7
100
AcDbSpline
210
0.0
220
0.0
230
1.0
 70
    12
 71
     2
 72
     6
 73
     3
 74
     0
 42
0.0000000099355817
 43
0.0000000001
 40
0.9783748154810255
 40
0.9783748154810255
 40
0.9783748154810255
 40
1.0
 40
1.0
 40
1.0
 10
32.04049031465878
 20
465.6566368011078
 30
0.0
 41
1.0
 10
32.03971804463031
 20
465.6457815985078
 30
0.0
 41
1.0
 10
32.03894593210538
 20
465.6349262682681
 30
0.0
 41
1.0
  0
ARC
  5
12E
330
5E
100
AcDbEntity
  8
64647040_EINSATZ
  6
Continuous
 62
     7
100
AcDbCircle
 10
31.9343990953
 20
465.6427387393
 30
0.0
 40
0.104838331644437
100
AcDbArc
 50
276.4493185184
 51
355.7264014869
  0
LINE
  5
12F
330
5E
100
AcDbEntity
  8
64647040_EINSATZ
  6
Continuous
 62
     7
100
AcDbLine
 10
31.9461749872
 20
465.5385638664
 30
0.0
 11
31.9254654481
 21
465.5364851353
 31
0.0
  0
ARC
  5
130
330
5E
100
AcDbEntity
  8
64647040_EINSATZ
  6
Continuous
 62
     7
100
AcDbCircle
 10
31.9154456901
 20
465.625936973
 30
0.0
 40
0.0900112593897838
100
AcDbArc
 50
216.0751327807
 51
276.3912242037
  0
SPLINE
  5
131
330
5E
100
AcDbEntity
  8
64647040_EINSATZ
  6
Continuous
 62
     7
100
AcDbSpline
210
0.0
220
0.0
230
1.0
 70
    12
 71
     2
 72
     6
 73
     3
 74
     0
 42
0.0000000099121728
 43
0.0000000001
 40
0.9332381667627708
 40
0.9332381667627708
 40
0.9332381667627708
 40
1.0
 40
1.0
 40
1.0
 10
30.88855129351607
 20
465.5351712686609
 30
0.0
 41
1.0
 10
30.88777898587439
 20
465.5015039057774
 30
0.0
 41
1.0
 10
30.88700948642295
 20
465.4678355388929
 30
0.0
 41
1.0
  0
ARC
  5
132
330
5E
100
AcDbEntity
  8
64647040_EINSATZ
  6
Continuous
 62
     7
100
AcDbCircle
 10
30.7776850099
 20
465.4682390109
 30
0.0
 40
0.1093252207322919
100
AcDbArc
 50
285.6356871385
 51
359.7885456223
  0
LINE
  5
133
330
5E
100
AcDbEntity
  8
64647040_EINSATZ
  6
Continuous
 62
     7
100
AcDbLine
 10
30.8071503086
 20
465.3629593829
 30
0.0
 11
30.7885826439
 21
465.3589435829
 31
0.0
  0
SPLINE
  5
134
330
5E
100
AcDbEntity
  8
64647040_EINSATZ
  6
Continuous
 62
     7
100
AcDbSpline
210
0.0
220
0.0
230
1.0
 70
     8
 71
     3
 72
    14
 73
    10
 74
     0
 42
0.00000007938253
 43
0.0000000001
 40
0.0
 40
0.0
 40
0.0
 40
0.0
 40
0.228937770474167
 40
0.228937770474167
 40
0.228937770474167
 40
0.4578289888418133
 40
0.4578289888418133
 40
0.4578289888418133
 40
0.4710577390150231
 40
0.4710577390150231
 40
0.4710577390150231
 40
0.4710577390150231
 10
30.78858264385617
 20
465.3589435829386
 30
0.0
 10
30.77896980518909
 20
465.356853602487
 30
0.0
 10
30.76909798825184
 20
465.3565841371861
 30
0.0
 10
30.75978295696534
 20
465.3581549439729
 30
0.0
 10
30.75046897026981
 20
465.3597255746088
 30
0.0
 10
30.74145549247845
 20
465.3631784155606
 30
0.0
 10
30.73347148405022
 20
465.3682213241057
 30
0.0
 10
30.73301001829796
 20
465.3685127979444
 30
0.0
 10
30.73255126329228
 20
465.3688100380253
 30
0.0
 10
30.73209532725516
 20
465.3691129365947
 30
0.0
  0
SPLINE
  5
135
330
5E
100
AcDbEntity
  8
64647040_EINSATZ
  6
Continuous
 62
     7
100
AcDbSpline
210
0.0
220
0.0
230
1.0
 70
    12
 71
     2
 72
     6
 73
     3
 74
     0
 42
0.0000000099132195
 43
0.0000000001
 40
0.8466025768993457
 40
0.8466025768993457
 40
0.8466025768993457
 40
1.0
 40
1.0
 40
1.0
 10
29.88566689303022
 20
465.3494378094036
 30
0.0
 41
1.0
 10
29.88770749002438
 20
465.2720966387504
 30
0.0
 41
1.0
 10
29.88976880233601
 20
465.1947519204271
 30
0.0
 41
1.0
  0
SPLINE
  5
136
330
5E
100
AcDbEntity
  8
64647040_EINSATZ
  6
Continuous
 62
     7
100
AcDbSpline
210
0.0
220
0.0
230
1.0
 70
     8
 71
     3
 72
    20
 73
    16
 74
     0
 42
0.0000000736879535
 43
0.0000000001
 40
0.0
 40
0.0
 40
0.0
 40
0.0
 40
0.2340589629422869
 40
0.2340589629422869
 40
0.2340589629422869
 40
0.4682296683339645
 40
0.4682296683339645
 40
0.4682296683339645
 40
0.7007223724438351
 40
0.7007223724438351
 40
0.7007223724438351
 40
0.9310036384903887
 40
0.9310036384903887
 40
0.9310036384903887
 40
1.0
 40
1.0
 40
1.0
 40
1.0
 10
29.88976880265443
 20
465.1947519204989
 30
0.0
 10
29.89006574803954
 20
465.1836149280383
 30
0.0
 10
29.88894267256138
 20
465.172024517484
 30
0.0
 10
29.88648805528123
 20
465.1609348132889
 30
0.0
 10
29.88403275344919
 20
465.1498420163599
 30
0.0
 10
29.88017590955084
 20
465.1389427072829
 30
0.0
 10
29.87524236393443
 20
465.1291567587904
 30
0.0
 10
29.87034404500366
 20
465.1194406842908
 30
0.0
 10
29.86424754368864
 20
465.1105514094722
 30
0.0
 10
29.85747288854163
 20
465.103245881613
 30
0.0
 10
29.85076160443293
 20
465.0960086906471
 30
0.0
 10
29.84319856188834
 20
465.0901244908419
 30
0.0
 10
29.83542269824753
 20
465.0860907523947
 30
0.0
 10
29.83306202147699
 20
465.0848661485319
 30
0.0
 10
29.83066936472022
 20
465.0838010801649
 30
0.0
 10
29.82826366265335
 20
465.0829039741051
 30
0.0
  0
LINE
  5
137
330
5E
100
AcDbEntity
  8
64647040_EINSATZ
  6
Continuous
 62
     7
100
AcDbLine
 10
29.8282636627
 20
465.0829039741
 30
0.0
 11
29.8131032279
 21
465.0772247753
 31
0.0
  0
SPLINE
  5
138
330
5E
100
AcDbEntity
  8
64647040_EINSATZ
  6
Continuous
 62
     7
100
AcDbSpline
210
0.0
220
0.0
230
1.0
 70
     8
 71
     3
 72
    11
 73
     7
 74
     0
 42
0.0000000951554
 43
0.0000000001
 40
0.0
 40
0.0
 40
0.0
 40
0.0
 40
0.2289377704749261
 40
0.2289377704749261
 40
0.2289377704749261
 40
0.3590813282889645
 40
0.3590813282889645
 40
0.3590813282889645
 40
0.3590813282889645
 10
29.81310322786045
 20
465.0772247752726
 30
0.0
 10
29.80526192491052
 20
465.0742739933212
 30
0.0
 10
29.79713399615142
 20
465.0731168184766
 30
0.0
 10
29.78938941996303
 20
465.0738462813565
 30
0.0
 10
29.78498648271153
 20
465.074260994726
 30
0.0
 10
29.78063855856319
 20
465.0752917049888
 30
0.0
 10
29.77645750367407
 20
465.0768968367698
 30
0.0
  0
SPLINE
  5
139
330
5E
100
AcDbEntity
  8
64647040_EINSATZ
  6
Continuous
 62
     7
100
AcDbSpline
210
0.0
220
0.0
230
1.0
 70
    12
 71
     2
 72
     6
 73
     3
 74
     0
 42
0.00000000993881
 43
0.0000000001
 40
0.7007999667392572
 40
0.7007999667392572
 40
0.7007999667392572
 40
1.0
 40
1.0
 40
1.0
 10
29.09284856840029
 20
465.1344979745876
 30
0.0
 41
1.0
 10
29.10396845318405
 20
464.9843942339426
 30
0.0
 41
1.0
 10
29.11518418444703
 20
464.834285610177
 30
0.0
 41
1.0
  0
SPLINE
  5
13A
330
5E
100
AcDbEntity
  8
64647040_EINSATZ
  6
Continuous
 62
     7
100
AcDbSpline
210
0.0
220
0.0
230
1.0
 70
     8
 71
     3
 72
    20
 73
    16
 74
     0
 42
0.0000000779922545
 43
0.0000000001
 40
0.0
 40
0.0
 40
0.0
 40
0.0
 40
0.2340589629337394
 40
0.2340589629337394
 40
0.2340589629337394
 40
0.4682296683280305
 40
0.4682296683280305
 40
0.4682296683280305
 40
0.7007223724405026
 40
0.7007223724405026
 40
0.7007223724405026
 40
0.9310036384896277
 40
0.9310036384896277
 40
0.9310036384896277
 40
1.0
 40
1.0
 40
1.0
 40
1.0
 10
29.11518418421693
 20
464.8342856100762
 30
0.0
 10
29.11601232915501
 20
464.8232041048773
 30
0.0
 10
29.11581652499635
 20
464.8115486499574
 30
0.0
 10
29.11461342964714
 20
464.8002785550799
 30
0.0
 10
29.11340999877468
 20
464.7890053171606
 30
0.0
 10
29.11116471831129
 20
464.7778050641633
 30
0.0
 10
29.10807290907586
 20
464.7676233220739
 30
0.0
 10
29.10500317609156
 20
464.7575142800375
 30
0.0
 10
29.10101352218416
 20
464.7481275772885
 30
0.0
 10
29.09645060573624
 20
464.7402629042792
 30
0.0
 10
29.09193037142443
 20
464.7324717984824
 30
0.0
 10
29.08672239130884
 20
464.7259577587402
 30
0.0
 10
29.0812700309417
 20
464.7212716321483
 30
0.0
 10
29.0796147472256
 20
464.7198489695734
 30
0.0
 10
29.0779284676732
 20
464.7185827366594
 30
0.0
 10
29.07622455651506
 20
464.7174829531316
 30
0.0
  0
LINE
  5
13B
330
5E
100
AcDbEntity
  8
64647040_EINSATZ
  6
Continuous
 62
     7
100
AcDbLine
 10
29.0762245565
 20
464.7174829531
 30
0.0
 11
29.0655045103
 21
464.7105273835
 31
0.0
  0
SPLINE
  5
13C
330
5E
100
AcDbEntity
  8
64647040_EINSATZ
  6
Continuous
 62
     7
100
AcDbSpline
210
0.0
220
0.0
230
1.0
 70
     8
 71
     3
 72
    11
 73
     7
 74
     0
 42
0.0000001267807067
 43
0.0000000001
 40
0.0
 40
0.0
 40
0.0
 40
0.0
 40
0.2289377704749244
 40
0.2289377704749244
 40
0.2289377704749244
 40
0.2997968449774163
 40
0.2997968449774163
 40
0.2997968449774163
 40
0.2997968449774163
 10
29.06550451026726
 20
464.7105273834879
 30
0.0
 10
29.05996911487216
 20
464.7069168909503
 30
0.0
 10
29.05413897920409
 20
464.7050713337689
 30
0.0
 10
29.04849263818255
 20
464.7051403848182
 30
0.0
 10
29.04674486631423
 20
464.7051617589223
 30
0.0
 10
29.04499980004634
 20
464.7053666805754
 30
0.0
 10
29.04327069008351
 20
464.7057499831739
 30
0.0
  0
SPLINE
  5
13D
330
5E
100
AcDbEntity
  8
64647040_EINSATZ
  6
Continuous
 62
     7
100
AcDbSpline
210
0.0
220
0.0
230
1.0
 70
    12
 71
     2
 72
     6
 73
     3
 74
     0
 42
0.0000000099917357
 43
0.0000000001
 40
0.600266343699287
 40
0.600266343699287
 40
0.600266343699287
 40
1.0
 40
1.0
 40
1.0
 10
28.56908022688436
 20
464.8083001162877
 30
0.0
 41
1.0
 10
28.59246634618237
 20
464.6096464122844
 30
0.0
 41
1.0
 10
28.6160422944034
 20
464.4110017914874
 30
0.0
 41
1.0
  0
SPLINE
  5
13E
330
5E
100
AcDbEntity
  8
64647040_EINSATZ
  6
Continuous
 62
     7
100
AcDbSpline
210
0.0
220
0.0
230
1.0
 70
     8
 71
     3
 72
    20
 73
    16
 74
     0
 42
0.0000000818780492
 43
0.0000000001
 40
0.0
 40
0.0
 40
0.0
 40
0.0
 40
0.234058962952617
 40
0.234058962952617
 40
0.234058962952617
 40
0.4682296683411375
 40
0.4682296683411375
 40
0.4682296683411375
 40
0.7007223724478735
 40
0.7007223724478735
 40
0.7007223724478735
 40
0.9310036384913277
 40
0.9310036384913277
 40
0.9310036384913277
 40
1.0
 40
1.0
 40
1.0
 40
1.0
 10
28.61604229451685
 20
464.4110017915999
 30
0.0
 10
28.6173452014226
 20
464.4000253851702
 30
0.0
 10
28.61809001231328
 20
464.3883970061059
 30
0.0
 10
28.61822042785486
 20
464.3770740089197
 30
0.0
 10
28.61835087976717
 20
464.3657478539382
 30
0.0
 10
28.61787017489182
 20
464.354413161086
 30
0.0
 10
28.61683080372731
 20
464.3440276778809
 30
0.0
 10
28.61579885391939
 20
464.3337163494888
 30
0.0
 10
28.61418793574018
 20
464.3240534383214
 30
0.0
 10
28.61214771320671
 20
464.3158631124061
 30
0.0
 10
28.6101265751901
 20
464.3077493999047
 30
0.0
 10
28.60762857274178
 20
464.3008553173339
 30
0.0
 10
28.60487128499689
 20
464.2957643081896
 30
0.0
 10
28.60403419918498
 20
464.2942187271994
 30
0.0
 10
28.60316921400175
 20
464.2928266712826
 30
0.0
 10
28.60228321248193
 20
464.2915991587168
 30
0.0
  0
SPLINE
  5
13F
330
5E
100
AcDbEntity
  8
64647040_EINSATZ
  6
Continuous
 62
     7
100
AcDbSpline
210
0.0
220
0.0
230
1.0
 70
    12
 71
     2
 72
     6
 73
     3
 74
     0
 42
0.0000010484016844
 43
0.0000000001
 40
0.0
 40
0.0
 40
0.0
 40
1.0
 40
1.0
 40
1.0
 10
28.60228321248193
 20
464.2915991587168
 30
0.0
 41
1.0
 10
28.59948513394748
 20
464.2877225552529
 30
0.0
 41
1.0
 10
28.59673410821531
 20
464.2838412288386
 30
0.0
 41
1.0
  0
SPLINE
  5
140
330
5E
100
AcDbEntity
  8
64647040_EINSATZ
  6
Continuous
 62
     7
100
AcDbSpline
210
0.0
220
0.0
230
1.0
 70
     8
 71
     3
 72
    11
 73
     7
 74
     0
 42
0.0000001969127222
 43
0.0000000001
 40
0.0
 40
0.0
 40
0.0
 40
0.0
 40
0.2289377704741723
 40
0.2289377704741723
 40
0.2289377704741723
 40
0.2705545631307013
 40
0.2705545631307013
 40
0.2705545631307013
 40
0.2705545631307013
 10
28.5967341082153
 20
464.2838412288385
 30
0.0
 10
28.59388184842352
 20
464.2798170748146
 30
0.0
 10
28.59074681995751
 20
464.277529374622
 30
0.0
 10
28.58758350291241
 20
464.2771639518917
 30
0.0
 10
28.58700841598877
 20
464.2770975185148
 30
0.0
 10
28.58642950655563
 20
464.2770942559324
 30
0.0
 10
28.58584830299611
 20
464.2771533252081
 30
0.0
  0
SPLINE
  5
141
330
5E
100
AcDbEntity
  8
64647040_EINSATZ
  6
Continuous
 62
     7
100
AcDbSpline
210
0.0
220
0.0
230
1.0
 70
    12
 71
     2
 72
     6
 73
     3
 74
     0
 42
0.0000000100768653
 43
0.0000000001
 40
0.6483808738550487
 40
0.6483808738550487
 40
0.6483808738550487
 40
1.0
 40
1.0
 40
1.0
 10
28.37274537480504
 20
464.298540135471
 30
0.0
 41
1.0
 10
28.39947641098465
 20
464.1261324773891
 30
0.0
 41
1.0
 10
28.42635882714051
 20
463.9537465570924
 30
0.0
 41
1.0
  0
ARC
  5
142
330
5E
100
AcDbEntity
  8
64647040_EINSATZ
  6
Continuous
 62
     7
100
AcDbCircle
 10
27.4156906653
 20
463.7886480754
 30
0.0
 40
1.024064276289563
100
AcDbArc
 50
2.5536929034
 51
9.2776506525
  0
ARC
  5
143
330
5E
100
AcDbEntity
  8
64647040_EINSATZ
  6
Continuous
 62
     7
100
AcDbCircle
 10
29.1008514331
 20
463.8302600676
 30
0.0
 40
0.6621256612649963
100
AcDbArc
 50
179.6524982857
 51
180.3475017143
  0
SPLINE
  5
144
330
5E
100
AcDbEntity
  8
64647040_EINSATZ
  6
Continuous
 62
     7
100
AcDbSpline
210
0.0
220
0.0
230
1.0
 70
     8
 71
     3
 72
    11
 73
     7
 74
     0
 42
0.0000003441506804
 43
0.0000000001
 40
0.0
 40
0.0
 40
0.0
 40
0.0
 40
0.2289377704741594
 40
0.2289377704741594
 40
0.2289377704741594
 40
0.2616917636555797
 40
0.2616917636555797
 40
0.2616917636555797
 40
0.2616917636555797
 10
28.43873794992468
 20
463.8262442676316
 30
0.0
 10
28.43876320252745
 20
463.8220806915678
 30
0.0
 10
28.43853692827258
 20
463.8196272190052
 30
0.0
 10
28.43807221003292
 20
463.8190828692166
 30
0.0
 10
28.43800571700085
 20
463.8190049823061
 30
0.0
 10
28.43793407168699
 20
463.818965854323
 30
0.0
 10
28.4378574048136
 20
463.8189651194683
 30
0.0
  0
LINE
  5
145
330
5E
100
AcDbEntity
  8
64647040_EINSATZ
  6
Continuous
 62
     7
100
AcDbLine
 10
33.1677150488
 20
460.8334100109
 30
0.0
 11
33.1462749563
 21
460.8334100109
 31
0.0
  0
SPLINE
  5
146
330
5E
100
AcDbEntity
  8
64647040_EINSATZ
  6
Continuous
 62
     7
100
AcDbSpline
210
0.0
220
0.0
230
1.0
 70
    12
 71
     2
 72
     6
 73
     3
 74
     0
 42
0.0000000102058168
 43
0.0000000001
 40
0.3443304522441487
 40
0.3443304522441487
 40
0.3443304522441487
 40
1.0
 40
1.0
 40
1.0
 10
40.93031830279654
 20
463.8189624908762
 30
0.0
 41
1.0
 10
40.92141114430421
 20
463.4978505909875
 30
0.0
 41
1.0
 10
40.91216097477851
 20
463.1767723105406
 30
0.0
 41
1.0
  0
ARC
  5
147
330
5E
100
AcDbEntity
  8
64647040_EINSATZ
  6
Continuous
 62
     7
100
AcDbCircle
 10
40.6395760105
 20
463.1725920196
 30
0.0
 40
0.2726170159598248
100
AcDbArc
 50
335.2590048329
 51
0.8786039787
  0
LINE
  5
148
330
5E
100
AcDbEntity
  8
64647040_EINSATZ
  6
Continuous
 62
     7
100
AcDbLine
 10
40.8871692273
 20
463.0584971626
 30
0.0
 11
40.881620123
 21
463.0507392327
 31
0.0
  0
SPLINE
  5
149
330
5E
100
AcDbEntity
  8
64647040_EINSATZ
  6
Continuous
 62
     7
100
AcDbSpline
210
0.0
220
0.0
230
1.0
 70
     8
 71
     3
 72
    11
 73
     7
 74
     0
 42
0.0000002087285402
 43
0.0000000001
 40
0.0
 40
0.0
 40
0.0
 40
0.0
 40
0.23158404015018
 40
0.23158404015018
 40
0.23158404015018
 40
0.2714434918722074
 40
0.2714434918722074
 40
0.2714434918722074
 40
0.2714434918722074
 10
40.88162012299886
 20
463.0507392327007
 30
0.0
 10
40.87870892905861
 20
463.0466909423122
 30
0.0
 10
40.87573366417455
 20
463.0443808016641
 30
0.0
 10
40.87294439249592
 20
463.0439996841237
 30
0.0
 10
40.87246431184067
 20
463.0439340873732
 30
0.0
 10
40.87198747195875
 20
463.0439253233553
 30
0.0
 10
40.87151505218618
 20
463.0439727379064
 30
0.0
  0
SPLINE
  5
14A
330
5E
100
AcDbEntity
  8
64647040_EINSATZ
  6
Continuous
 62
     7
100
AcDbSpline
210
0.0
220
0.0
230
1.0
 70
    12
 71
     2
 72
     6
 73
     3
 74
     0
 42
0.0000000102362469
 43
0.0000000001
 40
0.0
 40
0.0
 40
0.0
 40
0.6804847741725891
 40
0.6804847741725891
 40
0.6804847741725891
 10
40.13958259543965
 20
462.449937347443
 30
0.0
 41
1.0
 10
40.15866691192928
 20
462.7817528640313
 30
0.0
 41
1.0
 10
40.17741994658748
 20
463.1136391524729
 30
0.0
 41
1.0
  0
SPLINE
  5
14B
330
5E
100
AcDbEntity
  8
64647040_EINSATZ
  6
Continuous
 62
     7
100
AcDbSpline
210
0.0
220
0.0
230
1.0
 70
     8
 71
     3
 72
    20
 73
    16
 74
     0
 42
0.0000000778208791
 43
0.0000000001
 40
0.0
 40
0.0
 40
0.0
 40
0.0
 40
0.2315845255112957
 40
0.2315845255112957
 40
0.2315845255112957
 40
0.4631680510566566
 40
0.4631680510566566
 40
0.4631680510566566
 40
0.6947657377289194
 40
0.6947657377289194
 40
0.6947657377289194
 40
0.9263670665630646
 40
0.9263670665630646
 40
0.9263670665630646
 40
1.0
 40
1.0
 40
1.0
 40
1.0
 10
40.13958259543966
 20
462.449937347443
 30
0.0
 10
40.13896581163041
 20
462.43921340732
 30
0.0
 10
40.13740365513328
 20
462.4279160586887
 30
0.0
 10
40.13502020494953
 20
462.4169820187075
 30
0.0
 10
40.13263676085153
 20
462.4060480066446
 30
0.0
 10
40.12936592542357
 20
462.3951758130762
 30
0.0
 10
40.12546911287713
 20
462.3852676149173
 30
0.0
 10
40.12157206791734
 20
462.3753588258146
 30
0.0
 10
40.11694100308759
 20
462.3661409494605
 30
0.0
 10
40.11194998353898
 20
462.3583792975446
 30
0.0
 10
40.10695889471825
 20
462.3506175379019
 30
0.0
 10
40.10146979076927
 20
462.3440980414223
 30
0.0
 10
40.09593202719395
 20
462.3393619493791
 30
0.0
 10
40.09414866701365
 20
462.3378367564297
 30
0.0
 10
40.09235010184891
 20
462.3364830958212
 30
0.0
 10
40.09055203575033
 20
462.3353128240954
 30
0.0
  0
LINE
  5
14C
330
5E
100
AcDbEntity
  8
64647040_EINSATZ
  6
Continuous
 62
     7
100
AcDbLine
 10
40.0798319895
 20
462.3283572545
 30
0.0
 11
40.0905520358
 21
462.3353128241
 31
0.0
  0
SPLINE
  5
14D
330
5E
100
AcDbEntity
  8
64647040_EINSATZ
  6
Continuous
 62
     7
100
AcDbSpline
210
0.0
220
0.0
230
1.0
 70
     8
 71
     3
 72
    11
 73
     7
 74
     0
 42
0.0000001320134094
 43
0.0000000001
 40
0.0
 40
0.0
 40
0.0
 40
0.0
 40
0.2315840401501853
 40
0.2315840401501853
 40
0.2315840401501853
 40
0.2991883503267547
 40
0.2991883503267547
 40
0.2991883503267547
 40
0.2991883503267547
 10
40.07983198950254
 20
462.3283572544517
 30
0.0
 10
40.07422299206126
 20
462.3247291619554
 30
0.0
 10
40.06851520344617
 20
462.3228472512163
 30
0.0
 10
40.06318459246386
 20
462.3228665891853
 30
0.0
 10
40.06162847117515
 20
462.3228722343591
 30
0.0
 10
40.06009198871678
 20
462.3230399387622
 30
0.0
 10
40.05858585974819
 20
462.3233656985446
 30
0.0
  0
SPLINE
  5
14E
330
5E
100
AcDbEntity
  8
64647040_EINSATZ
  6
Continuous
 62
     7
100
AcDbSpline
210
0.0
220
0.0
230
1.0
 70
    12
 71
     2
 72
     6
 73
     3
 74
     0
 42
0.0000000102889105
 43
0.0000000001
 40
0.4291534969353202
 40
0.4291534969353202
 40
0.4291534969353202
 40
1.0
 40
1.0
 40
1.0
 10
38.93671099000935
 20
462.3757178109925
 30
0.0
 41
1.0
 10
38.91402688709437
 20
462.0992106956434
 30
0.0
 41
1.0
 10
38.8911524122672
 20
461.8227742702809
 30
0.0
 41
1.0
  0
ARC
  5
14F
330
5E
100
AcDbEntity
  8
64647040_EINSATZ
  6
Continuous
 62
     7
100
AcDbCircle
 10
38.7612348916
 20
461.82932675
 30
0.0
 40
0.1300826533769571
100
AcDbArc
 50
297.561598151
 51
357.1126941907
  0
LINE
  5
150
330
5E
100
AcDbEntity
  8
64647040_EINSATZ
  6
Continuous
 62
     7
100
AcDbLine
 10
38.8214243907
 20
461.7140066697
 30
0.0
 11
38.8062639559
 21
461.7083274709
 31
0.0
  0
SPLINE
  5
151
330
5E
100
AcDbEntity
  8
64647040_EINSATZ
  6
Continuous
 62
     7
100
AcDbSpline
210
0.0
220
0.0
230
1.0
 70
     8
 71
     3
 72
    11
 73
     7
 74
     0
 42
0.0000000982858632
 43
0.0000000001
 40
0.0
 40
0.0
 40
0.0
 40
0.0
 40
0.2315840404293915
 40
0.2315840404293915
 40
0.2315840404293915
 40
0.3564575717058244
 40
0.3564575717058244
 40
0.3564575717058244
 40
0.3564575717058244
 10
38.80626395587432
 20
461.7083274709096
 30
0.0
 10
38.79833939883833
 20
461.7053668248135
 30
0.0
 10
38.79028806285377
 20
461.7041634851179
 30
0.0
 10
38.78277938489697
 20
461.7048160297732
 30
0.0
 10
38.77873058848381
 20
461.7051678920417
 30
0.0
 10
38.77477942861648
 20
461.7060645589685
 30
0.0
 10
38.77102009186547
 20
461.7074728224441
 30
0.0
  0
SPLINE
  5
152
330
5E
100
AcDbEntity
  8
64647040_EINSATZ
  6
Continuous
 62
     7
100
AcDbSpline
210
0.0
220
0.0
230
1.0
 70
    12
 71
     2
 72
     6
 73
     3
 74
     0
 42
0.0000000103647662
 43
0.0000000001
 40
0.7780229904353667
 40
0.7780229904353667
 40
0.7780229904353667
 40
1.0
 40
1.0
 40
1.0
 10
37.27384490167009
 20
461.5510659448192
 30
0.0
 41
1.0
 10
37.26290706871848
 20
461.4445380187896
 30
0.0
 41
1.0
 10
37.25194887706695
 20
461.3380232054293
 30
0.0
 41
1.0
  0
ARC
  5
153
330
5E
100
AcDbEntity
  8
64647040_EINSATZ
  6
Continuous
 62
     7
100
AcDbCircle
 10
37.1353056431
 20
461.3500139171
 30
0.0
 40
0.1172579251448807
100
AcDbArc
 50
285.3143846234
 51
354.1307148437
  0
LINE
  5
154
330
5E
100
AcDbEntity
  8
64647040_EINSATZ
  6
Continuous
 62
     7
100
AcDbLine
 10
37.1662752437
 20
461.2369196872
 30
0.0
 11
37.1477075789
 21
461.2329038872
 31
0.0
  0
ARC
  5
155
330
5E
100
AcDbEntity
  8
64647040_EINSATZ
  6
Continuous
 62
     7
100
AcDbCircle
 10
37.1308810095
 20
461.300540731
 30
0.0
 40
0.0696984654507787
100
AcDbArc
 50
237.2503825229
 51
283.9703361498
  0
SPLINE
  5
156
330
5E
100
AcDbEntity
  8
64647040_EINSATZ
  6
Continuous
 62
     7
100
AcDbSpline
210
0.0
220
0.0
230
1.0
 70
    12
 71
     2
 72
     6
 73
     3
 74
     0
 42
0.0000000104622356
 43
0.0000000001
 40
0.8893344723751101
 40
0.8893344723751101
 40
0.8893344723751101
 40
1.0
 40
1.0
 40
1.0
 10
35.34591738933462
 20
461.1337851654422
 30
0.0
 41
1.0
 10
35.33980050629035
 20
461.0812503323511
 30
0.0
 41
1.0
 10
35.33368100254911
 20
461.0287191371751
 30
0.0
 41
1.0
  0
ARC
  5
157
330
5E
100
AcDbEntity
  8
64647040_EINSATZ
  6
Continuous
 62
     7
100
AcDbCircle
 10
35.2267890458
 20
461.043965077
 30
0.0
 40
0.1079737430111722
100
AcDbArc
 50
275.9065794679
 51
351.8826836382
  0
LINE
  5
158
330
5E
100
AcDbEntity
  8
64647040_EINSATZ
  6
Continuous
 62
     7
100
AcDbLine
 10
35.2379002739
 20
460.9365645659
 30
0.0
 11
35.2171907349
 21
460.9344858348
 31
0.0
  0
ARC
  5
159
330
5E
100
AcDbEntity
  8
64647040_EINSATZ
  6
Continuous
 62
     7
100
AcDbCircle
 10
35.2053217119
 20
461.0187129781
 30
0.0
 40
0.0850593049928247
100
AcDbArc
 50
215.3917229569
 51
278.0211251893
  0
LINE
  5
15A
330
5E
100
AcDbEntity
  8
64647040_EINSATZ
  6
Continuous
 62
     7
100
AcDbLine
 10
33.2757725947
 20
460.9869697586
 30
0.0
 11
33.2670755743
 21
460.9159406266
 31
0.0
  0
ARC
  5
15B
330
5E
100
AcDbEntity
  8
64647040_EINSATZ
  6
Continuous
 62
     7
100
AcDbCircle
 10
33.1706094234
 20
460.9310019367
 30
0.0
 40
0.0976348368964576
100
AcDbArc
 50
268.3012236577
 51
351.1260236795
  0
ELLIPSE
  5
15C
330
5E
100
AcDbEntity
  8
64647040_EINSATZ
  6
Continuous
 62
     7
100
AcDbEllipse
 10
33.1569950025
 20
464.7342643258
 30
0.0
 11
9.049999999999997
 21
0.0
 31
0.0
210
0.0
220
0.0
230
1.0
 40
0.3746065934
 41
0.9323216036206725
 42
2.17815387289927
  0
ELLIPSE
  5
15D
330
5E
100
AcDbEntity
  8
64647040_EINSATZ
  6
Continuous
 62
     7
100
AcDbEllipse
 10
33.1569950026
 20
464.8269827113
 30
0.0
 11
-9.349999999985634
 21
-4.579669976578771E-13
 31
0.0
210
0.0
220
0.0
230
1.0
 40
0.3746065934
 41
3.007501337395711
 42
3.275683969783838
  0
ARC
  5
15E
330
5E
100
AcDbEntity
  8
64647040_EINSATZ
  6
Continuous
 62
     7
100
AcDbCircle
 10
42.3262017005
 20
464.3628703472
 30
0.0
 40
0.0969491154679799
100
AcDbArc
 50
267.6026614961
 51
357.5490880026
  0
LINE
  5
15F
330
5E
100
AcDbEntity
  8
64647040_EINSATZ
  6
Continuous
 62
     7
100
AcDbLine
 10
38.7360104499
 20
468.1902094252
 30
0.0
 11
38.7360104499
 21
467.5791358389
 31
0.0
  0
ARC
  5
160
330
5E
100
AcDbEntity
  8
64647040_EINSATZ
  6
Continuous
 62
     7
100
AcDbCircle
 10
38.6039964215
 20
467.5769632099
 30
0.0
 40
0.132031905335217
100
AcDbArc
 50
297.3397761699
 51
0.9428637004
  0
LINE
  5
161
330
5E
100
AcDbEntity
  8
64647040_EINSATZ
  6
Continuous
 62
     7
100
AcDbLine
 10
38.7538522245
 20
467.4931010998
 30
0.0
 11
38.664634232
 21
467.4596794515
 31
0.0
  0
ARC
  5
162
330
5E
100
AcDbEntity
  8
64647040_EINSATZ
  6
Continuous
 62
     7
100
AcDbCircle
 10
38.694012069
 20
467.6098883135
 30
0.0
 40
0.1312253691227598
100
AcDbArc
 50
297.1299750129
 51
1.1625508498
  0
LINE
  5
163
330
5E
100
AcDbEntity
  8
64647040_EINSATZ
  6
Continuous
 62
     7
100
AcDbLine
 10
38.8252104264
 20
468.1676485642
 30
0.0
 11
38.8252104264
 21
467.6125507382
 31
0.0
  0
LINE
  5
164
330
5E
100
AcDbEntity
  8
64647040_EINSATZ
  6
Continuous
 62
     7
100
AcDbLine
 10
40.5929773794
 20
466.950333582
 30
0.0
 11
40.5929773794
 21
467.5914258426
 31
0.0
  0
ARC
  5
165
330
5E
100
AcDbEntity
  8
64647040_EINSATZ
  6
Continuous
 62
     7
100
AcDbCircle
 10
40.4609728184
 20
466.9481527765
 30
0.0
 40
0.1320225739627489
100
AcDbArc
 50
297.3460465578
 51
0.946479305
  0
LINE
  5
166
330
5E
100
AcDbEntity
  8
64647040_EINSATZ
  6
Continuous
 62
     7
100
AcDbLine
 10
40.4324011849
 20
466.7974622953
 30
0.0
 11
40.5216191774
 21
466.8308839436
 31
0.0
  0
LINE
  5
167
330
5E
100
AcDbEntity
  8
64647040_EINSATZ
  6
Continuous
 62
     7
100
AcDbLine
 10
42.2969143129
 20
466.6242745987
 30
0.0
 11
42.2969143129
 21
465.2952409531
 31
0.0
  0
ARC
  5
168
330
5E
100
AcDbEntity
  8
64647040_EINSATZ
  6
Continuous
 62
     7
100
AcDbCircle
 10
42.2000403785
 20
465.2994004161
 30
0.0
 40
0.0969631904082738
100
AcDbArc
 50
267.5959285876
 51
357.541409007
  0
LINE
  5
169
330
5E
100
AcDbEntity
  8
64647040_EINSATZ
  6
Continuous
 62
     7
100
AcDbLine
 10
42.3221463925
 20
465.2025225676
 30
0.0
 11
42.1959730974
 21
465.2025225676
 31
0.0
  0
ARC
  5
16A
330
5E
100
AcDbEntity
  8
64647040_EINSATZ
  6
Continuous
 62
     7
100
AcDbCircle
 10
42.3259438439
 20
465.2996674847
 30
0.0
 40
0.097219111100218
100
AcDbArc
 50
267.7614143405
 51
357.3903351581
  0
LINE
  5
16B
330
5E
100
AcDbEntity
  8
64647040_EINSATZ
  6
Continuous
 62
     7
100
AcDbLine
 10
42.4230621294
 20
466.5164989968
 30
0.0
 11
42.4230621294
 21
465.2952409531
 31
0.0
  0
LINE
  5
16C
330
5E
100
AcDbEntity
  8
64647040_EINSATZ
  6
Continuous
 62
     7
100
AcDbLine
 10
42.1959730974
 20
464.2660060841
 30
0.0
 11
42.3221463925
 21
464.2660060841
 31
0.0
  0
LINE
  5
16D
330
5E
100
AcDbEntity
  8
64647040_EINSATZ
  6
Continuous
 62
     7
100
AcDbLine
 10
23.9918436126
 20
464.2660060841
 30
0.0
 11
24.1180169077
 21
464.2660060841
 31
0.0
  0
ARC
  5
16E
330
5E
100
AcDbEntity
  8
64647040_EINSATZ
  6
Continuous
 62
     7
100
AcDbCircle
 10
23.9880461612
 20
464.3631510012
 30
0.0
 40
0.0972191111002226
100
AcDbArc
 50
182.609664842
 51
272.2385856595
  0
LINE
  5
16F
330
5E
100
AcDbEntity
  8
64647040_EINSATZ
  6
Continuous
 62
     7
100
AcDbLine
 10
23.8909278757
 20
465.2952409531
 30
0.0
 11
23.8909278757
 21
466.5164989968
 31
0.0
  0
ARC
  5
170
330
5E
100
AcDbEntity
  8
64647040_EINSATZ
  6
Continuous
 62
     7
100
AcDbCircle
 10
23.9877883046
 20
465.2993868307
 30
0.0
 40
0.0969491154674421
100
AcDbArc
 50
182.4509119972
 51
272.3973385042
  0
LINE
  5
171
330
5E
100
AcDbEntity
  8
64647040_EINSATZ
  6
Continuous
 62
     7
100
AcDbLine
 10
24.1180169077
 20
465.2025225676
 30
0.0
 11
23.9918436126
 21
465.2025225676
 31
0.0
  0
ARC
  5
172
330
5E
100
AcDbEntity
  8
64647040_EINSATZ
  6
Continuous
 62
     7
100
AcDbCircle
 10
24.1142082297
 20
465.2996819536
 30
0.0
 40
0.0972340080515378
100
AcDbArc
 50
182.617799514
 51
272.2448628913
  0
LINE
  5
173
330
5E
100
AcDbEntity
  8
64647040_EINSATZ
  6
Continuous
 62
     7
100
AcDbLine
 10
24.0170756922
 20
466.6242745987
 30
0.0
 11
24.0170756922
 21
465.2952409531
 31
0.0
  0
LINE
  5
174
330
5E
100
AcDbEntity
  8
64647040_EINSATZ
  6
Continuous
 62
     7
100
AcDbLine
 10
25.7923708277
 20
466.8308839436
 30
0.0
 11
25.8815888202
 21
466.7974622953
 31
0.0
  0
ARC
  5
175
330
5E
100
AcDbEntity
  8
64647040_EINSATZ
  6
Continuous
 62
     7
100
AcDbCircle
 10
25.8522109832
 20
466.9476711573
 30
0.0
 40
0.1312253691227384
100
AcDbArc
 50
178.8374491502
 51
242.8700249871
  0
LINE
  5
176
330
5E
100
AcDbEntity
  8
64647040_EINSATZ
  6
Continuous
 62
     7
100
AcDbLine
 10
25.7210126257
 20
467.5914258426
 30
0.0
 11
25.7210126257
 21
466.950333582
 31
0.0
  0
LINE
  5
177
330
5E
100
AcDbEntity
  8
64647040_EINSATZ
  6
Continuous
 62
     7
100
AcDbLine
 10
27.4887795787
 20
467.6125507382
 30
0.0
 11
27.4887795787
 21
468.1676485642
 31
0.0
  0
ARC
  5
178
330
5E
100
AcDbEntity
  8
64647040_EINSATZ
  6
Continuous
 62
     7
100
AcDbCircle
 10
27.6207841397
 20
467.6103699327
 30
0.0
 40
0.1320225739627237
100
AcDbArc
 50
179.053520695
 51
242.6539534422
  0
LINE
  5
179
330
5E
100
AcDbEntity
  8
64647040_EINSATZ
  6
Continuous
 62
     7
100
AcDbLine
 10
27.6493557731
 20
467.4596794515
 30
0.0
 11
27.5601377806
 21
467.4931010998
 31
0.0
  0
ARC
  5
17A
330
5E
100
AcDbEntity
  8
64647040_EINSATZ
  6
Continuous
 62
     7
100
AcDbCircle
 10
27.7091890245
 20
467.5764824789
 30
0.0
 40
0.1312362951505554
100
AcDbArc
 50
178.8415042658
 51
242.875855864
  0
LINE
  5
17B
330
5E
100
AcDbEntity
  8
64647040_EINSATZ
  6
Continuous
 62
     7
100
AcDbLine
 10
27.5779795552
 20
468.1902094252
 30
0.0
 11
27.5779795552
 21
467.5791358389
 31
0.0
  0
LINE
  5
17C
330
5E
100
AcDbEntity
  8
64647040_EINSATZ
  6
Continuous
 62
     7
100
AcDbLine
 10
31.9069950025
 20
468.1675904662
 30
0.0
 11
31.9069950025
 21
468.1203251179
 31
0.0
  0
LINE
  5
17D
330
5E
100
AcDbEntity
  8
64647040_EINSATZ
  6
Continuous
 62
     7
100
AcDbLine
 10
31.9069950025
 20
468.1675904662
 30
0.0
 11
31.9069950025
 21
468.2981125521
 31
0.0
  0
LINE
  5
17E
330
5E
100
AcDbEntity
  8
64647040_EINSATZ
  6
Continuous
 62
     7
100
AcDbLine
 10
31.9069950025
 20
468.7943408986
 30
0.0
 11
31.9069950025
 21
468.2981125521
 31
0.0
  0
LINE
  5
17F
330
5E
100
AcDbEntity
  8
64647040_EINSATZ
  6
Continuous
 62
     7
100
AcDbLine
 10
34.4069950025
 20
468.2981125521
 30
0.0
 11
34.4069950025
 21
468.7943408986
 31
0.0
  0
LINE
  5
180
330
5E
100
AcDbEntity
  8
64647040_EINSATZ
  6
Continuous
 62
     7
100
AcDbLine
 10
34.4069950025
 20
468.2981125521
 30
0.0
 11
34.4069950025
 21
468.1675904662
 31
0.0
  0
LINE
  5
181
330
5E
100
AcDbEntity
  8
64647040_EINSATZ
  6
Continuous
 62
     7
100
AcDbLine
 10
34.4069950025
 20
468.1203251179
 30
0.0
 11
34.4069950025
 21
468.1675904662
 31
0.0
  0
ELLIPSE
  5
182
330
5E
100
AcDbEntity
  8
64647040_EINSATZ
  6
Continuous
 62
     7
100
AcDbEllipse
 10
33.1569950026
 20
464.8269827113
 30
0.0
 11
9.35000000002694
 21
4.163336342344337E-14
 31
0.0
210
0.0
220
0.0
230
1.0
 40
0.3746065934
 41
3.007501337396012
 42
3.275683969783558
  0
ARC
  5
183
330
5E
100
AcDbEntity
  8
64647040_EINSATZ
  6
Continuous
 62
     7
100
AcDbCircle
 10
33.1436980904
 20
460.9313841926
 30
0.0
 40
0.0980080635480556
100
AcDbArc
 50
189.066136154
 51
271.5066164013
  0
LINE
  5
184
330
5E
100
AcDbEntity
  8
64647040_EINSATZ
  6
Continuous
 62
     7
100
AcDbLine
 10
33.0469144307
 20
460.9159406266
 30
0.0
 11
33.0382174102
 21
460.9869697585
 31
0.0
  0
ARC
  5
185
330
5E
100
AcDbEntity
  8
64647040_EINSATZ
  6
Continuous
 62
     7
100
AcDbCircle
 10
31.1088855168
 20
461.0184263624
 30
0.0
 40
0.0848061879945554
100
AcDbArc
 50
261.8065320385
 51
324.7026749926
  0
LINE
  5
186
330
5E
100
AcDbEntity
  8
64647040_EINSATZ
  6
Continuous
 62
     7
100
AcDbLine
 10
31.0967992702
 20
460.9344858348
 30
0.0
 11
31.0760897312
 21
460.9365645659
 31
0.0
  0
ARC
  5
187
330
5E
100
AcDbEntity
  8
64647040_EINSATZ
  6
Continuous
 62
     7
100
AcDbCircle
 10
31.0873455168
 20
461.0441153225
 30
0.0
 40
0.1081381430213949
100
AcDbArc
 50
188.1853098956
 51
264.0254269845
  0
SPLINE
  5
188
330
5E
100
AcDbEntity
  8
64647040_EINSATZ
  6
Continuous
 62
     7
100
AcDbSpline
210
0.0
220
0.0
230
1.0
 70
    12
 71
     2
 72
     6
 73
     3
 74
     0
 42
0.0000000104622356
 43
0.0000000001
 40
0.0
 40
0.0
 40
0.0
 40
0.1106655275991955
 40
0.1106655275991955
 40
0.1106655275991955
 10
30.98030900223456
 20
461.0287191371723
 30
0.0
 41
1.0
 10
30.97418949849526
 20
461.0812503323315
 30
0.0
 41
1.0
 10
30.96807261545283
 20
461.1337851654068
 30
0.0
 41
1.0
  0
ARC
  5
189
330
5E
100
AcDbEntity
  8
64647040_EINSATZ
  6
Continuous
 62
     7
100
AcDbCircle
 10
29.1830357153
 20
461.3006398727
 30
0.0
 40
0.0697770480620358
100
AcDbArc
 50
256.1077098464
 51
302.8170788618
  0
LINE
  5
18A
330
5E
100
AcDbEntity
  8
64647040_EINSATZ
  6
Continuous
 62
     7
100
AcDbLine
 10
29.1662824262
 20
461.2329038872
 30
0.0
 11
29.1477147614
 21
461.2369196872
 31
0.0
  0
ARC
  5
18B
330
5E
100
AcDbEntity
  8
64647040_EINSATZ
  6
Continuous
 62
     7
100
AcDbCircle
 10
29.1782602344
 20
461.3496545179
 30
0.0
 40
0.1167996916499712
100
AcDbArc
 50
185.7151823385
 51
254.8397183606
  0
SPLINE
  5
18C
330
5E
100
AcDbEntity
  8
64647040_EINSATZ
  6
Continuous
 62
     7
100
AcDbSpline
210
0.0
220
0.0
230
1.0
 70
    12
 71
     2
 72
     6
 73
     3
 74
     0
 42
0.0000000103647681
 43
0.0000000001
 40
0.0
 40
0.0
 40
0.0
 40
0.2211461429621002
 40
0.2211461429621002
 40
0.2211461429621002
 10
29.06204112861799
 20
461.338023205374
 30
0.0
 41
1.0
 10
29.05112395380589
 20
461.4441393305989
 30
0.0
 41
1.0
 10
29.04022698557269
 20
461.5502684705125
 30
0.0
 41
1.0
  0
SPLINE
  5
18D
330
5E
100
AcDbEntity
  8
64647040_EINSATZ
  6
Continuous
 62
     7
100
AcDbSpline
210
0.0
220
0.0
230
1.0
 70
     8
 71
     3
 72
    14
 73
    10
 74
     0
 42
0.0000000981560945
 43
0.0000000001
 40
0.6448042987075872
 40
0.6448042987075872
 40
0.6448042987075872
 40
0.6448042987075872
 40
0.6947657372336652
 40
0.6947657372336652
 40
0.6947657372336652
 40
0.9263670664435186
 40
0.9263670664435186
 40
0.9263670664435186
 40
1.0
 40
1.0
 40
1.0
 40
1.0
 10
27.54290346185629
 20
461.7074422663106
 30
0.0
 10
27.54140278397456
 20
461.7068801013372
 30
0.0
 10
27.5398741264683
 20
461.7064016928408
 30
0.0
 10
27.53832314384316
 20
461.7060101301352
 30
0.0
 10
27.5311334194327
 20
461.704195004745
 30
0.0
 10
27.52326593491219
 20
461.7041961522471
 30
0.0
 10
27.51537653512518
 20
461.7060151586238
 30
0.0
 10
27.51283586302257
 20
461.7066009444731
 30
0.0
 10
27.51027822962993
 20
461.7073739661362
 30
0.0
 10
27.50772604922214
 20
461.7083274709096
 30
0.0
  0
LINE
  5
18E
330
5E
100
AcDbEntity
  8
64647040_EINSATZ
  6
Continuous
 62
     7
100
AcDbLine
 10
27.5077260492
 20
461.7083274709
 30
0.0
 11
27.4925656144
 21
461.7140066697
 31
0.0
  0
ARC
  5
18F
330
5E
100
AcDbEntity
  8
64647040_EINSATZ
  6
Continuous
 62
     7
100
AcDbCircle
 10
27.5511609773
 20
461.8283047931
 30
0.0
 40
0.1284425068435865
100
AcDbArc
 50
182.4678249402
 51
242.857883539
  0
SPLINE
  5
190
330
5E
100
AcDbEntity
  8
64647040_EINSATZ
  6
Continuous
 62
     7
100
AcDbSpline
210
0.0
220
0.0
230
1.0
 70
    12
 71
     2
 72
     6
 73
     3
 74
     0
 42
0.0000000102889058
 43
0.0000000001
 40
0.0
 40
0.0
 40
0.0
 40
0.5735059749555472
 40
0.5735059749555472
 40
0.5735059749555472
 10
27.42283759334757
 20
461.822774270164
 30
0.0
 41
1.0
 10
27.39985655043289
 20
462.1004985633961
 30
0.0
 41
1.0
 10
27.37706765737436
 20
462.3782942068796
 30
0.0
 41
1.0
  0
SPLINE
  5
191
330
5E
100
AcDbEntity
  8
64647040_EINSATZ
  6
Continuous
 62
     7
100
AcDbSpline
210
0.0
220
0.0
230
1.0
 70
     8
 71
     3
 72
    11
 73
     7
 74
     0
 42
0.0000001315809414
 43
0.0000000001
 40
0.7008455264877079
 40
0.7008455264877079
 40
0.7008455264877079
 40
0.7008455264877079
 40
0.9263670664230315
 40
0.9263670664230315
 40
0.9263670664230315
 40
1.0
 40
1.0
 40
1.0
 40
1.0
 10
26.25545375273598
 20
462.3233694693566
 30
0.0
 10
26.25045516104351
 20
462.3222883301816
 30
0.0
 10
26.2450185590821
 20
462.3229818871496
 30
0.0
 10
26.23957568924216
 20
462.3254004480631
 30
0.0
 10
26.23777563487226
 20
462.326200309399
 30
0.0
 10
26.23596444758905
 20
462.3271887920955
 30
0.0
 10
26.23415801559394
 20
462.3283572544517
 30
0.0
  0
LINE
  5
192
330
5E
100
AcDbEntity
  8
64647040_EINSATZ
  6
Continuous
 62
     7
100
AcDbLine
 10
26.2341580156
 20
462.3283572545
 30
0.0
 11
26.2234379693
 21
462.3353128241
 31
0.0
  0
SPLINE
  5
193
330
5E
100
AcDbEntity
  8
64647040_EINSATZ
  6
Continuous
 62
     7
100
AcDbSpline
210
0.0
220
0.0
230
1.0
 70
     8
 71
     3
 72
    20
 73
    16
 74
     0
 42
0.0000000778023637
 43
0.0000000001
 40
0.0
 40
0.0
 40
0.0
 40
0.0
 40
0.2315840401895576
 40
0.2315840401895576
 40
0.2315840401895576
 40
0.4631672022702042
 40
0.4631672022702042
 40
0.4631672022702042
 40
0.6947632581351131
 40
0.6947632581351131
 40
0.6947632581351131
 40
0.9263655143226717
 40
0.9263655143226717
 40
0.9263655143226717
 40
1.0
 40
1.0
 40
1.0
 40
1.0
 10
26.22343796934614
 20
462.3353128240954
 30
0.0
 10
26.21785494813448
 20
462.3389465347103
 30
0.0
 10
26.21221640997305
 20
462.344426548003
 30
0.0
 10
26.20698599487289
 20
462.3512982773449
 30
0.0
 10
26.20175559123464
 20
462.3581699916282
 30
0.0
 10
26.19678874972763
 20
462.3666228574767
 30
0.0
 10
26.19248824298564
 20
462.3759551413493
 30
0.0
 10
26.18818750165922
 20
462.3852879342803
 30
0.0
 10
26.18443407910856
 20
462.395757552275
 30
0.0
 10
26.18152887293375
 20
462.4064949842559
 30
0.0
 10
26.17862359524419
 20
462.4172326805502
 30
0.0
 10
26.17648601538927
 20
462.4285343037553
 30
0.0
 10
26.17528619493718
 20
462.4394623565217
 30
0.0
 10
26.17489980275886
 20
462.4429816448501
 30
0.0
 10
26.17460605414671
 20
462.4464835334205
 30
0.0
 10
26.17440740918671
 20
462.4499373476484
 30
0.0
  0
SPLINE
  5
194
330
5E
100
AcDbEntity
  8
64647040_EINSATZ
  6
Continuous
 62
     7
100
AcDbSpline
210
0.0
220
0.0
230
1.0
 70
    12
 71
     2
 72
     6
 73
     3
 74
     0
 42
0.0000000102362469
 43
0.0000000001
 40
0.0
 40
0.0
 40
0.0
 40
0.6804847739360218
 40
0.6804847739360218
 40
0.6804847739360218
 10
26.17440740918659
 20
462.4499373476484
 30
0.0
 41
1.0
 10
26.15532309270367
 20
462.7817528641206
 30
0.0
 41
1.0
 10
26.13657005805179
 20
463.1136391524471
 30
0.0
 41
1.0
  0
SPLINE
  5
195
330
5E
100
AcDbEntity
  8
64647040_EINSATZ
  6
Continuous
 62
     7
100
AcDbSpline
210
0.0
220
0.0
230
1.0
 70
     8
 71
     3
 72
    11
 73
     7
 74
     0
 42
0.0000002087609968
 43
0.0000000001
 40
0.7281981972902327
 40
0.7281981972902327
 40
0.7281981972902327
 40
0.7281981972902327
 40
0.9263670665746967
 40
0.9263670665746967
 40
0.9263670665746967
 40
1.0
 40
1.0
 40
1.0
 40
1.0
 10
25.44251750327622
 20
463.0439761897623
 30
0.0
 10
25.44017018642593
 20
463.0437405298318
 30
0.0
 10
25.43767451454127
 20
463.0448925282291
 30
0.0
 10
25.43518553798505
 20
463.0473763758418
 30
0.0
 10
25.43424877207845
 20
463.048311211389
 30
0.0
 10
25.43330746032488
 20
463.0494354415402
 30
0.0
 10
25.43236988209764
 20
463.0507392327007
 30
0.0
  0
LINE
  5
196
330
5E
100
AcDbEntity
  8
64647040_EINSATZ
  6
Continuous
 62
     7
100
AcDbLine
 10
25.4323698821
 20
463.0507392327
 30
0.0
 11
25.4268207778
 21
463.0584971626
 31
0.0
  0
ARC
  5
197
330
5E
100
AcDbEntity
  8
64647040_EINSATZ
  6
Continuous
 62
     7
100
AcDbCircle
 10
25.6642237724
 20
463.170438808
 30
0.0
 40
0.2624711675659058
100
AcDbArc
 50
178.6173026835
 51
205.2450885941
  0
SPLINE
  5
198
330
5E
100
AcDbEntity
  8
64647040_EINSATZ
  6
Continuous
 62
     7
100
AcDbSpline
210
0.0
220
0.0
230
1.0
 70
    12
 71
     2
 72
     6
 73
     3
 74
     0
 42
0.0000000102058168
 43
0.0000000001
 40
0.0
 40
0.0
 40
0.0
 40
0.6556695479816539
 40
0.6556695479816539
 40
0.6556695479816539
 10
25.40182903055038
 20
463.1767723103103
 30
0.0
 41
1.0
 10
25.39257886102084
 20
463.4978505908904
 30
0.0
 41
1.0
 10
25.38367170252567
 20
463.8189624908827
 30
0.0
 41
1.0
  0
ARC
  5
199
330
5E
100
AcDbEntity
  8
64647040_EINSATZ
  6
Continuous
 62
     7
100
AcDbCircle
 10
678.9071953634
 20
428.3573569164
 30
0.0
 40
646.8078270211082
100
AcDbArc
 50
176.8076540274
 51
176.810634756
  0
ARC
  5
19A
330
5E
100
AcDbEntity
  8
64647040_EINSATZ
  6
Continuous
 62
     7
100
AcDbCircle
 10
-328.7684549791
 20
465.9749838731
 30
0.0
 40
362.1671884032056
100
AcDbArc
 50
359.7395663453
 51
359.7456658047
  0
ARC
  5
19B
330
5E
100
AcDbEntity
  8
64647040_EINSATZ
  6
Continuous
 62
     7
100
AcDbCircle
 10
-151.786606046
 20
496.0448618933
 30
0.0
 40
188.3011949775268
100
AcDbArc
 50
350.2610500936
 51
350.2685487608
  0
SPLINE
  5
19C
330
5E
100
AcDbEntity
  8
64647040_EINSATZ
  6
Continuous
 62
     7
100
AcDbSpline
210
0.0
220
0.0
230
1.0
 70
     8
 71
     3
 72
    11
 73
     7
 74
     0
 42
0.0000003378352016
 43
0.0000000001
 40
0.7376450658785243
 40
0.7376450658785243
 40
0.7376450658785243
 40
0.7376450658785243
 40
0.9310036385209793
 40
0.9310036385209793
 40
0.9310036385209793
 40
1.0
 40
1.0
 40
1.0
 40
1.0
 10
37.87614329771009
 20
463.8189656829611
 30
0.0
 10
37.87568968643754
 20
463.8189654814602
 30
0.0
 10
37.87540329419281
 20
463.8203019654309
 30
0.0
 10
37.87529775743344
 20
463.8229152228054
 30
0.0
 10
37.87525959932642
 20
463.8238600779929
 30
0.0
 10
37.8752443428297
 20
463.8249726789807
 30
0.0
 10
37.87525205517183
 20
463.8262442676316
 30
0.0
  0
ARC
  5
19D
330
5E
100
AcDbEntity
  8
64647040_EINSATZ
  6
Continuous
 62
     7
100
AcDbCircle
 10
37.213138572
 20
463.8302600676
 30
0.0
 40
0.662125661264996
100
AcDbArc
 50
359.6524982857
 51
0.3475017143
  0
ARC
  5
19E
330
5E
100
AcDbEntity
  8
64647040_EINSATZ
  6
Continuous
 62
     7
100
AcDbCircle
 10
38.8678805603
 20
463.7917999599
 30
0.0
 40
0.9935368900372251
100
AcDbArc
 50
170.6189250212
 51
177.5497314252
  0
SPLINE
  5
19F
330
5E
100
AcDbEntity
  8
64647040_EINSATZ
  6
Continuous
 62
     7
100
AcDbSpline
210
0.0
220
0.0
230
1.0
 70
    12
 71
     2
 72
     6
 73
     3
 74
     0
 42
0.0000000100768653
 43
0.0000000001
 40
0.6483808738556882
 40
0.6483808738556882
 40
0.6483808738556882
 40
1.0
 40
1.0
 40
1.0
 10
37.9412446302914
 20
464.298540135471
 30
0.0
 41
1.0
 10
37.91451359411182
 20
464.1261324773893
 30
0.0
 41
1.0
 10
37.88763117795596
 20
463.9537465570924
 30
0.0
 41
1.0
  0
SPLINE
  5
1A0
330
5E
100
AcDbEntity
  8
64647040_EINSATZ
  6
Continuous
 62
     7
100
AcDbSpline
210
0.0
220
0.0
230
1.0
 70
     8
 71
     3
 72
    11
 73
     7
 74
     0
 42
0.0000001969382353
 43
0.0000000001
 40
0.7293613021977168
 40
0.7293613021977168
 40
0.7293613021977168
 40
0.7293613021977168
 40
0.931003638453205
 40
0.931003638453205
 40
0.931003638453205
 40
1.0
 40
1.0
 40
1.0
 40
1.0
 10
37.72818076531909
 20
464.2771557010954
 30
0.0
 10
37.72536740666251
 20
464.2768731244051
 30
0.0
 10
37.72255925297546
 20
464.2780562030035
 30
0.0
 10
37.71993225938581
 20
464.2806464305128
 30
0.0
 10
37.7190214577718
 20
464.2815444850058
 30
0.0
 10
37.71812699930017
 20
464.2826122207676
 30
0.0
 10
37.71725589688123
 20
464.2838412288385
 30
0.0
  0
SPLINE
  5
1A1
330
5E
100
AcDbEntity
  8
64647040_EINSATZ
  6
Continuous
 62
     7
100
AcDbSpline
210
0.0
220
0.0
230
1.0
 70
    12
 71
     2
 72
     6
 73
     3
 74
     0
 42
0.0000010484016844
 43
0.0000000001
 40
0.0
 40
0.0
 40
0.0
 40
1.0
 40
1.0
 40
1.0
 10
37.71725589688124
 20
464.2838412288385
 30
0.0
 41
1.0
 10
37.7145048711491
 20
464.2877225552527
 30
0.0
 41
1.0
 10
37.71170679261463
 20
464.2915991587168
 30
0.0
 41
1.0
  0
SPLINE
  5
1A2
330
5E
100
AcDbEntity
  8
64647040_EINSATZ
  6
Continuous
 62
     7
100
AcDbSpline
210
0.0
220
0.0
230
1.0
 70
     8
 71
     3
 72
    20
 73
    16
 74
     0
 42
0.0000000818615402
 43
0.0000000001
 40
0.0
 40
0.0
 40
0.0
 40
0.0
 40
0.2289377704749257
 40
0.2289377704749257
 40
0.2289377704749257
 40
0.4578289888433285
 40
0.4578289888433285
 40
0.4578289888433285
 40
0.6874672639041146
 40
0.6874672639041146
 40
0.6874672639041146
 40
0.9190278165324465
 40
0.9190278165324465
 40
0.9190278165324465
 40
1.0
 40
1.0
 40
1.0
 40
1.0
 10
37.71170679261462
 20
464.2915991587168
 30
0.0
 10
37.70880574854043
 20
464.2956184159924
 30
0.0
 10
37.70610784836764
 20
464.3014854465799
 30
0.0
 10
37.70384229802182
 20
464.3087098564629
 30
0.0
 10
37.70157700173564
 20
464.315933456198
 30
0.0
 10
37.69968215052216
 20
464.3247117086528
 30
0.0
 10
37.69832584304363
 20
464.3343145296969
 30
0.0
 10
37.69696501858578
 20
464.3439493315011
 30
0.0
 10
37.69610970498651
 20
464.3546761391588
 30
0.0
 10
37.69584227180334
 20
464.3656147243979
 30
0.0
 10
37.69557261247341
 20
464.3766443637673
 30
0.0
 10
37.69589369106677
 20
464.3881890309369
 30
0.0
 10
37.69678701218695
 20
464.3993105350439
 30
0.0
 10
37.69710323780492
 20
464.4032474222723
 30
0.0
 10
37.69749142855594
 20
464.4071578194618
 30
0.0
 10
37.69794771069321
 20
464.4110017914873
 30
0.0
  0
SPLINE
  5
1A3
330
5E
100
AcDbEntity
  8
64647040_EINSATZ
  6
Continuous
 62
     7
100
AcDbSpline
210
0.0
220
0.0
230
1.0
 70
    12
 71
     2
 72
     6
 73
     3
 74
     0
 42
0.0000000099917357
 43
0.0000000001
 40
0.0
 40
0.0
 40
0.0
 40
0.3997336563006194
 40
0.3997336563006194
 40
0.3997336563006194
 10
37.69794771069318
 20
464.4110017914874
 30
0.0
 41
1.0
 10
37.72152365891421
 20
464.6096464122844
 30
0.0
 41
1.0
 10
37.74490977821221
 20
464.8083001162876
 30
0.0
 41
1.0
  0
SPLINE
  5
1A4
330
5E
100
AcDbEntity
  8
64647040_EINSATZ
  6
Continuous
 62
     7
100
AcDbSpline
210
0.0
220
0.0
230
1.0
 70
     8
 71
     3
 72
    11
 73
     7
 74
     0
 42
0.0000001262963075
 43
0.0000000001
 40
0.7021899347043753
 40
0.7021899347043753
 40
0.7021899347043753
 40
0.7021899347043753
 40
0.931003638506747
 40
0.931003638506747
 40
0.931003638506747
 40
1.0
 40
1.0
 40
1.0
 40
1.0
 10
37.2706299821164
 20
464.70572306244
 30
0.0
 10
37.26507536630893
 20
464.7045216952097
 30
0.0
 10
37.25924405403042
 20
464.7052029214707
 30
0.0
 10
37.25361012789506
 20
464.707717313832
 30
0.0
 10
37.25188875239887
 20
464.7084855548942
 30
0.0
 10
37.25017604781902
 20
464.709424710866
 30
0.0
 10
37.2484854948293
 20
464.7105273834879
 30
0.0
  0
LINE
  5
1A5
330
5E
100
AcDbEntity
  8
64647040_EINSATZ
  6
Continuous
 62
     7
100
AcDbLine
 10
37.2484854948
 20
464.7105273835
 30
0.0
 11
37.2377654486
 21
464.7174829531
 31
0.0
  0
SPLINE
  5
1A6
330
5E
100
AcDbEntity
  8
64647040_EINSATZ
  6
Continuous
 62
     7
100
AcDbSpline
210
0.0
220
0.0
230
1.0
 70
     8
 71
     3
 72
    20
 73
    16
 74
     0
 42
0.0000000779754339
 43
0.0000000001
 40
0.0
 40
0.0
 40
0.0
 40
0.0
 40
0.2289377704741763
 40
0.2289377704741763
 40
0.2289377704741763
 40
0.4578289888418313
 40
0.4578289888418313
 40
0.4578289888418313
 40
0.6874672639018568
 40
0.6874672639018568
 40
0.6874672639018568
 40
0.9190278165294229
 40
0.9190278165294229
 40
0.9190278165294229
 40
1.0
 40
1.0
 40
1.0
 40
1.0
 10
37.2377654485815
 20
464.7174829531316
 30
0.0
 10
37.23218631439536
 20
464.7210839858777
 30
0.0
 10
37.22674809723318
 20
464.7265497602959
 30
0.0
 10
37.22190667181395
 20
464.7334236691041
 30
0.0
 10
37.2170657893139
 20
464.7402968070696
 30
0.0
 10
37.21268894089199
 20
464.7487657525089
 30
0.0
 10
37.20914547945543
 20
464.7581269272707
 30
0.0
 10
37.20559021705024
 20
464.7675192780258
 30
0.0
 10
37.20277717104733
 20
464.778065169915
 30
0.0
 10
37.20094330227591
 20
464.7889001233677
 30
0.0
 10
37.19909416815506
 20
464.7998252683071
 30
0.0
 10
37.19819031047697
 20
464.8113411940398
 30
0.0
 10
37.19830761998887
 20
464.8225125403208
 30
0.0
 10
37.19834914623519
 20
464.8264670711178
 30
0.0
 10
37.1985158017674
 20
464.8304048321574
 30
0.0
 10
37.19880582064963
 20
464.8342856101774
 30
0.0
  0
SPLINE
  5
1A7
330
5E
100
AcDbEntity
  8
64647040_EINSATZ
  6
Continuous
 62
     7
100
AcDbSpline
210
0.0
220
0.0
230
1.0
 70
    12
 71
     2
 72
     6
 73
     3
 74
     0
 42
0.00000000993881
 43
0.0000000001
 40
0.0
 40
0.0
 40
0.0
 40
0.2992000332788799
 40
0.2992000332788799
 40
0.2992000332788799
 10
37.19880582064955
 20
464.8342856101775
 30
0.0
 41
1.0
 10
37.21002155191312
 20
464.984394233951
 30
0.0
 41
1.0
 10
37.22114143669751
 20
465.1344979746046
 30
0.0
 41
1.0
  0
SPLINE
  5
1A8
330
5E
100
AcDbEntity
  8
64647040_EINSATZ
  6
Continuous
 62
     7
100
AcDbSpline
210
0.0
220
0.0
230
1.0
 70
     8
 71
     3
 72
    14
 73
    10
 74
     0
 42
0.0000000950354454
 43
0.0000000001
 40
0.6461509186349926
 40
0.6461509186349926
 40
0.6461509186349926
 40
0.6461509186349926
 40
0.7007223724300249
 40
0.7007223724300249
 40
0.7007223724300249
 40
0.931003638487197
 40
0.931003638487197
 40
0.931003638487197
 40
1.0
 40
1.0
 40
1.0
 40
1.0
 10
36.53707906970156
 20
465.0767206009598
 30
0.0
 10
36.53532518700258
 20
465.076063291061
 30
0.0
 10
36.53354611772724
 20
465.0755093995311
 30
0.0
 10
36.5317496390748
 20
465.0750632826377
 30
0.0
 10
36.52416763004772
 20
465.0731804535221
 30
0.0
 10
36.51606406099733
 20
465.0731650697169
 30
0.0
 10
36.50811044558851
 20
465.0750236978326
 30
0.0
 10
36.5056958051055
 20
465.0755879592987
 30
0.0
 10
36.50328157240416
 20
465.0763235834165
 30
0.0
 10
36.50088677723613
 20
465.0772247752726
 30
0.0
  0
LINE
  5
1A9
330
5E
100
AcDbEntity
  8
64647040_EINSATZ
  6
Continuous
 62
     7
100
AcDbLine
 10
36.5008867772
 20
465.0772247753
 30
0.0
 11
36.4857263424
 21
465.0829039741
 31
0.0
  0
SPLINE
  5
1AA
330
5E
100
AcDbEntity
  8
64647040_EINSATZ
  6
Continuous
 62
     7
100
AcDbSpline
210
0.0
220
0.0
230
1.0
 70
     8
 71
     3
 72
    20
 73
    16
 74
     0
 42
0.0000000736813218
 43
0.0000000001
 40
0.0
 40
0.0
 40
0.0
 40
0.0
 40
0.228937770474173
 40
0.228937770474173
 40
0.228937770474173
 40
0.4578289888418224
 40
0.4578289888418224
 40
0.4578289888418224
 40
0.6874672639018572
 40
0.6874672639018572
 40
0.6874672639018572
 40
0.9190278165294258
 40
0.9190278165294258
 40
0.9190278165294258
 40
1.0
 40
1.0
 40
1.0
 40
1.0
 10
36.48572634244323
 20
465.0829039741051
 30
0.0
 10
36.47784932691997
 20
465.0858413778911
 30
0.0
 10
36.47004139828093
 20
465.0906538802996
 30
0.0
 10
36.46295403292976
 20
465.0969394862734
 30
0.0
 10
36.45586746235831
 20
465.1032243873769
 30
0.0
 10
36.44930689171481
 20
465.1111539223461
 30
0.0
 10
36.4438177573613
 20
465.1200696285095
 30
0.0
 10
36.43831034226634
 20
465.1290150270996
 30
0.0
 10
36.43373126829609
 20
465.1391963552022
 30
0.0
 10
36.4304559390626
 20
465.1497793337712
 30
0.0
 10
36.42715334558532
 20
465.1604504063568
 30
0.0
 10
36.42508614804284
 20
465.1718198059041
 30
0.0
 10
36.42441945149707
 20
465.1829640575738
 30
0.0
 10
36.42418344842669
 20
465.1869089971835
 30
0.0
 10
36.42411721144094
 20
465.1908517106543
 30
0.0
 10
36.42422120276057
 20
465.1947519204275
 30
0.0
  0
SPLINE
  5
1AB
330
5E
100
AcDbEntity
  8
64647040_EINSATZ
  6
Continuous
 62
     7
100
AcDbSpline
210
0.0
220
0.0
230
1.0
 70
    12
 71
     2
 72
     6
 73
     3
 74
     0
 42
0.0000000099132195
 43
0.0000000001
 40
0.0
 40
0.0
 40
0.0
 40
0.1533974231385078
 40
0.1533974231385078
 40
0.1533974231385078
 10
36.42422120276046
 20
465.1947519204276
 30
0.0
 41
1.0
 10
36.42628251507261
 20
465.2720966387704
 30
0.0
 41
1.0
 10
36.42832311206729
 20
465.349437809443
 30
0.0
 41
1.0
  0
SPLINE
  5
1AC
330
5E
100
AcDbEntity
  8
64647040_EINSATZ
  6
Continuous
 62
     7
100
AcDbSpline
210
0.0
220
0.0
230
1.0
 70
     8
 71
     3
 72
    14
 73
    10
 74
     0
 42
0.0000000793720817
 43
0.0000000001
 40
0.5351318621921777
 40
0.5351318621921777
 40
0.5351318621921777
 40
0.5351318621921777
 40
0.7007223723485376
 40
0.7007223723485376
 40
0.7007223723485376
 40
0.9310036384684158
 40
0.9310036384684158
 40
0.9310036384684158
 40
1.0
 40
1.0
 40
1.0
 40
1.0
 10
35.58133127399738
 20
465.3687506701631
 30
0.0
 10
35.57556323027126
 20
465.3650072479442
 30
0.0
 10
35.56929280161774
 20
465.362091048773
 30
0.0
 10
35.56277850051617
 20
465.3601472475131
 30
0.0
 10
35.55371783403734
 20
465.3574436366969
 30
0.0
 10
35.54393292795699
 20
465.356546030978
 30
0.0
 10
35.53423778381887
 20
465.3575342594476
 30
0.0
 10
35.53129443210759
 20
465.3578342760245
 30
0.0
 10
35.52834319725364
 20
465.3583052865842
 30
0.0
 10
35.52540736124042
 20
465.3589435829386
 30
0.0
  0
LINE
  5
1AD
330
5E
100
AcDbEntity
  8
64647040_EINSATZ
  6
Continuous
 62
     7
100
AcDbLine
 10
35.5254073612
 20
465.3589435829
 30
0.0
 11
35.5068396965
 21
465.3629593829
 31
0.0
  0
ARC
  5
1AE
330
5E
100
AcDbEntity
  8
64647040_EINSATZ
  6
Continuous
 62
     7
100
AcDbCircle
 10
35.5357297592
 20
465.467800991
 30
0.0
 40
0.1087492460311434
100
AcDbArc
 50
179.9817980678
 51
254.5939693774
  0
SPLINE
  5
1AF
330
5E
100
AcDbEntity
  8
64647040_EINSATZ
  6
Continuous
 62
     7
100
AcDbSpline
210
0.0
220
0.0
230
1.0
 70
    12
 71
     2
 72
     6
 73
     3
 74
     0
 42
0.0000000099121728
 43
0.0000000001
 40
0.0
 40
0.0
 40
0.0
 40
0.0667618332197769
 40
0.0667618332197769
 40
0.0667618332197769
 10
35.4269805186736
 20
465.4678355388935
 30
0.0
 41
1.0
 10
35.42621101922231
 20
465.501503905771
 30
0.0
 41
1.0
 10
35.42543871158081
 20
465.535171268647
 30
0.0
 41
1.0
  0
ARC
  5
1B0
330
5E
100
AcDbEntity
  8
64647040_EINSATZ
  6
Continuous
 62
     7
100
AcDbCircle
 10
34.3985262646
 20
465.6259601937
 30
0.0
 40
0.0900323287859164
100
AcDbArc
 50
263.621836513
 51
324.1903065933
  0
LINE
  5
1B1
330
5E
100
AcDbEntity
  8
64647040_EINSATZ
  6
Continuous
 62
     7
100
AcDbLine
 10
34.388524557
 20
465.5364851353
 30
0.0
 11
34.3678150179
 21
465.5385638664
 31
0.0
  0
ARC
  5
1B2
330
5E
100
AcDbEntity
  8
64647040_EINSATZ
  6
Continuous
 62
     7
100
AcDbCircle
 10
34.3795333982
 20
465.6426833712
 30
0.0
 40
0.1047768663427128
100
AcDbArc
 50
184.2457489951
 51
263.5785310371
  0
ARC
  5
1B3
330
5E
100
AcDbEntity
  8
64647040_EINSATZ
  6
Continuous
 62
     7
100
AcDbCircle
 10
33.1688005624
 20
465.6967648123
 30
0.0
 40
0.0990204934275932
100
AcDbArc
 50
269.3718815826
 51
352.9649631477
  0
SPLINE
  5
1B4
330
5E
100
AcDbEntity
  8
64647040_EINSATZ
  6
Continuous
 62
     7
100
AcDbSpline
210
0.0
220
0.0
230
1.0
 70
     8
 71
     3
 72
    11
 73
     7
 74
     0
 42
0.0000003301072661
 43
0.0000000001
 40
0.7382164867206356
 40
0.7382164867206356
 40
0.7382164867206356
 40
0.7382164867206356
 40
0.9340165527348471
 40
0.9340165527348471
 40
0.9340165527348471
 40
1.0
 40
1.0
 40
1.0
 40
1.0
 10
39.63008918246739
 20
463.8189653531844
 30
0.0
 10
39.62949467967933
 20
463.818965054671
 30
0.0
 10
39.62911529808324
 20
463.8203417158864
 30
0.0
 10
39.62897371457519
 20
463.8230327036267
 30
0.0
 10
39.6289253579111
 20
463.8239517880031
 30
0.0
 10
39.62890380957877
 20
463.8250249192089
 30
0.0
 10
39.62890920116198
 20
463.8262442676316
 30
0.0
  0
LINE
  5
1B5
330
5E
100
AcDbEntity
  8
64647040_EINSATZ
  6
Continuous
 62
     7
100
AcDbLine
 10
39.6289092012
 20
463.8342758676
 30
0.0
 11
39.6289092012
 21
463.8262442676
 31
0.0
  0
ARC
  5
1B6
330
5E
100
AcDbEntity
  8
64647040_EINSATZ
  6
Continuous
 62
     7
100
AcDbCircle
 10
40.4785731902
 20
463.7851170002
 30
0.0
 40
0.8510848890926125
100
AcDbArc
 50
168.5720900791
 51
176.6887390848
  0
SPLINE
  5
1B7
330
5E
100
AcDbEntity
  8
64647040_EINSATZ
  6
Continuous
 62
     7
100
AcDbSpline
210
0.0
220
0.0
230
1.0
 70
    12
 71
     2
 72
     6
 73
     3
 74
     0
 42
0.0000000100221455
 43
0.0000000001
 40
0.4639580162883946
 40
0.4639580162883946
 40
0.4639580162883946
 40
1.0
 40
1.0
 40
1.0
 10
39.74313020934114
 20
464.4794053669182
 30
0.0
 41
1.0
 10
39.69387438657149
 20
464.2165535703114
 30
0.0
 41
1.0
 10
39.64436125007759
 20
463.9537465570924
 30
0.0
 41
1.0
  0
SPLINE
  5
1B8
330
5E
100
AcDbEntity
  8
64647040_EINSATZ
  6
Continuous
 62
     7
100
AcDbSpline
210
0.0
220
0.0
230
1.0
 70
     8
 71
     3
 72
    11
 73
     7
 74
     0
 42
0.0000001926979068
 43
0.0000000001
 40
0.7299612794656466
 40
0.7299612794656466
 40
0.7299612794656466
 40
0.7299612794656466
 40
0.934016552626026
 40
0.934016552626026
 40
0.934016552626026
 40
1.0
 40
1.0
 40
1.0
 40
1.0
 10
39.42237833701265
 20
464.4472113827234
 30
0.0
 10
39.41938829822622
 20
464.4469110026923
 30
0.0
 10
39.41644587304985
 20
464.4481228270306
 30
0.0
 10
39.41374525020425
 20
464.4507868045806
 30
0.0
 10
39.41286019040688
 20
464.4516598548233
 30
0.0
 10
39.41199587550865
 20
464.4526892971205
 30
0.0
 10
39.4111586246495
 20
464.4538676199959
 30
0.0
  0
LINE
  5
1B9
330
5E
100
AcDbEntity
  8
64647040_EINSATZ
  6
Continuous
 62
     7
100
AcDbLine
 10
39.4111586246
 20
464.45386762
 30
0.0
 11
39.4056095204
 21
464.4616255499
 31
0.0
  0
SPLINE
  5
1BA
330
5E
100
AcDbEntity
  8
64647040_EINSATZ
  6
Continuous
 62
     7
100
AcDbSpline
210
0.0
220
0.0
230
1.0
 70
     8
 71
     3
 72
    20
 73
    16
 74
     0
 42
0.0000000817664572
 43
0.0000000001
 40
0.0
 40
0.0
 40
0.0
 40
0.0
 40
0.2274863333559501
 40
0.2274863333559501
 40
0.2274863333559501
 40
0.4548919041887214
 40
0.4548919041887214
 40
0.4548919041887214
 40
0.6835816436318995
 40
0.6835816436318995
 40
0.6835816436318995
 40
0.9153618865113675
 40
0.9153618865113675
 40
0.9153618865113675
 40
1.0
 40
1.0
 40
1.0
 40
1.0
 10
39.40560952038288
 20
464.4616255498743
 30
0.0
 10
39.40272647274487
 20
464.4656296557415
 30
0.0
 10
39.40011200918133
 20
464.4714744847602
 30
0.0
 10
39.39798622902727
 20
464.4786678125399
 30
0.0
 10
39.3958608671578
 20
464.485859724906
 30
0.0
 10
39.39416583136124
 20
464.4945950997324
 30
0.0
 10
39.39304513447933
 20
464.5041456263335
 30
0.0
 10
39.3919180022133
 20
464.5137509949782
 30
0.0
 10
39.3913412237666
 20
464.5244398630011
 30
0.0
 10
39.39136574223155
 20
464.535340445312
 30
0.0
 10
39.39139058951976
 20
464.5463872180564
 30
0.0
 10
39.39203361323029
 20
464.5579496420235
 30
0.0
 10
39.39324501447956
 20
464.5690962311156
 30
0.0
 10
39.39369270202439
 20
464.5732155838956
 30
0.0
 10
39.39421918385733
 20
464.5773071870083
 30
0.0
 10
39.3948186574222
 20
464.581326118938
 30
0.0
  0
SPLINE
  5
1BB
330
5E
100
AcDbEntity
  8
64647040_EINSATZ
  6
Continuous
 62
     7
100
AcDbSpline
210
0.0
220
0.0
230
1.0
 70
    12
 71
     2
 72
     6
 73
     3
 74
     0
 42
0.0000000099207528
 43
0.0000000001
 40
0.0
 40
0.0
 40
0.0
 40
0.5258346601976082
 40
0.5258346601976082
 40
0.5258346601976082
 10
39.39481865742217
 20
464.581326118938
 30
0.0
 41
1.0
 10
39.43391517470685
 20
464.8434522981858
 30
0.0
 41
1.0
 10
39.47277121454785
 20
465.1055975001968
 30
0.0
 41
1.0
  0
SPLINE
  5
1BC
330
5E
100
AcDbEntity
  8
64647040_EINSATZ
  6
Continuous
 62
     7
100
AcDbSpline
210
0.0
220
0.0
230
1.0
 70
     8
 71
     3
 72
    14
 73
    10
 74
     0
 42
0.0000001243990365
 43
0.0000000001
 40
0.7028867626246972
 40
0.7028867626246972
 40
0.7028867626246972
 40
0.7028867626246972
 40
0.7042698237709537
 40
0.7042698237709537
 40
0.7042698237709537
 40
0.9340165527238322
 40
0.9340165527238322
 40
0.9340165527238322
 40
1.0
 40
1.0
 40
1.0
 40
1.0
 10
38.78965249775988
 20
465.0342560628158
 30
0.0
 10
38.78961796495168
 20
465.0342485938225
 30
0.0
 10
38.7895834294
 20
465.0342411953974
 30
0.0
 10
38.78954889120386
 20
465.034233867603
 30
0.0
 10
38.78381023385925
 20
465.0330163257003
 30
0.0
 10
38.77783753726934
 20
465.0337152361501
 30
0.0
 10
38.77212959622423
 20
465.0362831584432
 30
0.0
 10
38.77046814865611
 20
465.0370306203064
 30
0.0
 10
38.76881996882395
 20
465.0379361516559
 30
0.0
 10
38.76719713278489
 20
465.0389931482273
 30
0.0
  0
LINE
  5
1BD
330
5E
100
AcDbEntity
  8
64647040_EINSATZ
  6
Continuous
 62
     7
100
AcDbLine
 10
38.7671971328
 20
465.0389931482
 30
0.0
 11
38.7564770865
 21
465.0459487179
 31
0.0
  0
SPLINE
  5
1BE
330
5E
100
AcDbEntity
  8
64647040_EINSATZ
  6
Continuous
 62
     7
100
AcDbSpline
210
0.0
220
0.0
230
1.0
 70
     8
 71
     3
 72
    20
 73
    16
 74
     0
 42
0.0000000779842952
 43
0.0000000001
 40
0.0
 40
0.0
 40
0.0
 40
0.0
 40
0.2274863332652359
 40
0.2274863332652359
 40
0.2274863332652359
 40
0.4548919040073475
 40
0.4548919040073475
 40
0.4548919040073475
 40
0.683581643359351
 40
0.683581643359351
 40
0.683581643359351
 40
0.9153618861464179
 40
0.9153618861464179
 40
0.9153618861464179
 40
1.0
 40
1.0
 40
1.0
 40
1.0
 10
38.75647708653709
 20
465.045948717871
 30
0.0
 10
38.750925803817
 20
465.0495368603307
 30
0.0
 10
38.74557429371606
 20
465.0549888243075
 30
0.0
 10
38.74086954016928
 20
465.0618452845528
 30
0.0
 10
38.73616571236541
 20
465.0687003956689
 30
0.0
 10
38.73197951172643
 20
465.0771457203023
 30
0.0
 10
38.72865562839604
 20
465.0864770495692
 30
0.0
 10
38.7253126583114
 20
465.0958619621816
 30
0.0
 10
38.72275095151461
 20
465.1063960467231
 30
0.0
 10
38.72117569290883
 20
465.1172201497967
 30
0.0
 10
38.71957930811621
 20
465.1281894176217
 30
0.0
 10
38.71895242024416
 20
465.1397526373743
 30
0.0
 10
38.71934137861842
 20
465.1509781528321
 30
0.0
 10
38.71948512274922
 20
465.1551266737767
 30
0.0
 10
38.71976532451881
 20
465.1592580608257
 30
0.0
 10
38.72017868877128
 20
465.1633269449561
 30
0.0
  0
SPLINE
  5
1BF
330
5E
100
AcDbEntity
  8
64647040_EINSATZ
  6
Continuous
 62
     7
100
AcDbSpline
210
0.0
220
0.0
230
1.0
 70
    12
 71
     2
 72
     6
 73
     3
 74
     0
 42
0.0000000098565629
 43
0.0000000001
 40
0.0
 40
0.0
 40
0.0
 40
0.2558857699380924
 40
0.2558857699380924
 40
0.2558857699380924
 10
38.72017868877114
 20
465.1633269449562
 30
0.0
 41
1.0
 10
38.73329737907566
 20
465.292470115342
 30
0.0
 41
1.0
 10
38.74636469198799
 20
465.42161244813
 30
0.0
 41
1.0
  0
SPLINE
  5
1C0
330
5E
100
AcDbEntity
  8
64647040_EINSATZ
  6
Continuous
 62
     7
100
AcDbSpline
210
0.0
220
0.0
230
1.0
 70
     8
 71
     3
 72
    14
 73
    10
 74
     0
 42
0.0000000939281026
 43
0.0000000001
 40
0.6468134797167331
 40
0.6468134797167331
 40
0.6468134797167331
 40
0.6468134797167331
 40
0.7042698238255743
 40
0.7042698238255743
 40
0.7042698238255743
 40
0.9340165527359828
 40
0.9340165527359828
 40
0.9340165527359828
 40
1.0
 40
1.0
 40
1.0
 40
1.0
 10
37.7774627022305
 20
465.5413770092177
 30
0.0
 10
37.77557762477897
 20
465.540670357519
 30
0.0
 10
37.77366658216946
 20
465.5400792588959
 30
0.0
 10
37.77173895229279
 20
465.5396090124527
 30
0.0
 10
37.76402924866433
 20
465.537728225714
 30
0.0
 10
37.75583805133805
 20
465.5377286027501
 30
0.0
 10
37.74785179913385
 20
465.5396211562771
 30
0.0
 10
37.7455271887011
 20
465.5401720341559
 30
0.0
 10
37.74320746466682
 20
465.5408818768444
 30
0.0
 10
37.74090963704202
 20
465.5417455145423
 30
0.0
  0
LINE
  5
1C1
330
5E
100
AcDbEntity
  8
64647040_EINSATZ
  6
Continuous
 62
     7
100
AcDbLine
 10
37.740909637
 20
465.5417455145
 30
0.0
 11
37.7257492022
 21
465.5474247134
 31
0.0
  0
SPLINE
  5
1C2
330
5E
100
AcDbEntity
  8
64647040_EINSATZ
  6
Continuous
 62
     7
100
AcDbSpline
210
0.0
220
0.0
230
1.0
 70
     8
 71
     3
 72
    20
 73
    16
 74
     0
 42
0.0000000736868106
 43
0.0000000001
 40
0.0
 40
0.0
 40
0.0
 40
0.0
 40
0.22748633350964
 40
0.22748633350964
 40
0.22748633350964
 40
0.4548919044960408
 40
0.4548919044960408
 40
0.4548919044960408
 40
0.6835816440937157
 40
0.6835816440937157
 40
0.6835816440937157
 40
0.9153618871297793
 40
0.9153618871297793
 40
0.9153618871297793
 40
1.0
 40
1.0
 40
1.0
 40
1.0
 10
37.72574920224913
 20
465.5474247133748
 30
0.0
 10
37.71790799519039
 20
465.5503523664481
 30
0.0
 10
37.71018413512166
 20
465.5551594807096
 30
0.0
 10
37.70322102936139
 20
465.5614405067105
 30
0.0
 10
37.69625929371452
 20
465.5677202968093
 30
0.0
 10
37.68986721088864
 20
465.5756439227839
 30
0.0
 10
37.68456665826577
 20
465.5845499130358
 30
0.0
 10
37.67923566824926
 20
465.5935070442065
 30
0.0
 10
37.67486360918716
 20
465.6036991700209
 30
0.0
 10
37.6717959247814
 20
465.6142942929249
 30
0.0
 10
37.66868709889341
 20
465.62503150967
 30
0.0
 10
37.6668330208113
 20
465.6364723734076
 30
0.0
 10
37.66637302944012
 20
465.6476943856676
 30
0.0
 10
37.66620303423189
 20
465.6518416119645
 30
0.0
 10
37.66621786065058
 20
465.6559875491825
 30
0.0
 10
37.66641695131331
 20
465.6600866370436
 30
0.0
  0
SPLINE
  5
1C3
330
5E
100
AcDbEntity
  8
64647040_EINSATZ
  6
Continuous
 62
     7
100
AcDbSpline
210
0.0
220
0.0
230
1.0
 70
    12
 71
     2
 72
     6
 73
     3
 74
     0
 42
0.0000000098225984
 43
0.0000000001
 40
0.0
 40
0.0
 40
0.0
 40
0.0989392768868653
 40
0.0989392768868653
 40
0.0989392768868653
 10
37.66641695131317
 20
465.6600866370436
 30
0.0
 41
1.0
 10
37.66885979733721
 20
465.710391006604
 30
0.0
 41
1.0
 10
37.67129631842927
 20
465.7606945601997
 30
0.0
 41
1.0
  0
SPLINE
  5
1C4
330
5E
100
AcDbEntity
  8
64647040_EINSATZ
  6
Continuous
 62
     7
100
AcDbSpline
210
0.0
220
0.0
230
1.0
 70
     8
 71
     3
 72
    14
 73
    10
 74
     0
 42
0.0000000785996585
 43
0.0000000001
 40
0.5358521916724146
 40
0.5358521916724146
 40
0.5358521916724146
 40
0.5358521916724146
 40
0.7042698233685784
 40
0.7042698233685784
 40
0.7042698233685784
 40
0.9340165526340242
 40
0.9340165526340242
 40
0.9340165526340242
 40
1.0
 40
1.0
 40
1.0
 40
1.0
 10
36.45858547398878
 20
465.9379460619033
 30
0.0
 10
36.45262534853136
 20
465.9340774782418
 30
0.0
 10
36.44615165078901
 20
465.9310698028767
 30
0.0
 10
36.43944183943157
 20
465.9290818276901
 30
0.0
 10
36.43028649308066
 20
465.9263692922104
 30
0.0
 10
36.42043501157919
 20
465.9254798423312
 30
0.0
 10
36.41071469810573
 20
465.9264991453354
 30
0.0
 10
36.40788534316774
 20
465.9267958404982
 30
0.0
 10
36.40505216029074
 20
465.9272515526718
 30
0.0
 10
36.40223593423552
 20
465.9278629760142
 30
0.0
  0
LINE
  5
1C5
330
5E
100
AcDbEntity
  8
64647040_EINSATZ
  6
Continuous
 62
     7
100
AcDbLine
 10
36.4022359342
 20
465.927862976
 30
0.0
 11
36.3836682695
 21
465.931878776
 31
0.0
  0
ARC
  5
1C6
330
5E
100
AcDbEntity
  8
64647040_EINSATZ
  6
Continuous
 62
     7
100
AcDbCircle
 10
36.4126292974
 20
466.0352108487
 30
0.0
 40
0.1073138313135539
100
AcDbArc
 50
178.6432122254
 51
254.3433332935
  0
ARC
  5
1C7
330
5E
100
AcDbEntity
  8
64647040_EINSATZ
  6
Continuous
 62
     7
100
AcDbCircle
 10
34.8517955615
 20
466.2620306613
 30
0.0
 40
0.0914817000815667
100
AcDbArc
 50
264.1078701482
 51
324.1122240837
  0
LINE
  5
1C8
330
5E
100
AcDbEntity
  8
64647040_EINSATZ
  6
Continuous
 62
     7
100
AcDbLine
 10
34.8424044249
 20
466.1710322657
 30
0.0
 11
34.8216948859
 21
466.1731109968
 31
0.0
  0
ARC
  5
1C9
330
5E
100
AcDbEntity
  8
64647040_EINSATZ
  6
Continuous
 62
     7
100
AcDbCircle
 10
34.8338091164
 20
466.2766725508
 30
0.0
 40
0.1042676845966836
100
AcDbArc
 50
207.9410002677
 51
263.328082357
  0
ARC
  5
1CA
330
5E
100
AcDbEntity
  8
64647040_EINSATZ
  6
Continuous
 62
     7
100
AcDbCircle
 10
33.1681811901
 20
466.3542443219
 30
0.0
 40
0.0995636146312321
100
AcDbArc
 50
269.7317491214
 51
319.3635101382
  0
ARC
  5
1CB
330
5E
100
AcDbEntity
  8
64647040_EINSATZ
  6
Continuous
 62
     7
100
AcDbCircle
 10
33.1437646659
 20
461.6151066047
 30
0.0
 40
0.0980708984543522
100
AcDbArc
 50
189.0493417958
 51
271.4667425291
  0
SPLINE
  5
1CC
330
5E
100
AcDbEntity
  8
64647040_EINSATZ
  6
Continuous
 62
     7
100
AcDbSpline
210
0.0
220
0.0
230
1.0
 70
    12
 71
     2
 72
     6
 73
     3
 74
     0
 42
0.0000000105769734
 43
0.0000000001
 40
0.0
 40
0.0
 40
0.0
 40
0.0418236917349253
 40
0.0418236917349253
 40
0.0418236917349253
 10
33.04691443071915
 20
461.5996815252981
 30
0.0
 41
1.0
 10
33.04451124560097
 20
461.6193056853541
 30
0.0
 41
1.0
 10
33.04210806113082
 20
461.6389305416387
 30
0.0
 41
1.0
  0
ARC
  5
1CD
330
5E
100
AcDbEntity
  8
64647040_EINSATZ
  6
Continuous
 62
     7
100
AcDbCircle
 10
31.5811821387
 20
461.6789073699
 30
0.0
 40
0.0849163224446846
100
AcDbArc
 50
261.8504173448
 51
324.7058518551
  0
LINE
  5
1CE
330
5E
100
AcDbEntity
  8
64647040_EINSATZ
  6
Continuous
 62
     7
100
AcDbLine
 10
31.5691445769
 20
461.5948485874
 30
0.0
 11
31.5484350379
 21
461.5969273184
 31
0.0
  0
ARC
  5
1CF
330
5E
100
AcDbEntity
  8
64647040_EINSATZ
  6
Continuous
 62
     7
100
AcDbCircle
 10
31.5597701929
 20
461.7044804998
 30
0.0
 40
0.108148844505147
100
AcDbArc
 50
188.1428469012
 51
263.9837402954
  0
SPLINE
  5
1D0
330
5E
100
AcDbEntity
  8
64647040_EINSATZ
  6
Continuous
 62
     7
100
AcDbSpline
210
0.0
220
0.0
230
1.0
 70
    12
 71
     2
 72
     6
 73
     3
 74
     0
 42
0.0000000104605634
 43
0.0000000001
 40
0.0
 40
0.0
 40
0.0
 40
0.078537306956828
 40
0.078537306956828
 40
0.078537306956828
 10
31.4527117037002
 20
461.6891621297106
 30
0.0
 41
1.0
 10
31.44837354799489
 20
461.7264492506171
 30
0.0
 41
1.0
 10
31.44403710358931
 20
461.7637387420563
 30
0.0
 41
1.0
  0
ARC
  5
1D1
330
5E
100
AcDbEntity
  8
64647040_EINSATZ
  6
Continuous
 62
     7
100
AcDbCircle
 10
30.095514431
 20
461.8928517423
 30
0.0
 40
0.0699142342618018
100
AcDbArc
 50
256.154376167
 51
302.8151529091
  0
LINE
  5
1D2
330
5E
100
AcDbEntity
  8
64647040_EINSATZ
  6
Continuous
 62
     7
100
AcDbLine
 10
30.0787834875
 20
461.8249689339
 30
0.0
 11
30.0602158228
 21
461.8289847339
 31
0.0
  0
ARC
  5
1D3
330
5E
100
AcDbEntity
  8
64647040_EINSATZ
  6
Continuous
 62
     7
100
AcDbCircle
 10
30.0908495788
 20
461.9416586806
 30
0.0
 40
0.1167640581274356
100
AcDbArc
 50
185.6514331564
 51
254.7900926908
  0
SPLINE
  5
1D4
330
5E
100
AcDbEntity
  8
64647040_EINSATZ
  6
Continuous
 62
     7
100
AcDbSpline
210
0.0
220
0.0
230
1.0
 70
    12
 71
     2
 72
     6
 73
     3
 74
     0
 42
0.0000000103633118
 43
0.0000000001
 40
0.0
 40
0.0
 40
0.0
 40
0.1965964196673297
 40
0.1965964196673297
 40
0.1965964196673297
 10
29.97465306390354
 20
461.9301601935364
 30
0.0
 41
1.0
 10
29.96497077748061
 20
462.0245112561477
 30
0.0
 41
1.0
 10
29.9553091924126
 20
462.1188756230237
 30
0.0
 41
1.0
  0
SPLINE
  5
1D5
330
5E
100
AcDbEntity
  8
64647040_EINSATZ
  6
Continuous
 62
     7
100
AcDbSpline
210
0.0
220
0.0
230
1.0
 70
     8
 71
     3
 72
    14
 73
    10
 74
     0
 42
0.000000098030916
 43
0.0000000001
 40
0.6448051799657168
 40
0.6448051799657168
 40
0.6448051799657168
 40
0.6448051799657168
 40
0.6947533631508337
 40
0.6947533631508337
 40
0.6947533631508337
 40
0.9263592170652215
 40
0.9263592170652215
 40
0.9263592170652215
 40
1.0
 40
1.0
 40
1.0
 40
1.0
 10
28.83342077621105
 20
462.190878558499
 30
0.0
 10
28.83191718438404
 20
462.1903153018209
 30
0.0
 10
28.83038573746795
 20
462.1898357977584
 30
0.0
 10
28.82883212189052
 20
462.1894431472298
 30
0.0
 10
28.82162814921193
 20
462.1876224628073
 30
0.0
 10
28.81374918840414
 20
462.1876191686366
 30
0.0
 10
28.80585333846469
 20
462.1894357456663
 30
0.0
 10
28.80331036478013
 20
462.1900208008052
 30
0.0
 10
28.8007509117873
 20
462.1907933200562
 30
0.0
 10
28.79819742590255
 20
462.1917465572286
 30
0.0
  0
LINE
  5
1D6
330
5E
100
AcDbEntity
  8
64647040_EINSATZ
  6
Continuous
 62
     7
100
AcDbLine
 10
28.7981974259
 20
462.1917465572
 30
0.0
 11
28.7830369911
 21
462.1974257561
 31
0.0
  0
ARC
  5
1D7
330
5E
100
AcDbEntity
  8
64647040_EINSATZ
  6
Continuous
 62
     7
100
AcDbCircle
 10
28.8417349315
 20
462.3116017042
 30
0.0
 40
0.1283806657501126
100
AcDbArc
 50
182.3882001242
 51
242.7922701343
  0
SPLINE
  5
1D8
330
5E
100
AcDbEntity
  8
64647040_EINSATZ
  6
Continuous
 62
     7
100
AcDbSpline
210
0.0
220
0.0
230
1.0
 70
    12
 71
     2
 72
     6
 73
     3
 74
     0
 42
0.0000000102876131
 43
0.0000000001
 40
0.0
 40
0.0
 40
0.0
 40
0.5565440314730711
 40
0.5565440314730711
 40
0.5565440314730711
 10
28.71346577294481
 20
462.3062520963887
 30
0.0
 41
1.0
 10
28.6912563503254
 20
462.5757972516137
 30
0.0
 41
1.0
 10
28.66928148646562
 20
462.8454292770667
 30
0.0
 41
1.0
  0
SPLINE
  5
1D9
330
5E
100
AcDbEntity
  8
64647040_EINSATZ
  6
Continuous
 62
     7
100
AcDbSpline
210
0.0
220
0.0
230
1.0
 70
     8
 71
     3
 72
    11
 73
     7
 74
     0
 42
0.0000001313462319
 43
0.0000000001
 40
0.7008464193479786
 40
0.7008464193479786
 40
0.7008464193479786
 40
0.7008464193479786
 40
0.9263592169747598
 40
0.9263592169747598
 40
0.9263592169747598
 40
1.0
 40
1.0
 40
1.0
 40
1.0
 10
27.83599511028699
 20
462.6652077179529
 30
0.0
 10
27.83097996891628
 20
462.6641229989712
 30
0.0
 10
27.82553022899514
 20
462.6648135510904
 30
0.0
 10
27.82008008182679
 20
462.6672302898544
 30
0.0
 10
27.81827735654456
 20
462.6680296657128
 30
0.0
 10
27.8164640937379
 20
462.6690178380965
 30
0.0
 10
27.81465621586091
 20
462.6701861685429
 30
0.0
  0
LINE
  5
1DA
330
5E
100
AcDbEntity
  8
64647040_EINSATZ
  6
Continuous
 62
     7
100
AcDbLine
 10
27.8146562159
 20
462.6701861685
 30
0.0
 11
27.8039361696
 21
462.6771417382
 31
0.0
  0
SPLINE
  5
1DB
330
5E
100
AcDbEntity
  8
64647040_EINSATZ
  6
Continuous
 62
     7
100
AcDbSpline
210
0.0
220
0.0
230
1.0
 70
     8
 71
     3
 72
    20
 73
    16
 74
     0
 42
0.0000000778261939
 43
0.0000000001
 40
0.0
 40
0.0
 40
0.0
 40
0.0
 40
0.231576835500798
 40
0.231576835500798
 40
0.231576835500798
 40
0.4631521973312376
 40
0.4631521973312376
 40
0.4631521973312376
 40
0.694749198552092
 40
0.694749198552092
 40
0.694749198552092
 40
0.9263566105538357
 40
0.9263566105538357
 40
0.9263566105538357
 40
1.0
 40
1.0
 40
1.0
 40
1.0
 10
27.80393616961311
 20
462.6771417381866
 30
0.0
 10
27.79835710889223
 20
462.680776199608
 30
0.0
 10
27.79272893888791
 20
462.6862582629697
 30
0.0
 10
27.78751347194098
 20
462.6931329128787
 30
0.0
 10
27.78229802417544
 20
462.7000075375041
 30
0.0
 10
27.77735104210003
 20
462.708464224898
 30
0.0
 10
27.77307110001681
 20
462.7178004389132
 30
0.0
 10
27.76879076610243
 20
462.7271375076642
 30
0.0
 10
27.7650589294712
 20
462.737611664774
 30
0.0
 10
27.76217175538037
 20
462.7483529739998
 30
0.0
 10
27.75928446195487
 20
462.759094727193
 30
0.0
 10
27.75716171033656
 20
462.7703998617385
 30
0.0
 10
27.75597029820722
 20
462.7813300804164
 30
0.0
 10
27.75558657555553
 20
462.7848504176627
 30
0.0
 10
27.7552948907171
 20
462.7883532235773
 30
0.0
 10
27.75509765389502
 20
462.7918077970565
 30
0.0
  0
SPLINE
  5
1DC
330
5E
100
AcDbEntity
  8
64647040_EINSATZ
  6
Continuous
 62
     7
100
AcDbSpline
210
0.0
220
0.0
230
1.0
 70
    12
 71
     2
 72
     6
 73
     3
 74
     0
 42
0.0000000102356099
 43
0.0000000001
 40
0.0
 40
0.0
 40
0.0
 40
0.4936908801525569
 40
0.4936908801525569
 40
0.4936908801525569
 10
27.75509765389494
 20
462.7918077970565
 30
0.0
 41
1.0
 10
27.74135190054549
 20
463.0325614759345
 30
0.0
 41
1.0
 10
27.72783216618974
 20
463.2733632622515
 30
0.0
 41
1.0
  0
SPLINE
  5
1DD
330
5E
100
AcDbEntity
  8
64647040_EINSATZ
  6
Continuous
 62
     7
100
AcDbSpline
210
0.0
220
0.0
230
1.0
 70
     8
 71
     3
 72
    11
 73
     7
 74
     0
 42
0.0000002082060831
 43
0.0000000001
 40
0.7281991896273627
 40
0.7281991896273627
 40
0.7281991896273627
 40
0.7281991896273627
 40
0.9263592170477911
 40
0.9263592170477911
 40
0.9263592170477911
 40
1.0
 40
1.0
 40
1.0
 40
1.0
 10
27.20537567899474
 20
463.2209240228339
 30
0.0
 10
27.20301289410725
 20
463.2206868085514
 30
0.0
 10
27.20050494773515
 20
463.2218374382836
 30
0.0
 10
27.19800875736714
 20
463.2243203420762
 30
0.0
 10
27.19706913323608
 20
463.2252549648312
 30
0.0
 10
27.19612563147931
 20
463.2263790950364
 30
0.0
 10
27.19518656549975
 20
463.2276828989678
 30
0.0
  0
LINE
  5
1DE
330
5E
100
AcDbEntity
  8
64647040_EINSATZ
  6
Continuous
 62
     7
100
AcDbLine
 10
27.1951865655
 20
463.227682899
 30
0.0
 11
27.1896374612
 21
463.2354408288
 31
0.0
  0
ARC
  5
1DF
330
5E
100
AcDbEntity
  8
64647040_EINSATZ
  6
Continuous
 62
     7
100
AcDbCircle
 10
27.4275047671
 20
463.3470059582
 30
0.0
 40
0.2627311045614864
100
AcDbArc
 50
178.5318456621
 51
205.1276361888
  0
SPLINE
  5
1E0
330
5E
100
AcDbEntity
  8
64647040_EINSATZ
  6
Continuous
 62
     7
100
AcDbSpline
210
0.0
220
0.0
230
1.0
 70
    12
 71
     2
 72
     6
 73
     3
 74
     0
 42
0.0000000102054906
 43
0.0000000001
 40
0.0
 40
0.0
 40
0.0
 40
0.4749690102944206
 40
0.4749690102944206
 40
0.4749690102944206
 10
27.1648599119253
 20
463.3537374767383
 30
0.0
 41
1.0
 10
27.15826626502552
 20
463.5863386224325
 30
0.0
 41
1.0
 10
27.15190592736239
 20
463.8189624723555
 30
0.0
 41
1.0
  0
SPLINE
  5
1E1
330
5E
100
AcDbEntity
  8
64647040_EINSATZ
  6
Continuous
 62
     7
100
AcDbSpline
210
0.0
220
0.0
230
1.0
 70
     8
 71
     3
 72
    11
 73
     7
 74
     0
 42
0.0000001953289538
 43
0.0000000001
 40
0.7298018938882629
 40
0.7298018938882629
 40
0.7298018938882629
 40
0.7298018938882629
 40
0.9322077561080959
 40
0.9322077561080959
 40
0.9322077561080959
 40
1.0
 40
1.0
 40
1.0
 40
1.0
 10
36.02934837480628
 20
464.1066343499797
 30
0.0
 10
36.02646209526251
 20
464.1063444337918
 30
0.0
 10
36.02360762097606
 20
464.1075389519211
 30
0.0
 10
36.02096319740446
 20
464.1101582719348
 30
0.0
 10
36.0200656816876
 20
464.1110472675197
 30
0.0
 10
36.01918705018414
 20
464.1121008828662
 30
0.0
 10
36.01833398127108
 20
464.1133110340203
 30
0.0
  0
SPLINE
  5
1E2
330
5E
100
AcDbEntity
  8
64647040_EINSATZ
  6
Continuous
 62
     7
100
AcDbSpline
210
0.0
220
0.0
230
1.0
 70
    12
 71
     2
 72
     6
 73
     3
 74
     0
 42
0.0000010483867374
 43
0.0000000001
 40
0.0
 40
0.0
 40
0.0
 40
1.0
 40
1.0
 40
1.0
 10
36.01833398127108
 20
464.1133110340203
 30
0.0
 41
1.0
 10
36.01559693791351
 20
464.1171937639228
 30
0.0
 41
1.0
 10
36.01278487700446
 20
464.1210689638986
 30
0.0
 41
1.0
  0
SPLINE
  5
1E3
330
5E
100
AcDbEntity
  8
64647040_EINSATZ
  6
Continuous
 62
     7
100
AcDbSpline
210
0.0
220
0.0
230
1.0
 70
     8
 71
     3
 72
    20
 73
    16
 74
     0
 42
0.0000000817534634
 43
0.0000000001
 40
0.0
 40
0.0
 40
0.0
 40
0.0
 40
0.2280395246138469
 40
0.2280395246138469
 40
0.2280395246138469
 40
0.4560243241927594
 40
0.4560243241927594
 40
0.4560243241927594
 40
0.684891399183999
 40
0.684891399183999
 40
0.684891399183999
 40
0.916209072022856
 40
0.916209072022856
 40
0.916209072022856
 40
1.0
 40
1.0
 40
1.0
 40
1.0
 10
36.01278487700447
 20
464.1210689638986
 30
0.0
 10
36.0098759825834
 20
464.1250776066537
 30
0.0
 10
36.00720165808059
 20
464.1309294412404
 30
0.0
 10
36.00499256481888
 20
464.1381344998111
 30
0.0
 10
36.00278376249582
 20
464.1453386094722
 30
0.0
 10
36.00098018429189
 20
464.1540923172599
 30
0.0
 10
35.99974998743356
 20
464.163666024938
 30
0.0
 10
35.99851491455795
 20
464.173277679034
 30
0.0
 10
35.99782507251079
 20
464.183976013354
 30
0.0
 10
35.99775698861918
 20
464.194884243028
 30
0.0
 10
35.99768817827025
 20
464.2059088638629
 30
0.0
 10
35.99825317722275
 20
464.2174455878007
 30
0.0
 10
35.99941831544567
 20
464.2285632214973
 30
0.0
 10
35.99984546731143
 20
464.2326390623571
 30
0.0
 10
36.00035411958685
 20
464.2366870809494
 30
0.0
 10
36.0009389096247
 20
464.2406636266147
 30
0.0
  0
SPLINE
  5
1E4
330
5E
100
AcDbEntity
  8
64647040_EINSATZ
  6
Continuous
 62
     7
100
AcDbSpline
210
0.0
220
0.0
230
1.0
 70
    12
 71
     2
 72
     6
 73
     3
 74
     0
 42
0.0000000099276033
 43
0.0000000001
 40
0.0
 40
0.0
 40
0.0
 40
0.4103225933849275
 40
0.4103225933849275
 40
0.4103225933849275
 10
36.00093890962469
 20
464.2406636266148
 30
0.0
 41
1.0
 10
36.03099904995439
 20
464.4451331522402
 30
0.0
 41
1.0
 10
36.06077324875269
 20
464.6496244312581
 30
0.0
 41
1.0
  0
SPLINE
  5
1E5
330
5E
100
AcDbEntity
  8
64647040_EINSATZ
  6
Continuous
 62
     7
100
AcDbSpline
210
0.0
220
0.0
230
1.0
 70
     8
 71
     3
 72
    14
 73
    10
 74
     0
 42
0.0000000789889645
 43
0.0000000001
 40
0.5357265207865376
 40
0.5357265207865376
 40
0.5357265207865376
 40
0.5357265207865376
 40
0.7025460169685178
 40
0.7025460169685178
 40
0.7025460169685178
 40
0.9322077561069695
 40
0.9322077561069695
 40
0.9322077561069695
 40
1.0
 40
1.0
 40
1.0
 40
1.0
 10
34.70208447646003
 20
464.7982621973829
 30
0.0
 10
34.69622123983463
 20
464.7944567092341
 30
0.0
 10
34.68985488790572
 20
464.7914967160146
 30
0.0
 10
34.68325093036754
 20
464.7895330810298
 30
0.0
 10
34.67415715758093
 20
464.7868291190063
 30
0.0
 10
34.66435878148673
 20
464.7859388610933
 30
0.0
 10
34.65467014521316
 20
464.7869419574502
 30
0.0
 10
34.65177208014348
 20
464.7872420036518
 30
0.0
 10
34.64886815555042
 20
464.787708690619
 30
0.0
 10
34.64598066543648
 20
464.7883384299583
 30
0.0
  0
LINE
  5
1E6
330
5E
100
AcDbEntity
  8
64647040_EINSATZ
  6
Continuous
 62
     7
100
AcDbLine
 10
34.6459806654
 20
464.78833843
 30
0.0
 11
34.6274130007
 21
464.79235423
 31
0.0
  0
ARC
  5
1E7
330
5E
100
AcDbEntity
  8
64647040_EINSATZ
  6
Continuous
 62
     7
100
AcDbCircle
 10
34.6559183158
 20
464.8958944562
 30
0.0
 40
0.1073924179523822
100
AcDbArc
 50
178.9443887899
 51
254.6074143861
  0
SPLINE
  5
1E8
330
5E
100
AcDbEntity
  8
64647040_EINSATZ
  6
Continuous
 62
     7
100
AcDbSpline
210
0.0
220
0.0
230
1.0
 70
    12
 71
     2
 72
     6
 73
     3
 74
     0
 42
0.00000000982223
 43
0.0000000001
 40
0.0
 40
0.0
 40
0.0
 40
0.0624227002133448
 40
0.0624227002133448
 40
0.0624227002133448
 10
34.54854412396469
 20
464.8978729304669
 30
0.0
 41
1.0
 10
34.54828640890025
 20
464.9296486425903
 30
0.0
 41
1.0
 10
34.5480251682129
 20
464.9614232842486
 30
0.0
 41
1.0
  0
ARC
  5
1E9
330
5E
100
AcDbEntity
  8
64647040_EINSATZ
  6
Continuous
 62
     7
100
AcDbCircle
 10
31.8516395565
 20
463.0332290979
 30
0.0
 40
0.0707111403018777
100
AcDbArc
 50
256.422704327
 51
302.8040487483
  0
LINE
  5
1EA
330
5E
100
AcDbEntity
  8
64647040_EINSATZ
  6
Continuous
 62
     7
100
AcDbLine
 10
31.8350396255
 20
462.9644940439
 30
0.0
 11
31.8164719608
 21
462.9685098439
 31
0.0
  0
ARC
  5
1EB
330
5E
100
AcDbEntity
  8
64647040_EINSATZ
  6
Continuous
 62
     7
100
AcDbCircle
 10
31.8476167591
 20
463.0808329834
 30
0.0
 40
0.1165610832149037
100
AcDbArc
 50
185.282532735
 51
254.5024465763
  0
ELLIPSE
  5
1EC
330
5E
100
AcDbEntity
  8
64647040_EINSATZ
  6
Continuous
 62
     7
100
AcDbEllipse
 10
135.6084039931
 20
529.4945653296
 30
0.0
 11
-19.552055585286
 21
-206.6438050784451
 31
0.0
210
0.0
220
0.0
230
1.0
 40
0.5029235248
 41
-1.199432629532847
 42
-1.196376345398081
  0
SPLINE
  5
1ED
330
5E
100
AcDbEntity
  8
64647040_EINSATZ
  6
Continuous
 62
     7
100
AcDbSpline
210
0.0
220
0.0
230
1.0
 70
     8
 71
     3
 72
    11
 73
     7
 74
     0
 42
0.0000002050420542
 43
0.0000000001
 40
0.7282099511948184
 40
0.7282099511948184
 40
0.7282099511948184
 40
0.7282099511948184
 40
0.9262742376905715
 40
0.9262742376905715
 40
0.9262742376905715
 40
1.0
 40
1.0
 40
1.0
 40
1.0
 10
30.59844203624308
 20
463.5615048925869
 30
0.0
 10
30.59599036912569
 20
463.5612587377649
 30
0.0
 10
30.59341201296647
 20
463.5624008212873
 30
0.0
 10
30.59087458404396
 20
463.5648772070763
 30
0.0
 10
30.58991786000225
 20
463.5658109151302
 30
0.0
 10
30.58896111805476
 20
463.5669350140774
 30
0.0
 10
30.58801288801943
 20
463.5682396534881
 30
0.0
  0
SPLINE
  5
1EE
330
5E
100
AcDbEntity
  8
64647040_EINSATZ
  6
Continuous
 62
     7
100
AcDbSpline
210
0.0
220
0.0
230
1.0
 70
    12
 71
     2
 72
     6
 73
     3
 74
     0
 42
0.000001048380935
 43
0.0000000001
 40
0.0
 40
0.0
 40
0.0
 40
1.0
 40
1.0
 40
1.0
 10
30.58801288801943
 20
463.5682396534881
 30
0.0
 41
1.0
 10
30.58519664405213
 20
463.5721144335872
 30
0.0
 41
1.0
 10
30.58246378375281
 20
463.5759975833665
 30
0.0
 41
1.0
  0
ARC
  5
1EF
330
5E
100
AcDbEntity
  8
64647040_EINSATZ
  6
Continuous
 62
     7
100
AcDbCircle
 10
30.8229732567
 20
463.6853527962
 30
0.0
 40
0.26420327235901
100
AcDbArc
 50
190.9314354982
 51
204.4504155172
  0
ARC
  5
1F0
330
5E
100
AcDbEntity
  8
64647040_EINSATZ
  6
Continuous
 62
     7
100
AcDbCircle
 10
244.5195403336
 20
489.9564262345
 30
0.0
 40
213.4584735684786
100
AcDbArc
 50
186.8893606605
 51
186.9166961835
  0
ARC
  5
1F1
330
5E
100
AcDbEntity
  8
64647040_EINSATZ
  6
Continuous
 62
     7
100
AcDbCircle
 10
30.9642276882
 20
462.4567830063
 30
0.0
 40
0.070150112037262
100
AcDbArc
 50
256.2342864139
 51
302.8118525344
  0
LINE
  5
1F2
330
5E
100
AcDbEntity
  8
64647040_EINSATZ
  6
Continuous
 62
     7
100
AcDbLine
 10
30.9475353093
 20
462.3886478266
 30
0.0
 11
30.9289676445
 21
462.3926636266
 31
0.0
  0
ARC
  5
1F3
330
5E
100
AcDbEntity
  8
64647040_EINSATZ
  6
Continuous
 62
     7
100
AcDbCircle
 10
30.9597529867
 20
462.5052332302
 30
0.0
 40
0.1167032687739533
100
AcDbArc
 50
185.5419914346
 51
254.7048380705
  0
SPLINE
  5
1F4
330
5E
100
AcDbEntity
  8
64647040_EINSATZ
  6
Continuous
 62
     7
100
AcDbSpline
210
0.0
220
0.0
230
1.0
 70
    12
 71
     2
 72
     6
 73
     3
 74
     0
 42
0.0000000103603435
 43
0.0000000001
 40
0.0
 40
0.0
 40
0.0
 40
0.2804178273895973
 40
0.2804178273895973
 40
0.2804178273895973
 10
30.84359522554422
 20
462.4939625838477
 30
0.0
 41
1.0
 10
30.82984097061111
 20
462.6285783318065
 30
0.0
 41
1.0
 10
30.81614540047035
 20
462.7632316534179
 30
0.0
 41
1.0
  0
SPLINE
  5
1F5
330
5E
100
AcDbEntity
  8
64647040_EINSATZ
  6
Continuous
 62
     7
100
AcDbSpline
210
0.0
220
0.0
230
1.0
 70
     8
 71
     3
 72
    11
 73
     7
 74
     0
 42
0.0000002072590424
 43
0.0000000001
 40
0.7282014889036563
 40
0.7282014889036563
 40
0.7282014889036563
 40
0.7282014889036563
 40
0.926341035792804
 40
0.926341035792804
 40
0.926341035792804
 40
1.0
 40
1.0
 40
1.0
 40
1.0
 10
28.88374654721849
 20
463.3893913999084
 30
0.0
 10
28.88135727980408
 20
463.3891515233927
 30
0.0
 10
28.87882833336094
 20
463.3902997288283
 30
0.0
 10
28.87631981867387
 20
463.3927808866281
 30
0.0
 10
28.87537522202624
 20
463.3937151818716
 30
0.0
 10
28.8744278937639
 20
463.3948392056459
 30
0.0
 10
28.87348620799088
 20
463.3961431221056
 30
0.0
  0
SPLINE
  5
1F6
330
5E
100
AcDbEntity
  8
64647040_EINSATZ
  6
Continuous
 62
     7
100
AcDbSpline
210
0.0
220
0.0
230
1.0
 70
    12
 71
     2
 72
     6
 73
     3
 74
     0
 42
0.0000010484004189
 43
0.0000000001
 40
0.0
 40
0.0
 40
0.0
 40
1.0
 40
1.0
 40
1.0
 10
28.8734862079909
 20
463.3961431221056
 30
0.0
 41
1.0
 10
28.87068664088696
 20
463.4000195761537
 30
0.0
 41
1.0
 10
28.86793710372428
 20
463.4039010519839
 30
0.0
 41
1.0
  0
ARC
  5
1F7
330
5E
100
AcDbEntity
  8
64647040_EINSATZ
  6
Continuous
 62
     7
100
AcDbCircle
 10
29.1065965995
 20
463.5148161442
 30
0.0
 40
0.2631739208592105
100
AcDbArc
 50
178.3847069258
 51
204.9262723684
  0
SPLINE
  5
1F8
330
5E
100
AcDbEntity
  8
64647040_EINSATZ
  6
Continuous
 62
     7
100
AcDbSpline
210
0.0
220
0.0
230
1.0
 70
    12
 71
     2
 72
     6
 73
     3
 74
     0
 42
0.0000000102049546
 43
0.0000000001
 40
0.0
 40
0.0
 40
0.0
 40
0.2669012394088233
 40
0.2669012394088233
 40
0.2669012394088233
 10
28.8435272569359
 20
463.5222346086565
 30
0.0
 41
1.0
 10
28.83992546245478
 20
463.6529518783105
 30
0.0
 41
1.0
 10
28.83642630005481
 20
463.7836790123054
 30
0.0
 41
1.0
  0
LINE
  5
1F9
330
5E
100
AcDbEntity
  8
64647040_EINSATZ
  6
Continuous
 62
     7
100
AcDbLine
 10
37.1075395486
 20
464.0930672722
 30
0.0
 11
37.1072637877
 21
464.1479620091
 31
0.0
  0
LINE
  5
1FA
330
5E
100
AcDbEntity
  8
64647040_EINSATZ
  6
Continuous
 62
     7
100
AcDbLine
 10
36.7229274834
 20
464.1762508688
 30
0.0
 11
37.1075395486
 21
464.0930672722
 31
0.0
  0
SPLINE
  5
1FB
330
5E
100
AcDbEntity
  8
64647040_EINSATZ
  6
Continuous
 62
     7
100
AcDbSpline
210
0.0
220
0.0
230
1.0
 70
    12
 71
     2
 72
     6
 73
     3
 74
     0
 42
0.0000010477141042
 43
0.0000000001
 40
0.0
 40
0.0
 40
0.0
 40
1.0
 40
1.0
 40
1.0
 10
33.69145001561199
 20
463.8880637371637
 30
0.0
 41
1.0
 10
33.6944241495609
 20
463.8842048053559
 30
0.0
 41
1.0
 10
33.69699911987861
 20
463.8803058072854
 30
0.0
 41
1.0
  0
LINE
  5
1FC
330
5E
100
AcDbEntity
  8
64647040_EINSATZ
  6
Continuous
 62
     7
100
AcDbLine
 10
33.8009242144
 20
464.1919398641
 30
0.0
 11
33.7330599502
 21
464.0130240645
 31
0.0
  0
SPLINE
  5
1FD
330
5E
100
AcDbEntity
  8
64647040_EINSATZ
  6
Continuous
 62
     7
100
AcDbSpline
210
0.0
220
0.0
230
1.0
 70
    12
 71
     2
 72
     6
 73
     3
 74
     0
 42
0.0000005263775065
 43
0.0000000001
 40
0.0
 40
0.0
 40
0.0
 40
1.0
 40
1.0
 40
1.0
 10
33.4258016562982
 20
464.012703545885
 30
0.0
 41
1.0
 10
33.43518879982841
 20
464.0107626780459
 30
0.0
 41
1.0
 10
33.44436932105889
 20
464.0086877458789
 30
0.0
 41
1.0
  0
LINE
  5
1FE
330
5E
100
AcDbEntity
  8
64647040_EINSATZ
  6
Continuous
 62
     7
100
AcDbLine
 10
33.394992083
 20
464.3287858371
 30
0.0
 11
33.3746035904
 21
464.1361761104
 31
0.0
  0
SPLINE
  5
1FF
330
5E
100
AcDbEntity
  8
64647040_EINSATZ
  6
Continuous
 62
     7
100
AcDbSpline
210
0.0
220
0.0
230
1.0
 70
     8
 71
     3
 72
    14
 73
    10
 74
     0
 42
0.000000064139817
 43
0.0000000001
 40
0.0
 40
0.0
 40
0.0
 40
0.0
 40
0.1662420688385241
 40
0.1662420688385241
 40
0.1662420688385241
 40
0.3310650875756706
 40
0.3310650875756706
 40
0.3310650875756706
 40
0.4361428186183443
 40
0.4361428186183443
 40
0.4361428186183443
 40
0.4361428186183443
 10
33.44436932105888
 20
464.0086877458788
 30
0.0
 10
33.45212467279929
 20
464.0069349228741
 30
0.0
 10
33.46063071257365
 20
464.0067472392359
 30
0.0
 10
33.46901895337232
 20
464.0080110528726
 30
0.0
 10
33.47736652343941
 20
464.0092687388566
 30
0.0
 10
33.4858134289337
 20
464.0119549675316
 30
0.0
 10
33.49379772674323
 20
464.015645158673
 30
0.0
 10
33.49886727042102
 20
464.0179882056908
 30
0.0
 10
33.5038180183718
 20
464.0207601003771
 30
0.0
 10
33.50858830934838
 20
464.0238740360454
 30
0.0
  0
SPLINE
  5
200
330
5E
100
AcDbEntity
  8
64647040_EINSATZ
  6
Continuous
 62
     7
100
AcDbSpline
210
0.0
220
0.0
230
1.0
 70
     8
 71
     3
 72
    10
 73
     6
 74
     0
 42
0.0000000656403794
 43
0.0000000001
 40
0.0
 40
0.0
 40
0.0
 40
0.0
 40
0.5
 40
0.5
 40
1.0
 40
1.0
 40
1.0
 40
1.0
 10
33.37460359042989
 20
464.1361761104251
 30
0.0
 10
33.36903838212753
 20
464.1096780665928
 30
0.0
 10
33.36963202775544
 20
464.0831084505207
 30
0.0
 10
33.38501483633027
 20
464.0375168451515
 30
0.0
 10
33.40147869824899
 20
464.0177325141608
 30
0.0
 10
33.4258016562982
 20
464.012703545885
 30
0.0
  0
SPLINE
  5
201
330
5E
100
AcDbEntity
  8
64647040_EINSATZ
  6
Continuous
 62
     7
100
AcDbSpline
210
0.0
220
0.0
230
1.0
 70
     8
 71
     3
 72
    11
 73
     7
 74
     0
 42
0.0000001309405227
 43
0.0000000001
 40
0.0
 40
0.0
 40
0.0
 40
0.0
 40
0.1662420688385232
 40
0.1662420688385232
 40
0.1662420688385232
 40
0.2466610680632338
 40
0.2466610680632338
 40
0.2466610680632338
 40
0.2466610680632338
 10
33.69699911987861
 20
463.8803058072854
 30
0.0
 10
33.69917435590321
 20
463.8770120834625
 30
0.0
 10
33.70258151712177
 20
463.8749758625988
 30
0.0
 10
33.70676617703354
 20
463.8742887752969
 30
0.0
 10
33.70879802005999
 20
463.8739551631104
 30
0.0
 10
33.71103201395491
 20
463.8739265895261
 30
0.0
 10
33.71340650775356
 20
463.8741734331776
 30
0.0
  0
SPLINE
  5
202
330
5E
100
AcDbEntity
  8
64647040_EINSATZ
  6
Continuous
 62
     7
100
AcDbSpline
210
0.0
220
0.0
230
1.0
 70
     8
 71
     3
 72
    10
 73
     6
 74
     0
 42
0.0000000721503655
 43
0.0000000001
 40
0.0
 40
0.0
 40
0.0
 40
0.0
 40
0.5
 40
0.5
 40
1.0
 40
1.0
 40
1.0
 40
1.0
 10
33.73305995015235
 20
464.0130240645388
 30
0.0
 10
33.71867546154397
 20
463.9896215579514
 30
0.0
 10
33.70570621428911
 20
463.964972228485
 30
0.0
 10
33.68807339665484
 20
463.9197297505675
 30
0.0
 10
33.68374375916998
 20
463.8980625867778
 30
0.0
 10
33.691450015612
 20
463.8880637371636
 30
0.0
  0
ARC
  5
203
330
5E
100
AcDbEntity
  8
64647040_EINSATZ
  6
Continuous
 62
     7
100
AcDbCircle
 10
33.1609793592
 20
464.5018974138
 30
0.0
 40
0.9103515641727866
100
AcDbArc
 50
233.2115261716
 51
299.4772766945
  0
ARC
  5
204
330
5E
100
AcDbEntity
  8
64647040_EINSATZ
  6
Continuous
 62
     7
100
AcDbCircle
 10
33.5641859445
 20
463.9775185937
 30
0.0
 40
0.2397754343369536
100
AcDbArc
 50
307.6453808839
 51
320.4257756542
  0
ARC
  5
205
330
5E
100
AcDbEntity
  8
64647040_EINSATZ
  6
Continuous
 62
     7
100
AcDbCircle
 10
33.3724181074
 20
464.1611292091
 30
0.0
 40
0.5049353560431933
100
AcDbArc
 50
318.2288698808
 51
326.1750098763
  0
ARC
  5
206
330
5E
100
AcDbEntity
  8
64647040_EINSATZ
  6
Continuous
 62
     7
100
AcDbCircle
 10
36.7965635093
 20
467.2601793444
 30
0.0
 40
6.548347341207189
100
AcDbArc
 50
284.3040903236
 51
309.1838566073
  0
ARC
  5
207
330
5E
100
AcDbEntity
  8
64647040_EINSATZ
  6
Continuous
 62
     7
100
AcDbCircle
 10
29.989774389
 20
468.1688528995
 30
0.0
 40
7.563922110698043
100
AcDbArc
 50
233.7227074742
 51
258.0104006141
  0
SPLINE
  5
208
330
5E
100
AcDbEntity
  8
64647040_EINSATZ
  6
Continuous
 62
     7
100
AcDbSpline
210
0.0
220
0.0
230
1.0
 70
     8
 71
     3
 72
    18
 73
    14
 74
     0
 42
0.0000000026830248
 43
0.0000000001
 40
0.0
 40
0.0
 40
0.0
 40
0.0
 40
0.0854670285830351
 40
0.1793190274707834
 40
0.2732328016548482
 40
0.3672232821266209
 40
0.4613077474755766
 40
0.5555053756182137
 40
0.6498353599201728
 40
0.7443117802422545
 40
0.8389316231640527
 40
0.9336496670885815
 40
1.0
 40
1.0
 40
1.0
 40
1.0
 10
35.86538985783478
 20
461.2078817228989
 30
0.0
 10
36.01232939071665
 20
461.2348384044397
 30
0.0
 10
36.27197539118301
 20
461.2831012029312
 30
0.0
 10
36.6855293998379
 20
461.3789093147402
 30
0.0
 10
37.08113272312543
 20
461.4865105168097
 30
0.0
 10
37.45669013558452
 20
461.6063706537571
 30
0.0
 10
37.80661582682798
 20
461.7368394094669
 30
0.0
 10
38.12989712662918
 20
461.8776193973074
 30
0.0
 10
38.42422007415112
 20
462.0279118882049
 30
0.0
 10
38.68876030497415
 20
462.1875267483069
 30
0.0
 10
38.91880797884171
 20
462.3543728894716
 30
0.0
 10
39.10380775026888
 20
462.5155492760218
 30
0.0
 10
39.18709145354008
 20
462.6126733605112
 30
0.0
 10
39.22710125506395
 20
462.6599854227726
 30
0.0
  0
ARC
  5
209
330
5E
100
AcDbEntity
  8
64647040_EINSATZ
  6
Continuous
 62
     7
100
AcDbCircle
 10
30.6377392713
 20
466.5063868606
 30
0.0
 40
5.237367301825415
100
AcDbArc
 50
227.2180153801
 51
261.577889018
  0
SPLINE
  5
20A
330
5E
100
AcDbEntity
  8
64647040_EINSATZ
  6
Continuous
 62
     7
100
AcDbSpline
210
0.0
220
0.0
230
1.0
 70
     8
 71
     3
 72
    15
 73
    11
 74
     0
 42
0.0000000054219659
 43
0.0000000001
 40
0.0
 40
0.0
 40
0.0
 40
0.0
 40
0.1381079323995316
 40
0.2778278940642317
 40
0.4157213053860098
 40
0.55277017192894
 40
0.6895718832717513
 40
0.826380057469629
 40
0.9633286841974165
 40
1.0
 40
1.0
 40
1.0
 40
1.0
 10
27.04358485736118
 20
463.744626847881
 30
0.0
 10
27.07040180422959
 20
463.8049500813308
 30
0.0
 10
27.11759570563949
 20
463.907316826664
 30
0.0
 10
27.24070650817561
 20
464.0762595399318
 30
0.0
 10
27.39581969188641
 20
464.2391483289164
 30
0.0
 10
27.58621138781454
 20
464.3987022186831
 30
0.0
 10
27.81004853169098
 20
464.5533964038757
 30
0.0
 10
28.06536659645682
 20
464.7001071696278
 30
0.0
 10
28.28466017390797
 20
464.8111792125356
 30
0.0
 10
28.41120189472412
 20
464.8636403405753
 30
0.0
 10
28.44250716410842
 20
464.876577125942
 30
0.0
  0
SPLINE
  5
20B
330
5E
100
AcDbEntity
  8
64647040_EINSATZ
  6
Continuous
 62
     7
100
AcDbSpline
210
0.0
220
0.0
230
1.0
 70
     8
 71
     3
 72
    15
 73
    11
 74
     0
 42
0.0000000060512051
 43
0.0000000001
 40
0.0
 40
0.0
 40
0.0
 40
0.0
 40
0.1126571806235813
 40
0.2604472771511683
 40
0.4080008182591815
 40
0.5553866922832659
 40
0.7027586908457922
 40
0.8504363577022277
 40
0.9991125150701662
 40
1.0
 40
1.0
 40
1.0
 40
1.0
 10
38.06228943520065
 20
464.7894172727732
 30
0.0
 10
38.14319865471414
 20
464.7502013526387
 30
0.0
 10
38.30054016210945
 20
464.6732467384934
 30
0.0
 10
38.53594860705604
 20
464.5324534597423
 30
0.0
 10
38.75412908508732
 20
464.3785582221311
 30
0.0
 10
38.93900774822377
 20
464.2192132801482
 30
0.0
 10
39.08984984101482
 20
464.0566842428441
 30
0.0
 10
39.20064729378532
 20
463.894493794814
 30
0.0
 10
39.26304330290553
 20
463.7806968386669
 30
0.0
 10
39.27704555307968
 20
463.72873102661
 30
0.0
 10
39.27714174985306
 20
463.728373890195
 30
0.0
  0
SPLINE
  5
20C
330
5E
100
AcDbEntity
  8
64647040_EINSATZ
  6
Continuous
 62
     7
100
AcDbSpline
210
0.0
220
0.0
230
1.0
 70
     8
 71
     3
 72
    17
 73
    13
 74
     0
 42
0.0000000039454668
 43
0.0000000001
 40
0.0
 40
0.0
 40
0.0
 40
0.0
 40
0.019331752555001
 40
0.1340041688764678
 40
0.2488012325016095
 40
0.3637587073808632
 40
0.4789187390445353
 40
0.5943271805682324
 40
0.7100228410739863
 40
0.826006527380088
 40
0.9421495878031603
 40
1.0
 40
1.0
 40
1.0
 40
1.0
 10
35.35665275034992
 20
461.8424760346197
 30
0.0
 10
35.3797785046554
 20
461.8468007520065
 30
0.0
 10
35.51725311878762
 20
461.8725860258965
 30
0.0
 10
35.77931126059006
 20
461.937031659541
 30
0.0
 10
36.11163442866389
 20
462.0309638078525
 30
0.0
 10
36.42300858446418
 20
462.1381708290479
 30
0.0
 10
36.70795494926347
 20
462.2555929325631
 30
0.0
 10
36.9648552167152
 20
462.3831535455259
 30
0.0
 10
37.19242878356151
 20
462.5204153076328
 30
0.0
 10
37.38515128314037
 20
462.6655885678199
 30
0.0
 10
37.52641795809629
 20
462.7966334817222
 30
0.0
 10
37.58275461134826
 20
462.8730041070734
 30
0.0
 10
37.60451854061949
 20
462.9028985135445
 30
0.0
  0
SPLINE
  5
20D
330
5E
100
AcDbEntity
  8
64647040_EINSATZ
  6
Continuous
 62
     7
100
AcDbSpline
210
0.0
220
0.0
230
1.0
 70
     8
 71
     3
 72
    17
 73
    13
 74
     0
 42
0.000000003789028
 43
0.0000000001
 40
0.0
 40
0.0
 40
0.0
 40
0.0
 40
0.0916675027696771
 40
0.2028892584446555
 40
0.3150823855926672
 40
0.4274991537825445
 40
0.5397498342419556
 40
0.6517649753449093
 40
0.763553955467741
 40
0.8751511582253126
 40
0.9865944976807187
 40
1.0
 40
1.0
 40
1.0
 40
1.0
 10
28.711312569028
 20
462.8971360000873
 30
0.0
 10
28.75018817812002
 20
462.8490813325935
 30
0.0
 10
28.82416799705327
 20
462.7593522371978
 30
0.0
 10
28.99036939517059
 20
462.6154381047753
 30
0.0
 10
29.19373497027392
 20
462.4738347303772
 30
0.0
 10
29.43136665442482
 20
462.339608306352
 30
0.0
 10
29.69849639661372
 20
462.2150632939582
 30
0.0
 10
29.99304360267953
 20
462.100909959003
 30
0.0
 10
30.31331764473223
 20
461.9972412255539
 30
0.0
 10
30.65345221222251
 20
461.9072527091677
 30
0.0
 10
30.91497692038822
 20
461.8469283939404
 30
0.0
 10
31.04899124107405
 20
461.8236375859892
 30
0.0
 10
31.06573898837604
 20
461.8207332710895
 30
0.0
  0
SPLINE
  5
20E
330
5E
100
AcDbEntity
  8
64647040_EINSATZ
  6
Continuous
 62
     7
100
AcDbSpline
210
0.0
220
0.0
230
1.0
 70
     8
 71
     3
 72
    15
 73
    11
 74
     0
 42
0.000000006609891
 43
0.0000000001
 40
0.0
 40
0.0
 40
0.0
 40
0.0
 40
0.1100353133293119
 40
0.2501931684372889
 40
0.3856549500789554
 40
0.5173826680098821
 40
0.6474635584410907
 40
0.777122982886325
 40
0.9068123070404469
 40
1.0
 40
1.0
 40
1.0
 40
1.0
 10
28.7227740237356
 20
463.4519674370645
 30
0.0
 10
28.72462611949189
 20
463.4924226305699
 30
0.0
 10
28.72955523648106
 20
463.5704117467731
 30
0.0
 10
28.78061110948719
 20
463.7046148862564
 30
0.0
 10
28.86922181970813
 20
463.8450721004928
 30
0.0
 10
28.99407243648618
 20
463.9831664523218
 30
0.0
 10
29.15289943336381
 20
464.1171621816691
 30
0.0
 10
29.34398630697518
 20
464.2451955520492
 30
0.0
 10
29.54960409321382
 20
464.3595658183876
 30
0.0
 10
29.68738634164303
 20
464.4204380403894
 30
0.0
 10
29.75581114879883
 20
464.4503736408208
 30
0.0
  0
SPLINE
  5
20F
330
5E
100
AcDbEntity
  8
64647040_EINSATZ
  6
Continuous
 62
     7
100
AcDbSpline
210
0.0
220
0.0
230
1.0
 70
     8
 71
     3
 72
    15
 73
    11
 74
     0
 42
0.0000000068313423
 43
0.0000000001
 40
0.0
 40
0.0
 40
0.0
 40
0.0
 40
0.0972800503967324
 40
0.227679699380517
 40
0.3577297705172481
 40
0.4875395907950988
 40
0.6173740860498366
 40
0.7479036844656858
 40
0.8805928060469917
 40
1.0
 40
1.0
 40
1.0
 40
1.0
 10
36.6353621256499
 20
464.4158515219395
 30
0.0
 10
36.70395193004515
 20
464.3840062545194
 30
0.0
 10
36.83896352426277
 20
464.3206793791193
 30
0.0
 10
37.03705052729903
 20
464.2031704383475
 30
0.0
 10
37.21678633505736
 20
464.0737562373271
 30
0.0
 10
37.36285671728184
 20
463.9399590088543
 30
0.0
 10
37.47370626048254
 20
463.8046987925934
 30
0.0
 10
37.5489459056479
 20
463.6701403637387
 30
0.0
 10
37.59107307591448
 20
463.5383476296684
 30
0.0
 10
37.59229137391702
 20
463.4602524887831
 30
0.0
 10
37.5921862440491
 20
463.4165552819389
 30
0.0
  0
SPLINE
  5
210
330
5E
100
AcDbEntity
  8
64647040_EINSATZ
  6
Continuous
 62
     7
100
AcDbSpline
210
0.0
220
0.0
230
1.0
 70
     8
 71
     3
 72
    16
 73
    12
 74
     0
 42
0.0000000057666517
 43
0.0000000001
 40
0.0
 40
0.0
 40
0.0
 40
0.0
 40
0.0584266764202859
 40
0.1815869577888338
 40
0.3051066889762614
 40
0.4291098424673248
 40
0.5537268438770608
 40
0.679007634724295
 40
0.8044881705546862
 40
0.9281758224652994
 40
1.0
 40
1.0
 40
1.0
 40
1.0
 10
34.61269420383302
 20
462.4488329447485
 30
0.0
 10
34.662471308727
 20
462.4595431591877
 30
0.0
 10
34.79386651394542
 20
462.4881052535799
 30
0.0
 10
35.01457623153901
 20
462.5536656202842
 30
0.0
 10
35.25286069592227
 20
462.6401962076272
 30
0.0
 10
35.46631452289211
 20
462.7389201984571
 30
0.0
 10
35.65023284822009
 20
462.8477215444452
 30
0.0
 10
35.80324888072461
 20
462.9670148677684
 30
0.0
 10
35.91949773148506
 20
463.0949238454389
 30
0.0
 10
35.99418292131586
 20
463.2166312567276
 30
0.0
 10
36.010749955813
 20
463.2890915902839
 30
0.0
 10
36.01755048436596
 20
463.3204814466696
 30
0.0
  0
SPLINE
  5
211
330
5E
100
AcDbEntity
  8
64647040_EINSATZ
  6
Continuous
 62
     7
100
AcDbSpline
210
0.0
220
0.0
230
1.0
 70
     8
 71
     3
 72
    17
 73
    13
 74
     0
 42
0.0000000051799568
 43
0.0000000001
 40
0.0
 40
0.0
 40
0.0
 40
0.0
 40
0.003483005902025
 40
0.1075268483587827
 40
0.2143600046512714
 40
0.3256546407120527
 40
0.4401472970086518
 40
0.5557445465958119
 40
0.6710714613681158
 40
0.7859213065650984
 40
0.9003431245864879
 40
1.0
 40
1.0
 40
1.0
 40
1.0
 10
30.29394490938206
 20
463.3128309305678
 30
0.0
 10
30.29414206646847
 20
463.3111748919371
 30
0.0
 10
30.29941474937078
 20
463.2670878878973
 30
0.0
 10
30.3448876201
 20
463.1753444694754
 30
0.0
 10
30.4293999534775
 20
463.0507596608288
 30
0.0
 10
30.55388021966752
 20
462.9301318356972
 30
0.0
 10
30.71251926470741
 20
462.8160329327131
 30
0.0
 10
30.90463343307239
 20
462.7101776542426
 30
0.0
 10
31.1266683772063
 20
462.6142367120172
 30
0.0
 10
31.37292287529999
 20
462.5302108619853
 30
0.0
 10
31.63635782059221
 20
462.4586548248221
 30
0.0
 10
31.80595503981679
 20
462.4250582243444
 30
0.0
 10
31.89966932284156
 20
462.4068372165012
 30
0.0
  0
SPLINE
  5
212
330
5E
100
AcDbEntity
  8
64647040_EINSATZ
  6
Continuous
 62
     7
100
AcDbSpline
210
0.0
220
0.0
230
1.0
 70
     8
 71
     3
 72
    15
 73
    11
 74
     0
 42
0.0000000106518357
 43
0.0000000001
 40
0.0
 40
0.0
 40
0.0
 40
0.0
 40
0.0068962377879118
 40
0.1873946474958492
 40
0.3416536787966747
 40
0.5055307474601335
 40
0.6649195234760431
 40
0.8235853559835752
 40
0.9825833978480639
 40
1.0
 40
1.0
 40
1.0
 40
1.0
 10
30.49528831472664
 20
463.4463568315508
 30
0.0
 10
30.49511428636529
 20
463.4477895043758
 30
0.0
 10
30.49107747415332
 20
463.4813722358492
 30
0.0
 10
30.5124270257621
 20
463.5481625093037
 30
0.0
 10
30.56580851607109
 20
463.6483206331596
 30
0.0
 10
30.65545306791843
 20
463.7485100806195
 30
0.0
 10
30.78146026459842
 20
463.8493621161143
 30
0.0
 10
30.94037840971838
 20
463.9437094006364
 30
0.0
 10
31.07304854036851
 20
464.0103205722381
 30
0.0
 10
31.14943535203967
 20
464.0386162403406
 30
0.0
 10
31.15821337617999
 20
464.0418620873169
 30
0.0
  0
SPLINE
  5
213
330
5E
100
AcDbEntity
  8
64647040_EINSATZ
  6
Continuous
 62
     7
100
AcDbSpline
210
0.0
220
0.0
230
1.0
 70
     8
 71
     3
 72
    13
 73
     9
 74
     0
 42
0.000000012429015
 43
0.0000000001
 40
0.0
 40
0.0
 40
0.0
 40
0.0
 40
0.1461552837849131
 40
0.3233471592903709
 40
0.499581026207679
 40
0.6755668851110423
 40
0.8531408075260681
 40
1.0
 40
1.0
 40
1.0
 40
1.0
 10
35.27146728015244
 20
463.9906807078829
 30
0.0
 10
35.3279908159391
 20
463.9635205250363
 30
0.0
 10
35.43277485713509
 20
463.9124808941928
 30
0.0
 10
35.57388517977663
 20
463.8189590950846
 30
0.0
 10
35.68752384044932
 20
463.7199432379691
 30
0.0
 10
35.76562323614287
 20
463.6213155274808
 30
0.0
 10
35.80953729607369
 20
463.5301761858203
 30
0.0
 10
35.81455176032602
 20
463.479281956519
 30
0.0
 10
35.81655332522118
 20
463.4521764326975
 30
0.0
  0
LINE
  5
214
330
5E
100
AcDbEntity
  8
64647040_EINSATZ
  6
Continuous
 62
     7
100
AcDbLine
 10
24.3083559102
 20
464.413747843
 30
0.0
 11
24.806680209
 21
462.9958653378
 31
0.0
  0
LINE
  5
215
330
5E
100
AcDbEntity
  8
64647040_EINSATZ
  6
Continuous
 62
     7
100
AcDbLine
 10
41.5073097961
 20
462.9958653378
 30
0.0
 11
42.0056340949
 21
464.413747843
 31
0.0
  0
LINE
  5
216
330
5E
100
AcDbEntity
  8
64647040_EINSATZ
  6
Continuous
 62
     7
100
AcDbLine
 10
30.0583320331
 20
464.4862057033
 30
0.0
 11
30.2874011916
 21
463.338968821
 31
0.0
  0
LINE
  5
217
330
5E
100
AcDbEntity
  8
64647040_EINSATZ
  6
Continuous
 62
     7
100
AcDbLine
 10
36.0265888135
 20
463.338968821
 30
0.0
 11
36.1829468909
 21
464.1220500283
 31
0.0
  0
LINE
  5
218
330
5E
100
AcDbEntity
  8
64647040_EINSATZ
  6
Continuous
 62
     7
100
AcDbLine
 10
26.6692486569
 20
463.8189626531
 30
0.0
 11
26.7846858699
 21
463.2408235912
 31
0.0
  0
LINE
  5
219
330
5E
100
AcDbEntity
  8
64647040_EINSATZ
  6
Continuous
 62
     7
100
AcDbLine
 10
39.5293041352
 20
463.2408235912
 30
0.0
 11
39.6447413482
 21
463.8189626531
 31
0.0
  0
LINE
  5
21A
330
5E
100
AcDbEntity
  8
64647040_EINSATZ
  6
Continuous
 62
     7
100
AcDbLine
 10
28.431462711
 20
463.8189626531
 30
0.0
 11
28.5154423512
 21
463.3138216394
 31
0.0
  0
LINE
  5
21B
330
5E
100
AcDbEntity
  8
64647040_EINSATZ
  6
Continuous
 62
     7
100
AcDbLine
 10
37.7985476539
 20
463.3138216394
 30
0.0
 11
37.8825272941
 21
463.8189626531
 31
0.0
  0
SPLINE
  5
21C
330
5E
100
AcDbEntity
  8
64647040_EINSATZ
  6
Continuous
 62
     7
100
AcDbSpline
210
0.0
220
0.0
230
1.0
 70
     8
 71
     3
 72
    22
 73
    18
 74
     0
 42
0.0000000021384713
 43
0.0000000001
 40
0.0
 40
0.0
 40
0.0
 40
0.0
 40
0.0489199268268119
 40
0.1180946344875419
 40
0.1872143251708328
 40
0.2562702600509865
 40
0.3252538902426927
 40
0.3941584422023287
 40
0.4629820655998923
 40
0.5317337036304955
 40
0.6004434034046344
 40
0.6691587132694246
 40
0.737978629693791
 40
0.8070885008838657
 40
0.8767652070603701
 40
0.9473277224381214
 40
1.0
 40
1.0
 40
1.0
 40
1.0
 10
38.51454307290773
 20
467.450975939819
 30
0.0
 10
38.63457854513196
 20
467.4176054550036
 30
0.0
 10
38.87930915508355
 20
467.3490739700137
 30
0.0
 10
39.27887973691777
 20
467.2176253380709
 30
0.0
 10
39.68533009023415
 20
467.0671467887379
 30
0.0
 10
40.06678528049058
 20
466.9061957267812
 30
0.0
 10
40.4180780198813
 20
466.7373153441666
 30
0.0
 10
40.73866545681112
 20
466.5609308746961
 30
0.0
 10
41.0269707590836
 20
466.3781211843205
 30
0.0
 10
41.28193406360408
 20
466.1898641401646
 30
0.0
 10
41.50261489280134
 20
465.9972449855391
 30
0.0
 10
41.68836835372114
 20
465.8013048466202
 30
0.0
 10
41.83878672069756
 20
465.6031723087347
 30
0.0
 10
41.95399234729215
 20
465.4030885408064
 30
0.0
 10
42.0334020619438
 20
465.2032289961197
 30
0.0
 10
42.07540792101784
 20
465.0147311867292
 30
0.0
 10
42.08019075975384
 20
464.9053731247908
 30
0.0
 10
42.08199500254825
 20
464.8501623076613
 30
0.0
  0
SPLINE
  5
21D
330
5E
100
AcDbEntity
  8
64647040_EINSATZ
  6
Continuous
 62
     7
100
AcDbSpline
210
0.0
220
0.0
230
1.0
 70
     8
 71
     3
 72
    20
 73
    16
 74
     0
 42
0.0000000022433379
 43
0.0000000001
 40
0.0
 40
0.0
 40
0.0
 40
0.0
 40
0.0624992626985482
 40
0.1424792301955236
 40
0.2215217653348272
 40
0.2999977138059118
 40
0.378199839257185
 40
0.4563127354097233
 40
0.5344245175377365
 40
0.6125855798300885
 40
0.6908227348907057
 40
0.76914283346405
 40
0.8475427446204269
 40
0.9260149149822282
 40
1.0
 40
1.0
 40
1.0
 40
1.0
 10
24.31903987511722
 20
465.2875659987316
 30
0.0
 10
24.34185621967237
 20
465.3456836376226
 30
0.0
 10
24.3870989295585
 20
465.4577522014195
 30
0.0
 10
24.50735580264426
 20
465.6496110650097
 30
0.0
 10
24.66697038582207
 20
465.84874330561
 30
0.0
 10
24.86307267524306
 20
466.0455974109042
 30
0.0
 10
25.09302296219539
 20
466.2377066751824
 30
0.0
 10
25.35672317751303
 20
466.4248433719034
 30
0.0
 10
25.65313776445965
 20
466.6060279262456
 30
0.0
 10
25.98128269407399
 20
466.7804458967622
 30
0.0
 10
26.3396228120867
 20
466.947130710385
 30
0.0
 10
26.72765309785303
 20
467.1056230880458
 30
0.0
 10
27.14024684274062
 20
467.2537753830844
 30
0.0
 10
27.58011218318865
 20
467.3932069558446
 30
0.0
 10
27.86094393627537
 20
467.4690740012183
 30
0.0
 10
28.02299184261018
 20
467.5124447323409
 30
0.0
  0
LINE
  5
21E
330
5E
100
AcDbEntity
  8
64647040_EINSATZ
  6
Continuous
 62
     7
100
AcDbLine
 10
42.5069950025
 20
464.8269827113
 30
0.0
 11
42.5069950025
 21
466.4392433633
 31
0.0
  0
LINE
  5
21F
330
5E
100
AcDbEntity
  8
64647040_EINSATZ
  6
Continuous
 62
     7
100
AcDbLine
 10
23.8069950025
 20
466.4392433633
 30
0.0
 11
23.8069950025
 21
464.8269827113
 31
0.0
  0
SPLINE
  5
220
330
5E
100
AcDbEntity
  8
64647040_EINSATZ
  6
Continuous
 62
     7
100
AcDbSpline
210
0.0
220
0.0
230
1.0
 70
     8
 71
     3
 72
    12
 73
     8
 74
     0
 42
0.000000004539567
 43
0.0000000001
 40
0.5109041846602134
 40
0.5109041846602134
 40
0.5109041846602134
 40
0.5109041846602134
 40
0.559742291373029
 40
0.6850981868467464
 40
0.8101324197821907
 40
0.9345290219207347
 40
0.9667348885193684
 40
0.9667348885193684
 40
0.9667348885193684
 40
0.9667348885193684
 10
41.6765478684121
 20
463.464818285478
 30
0.0
 10
41.70613426597339
 20
463.4920526902341
 30
0.0
 10
41.80853747828396
 20
463.589812905261
 30
0.0
 10
41.96538073509556
 20
463.7617111262091
 30
0.0
 10
42.12454294968865
 20
463.9810833404248
 30
0.0
 10
42.22023455692592
 20
464.1553730517379
 30
0.0
 10
42.25856401614754
 20
464.2464895697566
 30
0.0
 10
42.26639618168831
 20
464.265900020451
 30
0.0
  0
SPLINE
  5
221
330
5E
100
AcDbEntity
  8
64647040_EINSATZ
  6
Continuous
 62
     7
100
AcDbSpline
210
0.0
220
0.0
230
1.0
 70
     8
 71
     3
 72
    12
 73
     8
 74
     0
 42
0.0000000045381383
 43
0.0000000001
 40
0.0334335970069714
 40
0.0334335970069714
 40
0.0334335970069714
 40
0.0334335970069714
 40
0.0597550209245235
 40
0.1821868744735344
 40
0.3053923927257853
 40
0.4295652278322913
 40
0.4889835590482051
 40
0.4889835590482051
 40
0.4889835590482051
 40
0.4889835590482051
 10
24.04744771704184
 20
464.2659172155363
 30
0.0
 10
24.0538028920732
 20
464.2501507043037
 30
0.0
 10
24.0900572646287
 20
464.1634385038898
 30
0.0
 10
24.18096703642715
 20
463.9948359098576
 30
0.0
 10
24.33554609321216
 20
463.7780234973297
 30
0.0
 10
24.49400730323822
 20
463.6013533456957
 30
0.0
 10
24.60119610673045
 20
463.4981870030609
 30
0.0
 10
24.6371877720568
 20
463.4650521621098
 30
0.0
  0
LINE
  5
222
330
5E
100
AcDbEntity
  8
64647040_EINSATZ
  6
Continuous
 62
     7
100
AcDbLine
 10
37.8762397336
 20
463.8189626531
 30
0.0
 11
39.2335499386
 21
463.8189626531
 31
0.0
  0
LINE
  5
223
330
5E
100
AcDbEntity
  8
64647040_EINSATZ
  6
Continuous
 62
     7
100
AcDbLine
 10
39.6302024775
 20
463.8189626531
 30
0.0
 11
40.9290344809
 21
463.8189626531
 31
0.0
  0
LINE
  5
224
330
5E
100
AcDbEntity
  8
64647040_EINSATZ
  6
Continuous
 62
     7
100
AcDbLine
 10
33.6195705711
 20
463.7159838188
 30
0.0
 11
35.4358122974
 21
463.3231684794
 31
0.0
  0
LINE
  5
225
330
5E
100
AcDbEntity
  8
64647040_EINSATZ
  6
Continuous
 62
     7
100
AcDbLine
 10
35.97756316
 20
463.2059990267
 30
0.0
 11
36.9731978802
 21
462.9906639284
 31
0.0
  0
LINE
  5
226
330
5E
100
AcDbEntity
  8
64647040_EINSATZ
  6
Continuous
 62
     7
100
AcDbLine
 10
37.5722988549
 20
462.8610908384
 30
0.0
 11
38.4779974046
 21
462.6652070647
 31
0.0
  0
LINE
  5
227
330
5E
100
AcDbEntity
  8
64647040_EINSATZ
  6
Continuous
 62
     7
100
AcDbLine
 10
39.1092016502
 20
462.5286907044
 30
0.0
 11
40.0585405981
 21
462.3233684195
 31
0.0
  0
LINE
  5
228
330
5E
100
AcDbEntity
  8
64647040_EINSATZ
  6
Continuous
 62
     7
100
AcDbLine
 10
33.2535797497
 20
463.6005442736
 30
0.0
 11
33.753973287
 21
462.9009686687
 31
0.0
  0
LINE
  5
229
330
5E
100
AcDbEntity
  8
64647040_EINSATZ
  6
Continuous
 62
     7
100
AcDbLine
 10
34.134563583
 20
462.3688840858
 30
0.0
 11
34.2135522042
 21
462.2584539776
 31
0.0
  0
LINE
  5
22A
330
5E
100
AcDbEntity
  8
64647040_EINSATZ
  6
Continuous
 62
     7
100
AcDbLine
 10
34.5946407557
 20
461.7256728083
 30
0.0
 11
34.663324174
 21
461.6296498977
 31
0.0
  0
LINE
  5
22B
330
5E
100
AcDbEntity
  8
64647040_EINSATZ
  6
Continuous
 62
     7
100
AcDbLine
 10
35.045580515
 20
461.0952360993
 30
0.0
 11
35.1357119693
 21
460.9692277439
 31
0.0
  0
LINE
  5
22C
330
5E
100
AcDbEntity
  8
64647040_EINSATZ
  6
Continuous
 62
     7
100
AcDbLine
 10
31.8899728851
 20
462.9736498989
 30
0.0
 11
32.900169524
 21
463.6291035148
 31
0.0
  0
LINE
  5
22D
330
5E
100
AcDbEntity
  8
64647040_EINSATZ
  6
Continuous
 62
     7
100
AcDbLine
 10
31.0022673315
 20
462.3976731112
 30
0.0
 11
31.2671819603
 21
462.5695596971
 31
0.0
  0
LINE
  5
22E
330
5E
100
AcDbEntity
  8
64647040_EINSATZ
  6
Continuous
 62
     7
100
AcDbLine
 10
30.1334305956
 20
461.833939123
 30
0.0
 11
30.3675933535
 21
461.9858727372
 31
0.0
  0
LINE
  5
22F
330
5E
100
AcDbEntity
  8
64647040_EINSATZ
  6
Continuous
 62
     7
100
AcDbLine
 10
29.2208800653
 20
461.241841979
 30
0.0
 11
29.4933321396
 21
461.4186191433
 31
0.0
  0
LINE
  5
230
330
5E
100
AcDbEntity
  8
64647040_EINSATZ
  6
Continuous
 62
     7
100
AcDbLine
 10
30.5984406419
 20
463.5615022304
 30
0.0
 11
32.6256947305
 21
463.7649889425
 31
0.0
  0
LINE
  5
231
330
5E
100
AcDbEntity
  8
64647040_EINSATZ
  6
Continuous
 62
     7
100
AcDbLine
 10
28.8837377548
 20
463.3893880122
 30
0.0
 11
30.2499522829
 21
463.5265225253
 31
0.0
  0
LINE
  5
232
330
5E
100
AcDbEntity
  8
64647040_EINSATZ
  6
Continuous
 62
     7
100
AcDbLine
 10
27.2053637681
 20
463.2209203267
 30
0.0
 11
28.5091306761
 21
463.3517866266
 31
0.0
  0
LINE
  5
233
330
5E
100
AcDbEntity
  8
64647040_EINSATZ
  6
Continuous
 62
     7
100
AcDbLine
 10
25.442503775
 20
463.0439723132
 30
0.0
 11
26.7988828976
 21
463.1801195922
 31
0.0
  0
LINE
  5
234
330
5E
100
AcDbEntity
  8
64647040_EINSATZ
  6
Continuous
 62
     7
100
AcDbLine
 10
31.5058265988
 20
464.1731427112
 30
0.0
 11
32.6413312585
 21
463.9275566519
 31
0.0
  0
LINE
  5
235
330
5E
100
AcDbEntity
  8
64647040_EINSATZ
  6
Continuous
 62
     7
100
AcDbLine
 10
29.8892074738
 20
464.5227838307
 30
0.0
 11
30.5663239536
 21
464.3763376082
 31
0.0
  0
LINE
  5
236
330
5E
100
AcDbEntity
  8
64647040_EINSATZ
  6
Continuous
 62
     7
100
AcDbLine
 10
28.3782269572
 20
464.8495775145
 30
0.0
 11
29.0433624577
 21
464.7057225289
 31
0.0
  0
LINE
  5
237
330
5E
100
AcDbEntity
  8
64647040_EINSATZ
  6
Continuous
 62
     7
100
AcDbLine
 10
26.9492002361
 20
465.1586462956
 30
0.0
 11
27.5241773535
 21
465.0342906946
 31
0.0
  0
LINE
  5
238
330
5E
100
AcDbEntity
  8
64647040_EINSATZ
  6
Continuous
 62
     7
100
AcDbLine
 10
32.7071186521
 20
464.3645246698
 30
0.0
 11
32.9113407411
 21
464.0790118068
 31
0.0
  0
LINE
  5
239
330
5E
100
AcDbEntity
  8
64647040_EINSATZ
  6
Continuous
 62
     7
100
AcDbLine
 10
32.2463636342
 20
465.0086836094
 30
0.0
 11
32.2975422067
 21
464.9371333631
 31
0.0
  0
LINE
  5
23A
330
5E
100
AcDbEntity
  8
64647040_EINSATZ
  6
Continuous
 62
     7
100
AcDbLine
 10
31.7960848651
 20
465.6381962205
 30
0.0
 11
31.8425400836
 21
465.5732494633
 31
0.0
  0
LINE
  5
23B
330
5E
100
AcDbEntity
  8
64647040_EINSATZ
  6
Continuous
 62
     7
100
AcDbLine
 10
31.3816665573
 20
466.2175740836
 30
0.0
 11
31.3882266397
 21
466.2084027549
 31
0.0
  0
LINE
  5
23C
330
5E
100
AcDbEntity
  8
64647040_EINSATZ
  6
Continuous
 62
     7
100
AcDbLine
 10
33.5086863263
 20
464.0239321284
 30
0.0
 11
33.9821010929
 21
464.3311014542
 31
0.0
  0
LINE
  5
23D
330
5E
100
AcDbEntity
  8
64647040_EINSATZ
  6
Continuous
 62
     7
100
AcDbLine
 10
34.7020990079
 20
464.7982632113
 30
0.0
 11
34.8828142413
 21
464.9155180592
 31
0.0
  0
LINE
  5
23E
330
5E
100
AcDbEntity
  8
64647040_EINSATZ
  6
Continuous
 62
     7
100
AcDbLine
 10
35.5813377858
 20
465.3687464361
 30
0.0
 11
35.7571789904
 21
465.4828388305
 31
0.0
  0
LINE
  5
23F
330
5E
100
AcDbEntity
  8
64647040_EINSATZ
  6
Continuous
 62
     7
100
AcDbLine
 10
36.4585989603
 20
465.9379465173
 30
0.0
 11
36.5601451859
 21
466.003833532
 31
0.0
  0
LINE
  5
240
330
5E
100
AcDbEntity
  8
64647040_EINSATZ
  6
Continuous
 62
     7
100
AcDbLine
 10
33.7139246148
 20
463.8742205985
 30
0.0
 11
35.2320909864
 21
464.026607359
 31
0.0
  0
LINE
  5
241
330
5E
100
AcDbEntity
  8
64647040_EINSATZ
  6
Continuous
 62
     7
100
AcDbLine
 10
36.0294121142
 20
464.1066388931
 30
0.0
 11
37.0248336995
 21
464.2065548665
 31
0.0
  0
LINE
  5
242
330
5E
100
AcDbEntity
  8
64647040_EINSATZ
  6
Continuous
 62
     7
100
AcDbLine
 10
37.7282364732
 20
464.2771592956
 30
0.0
 11
38.7461831276
 21
464.3793362349
 31
0.0
  0
LINE
  5
243
330
5E
100
AcDbEntity
  8
64647040_EINSATZ
  6
Continuous
 62
     7
100
AcDbLine
 10
39.4224455439
 20
464.4472164361
 30
0.0
 11
40.3542787752
 21
464.5407496945
 31
0.0
  0
LINE
  5
244
330
5E
100
AcDbEntity
  8
64647040_EINSATZ
  6
Continuous
 62
     7
100
AcDbLine
 10
37.804859329
 20
463.3517866266
 30
0.0
 11
39.1086282669
 21
463.220920123
 31
0.0
  0
LINE
  5
245
330
5E
100
AcDbEntity
  8
64647040_EINSATZ
  6
Continuous
 62
     7
100
AcDbLine
 10
39.5151071075
 20
463.1801195922
 30
0.0
 11
40.8714877954
 21
463.0439721561
 31
0.0
  0
LINE
  5
246
330
5E
100
AcDbEntity
  8
64647040_EINSATZ
  6
Continuous
 62
     7
100
AcDbLine
 10
36.9610987089
 20
462.3854706841
 30
0.0
 11
37.4805031375
 21
462.1908983605
 31
0.0
  0
LINE
  5
247
330
5E
100
AcDbEntity
  8
64647040_EINSATZ
  6
Continuous
 62
     7
100
AcDbLine
 10
38.2043938961
 20
461.9197241094
 30
0.0
 11
38.7710222849
 21
461.7074613789
 31
0.0
  0
LINE
  5
248
330
5E
100
AcDbEntity
  8
64647040_EINSATZ
  6
Continuous
 62
     7
100
AcDbLine
 10
35.945209954
 20
461.9866427112
 30
0.0
 11
36.1805618318
 21
461.8339375513
 31
0.0
  0
LINE
  5
249
330
5E
100
AcDbEntity
  8
64647040_EINSATZ
  6
Continuous
 62
     7
100
AcDbLine
 10
36.820723441
 20
461.4185765955
 30
0.0
 11
37.093111809
 21
461.2418407661
 31
0.0
  0
LINE
  5
24A
330
5E
100
AcDbEntity
  8
64647040_EINSATZ
  6
Continuous
 62
     7
100
AcDbLine
 10
31.650663673
 20
461.6296468805
 30
0.0
 11
31.7193492494
 21
461.7256728083
 31
0.0
  0
LINE
  5
24B
330
5E
100
AcDbEntity
  8
64647040_EINSATZ
  6
Continuous
 62
     7
100
AcDbLine
 10
31.1782763703
 20
460.9692254155
 30
0.0
 11
31.2684094901
 21
461.0952360993
 31
0.0
  0
LINE
  5
24C
330
5E
100
AcDbEntity
  8
64647040_EINSATZ
  6
Continuous
 62
     7
100
AcDbLine
 10
28.8334827869
 20
462.1908968318
 30
0.0
 11
29.355969631
 21
462.3866238486
 31
0.0
  0
LINE
  5
24D
330
5E
100
AcDbEntity
  8
64647040_EINSATZ
  6
Continuous
 62
     7
100
AcDbLine
 10
27.5429645711
 20
461.7074601992
 30
0.0
 11
28.1103104319
 21
461.9199916995
 31
0.0
  0
LINE
  5
24E
330
5E
100
AcDbEntity
  8
64647040_EINSATZ
  6
Continuous
 62
     7
100
AcDbLine
 10
27.8359858848
 20
462.6652056123
 30
0.0
 11
28.7424233731
 21
462.861249203
 31
0.0
  0
LINE
  5
24F
330
5E
100
AcDbEntity
  8
64647040_EINSATZ
  6
Continuous
 62
     7
100
AcDbLine
 10
26.2554442214
 20
462.323367298
 30
0.0
 11
27.207695345
 21
462.5293194259
 31
0.0
  0
LINE
  5
250
330
5E
100
AcDbEntity
  8
64647040_EINSATZ
  6
Continuous
 62
     7
100
AcDbLine
 10
27.0807779686
 20
463.8189626531
 30
0.0
 11
28.4378511753
 21
463.8189626531
 31
0.0
  0
LINE
  5
251
330
5E
100
AcDbEntity
  8
64647040_EINSATZ
  6
Continuous
 62
     7
100
AcDbLine
 10
25.3849555242
 20
463.8189626531
 30
0.0
 11
26.6837979078
 21
463.8189626531
 31
0.0
  0
LINE
  5
252
330
5E
100
AcDbEntity
  8
64647040_EINSATZ
  6
Continuous
 62
     7
100
AcDbLine
 10
27.5694497622
 20
464.3791713294
 30
0.0
 11
28.5858324181
 21
464.2771513774
 31
0.0
  0
LINE
  5
253
330
5E
100
AcDbEntity
  8
64647040_EINSATZ
  6
Continuous
 62
     7
100
AcDbLine
 10
25.9597112299
 20
464.5407496945
 30
0.0
 11
26.8915104624
 21
464.4472198488
 31
0.0
  0
LINE
  5
254
330
5E
100
AcDbEntity
  8
64647040_EINSATZ
  6
Continuous
 62
     7
100
AcDbLine
 10
29.38725785
 20
465.2226814073
 30
0.0
 11
29.7768533014
 21
465.0767363825
 31
0.0
  0
LINE
  5
255
330
5E
100
AcDbEntity
  8
64647040_EINSATZ
  6
Continuous
 62
     7
100
AcDbLine
 10
28.2468824942
 20
465.6498735345
 30
0.0
 11
28.5363242767
 21
465.5414467344
 31
0.0
  0
LINE
  5
256
330
5E
100
AcDbEntity
  8
64647040_EINSATZ
  6
Continuous
 62
     7
100
AcDbLine
 10
30.5568110147
 20
465.4828388305
 30
0.0
 11
30.73272368
 21
465.3687000697
 31
0.0
  0
LINE
  5
257
330
5E
100
AcDbEntity
  8
64647040_EINSATZ
  6
Continuous
 62
     7
100
AcDbLine
 10
29.7538448192
 20
466.003833532
 30
0.0
 11
29.8554637205
 21
465.9378993626
 31
0.0
  0
LINE
  5
258
330
5E
100
AcDbEntity
  8
64647040_EINSATZ
  6
Continuous
 62
     7
100
AcDbLine
 10
34.4714833449
 20
465.5732961909
 30
0.0
 11
34.51790514
 21
465.6381962205
 31
0.0
  0
LINE
  5
259
330
5E
100
AcDbEntity
  8
64647040_EINSATZ
  6
Continuous
 62
     7
100
AcDbLine
 10
34.9258014154
 20
466.2084559508
 30
0.0
 11
34.9323234478
 21
466.2175740836
 31
0.0
  0
LINE
  5
25A
330
5E
100
AcDbEntity
  8
64647040_EINSATZ
  6
Continuous
 62
     7
100
AcDbLine
 10
36.5372235265
 20
465.0767689069
 30
0.0
 11
36.9267321551
 21
465.2226814073
 31
0.0
  0
LINE
  5
25B
330
5E
100
AcDbEntity
  8
64647040_EINSATZ
  6
Continuous
 62
     7
100
AcDbLine
 10
37.7776290506
 20
465.5414329947
 30
0.0
 11
38.0671075109
 21
465.6498735345
 31
0.0
  0
LINE
  5
25C
330
5E
100
AcDbEntity
  8
64647040_EINSATZ
  6
Continuous
 62
     7
100
AcDbLine
 10
37.2706310081
 20
464.7057232774
 30
0.0
 11
37.9621023616
 21
464.8552741607
 31
0.0
  0
LINE
  5
25D
330
5E
100
AcDbEntity
  8
64647040_EINSATZ
  6
Continuous
 62
     7
100
AcDbLine
 10
38.789659712
 20
465.0342576169
 30
0.0
 11
39.3647897689
 21
465.1586462956
 31
0.0
  0
LINE
  5
25F
330
5E
100
AcDbEntity
  8
$DDT_AUDIT_GENERATED_(25E)
  6
Continuous
 62
     7
100
AcDbLine
 10
7.7399192858
 20
363.5398414388
 30
0.0
 11
8.7569950025
 21
363.5398414388
 31
0.0
  0
LINE
  5
260
330
5E
100
AcDbEntity
  8
$DDT_AUDIT_GENERATED_(25E)
  6
Continuous
 62
     7
100
AcDbLine
 10
8.7569950025
 20
363.5398414388
 30
0.0
 11
57.5569950025
 21
363.5398414388
 31
0.0
  0
LINE
  5
261
330
5E
100
AcDbEntity
  8
$DDT_AUDIT_GENERATED_(25E)
  6
Continuous
 62
     7
100
AcDbLine
 10
57.5569950025
 20
363.5398414388
 30
0.0
 11
58.5740707193
 21
363.5398414388
 31
0.0
  0
LINE
  5
262
330
5E
100
AcDbEntity
  8
$DDT_AUDIT_GENERATED_(25E)
  6
Continuous
 62
     7
100
AcDbLine
 10
59.0740516809
 20
363.0442047065
 30
0.0
 11
59.139541267
 21
355.5398414388
 31
0.0
  0
LINE
  5
263
330
5E
100
AcDbEntity
  8
$DDT_AUDIT_GENERATED_(25E)
  6
Continuous
 62
     7
100
AcDbLine
 10
7.2399383242
 20
363.0442047065
 30
0.0
 11
7.1744487381
 21
355.5398414388
 31
0.0
  0
ARC
  5
264
330
5E
100
AcDbEntity
  8
$DDT_AUDIT_GENERATED_(25E)
  6
Continuous
 62
     7
100
AcDbCircle
 10
7.7399192858
 20
363.0398414388
 30
0.0
 40
0.5000000000000004
100
AcDbArc
 50
90.0
 51
179.5
  0
ARC
  5
265
330
5E
100
AcDbEntity
  8
$DDT_AUDIT_GENERATED_(25E)
  6
Continuous
 62
     7
100
AcDbCircle
 10
58.5740707193
 20
363.0398414388
 30
0.0
 40
0.5000000000000004
100
AcDbArc
 50
0.5
 51
90.0
  0
LINE
  5
266
330
5E
100
AcDbEntity
  8
$DDT_AUDIT_GENERATED_(25E)
  6
Continuous
 62
     7
100
AcDbLine
 10
59.139541267
 20
355.5398414388
 30
0.0
 11
57.5569950025
 21
355.5398414388
 31
0.0
  0
LINE
  5
267
330
5E
100
AcDbEntity
  8
$DDT_AUDIT_GENERATED_(25E)
  6
Continuous
 62
     7
100
AcDbLine
 10
57.5569950025
 20
355.5398414388
 30
0.0
 11
8.7569950025
 21
355.5398414388
 31
0.0
  0
LINE
  5
268
330
5E
100
AcDbEntity
  8
$DDT_AUDIT_GENERATED_(25E)
  6
Continuous
 62
     7
100
AcDbLine
 10
8.7569950025
 20
355.5398414388
 30
0.0
 11
7.1744487381
 21
355.5398414388
 31
0.0
  0
LINE
  5
26B
330
5E
100
AcDbEntity
  8
DV1_Default
  6
CENTER2
 62
     7
100
AcDbLine
 10
53.1569945555
 20
355.5398414388
 30
0.0
 11
13.1569954496
 21
355.5398414388
 31
0.0
  0
LINE
  5
26C
330
5E
100
AcDbEntity
  8
DV1_Default
  6
CENTER2
 62
     7
100
AcDbLine
 10
33.1569950025
 20
375.5398409917
 30
0.0
 11
33.1569950025
 21
335.5398418858
 31
0.0
  0
ENDBLK
  5
26E
330
5E
100
AcDbEntity
  8
0
100
AcDbBlockEnd
  0
BLOCK
  5
2F3
330
26F
100
AcDbEntity
  8
0
100
AcDbBlockBegin
  2
SE1
 70
     0
 10
0.0
 20
0.0
 30
0.0
  3
SE1
  1

  0
LINE
  5
271
330
26F
100
AcDbEntity
  8
$DDT_AUDIT_GENERATED_(60)
  6
Continuous
 62
     7
100
AcDbLine
 10
194.1230007647
 20
461.5398414388
 30
0.0
 11
194.1230007647
 21
363.5398414388
 31
0.0
  0
SPLINE
  5
272
330
26F
100
AcDbEntity
  8
$DDT_AUDIT_GENERATED_(60)
  6
Continuous
 62
     7
100
AcDbSpline
210
0.0
220
0.0
230
1.0
 70
     8
 71
     3
 72
    14
 73
    10
 74
     0
 42
0.0000000012651468
 43
0.0000000001
 40
0.0
 40
0.0
 40
0.0
 40
0.0
 40
0.25
 40
0.25
 40
0.5
 40
0.5
 40
0.75
 40
0.75
 40
1.0
 40
1.0
 40
1.0
 40
1.0
 10
199.1230007647148
 20
466.5398414387565
 30
0.0
 10
198.4685022952169
 20
466.5398414387565
 30
0.0
 10
197.8142613429184
 20
466.4097048220981
 30
0.0
 10
196.6049058628603
 20
465.9087733805277
 30
0.0
 10
196.0502671648402
 20
465.5381756507474
 30
0.0
 10
195.1246665527239
 20
464.6125750386311
 30
0.0
 10
194.7540688229435
 20
464.057936340611
 30
0.0
 10
194.2531373813732
 20
462.8485808605529
 30
0.0
 10
194.1230007647148
 20
462.1943399082544
 30
0.0
 10
194.1230007647148
 20
461.5398414387565
 30
0.0
  0
LINE
  5
273
330
26F
100
AcDbEntity
  8
$DDT_AUDIT_GENERATED_(60)
  6
Continuous
 62
     7
100
AcDbLine
 10
151.6230007647
 20
485.5398414388
 30
0.0
 11
317.1230007647
 21
485.5398414388
 31
0.0
  0
LINE
  5
274
330
26F
100
AcDbEntity
  8
$DDT_AUDIT_GENERATED_(60)
  6
Continuous
 62
     7
100
AcDbLine
 10
151.1230007647
 20
363.5398414388
 30
0.0
 11
151.1230007647
 21
485.0398414388
 31
0.0
  0
ARC
  5
275
330
26F
100
AcDbEntity
  8
$DDT_AUDIT_GENERATED_(60)
  6
Continuous
 62
     7
100
AcDbCircle
 10
151.6230007647
 20
485.0398414388
 30
0.0
 40
0.499999999999997
100
AcDbArc
 50
90.0
 51
180.0
  0
LINE
  5
276
330
26F
100
AcDbEntity
  8
$DDT_AUDIT_GENERATED_(60)
  6
Continuous
 62
     7
100
AcDbLine
 10
287.1987865409
 20
466.5398414388
 30
0.0
 11
199.1230007647
 21
466.5398414388
 31
0.0
  0
LINE
  5
277
330
26F
100
AcDbEntity
  8
$DDT_AUDIT_GENERATED_(60)
  6
Continuous
 62
     7
100
AcDbLine
 10
317.2397234466
 20
473.7378246958
 30
0.0
 11
287.3155092229
 21
466.5536564786
 31
0.0
  0
LINE
  5
278
330
26F
100
AcDbEntity
  8
$DDT_AUDIT_GENERATED_(60)
  6
Continuous
 62
     7
100
AcDbLine
 10
317.6230007647
 20
485.0398414388
 30
0.0
 11
317.6230007647
 21
474.224009656
 31
0.0
  0
ARC
  5
279
330
26F
100
AcDbEntity
  8
$DDT_AUDIT_GENERATED_(60)
  6
Continuous
 62
     7
100
AcDbCircle
 10
287.1987865409
 20
467.0398414388
 30
0.0
 40
0.499999999998701
100
AcDbArc
 50
270.0000000001
 51
283.5000000001
  0
ARC
  5
27A
330
26F
100
AcDbEntity
  8
$DDT_AUDIT_GENERATED_(60)
  6
Continuous
 62
     7
100
AcDbCircle
 10
317.1230007647
 20
474.224009656
 30
0.0
 40
0.5000000000000004
100
AcDbArc
 50
283.5
 51
0.0
  0
ARC
  5
27B
330
26F
100
AcDbEntity
  8
$DDT_AUDIT_GENERATED_(60)
  6
Continuous
 62
     7
100
AcDbCircle
 10
317.1230007647
 20
485.0398414388
 30
0.0
 40
0.5000000000000004
100
AcDbArc
 50
0.0
 51
90.0
  0
LINE
  5
27C
330
26F
100
AcDbEntity
  8
$DDT_AUDIT_GENERATED_(72)
  6
Continuous
 62
     7
100
AcDbLine
 10
160.1230007647
 20
493.387918248
 30
0.0
 11
162.7206964807
 21
493.387918248
 31
0.0
  0
ARC
  5
27D
330
26F
100
AcDbEntity
  8
$DDT_AUDIT_GENERATED_(72)
  6
Continuous
 62
     7
100
AcDbCircle
 10
172.6230007647
 20
477.1398414388
 30
0.0
 40
20.50000000000001
100
AcDbArc
 50
127.5718693197
 51
155.810485846
  0
ARC
  5
27E
330
26F
100
AcDbEntity
  8
$DDT_AUDIT_GENERATED_(72)
  6
Continuous
 62
     7
100
AcDbCircle
 10
172.6230007647
 20
477.1398414388
 30
0.0
 40
20.5
100
AcDbArc
 50
24.189514154
 51
29.8406921656
  0
LINE
  5
27F
330
26F
100
AcDbEntity
  8
$DDT_AUDIT_GENERATED_(75)
  6
Continuous
 62
     7
100
AcDbLine
 10
154.2356794255
 20
515.9560923207
 30
0.0
 11
154.3489523054
 21
515.966999339
 31
0.0
  0
LINE
  5
280
330
26F
100
AcDbEntity
  8
$DDT_AUDIT_GENERATED_(75)
  6
Continuous
 62
     7
100
AcDbLine
 10
252.734152539
 20
525.4458451858
 30
0.0
 11
252.4464256189
 21
525.4127814066
 31
0.0
  0
SPLINE
  5
281
330
26F
100
AcDbEntity
  8
$DDT_AUDIT_GENERATED_(75)
  6
Continuous
 62
     7
100
AcDbSpline
210
0.0
220
0.0
230
1.0
 70
     8
 71
     3
 72
    10
 73
     6
 74
     0
 42
0.0000001066900211
 43
0.0000000001
 40
0.745999589355341
 40
0.745999589355341
 40
0.745999589355341
 40
0.745999589355341
 40
0.75
 40
0.75
 40
1.0
 40
1.0
 40
1.0
 40
1.0
 10
193.1815844570053
 20
487.2788791413851
 30
0.0
 10
193.1815788070227
 20
487.2786180731096
 30
0.0
 10
193.1815732232359
 20
487.278359365239
 30
0.0
 10
193.1812229038337
 20
487.2620835196405
 30
0.0
 10
193.1811325717595
 20
487.2551693825272
 30
0.0
 10
193.1812247171061
 20
487.2551561828946
 30
0.0
  0
SPLINE
  5
282
330
26F
100
AcDbEntity
  8
$DDT_AUDIT_GENERATED_(75)
  6
Continuous
 62
     7
100
AcDbSpline
210
0.0
220
0.0
230
1.0
 70
    12
 71
     3
 72
     8
 73
     4
 74
     0
 42
0.0000000208738396
 43
0.0000000001
 40
0.7475082332736732
 40
0.7475082332736732
 40
0.7475082332736732
 40
0.7475082332736732
 40
1.0
 40
1.0
 40
1.0
 40
1.0
 10
193.4984292324436
 20
487.2706007651277
 30
0.0
 41
1.04759841394755
 10
193.4600812718891
 20
487.2555287822815
 30
0.0
 41
1.079970343108998
 10
193.4202912619306
 20
487.2488912527953
 30
0.0
 41
1.128854510453217
 10
193.3808873849508
 20
487.24992778945
 30
0.0
 41
1.194250915980207
  0
LINE
  5
283
330
26F
100
AcDbEntity
  8
$DDT_AUDIT_GENERATED_(75)
  6
Continuous
 62
     7
100
AcDbLine
 10
193.380887385
 20
487.2499277894
 30
0.0
 11
193.6684002266
 21
487.2423989987
 31
0.0
  0
LINE
  5
284
330
26F
100
AcDbEntity
  8
$DDT_AUDIT_GENERATED_(75)
  6
Continuous
 62
     7
100
AcDbLine
 10
253.1175446308
 20
521.4539593888
 30
0.0
 11
253.1029299142
 21
521.452775631
 31
0.0
  0
LINE
  5
285
330
26F
100
AcDbEntity
  8
$DDT_AUDIT_GENERATED_(75)
  6
Continuous
 62
     7
100
AcDbLine
 10
252.9637092326
 20
521.4414990818
 30
0.0
 11
252.8559966091
 21
521.4327746114
 31
0.0
  0
ARC
  5
286
330
26F
100
AcDbEntity
  8
$DDT_AUDIT_GENERATED_(75)
  6
Continuous
 62
     7
100
AcDbCircle
 10
222.8122115784
 20
473.3902380492
 30
0.0
 40
44.80028522497074
100
AcDbArc
 50
94.9464173971
 51
98.1349600841
  0
LINE
  5
287
330
26F
100
AcDbEntity
  8
$DDT_AUDIT_GENERATED_(75)
  6
Continuous
 62
     7
100
AcDbLine
 10
237.9317764477
 20
519.9171332734
 30
0.0
 11
218.9493659517
 21
518.0235029756
 31
0.0
  0
ARC
  5
288
330
26F
100
AcDbEntity
  8
$DDT_AUDIT_GENERATED_(75)
  6
Continuous
 62
     7
100
AcDbCircle
 10
248.709351692
 20
418.1963302435
 30
0.0
 40
102.2910076160021
100
AcDbArc
 50
94.6492984505
 51
96.0480648486
  0
LINE
  5
289
330
26F
100
AcDbEntity
  8
$DDT_AUDIT_GENERATED_(75)
  6
Continuous
 62
     7
100
AcDbLine
 10
252.8296165729
 20
521.4306047569
 30
0.0
 11
252.8298873709
 21
521.4325120892
 31
0.0
  0
LINE
  5
28A
330
26F
100
AcDbEntity
  8
$DDT_AUDIT_GENERATED_(75)
  6
Continuous
 62
     7
100
AcDbLine
 10
173.5814557651
 20
487.7683941513
 30
0.0
 11
193.1812247171
 21
487.2551561829
 31
0.0
  0
LINE
  5
28B
330
26F
100
AcDbEntity
  8
$DDT_AUDIT_GENERATED_(75)
  6
Continuous
 62
     7
100
AcDbLine
 10
192.7830587791
 20
487.2655824976
 30
0.0
 11
190.3955718144
 21
487.3281012021
 31
0.0
  0
LINE
  5
28C
330
26F
100
AcDbEntity
  8
$DDT_AUDIT_GENERATED_(75)
  6
Continuous
 62
     7
100
AcDbLine
 10
152.0914352685
 20
498.9211614079
 30
0.0
 11
152.2800425262
 21
498.8229787072
 31
0.0
  0
LINE
  5
28D
330
26F
100
AcDbEntity
  8
$DDT_AUDIT_GENERATED_(75)
  6
Continuous
 62
     7
100
AcDbLine
 10
151.819758012
 20
499.0625876347
 30
0.0
 11
152.0914352685
 21
498.9211614079
 31
0.0
  0
LINE
  5
28E
330
26F
100
AcDbEntity
  8
$DDT_AUDIT_GENERATED_(75)
  6
Continuous
 62
     7
100
AcDbLine
 10
152.2800425262
 20
498.8229787072
 30
0.0
 11
173.4507841851
 21
487.8021881396
 31
0.0
  0
ARC
  5
28F
330
26F
100
AcDbEntity
  8
$DDT_AUDIT_GENERATED_(75)
  6
Continuous
 62
     7
100
AcDbCircle
 10
173.5893088472
 20
488.0682913489
 30
0.0
 40
0.3000000000000067
100
AcDbArc
 50
242.4999831724
 51
268.5000004565
  0
LINE
  5
290
330
26F
100
AcDbEntity
  8
$DDT_AUDIT_GENERATED_(75)
  6
Continuous
 62
     7
100
AcDbLine
 10
154.3491893151
 20
515.9670221709
 30
0.0
 11
154.2356968906
 21
515.9560940128
 31
0.0
  0
LINE
  5
291
330
26F
100
AcDbEntity
  8
$DDT_AUDIT_GENERATED_(75)
  6
Continuous
 62
     7
100
AcDbLine
 10
154.2356969214
 20
515.9560937328
 30
0.0
 11
153.9406162408
 21
515.9319829238
 31
0.0
  0
LINE
  5
292
330
26F
100
AcDbEntity
  8
$DDT_AUDIT_GENERATED_(75)
  6
Continuous
 62
     7
100
AcDbLine
 10
240.1818311526
 20
524.3274983859
 30
0.0
 11
240.1801614782
 21
524.3657407836
 31
0.0
  0
ARC
  5
293
330
26F
100
AcDbEntity
  8
$DDT_AUDIT_GENERATED_(75)
  6
Continuous
 62
     7
100
AcDbCircle
 10
230.5534686135
 20
607.8026511365
 30
0.0
 40
84.02862632959373
100
AcDbArc
 50
274.8772354283
 51
276.5801379201
  0
LINE
  5
294
330
26F
100
AcDbEntity
  8
$DDT_AUDIT_GENERATED_(75)
  6
Continuous
 62
     7
100
AcDbLine
 10
218.3655729778
 20
522.2839313877
 30
0.0
 11
237.6976235939
 21
524.0787879184
 31
0.0
  0
ARC
  5
295
330
26F
100
AcDbEntity
  8
$DDT_AUDIT_GENERATED_(75)
  6
Continuous
 62
     7
100
AcDbCircle
 10
214.2793215818
 20
559.4561783987
 30
0.0
 40
37.39670480080437
100
AcDbArc
 50
272.4422371578
 51
276.2731790679
  0
ARC
  5
296
330
26F
100
AcDbEntity
  8
$DDT_AUDIT_GENERATED_(75)
  6
Continuous
 62
     7
100
AcDbCircle
 10
252.7752997896
 20
524.9466443411
 30
0.0
 40
0.5008868144427505
100
AcDbArc
 50
5.1022597922
 51
95.1946680421
  0
LINE
  5
297
330
26F
100
AcDbEntity
  8
$DDT_AUDIT_GENERATED_(75)
  6
Continuous
 62
     7
100
AcDbLine
 10
193.1785519681
 20
487.2791797235
 30
0.0
 11
193.4990006896
 21
487.270786944
 31
0.0
  0
SPLINE
  5
298
330
26F
100
AcDbEntity
  8
$DDT_AUDIT_GENERATED_(75)
  6
Continuous
 62
     7
100
AcDbSpline
210
0.0
220
0.0
230
1.0
 70
     8
 71
     3
 72
    11
 73
     7
 74
     0
 42
0.0000000155169864
 43
0.0000000001
 40
0.0
 40
0.0
 40
0.0
 40
0.0
 40
0.0743680486463125
 40
0.4029916252026943
 40
0.7316152009363747
 40
1.0
 40
1.0
 40
1.0
 40
1.0
 10
193.6684003583711
 20
487.242398995632
 30
0.0
 10
193.6849840203746
 20
487.2425905206954
 30
0.0
 10
193.7620204001856
 20
487.244641049699
 30
0.0
 10
193.9104086358247
 20
487.3165797708103
 30
0.0
 10
193.9960487084653
 20
487.5064991975245
 30
0.0
 10
193.9637597041289
 20
487.6196962630198
 30
0.0
 10
193.9446104451596
 20
487.676402568358
 30
0.0
  0
LINE
  5
299
330
26F
100
AcDbEntity
  8
$DDT_AUDIT_GENERATED_(75)
  6
Continuous
 62
     7
100
AcDbLine
 10
193.9754985024
 20
487.5634378789
 30
0.0
 11
192.4540210482
 21
512.4386479991
 31
0.0
  0
ARC
  5
29A
330
26F
100
AcDbEntity
  8
$DDT_AUDIT_GENERATED_(75)
  6
Continuous
 62
     7
100
AcDbCircle
 10
195.4502115229
 20
512.5912502817
 30
0.0
 40
2.999934365208154
100
AcDbArc
 50
95.0695847407
 51
183.9804934892
  0
LINE
  5
29B
330
26F
100
AcDbEntity
  8
$DDT_AUDIT_GENERATED_(75)
  6
Continuous
 62
     7
100
AcDbLine
 10
240.4197904251
 20
520.1349542309
 30
0.0
 11
252.5463314079
 21
521.3959546075
 31
0.0
  0
LINE
  5
29C
330
26F
100
AcDbEntity
  8
$DDT_AUDIT_GENERATED_(75)
  6
Continuous
 62
     7
100
AcDbLine
 10
195.1309210795
 20
515.5753965982
 30
0.0
 11
216.4763115255
 21
517.6909706397
 31
0.0
  0
LINE
  5
29D
330
26F
100
AcDbEntity
  8
$DDT_AUDIT_GENERATED_(75)
  6
Continuous
 62
     7
100
AcDbLine
 10
252.5463314007
 20
521.3959546067
 30
0.0
 11
252.8317067041
 21
521.4288663357
 31
0.0
  0
ARC
  5
29E
330
26F
100
AcDbEntity
  8
$DDT_AUDIT_GENERATED_(75)
  6
Continuous
 62
     7
100
AcDbCircle
 10
253.0633054573
 20
521.9522557095
 30
0.0
 40
0.501235862760948
100
AcDbArc
 50
275.7312573402
 51
5.8374757153
  0
LINE
  5
29F
330
26F
100
AcDbEntity
  8
$DDT_AUDIT_GENERATED_(75)
  6
Continuous
 62
     7
100
AcDbLine
 10
253.5640934996
 20
521.9810615181
 30
0.0
 11
253.2720591615
 21
525.0139367385
 31
0.0
  0
LINE
  5
2A0
330
26F
100
AcDbEntity
  8
$DDT_AUDIT_GENERATED_(75)
  6
Continuous
 62
     7
100
AcDbLine
 10
193.1785515753
 20
487.2791711935
 30
0.0
 11
193.4989786499
 21
487.2707790101
 31
0.0
  0
LINE
  5
2A1
330
26F
100
AcDbEntity
  8
$DDT_AUDIT_GENERATED_(75)
  6
Continuous
 62
     7
100
AcDbLine
 10
152.0443536789
 20
498.9515709688
 30
0.0
 11
152.2827602418
 21
498.827464332
 31
0.0
  0
ARC
  5
2A2
330
26F
100
AcDbEntity
  8
$DDT_AUDIT_GENERATED_(75)
  6
Continuous
 62
     7
100
AcDbCircle
 10
153.9955187473
 20
515.4339523254
 30
0.0
 40
0.5010418387337379
100
AcDbArc
 50
95.8625882138
 51
173.8942212703
  0
LINE
  5
2A3
330
26F
100
AcDbEntity
  8
$DDT_AUDIT_GENERATED_(75)
  6
Continuous
 62
     7
100
AcDbLine
 10
252.3696929353
 20
525.4054452652
 30
0.0
 11
251.7643283173
 21
525.3607168855
 31
0.0
  0
LINE
  5
2A4
330
26F
100
AcDbEntity
  8
$DDT_AUDIT_GENERATED_(75)
  6
Continuous
 62
     7
100
AcDbLine
 10
154.9090872842
 20
516.0334290297
 30
0.0
 11
154.3491823897
 21
515.9670940985
 31
0.0
  0
ARC
  5
2A5
330
26F
100
AcDbEntity
  8
$DDT_AUDIT_GENERATED_(75)
  6
Continuous
 62
     7
100
AcDbCircle
 10
599.2319217475
 20
-3591.8181522308
 30
0.0
 40
4131.811635938227
100
AcDbArc
 50
95.3237897912
 51
96.1733545649
  0
ARC
  5
2A6
330
26F
100
AcDbEntity
  8
$DDT_AUDIT_GENERATED_(75)
  6
Continuous
 62
     7
100
AcDbCircle
 10
517.8081228996
 20
-2633.1481365385
 30
0.0
 40
3169.693593635806
100
AcDbArc
 50
94.8147085167
 51
95.0249036588
  0
ARC
  5
2A7
330
26F
100
AcDbEntity
  8
$DDT_AUDIT_GENERATED_(75)
  6
Continuous
 62
     7
100
AcDbCircle
 10
240.2263275244
 20
523.8678766501
 30
0.0
 40
0.4999999996299477
100
AcDbArc
 50
95.2977849387
 51
119.2612819177
  0
ARC
  5
2A8
330
26F
100
AcDbEntity
  8
$DDT_AUDIT_GENERATED_(75)
  6
Continuous
 62
     7
100
AcDbCircle
 10
215.9082909634
 20
521.6727407416
 30
0.0
 40
0.4999999997843107
100
AcDbArc
 50
60.5495981566
 51
95.3369528738
  0
ARC
  5
2A9
330
26F
100
AcDbEntity
  8
$DDT_AUDIT_GENERATED_(75)
  6
Continuous
 62
     7
100
AcDbCircle
 10
216.431530704
 20
518.1716622674
 30
0.0
 40
0.5000000015538615
100
AcDbArc
 50
275.7075356026
 51
307.8138078449
  0
SPLINE
  5
2AA
330
26F
100
AcDbEntity
  8
$DDT_AUDIT_GENERATED_(75)
  6
Continuous
 62
     7
100
AcDbSpline
210
0.0
220
0.0
230
1.0
 70
     8
 71
     3
 72
     8
 73
     4
 74
     0
 42
0.0000000191809474
 43
0.0000000001
 40
0.0
 40
0.0
 40
0.0
 40
0.0
 40
1.0
 40
1.0
 40
1.0
 40
1.0
 10
151.6973735057877
 20
499.4767059549922
 30
0.0
 10
151.6258618047484
 20
499.2896013421264
 30
0.0
 10
151.6666655073732
 20
499.1515572861262
 30
0.0
 10
151.8197846136622
 20
499.0625737869915
 30
0.0
  0
LINE
  5
2AB
330
26F
100
AcDbEntity
  8
$DDT_AUDIT_GENERATED_(75)
  6
Continuous
 62
     7
100
AcDbLine
 10
152.5507812285
 20
507.1786381611
 30
0.0
 11
151.6588846739
 21
499.3505923537
 31
0.0
  0
LINE
  5
2AC
330
26F
100
AcDbEntity
  8
$DDT_AUDIT_GENERATED_(75)
  6
Continuous
 62
     7
100
AcDbLine
 10
153.4978706792
 20
515.4911039579
 30
0.0
 11
153.2821410532
 21
513.5976765356
 31
0.0
  0
LINE
  5
2AD
330
26F
100
AcDbEntity
  8
$DDT_AUDIT_GENERATED_(75)
  6
Continuous
 62
     7
100
AcDbLine
 10
153.2866330582
 20
513.6371022071
 30
0.0
 11
153.2864937958
 21
513.6371168442
 31
0.0
  0
LINE
  5
2AF
330
26F
100
AcDbEntity
  8
$DDT_AUDIT_GENERATED_(2AE)
  6
Continuous
 62
     7
100
AcDbLine
 10
152.6012675139
 20
507.0727823834
 30
0.0
 11
153.2881400401
 21
513.6079379313
 31
0.0
  0
LINE
  5
2B0
330
26F
100
AcDbEntity
  8
02636038_GEH_USE
  6
Continuous
 62
     7
100
AcDbLine
 10
295.3399303722
 20
461.0317577957
 30
0.0
 11
315.2743832453
 21
469.0857995542
 31
0.0
  0
LINE
  5
2B1
330
26F
100
AcDbEntity
  8
02636038_GEH_USE
  6
Continuous
 62
     7
100
AcDbLine
 10
315.3872256393
 20
469.4738716189
 30
0.0
 11
315.4521094041
 21
469.3132786657
 31
0.0
  0
LINE
  5
2B2
330
26F
100
AcDbEntity
  8
02636038_GEH_USE
  6
Continuous
 62
     7
100
AcDbLine
 10
314.3823594287
 20
471.9610027662
 30
0.0
 11
315.1241065124
 21
472.2606880409
 31
0.0
  0
LINE
  5
2B3
330
26F
100
AcDbEntity
  8
02636038_GEH_USE
  6
Continuous
 62
     7
100
AcDbLine
 10
315.3872256393
 20
469.4738716189
 30
0.0
 11
315.062806813
 21
470.276836391
 31
0.0
  0
LINE
  5
2B4
330
26F
100
AcDbEntity
  8
02636038_GEH_USE
  6
Continuous
 62
     7
100
AcDbLine
 10
315.062806813
 20
470.276836391
 30
0.0
 11
314.3823594287
 21
471.9610027662
 31
0.0
  0
LINE
  5
2B5
330
26F
100
AcDbEntity
  8
02636038_GEH_USE
  6
Continuous
 62
     7
100
AcDbLine
 10
294.9891808389
 20
461.2325265638
 30
0.0
 11
295.0540646036
 21
461.0719336106
 31
0.0
  0
LINE
  5
2B6
330
26F
100
AcDbEntity
  8
02636038_GEH_USE
  6
Continuous
 62
     7
100
AcDbLine
 10
293.9843146283
 20
463.7196577111
 30
0.0
 11
293.2425675446
 21
463.4199724363
 31
0.0
  0
LINE
  5
2B7
330
26F
100
AcDbEntity
  8
02636038_GEH_USE
  6
Continuous
 62
     7
100
AcDbLine
 10
293.9843146283
 20
463.7196577111
 30
0.0
 11
294.6647620125
 21
462.0354913358
 31
0.0
  0
LINE
  5
2B8
330
26F
100
AcDbEntity
  8
02636038_GEH_USE
  6
Continuous
 62
     7
100
AcDbLine
 10
294.6647620125
 20
462.0354913358
 30
0.0
 11
294.9891808389
 21
461.2325265638
 31
0.0
  0
LINE
  5
2B9
330
26F
100
AcDbEntity
  8
02636038_GEH_USE
  6
Continuous
 62
     7
100
AcDbLine
 10
295.0540646041
 20
461.0719336094
 30
0.0
 11
295.3399303722
 21
461.0317577957
 31
0.0
  0
LINE
  5
2BA
330
26F
100
AcDbEntity
  8
02636038_GEH_USE
  6
Continuous
 62
     7
100
AcDbLine
 10
315.2743832453
 20
469.0857995542
 30
0.0
 11
315.4521094046
 21
469.3132786645
 31
0.0
  0
LINE
  5
2BB
330
26F
100
AcDbEntity
  8
02636038_GEH_USE
  6
Continuous
 62
     7
100
AcDbLine
 10
291.5643476864
 20
467.5737123444
 30
0.0
 11
293.2425675446
 21
463.4199724363
 31
0.0
  0
LINE
  5
2BC
330
26F
100
AcDbEntity
  8
02636038_GEH_USE
  6
Continuous
 62
     7
100
AcDbLine
 10
315.1241065124
 20
472.2606880409
 30
0.0
 11
314.767140454
 21
473.1442100392
 31
0.0
  0
LINE
  5
2BD
330
26F
100
AcDbEntity
  8
64647040_EINSATZ
  6
Continuous
 62
     7
100
AcDbLine
 10
313.7210413386
 20
466.4629194122
 30
0.0
 11
298.2793166745
 21
460.2240576758
 31
0.0
  0
LINE
  5
2BE
330
26F
100
AcDbEntity
  8
64647040_EINSATZ
  6
Continuous
 62
     7
100
AcDbLine
 10
296.8094606217
 20
461.3558528705
 30
0.0
 11
296.7158089734
 21
461.5876488342
 31
0.0
  0
SPLINE
  5
2BF
330
26F
100
AcDbEntity
  8
64647040_EINSATZ
  6
Continuous
 62
     7
100
AcDbSpline
210
0.0
220
0.0
230
1.0
 70
     8
 71
     3
 72
    20
 73
    16
 74
     0
 42
0.0000000631015441
 43
0.0000000001
 40
0.0
 40
0.0
 40
0.0
 40
0.0
 40
0.212526540590276
 40
0.212526540590276
 40
0.212526540590276
 40
0.4250001490955064
 40
0.4250001490955064
 40
0.4250001490955064
 40
0.6383121177781627
 40
0.6383121177781627
 40
0.6383121177781627
 40
0.8534671345903982
 40
0.8534671345903982
 40
0.8534671345903982
 40
1.0
 40
1.0
 40
1.0
 40
1.0
 10
296.8094606217211
 20
461.3558528705303
 30
0.0
 10
296.8136253014308
 20
461.3455449265323
 30
0.0
 10
296.8196320725415
 20
461.3358159542736
 30
0.0
 10
296.8269777133835
 20
461.327470906211
 30
0.0
 10
296.8343223354731
 20
461.3191270155066
 30
0.0
 10
296.8432060179483
 20
461.3119369016053
 30
0.0
 10
296.8528906459657
 20
461.3064805323095
 30
0.0
 10
296.8626139866625
 20
461.3010023520907
 30
0.0
 10
296.8734090916046
 20
461.2971210985124
 30
0.0
 10
296.8843917772402
 20
461.295137558988
 30
0.0
 10
296.8954683908382
 20
461.2931370555049
 30
0.0
 10
296.9070377534989
 20
461.2930113828921
 30
0.0
 10
296.918157099699
 20
461.294758816172
 30
0.0
 10
296.9257870564052
 20
461.2959578830984
 30
0.0
 10
296.9333275256078
 20
461.2980448739449
 30
0.0
 10
296.9404887230592
 20
461.3009381855245
 30
0.0
  0
LINE
  5
2C0
330
26F
100
AcDbEntity
  8
64647040_EINSATZ
  6
Continuous
 62
     7
100
AcDbLine
 10
297.0574745651
 20
461.3482035338
 30
0.0
 11
296.9404887231
 21
461.3009381855
 31
0.0
  0
LINE
  5
2C1
330
26F
100
AcDbEntity
  8
64647040_EINSATZ
  6
Continuous
 62
     7
100
AcDbLine
 10
300.3316749462
 20
462.6710663563
 30
0.0
 11
300.248953464
 21
462.6376447081
 31
0.0
  0
LINE
  5
2C2
330
26F
100
AcDbEntity
  8
64647040_EINSATZ
  6
Continuous
 62
     7
100
AcDbLine
 10
310.6275847689
 20
466.8308839436
 30
0.0
 11
310.5448632867
 21
466.7974622953
 31
0.0
  0
LINE
  5
2C3
330
26F
100
AcDbEntity
  8
64647040_EINSATZ
  6
Continuous
 62
     7
100
AcDbLine
 10
313.9360495098
 20
468.1675904662
 30
0.0
 11
313.8190636678
 21
468.1203251179
 31
0.0
  0
SPLINE
  5
2C4
330
26F
100
AcDbEntity
  8
64647040_EINSATZ
  6
Continuous
 62
     7
100
AcDbSpline
210
0.0
220
0.0
230
1.0
 70
     8
 71
     3
 72
    20
 73
    16
 74
     0
 42
0.0000000630965777
 43
0.0000000001
 40
0.0
 40
0.0
 40
0.0
 40
0.0
 40
0.2174093870011297
 40
0.2174093870011297
 40
0.2174093870011297
 40
0.4348768202247515
 40
0.4348768202247515
 40
0.4348768202247515
 40
0.6514121854905371
 40
0.6514121854905371
 40
0.6514121854905371
 40
0.8660380396115591
 40
0.8660380396115591
 40
0.8660380396115591
 40
1.0
 40
1.0
 40
1.0
 40
1.0
 10
313.9360495098321
 20
468.1675904661563
 30
0.0
 10
313.9465943444252
 20
468.171850855879
 30
0.0
 10
313.9565513088506
 20
468.1779852845768
 30
0.0
 10
313.9650948289291
 20
468.1854921295767
 30
0.0
 10
313.9736396220084
 20
468.1930000931108
 30
0.0
 10
313.9810066754867
 20
468.2020901849444
 30
0.0
 10
313.9865690345631
 20
468.2120120379317
 30
0.0
 10
313.9921072921036
 20
468.2218908998261
 30
0.0
 10
313.9960096245783
 20
468.2328708223965
 30
0.0
 10
313.9979313260947
 20
468.2440319725253
 30
0.0
 10
313.9998362722027
 20
468.2550958080471
 30
0.0
 10
313.9998471979393
 20
468.2666463988199
 30
0.0
 10
313.9979517392948
 20
468.2777118636839
 30
0.0
 10
313.9967581872795
 20
468.284679680115
 30
0.0
 10
313.994804499666
 20
468.2915580092904
 30
0.0
 10
313.9921562924869
 20
468.2981125520639
 30
0.0
  0
LINE
  5
2C5
330
26F
100
AcDbEntity
  8
64647040_EINSATZ
  6
Continuous
 62
     7
100
AcDbLine
 10
313.8985046441
 20
468.5299085157
 30
0.0
 11
313.9921562925
 21
468.2981125521
 31
0.0
  0
LINE
  5
2C6
330
26F
100
AcDbEntity
  8
64647040_EINSATZ
  6
Continuous
 62
     7
100
AcDbLine
 10
313.8190636678
 20
468.1203251179
 30
0.0
 11
312.2792852815
 21
467.4982142679
 31
0.0
  0
LINE
  5
2C7
330
26F
100
AcDbEntity
  8
64647040_EINSATZ
  6
Continuous
 62
     7
100
AcDbLine
 10
312.2666297464
 20
467.4931010998
 30
0.0
 11
310.6275847689
 21
466.8308839436
 31
0.0
  0
LINE
  5
2C8
330
26F
100
AcDbEntity
  8
64647040_EINSATZ
  6
Continuous
 62
     7
100
AcDbLine
 10
310.5448632867
 20
466.7974622953
 30
0.0
 11
306.5972489347
 21
465.2025225676
 31
0.0
  0
LINE
  5
2C9
330
26F
100
AcDbEntity
  8
64647040_EINSATZ
  6
Continuous
 62
     7
100
AcDbLine
 10
306.5972489347
 20
465.2025225676
 30
0.0
 11
304.2792892982
 21
464.2660060841
 31
0.0
  0
LINE
  5
2CA
330
26F
100
AcDbEntity
  8
64647040_EINSATZ
  6
Continuous
 62
     7
100
AcDbLine
 10
304.2792892982
 20
464.2660060841
 30
0.0
 11
300.3316749462
 21
462.6710663563
 31
0.0
  0
LINE
  5
2CB
330
26F
100
AcDbEntity
  8
64647040_EINSATZ
  6
Continuous
 62
     7
100
AcDbLine
 10
300.248953464
 20
462.6376447081
 30
0.0
 11
298.6099084865
 21
461.9754275519
 31
0.0
  0
LINE
  5
2CC
330
26F
100
AcDbEntity
  8
64647040_EINSATZ
  6
Continuous
 62
     7
100
AcDbLine
 10
298.5934303861
 20
461.9687699672
 30
0.0
 11
297.0574745651
 21
461.3482035338
 31
0.0
  0
ARC
  5
2CD
330
26F
100
AcDbEntity
  8
64647040_EINSATZ
  6
Continuous
 62
     7
100
AcDbCircle
 10
313.6835806793
 20
466.5556377977
 30
0.0
 40
0.099999999999999
100
AcDbArc
 50
292.0
 51
4.0955524938
  0
ARC
  5
2CE
330
26F
100
AcDbEntity
  8
64647040_EINSATZ
  6
Continuous
 62
     7
100
AcDbCircle
 10
298.2418560152
 20
460.3167760612
 30
0.0
 40
0.100000000000002
100
AcDbArc
 50
219.9044475062
 51
292.0
  0
LINE
  5
2CF
330
26F
100
AcDbEntity
  8
64647040_EINSATZ
  6
Continuous
 62
     7
100
AcDbLine
 10
297.2005971778
 20
461.4060288228
 30
0.0
 11
298.1651444794
 21
460.2526251433
 31
0.0
  0
LINE
  5
2D0
330
26F
100
AcDbEntity
  8
64647040_EINSATZ
  6
Continuous
 62
     7
100
AcDbLine
 10
313.7833253123
 20
466.5627797996
 30
0.0
 11
313.6759410551
 21
468.0624998289
 31
0.0
  0
LINE
  5
2D1
330
26F
100
AcDbEntity
  8
$DDT_AUDIT_GENERATED_(25E)
  6
Continuous
 62
     7
100
AcDbLine
 10
148.2230007647
 20
363.5398414388
 30
0.0
 11
197.0230007647
 21
363.5398414388
 31
0.0
  0
LINE
  5
2D2
330
26F
100
AcDbEntity
  8
$DDT_AUDIT_GENERATED_(25E)
  6
Continuous
 62
     7
100
AcDbLine
 10
147.2059250479
 20
363.5398414388
 30
0.0
 11
148.2230007647
 21
363.5398414388
 31
0.0
  0
LINE
  5
2D3
330
26F
100
AcDbEntity
  8
$DDT_AUDIT_GENERATED_(25E)
  6
Continuous
 62
     7
100
AcDbLine
 10
197.0230007647
 20
363.5398414388
 30
0.0
 11
198.0400764815
 21
363.5398414388
 31
0.0
  0
LINE
  5
2D4
330
26F
100
AcDbEntity
  8
$DDT_AUDIT_GENERATED_(25E)
  6
Continuous
 62
     7
100
AcDbLine
 10
198.540057443
 20
363.0442047065
 30
0.0
 11
198.6055470291
 21
355.5398414388
 31
0.0
  0
LINE
  5
2D5
330
26F
100
AcDbEntity
  8
$DDT_AUDIT_GENERATED_(25E)
  6
Continuous
 62
     7
100
AcDbLine
 10
146.7059440864
 20
363.0442047065
 30
0.0
 11
146.6404545003
 21
355.5398414388
 31
0.0
  0
ARC
  5
2D6
330
26F
100
AcDbEntity
  8
$DDT_AUDIT_GENERATED_(25E)
  6
Continuous
 62
     7
100
AcDbCircle
 10
198.0400764815
 20
363.0398414388
 30
0.0
 40
0.5000000000000004
100
AcDbArc
 50
0.5
 51
90.0
  0
ARC
  5
2D7
330
26F
100
AcDbEntity
  8
$DDT_AUDIT_GENERATED_(25E)
  6
Continuous
 62
     7
100
AcDbCircle
 10
147.2059250479
 20
363.0398414388
 30
0.0
 40
0.5000000000000014
100
AcDbArc
 50
90.0
 51
179.5
  0
LINE
  5
2D8
330
26F
100
AcDbEntity
  8
$DDT_AUDIT_GENERATED_(25E)
  6
Continuous
 62
     7
100
AcDbLine
 10
197.0230007647
 20
355.5398414388
 30
0.0
 11
148.2230007647
 21
355.5398414388
 31
0.0
  0
LINE
  5
2D9
330
26F
100
AcDbEntity
  8
$DDT_AUDIT_GENERATED_(25E)
  6
Continuous
 62
     7
100
AcDbLine
 10
198.6055470291
 20
355.5398414388
 30
0.0
 11
197.0230007647
 21
355.5398414388
 31
0.0
  0
LINE
  5
2DA
330
26F
100
AcDbEntity
  8
$DDT_AUDIT_GENERATED_(25E)
  6
Continuous
 62
     7
100
AcDbLine
 10
148.2230007647
 20
355.5398414388
 30
0.0
 11
146.6404545003
 21
355.5398414388
 31
0.0
  0
LINE
  5
2DC
330
26F
100
AcDbEntity
  8
$DDT_AUDIT_GENERATED_(2DB)
  6
Continuous
 62
     7
100
AcDbLine
 10
151.1230007647
 20
398.3221991328
 30
0.0
 11
147.2138945443
 21
410.3531909925
 31
0.0
  0
LINE
  5
2DD
330
26F
100
AcDbEntity
  8
$DDT_AUDIT_GENERATED_(2DB)
  6
Continuous
 62
     7
100
AcDbLine
 10
143.9327495631
 20
409.2870823619
 30
0.0
 11
151.1230007647
 21
387.1577646105
 31
0.0
  0
LINE
  5
2DF
330
26F
100
AcDbEntity
  8
$DDT_AUDIT_GENERATED_(2DE)
  6
Continuous
 62
     7
100
AcDbLine
 10
145.5733220537
 20
409.8201366772
 30
0.0
 11
143.0029904008
 21
408.9849852973
 31
0.0
  0
LINE
  5
2E0
330
26F
100
AcDbEntity
  8
$DDT_AUDIT_GENERATED_(2DE)
  6
Continuous
 62
     7
100
AcDbLine
 10
150.0217196345
 20
418.1689852018
 30
0.0
 11
149.9780856948
 21
413.1690309482
 31
0.0
  0
LINE
  5
2E1
330
26F
100
AcDbEntity
  8
$DDT_AUDIT_GENERATED_(2DE)
  6
Continuous
 62
     7
100
AcDbLine
 10
149.9780856948
 20
413.1690309482
 30
0.0
 11
149.971162143
 21
412.375670491
 31
0.0
  0
LINE
  5
2E2
330
26F
100
AcDbEntity
  8
$DDT_AUDIT_GENERATED_(2DE)
  6
Continuous
 62
     7
100
AcDbLine
 10
149.971162143
 20
412.375670491
 30
0.0
 11
149.9644436964
 21
411.6058127697
 31
0.0
  0
LINE
  5
2E3
330
26F
100
AcDbEntity
  8
$DDT_AUDIT_GENERATED_(2DE)
  6
Continuous
 62
     7
100
AcDbLine
 10
149.5558828103
 20
411.1141491084
 30
0.0
 11
145.5733220537
 21
409.8201366772
 31
0.0
  0
LINE
  5
2E4
330
26F
100
AcDbEntity
  8
$DDT_AUDIT_GENERATED_(2DE)
  6
Continuous
 62
     7
100
AcDbLine
 10
149.6189712321
 20
411.1346477793
 30
0.0
 11
149.5558828103
 21
411.1141491084
 31
0.0
  0
LINE
  5
2E5
330
26F
100
AcDbEntity
  8
$DDT_AUDIT_GENERATED_(2DE)
  6
Continuous
 62
     7
100
AcDbLine
 10
135.0743740552
 20
413.1690309482
 30
0.0
 11
135.0307401155
 21
418.1689852018
 31
0.0
  0
LINE
  5
2E6
330
26F
100
AcDbEntity
  8
$DDT_AUDIT_GENERATED_(2DE)
  6
Continuous
 62
     7
100
AcDbLine
 10
149.4781047333
 20
412.673394216
 30
0.0
 11
135.5743550168
 21
412.673394216
 31
0.0
  0
LINE
  5
2E7
330
26F
100
AcDbEntity
  8
$DDT_AUDIT_GENERATED_(2DE)
  6
Continuous
 62
     7
100
AcDbLine
 10
135.530721077
 20
418.6733484696
 30
0.0
 11
149.521738673
 21
418.6733484696
 31
0.0
  0
ARC
  5
2E8
330
26F
100
AcDbEntity
  8
$DDT_AUDIT_GENERATED_(2DE)
  6
Continuous
 62
     7
100
AcDbCircle
 10
135.530721077
 20
418.1733484696
 30
0.0
 40
0.5000000000000004
100
AcDbArc
 50
90.0
 51
180.5
  0
ARC
  5
2E9
330
26F
100
AcDbEntity
  8
$DDT_AUDIT_GENERATED_(2DE)
  6
Continuous
 62
     7
100
AcDbCircle
 10
135.5743550168
 20
413.173394216
 30
0.0
 40
0.5000000000000009
100
AcDbArc
 50
180.5
 51
270.0
  0
ARC
  5
2EA
330
26F
100
AcDbEntity
  8
$DDT_AUDIT_GENERATED_(2DE)
  6
Continuous
 62
     7
100
AcDbCircle
 10
149.521738673
 20
418.1733484696
 30
0.0
 40
0.4999999999999987
100
AcDbArc
 50
359.5
 51
90.0
  0
ARC
  5
2EB
330
26F
100
AcDbEntity
  8
$DDT_AUDIT_GENERATED_(2DE)
  6
Continuous
 62
     7
100
AcDbCircle
 10
149.4781047333
 20
413.173394216
 30
0.0
 40
0.5000000000000021
100
AcDbArc
 50
270.0
 51
359.5
  0
ARC
  5
2EC
330
26F
100
AcDbEntity
  8
$DDT_AUDIT_GENERATED_(2DE)
  6
Continuous
 62
     7
100
AcDbCircle
 10
149.4644627349
 20
411.6101760374
 30
0.0
 40
0.4999999999999951
100
AcDbArc
 50
288.0
 51
359.5
  0
LINE
  5
2ED
330
26F
100
AcDbEntity
  8
$DDT_AUDIT_GENERATED_(2DE)
  6
Continuous
 62
     7
100
AcDbLine
 10
141.5243734033
 20
412.4668927136
 30
0.0
 11
142.6257882059
 21
409.1751108553
 31
0.0
  0
ARC
  5
2EE
330
26F
100
AcDbEntity
  8
$DDT_AUDIT_GENERATED_(2DE)
  6
Continuous
 62
     7
100
AcDbCircle
 10
142.9102853024
 20
409.2703022522
 30
0.0
 40
0.2999999999999945
100
AcDbArc
 50
198.5
 51
288.0
  0
ARC
  5
2EF
330
26F
100
AcDbEntity
  8
$DDT_AUDIT_GENERATED_(2DE)
  6
Continuous
 62
     7
100
AcDbCircle
 10
141.2393098705
 20
412.373394216
 30
0.0
 40
0.2999999999999979
100
AcDbArc
 50
18.2771948912
 51
90.0
  0
LINE
  5
2F1
330
26F
100
AcDbEntity
  8
DV2_Default
  6
CENTER2
 62
     7
100
AcDbLine
 10
192.6230003177
 20
355.5398414388
 30
0.0
 11
152.6230012117
 21
355.5398414388
 31
0.0
  0
LINE
  5
2F2
330
26F
100
AcDbEntity
  8
DV2_Default
  6
CENTER2
 62
     7
100
AcDbLine
 10
172.6230007647
 20
375.5398409917
 30
0.0
 11
172.6230007647
 21
335.5398418858
 31
0.0
  0
ENDBLK
  5
2F4
330
26F
100
AcDbEntity
  8
0
100
AcDbBlockEnd
  0
BLOCK
  5
355
330
2F5
100
AcDbEntity
  8
0
100
AcDbBlockBegin
  2
SE2
 70
     0
 10
0.0
 20
0.0
 30
0.0
  3
SE2
  1

  0
LINE
  5
2F7
330
2F5
100
AcDbEntity
  8
$DDT_AUDIT_GENERATED_(60)
  6
Continuous
 62
     7
100
AcDbLine
 10
12.1569950025
 20
272.85
 30
0.0
 11
54.1569950025
 21
272.85
 31
0.0
  0
LINE
  5
2F8
330
2F5
100
AcDbEntity
  8
$DDT_AUDIT_GENERATED_(60)
  6
Continuous
 62
     7
100
AcDbLine
 10
54.6569950025
 20
272.35
 30
0.0
 11
54.6569950025
 21
106.85
 31
0.0
  0
ARC
  5
2F9
330
2F5
100
AcDbEntity
  8
$DDT_AUDIT_GENERATED_(60)
  6
Continuous
 62
     7
100
AcDbCircle
 10
12.1569950025
 20
272.35
 30
0.0
 40
0.499999999999997
100
AcDbArc
 50
90.0
 51
180.0
  0
ARC
  5
2FA
330
2F5
100
AcDbEntity
  8
$DDT_AUDIT_GENERATED_(60)
  6
Continuous
 62
     7
100
AcDbCircle
 10
54.1569950025
 20
272.35
 30
0.0
 40
0.499999999999997
100
AcDbArc
 50
0.0
 51
90.0
  0
LINE
  5
2FB
330
2F5
100
AcDbEntity
  8
$DDT_AUDIT_GENERATED_(60)
  6
Continuous
 62
     7
100
AcDbLine
 10
11.6569950025
 20
106.85
 30
0.0
 11
11.6569950025
 21
272.35
 31
0.0
  0
LINE
  5
2FC
330
2F5
100
AcDbEntity
  8
$DDT_AUDIT_GENERATED_(60)
  6
Continuous
 62
     7
100
AcDbLine
 10
54.1569950025
 20
106.35
 30
0.0
 11
12.1569950025
 21
106.35
 31
0.0
  0
ARC
  5
2FD
330
2F5
100
AcDbEntity
  8
$DDT_AUDIT_GENERATED_(60)
  6
Continuous
 62
     7
100
AcDbCircle
 10
12.1569950025
 20
106.85
 30
0.0
 40
0.5000000000000004
100
AcDbArc
 50
180.0
 51
270.0
  0
ARC
  5
2FE
330
2F5
100
AcDbEntity
  8
$DDT_AUDIT_GENERATED_(60)
  6
Continuous
 62
     7
100
AcDbCircle
 10
54.1569950025
 20
106.85
 30
0.0
 40
0.499999999999997
100
AcDbArc
 50
270.0
 51
0.0
  0
LINE
  5
2FF
330
2F5
100
AcDbEntity
  8
$DDT_AUDIT_GENERATED_(75)
  6
Continuous
 62
     7
100
AcDbLine
 10
52.2756419213
 20
269.6878200969
 30
0.0
 11
53.7125302121
 21
271.553269533
 31
0.0
  0
LINE
  5
300
330
2F5
100
AcDbEntity
  8
$DDT_AUDIT_GENERATED_(75)
  6
Continuous
 62
     7
100
AcDbLine
 10
51.2236602971
 20
171.477839141
 30
0.0
 11
52.2756404047
 21
269.6878177181
 31
0.0
  0
SPLINE
  5
301
330
2F5
100
AcDbEntity
  8
$DDT_AUDIT_GENERATED_(75)
  6
Continuous
 62
     7
100
AcDbSpline
210
0.0
220
0.0
230
1.0
 70
     8
 71
     3
 72
    21
 73
    17
 74
     0
 42
0.0000000030857576
 43
0.0000000001
 40
0.0
 40
0.0
 40
0.0
 40
0.0
 40
0.0245092659982817
 40
0.0664258569518406
 40
0.1257658495437002
 40
0.1883842525541967
 40
0.2507600215727364
 40
0.3755008633039065
 40
0.4999200187471216
 40
0.6243563079246218
 40
0.6912461293372899
 40
0.7491978253736934
 40
0.8117039390820323
 40
0.8743018996328398
 40
0.9370400289084887
 40
1.0
 40
1.0
 40
1.0
 40
1.0
 10
52.43710203047829
 20
232.3163103885963
 30
0.0
 10
52.43314168392649
 20
232.3184431822152
 30
0.0
 10
52.42277519945743
 20
232.3242227135549
 30
0.0
 10
52.40308055330632
 20
232.3217170050529
 30
0.0
 10
52.37744726585358
 20
232.2964478360081
 30
0.0
 10
52.34889088994714
 20
232.2369819286933
 30
0.0
 10
52.31098062567507
 20
232.1145879411914
 30
0.0
 10
52.26560312639181
 20
231.8865894046991
 30
0.0
 10
52.21665250219157
 20
231.4983017438404
 30
0.0
 10
52.18111806044627
 20
231.0886455443587
 30
0.0
 10
52.15753400404764
 20
230.7243070155227
 30
0.0
 10
52.14213141529341
 20
230.4330904339652
 30
0.0
 10
52.12937209643832
 20
230.1345159329335
 30
0.0
 10
52.11889818388384
 20
229.8159626381855
 30
0.0
 10
52.11089677479332
 20
229.4874613783899
 30
0.0
 10
52.10797443313224
 20
229.2633005931481
 30
0.0
 10
52.10775998712828
 20
229.1510194954941
 30
0.0
  0
LINE
  5
302
330
2F5
100
AcDbEntity
  8
$DDT_AUDIT_GENERATED_(75)
  6
Continuous
 62
     7
100
AcDbLine
 10
54.6280662081
 20
230.7834858201
 30
0.0
 11
52.4373726847
 21
232.3163098615
 31
0.0
  0
SPLINE
  5
303
330
2F5
100
AcDbEntity
  8
$DDT_AUDIT_GENERATED_(75)
  6
Continuous
 62
     7
100
AcDbSpline
210
0.0
220
0.0
230
1.0
 70
     8
 71
     3
 72
     8
 73
     4
 74
     0
 42
0.0000000455763585
 43
0.0000000001
 40
0.0656754176058766
 40
0.0656754176058766
 40
0.0656754176058766
 40
0.0656754176058766
 40
0.1494699047580192
 40
0.1494699047580192
 40
0.1494699047580192
 40
0.1494699047580192
 10
53.71371649914234
 20
271.5669132966088
 30
0.0
 10
53.7134233537527
 20
271.5728164631705
 30
0.0
 10
53.71231868682089
 20
271.5788263951818
 30
0.0
 10
53.71030510410684
 20
271.5848639348796
 30
0.0
  0
SPLINE
  5
304
330
2F5
100
AcDbEntity
  8
$DDT_AUDIT_GENERATED_(75)
  6
Continuous
 62
     7
100
AcDbSpline
210
0.0
220
0.0
230
1.0
 70
     8
 71
     3
 72
     8
 73
     4
 74
     0
 42
0.0000000994292115
 43
0.0000000001
 40
0.8524508200141568
 40
0.8524508200141568
 40
0.8524508200141568
 40
0.8524508200141568
 40
0.941205997594589
 40
0.941205997594589
 40
0.941205997594589
 40
0.941205997594589
 10
14.21034325304353
 20
229.1402027645234
 30
0.0
 10
14.20704297991189
 20
229.1424036365423
 30
0.0
 10
14.2053693612774
 20
229.1446053550762
 30
0.0
 10
14.20507326306864
 20
229.1467793311721
 30
0.0
  0
SPLINE
  5
305
330
2F5
100
AcDbEntity
  8
$DDT_AUDIT_GENERATED_(75)
  6
Continuous
 62
     7
100
AcDbSpline
210
0.0
220
0.0
230
1.0
 70
     8
 71
     3
 72
    21
 73
    17
 74
     0
 42
0.0000000030827602
 43
0.0000000001
 40
0.0
 40
0.0
 40
0.0
 40
0.0
 40
0.0258382251456045
 40
0.067755032796243
 40
0.1257664098178701
 40
0.1870372532340875
 40
0.2507669560776712
 40
0.3755337729871872
 40
0.4999217537011819
 40
0.6243588362952821
 40
0.691569667261591
 40
0.7492014089298159
 40
0.8117181931646804
 40
0.8743200938116962
 40
0.9370539584322174
 40
1.0
 40
1.0
 40
1.0
 40
1.0
 10
14.20622583034829
 20
229.1510548140743
 30
0.0
 10
14.20692518378091
 20
229.1971712740812
 30
0.0
 10
14.20548325113072
 20
229.3180939023205
 30
0.0
 10
14.20162555712508
 20
229.5407946835917
 30
0.0
 10
14.1948745238276
 20
229.8219464444977
 30
0.0
 10
14.18468181739613
 20
230.1325088469345
 30
0.0
 10
14.1673286461521
 20
230.5399767680576
 30
0.0
 10
14.13942079682209
 20
231.0144079478167
 30
0.0
 10
14.09734536107162
 20
231.4983002131067
 30
0.0
 10
14.05585997441657
 20
231.8261485112995
 30
0.0
 10
14.02047009949201
 20
232.0265060792344
 30
0.0
 10
13.99281149574557
 20
232.1475521668977
 30
0.0
 10
13.96505831149207
 20
232.2372386458669
 30
0.0
 10
13.935973698118
 20
232.2975779160161
 30
0.0
 10
13.90649794049004
 20
232.3281196666813
 30
0.0
 10
13.88685124950872
 20
232.3202475151231
 30
0.0
 10
13.87687599812829
 20
232.3163044958556
 30
0.0
  0
LINE
  5
306
330
2F5
100
AcDbEntity
  8
$DDT_AUDIT_GENERATED_(75)
  6
Continuous
 62
     7
100
AcDbLine
 10
13.8766053694
 20
232.3163039702
 30
0.0
 11
11.6859236065
 21
230.7835425148
 31
0.0
  0
ARC
  5
307
330
2F5
100
AcDbEntity
  8
$DDT_AUDIT_GENERATED_(75)
  6
Continuous
 62
     7
100
AcDbCircle
 10
12.1860934198
 20
230.7850863755
 30
0.0
 40
0.5003698020362319
100
AcDbArc
 50
180.1767966015
 51
268.1422755474
  0
ARC
  5
308
330
2F5
100
AcDbEntity
  8
$DDT_AUDIT_GENERATED_(75)
  6
Continuous
 62
     7
100
AcDbCircle
 10
11.8896612352
 20
228.6049148032
 30
0.0
 40
2.188920492979681
100
AcDbArc
 50
95.3114180162
 51
95.3739022276
  0
ARC
  5
309
330
2F5
100
AcDbEntity
  8
$DDT_AUDIT_GENERATED_(75)
  6
Continuous
 62
     7
100
AcDbCircle
 10
33.1569920194
 20
995.7822615144
 30
0.0
 40
765.7849227139637
100
AcDbArc
 50
268.4295538975
 51
268.5801248014
  0
ARC
  5
30A
330
2F5
100
AcDbEntity
  8
$DDT_AUDIT_GENERATED_(75)
  6
Continuous
 62
     7
100
AcDbCircle
 10
33.1569920194
 20
995.7822615144
 30
0.0
 40
765.7849227139637
100
AcDbArc
 50
271.4199295285
 51
271.5704513935
  0
ARC
  5
30B
330
2F5
100
AcDbEntity
  8
$DDT_AUDIT_GENERATED_(75)
  6
Continuous
 62
     7
100
AcDbCircle
 10
33.1578770895
 20
731.9097749194
 30
0.0
 40
561.4990994983467
100
AcDbArc
 50
268.1786698264
 51
271.8211469882
  0
SPLINE
  5
30C
330
2F5
100
AcDbEntity
  8
$DDT_AUDIT_GENERATED_(75)
  6
Continuous
 62
     7
100
AcDbSpline
210
0.0
220
0.0
230
1.0
 70
     8
 71
     3
 72
     8
 73
     4
 74
     0
 42
0.0000000431882362
 43
0.0000000001
 40
0.0596673455120255
 40
0.0596673455120255
 40
0.0596673455120255
 40
0.0596673455120255
 40
0.1394600044316583
 40
0.1394600044316583
 40
0.1394600044316583
 40
0.1394600044316583
 10
12.6002007402849
 20
271.5673621358861
 30
0.0
 10
12.60049293378107
 20
271.57342528969
 30
0.0
 10
12.60167076450771
 20
271.5794471354863
 30
0.0
 10
12.60369694938278
 20
271.5853801020076
 30
0.0
  0
ARC
  5
30D
330
2F5
100
AcDbEntity
  8
$DDT_AUDIT_GENERATED_(75)
  6
Continuous
 62
     7
100
AcDbCircle
 10
13.1067170689
 20
271.5350813044
 30
0.0
 40
0.5060136082560749
100
AcDbArc
 50
104.677386129
 51
177.8900858107
  0
LINE
  5
30E
330
2F5
100
AcDbEntity
  8
$DDT_AUDIT_GENERATED_(75)
  6
Continuous
 62
     7
100
AcDbLine
 10
12.601184724
 20
271.5537113689
 30
0.0
 11
14.0380676449
 21
269.6890575943
 31
0.0
  0
ARC
  5
30F
330
2F5
100
AcDbEntity
  8
$DDT_AUDIT_GENERATED_(75)
  6
Continuous
 62
     7
100
AcDbCircle
 10
33.1570607103
 20
-468.2767185712
 30
0.0
 40
740.5894652848241
100
AcDbArc
 50
88.447552003
 51
91.5524643266
  0
LINE
  5
310
330
2F5
100
AcDbEntity
  8
$DDT_AUDIT_GENERATED_(75)
  6
Continuous
 62
     7
100
AcDbLine
 10
14.0383547057
 20
269.6890577349
 30
0.0
 11
15.0903327593
 21
171.4778507596
 31
0.0
  0
SPLINE
  5
311
330
2F5
100
AcDbEntity
  8
$DDT_AUDIT_GENERATED_(75)
  6
Continuous
 62
     7
100
AcDbSpline
210
0.0
220
0.0
230
1.0
 70
     8
 71
     3
 72
    17
 73
    13
 74
     0
 42
0.0000000198614112
 43
0.0000000001
 40
0.0
 40
0.0
 40
0.0
 40
0.0
 40
0.2313240360337039
 40
0.4951596867029269
 40
0.7027442327416124
 40
0.8429439985507099
 40
0.920001028747002
 40
0.959848964308726
 40
0.9759906534894416
 40
0.9881638408935375
 40
0.9942705877246951
 40
1.0
 40
1.0
 40
1.0
 40
1.0
 10
14.0382118581289
 20
269.6890576331267
 30
0.0
 10
14.04877444558501
 20
269.6944708670159
 30
0.0
 10
14.07169365160476
 20
269.7060579943744
 30
0.0
 10
14.17970699131817
 20
269.7203055385564
 30
0.0
 10
14.3057624736394
 20
269.7298060213754
 30
0.0
 10
14.40534539983244
 20
269.7342876658728
 30
0.0
 10
14.46779114439392
 20
269.7360884197222
 30
0.0
 10
14.50043893750982
 20
269.7367666015231
 30
0.0
 10
14.51720379950456
 20
269.7370413474063
 30
0.0
 10
14.52567617678514
 20
269.7371769738858
 30
0.0
 10
14.53158752134354
 20
269.7372372206322
 30
0.0
 10
14.53450109237045
 20
269.7373120600831
 30
0.0
 10
14.53620034836185
 20
269.7373038433469
 30
0.0
  0
ARC
  5
312
330
2F5
100
AcDbEntity
  8
$DDT_AUDIT_GENERATED_(75)
  6
Continuous
 62
     7
100
AcDbCircle
 10
33.1572707817
 20
-317.6546307043
 30
0.0
 40
587.687016221779
100
AcDbArc
 50
88.1843128546
 51
91.8157408955
  0
ARC
  5
313
330
2F5
100
AcDbEntity
  8
$DDT_AUDIT_GENERATED_(75)
  6
Continuous
 62
     7
100
AcDbCircle
 10
30.6239681382
 20
183.9169869601
 30
0.0
 40
12.24342118168002
100
AcDbArc
 50
1.5081045324
 51
1.5329623921
  0
ARC
  5
314
330
2F5
100
AcDbEntity
  8
$DDT_AUDIT_GENERATED_(75)
  6
Continuous
 62
     7
100
AcDbCircle
 10
33.1569925036
 20
-28036.6999106759
 30
0.0
 40
28220.94610801942
100
AcDbArc
 50
89.9802946519
 51
90.0197053375
  0
SPLINE
  5
315
330
2F5
100
AcDbEntity
  8
$DDT_AUDIT_GENERATED_(75)
  6
Continuous
 62
     7
100
AcDbSpline
210
0.0
220
0.0
230
1.0
 70
    12
 71
     3
 72
     8
 73
     4
 74
     0
 42
0.0000000971740907
 43
0.0000000001
 40
0.0
 40
0.0
 40
0.0
 40
0.0
 40
0.1378209943912003
 40
0.1378209943912003
 40
0.1378209943912003
 40
0.1378209943912003
 10
21.62339722581687
 20
205.0753955583654
 30
0.0
 41
1.193142678023212
 10
21.62524697473178
 20
205.0720043863348
 30
0.0
 41
1.158033384120515
 10
21.62355643930876
 20
205.0685666135775
 30
0.0
 41
1.127710690974425
 10
21.61805635340594
 20
205.0651231598095
 30
0.0
 41
1.102174598584941
  0
LINE
  5
316
330
2F5
100
AcDbEntity
  8
$DDT_AUDIT_GENERATED_(75)
  6
Continuous
 62
     7
100
AcDbLine
 10
21.6230758977
 20
205.0753930247
 30
0.0
 11
21.6195980577
 21
186.0939987962
 31
0.0
  0
ARC
  5
317
330
2F5
100
AcDbEntity
  8
$DDT_AUDIT_GENERATED_(75)
  6
Continuous
 62
     7
100
AcDbCircle
 10
23.6124348643
 20
186.0981429931
 30
0.0
 40
1.992513402171965
100
AcDbArc
 50
180.1191190634
 51
224.4409050759
  0
SPLINE
  5
318
330
2F5
100
AcDbEntity
  8
$DDT_AUDIT_GENERATED_(75)
  6
Continuous
 62
     7
100
AcDbSpline
210
0.0
220
0.0
230
1.0
 70
     8
 71
     3
 72
     8
 73
     4
 74
     0
 42
0.0000000956099299
 43
0.0000000001
 40
0.0379488967737705
 40
0.0379488967737705
 40
0.0379488967737705
 40
0.0379488967737705
 40
0.1374803135918126
 40
0.1374803135918126
 40
0.1374803135918126
 40
0.1374803135918126
 10
44.69327807987977
 20
186.0912194943285
 30
0.0
 10
44.69329553733328
 20
186.0887468890481
 30
0.0
 10
44.69519567999782
 20
186.0861997539426
 30
0.0
 10
44.6991977124847
 20
186.0836232592797
 30
0.0
  0
LINE
  5
319
330
2F5
100
AcDbEntity
  8
$DDT_AUDIT_GENERATED_(75)
  6
Continuous
 62
     7
100
AcDbLine
 10
44.694394832
 20
186.0940109904
 30
0.0
 11
44.6909145078
 21
205.075393648
 31
0.0
  0
SPLINE
  5
31A
330
2F5
100
AcDbEntity
  8
$DDT_AUDIT_GENERATED_(75)
  6
Continuous
 62
     7
100
AcDbSpline
210
0.0
220
0.0
230
1.0
 70
    12
 71
     3
 72
     8
 73
     4
 74
     0
 42
0.0000000973595558
 43
0.0000000001
 40
0.8626063685518471
 40
0.8626063685518471
 40
0.8626063685518471
 40
0.8626063685518471
 40
1.0
 40
1.0
 40
1.0
 40
1.0
 10
44.69588035815028
 20
205.0651562145013
 30
0.0
 41
1.10241715326429
 10
44.69042222840385
 20
205.0685887844045
 30
0.0
 41
1.127904518215427
 10
44.68874882326057
 20
205.072015488509
 30
0.0
 41
1.158148941077134
 10
44.69059317770949
 20
205.0753958068451
 30
0.0
 41
1.193150421849409
  0
ARC
  5
31B
330
2F5
100
AcDbEntity
  8
$DDT_AUDIT_GENERATED_(75)
  6
Continuous
 62
     7
100
AcDbCircle
 10
42.7077827078
 20
205.074022976
 30
0.0
 40
1.982810945112919
100
AcDbArc
 50
0.0396696503
 51
90.4949946277
  0
SPLINE
  5
31C
330
2F5
100
AcDbEntity
  8
$DDT_AUDIT_GENERATED_(75)
  6
Continuous
 62
     7
100
AcDbSpline
210
0.0
220
0.0
230
1.0
 70
    11
 71
     3
 72
    22
 73
    18
 74
     0
 42
0.0000000007422794
 43
0.0000000001
 40
0.0
 40
0.0
 40
0.0
 40
0.0
 40
0.125
 40
0.125
 40
0.25
 40
0.25
 40
0.375
 40
0.375
 40
0.5
 40
0.5
 40
0.625
 40
0.625
 40
0.75
 40
0.75
 40
0.875
 40
0.875
 40
1.0
 40
1.0
 40
1.0
 40
1.0
 10
33.15699500254816
 20
271.4222193817013
 30
0.0
 10
32.29813292581756
 20
271.4222193816998
 30
0.0
 10
31.45829239110368
 20
271.3804193281065
 30
0.0
 10
30.25906802292279
 20
271.2403831066032
 30
0.0
 10
29.90745765330081
 20
271.142309856073
 30
0.0
 10
29.90653331763929
 20
270.9502280416336
 30
0.0
 10
30.25130105602301
 20
270.8565919468116
 30
0.0
 10
31.46406924502776
 20
270.7235392252443
 30
0.0
 10
32.30745330925107
 20
270.6864000921001
 30
0.0
 10
34.00424073826257
 20
270.6863353647396
 30
0.0
 10
34.8529974863846
 20
270.7240756479493
 30
0.0
 10
36.05279401802569
 20
270.8553086271259
 30
0.0
 10
36.40613217226005
 20
270.9486010145898
 30
0.0
 10
36.40785455231494
 20
271.142795712727
 30
0.0
 10
36.05656895814118
 20
271.2400928647907
 30
0.0
 10
34.8573032749131
 20
271.3803294868254
 30
0.0
 10
34.01585707927875
 20
271.4222193817027
 30
0.0
 10
33.15699500254816
 20
271.4222193817013
 30
0.0
  0
LINE
  5
31D
330
2F5
100
AcDbEntity
  8
$DDT_AUDIT_GENERATED_(75)
  6
Continuous
 62
     7
100
AcDbLine
 10
54.6293224171
 20
250.3966511861
 30
0.0
 11
53.7139624121
 21
271.5669560886
 31
0.0
  0
ARC
  5
31E
330
2F5
100
AcDbEntity
  8
$DDT_AUDIT_GENERATED_(75)
  6
Continuous
 62
     7
100
AcDbCircle
 10
53.2128609539
 20
271.6044815811
 30
0.0
 40
0.4384876634004987
100
AcDbArc
 50
68.6812883471
 51
89.5690269552
  0
ARC
  5
31F
330
2F5
100
AcDbEntity
  8
$DDT_AUDIT_GENERATED_(75)
  6
Continuous
 62
     7
100
AcDbCircle
 10
53.2252346832
 20
271.5493772575
 30
0.0
 40
0.4863479073969649
100
AcDbArc
 50
3.6445539469
 51
72.401989698
  0
ARC
  5
320
330
2F5
100
AcDbEntity
  8
$DDT_AUDIT_GENERATED_(75)
  6
Continuous
 62
     7
100
AcDbCircle
 10
15.3278655082
 20
171.19160697
 30
0.0
 40
0.5000000000000002
100
AcDbArc
 50
180.5742841427
 51
268.127294496
  0
LINE
  5
321
330
2F5
100
AcDbEntity
  8
$DDT_AUDIT_GENERATED_(75)
  6
Continuous
 62
     7
100
AcDbLine
 10
14.2018308647
 20
229.1466835407
 30
0.0
 11
14.831667122
 21
171.186289395
 31
0.0
  0
SPLINE
  5
322
330
2F5
100
AcDbEntity
  8
$DDT_AUDIT_GENERATED_(75)
  6
Continuous
 62
     7
100
AcDbSpline
210
0.0
220
0.0
230
1.0
 70
     8
 71
     3
 72
    19
 73
    15
 74
     0
 42
0.0000000029999521
 43
0.0000000001
 40
0.150336613570168
 40
0.150336613570168
 40
0.150336613570168
 40
0.150336613570168
 40
0.1553890148018227
 40
0.1911420497329021
 40
0.2328119016322398
 40
0.3348791755596662
 40
0.395433855292772
 40
0.4623604113058256
 40
0.5357478656489945
 40
0.6156688885248236
 40
0.7021275491550458
 40
0.7950574914470335
 40
0.8943611655099416
 40
1.0
 40
1.0
 40
1.0
 40
1.0
 10
14.04407785183004
 20
231.932472403257
 30
0.0
 10
14.04359204604144
 20
231.9322485446614
 30
0.0
 10
14.04050344831253
 20
231.9289249709327
 30
0.0
 10
14.0468617448721
 20
231.8964264111631
 30
0.0
 10
14.05814065136649
 20
231.8164496567524
 30
0.0
 10
14.07741559978943
 20
231.6829499665087
 30
0.0
 10
14.09883201531128
 20
231.4942244239274
 30
0.0
 10
14.11756279344932
 20
231.3024822351888
 30
0.0
 10
14.13701852996314
 20
231.0635758886979
 30
0.0
 10
14.15642655858346
 20
230.7743796719189
 30
0.0
 10
14.17481908557614
 20
230.4321140847112
 30
0.0
 10
14.19092378137125
 20
230.0395753274832
 30
0.0
 10
14.2040951596485
 20
229.5856245995913
 30
0.0
 10
14.20810662671621
 20
229.2898510770917
 30
0.0
 10
14.21040621061599
 20
229.1091547094804
 30
0.0
  0
ARC
  5
323
330
2F5
100
AcDbEntity
  8
$DDT_AUDIT_GENERATED_(75)
  6
Continuous
 62
     7
100
AcDbCircle
 10
12.184134523
 20
230.7841252233
 30
0.0
 40
0.4972374696424648
100
AcDbArc
 50
179.2761595896
 51
268.9008346941
  0
ARC
  5
324
330
2F5
100
AcDbEntity
  8
$DDT_AUDIT_GENERATED_(75)
  6
Continuous
 62
     7
100
AcDbCircle
 10
33.1570100853
 20
990.7422494699
 30
0.0
 40
760.7423064525883
100
AcDbArc
 50
268.419155222
 51
268.5706848459
  0
ARC
  5
325
330
2F5
100
AcDbEntity
  8
$DDT_AUDIT_GENERATED_(75)
  6
Continuous
 62
     7
100
AcDbCircle
 10
33.1570100853
 20
990.7422494699
 30
0.0
 40
760.7423064525883
100
AcDbArc
 50
271.4293669796
 51
271.580856487
  0
ARC
  5
326
330
2F5
100
AcDbEntity
  8
$DDT_AUDIT_GENERATED_(75)
  6
Continuous
 62
     7
100
AcDbCircle
 10
50.9861244969
 20
171.19160697
 30
0.0
 40
0.4999999999999969
100
AcDbArc
 50
271.8190554432
 51
359.3576546533
  0
LINE
  5
327
330
2F5
100
AcDbEntity
  8
$DDT_AUDIT_GENERATED_(75)
  6
Continuous
 62
     7
100
AcDbLine
 10
51.4823227943
 20
171.1862578203
 30
0.0
 11
52.1121588976
 21
229.1466848274
 31
0.0
  0
SPLINE
  5
328
330
2F5
100
AcDbEntity
  8
$DDT_AUDIT_GENERATED_(75)
  6
Continuous
 62
     7
100
AcDbSpline
210
0.0
220
0.0
230
1.0
 70
     8
 71
     3
 72
    12
 73
     8
 74
     0
 42
0.00000000241711
 43
0.0000000001
 40
0.0
 40
0.0
 40
0.0
 40
0.0
 40
0.1034702196999621
 40
0.1998167209971329
 40
0.2892701801098939
 40
0.41064704862905
 40
0.4510851267624603
 40
0.4510851267624603
 40
0.4510851267624603
 40
0.4510851267624603
 10
52.10356921930899
 20
229.1087929165833
 30
0.0
 10
52.10577809034162
 20
229.2797213980066
 30
0.0
 10
52.10960684639144
 20
229.5580855461317
 30
0.0
 10
52.12185874385421
 20
229.9860269124742
 30
0.0
 10
52.1388976780326
 20
230.4094550474682
 30
0.0
 10
52.15694510601096
 20
230.7341453402858
 30
0.0
 10
52.17016097524004
 20
230.9263999602324
 30
0.0
 10
52.17357102617014
 20
230.9733725623872
 30
0.0
  0
SPLINE
  5
329
330
2F5
100
AcDbEntity
  8
$DDT_AUDIT_GENERATED_(75)
  6
Continuous
 62
     7
100
AcDbSpline
210
0.0
220
0.0
230
1.0
 70
     8
 71
     3
 72
    10
 73
     6
 74
     0
 42
0.0000000070512763
 43
0.0000000001
 40
0.6139088682290413
 40
0.6139088682290413
 40
0.6139088682290413
 40
0.6139088682290413
 40
0.6635082726476846
 40
0.7208414016703804
 40
0.7882585046396703
 40
0.7882585046396703
 40
0.7882585046396703
 40
0.7882585046396703
 10
52.21726231070218
 20
231.4746142276088
 30
0.0
 10
52.22065167193837
 20
231.5138657596768
 30
0.0
 10
52.22548000865971
 20
231.5851726945595
 30
0.0
 10
52.22088012920585
 20
231.6649134548919
 30
0.0
 10
52.20193675665741
 20
231.69569229607
 30
0.0
 10
52.1853792135463
 20
231.707570131823
 30
0.0
  0
ARC
  5
32A
330
2F5
100
AcDbEntity
  8
$DDT_AUDIT_GENERATED_(75)
  6
Continuous
 62
     7
100
AcDbCircle
 10
54.1298555499
 20
230.7841244316
 30
0.0
 40
0.4972357375875843
100
AcDbArc
 50
271.1177187356
 51
0.7240590595
  0
LINE
  5
32B
330
2F5
100
AcDbEntity
  8
$DDT_AUDIT_GENERATED_(75)
  6
Continuous
 62
     7
100
AcDbLine
 10
54.6296024522
 20
230.7782256942
 30
0.0
 11
54.6296024522
 21
250.3836919175
 31
0.0
  0
LINE
  5
32C
330
2F5
100
AcDbEntity
  8
$DDT_AUDIT_GENERATED_(75)
  6
Continuous
 62
     7
100
AcDbLine
 10
12.6000462039
 20
271.5673865175
 30
0.0
 11
11.684667588
 21
250.3966511861
 31
0.0
  0
ARC
  5
32D
330
2F5
100
AcDbEntity
  8
$DDT_AUDIT_GENERATED_(75)
  6
Continuous
 62
     7
100
AcDbCircle
 10
13.0914515712
 20
271.548635123
 30
0.0
 40
0.4890918304720694
100
AcDbArc
 50
103.3004864966
 51
123.2149825401
  0
ARC
  5
32E
330
2F5
100
AcDbEntity
  8
$DDT_AUDIT_GENERATED_(75)
  6
Continuous
 62
     7
100
AcDbCircle
 10
13.1011096168
 20
271.6272802258
 30
0.0
 40
0.415688240273064
100
AcDbArc
 50
90.4683321823
 51
107.0925631367
  0
ARC
  5
32F
330
2F5
100
AcDbEntity
  8
$DDT_AUDIT_GENERATED_(75)
  6
Continuous
 62
     7
100
AcDbCircle
 10
11.9843875529
 20
250.3836919175
 30
0.0
 40
0.3000000000000002
100
AcDbArc
 50
177.5241916071
 51
180.0
  0
LINE
  5
330
330
2F5
100
AcDbEntity
  8
$DDT_AUDIT_GENERATED_(75)
  6
Continuous
 62
     7
100
AcDbLine
 10
11.6843875529
 20
250.3836919175
 30
0.0
 11
11.6843875529
 21
230.7782162358
 31
0.0
  0
ARC
  5
331
330
2F5
100
AcDbEntity
  8
$DDT_AUDIT_GENERATED_(75)
  6
Continuous
 62
     7
100
AcDbCircle
 10
42.8642368263
 20
186.2300682504
 30
0.0
 40
1.990657011998555
100
AcDbArc
 50
269.4350260561
 51
317.1028154802
  0
ARC
  5
332
330
2F5
100
AcDbEntity
  8
$DDT_AUDIT_GENERATED_(75)
  6
Continuous
 62
     7
100
AcDbCircle
 10
23.4482064053
 20
186.1946060353
 30
0.0
 40
1.955208010951274
100
AcDbArc
 50
225.3691144487
 51
270.6202250603
  0
ARC
  5
333
330
2F5
100
AcDbEntity
  8
$DDT_AUDIT_GENERATED_(75)
  6
Continuous
 62
     7
100
AcDbCircle
 10
33.297060834
 20
4680.9319097572
 30
0.0
 40
4473.890500380113
100
AcDbArc
 50
269.8760990073
 51
270.1203141414
  0
ARC
  5
334
330
2F5
100
AcDbEntity
  8
$DDT_AUDIT_GENERATED_(75)
  6
Continuous
 62
     7
100
AcDbCircle
 10
23.6118390621
 20
205.0604142958
 30
0.0
 40
1.993629206329801
100
AcDbArc
 50
89.9146421045
 51
168.7927204182
  0
LINE
  5
335
330
2F5
100
AcDbEntity
  8
$DDT_AUDIT_GENERATED_(75)
  6
Continuous
 62
     7
100
AcDbLine
 10
21.6203763108
 20
186.0912130256
 30
0.0
 11
21.6238129184
 21
205.0727132542
 31
0.0
  0
ARC
  5
336
330
2F5
100
AcDbEntity
  8
$DDT_AUDIT_GENERATED_(75)
  6
Continuous
 62
     7
100
AcDbCircle
 10
23.5856461525
 20
186.1020521697
 30
0.0
 40
1.970857565728185
100
AcDbArc
 50
179.9927706862
 51
225.1189758042
  0
LINE
  5
337
330
2F5
100
AcDbEntity
  8
$DDT_AUDIT_GENERATED_(75)
  6
Continuous
 62
     7
100
AcDbLine
 10
22.3541284032
 20
184.5738915615
 30
0.0
 11
22.1949362572
 21
184.7055545753
 31
0.0
  0
ARC
  5
338
330
2F5
100
AcDbEntity
  8
$DDT_AUDIT_GENERATED_(75)
  6
Continuous
 62
     7
100
AcDbCircle
 10
42.7193486465
 20
186.095282812
 30
0.0
 40
1.979863753520153
100
AcDbArc
 50
309.9655051288
 51
0.2033270982
  0
LINE
  5
339
330
2F5
100
AcDbEntity
  8
$DDT_AUDIT_GENERATED_(75)
  6
Continuous
 62
     7
100
AcDbLine
 10
44.6901770867
 20
205.0727131494
 30
0.0
 11
44.693613693
 21
186.0912197903
 31
0.0
  0
ARC
  5
33A
330
2F5
100
AcDbEntity
  8
$DDT_AUDIT_GENERATED_(75)
  6
Continuous
 62
     7
100
AcDbCircle
 10
42.7024654497
 20
205.0607343423
 30
0.0
 40
1.993313401666426
100
AcDbArc
 50
87.8347822043
 51
90.8339192674
  0
ARC
  5
33B
330
2F5
100
AcDbEntity
  8
$DDT_AUDIT_GENERATED_(75)
  6
Continuous
 62
     7
100
AcDbCircle
 10
54.3296024522
 20
250.3836919175
 30
0.0
 40
0.2999999999999982
100
AcDbArc
 50
0.0
 51
2.4758083929
  0
ELLIPSE
  5
33C
330
2F5
100
AcDbEntity
  8
$DDT_AUDIT_GENERATED_(2AE)
  6
Continuous
 62
     7
100
AcDbEllipse
 10
33.1569950025
 20
271.0215628989
 30
0.0
 11
3.35
 21
1.040834085586084E-14
 31
0.0
210
0.0
220
0.0
230
1.0
 40
0.1045284633
 41
3.141592653589793
 42
6.283185307179557
  0
LINE
  5
33D
330
2F5
100
AcDbEntity
  8
$DDT_AUDIT_GENERATED_(25E)
  6
Continuous
 62
     7
100
AcDbLine
 10
7.1744487381
 20
226.95
 30
0.0
 11
7.1744487381
 21
275.75
 31
0.0
  0
ARC
  5
33E
330
2F5
100
AcDbEntity
  8
$DDT_AUDIT_GENERATED_(25E)
  6
Continuous
 62
     7
100
AcDbCircle
 10
57.5569950025
 20
226.95
 30
0.0
 40
1.582546264418481
100
AcDbArc
 50
270.0
 51
360.0
  0
LINE
  5
33F
330
2F5
100
AcDbEntity
  8
$DDT_AUDIT_GENERATED_(25E)
  6
Continuous
 62
     7
100
AcDbLine
 10
57.5569950025
 20
225.3674537356
 30
0.0
 11
54.6569950025
 21
225.3674537356
 31
0.0
  0
LINE
  5
340
330
2F5
100
AcDbEntity
  8
$DDT_AUDIT_GENERATED_(25E)
  6
Continuous
 62
     7
100
AcDbLine
 10
11.6569950025
 20
225.3674537356
 30
0.0
 11
8.7569950025
 21
225.3674537356
 31
0.0
  0
ARC
  5
341
330
2F5
100
AcDbEntity
  8
$DDT_AUDIT_GENERATED_(25E)
  6
Continuous
 62
     7
100
AcDbCircle
 10
8.7569950025
 20
226.95
 30
0.0
 40
1.582546264418481
100
AcDbArc
 50
180.0
 51
270.0
  0
ARC
  5
342
330
2F5
100
AcDbEntity
  8
$DDT_AUDIT_GENERATED_(25E)
  6
Continuous
 62
     7
100
AcDbCircle
 10
8.7569950025
 20
275.75
 30
0.0
 40
1.582546264418481
100
AcDbArc
 50
90.0
 51
180.0
  0
LINE
  5
343
330
2F5
100
AcDbEntity
  8
$DDT_AUDIT_GENERATED_(25E)
  6
Continuous
 62
     7
100
AcDbLine
 10
8.7569950025
 20
277.3325462644
 30
0.0
 11
23.1613965141
 21
277.3325462644
 31
0.0
  0
LINE
  5
344
330
2F5
100
AcDbEntity
  8
$DDT_AUDIT_GENERATED_(25E)
  6
Continuous
 62
     7
100
AcDbLine
 10
43.152593491
 20
277.3325462644
 30
0.0
 11
57.5569950025
 21
277.3325462644
 31
0.0
  0
ARC
  5
345
330
2F5
100
AcDbEntity
  8
$DDT_AUDIT_GENERATED_(25E)
  6
Continuous
 62
     7
100
AcDbCircle
 10
57.5569950025
 20
275.75
 30
0.0
 40
1.582546264418488
100
AcDbArc
 50
0.0
 51
90.0
  0
LINE
  5
346
330
2F5
100
AcDbEntity
  8
$DDT_AUDIT_GENERATED_(25E)
  6
Continuous
 62
     7
100
AcDbLine
 10
59.139541267
 20
275.75
 30
0.0
 11
59.139541267
 21
226.95
 31
0.0
  0
LINE
  5
347
330
2F5
100
AcDbEntity
  8
$DDT_AUDIT_GENERATED_(2DB)
  6
Continuous
 62
     7
100
AcDbLine
 10
34.8819950025
 20
272.85
 30
0.0
 11
34.8819950025
 21
273.9512811302
 31
0.0
  0
LINE
  5
348
330
2F5
100
AcDbEntity
  8
$DDT_AUDIT_GENERATED_(2DB)
  6
Continuous
 62
     7
100
AcDbLine
 10
31.4319950025
 20
273.9512811302
 30
0.0
 11
31.4319950025
 21
272.85
 31
0.0
  0
LINE
  5
349
330
2F5
100
AcDbEntity
  8
$DDT_AUDIT_GENERATED_(2DE)
  6
Continuous
 62
     7
100
AcDbLine
 10
42.6526125295
 20
273.9512811302
 30
0.0
 11
23.6613774756
 21
273.9512811302
 31
0.0
  0
LINE
  5
34A
330
2F5
100
AcDbEntity
  8
$DDT_AUDIT_GENERATED_(2DE)
  6
Continuous
 62
     7
100
AcDbLine
 10
23.6613774756
 20
288.9422606492
 30
0.0
 11
42.6526125295
 21
288.9422606492
 31
0.0
  0
LINE
  5
34B
330
2F5
100
AcDbEntity
  8
$DDT_AUDIT_GENERATED_(2DE)
  6
Continuous
 62
     7
100
AcDbLine
 10
23.1613965141
 20
274.4512620917
 30
0.0
 11
23.1613965141
 21
288.4422796877
 31
0.0
  0
LINE
  5
34C
330
2F5
100
AcDbEntity
  8
$DDT_AUDIT_GENERATED_(2DE)
  6
Continuous
 62
     7
100
AcDbLine
 10
43.152593491
 20
288.4422796877
 30
0.0
 11
43.152593491
 21
274.4512620917
 31
0.0
  0
ARC
  5
34D
330
2F5
100
AcDbEntity
  8
$DDT_AUDIT_GENERATED_(2DE)
  6
Continuous
 62
     7
100
AcDbCircle
 10
23.6614155533
 20
288.44224161
 30
0.0
 40
0.5000190406427233
100
AcDbArc
 50
90.0043632124
 51
179.9956367876
  0
ARC
  5
34E
330
2F5
100
AcDbEntity
  8
$DDT_AUDIT_GENERATED_(2DE)
  6
Continuous
 62
     7
100
AcDbCircle
 10
42.6525744518
 20
288.44224161
 30
0.0
 40
0.5000190406427216
100
AcDbArc
 50
0.0043632124
 51
89.9956367876
  0
ARC
  5
34F
330
2F5
100
AcDbEntity
  8
$DDT_AUDIT_GENERATED_(2DE)
  6
Continuous
 62
     7
100
AcDbCircle
 10
23.6614155533
 20
274.4513001694
 30
0.0
 40
0.5000190406427181
100
AcDbArc
 50
180.0043632124
 51
269.9956367876
  0
ARC
  5
350
330
2F5
100
AcDbEntity
  8
$DDT_AUDIT_GENERATED_(2DE)
  6
Continuous
 62
     7
100
AcDbCircle
 10
42.6525744518
 20
274.4513001694
 30
0.0
 40
0.5000190406427198
100
AcDbArc
 50
270.0043632124
 51
359.9956367876
  0
LINE
  5
352
330
2F5
100
AcDbEntity
  8
DV3_Default
  6
Continuous
 62
     7
100
AcDbLine
 10
31.7550804099
 20
251.35
 30
0.0
 11
34.5589095952
 21
251.35
 31
0.0
  0
LINE
  5
353
330
2F5
100
AcDbEntity
  8
DV3_Default
  6
CENTER2
 62
     7
100
AcDbLine
 10
53.1569945555
 20
251.35
 30
0.0
 11
13.1569954496
 21
251.35
 31
0.0
  0
LINE
  5
354
330
2F5
100
AcDbEntity
  8
DV3_Default
  6
CENTER2
 62
     7
100
AcDbLine
 10
33.1569950025
 20
271.349999553
 30
0.0
 11
33.1569950025
 21
231.350000447
 31
0.0
  0
ENDBLK
  5
356
330
2F5
100
AcDbEntity
  8
0
100
AcDbBlockEnd
  0
ENDSEC
  0
SECTION
  2
ENTITIES
  0
INSERT
  5
5F
330
1F
100
AcDbEntity
  8
Default
100
AcDbBlockReference
  2
SE
 10
0.0
 20
0.0
 30
0.0
  0
INSERT
  5
270
330
1F
100
AcDbEntity
  8
Default
100
AcDbBlockReference
  2
SE1
 10
0.0
 20
0.0
 30
0.0
  0
INSERT
  5
2F6
330
1F
100
AcDbEntity
  8
Default
100
AcDbBlockReference
  2
SE2
 10
0.0
 20
0.0
 30
0.0
  0
TEXT
  5
358
330
1F
100
AcDbEntity
  8
Default
  6
Continuous
 62
     7
100
AcDbText
 10
5.9362635081
 20
53.4225120485
 30
0.0
 40
10.0
  1
Grohe AG^J
  7
SEACAD_seiso_ttf
 11
5.9362635081
 21
63.4225120485
 31
0.0
100
AcDbText
 73
     3
  0
TEXT
  5
359
330
1F
100
AcDbEntity
  8
Default
  6
Continuous
 62
     7
100
AcDbText
 10
5.9362635081
 20
37.0588756849
 30
0.0
 40
10.0
  1
 
  7
SEACAD_seiso_ttf
 11
5.9362635081
 21
47.0588756849
 31
0.0
100
AcDbText
 73
     3
  0
TEXT
  5
35A
330
1F
100
AcDbEntity
  8
Default
  6
Continuous
 62
     7
100
AcDbText
 10
5.9362635081
 20
20.6952393213
 30
0.0
 40
10.0
  1
ecn:
  7
SEACAD_seiso_ttf
 11
5.9362635081
 21
30.6952393213
 31
0.0
100
AcDbText
 73
     3
  0
TEXT
  5
35B
330
1F
100
AcDbEntity
  8
Default
  6
Continuous
 62
     7
100
AcDbText
 10
5.9362635081
 20
4.3316029576
 30
0.0
 40
10.0
  1
unit: mm
  7
SEACAD_seiso_ttf
 11
5.9362635081
 21
14.3316029576
 31
0.0
100
AcDbText
 73
     3
  0
LINE
  5
35C
330
1F
100
AcDbEntity
  8
Default
  6
Continuous
 62
     7
100
AcDbLine
 10
0.0
 20
0.0
 30
0.0
 11
100.0
 21
0.0
 31
0.0
  0
LINE
  5
35D
330
1F
100
AcDbEntity
  8
Default
  6
Continuous
 62
     7
100
AcDbLine
 10
0.0
 20
0.0
 30
0.0
 11
0.0
 21
100.0
 31
0.0
  0
TEXT
  5
35E
330
1F
100
AcDbEntity
  8
Default
  6
Continuous
 62
     7
100
AcDbText
 10
24.3923665681
 20
-18.2375342018
 30
0.0
 40
10.0
  1
100 mm
  7
SEACAD_seiso_ttf
 11
24.3923665681
 21
-8.2375342018
 31
0.0
100
AcDbText
 73
     3
  0
TEXT
  5
35F
330
1F
100
AcDbEntity
  8
Default
  6
Continuous
 62
     7
100
AcDbText
 10
-7.6150308803
 20
24.6231930421
 30
0.0
 40
10.0
  1
100 mm
 50
90.0
  7
SEACAD_seiso_ttf
 11
-17.6150308803
 21
24.6231930421
 31
0.0
100
AcDbText
 73
     3
  0
TEXT
  5
360
330
1F
100
AcDbEntity
  8
Default
  6
Continuous
 62
     7
100
AcDbText
 10
28.4878128572
 20
20.0907663715
 30
0.0
 40
10.0
  1
229897
  7
SEACAD_seiso_ttf
 11
28.4878128572
 21
30.0907663715
 31
0.0
100
AcDbText
 73
     3
  0
TEXT
  5
361
330
1F
100
AcDbEntity
  8
Default
  6
Continuous
 62
     7
100
AcDbText
 10
5.9012241913
 20
36.7242780188
 30
0.0
 40
10.0
  1
23445000
  7
SEACAD_seiso_ttf
 11
5.9012241913
 21
46.7242780188
 31
0.0
100
AcDbText
 73
     3
  0
ENDSEC
  0
SECTION
  2
OBJECTS
  0
DICTIONARY
  5
C
330
0
100
AcDbDictionary
281
     1
  3
ACAD_GROUP
350
D
  3
ACAD_LAYOUT
350
1A
  3
ACAD_MLEADERSTYLE
350
365
  3
ACAD_MLINESTYLE
350
17
  3
ACAD_PLOTSETTINGS
350
19
  3
ACAD_PLOTSTYLENAME
350
E
  3
ACAD_SCALELIST
350
3B
  3
ACAD_TABLESTYLE
350
364
  3
ACAD_VISUALSTYLE
350
2A
  3
AcDbVariableDictionary
350
362
  0
DICTIONARY
  5
D
102
{ACAD_REACTORS
330
C
102
}
330
C
100
AcDbDictionary
281
     1
  0
DICTIONARY
  5
1A
102
{ACAD_REACTORS
330
C
102
}
330
C
100
AcDbDictionary
281
     1
  3
Layout1
350
1E
  3
Model
350
22
  0
DICTIONARY
  5
365
102
{ACAD_REACTORS
330
C
102
}
330
C
100
AcDbDictionary
281
     1
  0
DICTIONARY
  5
17
102
{ACAD_REACTORS
330
C
102
}
330
C
100
AcDbDictionary
281
     1
  3
Standard
350
18
  0
DICTIONARY
  5
19
102
{ACAD_REACTORS
330
C
102
}
330
C
100
AcDbDictionary
281
     1
  0
ACDBDICTIONARYWDFLT
  5
E
102
{ACAD_REACTORS
330
C
102
}
330
C
100
AcDbDictionary
281
     1
  3
Normal
350
F
100
AcDbDictionaryWithDefault
340
F
  0
DICTIONARY
  5
3B
102
{ACAD_REACTORS
330
C
102
}
330
C
100
AcDbDictionary
281
     1
  3
A0
350
3C
  3
A1
350
3D
  3
A2
350
3E
  3
A3
350
3F
  3
A4
350
40
  3
A5
350
41
  3
A6
350
42
  3
A7
350
43
  3
A8
350
44
  3
A9
350
45
  3
B0
350
46
  3
B1
350
47
  3
B2
350
48
  3
B3
350
49
  3
B4
350
4A
  3
B5
350
4B
  3
B6
350
4C
  3
B7
350
4D
  3
B8
350
4E
  3
B9
350
4F
  3
C0
350
50
  3
C1
350
51
  3
C2
350
52
  3
C3
350
53
  3
C4
350
54
  3
C5
350
55
  3
C6
350
56
  3
C7
350
57
  3
C8
350
58
  3
C9
350
59
  3
D0
350
5A
  3
D1
350
5B
  3
D2
350
5C
  0
DICTIONARY
  5
364
102
{ACAD_REACTORS
330
C
102
}
330
C
100
AcDbDictionary
281
     1
  0
DICTIONARY
  5
2A
102
{ACAD_REACTORS
330
C
102
}
330
C
100
AcDbDictionary
281
     1
  3
2dWireframe
350
2F
  3
3D Hidden
350
31
  3
3dWireframe
350
30
  3
Basic
350
32
  3
Brighten
350
36
  3
ColorChange
350
3A
  3
Conceptual
350
34
  3
Dim
350
35
  3
Facepattern
350
39
  3
Flat
350
2B
  3
FlatWithEdges
350
2C
  3
Gouraud
350
2D
  3
GouraudWithEdges
350
2E
  3
Linepattern
350
38
  3
Realistic
350
33
  3
Thicken
350
37
  0
DICTIONARY
  5
362
102
{ACAD_REACTORS
330
C
102
}
330
C
100
AcDbDictionary
281
     1
  3
CANNOSCALE
350
363
  3
PSOLHEIGHT
350
367
  3
PSOLWIDTH
350
366
  0
LAYOUT
  5
1E
102
{ACAD_REACTORS
330
1A
102
}
330
1A
100
AcDbPlotSettings
  1

  2
none_device
  4

  6

 40
0.0
 41
0.0
 42
0.0
 43
0.0
 44
0.0
 45
0.0
 46
0.0
 47
0.0
 48
0.0
 49
0.0
140
0.0
141
0.0
142
1.0
143
1.0
 70
   688
 72
     0
 73
     0
 74
     5
  7

 75
    16
147
1.0
148
0.0
149
0.0
100
AcDbLayout
  1
Layout1
 70
     1
 71
     1
 10
0.0
 20
0.0
 11
3000.0
 21
4500.0
 12
0.0
 22
0.0
 32
0.0
 14
0.0
 24
0.0
 34
0.0
 15
3000.0
 25
4500.0
 35
0.0
146
0.0
 13
0.0
 23
0.0
 33
0.0
 16
1.0
 26
0.0
 36
0.0
 17
0.0
 27
1.0
 37
0.0
 76
     0
330
1B
  0
LAYOUT
  5
22
102
{ACAD_REACTORS
330
1A
102
}
330
1A
100
AcDbPlotSettings
  1

  2
none_device
  4

  6

 40
0.0
 41
0.0
 42
0.0
 43
0.0
 44
0.0
 45
0.0
 46
0.0
 47
0.0
 48
0.0
 49
0.0
140
0.0
141
0.0
142
1.0
143
1.0
 70
  1712
 72
     0
 73
     0
 74
     0
  7

 75
     0
147
1.0
148
0.0
149
0.0
100
AcDbLayout
  1
Model
 70
     1
 71
     0
 10
0.0
 20
0.0
 11
3000.0
 21
4500.0
 12
0.0
 22
0.0
 32
0.0
 14
0.0
 24
0.0
 34
0.0
 15
3000.0
 25
4500.0
 35
0.0
146
0.0
 13
0.0
 23
0.0
 33
0.0
 16
1.0
 26
0.0
 36
0.0
 17
0.0
 27
1.0
 37
0.0
 76
     0
330
1F
331
29
  0
MLINESTYLE
  5
18
102
{ACAD_REACTORS
330
17
102
}
330
17
100
AcDbMlineStyle
  2
Standard
 70
     0
  3

 62
   256
 51
90.0
 52
90.0
 71
     2
 49
0.5
 62
   256
  6
BYLAYER
 49
-0.5
 62
   256
  6
BYLAYER
  0
ACDBPLACEHOLDER
  5
F
102
{ACAD_REACTORS
330
E
102
}
330
E
  0
SCALE
  5
3C
102
{ACAD_REACTORS
330
3B
102
}
330
3B
100
AcDbScale
 70
     0
300
1:1
140
1.0
141
1.0
290
     1
  0
SCALE
  5
3D
102
{ACAD_REACTORS
330
3B
102
}
330
3B
100
AcDbScale
 70
     0
300
1:2
140
1.0
141
2.0
290
     0
  0
SCALE
  5
3E
102
{ACAD_REACTORS
330
3B
102
}
330
3B
100
AcDbScale
 70
     0
300
1:4
140
1.0
141
4.0
290
     0
  0
SCALE
  5
3F
102
{ACAD_REACTORS
330
3B
102
}
330
3B
100
AcDbScale
 70
     0
300
1:5
140
1.0
141
5.0
290
     0
  0
SCALE
  5
40
102
{ACAD_REACTORS
330
3B
102
}
330
3B
100
AcDbScale
 70
     0
300
1:8
140
1.0
141
8.0
290
     0
  0
SCALE
  5
41
102
{ACAD_REACTORS
330
3B
102
}
330
3B
100
AcDbScale
 70
     0
300
1:10
140
1.0
141
10.0
290
     0
  0
SCALE
  5
42
102
{ACAD_REACTORS
330
3B
102
}
330
3B
100
AcDbScale
 70
     0
300
1:16
140
1.0
141
16.0
290
     0
  0
SCALE
  5
43
102
{ACAD_REACTORS
330
3B
102
}
330
3B
100
AcDbScale
 70
     0
300
1:20
140
1.0
141
20.0
290
     0
  0
SCALE
  5
44
102
{ACAD_REACTORS
330
3B
102
}
330
3B
100
AcDbScale
 70
     0
300
1:30
140
1.0
141
30.0
290
     0
  0
SCALE
  5
45
102
{ACAD_REACTORS
330
3B
102
}
330
3B
100
AcDbScale
 70
     0
300
1:40
140
1.0
141
40.0
290
     0
  0
SCALE
  5
46
102
{ACAD_REACTORS
330
3B
102
}
330
3B
100
AcDbScale
 70
     0
300
1:50
140
1.0
141
50.0
290
     0
  0
SCALE
  5
47
102
{ACAD_REACTORS
330
3B
102
}
330
3B
100
AcDbScale
 70
     0
300
1:100
140
1.0
141
100.0
290
     0
  0
SCALE
  5
48
102
{ACAD_REACTORS
330
3B
102
}
330
3B
100
AcDbScale
 70
     0
300
2:1
140
2.0
141
1.0
290
     0
  0
SCALE
  5
49
102
{ACAD_REACTORS
330
3B
102
}
330
3B
100
AcDbScale
 70
     0
300
4:1
140
4.0
141
1.0
290
     0
  0
SCALE
  5
4A
102
{ACAD_REACTORS
330
3B
102
}
330
3B
100
AcDbScale
 70
     0
300
8:1
140
8.0
141
1.0
290
     0
  0
SCALE
  5
4B
102
{ACAD_REACTORS
330
3B
102
}
330
3B
100
AcDbScale
 70
     0
300
10:1
140
10.0
141
1.0
290
     0
  0
SCALE
  5
4C
102
{ACAD_REACTORS
330
3B
102
}
330
3B
100
AcDbScale
 70
     0
300
100:1
140
100.0
141
1.0
290
     0
  0
SCALE
  5
4D
102
{ACAD_REACTORS
330
3B
102
}
330
3B
100
AcDbScale
 70
     0
300
1/128" = 1'-0"
140
0.0078125
141
12.0
290
     0
  0
SCALE
  5
4E
102
{ACAD_REACTORS
330
3B
102
}
330
3B
100
AcDbScale
 70
     0
300
1/64" = 1'-0"
140
0.015625
141
12.0
290
     0
  0
SCALE
  5
4F
102
{ACAD_REACTORS
330
3B
102
}
330
3B
100
AcDbScale
 70
     0
300
1/32" = 1'-0"
140
0.03125
141
12.0
290
     0
  0
SCALE
  5
50
102
{ACAD_REACTORS
330
3B
102
}
330
3B
100
AcDbScale
 70
     0
300
1/16" = 1'-0"
140
0.0625
141
12.0
290
     0
  0
SCALE
  5
51
102
{ACAD_REACTORS
330
3B
102
}
330
3B
100
AcDbScale
 70
     0
300
3/32" = 1'-0"
140
0.09375
141
12.0
290
     0
  0
SCALE
  5
52
102
{ACAD_REACTORS
330
3B
102
}
330
3B
100
AcDbScale
 70
     0
300
1/8" = 1'-0"
140
0.125
141
12.0
290
     0
  0
SCALE
  5
53
102
{ACAD_REACTORS
330
3B
102
}
330
3B
100
AcDbScale
 70
     0
300
3/16" = 1'-0"
140
0.1875
141
12.0
290
     0
  0
SCALE
  5
54
102
{ACAD_REACTORS
330
3B
102
}
330
3B
100
AcDbScale
 70
     0
300
1/4" = 1'-0"
140
0.25
141
12.0
290
     0
  0
SCALE
  5
55
102
{ACAD_REACTORS
330
3B
102
}
330
3B
100
AcDbScale
 70
     0
300
3/8" = 1'-0"
140
0.375
141
12.0
290
     0
  0
SCALE
  5
56
102
{ACAD_REACTORS
330
3B
102
}
330
3B
100
AcDbScale
 70
     0
300
1/2" = 1'-0"
140
0.5
141
12.0
290
     0
  0
SCALE
  5
57
102
{ACAD_REACTORS
330
3B
102
}
330
3B
100
AcDbScale
 70
     0
300
3/4" = 1'-0"
140
0.75
141
12.0
290
     0
  0
SCALE
  5
58
102
{ACAD_REACTORS
330
3B
102
}
330
3B
100
AcDbScale
 70
     0
300
1" = 1'-0"
140
1.0
141
12.0
290
     0
  0
SCALE
  5
59
102
{ACAD_REACTORS
330
3B
102
}
330
3B
100
AcDbScale
 70
     0
300
1-1/2" = 1'-0"
140
1.5
141
12.0
290
     0
  0
SCALE
  5
5A
102
{ACAD_REACTORS
330
3B
102
}
330
3B
100
AcDbScale
 70
     0
300
3" = 1'-0"
140
3.0
141
12.0
290
     0
  0
SCALE
  5
5B
102
{ACAD_REACTORS
330
3B
102
}
330
3B
100
AcDbScale
 70
     0
300
6" = 1'-0"
140
6.0
141
12.0
290
     0
  0
SCALE
  5
5C
102
{ACAD_REACTORS
330
3B
102
}
330
3B
100
AcDbScale
 70
     0
300
1'-0" = 1'-0"
140
12.0
141
12.0
290
     0
  0
VISUALSTYLE
  5
2F
102
{ACAD_REACTORS
330
2A
102
}
330
2A
100
AcDbVisualStyle
  2
2dWireframe
 70
     4
 71
     0
 72
     2
 73
     0
 90
        0
 40
-0.6
 41
-30.0
 62
     5
 63
     7
 74
     1
 91
        4
 64
     7
 65
   257
 75
     1
175
     1
 42
1.0
 92
        0
 66
   257
 43
1.0
 76
     1
 77
     6
 78
     2
 67
     7
 79
     5
170
     0
171
     0
290
     0
174
     0
 93
        1
 44
0.0
173
     0
291
     0
 45
0.0
1001
ACAD
1000
AcDbSavedByObjectVersion
1070
     0
  0
VISUALSTYLE
  5
31
102
{ACAD_REACTORS
330
2A
102
}
330
2A
100
AcDbVisualStyle
  2
3D Hidden
 70
     6
 71
     1
 72
     2
 73
     2
 90
        0
 40
-0.6
 41
-30.0
 62
     5
 63
     7
 74
     2
 91
        2
 64
     7
 65
   257
 75
     2
175
     1
 42
40.0
 92
        0
 66
   257
 43
1.0
 76
     1
 77
     6
 78
     2
 67
     7
 79
     3
170
     0
171
     0
290
     0
174
     0
 93
        1
 44
0.0
173
     0
291
     0
 45
0.0
1001
ACAD
1000
AcDbSavedByObjectVersion
1070
     0
  0
VISUALSTYLE
  5
30
102
{ACAD_REACTORS
330
2A
102
}
330
2A
100
AcDbVisualStyle
  2
3dWireframe
 70
     5
 71
     0
 72
     2
 73
     0
 90
        0
 40
-0.6
 41
-30.0
 62
     5
 63
     7
 74
     1
 91
        4
 64
     7
 65
   257
 75
     1
175
     1
 42
1.0
 92
        0
 66
   257
 43
1.0
 76
     1
 77
     6
 78
     2
 67
     7
 79
     5
170
     0
171
     0
290
     0
174
     0
 93
        1
 44
0.0
173
     0
291
     0
 45
0.0
1001
ACAD
1000
AcDbSavedByObjectVersion
1070
     0
  0
VISUALSTYLE
  5
32
102
{ACAD_REACTORS
330
2A
102
}
330
2A
100
AcDbVisualStyle
  2
Basic
 70
     7
 71
     1
 72
     0
 73
     1
 90
        0
 40
-0.6
 41
-30.0
 62
     5
 63
     7
 74
     0
 91
        4
 64
     7
 65
   257
 75
     1
175
     1
 42
1.0
 92
        8
 66
     7
 43
1.0
 76
     1
 77
     6
 78
     2
 67
     7
 79
     5
170
     0
171
     0
290
     0
174
     0
 93
        1
 44
0.0
173
     0
291
     1
 45
0.0
1001
ACAD
1000
AcDbSavedByObjectVersion
1070
     0
  0
VISUALSTYLE
  5
36
102
{ACAD_REACTORS
330
2A
102
}
330
2A
100
AcDbVisualStyle
  2
Brighten
 70
    12
 71
     2
 72
     2
 73
     0
 90
        0
 40
-0.6
 41
-30.0
 62
     5
 63
     7
 74
     1
 91
        4
 64
     7
 65
   257
 75
     1
175
     1
 42
1.0
 92
        8
 66
     7
 43
1.0
 76
     1
 77
     6
 78
     2
 67
     7
 79
     5
170
     0
171
     0
290
     0
174
     0
 93
        1
 44
50.0
173
     0
291
     1
 45
0.0
1001
ACAD
1000
AcDbSavedByObjectVersion
1070
     0
  0
VISUALSTYLE
  5
3A
102
{ACAD_REACTORS
330
2A
102
}
330
2A
100
AcDbVisualStyle
  2
ColorChange
 70
    16
 71
     2
 72
     2
 73
     3
 90
        0
 40
-0.6
 41
-30.0
 62
     5
 63
     8
 74
     1
 91
        4
 64
     7
 65
   257
 75
     1
175
     1
 42
1.0
 92
        8
 66
     8
 43
1.0
 76
     1
 77
     6
 78
     2
 67
     7
 79
     5
170
     0
171
     0
290
     0
174
     0
 93
        1
 44
0.0
173
     0
291
     1
 45
0.0
1001
ACAD
1000
AcDbSavedByObjectVersion
1070
     0
  0
VISUALSTYLE
  5
34
102
{ACAD_REACTORS
330
2A
102
}
330
2A
100
AcDbVisualStyle
  2
Conceptual
 70
     9
 71
     3
 72
     2
 73
     0
 90
        0
 40
-0.6
 41
-30.0
 62
     5
 63
     7
 74
     2
 91
        2
 64
     7
 65
   257
 75
     1
175
     1
 42
40.0
 92
        8
 66
     7
 43
1.0
 76
     1
 77
     6
 78
     2
 67
     7
 79
     3
170
     0
171
     0
290
     0
174
     0
 93
        1
 44
0.0
173
     0
291
     0
 45
0.0
1001
ACAD
1000
AcDbSavedByObjectVersion
1070
     0
  0
VISUALSTYLE
  5
35
102
{ACAD_REACTORS
330
2A
102
}
330
2A
100
AcDbVisualStyle
  2
Dim
 70
    11
 71
     2
 72
     2
 73
     0
 90
        0
 40
-0.6
 41
-30.0
 62
     5
 63
     7
 74
     1
 91
        4
 64
     7
 65
   257
 75
     1
175
     1
 42
1.0
 92
        8
 66
     7
 43
1.0
 76
     1
 77
     6
 78
     2
 67
     7
 79
     5
170
     0
171
     0
290
     0
174
     0
 93
        1
 44
-50.0
173
     0
291
     1
 45
0.0
1001
ACAD
1000
AcDbSavedByObjectVersion
1070
     0
  0
VISUALSTYLE
  5
39
102
{ACAD_REACTORS
330
2A
102
}
330
2A
100
AcDbVisualStyle
  2
Facepattern
 70
    15
 71
     2
 72
     2
 73
     0
 90
        0
 40
-0.6
 41
-30.0
 62
     5
 63
     7
 74
     1
 91
        4
 64
     7
 65
   257
 75
     1
175
     1
 42
1.0
 92
        8
 66
     7
 43
1.0
 76
     1
 77
     6
 78
     2
 67
     7
 79
     5
170
     0
171
     0
290
     0
174
     0
 93
        1
 44
0.0
173
     0
291
     1
 45
0.0
1001
ACAD
1000
AcDbSavedByObjectVersion
1070
     0
  0
VISUALSTYLE
  5
2B
102
{ACAD_REACTORS
330
2A
102
}
330
2A
100
AcDbVisualStyle
  2
Flat
 70
     0
 71
     2
 72
     1
 73
     1
 90
        2
 40
-0.6
 41
30.0
 62
     5
 63
     7
 74
     0
 91
        4
 64
     7
 65
   257
 75
     1
175
     1
 42
1.0
 92
        8
 66
     7
 43
1.0
 76
     1
 77
     6
 78
     2
 67
     7
 79
     5
170
     0
171
     0
290
     0
174
     0
 93
       13
 44
0.0
173
     0
291
     1
 45
0.0
1001
ACAD
1000
AcDbSavedByObjectVersion
1070
     0
  0
VISUALSTYLE
  5
2C
102
{ACAD_REACTORS
330
2A
102
}
330
2A
100
AcDbVisualStyle
  2
FlatWithEdges
 70
     1
 71
     2
 72
     1
 73
     1
 90
        2
 40
-0.6
 41
30.0
 62
     5
 63
     7
 74
     1
 91
        4
 64
     7
 65
   257
 75
     1
175
     1
 42
1.0
 92
        0
 66
   257
 43
1.0
 76
     1
 77
     6
 78
     2
 67
     7
 79
     5
170
     0
171
     0
290
     0
174
     0
 93
       13
 44
0.0
173
     0
291
     1
 45
0.0
1001
ACAD
1000
AcDbSavedByObjectVersion
1070
     0
  0
VISUALSTYLE
  5
2D
102
{ACAD_REACTORS
330
2A
102
}
330
2A
100
AcDbVisualStyle
  2
Gouraud
 70
     2
 71
     2
 72
     2
 73
     1
 90
        2
 40
-0.6
 41
30.0
 62
     5
 63
     7
 74
     0
 91
        4
 64
     7
 65
   257
 75
     1
175
     1
 42
1.0
 92
        0
 66
     7
 43
1.0
 76
     1
 77
     6
 78
     2
 67
     7
 79
     5
170
     0
171
     0
290
     0
174
     0
 93
       13
 44
0.0
173
     0
291
     1
 45
0.0
1001
ACAD
1000
AcDbSavedByObjectVersion
1070
     0
  0
VISUALSTYLE
  5
2E
102
{ACAD_REACTORS
330
2A
102
}
330
2A
100
AcDbVisualStyle
  2
GouraudWithEdges
 70
     3
 71
     2
 72
     2
 73
     1
 90
        2
 40
-0.6
 41
30.0
 62
     5
 63
     7
 74
     1
 91
        4
 64
     7
 65
   257
 75
     1
175
     1
 42
1.0
 92
        0
 66
   257
 43
1.0
 76
     1
 77
     6
 78
     2
 67
     7
 79
     5
170
     0
171
     0
290
     0
174
     0
 93
       13
 44
0.0
173
     0
291
     1
 45
0.0
1001
ACAD
1000
AcDbSavedByObjectVersion
1070
     0
  0
VISUALSTYLE
  5
38
102
{ACAD_REACTORS
330
2A
102
}
330
2A
100
AcDbVisualStyle
  2
Linepattern
 70
    14
 71
     2
 72
     2
 73
     0
 90
        0
 40
-0.6
 41
-30.0
 62
     5
 63
     7
 74
     1
 91
        4
 64
     7
 65
   257
 75
     7
175
     7
 42
1.0
 92
        8
 66
     7
 43
1.0
 76
     1
 77
     6
 78
     2
 67
     7
 79
     5
170
     0
171
     0
290
     0
174
     0
 93
        1
 44
0.0
173
     0
291
     1
 45
0.0
1001
ACAD
1000
AcDbSavedByObjectVersion
1070
     0
  0
VISUALSTYLE
  5
33
102
{ACAD_REACTORS
330
2A
102
}
330
2A
100
AcDbVisualStyle
  2
Realistic
 70
     8
 71
     2
 72
     2
 73
     0
 90
        0
 40
-0.6
 41
-30.0
 62
     5
 63
     7
 74
     1
 91
        0
 64
     7
 65
   257
 75
     1
175
     1
 42
1.0
 92
        8
 66
     8
 43
1.0
 76
     1
 77
     6
 78
     2
 67
     7
 79
     5
170
     0
171
     0
290
     0
174
     0
 93
       13
 44
0.0
173
     0
291
     0
 45
0.0
1001
ACAD
1000
AcDbSavedByObjectVersion
1070
     0
  0
VISUALSTYLE
  5
37
102
{ACAD_REACTORS
330
2A
102
}
330
2A
100
AcDbVisualStyle
  2
Thicken
 70
    13
 71
     2
 72
     2
 73
     0
 90
        0
 40
-0.6
 41
-30.0
 62
     5
 63
     7
 74
     1
 91
        4
 64
     7
 65
   257
 75
     1
175
     1
 42
1.0
 92
       12
 66
     7
 43
1.0
 76
     1
 77
     6
 78
     2
 67
     7
 79
     5
170
     0
171
     0
290
     0
174
     0
 93
        1
 44
0.0
173
     0
291
     1
 45
0.0
1001
ACAD
1000
AcDbSavedByObjectVersion
1070
     0
  0
DICTIONARYVAR
  5
363
102
{ACAD_REACTORS
330
362
102
}
330
362
100
DictionaryVariables
280
     0
  1
1:1
  0
DICTIONARYVAR
  5
367
102
{ACAD_REACTORS
330
362
102
}
330
362
100
DictionaryVariables
280
     0
  1
80.000000
  0
DICTIONARYVAR
  5
366
102
{ACAD_REACTORS
330
362
102
}
330
362
100
DictionaryVariables
280
     0
  1
5.000000
  0
ENDSEC
  0
EOF
