  0
SECTION
  2
HEADER
  9
$ACADVER
  1
AC1015
  9
$ACADMAINTVER
 70
     6
  9
$DWGCODEPAGE
  3
ANSI_1252
  9
$INSBASE
 10
0.0
 20
0.0
 30
0.0
  9
$EXTMIN
 10
0.0
 20
0.0
 30
0.0
  9
$EXTMAX
 10
3000.0
 20
4500.0
 30
0.0
  9
$LIMMIN
 10
0.0
 20
0.0
  9
$LIMMAX
 10
3000.0
 20
4500.0
  9
$ORTHOMODE
 70
     0
  9
$REGENMODE
 70
     1
  9
$FILLMODE
 70
     1
  9
$QTEXTMODE
 70
     0
  9
$MIRRTEXT
 70
     1
  9
$LTSCALE
 40
1.0
  9
$ATTMODE
 70
     1
  9
$TEXTSIZE
 40
2.5
  9
$TRACEWID
 40
1.0
  9
$TEXTSTYLE
  7
Standard
  9
$CLAYER
  8
0
  9
$CELTYPE
  6
ByLayer
  9
$CECOLOR
 62
   256
  9
$CELTSCALE
 40
1.0
  9
$DISPSILH
 70
     0
  9
$DIMSCALE
 40
1.0
  9
$DIMASZ
 40
2.5
  9
$DIMEXO
 40
0.625
  9
$DIMDLI
 40
3.75
  9
$DIMRND
 40
0.0
  9
$DIMDLE
 40
0.0
  9
$DIMEXE
 40
1.25
  9
$DIMTP
 40
0.0
  9
$DIMTM
 40
0.0
  9
$DIMTXT
 40
2.5
  9
$DIMCEN
 40
2.5
  9
$DIMTSZ
 40
0.0
  9
$DIMTOL
 70
     0
  9
$DIMLIM
 70
     0
  9
$DIMTIH
 70
     0
  9
$DIMTOH
 70
     0
  9
$DIMSE1
 70
     0
  9
$DIMSE2
 70
     0
  9
$DIMTAD
 70
     1
  9
$DIMZIN
 70
     8
  9
$DIMBLK
  1

  9
$DIMASO
 70
     1
  9
$DIMSHO
 70
     1
  9
$DIMPOST
  1

  9
$DIMAPOST
  1

  9
$DIMALT
 70
     0
  9
$DIMALTD
 70
     3
  9
$DIMALTF
 40
0.0393700787
  9
$DIMLFAC
 40
1.0
  9
$DIMTOFL
 70
     1
  9
$DIMTVP
 40
0.0
  9
$DIMTIX
 70
     0
  9
$DIMSOXD
 70
     0
  9
$DIMSAH
 70
     0
  9
$DIMBLK1
  1

  9
$DIMBLK2
  1

  9
$DIMSTYLE
  2
ISO-25
  9
$DIMCLRD
 70
     0
  9
$DIMCLRE
 70
     0
  9
$DIMCLRT
 70
     0
  9
$DIMTFAC
 40
1.0
  9
$DIMGAP
 40
0.625
  9
$DIMJUST
 70
     0
  9
$DIMSD1
 70
     0
  9
$DIMSD2
 70
     0
  9
$DIMTOLJ
 70
     0
  9
$DIMTZIN
 70
     8
  9
$DIMALTZ
 70
     0
  9
$DIMALTTZ
 70
     0
  9
$DIMUPT
 70
     0
  9
$DIMDEC
 70
     2
  9
$DIMTDEC
 70
     2
  9
$DIMALTU
 70
     2
  9
$DIMALTTD
 70
     3
  9
$DIMTXSTY
  7
Standard
  9
$DIMAUNIT
 70
     0
  9
$DIMADEC
 70
     0
  9
$DIMALTRND
 40
0.0
  9
$DIMAZIN
 70
     0
  9
$DIMDSEP
 70
    44
  9
$DIMATFIT
 70
     3
  9
$DIMFRAC
 70
     0
  9
$DIMLDRBLK
  1

  9
$DIMLUNIT
 70
     2
  9
$DIMLWD
 70
    -2
  9
$DIMLWE
 70
    -2
  9
$DIMTMOVE
 70
     0
  9
$LUNITS
 70
     2
  9
$LUPREC
 70
     4
  9
$SKETCHINC
 40
1.0
  9
$FILLETRAD
 40
10.0
  9
$AUNITS
 70
     0
  9
$AUPREC
 70
     0
  9
$MENU
  1
.
  9
$ELEVATION
 40
0.0
  9
$PELEVATION
 40
0.0
  9
$THICKNESS
 40
0.0
  9
$LIMCHECK
 70
     0
  9
$CHAMFERA
 40
10.0
  9
$CHAMFERB
 40
10.0
  9
$CHAMFERC
 40
20.0
  9
$CHAMFERD
 40
0.0
  9
$SKPOLY
 70
     0
  9
$TDCREATE
 40
2456610.476581007
  9
$TDUCREATE
 40
2456610.43491434
  9
$TDUPDATE
 40
2456610.476581018
  9
$TDUUPDATE
 40
2456610.434914352
  9
$TDINDWG
 40
0.0000000116
  9
$TDUSRTIMER
 40
0.0000000116
  9
$USRTIMER
 70
     1
  9
$ANGBASE
 50
0.0
  9
$ANGDIR
 70
     0
  9
$PDMODE
 70
     0
  9
$PDSIZE
 40
0.0
  9
$PLINEWID
 40
0.0
  9
$SPLFRAME
 70
     0
  9
$SPLINETYPE
 70
     6
  9
$SPLINESEGS
 70
     8
  9
$HANDSEED
  5
27A
  9
$SURFTAB1
 70
     6
  9
$SURFTAB2
 70
     6
  9
$SURFTYPE
 70
     6
  9
$SURFU
 70
     6
  9
$SURFV
 70
     6
  9
$UCSBASE
  2

  9
$UCSNAME
  2

  9
$UCSORG
 10
0.0
 20
0.0
 30
0.0
  9
$UCSXDIR
 10
1.0
 20
0.0
 30
0.0
  9
$UCSYDIR
 10
0.0
 20
1.0
 30
0.0
  9
$UCSORTHOREF
  2

  9
$UCSORTHOVIEW
 70
     0
  9
$UCSORGTOP
 10
0.0
 20
0.0
 30
0.0
  9
$UCSORGBOTTOM
 10
0.0
 20
0.0
 30
0.0
  9
$UCSORGLEFT
 10
0.0
 20
0.0
 30
0.0
  9
$UCSORGRIGHT
 10
0.0
 20
0.0
 30
0.0
  9
$UCSORGFRONT
 10
0.0
 20
0.0
 30
0.0
  9
$UCSORGBACK
 10
0.0
 20
0.0
 30
0.0
  9
$PUCSBASE
  2

  9
$PUCSNAME
  2

  9
$PUCSORG
 10
0.0
 20
0.0
 30
0.0
  9
$PUCSXDIR
 10
1.0
 20
0.0
 30
0.0
  9
$PUCSYDIR
 10
0.0
 20
1.0
 30
0.0
  9
$PUCSORTHOREF
  2

  9
$PUCSORTHOVIEW
 70
     0
  9
$PUCSORGTOP
 10
0.0
 20
0.0
 30
0.0
  9
$PUCSORGBOTTOM
 10
0.0
 20
0.0
 30
0.0
  9
$PUCSORGLEFT
 10
0.0
 20
0.0
 30
0.0
  9
$PUCSORGRIGHT
 10
0.0
 20
0.0
 30
0.0
  9
$PUCSORGFRONT
 10
0.0
 20
0.0
 30
0.0
  9
$PUCSORGBACK
 10
0.0
 20
0.0
 30
0.0
  9
$USERI1
 70
     0
  9
$USERI2
 70
     0
  9
$USERI3
 70
     0
  9
$USERI4
 70
     0
  9
$USERI5
 70
     0
  9
$USERR1
 40
0.0
  9
$USERR2
 40
0.0
  9
$USERR3
 40
0.0
  9
$USERR4
 40
0.0
  9
$USERR5
 40
0.0
  9
$WORLDVIEW
 70
     1
  9
$SHADEDGE
 70
     3
  9
$SHADEDIF
 70
    70
  9
$TILEMODE
 70
     1
  9
$MAXACTVP
 70
    64
  9
$PINSBASE
 10
0.0
 20
0.0
 30
0.0
  9
$PLIMCHECK
 70
     0
  9
$PEXTMIN
 10
0.0
 20
0.0
 30
0.0
  9
$PEXTMAX
 10
3000.0
 20
4500.0
 30
0.0
  9
$PLIMMIN
 10
0.0
 20
0.0
  9
$PLIMMAX
 10
3000.0
 20
4500.0
  9
$UNITMODE
 70
     0
  9
$VISRETAIN
 70
     1
  9
$PLINEGEN
 70
     0
  9
$PSLTSCALE
 70
     1
  9
$TREEDEPTH
 70
  3020
  9
$CMLSTYLE
  2
Standard
  9
$CMLJUST
 70
     0
  9
$CMLSCALE
 40
20.0
  9
$PROXYGRAPHICS
 70
     1
  9
$MEASUREMENT
 70
     1
  9
$CELWEIGHT
370
    -1
  9
$ENDCAPS
280
     0
  9
$JOINSTYLE
280
     0
  9
$LWDISPLAY
290
     0
  9
$INSUNITS
 70
     4
  9
$HYPERLINKBASE
  1

  9
$STYLESHEET
  1

  9
$XEDIT
290
     1
  9
$CEPSNTYPE
380
     0
  9
$PSTYLEMODE
290
     1
  9
$FINGERPRINTGUID
  2
{00C9994A-680D-47D1-9C96-584515A55737}
  9
$VERSIONGUID
  2
{FAEB1C32-E019-11D5-929B-00C0DF256EC4}
  9
$EXTNAMES
290
     1
  9
$PSVPSCALE
 40
0.0
  9
$OLESTARTUP
290
     0
  0
ENDSEC
  0
SECTION
  2
CLASSES
  0
CLASS
  1
ACDBDICTIONARYWDFLT
  2
AcDbDictionaryWithDefault
  3
ObjectDBX Classes
 90
        0
280
     0
281
     0
  0
CLASS
  1
VISUALSTYLE
  2
AcDbVisualStyle
  3
ObjectDBX Classes
 90
     4095
280
     0
281
     0
  0
CLASS
  1
SCALE
  2
AcDbScale
  3
ObjectDBX Classes
 90
     1153
280
     0
281
     0
  0
CLASS
  1
DICTIONARYVAR
  2
AcDbDictionaryVar
  3
ObjectDBX Classes
 90
        0
280
     0
281
     0
  0
CLASS
  1
ACDBPLACEHOLDER
  2
AcDbPlaceHolder
  3
ObjectDBX Classes
 90
        0
280
     0
281
     0
  0
CLASS
  1
LAYOUT
  2
AcDbLayout
  3
ObjectDBX Classes
 90
        0
280
     0
281
     0
  0
ENDSEC
  0
SECTION
  2
TABLES
  0
TABLE
  2
VPORT
  5
8
330
0
100
AcDbSymbolTable
 70
     1
  0
VPORT
  5
29
330
8
100
AcDbSymbolTableRecord
100
AcDbViewportTableRecord
  2
*Active
 70
     0
 10
0.0
 20
0.0
 11
1.0
 21
1.0
 12
344.1869158879
 22
148.5
 13
0.0
 23
0.0
 14
10.0
 24
10.0
 15
10.0
 25
10.0
 16
0.0
 26
0.0
 36
1.0
 17
0.0
 27
0.0
 37
0.0
 40
297.0
 41
1.9729729729
 42
50.0
 43
0.0
 44
0.0
 50
0.0
 51
0.0
 71
     0
 72
   100
 73
     1
 74
     3
 75
     0
 76
     0
 77
     0
 78
     0
281
     0
 65
     1
110
0.0
120
0.0
130
0.0
111
1.0
121
0.0
131
0.0
112
0.0
122
1.0
132
0.0
 79
     0
146
0.0
  0
ENDTAB
  0
TABLE
  2
LTYPE
  5
5
330
0
100
AcDbSymbolTable
 70
     2
  0
LTYPE
  5
14
330
5
100
AcDbSymbolTableRecord
100
AcDbLinetypeTableRecord
  2
ByBlock
 70
     0
  3

 72
    65
 73
     0
 40
0.0
  0
LTYPE
  5
15
330
5
100
AcDbSymbolTableRecord
100
AcDbLinetypeTableRecord
  2
ByLayer
 70
     0
  3

 72
    65
 73
     0
 40
0.0
  0
LTYPE
  5
16
330
5
100
AcDbSymbolTableRecord
100
AcDbLinetypeTableRecord
  2
Continuous
 70
     0
  3
Solid line
 72
    65
 73
     0
 40
0.0
  0
LTYPE
  5
1F7
330
5
100
AcDbSymbolTableRecord
100
AcDbLinetypeTableRecord
  2
CENTER2
 70
     0
  3
Center (.5x) ___ _ ___ _ ___ _ ___ _ ___ _ ___
 72
    65
 73
     4
 40
28.575
 49
19.05
 74
     4
 75
     0
340
0
 46
0.0
 50
0.0
 44
0.0
 45
0.0
 49
-3.175
 74
     4
 75
     0
340
0
 46
0.0
 50
0.0
 44
0.0
 45
0.0
 49
3.175
 74
     4
 75
     0
340
0
 46
0.0
 50
0.0
 44
0.0
 45
0.0
 49
-3.175
 74
     4
 75
     0
340
0
 46
0.0
 50
0.0
 44
0.0
 45
0.0
  0
ENDTAB
  0
TABLE
  2
LAYER
  5
2
330
0
100
AcDbSymbolTable
 70
    11
  0
LAYER
  5
10
330
2
100
AcDbSymbolTableRecord
100
AcDbLayerTableRecord
  2
0
 70
     0
 62
     7
  6
Continuous
370
    -3
390
F
  0
LAYER
  5
5D
330
2
100
AcDbSymbolTableRecord
100
AcDbLayerTableRecord
  2
Default
 70
     0
 62
     7
  6
Continuous
370
    -3
390
F
  0
LAYER
  5
60
330
2
100
AcDbSymbolTableRecord
100
AcDbLayerTableRecord
  2
405584038_EHM_WT
 70
     0
 62
     7
  6
Continuous
370
    -3
390
F
  0
LAYER
  5
67
330
2
100
AcDbSymbolTableRecord
100
AcDbLayerTableRecord
  2
09130031_ADAPTER
 70
     0
 62
     7
  6
Continuous
370
    -3
390
F
  0
LAYER
  5
69
330
2
100
AcDbSymbolTableRecord
100
AcDbLayerTableRecord
  2
$DDT_AUDIT_GENERATED_(69)
 70
     0
 62
     7
  6
Continuous
370
    -3
390
F
  0
LAYER
  5
7A
330
2
100
AcDbSymbolTableRecord
100
AcDbLayerTableRecord
  2
$DDT_AUDIT_GENERATED_(7A)
 70
     0
 62
     7
  6
Continuous
370
    -3
390
F
  0
LAYER
  5
7E
330
2
100
AcDbSymbolTableRecord
100
AcDbLayerTableRecord
  2
$DDT_AUDIT_GENERATED_(7E)
 70
     0
 62
     7
  6
Continuous
370
    -3
390
F
  0
LAYER
  5
85
330
2
100
AcDbSymbolTableRecord
100
AcDbLayerTableRecord
  2
$DDT_AUDIT_GENERATED_(85)
 70
     0
 62
     7
  6
Continuous
370
    -3
390
F
  0
LAYER
  5
1F6
330
2
100
AcDbSymbolTableRecord
100
AcDbLayerTableRecord
  2
DV1_Default
 70
     0
 62
     7
  6
Continuous
370
    -3
390
F
  0
LAYER
  5
245
330
2
100
AcDbSymbolTableRecord
100
AcDbLayerTableRecord
  2
DV2_Default
 70
     0
 62
     7
  6
Continuous
370
    -3
390
F
  0
LAYER
  5
260
330
2
100
AcDbSymbolTableRecord
100
AcDbLayerTableRecord
  2
DV3_Default
 70
     0
 62
     7
  6
Continuous
370
    -3
390
F
  0
ENDTAB
  0
TABLE
  2
STYLE
  5
3
330
0
100
AcDbSymbolTable
 70
     2
  0
STYLE
  5
11
330
3
100
AcDbSymbolTableRecord
100
AcDbTextStyleTableRecord
  2
Standard
 70
     0
 40
0.0
 41
1.0
 50
0.0
 71
     0
 42
2.5
  3
txt
  4

  0
STYLE
  5
269
330
3
100
AcDbSymbolTableRecord
100
AcDbTextStyleTableRecord
  2
SEACAD_seiso_ttf
 70
     0
 40
0.0
 41
1.0
 50
0.0
 71
     0
 42
0.2
  3
seiso.ttf
  4

  0
ENDTAB
  0
TABLE
  2
VIEW
  5
6
330
0
100
AcDbSymbolTable
 70
     0
  0
ENDTAB
  0
TABLE
  2
UCS
  5
7
330
0
100
AcDbSymbolTable
 70
     0
  0
ENDTAB
  0
TABLE
  2
APPID
  5
9
330
0
100
AcDbSymbolTable
 70
     1
  0
APPID
  5
12
330
9
100
AcDbSymbolTableRecord
100
AcDbRegAppTableRecord
  2
ACAD
 70
     0
  0
ENDTAB
  0
TABLE
  2
DIMSTYLE
  5
A
330
0
100
AcDbSymbolTable
 70
     1
100
AcDbDimStyleTable
  0
DIMSTYLE
105
27
330
A
100
AcDbSymbolTableRecord
100
AcDbDimStyleTableRecord
  2
ISO-25
 70
     0
 41
2.5
 42
0.625
 43
3.75
 44
1.25
 73
     0
 74
     0
 77
     1
 78
     8
140
2.5
141
2.5
143
0.0393700787
147
0.625
171
     3
172
     1
271
     2
272
     2
274
     3
278
    44
283
     0
284
     8
340
11
  0
ENDTAB
  0
TABLE
  2
BLOCK_RECORD
  5
1
330
0
100
AcDbSymbolTable
 70
     4
  0
BLOCK_RECORD
  5
1F
330
1
100
AcDbSymbolTableRecord
100
AcDbBlockTableRecord
  2
*Model_Space
340
22
  0
BLOCK_RECORD
  5
1B
330
1
100
AcDbSymbolTableRecord
100
AcDbBlockTableRecord
  2
*Paper_Space
340
1E
  0
BLOCK_RECORD
  5
5E
330
1
100
AcDbSymbolTableRecord
100
AcDbBlockTableRecord
  2
SE
340
0
102
{BLKREFS
331
5F
102
}
  0
BLOCK_RECORD
  5
1FC
330
1
100
AcDbSymbolTableRecord
100
AcDbBlockTableRecord
  2
SE1
340
0
102
{BLKREFS
331
1FD
102
}
  0
BLOCK_RECORD
  5
24A
330
1
100
AcDbSymbolTableRecord
100
AcDbBlockTableRecord
  2
SE2
340
0
102
{BLKREFS
331
24B
102
}
  0
ENDTAB
  0
ENDSEC
  0
SECTION
  2
BLOCKS
  0
BLOCK
  5
20
330
1F
100
AcDbEntity
  8
0
100
AcDbBlockBegin
  2
*Model_Space
 70
     0
 10
0.0
 20
0.0
 30
0.0
  3
*Model_Space
  1

  0
ENDBLK
  5
21
330
1F
100
AcDbEntity
  8
0
100
AcDbBlockEnd
  0
BLOCK
  5
1C
330
1B
100
AcDbEntity
 67
     1
  8
0
100
AcDbBlockBegin
  2
*Paper_Space
 70
     0
 10
0.0
 20
0.0
 30
0.0
  3
*Paper_Space
  1

  0
ENDBLK
  5
1D
330
1B
100
AcDbEntity
 67
     1
  8
0
100
AcDbBlockEnd
  0
BLOCK
  5
1FA
330
5E
100
AcDbEntity
  8
0
100
AcDbBlockBegin
  2
SE
 70
     0
 10
0.0
 20
0.0
 30
0.0
  3
SE
  1

  0
LINE
  5
61
330
5E
100
AcDbEntity
  8
405584038_EHM_WT
  6
Continuous
 62
     7
100
AcDbLine
 10
8.8498300656
 20
388.8516733052
 30
0.0
 11
53.8501699344
 21
388.8516733052
 31
0.0
  0
CIRCLE
  5
62
330
5E
100
AcDbEntity
  8
405584038_EHM_WT
  6
Continuous
 62
     7
100
AcDbCircle
 10
31.3498916115
 20
511.6462507499
 30
0.0
 40
14.49999999999977
  0
ARC
  5
63
330
5E
100
AcDbEntity
  8
405584038_EHM_WT
  6
Continuous
 62
     7
100
AcDbCircle
 10
14.8326477168
 20
542.9267911416
 30
0.0
 40
5.98290439558101
100
AcDbArc
 50
160.714383059
 51
180.3116148076
  0
ARC
  5
64
330
5E
100
AcDbEntity
  8
405584038_EHM_WT
  6
Continuous
 62
     7
100
AcDbCircle
 10
47.8661917813
 20
542.9264581372
 30
0.0
 40
5.984061239380273
100
AcDbArc
 50
359.6913732243
 51
19.2022609666
  0
LINE
  5
65
330
5E
100
AcDbEntity
  8
405584038_EHM_WT
  6
Continuous
 62
     7
100
AcDbLine
 10
8.8498300656
 20
542.8942165881
 30
0.0
 11
8.8498300656
 21
388.8516733052
 31
0.0
  0
LINE
  5
66
330
5E
100
AcDbEntity
  8
405584038_EHM_WT
  6
Continuous
 62
     7
100
AcDbLine
 10
53.8501699344
 20
388.8516733052
 30
0.0
 11
53.8501699344
 21
542.8942165881
 31
0.0
  0
LINE
  5
68
330
5E
100
AcDbEntity
  8
09130031_ADAPTER
  6
Continuous
 62
     7
100
AcDbLine
 10
27.2055768851
 20
570.4813401253
 30
0.0
 11
27.2417437979
 21
570.4813401253
 31
0.0
  0
CIRCLE
  5
6A
330
5E
100
AcDbEntity
  8
$DDT_AUDIT_GENERATED_(69)
  6
Continuous
 62
     7
100
AcDbCircle
 10
31.3611707305
 20
568.1488471393
 30
0.0
 40
4.749999999999969
  0
SPLINE
  5
6B
330
5E
100
AcDbEntity
  8
$DDT_AUDIT_GENERATED_(69)
  6
Continuous
 62
     7
100
AcDbSpline
210
0.0
220
0.0
230
1.0
 70
     8
 71
     3
 72
    10
 73
     6
 74
     0
 42
0.0000000007560205
 43
0.0000000001
 40
0.4883633742261378
 40
0.4883633742261378
 40
0.4883633742261378
 40
0.4883633742261378
 40
0.5
 40
0.5
 40
0.5001621583545021
 40
0.5001621583545021
 40
0.5001621583545021
 40
0.5001621583545021
 10
55.46050641919431
 20
546.5245776078558
 30
0.0
 10
55.47126467133756
 20
546.5754406850692
 30
0.0
 10
55.47661155031869
 20
546.6262995665899
 30
0.0
 10
55.47649645280569
 20
546.6778199549423
 30
0.0
 10
55.47649381757609
 20
546.6785280607065
 30
0.0
 10
55.47649012906302
 20
546.679236193858
 30
0.0
  0
SPLINE
  5
6C
330
5E
100
AcDbEntity
  8
$DDT_AUDIT_GENERATED_(69)
  6
Continuous
 62
     7
100
AcDbSpline
210
0.0
220
0.0
230
1.0
 70
     8
 71
     3
 72
    14
 73
    10
 74
     0
 42
0.0000000001434011
 43
0.0000000001
 40
0.0
 40
0.0
 40
0.0
 40
0.0
 40
0.0625
 40
0.0625
 40
0.125
 40
0.125
 40
0.1875000000000001
 40
0.1875000000000001
 40
0.2151496878132058
 40
0.2151496878132058
 40
0.2151496878132058
 40
0.2151496878132058
 10
31.35859070990325
 20
542.3207382849874
 30
0.0
 10
29.77779601411382
 20
542.3207382849874
 30
0.0
 10
28.22345475601147
 20
542.3477042478335
 30
0.0
 10
25.1655108707244
 20
542.453357845861
 30
0.0
 10
23.64601937151413
 20
542.5333330264172
 30
0.0
 10
20.74896734505592
 20
542.7420842117658
 30
0.0
 10
19.3750052208926
 20
542.8698212708267
 30
0.0
 10
17.49978922750042
 20
543.0874609732726
 30
0.0
 10
16.93819147315904
 20
543.159054396336
 30
0.0
 10
16.39522065629136
 20
543.2347473607692
 30
0.0
  0
SPLINE
  5
6D
330
5E
100
AcDbEntity
  8
$DDT_AUDIT_GENERATED_(69)
  6
Continuous
 62
     7
100
AcDbSpline
210
0.0
220
0.0
230
1.0
 70
     8
 71
     3
 72
    14
 73
    10
 74
     0
 42
0.000000000144893
 43
0.0000000001
 40
0.7695327026987567
 40
0.7695327026987567
 40
0.7695327026987567
 40
0.7695327026987567
 40
0.8124999999999999
 40
0.8124999999999999
 40
0.875
 40
0.875
 40
0.9375
 40
0.9375
 40
1.0
 40
1.0
 40
1.0
 40
1.0
 10
47.21502047393923
 20
543.3653864635211
 30
0.0
 10
46.40823601718785
 20
543.2412098812722
 30
0.0
 10
45.55802286013532
 20
543.12728916189
 30
0.0
 10
43.37318055131966
 20
542.8730019833448
 30
0.0
 10
41.97605213746552
 20
542.7427419333095
 30
0.0
 10
39.07715574603206
 20
542.5336724143183
 30
0.0
 10
37.58597386500652
 20
542.4549125182475
 30
0.0
 10
34.52119711270984
 20
542.3482912641166
 30
0.0
 10
32.93935846316626
 20
542.3207382849874
 30
0.0
 10
31.35859070990325
 20
542.3207382849874
 30
0.0
  0
SPLINE
  5
6E
330
5E
100
AcDbEntity
  8
$DDT_AUDIT_GENERATED_(69)
  6
Continuous
 62
     7
100
AcDbSpline
210
0.0
220
0.0
230
1.0
 70
     8
 71
     3
 72
    10
 73
     6
 74
     0
 42
0.0000000007546222
 43
0.0000000001
 40
0.4996520672295409
 40
0.4996520672295409
 40
0.4996520672295409
 40
0.4996520672295409
 40
0.5000000000000002
 40
0.5000000000000002
 40
0.5117913739601438
 40
0.5117913739601438
 40
0.5117913739601438
 40
0.5117913739601438
 10
7.24069139591866
 20
546.679200937862
 30
0.0
 10
7.240683405691835
 20
546.6776816084539
 30
0.0
 10
7.240680295415937
 20
546.676162321474
 30
0.0
 10
7.240742084976041
 20
546.623156213944
 30
0.0
 10
7.246371327771988
 20
546.5715255606511
 30
0.0
 10
7.257537196995196
 20
546.519833152565
 30
0.0
  0
LINE
  5
6F
330
5E
100
AcDbEntity
  8
$DDT_AUDIT_GENERATED_(69)
  6
Continuous
 62
     7
100
AcDbLine
 10
7.3894160821
 20
575.7980453849
 30
0.0
 11
7.2406912793
 21
546.6792599253
 31
0.0
  0
LINE
  5
70
330
5E
100
AcDbEntity
  8
$DDT_AUDIT_GENERATED_(69)
  6
Continuous
 62
     7
100
AcDbLine
 10
55.4764901537
 20
546.6792573452
 30
0.0
 11
55.3278630497
 21
575.7789137452
 31
0.0
  0
ARC
  5
71
330
5E
100
AcDbEntity
  8
$DDT_AUDIT_GENERATED_(69)
  6
Continuous
 62
     7
100
AcDbCircle
 10
31.3498865702
 20
384.7605660738
 30
0.0
 40
194.3747257569171
100
AcDbArc
 50
83.4819582592
 51
96.5179636818
  0
SPLINE
  5
72
330
5E
100
AcDbEntity
  8
$DDT_AUDIT_GENERATED_(69)
  6
Continuous
 62
     7
100
AcDbSpline
210
0.0
220
0.0
230
1.0
 70
     8
 71
     3
 72
     8
 73
     4
 74
     0
 42
0.0000000044692793
 43
0.0000000001
 40
0.0
 40
0.0
 40
0.0
 40
0.0
 40
1.0
 40
1.0
 40
1.0
 40
1.0
 10
8.99934759458374
 20
577.7444984483959
 30
0.0
 10
8.59179649177376
 20
577.2951592761275
 30
0.0
 10
8.090413335166954
 20
576.7429991293415
 30
0.0
 10
7.49519812476334
 20
576.0880180080376
 30
0.0
  0
SPLINE
  5
73
330
5E
100
AcDbEntity
  8
$DDT_AUDIT_GENERATED_(69)
  6
Continuous
 62
     7
100
AcDbSpline
210
0.0
220
0.0
230
1.0
 70
     8
 71
     3
 72
     8
 73
     4
 74
     0
 42
0.000000004464308
 43
0.0000000001
 40
0.0
 40
0.0
 40
0.0
 40
0.0
 40
1.0
 40
1.0
 40
1.0
 40
1.0
 10
55.2062552645391
 20
576.0861744728567
 30
0.0
 10
54.67946894894796
 20
576.6657730092005
 30
0.0
 10
54.17752501235975
 20
577.2185457951213
 30
0.0
 10
53.70042345477447
 20
577.7444928306186
 30
0.0
  0
ARC
  5
74
330
5E
100
AcDbEntity
  8
$DDT_AUDIT_GENERATED_(69)
  6
Continuous
 62
     7
100
AcDbCircle
 10
7.8353863621
 20
575.7981391262
 30
0.0
 40
0.4454871010245046
100
AcDbArc
 50
137.0710665854
 51
180.0282138953
  0
ARC
  5
75
330
5E
100
AcDbEntity
  8
$DDT_AUDIT_GENERATED_(69)
  6
Continuous
 62
     7
100
AcDbCircle
 10
54.8762588782
 20
575.7780727097
 30
0.0
 40
0.4508996345176517
100
AcDbArc
 50
0.0558822245
 51
43.053625638
  0
ARC
  5
76
330
5E
100
AcDbEntity
  8
$DDT_AUDIT_GENERATED_(69)
  6
Continuous
 62
     7
100
AcDbCircle
 10
53.3829539468
 20
577.4438268737
 30
0.0
 40
0.4351205538800132
100
AcDbArc
 50
42.3757027666
 51
80.5199554669
  0
ARC
  5
77
330
5E
100
AcDbEntity
  8
$DDT_AUDIT_GENERATED_(69)
  6
Continuous
 62
     7
100
AcDbCircle
 10
9.3172944935
 20
577.4426502696
 30
0.0
 40
0.4363971807106466
100
AcDbArc
 50
99.4721307852
 51
137.8179930861
  0
SPLINE
  5
78
330
5E
100
AcDbEntity
  8
$DDT_AUDIT_GENERATED_(69)
  6
Continuous
 62
     7
100
AcDbSpline
210
0.0
220
0.0
230
1.0
 70
     8
 71
     3
 72
    30
 73
    26
 74
     0
 42
0.0000000010033152
 43
0.0000000001
 40
0.0
 40
0.0
 40
0.0
 40
0.0
 40
0.0232024784920787
 40
0.0645773119817626
 40
0.1071238171782675
 40
0.1511479914381046
 40
0.1963399578338594
 40
0.2420516087407059
 40
0.2878690752484607
 40
0.334165018762354
 40
0.3804616416776949
 40
0.4267259387087284
 40
0.4729533399858785
 40
0.5191409562596152
 40
0.5652819758115988
 40
0.6113649753432971
 40
0.657374888298514
 40
0.7032944051688262
 40
0.7491053693089742
 40
0.794790026775573
 40
0.8403320950143294
 40
0.8857176512397889
 40
0.9309123262305333
 40
0.9759727393057832
 40
1.0
 40
1.0
 40
1.0
 40
1.0
 10
7.274555288150797
 20
546.4808667851639
 30
0.0
 10
7.281429506059776
 20
546.4428516472486
 30
0.0
 10
7.298344239280372
 20
546.3531846248684
 30
0.0
 10
7.367511952611011
 20
546.1957532089318
 30
0.0
 10
7.476248192324078
 20
546.0204774566979
 30
0.0
 10
7.623516765517917
 20
545.8459023676926
 30
0.0
 10
7.807686189967147
 20
545.6739891427894
 30
0.0
 10
8.029553889169122
 20
545.5050406544158
 30
0.0
 10
8.287560968601872
 20
545.3394875866425
 30
0.0
 10
8.581253579687253
 20
545.1769753520562
 30
0.0
 10
8.910364877889473
 20
545.0174125992877
 30
0.0
 10
9.27336288310543
 20
544.8611944688947
 30
0.0
 10
9.669602405556928
 20
544.7083220456454
 30
0.0
 10
10.09844354656195
 20
544.5588422325449
 30
0.0
 10
10.55916885110503
 20
544.4128650862586
 30
0.0
 10
11.05096591273711
 20
544.2705460552013
 30
0.0
 10
11.57292109613917
 20
544.1320722439049
 30
0.0
 10
12.12404180575008
 20
543.9976460002752
 30
0.0
 10
12.70321365004508
 20
543.8674865633749
 30
0.0
 10
13.3094190884918
 20
543.7417781957809
 30
0.0
 10
13.94099456745497
 20
543.6208280233499
 30
0.0
 10
14.59835038496358
 20
543.5044740473794
 30
0.0
 10
15.27394185169318
 20
543.3942625943728
 30
0.0
 10
15.8797562011223
 20
543.3019650832077
 30
0.0
 10
16.22712381758479
 20
543.2540006829164
 30
0.0
 10
16.36953320013937
 20
543.2344029587168
 30
0.0
  0
SPLINE
  5
79
330
5E
100
AcDbEntity
  8
$DDT_AUDIT_GENERATED_(69)
  6
Continuous
 62
     7
100
AcDbSpline
210
0.0
220
0.0
230
1.0
 70
     8
 71
     3
 72
    29
 73
    25
 74
     0
 42
0.0000000011057332
 43
0.0000000001
 40
0.0
 40
0.0
 40
0.0
 40
0.0
 40
0.0193483981179486
 40
0.0668929407130189
 40
0.1144739062906962
 40
0.1625359770897739
 40
0.2107266820062281
 40
0.259038122287135
 40
0.3074608519729969
 40
0.3559853278829292
 40
0.4046028142243661
 40
0.4533064292358674
 40
0.5020923306737788
 40
0.5509609940033373
 40
0.5999184080531447
 40
0.6489766629351116
 40
0.6981524948110651
 40
0.7474600764419972
 40
0.7967460425145927
 40
0.8459749376991814
 40
0.89509520026647
 40
0.9431423583570624
 40
0.9894326892717407
 40
1.0
 40
1.0
 40
1.0
 40
1.0
 10
47.27155000628722
 20
543.3698677379326
 30
0.0
 10
47.37563927364466
 20
543.3855990125312
 30
0.0
 10
47.68187985221613
 20
543.4319981628039
 30
0.0
 10
48.23091437192811
 20
543.5239852074252
 30
0.0
 10
48.87394654526213
 20
543.6388091815305
 30
0.0
 10
49.49853282347888
 20
543.7597836891374
 30
0.0
 10
50.09749250945136
 20
543.8852491870132
 30
0.0
 10
50.66993503187334
 20
544.0151786943361
 30
0.0
 10
51.21434298340714
 20
544.1492779728488
 30
0.0
 10
51.72983130507727
 20
544.2874026646898
 30
0.0
 10
52.21542283676712
 20
544.4293761550034
 30
0.0
 10
52.67025857127903
 20
544.5750495250343
 30
0.0
 10
53.09355421292811
 20
544.7243001347215
 30
0.0
 10
53.4846222453756
 20
544.877053541917
 30
0.0
 10
53.84286989266692
 20
545.0333037508221
 30
0.0
 10
54.16779553298483
 20
545.193158417022
 30
0.0
 10
54.45894991099251
 20
545.3568384670796
 30
0.0
 10
54.71565684005729
 20
545.52472302254
 30
0.0
 10
54.93720193144051
 20
545.6969647396213
 30
0.0
 10
55.12357636389318
 20
545.8744875697033
 30
0.0
 10
55.27393372724303
 20
546.0581500500414
 30
0.0
 10
55.3813813608641
 20
546.2448893933185
 30
0.0
 10
55.44165434359375
 20
546.3927432646032
 30
0.0
 10
55.45191182634836
 20
546.468449458371
 30
0.0
 10
55.45408444655263
 20
546.4848969004261
 30
0.0
  0
ELLIPSE
  5
7B
330
5E
100
AcDbEntity
  8
$DDT_AUDIT_GENERATED_(7A)
  6
Continuous
 62
     7
100
AcDbEllipse
 10
31.35
 20
558.229509223
 30
0.0
 11
3.181459353766902E-15
 21
3.820805109365055
 31
0.0
210
0.0
220
0.0
230
1.0
 40
0.9029510538
 41
0.0
 42
6.283185307179586
  0
LINE
  5
7C
330
5E
100
AcDbEntity
  8
$DDT_AUDIT_GENERATED_(7A)
  6
Continuous
 62
     7
100
AcDbLine
 10
27.9
 20
558.5201756815
 30
0.0
 11
27.9
 21
558.229509223
 31
0.0
  0
LINE
  5
7D
330
5E
100
AcDbEntity
  8
$DDT_AUDIT_GENERATED_(7A)
  6
Continuous
 62
     7
100
AcDbLine
 10
34.8
 20
558.229509223
 30
0.0
 11
34.8
 21
558.5201756815
 31
0.0
  0
ELLIPSE
  5
7F
330
5E
100
AcDbEntity
  8
$DDT_AUDIT_GENERATED_(7E)
  6
Continuous
 62
     7
100
AcDbEllipse
 10
31.35
 20
489.7949909656
 30
0.0
 11
10.075
 21
0.0
 31
0.0
210
0.0
220
0.0
230
1.0
 40
0.3420201433
 41
0.0
 42
3.737132702278552
  0
ELLIPSE
  5
80
330
5E
100
AcDbEntity
  8
$DDT_AUDIT_GENERATED_(7E)
  6
Continuous
 62
     7
100
AcDbEllipse
 10
31.35
 20
489.7949909656
 30
0.0
 11
10.075
 21
0.0
 31
0.0
210
0.0
220
0.0
230
1.0
 40
0.3420201433
 41
5.687645258490828
 42
6.283185307179586
  0
LINE
  5
81
330
5E
100
AcDbEntity
  8
$DDT_AUDIT_GENERATED_(7E)
  6
Continuous
 62
     7
100
AcDbLine
 10
42.925
 20
490.7346835864
 30
0.0
 11
42.925
 21
502.9332465739
 31
0.0
  0
LINE
  5
82
330
5E
100
AcDbEntity
  8
$DDT_AUDIT_GENERATED_(7E)
  6
Continuous
 62
     7
100
AcDbLine
 10
19.775
 20
502.9342316342
 30
0.0
 11
19.775
 21
490.7346835864
 31
0.0
  0
SPLINE
  5
83
330
5E
100
AcDbEntity
  8
$DDT_AUDIT_GENERATED_(7E)
  6
Continuous
 62
     7
100
AcDbSpline
210
0.0
220
0.0
230
1.0
 70
     8
 71
     3
 72
    23
 73
    19
 74
     0
 42
0.0000000009319146
 43
0.0000000001
 40
0.0
 40
0.0
 40
0.0
 40
0.0
 40
0.001008813439747
 40
0.0306504457760005
 40
0.0602190771547983
 40
0.090069261473825
 40
0.1206068339136943
 40
0.1522093991677242
 40
0.1851920909042809
 40
0.2197417144873356
 40
0.2558341058411358
 40
0.2931933661190071
 40
0.3313655285448454
 40
0.3698861621737093
 40
0.408362053267112
 40
0.4466283261390881
 40
0.4846375712456495
 40
0.5034960364829624
 40
0.5034960364829624
 40
0.5034960364829624
 40
0.5034960364829624
 10
19.7756088810208
 20
490.7361670695981
 30
0.0
 10
19.77538364019976
 20
490.7326064139367
 30
0.0
 10
19.76951009978889
 20
490.6393196042794
 30
0.0
 10
19.79084779403049
 20
490.438327088504
 30
0.0
 10
19.8428993397026
 20
490.1600270319169
 30
0.0
 10
19.93346237588092
 20
489.8849626540232
 30
0.0
 10
20.05665613270573
 20
489.6177122617088
 30
0.0
 10
20.2142728858442
 20
489.3563177450877
 30
0.0
 10
20.40715809834288
 20
489.1004145841706
 30
0.0
 10
20.63708092171098
 20
488.8496418677556
 30
0.0
 10
20.9052274250236
 20
488.6046279806991
 30
0.0
 10
21.21149752837924
 20
488.3668611972841
 30
0.0
 10
21.55409281822779
 20
488.1383025998119
 30
0.0
 10
21.92981897939736
 20
487.9208257873285
 30
0.0
 10
22.33519877353691
 20
487.7156112328137
 30
0.0
 10
22.76724947065883
 20
487.5231136199937
 30
0.0
 10
23.14823315905419
 20
487.3730550153623
 30
0.0
 10
23.38576780581814
 20
487.2875910201448
 30
0.0
 10
23.46559272130447
 20
487.2597174581291
 30
0.0
  0
SPLINE
  5
84
330
5E
100
AcDbEntity
  8
$DDT_AUDIT_GENERATED_(7E)
  6
Continuous
 62
     7
100
AcDbSpline
210
0.0
220
0.0
230
1.0
 70
     8
 71
     3
 72
    23
 73
    19
 74
     0
 42
0.0000000009318583
 43
0.0000000001
 40
0.4961259630668064
 40
0.4961259630668064
 40
0.4961259630668064
 40
0.4961259630668064
 40
0.4971285755986957
 40
0.5347157829284257
 40
0.5725477316984522
 40
0.6106575407912075
 40
0.6490677719072195
 40
0.6877707148357526
 40
0.7266906821269029
 40
0.7655379214784861
 40
0.8038320621111891
 40
0.8371922303871465
 40
0.8690536298022059
 40
0.8995500308675716
 40
0.9320877869526808
 40
0.9633105617839541
 40
0.9935617578475175
 40
1.0
 40
1.0
 40
1.0
 40
1.0
 10
39.2277304986411
 20
487.2573881021713
 30
0.0
 10
39.23197627005866
 20
487.2588681780877
 30
0.0
 10
39.39527830825578
 20
487.3158860477701
 30
0.0
 10
39.70993012904725
 20
487.432675368855
 30
0.0
 10
40.15093476883008
 20
487.6173756970405
 30
0.0
 10
40.56745666318832
 20
487.8149013789243
 30
0.0
 10
40.95832937397577
 20
488.0259660815421
 30
0.0
 10
41.32209695704882
 20
488.2514554606308
 30
0.0
 10
41.656477461351
 20
488.4920748267171
 30
0.0
 10
41.95817268132664
 20
488.7478687725197
 30
0.0
 10
42.21435973844385
 20
489.0087358886229
 30
0.0
 10
42.42522750481501
 20
489.2702374801586
 30
0.0
 10
42.59331865444371
 20
489.5278481193737
 30
0.0
 10
42.73104189869952
 20
489.7983629364783
 30
0.0
 10
42.8361758023227
 20
490.0825904903474
 30
0.0
 10
42.90085954880406
 20
490.3746957148165
 30
0.0
 10
42.92794013107161
 20
490.5994923182165
 30
0.0
 10
42.92295474462167
 20
490.7105366990586
 30
0.0
 10
42.92188550073452
 20
490.7332894636417
 30
0.0
  0
ELLIPSE
  5
86
330
5E
100
AcDbEntity
  8
$DDT_AUDIT_GENERATED_(85)
  6
Continuous
 62
     7
100
AcDbEllipse
 10
31.35
 20
488.1975135103
 30
0.0
 11
7.875000000000002
 21
0.0
 31
0.0
210
0.0
220
0.0
230
1.0
 40
0.3420201433
 41
0.0
 42
6.283185307179586
  0
LINE
  5
87
330
5E
100
AcDbEntity
  8
$DDT_AUDIT_GENERATED_(85)
  6
Continuous
 62
     7
100
AcDbLine
 10
30.7169531555
 20
488.7551743129
 30
0.0
 11
30.6918156763
 21
488.8086253804
 31
0.0
  0
ARC
  5
88
330
5E
100
AcDbEntity
  8
$DDT_AUDIT_GENERATED_(85)
  6
Continuous
 62
     7
100
AcDbCircle
 10
31.7464780916
 20
489.5315240231
 30
0.0
 40
1.289434165341157
100
AcDbArc
 50
217.0194124008
 51
223.4250863556
  0
SPLINE
  5
89
330
5E
100
AcDbEntity
  8
$DDT_AUDIT_GENERATED_(85)
  6
Continuous
 62
     7
100
AcDbSpline
210
0.0
220
0.0
230
1.0
 70
    12
 71
     2
 72
     6
 73
     3
 74
     0
 42
0.0000011105898116
 43
0.0000000001
 40
0.0
 40
0.0
 40
0.0
 40
1.0
 40
1.0
 40
1.0
 10
30.81554498693813
 20
488.6380767187578
 30
0.0
 41
1.0
 10
30.81257085298924
 20
488.6415999680364
 30
0.0
 41
1.0
 10
30.80999588267154
 20
488.6451597982751
 30
0.0
 41
1.0
  0
SPLINE
  5
8A
330
5E
100
AcDbEntity
  8
$DDT_AUDIT_GENERATED_(85)
  6
Continuous
 62
     7
100
AcDbSpline
210
0.0
220
0.0
230
1.0
 70
     8
 71
     3
 72
     8
 73
     4
 74
     0
 42
0.0000002741158626
 43
0.0000000001
 40
0.7772426216629023
 40
0.7772426216629023
 40
0.7772426216629023
 40
0.7772426216629023
 40
1.0
 40
1.0
 40
1.0
 40
1.0
 10
30.81934551283848
 20
488.6321249571029
 30
0.0
 10
30.82002256373454
 20
488.6321576734991
 30
0.0
 10
30.81897823790094
 20
488.6340095855411
 30
0.0
 10
30.81554498693815
 20
488.6380767187578
 30
0.0
  0
ELLIPSE
  5
8B
330
5E
100
AcDbEntity
  8
$DDT_AUDIT_GENERATED_(85)
  6
Continuous
 62
     7
100
AcDbEllipse
 10
31.35
 20
488.2625937567
 30
0.0
 11
8.422375322854236
 21
0.0
 31
0.0
210
0.0
220
0.0
230
1.0
 40
0.3420201433
 41
5.923581994009463
 42
6.283185307179586
  0
ELLIPSE
  5
8C
330
5E
100
AcDbEntity
  8
$DDT_AUDIT_GENERATED_(85)
  6
Continuous
 62
     7
100
AcDbEllipse
 10
31.35
 20
488.2625937567
 30
0.0
 11
8.422375322854236
 21
0.0
 31
0.0
210
0.0
220
0.0
230
1.0
 40
0.3420201433
 41
3.141592653589793
 42
3.510081904151294
  0
ELLIPSE
  5
8D
330
5E
100
AcDbEntity
  8
$DDT_AUDIT_GENERATED_(85)
  6
Continuous
 62
     7
100
AcDbEllipse
 10
31.35
 20
488.2625937567
 30
0.0
 11
8.422375322854236
 21
0.0
 31
0.0
210
0.0
220
0.0
230
1.0
 40
0.3420201433
 41
0.0
 42
0.0145262525451488
  0
ELLIPSE
  5
8E
330
5E
100
AcDbEntity
  8
$DDT_AUDIT_GENERATED_(85)
  6
Continuous
 62
     7
100
AcDbEllipse
 10
31.35
 20
488.1975135103
 30
0.0
 11
8.327218268566536
 21
0.0
 31
0.0
210
0.0
220
0.0
230
1.0
 40
0.3420201433
 41
0.6539245563584334
 42
2.520867915670127
  0
ELLIPSE
  5
8F
330
5E
100
AcDbEntity
  8
$DDT_AUDIT_GENERATED_(85)
  6
Continuous
 62
     7
100
AcDbEllipse
 10
31.35
 20
488.1975135103
 30
0.0
 11
8.327218268566536
 21
0.0
 31
0.0
210
0.0
220
0.0
230
1.0
 40
0.3420201433
 41
4.246508224829184
 42
5.374484190670401
  0
ELLIPSE
  5
90
330
5E
100
AcDbEntity
  8
$DDT_AUDIT_GENERATED_(85)
  6
Continuous
 62
     7
100
AcDbEllipse
 10
31.35
 20
488.2744228897
 30
0.0
 11
-6.390109892686958
 21
0.0
 31
0.0
210
0.0
220
0.0
230
1.0
 40
0.3420201433
 41
2.872889242979775
 42
3.2145747977607
  0
ELLIPSE
  5
91
330
5E
100
AcDbEntity
  8
$DDT_AUDIT_GENERATED_(85)
  6
Continuous
 62
     7
100
AcDbEllipse
 10
31.35
 20
488.2744228897
 30
0.0
 11
-6.390109892686958
 21
0.0
 31
0.0
210
0.0
220
0.0
230
1.0
 40
0.3420201433
 41
0.0
 42
0.2635609476964146
  0
ELLIPSE
  5
92
330
5E
100
AcDbEntity
  8
$DDT_AUDIT_GENERATED_(85)
  6
Continuous
 62
     7
100
AcDbEllipse
 10
31.35
 20
488.1975135103
 30
0.0
 11
-6.29177167464824
 21
0.0
 31
0.0
210
0.0
220
0.0
230
1.0
 40
0.3420201433
 41
0.9590288906548691
 42
2.087959322113242
  0
ELLIPSE
  5
93
330
5E
100
AcDbEntity
  8
$DDT_AUDIT_GENERATED_(85)
  6
Continuous
 62
     7
100
AcDbEllipse
 10
31.35
 20
488.1975135103
 30
0.0
 11
-6.29177167464824
 21
0.0
 31
0.0
210
0.0
220
0.0
230
1.0
 40
0.3420201433
 41
3.763131840766467
 42
5.705101237730751
  0
ELLIPSE
  5
94
330
5E
100
AcDbEntity
  8
$DDT_AUDIT_GENERATED_(85)
  6
Continuous
 62
     7
100
AcDbEllipse
 10
31.35
 20
488.1975135103
 30
0.0
 11
6.275000000000003
 21
0.0
 31
0.0
210
0.0
220
0.0
230
1.0
 40
0.3420201433
 41
3.964011514342224
 42
5.410314792782823
  0
ELLIPSE
  5
95
330
5E
100
AcDbEntity
  8
$DDT_AUDIT_GENERATED_(85)
  6
Continuous
 62
     7
100
AcDbEllipse
 10
31.35
 20
488.1975135103
 30
0.0
 11
6.275000000000003
 21
0.0
 31
0.0
210
0.0
220
0.0
230
1.0
 40
0.3420201433
 41
0.6307634051871616
 42
2.560685524742977
  0
ELLIPSE
  5
96
330
5E
100
AcDbEntity
  8
$DDT_AUDIT_GENERATED_(85)
  6
Continuous
 62
     7
100
AcDbEllipse
 10
31.35
 20
488.2914827723
 30
0.0
 11
6.175000000000002
 21
0.0
 31
0.0
210
0.0
220
0.0
230
1.0
 40
0.3420201433
 41
0.0
 42
0.1400952032357599
  0
ELLIPSE
  5
97
330
5E
100
AcDbEntity
  8
$DDT_AUDIT_GENERATED_(85)
  6
Continuous
 62
     7
100
AcDbEllipse
 10
31.35
 20
488.2914827723
 30
0.0
 11
6.175000000000002
 21
0.0
 31
0.0
210
0.0
220
0.0
230
1.0
 40
0.3420201433
 41
6.152804398792934
 42
6.283185307179586
  0
ELLIPSE
  5
98
330
5E
100
AcDbEntity
  8
$DDT_AUDIT_GENERATED_(85)
  6
Continuous
 62
     7
100
AcDbEllipse
 10
31.35
 20
488.2771940709
 30
0.0
 11
4.650545274088402
 21
0.0
 31
0.0
210
0.0
220
0.0
230
1.0
 40
0.3420201433
 41
3.141592653589793
 42
3.197617377764893
  0
ELLIPSE
  5
99
330
5E
100
AcDbEntity
  8
$DDT_AUDIT_GENERATED_(85)
  6
Continuous
 62
     7
100
AcDbEllipse
 10
31.35
 20
488.1975135103
 30
0.0
 11
4.55170810432334
 21
0.0
 31
0.0
210
0.0
220
0.0
230
1.0
 40
0.3420201433
 41
0.6690966884025732
 42
2.469435685764435
  0
ELLIPSE
  5
9A
330
5E
100
AcDbEntity
  8
$DDT_AUDIT_GENERATED_(85)
  6
Continuous
 62
     7
100
AcDbEllipse
 10
31.35
 20
488.1975135103
 30
0.0
 11
4.55170810432334
 21
0.0
 31
0.0
210
0.0
220
0.0
230
1.0
 40
0.3420201433
 41
4.083199342686337
 42
5.223064193844403
  0
ELLIPSE
  5
9B
330
5E
100
AcDbEntity
  8
$DDT_AUDIT_GENERATED_(85)
  6
Continuous
 62
     7
100
AcDbEllipse
 10
31.35
 20
488.1975135103
 30
0.0
 11
4.537499999999997
 21
0.0
 31
0.0
210
0.0
220
0.0
230
1.0
 40
0.3420201433
 41
3.946854571153307
 42
5.458005851047394
  0
ELLIPSE
  5
9C
330
5E
100
AcDbEntity
  8
$DDT_AUDIT_GENERATED_(85)
  6
Continuous
 62
     7
100
AcDbEllipse
 10
31.35
 20
488.1975135103
 30
0.0
 11
4.537499999999997
 21
0.0
 31
0.0
210
0.0
220
0.0
230
1.0
 40
0.3420201433
 41
0.5719610197742901
 42
2.503893403838502
  0
ELLIPSE
  5
9D
330
5E
100
AcDbEntity
  8
$DDT_AUDIT_GENERATED_(85)
  6
Continuous
 62
     7
100
AcDbEllipse
 10
31.35
 20
488.2914827723
 30
0.0
 11
4.437500000000001
 21
0.0
 31
0.0
210
0.0
220
0.0
230
1.0
 40
0.3420201433
 41
6.265554430505663
 42
6.283185307179586
  0
ELLIPSE
  5
9E
330
5E
100
AcDbEntity
  8
$DDT_AUDIT_GENERATED_(85)
  6
Continuous
 62
     7
100
AcDbEllipse
 10
31.35
 20
488.2744228897
 30
0.0
 11
-2.877609892686964
 21
-1.387778780781446E-14
 31
0.0
210
0.0
220
0.0
230
1.0
 40
0.3420201433
 41
0.0
 42
0.0672451728035949
  0
ELLIPSE
  5
9F
330
5E
100
AcDbEntity
  8
$DDT_AUDIT_GENERATED_(85)
  6
Continuous
 62
     7
100
AcDbEllipse
 10
31.35
 20
488.1975135103
 30
0.0
 11
-2.779271674648245
 21
0.0
 31
0.0
210
0.0
220
0.0
230
1.0
 40
0.3420201433
 41
0.9641214229315592
 42
2.179599029523465
  0
ELLIPSE
  5
A0
330
5E
100
AcDbEntity
  8
$DDT_AUDIT_GENERATED_(85)
  6
Continuous
 62
     7
100
AcDbEllipse
 10
31.35
 20
488.1975135103
 30
0.0
 11
-2.779271674648245
 21
0.0
 31
0.0
210
0.0
220
0.0
230
1.0
 40
0.3420201433
 41
3.715647608413366
 42
5.682627083362013
  0
ELLIPSE
  5
A1
330
5E
100
AcDbEntity
  8
$DDT_AUDIT_GENERATED_(85)
  6
Continuous
 62
     7
100
AcDbEllipse
 10
31.35
 20
488.1975135103
 30
0.0
 11
2.7625
 21
0.0
 31
0.0
210
0.0
220
0.0
230
1.0
 40
0.3420201433
 41
4.097545160176686
 42
5.317479260598944
  0
ELLIPSE
  5
A2
330
5E
100
AcDbEntity
  8
$DDT_AUDIT_GENERATED_(85)
  6
Continuous
 62
     7
100
AcDbEllipse
 10
31.35
 20
488.1975135103
 30
0.0
 11
2.7625
 21
0.0
 31
0.0
210
0.0
220
0.0
230
1.0
 40
0.3420201433
 41
0.7633330087833858
 42
2.540761303598535
  0
ELLIPSE
  5
A3
330
5E
100
AcDbEntity
  8
$DDT_AUDIT_GENERATED_(85)
  6
Continuous
 62
     7
100
AcDbEllipse
 10
31.35
 20
488.2914827723
 30
0.0
 11
-2.6625
 21
0.0
 31
0.0
210
0.0
220
0.0
230
1.0
 40
0.3420201433
 41
3.141592653589793
 42
3.170882342820406
  0
ELLIPSE
  5
A4
330
5E
100
AcDbEntity
  8
$DDT_AUDIT_GENERATED_(85)
  6
Continuous
 62
     7
100
AcDbEllipse
 10
31.35
 20
489.724514019
 30
0.0
 11
8.925000000000004
 21
0.0
 31
0.0
210
0.0
220
0.0
230
1.0
 40
0.3420201433
 41
0.0
 42
0.1217006194894148
  0
ELLIPSE
  5
A5
330
5E
100
AcDbEntity
  8
$DDT_AUDIT_GENERATED_(85)
  6
Continuous
 62
     7
100
AcDbEllipse
 10
31.35
 20
489.724514019
 30
0.0
 11
8.925000000000004
 21
0.0
 31
0.0
210
0.0
220
0.0
230
1.0
 40
0.3420201433
 41
3.026077376682767
 42
3.25945573402612
  0
ELLIPSE
  5
A6
330
5E
100
AcDbEntity
  8
$DDT_AUDIT_GENERATED_(85)
  6
Continuous
 62
     7
100
AcDbEllipse
 10
31.35
 20
489.724514019
 30
0.0
 11
8.925000000000004
 21
0.0
 31
0.0
210
0.0
220
0.0
230
1.0
 40
0.3420201433
 41
6.165322226743262
 42
6.283185307179586
  0
LINE
  5
A7
330
5E
100
AcDbEntity
  8
$DDT_AUDIT_GENERATED_(85)
  6
Continuous
 62
     7
100
AcDbLine
 10
24.8780858014
 20
488.6945186079
 30
0.0
 11
24.8780858014
 21
488.6871856644
 31
0.0
  0
SPLINE
  5
A8
330
5E
100
AcDbEntity
  8
$DDT_AUDIT_GENERATED_(85)
  6
Continuous
 62
     7
100
AcDbSpline
210
0.0
220
0.0
230
1.0
 70
     8
 71
     3
 72
    11
 73
     7
 74
     0
 42
0.0000003617126088
 43
0.0000000001
 40
0.0
 40
0.0
 40
0.0
 40
0.0
 40
0.2274863332652541
 40
0.2274863332652541
 40
0.2274863332652541
 40
0.237884006045096
 40
0.237884006045096
 40
0.237884006045096
 40
0.237884006045096
 10
24.87808580138627
 20
488.687185664424
 30
0.0
 10
24.87810413901012
 20
488.6833992265407
 30
0.0
 10
24.87780338466504
 20
488.681338454388
 30
0.0
 10
24.87720532302189
 20
488.6811669603368
 30
0.0
 10
24.87717798320933
 20
488.6811591206512
 30
0.0
 10
24.877149987579
 20
488.681155215676
 30
0.0
 10
24.87712134248548
 20
488.6811552299831
 30
0.0
  0
SPLINE
  5
A9
330
5E
100
AcDbEntity
  8
$DDT_AUDIT_GENERATED_(85)
  6
Continuous
 62
     7
100
AcDbSpline
210
0.0
220
0.0
230
1.0
 70
     8
 71
     3
 72
    11
 73
     7
 74
     0
 42
0.0000003633118671
 43
0.0000000001
 40
0.7620081792794177
 40
0.7620081792794177
 40
0.7620081792794177
 40
0.7620081792794177
 40
0.934016552734404
 40
0.934016552734404
 40
0.934016552734404
 40
1.0
 40
1.0
 40
1.0
 40
1.0
 10
37.82288703486784
 20
488.6811609183063
 30
0.0
 10
37.82241099073329
 20
488.6811605045249
 30
0.0
 10
37.82210309170374
 20
488.6822155871744
 30
0.0
 10
37.82197871202693
 20
488.6842978858157
 30
0.0
 10
37.82193035536284
 20
488.685107447462
 30
0.0
 10
37.82190880703051
 20
488.6860723852409
 30
0.0
 10
37.82191419861372
 20
488.6871856644239
 30
0.0
  0
LINE
  5
AA
330
5E
100
AcDbEntity
  8
$DDT_AUDIT_GENERATED_(85)
  6
Continuous
 62
     7
100
AcDbLine
 10
37.8219141986
 20
488.6871856644
 30
0.0
 11
37.8219141986
 21
488.6945186079
 31
0.0
  0
ARC
  5
AB
330
5E
100
AcDbEntity
  8
$DDT_AUDIT_GENERATED_(85)
  6
Continuous
 62
     7
100
AcDbCircle
 10
27.1836741755
 20
488.6908521362
 30
0.0
 40
0.551943406151244
100
AcDbArc
 50
179.6193905029
 51
180.3806094971
  0
SPLINE
  5
AC
330
5E
100
AcDbEntity
  8
$DDT_AUDIT_GENERATED_(85)
  6
Continuous
 62
     7
100
AcDbSpline
210
0.0
220
0.0
230
1.0
 70
     8
 71
     3
 72
    11
 73
     7
 74
     0
 42
0.0000003683914279
 43
0.0000000001
 40
0.0
 40
0.0
 40
0.0
 40
0.0
 40
0.228937770474165
 40
0.228937770474165
 40
0.228937770474165
 40
0.2362616721738839
 40
0.2362616721738839
 40
0.2362616721738839
 40
0.2362616721738839
 10
26.63174294737642
 20
488.687185664424
 30
0.0
 10
26.6317681999792
 20
488.6833842714236
 30
0.0
 10
26.63154192572432
 20
488.6813218431247
 30
0.0
 10
26.63107720748465
 20
488.6811649123192
 30
0.0
 10
26.63106233942176
 20
488.6811598915197
 30
0.0
 10
26.63104721375278
 20
488.6811568157802
 30
0.0
 10
26.63103183193918
 20
488.6811556799497
 30
0.0
  0
SPLINE
  5
AD
330
5E
100
AcDbEntity
  8
$DDT_AUDIT_GENERATED_(85)
  6
Continuous
 62
     7
100
AcDbSpline
210
0.0
220
0.0
230
1.0
 70
     8
 71
     3
 72
    11
 73
     7
 74
     0
 42
0.0000003717636871
 43
0.0000000001
 40
0.7615121461813038
 40
0.7615121461813038
 40
0.7615121461813038
 40
0.7615121461813038
 40
0.9310036385220741
 40
0.9310036385220741
 40
0.9310036385220741
 40
1.0
 40
1.0
 40
1.0
 40
1.0
 10
36.06898799049659
 20
488.6811612020352
 30
0.0
 10
36.06862673815507
 20
488.6811609526141
 30
0.0
 10
36.06839526478841
 20
488.6821810529161
 30
0.0
 10
36.06830275488518
 20
488.6841945130887
 30
0.0
 10
36.06826459677816
 20
488.6850250169166
 30
0.0
 10
36.06824934028144
 20
488.6860246893095
 30
0.0
 10
36.06825705262357
 20
488.6871856644239
 30
0.0
  0
ARC
  5
AE
330
5E
100
AcDbEntity
  8
$DDT_AUDIT_GENERATED_(85)
  6
Continuous
 62
     7
100
AcDbCircle
 10
35.5163258245
 20
488.6908521362
 30
0.0
 40
0.5519434061491552
100
AcDbArc
 50
359.6193905029
 51
0.3806094971
  0
ELLIPSE
  5
AF
330
5E
100
AcDbEntity
  8
$DDT_AUDIT_GENERATED_(85)
  6
Continuous
 62
     7
100
AcDbEllipse
 10
31.35
 20
489.6070524414
 30
0.0
 11
9.049999999999999
 21
0.0
 31
0.0
210
0.0
220
0.0
230
1.0
 40
0.3420201433
 41
1.576389658546129
 42
2.291077827362828
  0
ELLIPSE
  5
B0
330
5E
100
AcDbEntity
  8
$DDT_AUDIT_GENERATED_(85)
  6
Continuous
 62
     7
100
AcDbEllipse
 10
31.35
 20
489.6070524414
 30
0.0
 11
9.049999999999999
 21
0.0
 31
0.0
210
0.0
220
0.0
230
1.0
 40
0.3420201433
 41
0.826957396446721
 42
1.564038437713721
  0
ARC
  5
B1
330
5E
100
AcDbEntity
  8
$DDT_AUDIT_GENERATED_(85)
  6
Continuous
 62
     7
100
AcDbCircle
 10
40.5183906344
 20
490.1322714105
 30
0.0
 40
0.0977474771856341
100
AcDbArc
 50
268.1009328449
 51
357.8162976153
  0
LINE
  5
B2
330
5E
100
AcDbEntity
  8
$DDT_AUDIT_GENERATED_(85)
  6
Continuous
 62
     7
100
AcDbLine
 10
40.6160671269
 20
491.1478362837
 30
0.0
 11
40.6160671269
 21
490.1285468827
 31
0.0
  0
ARC
  5
B3
330
5E
100
AcDbEntity
  8
$DDT_AUDIT_GENERATED_(85)
  6
Continuous
 62
     7
100
AcDbCircle
 10
40.51861055
 20
489.2769848798
 30
0.0
 40
0.0975189878558403
100
AcDbArc
 50
267.9671972884
 51
357.9500331719
  0
LINE
  5
B4
330
5E
100
AcDbEntity
  8
$DDT_AUDIT_GENERATED_(85)
  6
Continuous
 62
     7
100
AcDbLine
 10
40.3889780949
 20
489.1795272623
 30
0.0
 11
40.5151513899
 21
489.1795272623
 31
0.0
  0
LINE
  5
B5
330
5E
100
AcDbEntity
  8
$DDT_AUDIT_GENERATED_(85)
  6
Continuous
 62
     7
100
AcDbLine
 10
22.1848486101
 20
489.1795272623
 30
0.0
 11
22.3110219051
 21
489.1795272623
 31
0.0
  0
ARC
  5
B6
330
5E
100
AcDbEntity
  8
$DDT_AUDIT_GENERATED_(85)
  6
Continuous
 62
     7
100
AcDbCircle
 10
22.1816093656
 20
489.2772210522
 30
0.0
 40
0.0977474771856396
100
AcDbArc
 50
182.1837023847
 51
271.8990671551
  0
LINE
  5
B7
330
5E
100
AcDbEntity
  8
$DDT_AUDIT_GENERATED_(85)
  6
Continuous
 62
     7
100
AcDbLine
 10
22.0839328731
 20
490.1285468827
 30
0.0
 11
22.0839328731
 21
491.1478362837
 31
0.0
  0
ARC
  5
B8
330
5E
100
AcDbEntity
  8
$DDT_AUDIT_GENERATED_(85)
  6
Continuous
 62
     7
100
AcDbCircle
 10
22.18138945
 20
490.1320352381
 30
0.0
 40
0.0975189878558452
100
AcDbArc
 50
182.0499668281
 51
272.0328027116
  0
LINE
  5
B9
330
5E
100
AcDbEntity
  8
$DDT_AUDIT_GENERATED_(85)
  6
Continuous
 62
     7
100
AcDbLine
 10
22.3110219051
 20
490.0345776206
 30
0.0
 11
22.1848486101
 21
490.0345776206
 31
0.0
  0
ELLIPSE
  5
BA
330
5E
100
AcDbEntity
  8
$DDT_AUDIT_GENERATED_(85)
  6
Continuous
 62
     7
100
AcDbEllipse
 10
31.35
 20
489.7010217035
 30
0.0
 11
-9.349999999984666
 21
4.163336342344337E-13
 31
0.0
210
0.0
220
0.0
230
1.0
 40
0.3420201433
 41
3.00750133739573
 42
3.275683969783875
  0
ELLIPSE
  5
BB
330
5E
100
AcDbEntity
  8
$DDT_AUDIT_GENERATED_(85)
  6
Continuous
 62
     7
100
AcDbEllipse
 10
31.35
 20
489.7010217035
 30
0.0
 11
9.349999999982844
 21
0.0
 31
0.0
210
0.0
220
0.0
230
1.0
 40
0.3420201433
 41
3.007501337395693
 42
3.275683969783876
  0
SPLINE
  5
BC
330
5E
100
AcDbEntity
  8
$DDT_AUDIT_GENERATED_(85)
  6
Continuous
 62
     7
100
AcDbSpline
210
0.0
220
0.0
230
1.0
 70
    12
 71
     2
 72
     6
 73
     3
 74
     0
 42
0.0000000101128699
 43
0.0000000001
 40
0.4606819042472664
 40
0.4606819042472664
 40
0.4606819042472664
 40
1.0
 40
1.0
 40
1.0
 10
39.12015126971806
 20
488.6355628018711
 30
0.0
 41
1.0
 10
39.11277465839093
 20
488.3690083816887
 30
0.0
 41
1.0
 10
39.10516597223025
 20
488.1024746765278
 30
0.0
 41
1.0
  0
SPLINE
  5
BD
330
5E
100
AcDbEntity
  8
$DDT_AUDIT_GENERATED_(85)
  6
Continuous
 62
     7
100
AcDbSpline
210
0.0
220
0.0
230
1.0
 70
     8
 71
     3
 72
    20
 73
    16
 74
     0
 42
0.0000000831783522
 43
0.0000000001
 40
0.0
 40
0.0
 40
0.0
 40
0.0
 40
0.2315845247926668
 40
0.2315845247926668
 40
0.2315845247926668
 40
0.4631680505545722
 40
0.4631680505545722
 40
0.4631680505545722
 40
0.6947657374433955
 40
0.6947657374433955
 40
0.6947657374433955
 40
0.9263670664941054
 40
0.9263670664941054
 40
0.9263670664941054
 40
1.0
 40
1.0
 40
1.0
 40
1.0
 10
39.10516597166072
 20
488.102474676036
 30
0.0
 10
39.10485570285601
 20
488.0916058350968
 30
0.0
 10
39.10406999677475
 20
488.0801555320703
 30
0.0
 10
39.10286800079283
 20
488.0690725437108
 30
0.0
 10
39.10166600788002
 20
488.0579895836501
 30
0.0
 10
39.10001416183395
 20
488.0469682971145
 30
0.0
 10
39.09803873563167
 20
488.0369221308113
 30
0.0
 10
39.09606319161119
 20
488.0268753653356
 30
0.0
 10
39.09370900466156
 20
488.0175267784844
 30
0.0
 10
39.09116063306482
 20
488.0096514348947
 30
0.0
 10
39.08861222609831
 20
488.0017759820004
 30
0.0
 10
39.08579891625721
 20
487.9951566331595
 30
0.0
 10
39.08294785156662
 20
487.9903422026209
 30
0.0
 10
39.08202970560903
 20
487.9887917818424
 30
0.0
 10
39.08110247199934
 20
487.9874149280298
 30
0.0
 10
39.08017422471721
 20
487.9862236965271
 30
0.0
  0
LINE
  5
BE
330
5E
100
AcDbEntity
  8
$DDT_AUDIT_GENERATED_(85)
  6
Continuous
 62
     7
100
AcDbLine
 10
39.0801742247
 20
487.9862236965
 30
0.0
 11
39.0746251205
 21
487.979140617
 31
0.0
  0
SPLINE
  5
BF
330
5E
100
AcDbEntity
  8
$DDT_AUDIT_GENERATED_(85)
  6
Continuous
 62
     7
100
AcDbSpline
210
0.0
220
0.0
230
1.0
 70
     8
 71
     3
 72
    11
 73
     7
 74
     0
 42
0.0000002130074134
 43
0.0000000001
 40
0.0
 40
0.0
 40
0.0
 40
0.0
 40
0.2315840401501965
 40
0.2315840401501965
 40
0.2315840401501965
 40
0.2470737975213545
 40
0.2470737975213545
 40
0.2470737975213545
 40
0.2470737975213545
 10
39.0746251204506
 20
487.9791406170098
 30
0.0
 10
39.07171392651035
 20
487.9754444811615
 30
0.0
 10
39.06873866162627
 20
487.973515311572
 30
0.0
 10
39.06594938994765
 20
487.9735124639827
 30
0.0
 10
39.06576282609524
 20
487.9735122735182
 30
0.0
 10
39.06557675165554
 20
487.97352070038
 30
0.0
 10
39.06539123583992
 20
487.9735376966389
 30
0.0
  0
SPLINE
  5
C0
330
5E
100
AcDbEntity
  8
$DDT_AUDIT_GENERATED_(85)
  6
Continuous
 62
     7
100
AcDbSpline
210
0.0
220
0.0
230
1.0
 70
    12
 71
     2
 72
     6
 73
     3
 74
     0
 42
0.0000000101392083
 43
0.0000000001
 40
0.3919695679319123
 40
0.3919695679319123
 40
0.3919695679319123
 40
1.0
 40
1.0
 40
1.0
 10
38.36642774543404
 20
488.0375926988268
 30
0.0
 41
1.0
 10
38.34963991517363
 20
487.7382035720882
 30
0.0
 41
1.0
 10
38.33258759359039
 20
487.4388659667046
 30
0.0
 41
1.0
  0
SPLINE
  5
C1
330
5E
100
AcDbEntity
  8
$DDT_AUDIT_GENERATED_(85)
  6
Continuous
 62
     7
100
AcDbSpline
210
0.0
220
0.0
230
1.0
 70
     8
 71
     3
 72
    20
 73
    16
 74
     0
 42
0.0000000786123329
 43
0.0000000001
 40
0.0
 40
0.0
 40
0.0
 40
0.0
 40
0.2315845265246971
 40
0.2315845265246971
 40
0.2315845265246971
 40
0.463168051764622
 40
0.463168051764622
 40
0.463168051764622
 40
0.6947657381314324
 40
0.6947657381314324
 40
0.6947657381314324
 40
0.9263670666601213
 40
0.9263670666601213
 40
0.9263670666601213
 40
1.0
 40
1.0
 40
1.0
 40
1.0
 10
38.33258759372285
 20
487.4388659667551
 30
0.0
 10
38.33197080908216
 20
487.4280388684759
 30
0.0
 10
38.33040865258502
 20
487.4166942845503
 30
0.0
 10
38.32802520240126
 20
487.4057727409656
 30
0.0
 10
38.32564175830327
 20
487.3948512252674
 30
0.0
 10
38.32237092287531
 20
487.3840515962787
 30
0.0
 10
38.31847411032886
 20
487.3742698440032
 30
0.0
 10
38.31457706536907
 20
487.3644875083254
 30
0.0
 10
38.30994600053933
 20
487.3554534520368
 30
0.0
 10
38.30495498099072
 20
487.3479175906896
 30
0.0
 10
38.29996389216999
 20
487.3403816247496
 30
0.0
 10
38.29447478822101
 20
487.3341361153871
 30
0.0
 10
38.2889370246457
 20
487.329699415381
 30
0.0
 10
38.28715366446539
 20
487.328270637497
 30
0.0
 10
38.28535509930065
 20
487.3270165204231
 30
0.0
 10
38.28355703320207
 20
487.3259480488306
 30
0.0
  0
LINE
  5
C2
330
5E
100
AcDbEntity
  8
$DDT_AUDIT_GENERATED_(85)
  6
Continuous
 62
     7
100
AcDbLine
 10
38.2835570332
 20
487.3259480488
 30
0.0
 11
38.272836987
 21
487.3195975335
 31
0.0
  0
SPLINE
  5
C3
330
5E
100
AcDbEntity
  8
$DDT_AUDIT_GENERATED_(85)
  6
Continuous
 62
     7
100
AcDbSpline
210
0.0
220
0.0
230
1.0
 70
     8
 71
     3
 72
    11
 73
     7
 74
     0
 42
0.0000001322983622
 43
0.0000000001
 40
0.0
 40
0.0
 40
0.0
 40
0.0
 40
0.2315840402084322
 40
0.2315840402084322
 40
0.2315840402084322
 40
0.2726065000170989
 40
0.2726065000170989
 40
0.2726065000170989
 40
0.2726065000170989
 10
38.27283698695427
 20
487.319597533468
 30
0.0
 10
38.26722798951299
 20
487.3162850431451
 30
0.0
 10
38.2615202008979
 20
487.3147468524048
 30
0.0
 10
38.25618958991559
 20
487.3151096253175
 30
0.0
 10
38.25524533173382
 20
487.3151738864861
 30
0.0
 10
38.25430830474987
 20
487.3152981077985
 30
0.0
 10
38.25338090294261
 20
487.3154812332764
 30
0.0
  0
SPLINE
  5
C4
330
5E
100
AcDbEntity
  8
$DDT_AUDIT_GENERATED_(85)
  6
Continuous
 62
     7
100
AcDbSpline
210
0.0
220
0.0
230
1.0
 70
    12
 71
     2
 72
     6
 73
     3
 74
     0
 42
0.0000000101851245
 43
0.0000000001
 40
0.546710228037634
 40
0.546710228037634
 40
0.546710228037634
 40
1.0
 40
1.0
 40
1.0
 10
37.12036505573603
 20
487.3098343078705
 30
0.0
 41
1.0
 10
37.10232125134937
 20
487.0880262439831
 30
0.0
 41
1.0
 10
37.08415740971905
 20
486.8662588385484
 30
0.0
 41
1.0
  0
SPLINE
  5
C5
330
5E
100
AcDbEntity
  8
$DDT_AUDIT_GENERATED_(85)
  6
Continuous
 62
     7
100
AcDbSpline
210
0.0
220
0.0
230
1.0
 70
     8
 71
     3
 72
    20
 73
    16
 74
     0
 42
0.0000000740261086
 43
0.0000000001
 40
0.0
 40
0.0
 40
0.0
 40
0.0
 40
0.2315845242646621
 40
0.2315845242646621
 40
0.2315845242646621
 40
0.4631680501856974
 40
0.4631680501856974
 40
0.4631680501856974
 40
0.6947657372336652
 40
0.6947657372336652
 40
0.6947657372336652
 40
0.9263670664435186
 40
0.9263670664435186
 40
0.9263670664435186
 40
1.0
 40
1.0
 40
1.0
 40
1.0
 10
37.0841574116919
 20
486.8662588389252
 30
0.0
 10
37.08327614292163
 20
486.8554991942835
 30
0.0
 10
37.08104399439232
 20
486.8443254595889
 30
0.0
 10
37.0776415181979
 20
486.8336644435752
 30
0.0
 10
37.07423905069118
 20
486.8230034547827
 30
0.0
 10
37.06957212791044
 20
486.8125612456315
 30
0.0
 10
37.06401949035509
 20
486.8032049813629
 30
0.0
 10
37.05846652162982
 20
486.7938481590689
 30
0.0
 10
37.05187417833492
 20
486.785319468225
 30
0.0
 10
37.04478064056865
 20
486.7783277479814
 30
0.0
 10
37.03768700434865
 20
486.7713359306972
 30
0.0
 10
37.02989617965473
 20
486.7656883873865
 30
0.0
 10
37.02204910663077
 20
486.7618543772074
 30
0.0
 10
37.01952206527688
 20
486.7606196872479
 30
0.0
 10
37.01697473780082
 20
486.7595612561851
 30
0.0
 10
37.01442938811896
 20
486.7586883590762
 30
0.0
  0
LINE
  5
C6
330
5E
100
AcDbEntity
  8
$DDT_AUDIT_GENERATED_(85)
  6
Continuous
 62
     7
100
AcDbLine
 10
37.0144293881
 20
486.7586883591
 30
0.0
 11
36.9992689533
 21
486.753503185
 31
0.0
  0
SPLINE
  5
C7
330
5E
100
AcDbEntity
  8
$DDT_AUDIT_GENERATED_(85)
  6
Continuous
 62
     7
100
AcDbSpline
210
0.0
220
0.0
230
1.0
 70
     8
 71
     3
 72
    11
 73
     7
 74
     0
 42
0.0000000979328065
 43
0.0000000001
 40
0.0
 40
0.0
 40
0.0
 40
0.0
 40
0.2315840402130826
 40
0.2315840402130826
 40
0.2315840402130826
 40
0.3260835775960261
 40
0.3260835775960261
 40
0.3260835775960261
 40
0.3260835775960261
 10
36.99926895332604
 20
486.7535031849955
 30
0.0
 10
36.99134439629005
 20
486.7508000809394
 30
0.0
 10
36.9832930603055
 20
486.7498814333936
 30
0.0
 10
36.97578438234869
 20
486.7508223313191
 30
0.0
 10
36.97272040726568
 20
486.7512062721161
 30
0.0
 10
36.96971234752471
 20
486.7519041515317
 30
0.0
 10
36.96680102254795
 20
486.7528999052374
 30
0.0
  0
SPLINE
  5
C8
330
5E
100
AcDbEntity
  8
$DDT_AUDIT_GENERATED_(85)
  6
Continuous
 62
     7
100
AcDbSpline
210
0.0
220
0.0
230
1.0
 70
    12
 71
     2
 72
     6
 73
     3
 74
     0
 42
0.0000000102515426
 43
0.0000000001
 40
0.8599224931913723
 40
0.8599224931913723
 40
0.8599224931913723
 40
1.0
 40
1.0
 40
1.0
 10
35.45877599387134
 20
486.5596150404123
 30
0.0
 41
1.0
 10
35.4518689877947
 20
486.4916428990279
 30
0.0
 41
1.0
 10
35.44495387451842
 20
486.4236755215652
 30
0.0
 41
1.0
  0
ARC
  5
C9
330
5E
100
AcDbEntity
  8
$DDT_AUDIT_GENERATED_(85)
  6
Continuous
 62
     7
100
AcDbCircle
 10
35.3303603229
 20
486.4345152796
 30
0.0
 40
0.1151050955603334
100
AcDbArc
 50
284.5513711819
 51
354.5962943363
  0
LINE
  5
CA
330
5E
100
AcDbEntity
  8
$DDT_AUDIT_GENERATED_(85)
  6
Continuous
 62
     7
100
AcDbLine
 10
35.3592802411
 20
486.3231024377
 30
0.0
 11
35.3407125764
 21
486.3194359659
 31
0.0
  0
ARC
  5
CB
330
5E
100
AcDbEntity
  8
$DDT_AUDIT_GENERATED_(85)
  6
Continuous
 62
     7
100
AcDbCircle
 10
35.3256805378
 20
486.3893042442
 30
0.0
 40
0.0714670448174097
100
AcDbArc
 50
239.6866951515
 51
282.1419993851
  0
SPLINE
  5
CC
330
5E
100
AcDbEntity
  8
$DDT_AUDIT_GENERATED_(85)
  6
Continuous
 62
     7
100
AcDbSpline
210
0.0
220
0.0
230
1.0
 70
    12
 71
     2
 72
     6
 73
     3
 74
     0
 42
0.0000000103374966
 43
0.0000000001
 40
0.9607169198388376
 40
0.9607169198388376
 40
0.9607169198388376
 40
1.0
 40
1.0
 40
1.0
 10
33.53103016550915
 20
486.1790287855193
 30
0.0
 41
1.0
 10
33.52885824786487
 20
486.1601528523416
 30
0.0
 41
1.0
 10
33.52668600000077
 20
486.1412773374038
 30
0.0
 41
1.0
  0
ARC
  5
CD
330
5E
100
AcDbEntity
  8
$DDT_AUDIT_GENERATED_(85)
  6
Continuous
 62
     7
100
AcDbCircle
 10
33.4203837498
 20
486.1556234026
 30
0.0
 40
0.1072659230542908
100
AcDbArc
 50
275.6290912917
 51
352.3140606367
  0
LINE
  5
CE
330
5E
100
AcDbEntity
  8
$DDT_AUDIT_GENERATED_(85)
  6
Continuous
 62
     7
100
AcDbLine
 10
33.4309052714
 20
486.0488747453
 30
0.0
 11
33.4101957323
 21
486.0469768399
 31
0.0
  0
ARC
  5
CF
330
5E
100
AcDbEntity
  8
$DDT_AUDIT_GENERATED_(85)
  6
Continuous
 62
     7
100
AcDbCircle
 10
33.3995792423
 20
486.1325471936
 30
0.0
 40
0.0862264187391551
100
AcDbArc
 50
217.8337205779
 51
277.0723974757
  0
ARC
  5
D0
330
5E
100
AcDbEntity
  8
$DDT_AUDIT_GENERATED_(85)
  6
Continuous
 62
     7
100
AcDbCircle
 10
31.3631124618
 20
486.0526934201
 30
0.0
 40
0.0980291719718624
100
AcDbArc
 50
268.6015496994
 51
351.5623241576
  0
LINE
  5
D1
330
5E
100
AcDbEntity
  8
$DDT_AUDIT_GENERATED_(85)
  6
Continuous
 62
     7
100
AcDbLine
 10
31.3607200462
 20
485.9546934461
 30
0.0
 11
31.3392799538
 21
485.9546934461
 31
0.0
  0
ARC
  5
D2
330
5E
100
AcDbEntity
  8
$DDT_AUDIT_GENERATED_(85)
  6
Continuous
 62
     7
100
AcDbCircle
 10
31.3371509976
 20
486.0530064887
 30
0.0
 40
0.0983360909970885
100
AcDbArc
 50
188.5955874772
 51
271.2405387441
  0
ARC
  5
D3
330
5E
100
AcDbEntity
  8
$DDT_AUDIT_GENERATED_(85)
  6
Continuous
 62
     7
100
AcDbCircle
 10
29.3005840997
 20
486.1323372242
 30
0.0
 40
0.086038363401901
100
AcDbArc
 50
262.8024394288
 51
322.1564792083
  0
LINE
  5
D4
330
5E
100
AcDbEntity
  8
$DDT_AUDIT_GENERATED_(85)
  6
Continuous
 62
     7
100
AcDbLine
 10
29.2898042677
 20
486.0469768399
 30
0.0
 11
29.2690947286
 21
486.0488747453
 31
0.0
  0
ARC
  5
D5
330
5E
100
AcDbEntity
  8
$DDT_AUDIT_GENERATED_(85)
  6
Continuous
 62
     7
100
AcDbCircle
 10
29.2796973616
 20
486.1557074768
 30
0.0
 40
0.1073575723167673
100
AcDbArc
 50
187.7246165037
 51
264.3322302216
  0
SPLINE
  5
D6
330
5E
100
AcDbEntity
  8
$DDT_AUDIT_GENERATED_(85)
  6
Continuous
 62
     7
100
AcDbSpline
210
0.0
220
0.0
230
1.0
 70
    12
 71
     2
 72
     6
 73
     3
 74
     0
 42
0.0000000103374966
 43
0.0000000001
 40
0.0
 40
0.0
 40
0.0
 40
0.0392830802923784
 40
0.0392830802923784
 40
0.0392830802923784
 10
29.17331400098884
 20
486.1412773374225
 30
0.0
 41
1.0
 10
29.17114175311763
 20
486.1601528524218
 30
0.0
 41
1.0
 10
29.16896983546625
 20
486.1790287856613
 30
0.0
 41
1.0
  0
ARC
  5
D7
330
5E
100
AcDbEntity
  8
$DDT_AUDIT_GENERATED_(85)
  6
Continuous
 62
     7
100
AcDbCircle
 10
27.3741755673
 20
486.3894910008
 30
0.0
 40
0.0716195834211998
100
AcDbArc
 50
258.0019670086
 51
300.2979427943
  0
LINE
  5
D8
330
5E
100
AcDbEntity
  8
$DDT_AUDIT_GENERATED_(85)
  6
Continuous
 62
     7
100
AcDbLine
 10
27.3592874236
 20
486.3194359659
 30
0.0
 11
27.3407197589
 21
486.3231024377
 31
0.0
  0
ARC
  5
D9
330
5E
100
AcDbEntity
  8
$DDT_AUDIT_GENERATED_(85)
  6
Continuous
 62
     7
100
AcDbCircle
 10
27.3691388518
 20
486.434088646
 30
0.0
 40
0.1145669379916245
100
AcDbArc
 50
185.2148782264
 51
255.6374544391
  0
SPLINE
  5
DA
330
5E
100
AcDbEntity
  8
$DDT_AUDIT_GENERATED_(85)
  6
Continuous
 62
     7
100
AcDbSpline
210
0.0
220
0.0
230
1.0
 70
    12
 71
     2
 72
     6
 73
     3
 74
     0
 42
0.0000000102515467
 43
0.0000000001
 40
0.0
 40
0.0
 40
0.0
 40
0.1381135802248743
 40
0.1381135802248743
 40
0.1381135802248743
 10
27.25504612579112
 20
486.4236755215422
 30
0.0
 41
1.0
 10
27.24822796437499
 20
486.4906899769902
 30
0.0
 41
1.0
 10
27.2414176844215
 20
486.5577090637144
 30
0.0
 41
1.0
  0
SPLINE
  5
DB
330
5E
100
AcDbEntity
  8
$DDT_AUDIT_GENERATED_(85)
  6
Continuous
 62
     7
100
AcDbSpline
210
0.0
220
0.0
230
1.0
 70
     8
 71
     3
 72
    14
 73
    10
 74
     0
 42
0.0000000977230315
 43
0.0000000001
 40
0.6746727820294746
 40
0.6746727820294746
 40
0.6746727820294746
 40
0.6746727820294746
 40
0.6947657378622393
 40
0.6947657378622393
 40
0.6947657378622393
 40
0.9263670665954574
 40
0.9263670665954574
 40
0.9263670665954574
 40
1.0
 40
1.0
 40
1.0
 40
1.0
 10
25.7331882135913
 20
486.7528873674433
 30
0.0
 10
25.73257204556557
 20
486.7526766327668
 30
0.0
 10
25.73195189886404
 20
486.7524797751557
 30
0.0
 10
25.73132814129485
 20
486.7522970115001
 30
0.0
 10
25.72413841688439
 20
486.750190391266
 30
0.0
 10
25.71627093236387
 20
486.749898305117
 30
0.0
 10
25.70838153257687
 20
486.7514464856241
 30
0.0
 10
25.70584086047427
 20
486.7519450557473
 30
0.0
 10
25.70328322708164
 20
486.7526326241325
 30
0.0
 10
25.70073104667386
 20
486.7535031849955
 30
0.0
  0
LINE
  5
DC
330
5E
100
AcDbEntity
  8
$DDT_AUDIT_GENERATED_(85)
  6
Continuous
 62
     7
100
AcDbLine
 10
25.7007310467
 20
486.753503185
 30
0.0
 11
25.6855706119
 21
486.7586883591
 31
0.0
  0
ARC
  5
DD
330
5E
100
AcDbEntity
  8
$DDT_AUDIT_GENERATED_(85)
  6
Continuous
 62
     7
100
AcDbCircle
 10
25.739948871
 20
486.8703211322
 30
0.0
 40
0.1241727470330459
100
AcDbArc
 50
181.8747577647
 51
244.0284840099
  0
SPLINE
  5
DE
330
5E
100
AcDbEntity
  8
$DDT_AUDIT_GENERATED_(85)
  6
Continuous
 62
     7
100
AcDbSpline
210
0.0
220
0.0
230
1.0
 70
    12
 71
     2
 72
     6
 73
     3
 74
     0
 42
0.0000000101851222
 43
0.0000000001
 40
0.0
 40
0.0
 40
0.0
 40
0.454775449713949
 40
0.454775449713949
 40
0.454775449713949
 10
25.61584259046541
 20
486.8662588385132
 30
0.0
 41
1.0
 10
25.59761921602329
 20
487.0887530966413
 30
0.0
 41
1.0
 10
25.57951666696791
 20
487.3112882801961
 30
0.0
 41
1.0
  0
SPLINE
  5
DF
330
5E
100
AcDbEntity
  8
$DDT_AUDIT_GENERATED_(85)
  6
Continuous
 62
     7
100
AcDbSpline
210
0.0
220
0.0
230
1.0
 70
     8
 71
     3
 72
    11
 73
     7
 74
     0
 42
0.0000001323825268
 43
0.0000000001
 40
0.7270388833890756
 40
0.7270388833890756
 40
0.7270388833890756
 40
0.7270388833890756
 40
0.9263670665175509
 40
0.9263670665175509
 40
0.9263670665175509
 40
1.0
 40
1.0
 40
1.0
 40
1.0
 10
24.44670000583657
 20
487.3154960798189
 30
0.0
 10
24.44219719808926
 20
487.3146068803224
 30
0.0
 10
24.43739139061999
 20
487.315097603101
 30
0.0
 10
24.43258068669387
 20
487.3169524035424
 30
0.0
 10
24.43078063232398
 20
487.3176464270555
 30
0.0
 10
24.42896944504078
 20
487.3185307138509
 30
0.0
 10
24.42716301304567
 20
487.319597533468
 30
0.0
  0
LINE
  5
E0
330
5E
100
AcDbEntity
  8
$DDT_AUDIT_GENERATED_(85)
  6
Continuous
 62
     7
100
AcDbLine
 10
24.427163013
 20
487.3195975335
 30
0.0
 11
24.4164429668
 21
487.3259480488
 31
0.0
  0
SPLINE
  5
E1
330
5E
100
AcDbEntity
  8
$DDT_AUDIT_GENERATED_(85)
  6
Continuous
 62
     7
100
AcDbSpline
210
0.0
220
0.0
230
1.0
 70
     8
 71
     3
 72
    20
 73
    16
 74
     0
 42
0.0000000785906973
 43
0.0000000001
 40
0.0
 40
0.0
 40
0.0
 40
0.0
 40
0.2315840402895025
 40
0.2315840402895025
 40
0.2315840402895025
 40
0.4631672024700597
 40
0.4631672024700597
 40
0.4631672024700597
 40
0.6947632584348779
 40
0.6947632584348779
 40
0.6947632584348779
 40
0.9263655147223508
 40
0.9263655147223508
 40
0.9263655147223508
 40
1.0
 40
1.0
 40
1.0
 40
1.0
 10
24.41644296679787
 20
487.3259480488307
 30
0.0
 10
24.41085994558621
 20
487.3292656685607
 30
0.0
 10
24.40522140742478
 20
487.3344489994294
 30
0.0
 10
24.39999099232461
 20
487.3410680847527
 30
0.0
 10
24.39476058868637
 20
487.3476871555709
 30
0.0
 10
24.38979374717936
 20
487.3559244533408
 30
0.0
 10
24.38549324043737
 20
487.3650962499473
 30
0.0
 10
24.38119249911094
 20
487.3742685468579
 30
0.0
 10
24.37743907656029
 20
487.3846283376913
 30
0.0
 10
24.37453387038548
 20
487.395315892103
 30
0.0
 10
24.37162859269591
 20
487.4060037096003
 30
0.0
 10
24.36949101284099
 20
487.4173140395151
 30
0.0
 10
24.3682911923889
 20
487.4283087979383
 30
0.0
 10
24.36790480021058
 20
487.4318495682676
 30
0.0
 10
24.36761105159843
 20
487.4353789287779
 30
0.0
 10
24.36741240722142
 20
487.4388659663971
 30
0.0
  0
SPLINE
  5
E2
330
5E
100
AcDbEntity
  8
$DDT_AUDIT_GENERATED_(85)
  6
Continuous
 62
     7
100
AcDbSpline
210
0.0
220
0.0
230
1.0
 70
    12
 71
     2
 72
     6
 73
     3
 74
     0
 42
0.0000000101392083
 43
0.0000000001
 40
0.0
 40
0.0
 40
0.0
 40
0.6080304324088982
 40
0.6080304324088982
 40
0.6080304324088982
 10
24.36741240722153
 20
487.4388659663971
 30
0.0
 41
1.0
 10
24.35036008562751
 20
487.7382035719695
 30
0.0
 41
1.0
 10
24.33357225535809
 20
488.0375926988714
 30
0.0
 41
1.0
  0
SPLINE
  5
E3
330
5E
100
AcDbEntity
  8
$DDT_AUDIT_GENERATED_(85)
  6
Continuous
 62
     7
100
AcDbSpline
210
0.0
220
0.0
230
1.0
 70
     8
 71
     3
 72
    11
 73
     7
 74
     0
 42
0.0000002154003918
 43
0.0000000001
 40
0.7527521496808595
 40
0.7527521496808595
 40
0.7527521496808595
 40
0.7527521496808595
 40
0.9263670665924272
 40
0.9263670665924272
 40
0.9263670665924272
 40
1.0
 40
1.0
 40
1.0
 40
1.0
 10
23.63464343576946
 20
487.9735459658261
 30
0.0
 10
23.63255683828195
 20
487.9733547586972
 30
0.0
 10
23.6303711173802
 20
487.9742223675385
 30
0.0
 10
23.62819053543679
 20
487.9761247583182
 30
0.0
 10
23.62725376953018
 20
487.9769420148442
 30
0.0
 10
23.62631245777662
 20
487.9779502406324
 30
0.0
 10
23.62537487954937
 20
487.9791406170098
 30
0.0
  0
LINE
  5
E4
330
5E
100
AcDbEntity
  8
$DDT_AUDIT_GENERATED_(85)
  6
Continuous
 62
     7
100
AcDbLine
 10
23.6253748795
 20
487.979140617
 30
0.0
 11
23.6198257753
 21
487.9862236965
 31
0.0
  0
ARC
  5
E5
330
5E
100
AcDbEntity
  8
$DDT_AUDIT_GENERATED_(85)
  6
Continuous
 62
     7
100
AcDbCircle
 10
23.8399944135
 20
488.0943676289
 30
0.0
 40
0.2452943932755831
100
AcDbArc
 50
178.1060135457
 51
206.1596622144
  0
SPLINE
  5
E6
330
5E
100
AcDbEntity
  8
$DDT_AUDIT_GENERATED_(85)
  6
Continuous
 62
     7
100
AcDbSpline
210
0.0
220
0.0
230
1.0
 70
    12
 71
     2
 72
     6
 73
     3
 74
     0
 42
0.0000000101128699
 43
0.0000000001
 40
0.0
 40
0.0
 40
0.0
 40
0.5393180949361837
 40
0.5393180949361837
 40
0.5393180949361837
 10
23.59483402694419
 20
488.1024746772412
 30
0.0
 41
1.0
 10
23.58722534079461
 20
488.3690083820134
 30
0.0
 41
1.0
 10
23.5798487294783
 20
488.6355628017909
 30
0.0
 41
1.0
  0
ARC
  5
E7
330
5E
100
AcDbEntity
  8
$DDT_AUDIT_GENERATED_(85)
  6
Continuous
 62
     7
100
AcDbCircle
 10
37.0809090712
 20
488.6470124839
 30
0.0
 40
1.013765723734198
100
AcDbArc
 50
170.641565828
 51
177.3140760951
  0
SPLINE
  5
E8
330
5E
100
AcDbEntity
  8
$DDT_AUDIT_GENERATED_(85)
  6
Continuous
 62
     7
100
AcDbSpline
210
0.0
220
0.0
230
1.0
 70
    12
 71
     2
 72
     6
 73
     3
 74
     0
 42
0.0000000099882947
 43
0.0000000001
 40
0.0
 40
0.0
 40
0.0
 40
0.3098696692960156
 40
0.3098696692960156
 40
0.3098696692960156
 10
36.0806361754077
 20
488.811861131109
 30
0.0
 41
1.0
 10
36.10432671094718
 20
488.965158304997
 30
0.0
 41
1.0
 10
36.12789968052765
 20
489.118472514357
 30
0.0
 41
1.0
  0
SPLINE
  5
E9
330
5E
100
AcDbEntity
  8
$DDT_AUDIT_GENERATED_(85)
  6
Continuous
 62
     7
100
AcDbSpline
210
0.0
220
0.0
230
1.0
 70
     8
 71
     3
 72
    11
 73
     7
 74
     0
 42
0.0000002038848073
 43
0.0000000001
 40
0.7537709427444073
 40
0.7537709427444073
 40
0.7537709427444073
 40
0.7537709427444073
 40
0.9310036384841974
 40
0.9310036384841974
 40
0.9310036384841974
 40
1.0
 40
1.0
 40
1.0
 40
1.0
 10
35.9201645975543
 20
489.0994400510859
 30
0.0
 10
35.91769518157113
 20
489.0992135103506
 30
0.0
 10
35.91524624196656
 20
489.1001112917962
 30
0.0
 10
35.91293725683754
 20
489.1021083886487
 30
0.0
 10
35.91202645522353
 20
489.1028961629023
 30
0.0
 10
35.91113199675191
 20
489.103854872826
 30
0.0
 10
35.91026089433296
 20
489.1049769713795
 30
0.0
  0
LINE
  5
EA
330
5E
100
AcDbEntity
  8
$DDT_AUDIT_GENERATED_(85)
  6
Continuous
 62
     7
100
AcDbLine
 10
35.9102608943
 20
489.1049769714
 30
0.0
 11
35.9047117901
 21
489.1120600509
 31
0.0
  0
SPLINE
  5
EB
330
5E
100
AcDbEntity
  8
$DDT_AUDIT_GENERATED_(85)
  6
Continuous
 62
     7
100
AcDbSpline
210
0.0
220
0.0
230
1.0
 70
     8
 71
     3
 72
    20
 73
    16
 74
     0
 42
0.0000000832119301
 43
0.0000000001
 40
0.0
 40
0.0
 40
0.0
 40
0.0
 40
0.2289377704749237
 40
0.2289377704749237
 40
0.2289377704749237
 40
0.4578289888433238
 40
0.4578289888433238
 40
0.4578289888433238
 40
0.6874672639041113
 40
0.6874672639041113
 40
0.6874672639041113
 40
0.9190278165324397
 40
0.9190278165324397
 40
0.9190278165324397
 40
1.0
 40
1.0
 40
1.0
 40
1.0
 10
35.90471179006634
 20
489.1120600508967
 30
0.0
 10
35.90181074599217
 20
489.1157296791778
 30
0.0
 10
35.89911284581937
 20
489.1212639662864
 30
0.0
 10
35.89684729547354
 20
489.1282000027245
 30
0.0
 10
35.89458199918735
 20
489.135135261353
 30
0.0
 10
35.89268714797389
 20
489.1436615932014
 30
0.0
 10
35.89133084049535
 20
489.1530691660877
 30
0.0
 10
35.8899700160375
 20
489.1625080694893
 30
0.0
 10
35.88911470243825
 20
489.1730906405074
 30
0.0
 10
35.88884726925507
 20
489.1839476661331
 30
0.0
 10
35.88857760992514
 20
489.1948950669766
 30
0.0
 10
35.88889868851849
 20
489.206418932201
 30
0.0
 10
35.88979200963868
 20
489.2175820487006
 30
0.0
 10
35.89010823525666
 20
489.2215336662475
 30
0.0
 10
35.89049642600767
 20
489.2254665247111
 30
0.0
 10
35.89095270814495
 20
489.2293404375411
 30
0.0
  0
SPLINE
  5
EC
330
5E
100
AcDbEntity
  8
$DDT_AUDIT_GENERATED_(85)
  6
Continuous
 62
     7
100
AcDbSpline
210
0.0
220
0.0
230
1.0
 70
    12
 71
     2
 72
     6
 73
     3
 74
     0
 42
0.0000000099154853
 43
0.0000000001
 40
0.0
 40
0.0
 40
0.0
 40
0.3536212941398953
 40
0.3536212941398953
 40
0.3536212941398953
 10
35.89095270814492
 20
489.2293404375411
 30
0.0
 41
1.0
 10
35.91180898879367
 20
489.4064386578607
 30
0.0
 41
1.0
 10
35.93251671085184
 20
489.5835454804459
 30
0.0
 41
1.0
  0
SPLINE
  5
ED
330
5E
100
AcDbEntity
  8
$DDT_AUDIT_GENERATED_(85)
  6
Continuous
 62
     7
100
AcDbSpline
210
0.0
220
0.0
230
1.0
 70
     8
 71
     3
 72
    11
 73
     7
 74
     0
 42
0.0000001274771044
 43
0.0000000001
 40
0.7282092223623853
 40
0.7282092223623853
 40
0.7282092223623853
 40
0.7282092223623853
 40
0.931003638503072
 40
0.931003638503072
 40
0.931003638503072
 40
1.0
 40
1.0
 40
1.0
 40
1.0
 10
35.46173003263189
 20
489.4905831284466
 30
0.0
 10
35.45675671416534
 20
489.4896008861219
 30
0.0
 10
35.45160839603884
 20
489.4900877018723
 30
0.0
 10
35.44661512534677
 20
489.4920290341747
 30
0.0
 10
35.44489374985059
 20
489.4926982872677
 30
0.0
 10
35.44318104527073
 20
489.4935396023592
 30
0.0
 10
35.44149049228101
 20
489.4945463551896
 30
0.0
  0
LINE
  5
EE
330
5E
100
AcDbEntity
  8
$DDT_AUDIT_GENERATED_(85)
  6
Continuous
 62
     7
100
AcDbLine
 10
35.4414904923
 20
489.4945463552
 30
0.0
 11
35.430770446
 21
489.5008968706
 31
0.0
  0
SPLINE
  5
EF
330
5E
100
AcDbEntity
  8
$DDT_AUDIT_GENERATED_(85)
  6
Continuous
 62
     7
100
AcDbSpline
210
0.0
220
0.0
230
1.0
 70
     8
 71
     3
 72
    20
 73
    16
 74
     0
 42
0.0000000789018891
 43
0.0000000001
 40
0.0
 40
0.0
 40
0.0
 40
0.0
 40
0.2289377704741555
 40
0.2289377704741555
 40
0.2289377704741555
 40
0.457828988841791
 40
0.457828988841791
 40
0.457828988841791
 40
0.6874672639017996
 40
0.6874672639017996
 40
0.6874672639017996
 40
0.9190278165293514
 40
0.9190278165293514
 40
0.9190278165293514
 40
1.0
 40
1.0
 40
1.0
 40
1.0
 10
35.43077044603321
 20
489.5008968705523
 30
0.0
 10
35.42519131184708
 20
489.5041846550109
 30
0.0
 10
35.4197530946849
 20
489.5093525906058
 30
0.0
 10
35.41491166926566
 20
489.5159686155173
 30
0.0
 10
35.41007078676562
 20
489.5225838985053
 30
0.0
 10
35.4056939383437
 20
489.5308278294787
 30
0.0
 10
35.40215047690715
 20
489.5400147765203
 30
0.0
 10
35.39859521450196
 20
489.5492323193159
 30
0.0
 10
35.39578216849905
 20
489.5596497121492
 30
0.0
 10
35.39394829972763
 20
489.5704121207579
 30
0.0
 10
35.39209916560678
 20
489.5812641169808
 30
0.0
 10
35.39119530792868
 20
489.5927617409415
 30
0.0
 10
35.39131261744058
 20
489.6039703639212
 30
0.0
 10
35.39135414368691
 20
489.6079380902499
 30
0.0
 10
35.39152079921911
 20
489.6118959322245
 30
0.0
 10
35.39181081810135
 20
489.6158034493523
 30
0.0
  0
SPLINE
  5
F0
330
5E
100
AcDbEntity
  8
$DDT_AUDIT_GENERATED_(85)
  6
Continuous
 62
     7
100
AcDbSpline
210
0.0
220
0.0
230
1.0
 70
    12
 71
     2
 72
     6
 73
     3
 74
     0
 42
0.0000000098710125
 43
0.0000000001
 40
0.0
 40
0.0
 40
0.0
 40
0.2164785457710873
 40
0.2164785457710873
 40
0.2164785457710873
 10
35.39181081810135
 20
489.6158034493523
 30
0.0
 41
1.0
 10
35.39992567412968
 20
489.7251590642801
 30
0.0
 41
1.0
 10
35.40799035570885
 20
489.8345131368769
 30
0.0
 41
1.0
  0
SPLINE
  5
F1
330
5E
100
AcDbEntity
  8
$DDT_AUDIT_GENERATED_(85)
  6
Continuous
 62
     7
100
AcDbSpline
210
0.0
220
0.0
230
1.0
 70
     8
 71
     3
 72
    14
 73
    10
 74
     0
 42
0.0000000948814018
 43
0.0000000001
 40
0.6760242232919816
 40
0.6760242232919816
 40
0.6760242232919816
 40
0.6760242232919816
 40
0.700722372586397
 40
0.700722372586397
 40
0.700722372586397
 40
0.9310036385232539
 40
0.9310036385232539
 40
0.9310036385232539
 40
1.0
 40
1.0
 40
1.0
 40
1.0
 10
34.72718238831153
 20
489.8290150756694
 30
0.0
 10
34.72637718436346
 20
489.8287396192004
 30
0.0
 10
34.72556769344362
 20
489.8284858154285
 30
0.0
 10
34.72475463652651
 20
489.8282540971097
 30
0.0
 10
34.71717262749943
 20
489.8260932516054
 30
0.0
 10
34.70906905844904
 20
489.8257929849159
 30
0.0
 10
34.70111544304022
 20
489.8273840020485
 30
0.0
 10
34.69870080255721
 20
489.8278670194161
 30
0.0
 10
34.69628656985586
 20
489.8285225075759
 30
0.0
 10
34.69389177468784
 20
489.8293453061416
 30
0.0
  0
LINE
  5
F2
330
5E
100
AcDbEntity
  8
$DDT_AUDIT_GENERATED_(85)
  6
Continuous
 62
     7
100
AcDbLine
 10
34.6938917747
 20
489.8293453061
 30
0.0
 11
34.6787313399
 21
489.8345304802
 31
0.0
  0
SPLINE
  5
F3
330
5E
100
AcDbEntity
  8
$DDT_AUDIT_GENERATED_(85)
  6
Continuous
 62
     7
100
AcDbSpline
210
0.0
220
0.0
230
1.0
 70
     8
 71
     3
 72
    20
 73
    16
 74
     0
 42
0.0000000741959867
 43
0.0000000001
 40
0.0
 40
0.0
 40
0.0
 40
0.0
 40
0.2289377704741451
 40
0.2289377704741451
 40
0.2289377704741451
 40
0.4578289888417686
 40
0.4578289888417686
 40
0.4578289888417686
 40
0.6874672639017716
 40
0.6874672639017716
 40
0.6874672639017716
 40
0.9190278165293138
 40
0.9190278165293138
 40
0.9190278165293138
 40
1.0
 40
1.0
 40
1.0
 40
1.0
 10
34.67873133989494
 20
489.8345304802223
 30
0.0
 10
34.67085432437167
 20
489.8372123637811
 30
0.0
 10
34.66304639573264
 20
489.8417838544914
 30
0.0
 10
34.65595903038147
 20
489.8478627521251
 30
0.0
 10
34.64887245981001
 20
489.853940968069
 30
0.0
 10
34.64231188916652
 20
489.8616924110576
 30
0.0
 10
34.63682275481301
 20
489.8704726401274
 30
0.0
 10
34.63131533971805
 20
489.8792821104378
 30
0.0
 10
34.62673626574779
 20
489.8893666523264
 30
0.0
 10
34.62346093651431
 20
489.8998990049579
 30
0.0
 10
34.62015834303701
 20
489.9105190301896
 30
0.0
 10
34.61809114549455
 20
489.9218828740518
 30
0.0
 10
34.61742444894877
 20
489.9330667593388
 30
0.0
 10
34.6171884458784
 20
489.9370257288028
 30
0.0
 10
34.61712220889265
 20
489.9409880924042
 30
0.0
 10
34.61722620021228
 20
489.9449133509469
 30
0.0
  0
SPLINE
  5
F4
330
5E
100
AcDbEntity
  8
$DDT_AUDIT_GENERATED_(85)
  6
Continuous
 62
     7
100
AcDbSpline
210
0.0
220
0.0
230
1.0
 70
    12
 71
     2
 72
     6
 73
     3
 74
     0
 42
0.0000000098498548
 43
0.0000000001
 40
0.0
 40
0.0
 40
0.0
 40
0.083207084027805
 40
0.083207084027805
 40
0.083207084027805
 10
34.61722620021225
 20
489.9449133509469
 30
0.0
 41
1.0
 10
34.6183443140844
 20
489.9871367688185
 30
0.0
 41
1.0
 10
34.61945633292343
 20
490.0293593506084
 30
0.0
 41
1.0
  0
SPLINE
  5
F5
330
5E
100
AcDbEntity
  8
$DDT_AUDIT_GENERATED_(85)
  6
Continuous
 62
     7
100
AcDbSpline
210
0.0
220
0.0
230
1.0
 70
     8
 71
     3
 72
    14
 73
    10
 74
     0
 42
0.0000000790819162
 43
0.0000000001
 40
0.5699820466234626
 40
0.5699820466234626
 40
0.5699820466234626
 40
0.5699820466234626
 40
0.7007223725200021
 40
0.7007223725200021
 40
0.7007223725200021
 40
0.9310036385082049
 40
0.9310036385082049
 40
0.9310036385082049
 40
1.0
 40
1.0
 40
1.0
 40
1.0
 10
33.77063009623948
 20
490.0952428622841
 30
0.0
 10
33.76591807653771
 20
490.0924505601253
 30
0.0
 10
33.76092679904644
 20
490.0901910430703
 30
0.0
 10
33.75578349796783
 20
490.0885390473488
 30
0.0
 10
33.746722831489
 20
490.085628818679
 30
0.0
 10
33.73693792540865
 20
490.0845230732
 30
0.0
 10
33.72724278127053
 20
490.0853194054099
 30
0.0
 10
33.72429942955925
 20
490.0855611641439
 30
0.0
 10
33.72134819470533
 20
490.085975057071
 30
0.0
 10
33.71841235869212
 20
490.0865578290095
 30
0.0
  0
LINE
  5
F6
330
5E
100
AcDbEntity
  8
$DDT_AUDIT_GENERATED_(85)
  6
Continuous
 62
     7
100
AcDbLine
 10
33.6998446939
 20
490.0902243008
 30
0.0
 11
33.7184123587
 21
490.086557829
 31
0.0
  0
ARC
  5
F7
330
5E
100
AcDbEntity
  8
$DDT_AUDIT_GENERATED_(85)
  6
Continuous
 62
     7
100
AcDbCircle
 10
33.7266521782
 20
490.1934702736
 30
0.0
 40
0.1066694526492446
100
AcDbArc
 50
179.5855584888
 51
255.4447420408
  0
ARC
  5
F8
330
5E
100
AcDbEntity
  8
$DDT_AUDIT_GENERATED_(85)
  6
Continuous
 62
     7
100
AcDbCircle
 10
32.5902890798
 20
490.3394669256
 30
0.0
 40
0.091233096149555
100
AcDbArc
 50
264.4903969102
 51
321.5766363326
  0
LINE
  5
F9
330
5E
100
AcDbEntity
  8
$DDT_AUDIT_GENERATED_(85)
  6
Continuous
 62
     7
100
AcDbLine
 10
32.5815295544
 20
490.2486553154
 30
0.0
 11
32.5608200154
 21
490.2505532209
 31
0.0
  0
ARC
  5
FA
330
5E
100
AcDbEntity
  8
$DDT_AUDIT_GENERATED_(85)
  6
Continuous
 62
     7
100
AcDbCircle
 10
32.5717835089
 20
490.3539546666
 30
0.0
 40
0.1039810423738496
100
AcDbArc
 50
208.6264127575
 51
263.9476308361
  0
ARC
  5
FB
330
5E
100
AcDbEntity
  8
$DDT_AUDIT_GENERATED_(85)
  6
Continuous
 62
     7
100
AcDbCircle
 10
31.3614408309
 20
490.4039244237
 30
0.0
 40
0.099335949228401
100
AcDbArc
 50
269.5842564152
 51
319.6196453447
  0
LINE
  5
FC
330
5E
100
AcDbEntity
  8
$DDT_AUDIT_GENERATED_(85)
  6
Continuous
 62
     7
100
AcDbLine
 10
31.3392799538
 20
490.3045910896
 30
0.0
 11
31.3607200462
 21
490.3045910896
 31
0.0
  0
ARC
  5
FD
330
5E
100
AcDbEntity
  8
$DDT_AUDIT_GENERATED_(85)
  6
Continuous
 62
     7
100
AcDbCircle
 10
31.3386162222
 20
490.4039891416
 30
0.0
 40
0.0994002680548552
100
AcDbArc
 50
222.1846558117
 51
270.3825874757
  0
ARC
  5
FE
330
5E
100
AcDbEntity
  8
$DDT_AUDIT_GENERATED_(85)
  6
Continuous
 62
     7
100
AcDbCircle
 10
30.1281176236
 20
490.354049965
 30
0.0
 40
0.1040862713502311
100
AcDbArc
 50
276.1009577594
 51
329.5220523834
  0
LINE
  5
FF
330
5E
100
AcDbEntity
  8
$DDT_AUDIT_GENERATED_(85)
  6
Continuous
 62
     7
100
AcDbLine
 10
30.1391799846
 20
490.2505532209
 30
0.0
 11
30.1184704456
 21
490.2486553154
 31
0.0
  0
ARC
  5
100
330
5E
100
AcDbEntity
  8
$DDT_AUDIT_GENERATED_(85)
  6
Continuous
 62
     7
100
AcDbCircle
 10
30.1096510301
 20
490.3393914069
 30
0.0
 40
0.0911637010581141
100
AcDbArc
 50
218.678086239
 51
275.5516267655
  0
ARC
  5
101
330
5E
100
AcDbEntity
  8
$DDT_AUDIT_GENERATED_(85)
  6
Continuous
 62
     7
100
AcDbCircle
 10
28.9727195014
 20
490.1939526646
 30
0.0
 40
0.1072953719661465
100
AcDbArc
 50
284.8152762146
 51
0.1544233946
  0
LINE
  5
102
330
5E
100
AcDbEntity
  8
$DDT_AUDIT_GENERATED_(85)
  6
Continuous
 62
     7
100
AcDbLine
 10
29.0001553061
 20
490.0902243008
 30
0.0
 11
28.9815876413
 21
490.086557829
 31
0.0
  0
SPLINE
  5
103
330
5E
100
AcDbEntity
  8
$DDT_AUDIT_GENERATED_(85)
  6
Continuous
 62
     7
100
AcDbSpline
210
0.0
220
0.0
230
1.0
 70
     8
 71
     3
 72
    11
 73
     7
 74
     0
 42
0.0000000790739564
 43
0.0000000001
 40
0.0
 40
0.0
 40
0.0
 40
0.0
 40
0.2289377704741763
 40
0.2289377704741763
 40
0.2289377704741763
 40
0.436488473492553
 40
0.436488473492553
 40
0.436488473492553
 40
0.436488473492553
 10
28.98158764130792
 20
490.0865578290095
 30
0.0
 10
28.97197480264084
 20
490.0846496527355
 30
0.0
 10
28.96210298570359
 20
490.0845812482734
 30
0.0
 10
28.95278795441709
 20
490.0863554798334
 30
0.0
 10
28.94434235086644
 20
490.0879641117212
 30
0.0
 10
28.93614383295269
 20
490.0911268597072
 30
0.0
 10
28.92873588773192
 20
490.095612608764
 30
0.0
  0
SPLINE
  5
104
330
5E
100
AcDbEntity
  8
$DDT_AUDIT_GENERATED_(85)
  6
Continuous
 62
     7
100
AcDbSpline
210
0.0
220
0.0
230
1.0
 70
    12
 71
     2
 72
     6
 73
     3
 74
     0
 42
0.0000000098498548
 43
0.0000000001
 40
0.9167929159730219
 40
0.9167929159730219
 40
0.9167929159730219
 40
1.0
 40
1.0
 40
1.0
 10
28.08054366707669
 20
490.0293593506076
 30
0.0
 41
1.0
 10
28.08165568591571
 20
489.9871367688178
 30
0.0
 41
1.0
 10
28.08277379978787
 20
489.9449133509465
 30
0.0
 41
1.0
  0
SPLINE
  5
105
330
5E
100
AcDbEntity
  8
$DDT_AUDIT_GENERATED_(85)
  6
Continuous
 62
     7
100
AcDbSpline
210
0.0
220
0.0
230
1.0
 70
     8
 71
     3
 72
    20
 73
    16
 74
     0
 42
0.0000000742038513
 43
0.0000000001
 40
0.0
 40
0.0
 40
0.0
 40
0.0
 40
0.2340589629069606
 40
0.2340589629069606
 40
0.2340589629069606
 40
0.468229668309435
 40
0.468229668309435
 40
0.468229668309435
 40
0.7007223724300249
 40
0.7007223724300249
 40
0.7007223724300249
 40
0.931003638487197
 40
0.931003638487197
 40
0.931003638487197
 40
1.0
 40
1.0
 40
1.0
 40
1.0
 10
28.08277380013437
 20
489.9449133510126
 30
0.0
 10
28.08307074549129
 20
489.9337048321601
 30
0.0
 10
28.08194767001314
 20
489.9220873424518
 30
0.0
 10
28.07949305273298
 20
489.9110178719231
 30
0.0
 10
28.07703775090095
 20
489.8999453143034
 30
0.0
 10
28.07318090700259
 20
489.8891142200929
 30
0.0
 10
28.06824736138617
 20
489.8794396457244
 30
0.0
 10
28.06334904245541
 20
489.869834150111
 30
0.0
 10
28.05725254114039
 20
489.861101138975
 30
0.0
 10
28.05047788599338
 20
489.8539851352447
 30
0.0
 10
28.04376660188468
 20
489.8469356955735
 30
0.0
 10
28.03620355934009
 20
489.8412771321409
 30
0.0
 10
28.02842769569928
 20
489.8374883505945
 30
0.0
 10
28.02606701892874
 20
489.8363381132706
 30
0.0
 10
28.02367436217197
 20
489.8353495484089
 30
0.0
 10
28.0212686601051
 20
489.8345304802223
 30
0.0
  0
LINE
  5
106
330
5E
100
AcDbEntity
  8
$DDT_AUDIT_GENERATED_(85)
  6
Continuous
 62
     7
100
AcDbLine
 10
28.0212686601
 20
489.8345304802
 30
0.0
 11
28.0061082253
 21
489.8293453061
 31
0.0
  0
SPLINE
  5
107
330
5E
100
AcDbEntity
  8
$DDT_AUDIT_GENERATED_(85)
  6
Continuous
 62
     7
100
AcDbSpline
210
0.0
220
0.0
230
1.0
 70
     8
 71
     3
 72
    11
 73
     7
 74
     0
 42
0.0000000950748327
 43
0.0000000001
 40
0.0
 40
0.0
 40
0.0
 40
0.0
 40
0.228937770474173
 40
0.228937770474173
 40
0.228937770474173
 40
0.3277898309665598
 40
0.3277898309665598
 40
0.3277898309665598
 40
0.3277898309665598
 10
28.0061082253122
 20
489.8293453061416
 30
0.0
 10
27.99826692236227
 20
489.8266512081634
 30
0.0
 10
27.99013899360317
 20
489.8257723146423
 30
0.0
 10
27.98239441741478
 20
489.8267783895049
 30
0.0
 10
27.97905011496262
 20
489.8272128378914
 30
0.0
 10
27.97573755143782
 20
489.8280037776441
 30
0.0
 10
27.97250574410185
 20
489.8291310901942
 30
0.0
  0
SPLINE
  5
108
330
5E
100
AcDbEntity
  8
$DDT_AUDIT_GENERATED_(85)
  6
Continuous
 62
     7
100
AcDbSpline
210
0.0
220
0.0
230
1.0
 70
    12
 71
     2
 72
     6
 73
     3
 74
     0
 42
0.0000000098710125
 43
0.0000000001
 40
0.7835214542134545
 40
0.7835214542134545
 40
0.7835214542134545
 40
1.0
 40
1.0
 40
1.0
 10
27.29200964429009
 20
489.8345131368915
 30
0.0
 41
1.0
 10
27.30007432586983
 20
489.7251590642871
 30
0.0
 41
1.0
 10
27.30818918189872
 20
489.6158034493518
 30
0.0
 41
1.0
  0
SPLINE
  5
109
330
5E
100
AcDbEntity
  8
$DDT_AUDIT_GENERATED_(85)
  6
Continuous
 62
     7
100
AcDbSpline
210
0.0
220
0.0
230
1.0
 70
     8
 71
     3
 72
    20
 73
    16
 74
     0
 42
0.0000000789217237
 43
0.0000000001
 40
0.0
 40
0.0
 40
0.0
 40
0.0
 40
0.2340589626983942
 40
0.2340589626983942
 40
0.2340589626983942
 40
0.4682296681646358
 40
0.4682296681646358
 40
0.4682296681646358
 40
0.7007223723485376
 40
0.7007223723485376
 40
0.7007223723485376
 40
0.9310036384684158
 40
0.9310036384684158
 40
0.9310036384684158
 40
1.0
 40
1.0
 40
1.0
 40
1.0
 10
27.3081891822617
 20
489.6158034494893
 30
0.0
 10
27.30901732660675
 20
489.6046455909183
 30
0.0
 10
27.3088215224481
 20
489.5929687149535
 30
0.0
 10
27.30761842709889
 20
489.5817345456498
 30
0.0
 10
27.30641499622643
 20
489.5704972433233
 30
0.0
 10
27.30416971576303
 20
489.5593913838403
 30
0.0
 10
27.30107790652761
 20
489.5493554453496
 30
0.0
 10
27.29800817354331
 20
489.5393911658398
 30
0.0
 10
27.29401851963591
 20
489.530203997262
 30
0.0
 10
27.28945560318799
 20
489.5225774875565
 30
0.0
 10
27.28493536887618
 20
489.5150223172517
 30
0.0
 10
27.27972738876059
 20
489.5087887026871
 30
0.0
 10
27.27427502839345
 20
489.5044042832351
 30
0.0
 10
27.27261974467735
 20
489.5030732160211
 30
0.0
 10
27.27093346512495
 20
489.5019009856063
 30
0.0
 10
27.26922955396681
 20
489.5008968705523
 30
0.0
  0
LINE
  5
10A
330
5E
100
AcDbEntity
  8
$DDT_AUDIT_GENERATED_(85)
  6
Continuous
 62
     7
100
AcDbLine
 10
27.269229554
 20
489.5008968706
 30
0.0
 11
27.2585095077
 21
489.4945463552
 31
0.0
  0
SPLINE
  5
10B
330
5E
100
AcDbEntity
  8
$DDT_AUDIT_GENERATED_(85)
  6
Continuous
 62
     7
100
AcDbSpline
210
0.0
220
0.0
230
1.0
 70
     8
 71
     3
 72
    11
 73
     7
 74
     0
 42
0.0000001274634262
 43
0.0000000001
 40
0.0
 40
0.0
 40
0.0
 40
0.0
 40
0.2289377704741327
 40
0.2289377704741327
 40
0.2289377704741327
 40
0.2717888948559221
 40
0.2717888948559221
 40
0.2717888948559221
 40
0.2717888948559221
 10
27.25850950771902
 20
489.4945463551896
 30
0.0
 10
27.2529741123239
 20
489.4912499338321
 30
0.0
 10
27.24714397665583
 20
489.4897425392925
 30
0.0
 10
27.2414976356343
 20
489.4901456505316
 30
0.0
 10
27.24044069281862
 20
489.4902211092271
 30
0.0
 10
27.23938473946047
 20
489.4903638697969
 30
0.0
 10
27.23833270604287
 20
489.4905726051791
 30
0.0
  0
SPLINE
  5
10C
330
5E
100
AcDbEntity
  8
$DDT_AUDIT_GENERATED_(85)
  6
Continuous
 62
     7
100
AcDbSpline
210
0.0
220
0.0
230
1.0
 70
    12
 71
     2
 72
     6
 73
     3
 74
     0
 42
0.0000000099154853
 43
0.0000000001
 40
0.6463787058674622
 40
0.6463787058674622
 40
0.6463787058674622
 40
1.0
 40
1.0
 40
1.0
 10
26.76748328914814
 20
489.5835454804459
 30
0.0
 41
1.0
 10
26.78819101120608
 20
489.4064386578628
 30
0.0
 41
1.0
 10
26.80904729185508
 20
489.2293404375411
 30
0.0
 41
1.0
  0
SPLINE
  5
10D
330
5E
100
AcDbEntity
  8
$DDT_AUDIT_GENERATED_(85)
  6
Continuous
 62
     7
100
AcDbSpline
210
0.0
220
0.0
230
1.0
 70
     8
 71
     3
 72
    20
 73
    16
 74
     0
 42
0.000000083232726
 43
0.0000000001
 40
0.0
 40
0.0
 40
0.0
 40
0.0
 40
0.2340589632022992
 40
0.2340589632022992
 40
0.2340589632022992
 40
0.4682296685144848
 40
0.4682296685144848
 40
0.4682296685144848
 40
0.7007223725454298
 40
0.7007223725454298
 40
0.7007223725454298
 40
0.9310036385138112
 40
0.9310036385138112
 40
0.9310036385138112
 40
1.0
 40
1.0
 40
1.0
 40
1.0
 10
26.80904729181466
 20
489.2293404375062
 30
0.0
 10
26.81035019887435
 20
489.2182785356915
 30
0.0
 10
26.81109500976503
 20
489.2066263802955
 30
0.0
 10
26.81122542530661
 20
489.1953439105733
 30
0.0
 10
26.81135587721891
 20
489.1840582943583
 30
0.0
 10
26.81087517234357
 20
489.1728296897361
 30
0.0
 10
26.80983580117906
 20
489.1626077332554
 30
0.0
 10
26.80880385137114
 20
489.1524587639681
 30
0.0
 10
26.80719293319193
 20
489.1430194139165
 30
0.0
 10
26.80515271065846
 20
489.1350955793492
 30
0.0
 10
26.80313157264185
 20
489.1272458653997
 30
0.0
 10
26.80063357019353
 20
489.1206652673465
 30
0.0
 10
26.79787628244863
 20
489.1159111854511
 30
0.0
 10
26.79703919663672
 20
489.1144678923053
 30
0.0
 10
26.7961742114535
 20
489.1131807840367
 30
0.0
 10
26.79528820993367
 20
489.1120600508968
 30
0.0
  0
LINE
  5
10E
330
5E
100
AcDbEntity
  8
$DDT_AUDIT_GENERATED_(85)
  6
Continuous
 62
     7
100
AcDbLine
 10
26.7952882099
 20
489.1120600509
 30
0.0
 11
26.7897391057
 21
489.1049769714
 31
0.0
  0
SPLINE
  5
10F
330
5E
100
AcDbEntity
  8
$DDT_AUDIT_GENERATED_(85)
  6
Continuous
 62
     7
100
AcDbSpline
210
0.0
220
0.0
230
1.0
 70
     8
 71
     3
 72
    11
 73
     7
 74
     0
 42
0.0000002015020961
 43
0.0000000001
 40
0.0
 40
0.0
 40
0.0
 40
0.0
 40
0.2289377704741654
 40
0.2289377704741654
 40
0.2289377704741654
 40
0.2444943731450142
 40
0.2444943731450142
 40
0.2444943731450142
 40
0.2444943731450142
 10
26.78973910566705
 20
489.1049769713795
 30
0.0
 10
26.78688684587527
 20
489.1013028723106
 30
0.0
 10
26.78375181740926
 20
489.0993917960989
 30
0.0
 10
26.78058850036415
 20
489.0993982277627
 30
0.0
 10
26.78037352947858
 20
489.099398664842
 30
0.0
 10
26.7801580244705
 20
489.0994079539188
 30
0.0
 10
26.77994206517074
 20
489.0994260414051
 30
0.0
  0
SPLINE
  5
110
330
5E
100
AcDbEntity
  8
$DDT_AUDIT_GENERATED_(85)
  6
Continuous
 62
     7
100
AcDbSpline
210
0.0
220
0.0
230
1.0
 70
    12
 71
     2
 72
     6
 73
     3
 74
     0
 42
0.0000000099882947
 43
0.0000000001
 40
0.6901303306989085
 40
0.6901303306989085
 40
0.6901303306989085
 40
1.0
 40
1.0
 40
1.0
 10
26.57210031947244
 20
489.1184725143569
 30
0.0
 41
1.0
 10
26.59567328905307
 20
488.9651583049959
 30
0.0
 41
1.0
 10
26.61936382459236
 20
488.8118611311091
 30
0.0
 41
1.0
  0
ARC
  5
111
330
5E
100
AcDbEntity
  8
$DDT_AUDIT_GENERATED_(85)
  6
Continuous
 62
     7
100
AcDbCircle
 10
25.5848390181
 20
488.6433990572
 30
0.0
 40
1.048151251271031
100
AcDbArc
 50
2.7954905261
 51
9.2488675497
  0
ARC
  5
112
330
5E
100
AcDbEntity
  8
$DDT_AUDIT_GENERATED_(85)
  6
Continuous
 62
     7
100
AcDbCircle
 10
38.6918639794
 20
488.639649413
 30
0.0
 40
0.8716784095222675
100
AcDbArc
 50
168.6054928136
 51
176.3910393385
  0
ARC
  5
113
330
5E
100
AcDbEntity
  8
$DDT_AUDIT_GENERATED_(85)
  6
Continuous
 62
     7
100
AcDbCircle
 10
-509.8716380475
 20
591.0722853818
 30
0.0
 40
557.1735346853495
100
AcDbArc
 50
349.4243123005
 51
349.4736129751
  0
SPLINE
  5
114
330
5E
100
AcDbEntity
  8
$DDT_AUDIT_GENERATED_(85)
  6
Continuous
 62
     7
100
AcDbSpline
210
0.0
220
0.0
230
1.0
 70
     8
 71
     3
 72
    11
 73
     7
 74
     0
 42
0.0000001996213387
 43
0.0000000001
 40
0.7542903270070943
 40
0.7542903270070943
 40
0.7542903270070943
 40
0.7542903270070943
 40
0.9340165526600899
 40
0.9340165526600899
 40
0.9340165526600899
 40
1.0
 40
1.0
 40
1.0
 40
1.0
 10
37.61431620747499
 20
489.2546986002105
 30
0.0
 10
37.6116950955985
 20
489.254458011843
 30
0.0
 10
37.60912888136479
 20
489.2553818523288
 30
0.0
 10
37.60675024765598
 20
489.2574446252357
 30
0.0
 10
37.6058651878586
 20
489.2582121571866
 30
0.0
 10
37.60500087296037
 20
489.2591372064876
 30
0.0
 10
37.60416362210123
 20
489.2602130288726
 30
0.0
  0
LINE
  5
115
330
5E
100
AcDbEntity
  8
$DDT_AUDIT_GENERATED_(85)
  6
Continuous
 62
     7
100
AcDbLine
 10
37.6041636221
 20
489.2602130289
 30
0.0
 11
37.5986145178
 21
489.2672961084
 31
0.0
  0
SPLINE
  5
116
330
5E
100
AcDbEntity
  8
$DDT_AUDIT_GENERATED_(85)
  6
Continuous
 62
     7
100
AcDbSpline
210
0.0
220
0.0
230
1.0
 70
     8
 71
     3
 72
    20
 73
    16
 74
     0
 42
0.0000000831369307
 43
0.0000000001
 40
0.0
 40
0.0
 40
0.0
 40
0.0
 40
0.2274863334687613
 40
0.2274863334687613
 40
0.2274863334687613
 40
0.4548919044143034
 40
0.4548919044143034
 40
0.4548919044143034
 40
0.6835816439708875
 40
0.6835816439708875
 40
0.6835816439708875
 40
0.9153618869652961
 40
0.9153618869652961
 40
0.9153618869652961
 40
1.0
 40
1.0
 40
1.0
 40
1.0
 10
37.5986145178346
 20
489.2672961083899
 30
0.0
 10
37.5957314701966
 20
489.2709519032602
 30
0.0
 10
37.59311700663305
 20
489.276464578366
 30
0.0
 10
37.59099122647899
 20
489.2833693553993
 30
0.0
 10
37.58886586460952
 20
489.2902727737962
 30
0.0
 10
37.58717082881297
 20
489.2987553064634
 30
0.0
 10
37.58605013193105
 20
489.3081087153283
 30
0.0
 10
37.58492299966503
 20
489.3175158343263
 30
0.0
 10
37.58434622121833
 20
489.3280573789912
 30
0.0
 10
37.58437073968327
 20
489.3388724868492
 30
0.0
 10
37.58439558697147
 20
489.3498326388216
 30
0.0
 10
37.58503861068201
 20
489.3613695549774
 30
0.0
 10
37.58625001193128
 20
489.3725529185681
 30
0.0
 10
37.58669769947613
 20
489.3766858617957
 30
0.0
 10
37.5872241813091
 20
489.3807994574822
 30
0.0
 10
37.58782365518611
 20
489.3848485140493
 30
0.0
  0
SPLINE
  5
117
330
5E
100
AcDbEntity
  8
$DDT_AUDIT_GENERATED_(85)
  6
Continuous
 62
     7
100
AcDbSpline
210
0.0
220
0.0
230
1.0
 70
    12
 71
     2
 72
     6
 73
     3
 74
     0
 42
0.0000000098484301
 43
0.0000000001
 40
0.0
 40
0.0
 40
0.0
 40
0.4263100491306537
 40
0.4263100491306537
 40
0.4263100491306537
 10
37.58782365518611
 20
489.3848485140493
 30
0.0
 41
1.0
 10
37.61952038320002
 20
489.5989550979166
 30
0.0
 41
1.0
 10
37.65105904936084
 20
489.8130758186376
 30
0.0
 41
1.0
  0
SPLINE
  5
118
330
5E
100
AcDbEntity
  8
$DDT_AUDIT_GENERATED_(85)
  6
Continuous
 62
     7
100
AcDbSpline
210
0.0
220
0.0
230
1.0
 70
     8
 71
     3
 72
    11
 73
     7
 74
     0
 42
0.0000001256317258
 43
0.0000000001
 40
0.7288132718757817
 40
0.7288132718757817
 40
0.7288132718757817
 40
0.7288132718757817
 40
0.9340165527202494
 40
0.9340165527202494
 40
0.9340165527202494
 40
1.0
 40
1.0
 40
1.0
 40
1.0
 10
36.9807073313
 20
489.7905283184161
 30
0.0
 10
36.97554214695652
 20
489.7895081234778
 30
0.0
 10
36.97023276519115
 20
489.7900062197069
 30
0.0
 10
36.96513459367594
 20
489.7920095538417
 30
0.0
 10
36.96347314610783
 20
489.7926624221528
 30
0.0
 10
36.96182496627567
 20
489.7934743393283
 30
0.0
 10
36.9602021302366
 20
489.7944393893974
 30
0.0
  0
LINE
  5
119
330
5E
100
AcDbEntity
  8
$DDT_AUDIT_GENERATED_(85)
  6
Continuous
 62
     7
100
AcDbLine
 10
36.9602021302
 20
489.7944393894
 30
0.0
 11
36.949482084
 21
489.8007899048
 31
0.0
  0
SPLINE
  5
11A
330
5E
100
AcDbEntity
  8
$DDT_AUDIT_GENERATED_(85)
  6
Continuous
 62
     7
100
AcDbSpline
210
0.0
220
0.0
230
1.0
 70
     8
 71
     3
 72
    20
 73
    16
 74
     0
 42
0.0000000789481901
 43
0.0000000001
 40
0.0
 40
0.0
 40
0.0
 40
0.0
 40
0.2274863333613339
 40
0.2274863333613339
 40
0.2274863333613339
 40
0.4548919041995046
 40
0.4548919041995046
 40
0.4548919041995046
 40
0.6835816436481102
 40
0.6835816436481102
 40
0.6835816436481102
 40
0.9153618865330817
 40
0.9153618865330817
 40
0.9153618865330817
 40
1.0
 40
1.0
 40
1.0
 40
1.0
 10
36.9494820839888
 20
489.8007899047601
 30
0.0
 10
36.94393080126871
 20
489.8040659202384
 30
0.0
 10
36.93857929116777
 20
489.8092199050268
 30
0.0
 10
36.93387453762099
 20
489.8158171181129
 30
0.0
 10
36.92917070981712
 20
489.8224130330816
 30
0.0
 10
36.92498450917815
 20
489.830630746575
 30
0.0
 10
36.92166062584775
 20
489.8397840257439
 30
0.0
 10
36.9183176557631
 20
489.8489898658401
 30
0.0
 10
36.91575594896631
 20
489.8593900913999
 30
0.0
 10
36.91418069036054
 20
489.8701353728316
 30
0.0
 10
36.91258430556792
 20
489.8810247619179
 30
0.0
 10
36.91195741769587
 20
489.8925624046352
 30
0.0
 10
36.91234637607013
 20
489.9038178289087
 30
0.0
 10
36.91249012020092
 20
489.9079774030068
 30
0.0
 10
36.9127703219705
 20
489.9121273218861
 30
0.0
 10
36.91318368865984
 20
489.916221984685
 30
0.0
  0
SPLINE
  5
11B
330
5E
100
AcDbEntity
  8
$DDT_AUDIT_GENERATED_(85)
  6
Continuous
 62
     7
100
AcDbSpline
210
0.0
220
0.0
230
1.0
 70
    12
 71
     2
 72
     6
 73
     3
 74
     0
 42
0.0000000097950349
 43
0.0000000001
 40
0.0
 40
0.0
 40
0.0
 40
0.1785456499432526
 40
0.1785456499432526
 40
0.1785456499432526
 10
36.91318368865971
 20
489.916221984685
 30
0.0
 41
1.0
 10
36.9223373242346
 20
490.0069032555376
 30
0.0
 41
1.0
 10
36.93146594608665
 20
490.0975846313789
 30
0.0
 41
1.0
  0
SPLINE
  5
11C
330
5E
100
AcDbEntity
  8
$DDT_AUDIT_GENERATED_(85)
  6
Continuous
 62
     7
100
AcDbSpline
210
0.0
220
0.0
230
1.0
 70
     8
 71
     3
 72
    14
 73
    10
 74
     0
 42
0.0000000938433711
 43
0.0000000001
 40
0.676699255553191
 40
0.676699255553191
 40
0.676699255553191
 40
0.676699255553191
 40
0.7042698238257111
 40
0.7042698238257111
 40
0.7042698238257111
 40
0.9340165527360099
 40
0.9340165527360099
 40
0.9340165527360099
 40
1.0
 40
1.0
 40
1.0
 40
1.0
 10
35.96750638934462
 20
490.2532312375058
 30
0.0
 10
35.96659008627773
 20
490.2529177237501
 30
0.0
 10
35.9656689276898
 20
490.2526314040795
 30
0.0
 10
35.96474394974449
 20
490.2523729033584
 30
0.0
 10
35.95703424611603
 20
490.2502182963678
 30
0.0
 10
35.94884304878975
 20
490.2499366306528
 30
0.0
 10
35.94085679658555
 20
490.2515629551597
 30
0.0
 10
35.9385321861528
 20
490.252036340024
 30
0.0
 10
35.93621246211852
 20
490.2526695911936
 30
0.0
 10
35.93391463449372
 20
490.2534581023795
 30
0.0
  0
LINE
  5
11D
330
5E
100
AcDbEntity
  8
$DDT_AUDIT_GENERATED_(85)
  6
Continuous
 62
     7
100
AcDbLine
 10
35.9339146345
 20
490.2534581024
 30
0.0
 11
35.9187541997
 21
490.2586432765
 31
0.0
  0
SPLINE
  5
11E
330
5E
100
AcDbEntity
  8
$DDT_AUDIT_GENERATED_(85)
  6
Continuous
 62
     7
100
AcDbSpline
210
0.0
220
0.0
230
1.0
 70
     8
 71
     3
 72
    20
 73
    16
 74
     0
 42
0.0000000742420717
 43
0.0000000001
 40
0.0
 40
0.0
 40
0.0
 40
0.0
 40
0.2274863332660592
 40
0.2274863332660592
 40
0.2274863332660592
 40
0.4548919040089707
 40
0.4548919040089707
 40
0.4548919040089707
 40
0.683581643361781
 40
0.683581643361781
 40
0.683581643361781
 40
0.9153618861496639
 40
0.9153618861496639
 40
0.9153618861496639
 40
1.0
 40
1.0
 40
1.0
 40
1.0
 10
35.91875419970081
 20
490.2586432764602
 30
0.0
 10
35.91091299264208
 20
490.2613162575058
 30
0.0
 10
35.90318913257336
 20
490.2658814870614
 30
0.0
 10
35.89622602681309
 20
490.2719533220413
 30
0.0
 10
35.88926429116621
 20
490.2780239622808
 30
0.0
 10
35.88287220834034
 20
490.2857653588776
 30
0.0
 10
35.87757165571745
 20
490.2945302986167
 30
0.0
 10
35.87224066570094
 20
490.3033455693194
 30
0.0
 10
35.86786860663886
 20
490.3134335826147
 30
0.0
 10
35.86480092223309
 20
490.3239698025087
 30
0.0
 10
35.8616920963451
 20
490.3346473262808
 30
0.0
 10
35.85983801826299
 20
490.3460732565442
 30
0.0
 10
35.85937802689182
 20
490.3573254823577
 30
0.0
 10
35.8592080316836
 20
490.3614838744274
 30
0.0
 10
35.85922285810226
 20
490.3656470777788
 30
0.0
 10
35.85942194394721
 20
490.3697693188437
 30
0.0
  0
SPLINE
  5
11F
330
5E
100
AcDbEntity
  8
$DDT_AUDIT_GENERATED_(85)
  6
Continuous
 62
     7
100
AcDbSpline
210
0.0
220
0.0
230
1.0
 70
    12
 71
     2
 72
     6
 73
     3
 74
     0
 42
0.0000000097674784
 43
0.0000000001
 40
0.0
 40
0.0
 40
0.0
 40
0.0346553041921796
 40
0.0346553041921796
 40
0.0346553041921796
 10
35.85942194394727
 20
490.3697693188437
 30
0.0
 41
1.0
 10
35.86027759576444
 20
490.3874888760985
 30
0.0
 41
1.0
 10
35.86113247158858
 20
490.4052083599348
 30
0.0
 41
1.0
  0
SPLINE
  5
120
330
5E
100
AcDbEntity
  8
$DDT_AUDIT_GENERATED_(85)
  6
Continuous
 62
     7
100
AcDbSpline
210
0.0
220
0.0
230
1.0
 70
     8
 71
     3
 72
    14
 73
    10
 74
     0
 42
0.0000000783570309
 43
0.0000000001
 40
0.5706661413979945
 40
0.5706661413979945
 40
0.5706661413979945
 40
0.5706661413979945
 40
0.7042698234630015
 40
0.7042698234630015
 40
0.7042698234630015
 40
0.9340165526552765
 40
0.9340165526552765
 40
0.9340165526552765
 40
1.0
 40
1.0
 40
1.0
 40
1.0
 10
34.64783099875714
 20
490.6148935236769
 30
0.0
 10
34.64294387455001
 20
490.6119969454875
 30
0.0
 10
34.63776964955178
 20
490.6096602465987
 30
0.0
 10
34.63244683688323
 20
490.6079660787862
 30
0.0
 10
34.62329149053232
 20
490.6050520755953
 30
0.0
 10
34.61344000903085
 20
490.6039579876366
 30
0.0
 10
34.60371969555738
 20
490.6047870243376
 30
0.0
 10
34.6008903406194
 20
490.6050283374486
 30
0.0
 10
34.59805715774242
 20
490.605429564525
 30
0.0
 10
34.5952409316872
 20
490.6059878010934
 30
0.0
  0
LINE
  5
121
330
5E
100
AcDbEntity
  8
$DDT_AUDIT_GENERATED_(85)
  6
Continuous
 62
     7
100
AcDbLine
 10
34.5766732669
 20
490.6096542728
 30
0.0
 11
34.5952409317
 21
490.6059878011
 31
0.0
  0
ARC
  5
122
330
5E
100
AcDbEntity
  8
$DDT_AUDIT_GENERATED_(85)
  6
Continuous
 62
     7
100
AcDbCircle
 10
34.6035250432
 20
490.7113932713
 30
0.0
 40
0.1052228192198611
100
AcDbArc
 50
210.3000732219
 51
255.2151758805
  0
LINE
  5
123
330
5E
100
AcDbEntity
  8
$DDT_AUDIT_GENERATED_(85)
  6
Continuous
 62
     7
100
AcDbLine
 10
33.0354094224
 20
490.8280041692
 30
0.0
 11
33.0146998833
 21
490.8299020746
 31
0.0
  0
LINE
  5
124
330
5E
100
AcDbEntity
  8
$DDT_AUDIT_GENERATED_(85)
  6
Continuous
 62
     7
100
AcDbLine
 10
29.6853001167
 20
490.8299020746
 30
0.0
 11
29.6645905776
 21
490.8280041692
 31
0.0
  0
ARC
  5
125
330
5E
100
AcDbEntity
  8
$DDT_AUDIT_GENERATED_(85)
  6
Continuous
 62
     7
100
AcDbCircle
 10
28.0957799949
 20
490.7119120213
 30
0.0
 40
0.1059031156200796
100
AcDbArc
 50
285.0767454739
 51
332.214723387
  0
LINE
  5
126
330
5E
100
AcDbEntity
  8
$DDT_AUDIT_GENERATED_(85)
  6
Continuous
 62
     7
100
AcDbLine
 10
28.1233267331
 20
490.6096542728
 30
0.0
 11
28.1047590683
 21
490.6059878011
 31
0.0
  0
SPLINE
  5
127
330
5E
100
AcDbEntity
  8
$DDT_AUDIT_GENERATED_(85)
  6
Continuous
 62
     7
100
AcDbSpline
210
0.0
220
0.0
230
1.0
 70
     8
 71
     3
 72
    11
 73
     7
 74
     0
 42
0.0000000783592029
 43
0.0000000001
 40
0.0
 40
0.0
 40
0.0
 40
0.0
 40
0.2274863332652359
 40
0.2274863332652359
 40
0.2274863332652359
 40
0.4301038136943591
 40
0.4301038136943591
 40
0.4301038136943591
 40
0.4301038136943591
 10
28.10475906831287
 20
490.6059878010934
 30
0.0
 10
28.09518063984218
 20
490.6040891505819
 30
0.0
 10
28.08531004375998
 20
490.6040368684318
 30
0.0
 10
28.07596504829357
 20
490.6058287843468
 30
0.0
 10
28.06764033197972
 20
490.6074250603112
 30
0.0
 10
28.05952929370856
 20
490.6105224688894
 30
0.0
 10
28.05214827535319
 20
490.6148955991857
 30
0.0
  0
SPLINE
  5
128
330
5E
100
AcDbEntity
  8
$DDT_AUDIT_GENERATED_(85)
  6
Continuous
 62
     7
100
AcDbSpline
210
0.0
220
0.0
230
1.0
 70
    12
 71
     2
 72
     6
 73
     3
 74
     0
 42
0.0000000097674784
 43
0.0000000001
 40
0.9653446954212548
 40
0.9653446954212548
 40
0.9653446954212548
 40
1.0
 40
1.0
 40
1.0
 10
26.83886752541591
 20
490.4052083597602
 30
0.0
 41
1.0
 10
26.83972240124954
 20
490.3874888757269
 30
0.0
 41
1.0
 10
26.84057805307623
 20
490.3697693182752
 30
0.0
 41
1.0
  0
SPLINE
  5
129
330
5E
100
AcDbEntity
  8
$DDT_AUDIT_GENERATED_(85)
  6
Continuous
 62
     7
100
AcDbSpline
210
0.0
220
0.0
230
1.0
 70
     8
 71
     3
 72
    20
 73
    16
 74
     0
 42
0.0000000742463989
 43
0.0000000001
 40
0.0
 40
0.0
 40
0.0
 40
0.0
 40
0.2354503935970864
 40
0.2354503935970864
 40
0.2354503935970864
 40
0.4710570812185482
 40
0.4710570812185482
 40
0.4710570812185482
 40
0.7042698238255743
 40
0.7042698238255743
 40
0.7042698238255743
 40
0.9340165527359828
 40
0.9340165527359828
 40
0.9340165527359828
 40
1.0
 40
1.0
 40
1.0
 40
1.0
 10
26.8405780530763
 20
490.3697693182752
 30
0.0
 10
26.84112532619849
 20
490.3584377356709
 30
0.0
 10
26.84025112407241
 20
490.3466909267759
 30
0.0
 10
26.83801794179465
 20
490.3354956396782
 30
0.0
 10
26.83578390207892
 20
490.3242960541119
 30
0.0
 10
26.83212565791661
 20
490.3133370650881
 30
0.0
 10
26.82734329932356
 20
490.3035547607483
 30
0.0
 10
26.82260949230699
 20
490.293871768555
 30
0.0
 10
26.81664033783866
 20
490.2850705855348
 30
0.0
 10
26.80994180829817
 20
490.2779169370285
 30
0.0
 10
26.80334127199503
 20
490.2708679397255
 30
0.0
 10
26.79584803495362
 20
490.2652218815201
 30
0.0
 10
26.78809672664715
 20
490.2614656433255
 30
0.0
 10
26.78584050286459
 20
490.2603722906149
 30
0.0
 10
26.78355125277412
 20
490.2594291797938
 30
0.0
 10
26.78124580029924
 20
490.2586432764603
 30
0.0
  0
LINE
  5
12A
330
5E
100
AcDbEntity
  8
$DDT_AUDIT_GENERATED_(85)
  6
Continuous
 62
     7
100
AcDbLine
 10
26.7812458003
 20
490.2586432765
 30
0.0
 11
26.7660853655
 21
490.2534581024
 31
0.0
  0
SPLINE
  5
12B
330
5E
100
AcDbEntity
  8
$DDT_AUDIT_GENERATED_(85)
  6
Continuous
 62
     7
100
AcDbSpline
210
0.0
220
0.0
230
1.0
 70
     8
 71
     3
 72
    11
 73
     7
 74
     0
 42
0.0000000940239461
 43
0.0000000001
 40
0.0
 40
0.0
 40
0.0
 40
0.0
 40
0.22748633350964
 40
0.22748633350964
 40
0.22748633350964
 40
0.3242863811730704
 40
0.3242863811730704
 40
0.3242863811730704
 40
0.3242863811730704
 10
26.76608536550633
 20
490.2534581023795
 30
0.0
 10
26.75827009176395
 20
490.2507762516174
 30
0.0
 10
26.75012090082146
 20
490.2499125779913
 30
0.0
 10
26.74231200817433
 20
490.2509320919586
 30
0.0
 10
26.73898863997219
 20
490.2513659845031
 30
0.0
 10
26.73568810528917
 20
490.2521457241149
 30
0.0
 10
26.73245790791955
 20
490.2532514056189
 30
0.0
  0
SPLINE
  5
12C
330
5E
100
AcDbEntity
  8
$DDT_AUDIT_GENERATED_(85)
  6
Continuous
 62
     7
100
AcDbSpline
210
0.0
220
0.0
230
1.0
 70
    12
 71
     2
 72
     6
 73
     3
 74
     0
 42
0.0000000097950349
 43
0.0000000001
 40
0.8214543502596436
 40
0.8214543502596436
 40
0.8214543502596436
 40
1.0
 40
1.0
 40
1.0
 10
25.76853405444353
 20
490.0975846313596
 30
0.0
 41
1.0
 10
25.77766267628499
 20
490.0069032556237
 30
0.0
 41
1.0
 10
25.7868163118491
 20
489.9162219848776
 30
0.0
 41
1.0
  0
SPLINE
  5
12D
330
5E
100
AcDbEntity
  8
$DDT_AUDIT_GENERATED_(85)
  6
Continuous
 62
     7
100
AcDbSpline
210
0.0
220
0.0
230
1.0
 70
     8
 71
     3
 72
    20
 73
    16
 74
     0
 42
0.0000000789658924
 43
0.0000000001
 40
0.0
 40
0.0
 40
0.0
 40
0.0
 40
0.2354503924156119
 40
0.2354503924156119
 40
0.2354503924156119
 40
0.4710570804011611
 40
0.4710570804011611
 40
0.4710570804011611
 40
0.7042698233685784
 40
0.7042698233685784
 40
0.7042698233685784
 40
0.9340165526340242
 40
0.9340165526340242
 40
0.9340165526340242
 40
1.0
 40
1.0
 40
1.0
 40
1.0
 10
25.78681631117748
 20
489.916221984623
 30
0.0
 10
25.78795260970028
 20
489.9049662097805
 30
0.0
 10
25.78806784026799
 20
489.8931852260613
 30
0.0
 10
25.78714812267023
 20
489.8818479707995
 30
0.0
 10
25.78622805194375
 20
489.8705063625598
 30
0.0
 10
25.78424531211201
 20
489.8592933724026
 30
0.0
 10
25.78136483672704
 20
489.8491660274602
 30
0.0
 10
25.77851360457389
 20
489.8391414975939
 30
0.0
 10
25.77470215738055
 20
489.8298999155386
 30
0.0
 10
25.77025691731443
 20
489.8222444875354
 30
0.0
 10
25.76587670696302
 20
489.8147010513012
 30
0.0
 10
25.76075883365245
 20
489.8084871424643
 30
0.0
 10
25.75533863894114
 20
489.8041378203858
 30
0.0
 10
25.75376094757211
 20
489.8028718348872
 30
0.0
 10
25.75215009054636
 20
489.8017531107991
 30
0.0
 10
25.75051791601124
 20
489.8007899047601
 30
0.0
  0
LINE
  5
12E
330
5E
100
AcDbEntity
  8
$DDT_AUDIT_GENERATED_(85)
  6
Continuous
 62
     7
100
AcDbLine
 10
25.750517916
 20
489.8007899048
 30
0.0
 11
25.7397978698
 21
489.7944393894
 31
0.0
  0
SPLINE
  5
12F
330
5E
100
AcDbEntity
  8
$DDT_AUDIT_GENERATED_(85)
  6
Continuous
 62
     7
100
AcDbSpline
210
0.0
220
0.0
230
1.0
 70
     8
 71
     3
 72
    11
 73
     7
 74
     0
 42
0.0000001256660196
 43
0.0000000001
 40
0.0
 40
0.0
 40
0.0
 40
0.0
 40
0.2274863332651959
 40
0.2274863332651959
 40
0.2274863332651959
 40
0.27096764853155
 40
0.27096764853155
 40
0.27096764853155
 40
0.27096764853155
 10
25.73979786976344
 20
489.7944393893974
 30
0.0
 10
25.73427834873954
 20
489.7911571020823
 30
0.0
 10
25.72840591683233
 20
489.7896620655414
 30
0.0
 10
25.72266529013356
 20
489.7900714743789
 30
0.0
 10
25.72156786370136
 20
489.7901497404121
 30
0.0
 10
25.72046949712108
 20
489.7902979527385
 30
0.0
 10
25.71937340484063
 20
489.790514645914
 30
0.0
  0
SPLINE
  5
130
330
5E
100
AcDbEntity
  8
$DDT_AUDIT_GENERATED_(85)
  6
Continuous
 62
     7
100
AcDbSpline
210
0.0
220
0.0
230
1.0
 70
    12
 71
     2
 72
     6
 73
     3
 74
     0
 42
0.0000000098484301
 43
0.0000000001
 40
0.5736899512815982
 40
0.5736899512815982
 40
0.5736899512815982
 40
1.0
 40
1.0
 40
1.0
 10
25.04894095126238
 20
489.8130758186924
 30
0.0
 41
1.0
 10
25.08047961739258
 20
489.5989550981802
 30
0.0
 41
1.0
 10
25.1121763453739
 20
489.3848485145329
 30
0.0
 41
1.0
  0
SPLINE
  5
131
330
5E
100
AcDbEntity
  8
$DDT_AUDIT_GENERATED_(85)
  6
Continuous
 62
     7
100
AcDbSpline
210
0.0
220
0.0
230
1.0
 70
     8
 71
     3
 72
    20
 73
    16
 74
     0
 42
0.0000000831578735
 43
0.0000000001
 40
0.0
 40
0.0
 40
0.0
 40
0.0
 40
0.2354503934061476
 40
0.2354503934061476
 40
0.2354503934061476
 40
0.471057081086445
 40
0.471057081086445
 40
0.471057081086445
 40
0.7042698237517142
 40
0.7042698237517142
 40
0.7042698237517142
 40
0.9340165527194975
 40
0.9340165527194975
 40
0.9340165527194975
 40
1.0
 40
1.0
 40
1.0
 40
1.0
 10
25.11217634531786
 20
489.3848485144842
 30
0.0
 10
25.11382423113308
 20
489.3737181051155
 30
0.0
 10
25.11492104162182
 20
489.3619916969461
 30
0.0
 10
25.11537746593844
 20
489.3506335806042
 30
0.0
 10
25.11583406550075
 20
489.3392711032748
 30
0.0
 10
25.11566195044247
 20
489.3279610847294
 30
0.0
 10
25.11487965790286
 20
489.3176688133831
 30
0.0
 10
25.11410530737247
 20
489.3074810314828
 30
0.0
 10
25.11271131128163
 20
489.2980050597366
 30
0.0
 10
25.1108222964543
 20
489.2900644141324
 30
0.0
 10
25.10896091615141
 20
489.2822399327645
 30
0.0
 10
25.10656718118011
 20
489.2756877926863
 30
0.0
 10
25.10384747737625
 20
489.2709719488359
 30
0.0
 10
25.1030558354803
 20
489.2695992774585
 30
0.0
 10
25.10223314876348
 20
489.2683709762347
 30
0.0
 10
25.10138548216541
 20
489.2672961083899
 30
0.0
  0
LINE
  5
132
330
5E
100
AcDbEntity
  8
$DDT_AUDIT_GENERATED_(85)
  6
Continuous
 62
     7
100
AcDbLine
 10
25.1013854822
 20
489.2672961084
 30
0.0
 11
25.0958363779
 21
489.2602130289
 31
0.0
  0
SPLINE
  5
133
330
5E
100
AcDbEntity
  8
$DDT_AUDIT_GENERATED_(85)
  6
Continuous
 62
     7
100
AcDbSpline
210
0.0
220
0.0
230
1.0
 70
     8
 71
     3
 72
    11
 73
     7
 74
     0
 42
0.0000001976447553
 43
0.0000000001
 40
0.0
 40
0.0
 40
0.0
 40
0.0
 40
0.2274863332660511
 40
0.2274863332660511
 40
0.2274863332660511
 40
0.2454909621784236
 40
0.2454909621784236
 40
0.2454909621784236
 40
0.2454909621784236
 10
25.09583637789879
 20
489.2602130288726
 30
0.0
 10
25.09298875582972
 20
489.2565539874607
 30
0.0
 10
25.0897932794876
 20
489.2546506429054
 30
0.0
 10
25.08651213295989
 20
489.2546538210875
 30
0.0
 10
25.08625240228909
 20
489.2546540726677
 30
0.0
 10
25.08599157027531
 20
489.2546662603949
 30
0.0
 10
25.08572977213197
 20
489.2546902965905
 30
0.0
  0
ARC
  5
134
330
5E
100
AcDbEntity
  8
$DDT_AUDIT_GENERATED_(85)
  6
Continuous
 62
     7
100
AcDbCircle
 10
572.5716381058
 20
591.0722853926
 30
0.0
 40
557.1735347527137
100
AcDbArc
 50
190.5263870249
 51
190.5756876995
  0
ARC
  5
135
330
5E
100
AcDbEntity
  8
$DDT_AUDIT_GENERATED_(85)
  6
Continuous
 62
     7
100
AcDbCircle
 10
23.9746655928
 20
488.635241917
 30
0.0
 40
0.9053627999048152
100
AcDbArc
 50
3.7540038021
 51
11.249464052
  0
SPLINE
  5
136
330
5E
100
AcDbEntity
  8
$DDT_AUDIT_GENERATED_(85)
  6
Continuous
 62
     7
100
AcDbSpline
210
0.0
220
0.0
230
1.0
 70
    12
 71
     2
 72
     6
 73
     3
 74
     0
 42
0.0000000101125618
 43
0.0000000001
 40
0.5780349646769407
 40
0.5780349646769407
 40
0.5780349646769407
 40
1.0
 40
1.0
 40
1.0
 10
37.35366661137638
 20
488.6811546940139
 30
0.0
 41
1.0
 10
37.34799292245966
 20
488.4725921516257
 30
0.0
 41
1.0
 10
37.34213509092389
 20
488.2640459159892
 30
0.0
 41
1.0
  0
SPLINE
  5
137
330
5E
100
AcDbEntity
  8
$DDT_AUDIT_GENERATED_(85)
  6
Continuous
 62
     7
100
AcDbSpline
210
0.0
220
0.0
230
1.0
 70
     8
 71
     3
 72
    20
 73
    16
 74
     0
 42
0.000000083198725
 43
0.0000000001
 40
0.0
 40
0.0
 40
0.0
 40
0.0
 40
0.2315776519973273
 40
0.2315776519973273
 40
0.2315776519973273
 40
0.463153623123381
 40
0.463153623123381
 40
0.463153623123381
 40
0.6947533632360997
 40
0.6947533632360997
 40
0.6947533632360997
 40
0.9263592170857718
 40
0.9263592170857718
 40
0.9263592170857718
 40
1.0
 40
1.0
 40
1.0
 40
1.0
 10
37.34213509098118
 20
488.2640459160387
 30
0.0
 10
37.34182979371154
 20
488.2531768439345
 30
0.0
 10
37.34105676002687
 20
488.2417256575183
 30
0.0
 10
37.33987234467999
 20
488.2306413857706
 30
0.0
 10
37.33868793440933
 20
488.2195571615285
 30
0.0
 10
37.33705894572137
 20
488.2085341887861
 30
0.0
 10
37.335106645782
 20
488.1984862071228
 30
0.0
 10
37.33315415039714
 20
488.1884372195522
 30
0.0
 10
37.33082373149497
 20
488.1790863103413
 30
0.0
 10
37.32829476798535
 20
488.1712089825257
 30
0.0
 10
37.32576574555647
 20
488.1633314711859
 30
0.0
 10
37.32296786219532
 20
488.1567103819153
 30
0.0
 10
37.32012527417423
 20
488.1518949180079
 30
0.0
 10
37.31920977722467
 20
488.150344027592
 30
0.0
 10
37.3182845172116
 20
488.1489668020523
 30
0.0
 10
37.3173575413151
 20
488.1477753060312
 30
0.0
  0
LINE
  5
138
330
5E
100
AcDbEntity
  8
$DDT_AUDIT_GENERATED_(85)
  6
Continuous
 62
     7
100
AcDbLine
 10
37.3173575413
 20
488.147775306
 30
0.0
 11
37.311808437
 21
488.1406922265
 31
0.0
  0
SPLINE
  5
139
330
5E
100
AcDbEntity
  8
$DDT_AUDIT_GENERATED_(85)
  6
Continuous
 62
     7
100
AcDbSpline
210
0.0
220
0.0
230
1.0
 70
     8
 71
     3
 72
    11
 73
     7
 74
     0
 42
0.0000002124342954
 43
0.0000000001
 40
0.0
 40
0.0
 40
0.0
 40
0.0
 40
0.2315768355109377
 40
0.2315768355109377
 40
0.2315768355109377
 40
0.2470724432089891
 40
0.2470724432089891
 40
0.2470724432089891
 40
0.2470724432089891
 10
37.31180843704848
 20
488.1406922265139
 30
0.0
 10
37.30889302539718
 20
488.1369965637714
 30
0.0
 10
37.30590641907139
 20
488.1350684547975
 30
0.0
 10
37.30310071034602
 20
488.1350670254687
 30
0.0
 10
37.30291297015863
 20
488.1350669298271
 30
0.0
 10
37.30272569538388
 20
488.135075460245
 30
0.0
 10
37.30253895668542
 20
488.1350925686054
 30
0.0
  0
SPLINE
  5
13A
330
5E
100
AcDbEntity
  8
$DDT_AUDIT_GENERATED_(85)
  6
Continuous
 62
     7
100
AcDbSpline
210
0.0
220
0.0
230
1.0
 70
    12
 71
     2
 72
     6
 73
     3
 74
     0
 42
0.0000000101386518
 43
0.0000000001
 40
0.5609827955668794
 40
0.5609827955668794
 40
0.5609827955668794
 40
1.0
 40
1.0
 40
1.0
 10
36.77616558510801
 20
488.1833303985418
 30
0.0
 41
1.0
 10
36.7641208319947
 20
487.9671466784097
 30
0.0
 41
1.0
 10
36.75189734873648
 20
487.7509976326672
 30
0.0
 41
1.0
  0
SPLINE
  5
13B
330
5E
100
AcDbEntity
  8
$DDT_AUDIT_GENERATED_(85)
  6
Continuous
 62
     7
100
AcDbSpline
210
0.0
220
0.0
230
1.0
 70
     8
 71
     3
 72
    20
 73
    16
 74
     0
 42
0.0000000786397878
 43
0.0000000001
 40
0.0
 40
0.0
 40
0.0
 40
0.0
 40
0.2315776513076842
 40
0.2315776513076842
 40
0.2315776513076842
 40
0.4631536226414998
 40
0.4631536226414998
 40
0.4631536226414998
 40
0.6947533629619977
 40
0.6947533629619977
 40
0.6947533629619977
 40
0.9263592170194582
 40
0.9263592170194582
 40
0.9263592170194582
 40
1.0
 40
1.0
 40
1.0
 40
1.0
 10
36.7518973482405
 20
487.7509976324796
 30
0.0
 10
36.75128502913914
 20
487.7401698788842
 30
0.0
 10
36.74973426268262
 20
487.7288233280902
 30
0.0
 10
36.74736663650758
 20
487.7178989969795
 30
0.0
 10
36.74499902047981
 20
487.7069747126887
 30
0.0
 10
36.74174878352278
 20
487.6961714407725
 30
0.0
 10
36.73787283239989
 20
487.6863858924679
 30
0.0
 10
36.73399649325405
 20
487.6765993645283
 30
0.0
 10
36.72938677369844
 20
487.6675609545262
 30
0.0
 10
36.72441316317829
 20
487.6600214511592
 30
0.0
 10
36.71943943678399
 20
487.6524817721385
 30
0.0
 10
36.71396410905177
 20
487.6462332074129
 30
0.0
 10
36.70843387228994
 20
487.6417947534362
 30
0.0
 10
36.70665277884685
 20
487.6403652845698
 30
0.0
 10
36.70485587114016
 20
487.6391106322702
 30
0.0
 10
36.7030588329351
 20
487.6380417926279
 30
0.0
  0
LINE
  5
13C
330
5E
100
AcDbEntity
  8
$DDT_AUDIT_GENERATED_(85)
  6
Continuous
 62
     7
100
AcDbLine
 10
36.7030588329
 20
487.6380417926
 30
0.0
 11
36.6923387867
 21
487.6316912773
 31
0.0
  0
SPLINE
  5
13D
330
5E
100
AcDbEntity
  8
$DDT_AUDIT_GENERATED_(85)
  6
Continuous
 62
     7
100
AcDbSpline
210
0.0
220
0.0
230
1.0
 70
     8
 71
     3
 72
    11
 73
     7
 74
     0
 42
0.0000001320691007
 43
0.0000000001
 40
0.0
 40
0.0
 40
0.0
 40
0.0
 40
0.2315768354864173
 40
0.2315768354864173
 40
0.2315768354864173
 40
0.2726053315197854
 40
0.2726053315197854
 40
0.2726053315197854
 40
0.2726053315197854
 10
36.6923387866873
 20
487.6316912772652
 30
0.0
 10
36.68672607326626
 20
487.6283796172848
 30
0.0
 10
36.68100818928749
 20
487.6268434524126
 30
0.0
 10
36.6756629185203
 20
487.6272090438077
 30
0.0
 10
36.67471589370652
 20
487.6272738158536
 30
0.0
 10
36.67377594951827
 20
487.6273985958401
 30
0.0
 10
36.67284550376029
 20
487.6275823226775
 30
0.0
  0
SPLINE
  5
13E
330
5E
100
AcDbEntity
  8
$DDT_AUDIT_GENERATED_(85)
  6
Continuous
 62
     7
100
AcDbSpline
210
0.0
220
0.0
230
1.0
 70
    12
 71
     2
 72
     6
 73
     3
 74
     0
 42
0.0000000101839288
 43
0.0000000001
 40
0.50369042065977
 40
0.50369042065977
 40
0.50369042065977
 40
1.0
 40
1.0
 40
1.0
 10
35.83295411356158
 20
487.7934282223276
 30
0.0
 41
1.0
 10
35.81333493840653
 20
487.5505224482463
 30
0.0
 41
1.0
 10
35.79352922928998
 20
487.3076796737988
 30
0.0
 41
1.0
  0
SPLINE
  5
13F
330
5E
100
AcDbEntity
  8
$DDT_AUDIT_GENERATED_(85)
  6
Continuous
 62
     7
100
AcDbSpline
210
0.0
220
0.0
230
1.0
 70
     8
 71
     3
 72
    20
 73
    16
 74
     0
 42
0.0000000740482866
 43
0.0000000001
 40
0.0
 40
0.0
 40
0.0
 40
0.0
 40
0.2315776517826732
 40
0.2315776517826732
 40
0.2315776517826732
 40
0.4631536229734234
 40
0.4631536229734234
 40
0.4631536229734234
 40
0.6947533631508337
 40
0.6947533631508337
 40
0.6947533631508337
 40
0.9263592170652215
 40
0.9263592170652215
 40
0.9263592170652215
 40
1.0
 40
1.0
 40
1.0
 40
1.0
 10
35.79352922961582
 20
487.3076796738611
 30
0.0
 10
35.79265161587642
 20
487.2969190084306
 30
0.0
 10
35.79042879881931
 20
487.2857423738233
 30
0.0
 10
35.78703931162724
 20
487.2750772728969
 30
0.0
 10
35.78364983896198
 20
487.2644122176795
 30
0.0
 10
35.77899985201323
 20
487.2539646755134
 30
0.0
 10
35.77346438937053
 20
487.2446029025229
 30
0.0
 10
35.76792837257055
 20
487.2352401923218
 30
0.0
 10
35.76135349713128
 20
487.2267054000943
 30
0.0
 10
35.75427418293827
 20
487.2197086134842
 30
0.0
 10
35.74719470381284
 20
487.2127116638644
 30
0.0
 10
35.73941506624608
 20
487.2070599411461
 30
0.0
 10
35.7315740572397
 20
487.2032235650311
 30
0.0
 10
35.72904874587785
 20
487.2019880041252
 30
0.0
 10
35.72650264676823
 20
487.2009289078944
 30
0.0
 10
35.72395801143856
 20
487.2000555642861
 30
0.0
  0
LINE
  5
140
330
5E
100
AcDbEntity
  8
$DDT_AUDIT_GENERATED_(85)
  6
Continuous
 62
     7
100
AcDbLine
 10
35.7239580114
 20
487.2000555643
 30
0.0
 11
35.7087975766
 21
487.1948703902
 31
0.0
  0
SPLINE
  5
141
330
5E
100
AcDbEntity
  8
$DDT_AUDIT_GENERATED_(85)
  6
Continuous
 62
     7
100
AcDbSpline
210
0.0
220
0.0
230
1.0
 70
     8
 71
     3
 72
    11
 73
     7
 74
     0
 42
0.0000000978135477
 43
0.0000000001
 40
0.0
 40
0.0
 40
0.0
 40
0.0
 40
0.2315768354864408
 40
0.2315768354864408
 40
0.2315768354864408
 40
0.3260826864349395
 40
0.3260826864349395
 40
0.3260826864349395
 40
0.3260826864349395
 10
35.70879757664566
 20
487.1948703902054
 30
0.0
 10
35.70087005859908
 20
487.1921684171419
 30
0.0
 10
35.69281056131123
 20
487.1912526175219
 30
0.0
 10
35.68528999987152
 20
487.1921975291149
 30
0.0
 10
35.68222087179609
 20
487.1925831458967
 30
0.0
 10
35.67920700783627
 20
487.1932829693565
 30
0.0
 10
35.67628946151104
 20
487.1942808524699
 30
0.0
  0
SPLINE
  5
142
330
5E
100
AcDbEntity
  8
$DDT_AUDIT_GENERATED_(85)
  6
Continuous
 62
     7
100
AcDbSpline
210
0.0
220
0.0
230
1.0
 70
    12
 71
     2
 72
     6
 73
     3
 74
     0
 42
0.000000010250305
 43
0.0000000001
 40
0.8823744484351281
 40
0.8823744484351281
 40
0.8823744484351281
 40
1.0
 40
1.0
 40
1.0
 10
34.54392053801815
 20
487.0784710120387
 30
0.0
 41
1.0
 10
34.53813494236146
 20
487.0213850468033
 30
0.0
 41
1.0
 10
34.53234193614681
 20
486.9643034256636
 30
0.0
 41
1.0
  0
ARC
  5
143
330
5E
100
AcDbEntity
  8
$DDT_AUDIT_GENERATED_(85)
  6
Continuous
 62
     7
100
AcDbCircle
 10
34.4177660082
 20
486.9750235392
 30
0.0
 40
0.1150763415595869
100
AcDbArc
 50
284.60306235
 51
354.6547734352
  0
LINE
  5
144
330
5E
100
AcDbEntity
  8
$DDT_AUDIT_GENERATED_(85)
  6
Continuous
 62
     7
100
AcDbLine
 10
34.4467791798
 20
486.8636646587
 30
0.0
 11
34.428211515
 21
486.8599981869
 31
0.0
  0
ARC
  5
145
330
5E
100
AcDbEntity
  8
$DDT_AUDIT_GENERATED_(85)
  6
Continuous
 62
     7
100
AcDbCircle
 10
34.4132006402
 20
486.9300095907
 30
0.0
 40
0.0716025349898191
100
AcDbArc
 50
239.6892089856
 51
282.1013538643
  0
ARC
  5
146
330
5E
100
AcDbEntity
  8
$DDT_AUDIT_GENERATED_(85)
  6
Continuous
 62
     7
100
AcDbCircle
 10
32.9479587327
 20
486.7585474326
 30
0.0
 40
0.1072789607597929
100
AcDbArc
 50
275.6711846496
 51
352.3516696316
  0
LINE
  5
147
330
5E
100
AcDbEntity
  8
$DDT_AUDIT_GENERATED_(85)
  6
Continuous
 62
     7
100
AcDbLine
 10
32.9585599647
 20
486.6517935601
 30
0.0
 11
32.9378504256
 21
486.6498956546
 31
0.0
  0
ARC
  5
148
330
5E
100
AcDbEntity
  8
$DDT_AUDIT_GENERATED_(85)
  6
Continuous
 62
     7
100
AcDbCircle
 10
32.9272776165
 20
486.7355772404
 30
0.0
 40
0.0863314452425222
100
AcDbArc
 50
217.8310511552
 51
277.034539059
  0
ARC
  5
149
330
5E
100
AcDbEntity
  8
$DDT_AUDIT_GENERATED_(85)
  6
Continuous
 62
     7
100
AcDbCircle
 10
31.3630477494
 20
486.6769447345
 30
0.0
 40
0.0980914228171818
100
AcDbArc
 50
268.6402471951
 51
351.5748140529
  0
LINE
  5
14A
330
5E
100
AcDbEntity
  8
$DDT_AUDIT_GENERATED_(85)
  6
Continuous
 62
     7
100
AcDbLine
 10
31.3607200462
 20
486.5788809337
 30
0.0
 11
31.3392799538
 21
486.5788809337
 31
0.0
  0
ARC
  5
14B
330
5E
100
AcDbEntity
  8
$DDT_AUDIT_GENERATED_(85)
  6
Continuous
 62
     7
100
AcDbCircle
 10
31.3372121383
 20
486.6772532786
 30
0.0
 40
0.0983940755539984
100
AcDbArc
 50
188.5807419655
 51
271.2041966831
  0
ARC
  5
14C
330
5E
100
AcDbEntity
  8
$DDT_AUDIT_GENERATED_(85)
  6
Continuous
 62
     7
100
AcDbCircle
 10
29.7728845397
 20
486.7353688714
 30
0.0
 40
0.0861447054330217
100
AcDbArc
 50
262.8414481872
 51
322.1587390436
  0
LINE
  5
14D
330
5E
100
AcDbEntity
  8
$DDT_AUDIT_GENERATED_(85)
  6
Continuous
 62
     7
100
AcDbLine
 10
29.7621495744
 20
486.6498956546
 30
0.0
 11
29.7414400353
 21
486.6517935601
 31
0.0
  0
ARC
  5
14E
330
5E
100
AcDbEntity
  8
$DDT_AUDIT_GENERATED_(85)
  6
Continuous
 62
     7
100
AcDbCircle
 10
29.7521153198
 20
486.7586240843
 30
0.0
 40
0.1073625754089854
100
AcDbArc
 50
187.6836131963
 51
264.2935317779
  0
ARC
  5
14F
330
5E
100
AcDbEntity
  8
$DDT_AUDIT_GENERATED_(85)
  6
Continuous
 62
     7
100
AcDbCircle
 10
28.2866559756
 20
486.9301957361
 30
0.0
 40
0.0717547085176331
100
AcDbArc
 50
258.0417540043
 51
300.2953121632
  0
LINE
  5
150
330
5E
100
AcDbEntity
  8
$DDT_AUDIT_GENERATED_(85)
  6
Continuous
 62
     7
100
AcDbLine
 10
28.271788485
 20
486.8599981869
 30
0.0
 11
28.2532208202
 21
486.8636646587
 31
0.0
  0
ARC
  5
151
330
5E
100
AcDbEntity
  8
$DDT_AUDIT_GENERATED_(85)
  6
Continuous
 62
     7
100
AcDbCircle
 10
28.2817208553
 20
486.9745872718
 30
0.0
 40
0.1145254474343407
100
AcDbArc
 50
185.1518305537
 51
255.5903334893
  0
SPLINE
  5
152
330
5E
100
AcDbEntity
  8
$DDT_AUDIT_GENERATED_(85)
  6
Continuous
 62
     7
100
AcDbSpline
210
0.0
220
0.0
230
1.0
 70
    12
 71
     2
 72
     6
 73
     3
 74
     0
 42
0.0000000102503035
 43
0.0000000001
 40
0.0
 40
0.0
 40
0.0
 40
0.118173463593383
 40
0.118173463593383
 40
0.118173463593383
 10
28.16765806281878
 20
486.9643034257402
 30
0.0
 41
1.0
 10
28.16183807217997
 20
487.0216509389953
 30
0.0
 41
1.0
 10
28.1560255612982
 20
487.0790028369108
 30
0.0
 41
1.0
  0
SPLINE
  5
153
330
5E
100
AcDbEntity
  8
$DDT_AUDIT_GENERATED_(85)
  6
Continuous
 62
     7
100
AcDbSpline
210
0.0
220
0.0
230
1.0
 70
     8
 71
     3
 72
    14
 73
    10
 74
     0
 42
0.0000000976048146
 43
0.0000000001
 40
0.6746736759905567
 40
0.6746736759905567
 40
0.6746736759905567
 40
0.6746736759905567
 40
0.6947533625737577
 40
0.6947533625737577
 40
0.6947533625737577
 40
0.9263592169259651
 40
0.9263592169259651
 40
0.9263592169259651
 40
1.0
 40
1.0
 40
1.0
 40
1.0
 10
27.02369971033028
 20
487.1942682930514
 30
0.0
 10
27.02308267569388
 20
487.194057261974
 30
0.0
 10
27.02246168888247
 20
487.1938600968487
 30
0.0
 10
27.02183711934225
 20
487.1936770149695
 30
0.0
 10
27.01463314666366
 20
487.1915652935829
 30
0.0
 10
27.00675418585587
 20
487.191269126925
 30
0.0
 10
26.99885833591642
 20
487.1928150735621
 30
0.0
 10
26.99631536223185
 20
487.1933129682341
 30
0.0
 10
26.99375590923903
 20
487.1940000736653
 30
0.0
 10
26.99120242335428
 20
487.1948703902054
 30
0.0
  0
LINE
  5
154
330
5E
100
AcDbEntity
  8
$DDT_AUDIT_GENERATED_(85)
  6
Continuous
 62
     7
100
AcDbLine
 10
26.9912024234
 20
487.1948703902
 30
0.0
 11
26.9760419886
 21
487.2000555643
 31
0.0
  0
ARC
  5
155
330
5E
100
AcDbEntity
  8
$DDT_AUDIT_GENERATED_(85)
  6
Continuous
 62
     7
100
AcDbCircle
 10
27.0305154445
 20
487.3115671624
 30
0.0
 40
0.1241055757045316
100
AcDbArc
 50
181.7950291104
 51
243.9644742041
  0
SPLINE
  5
156
330
5E
100
AcDbEntity
  8
$DDT_AUDIT_GENERATED_(85)
  6
Continuous
 62
     7
100
AcDbSpline
210
0.0
220
0.0
230
1.0
 70
    12
 71
     2
 72
     6
 73
     3
 74
     0
 42
0.0000000101839288
 43
0.0000000001
 40
0.0
 40
0.0
 40
0.0
 40
0.4963095790460694
 40
0.4963095790460694
 40
0.4963095790460694
 10
26.90647076962545
 20
487.3076796740061
 30
0.0
 41
1.0
 10
26.88666506052105
 20
487.5505224483045
 30
0.0
 41
1.0
 10
26.86704588537751
 20
487.7934282222418
 30
0.0
 41
1.0
  0
SPLINE
  5
157
330
5E
100
AcDbEntity
  8
$DDT_AUDIT_GENERATED_(85)
  6
Continuous
 62
     7
100
AcDbSpline
210
0.0
220
0.0
230
1.0
 70
     8
 71
     3
 72
    11
 73
     7
 74
     0
 42
0.0000001321543037
 43
0.0000000001
 40
0.7270398727390377
 40
0.7270398727390377
 40
0.7270398727390377
 40
0.7270398727390377
 40
0.9263592170834576
 40
0.9263592170834576
 40
0.9263592170834576
 40
1.0
 40
1.0
 40
1.0
 40
1.0
 10
26.02723566318998
 20
487.6275972220698
 30
0.0
 10
26.02271897944906
 20
487.6267052808286
 30
0.0
 10
26.01790218843245
 20
487.6271936951952
 30
0.0
 10
26.01308507927851
 20
487.6290470068906
 30
0.0
 10
26.01128235399628
 20
487.6297405788531
 30
0.0
 10
26.00946909118963
 20
487.6306245780833
 30
0.0
 10
26.00766121331265
 20
487.6316912772652
 30
0.0
  0
LINE
  5
158
330
5E
100
AcDbEntity
  8
$DDT_AUDIT_GENERATED_(85)
  6
Continuous
 62
     7
100
AcDbLine
 10
26.0076612133
 20
487.6316912773
 30
0.0
 11
25.9969411671
 21
487.6380417926
 31
0.0
  0
SPLINE
  5
159
330
5E
100
AcDbEntity
  8
$DDT_AUDIT_GENERATED_(85)
  6
Continuous
 62
     7
100
AcDbSpline
210
0.0
220
0.0
230
1.0
 70
     8
 71
     3
 72
    20
 73
    16
 74
     0
 42
0.0000000786178917
 43
0.0000000001
 40
0.0
 40
0.0
 40
0.0
 40
0.0
 40
0.2315768355912205
 40
0.2315768355912205
 40
0.2315768355912205
 40
0.4631521975120621
 40
0.4631521975120621
 40
0.4631521975120621
 40
0.69474919882332
 40
0.69474919882332
 40
0.69474919882332
 40
0.9263566109154714
 40
0.9263566109154714
 40
0.9263566109154714
 40
1.0
 40
1.0
 40
1.0
 40
1.0
 10
25.99694116706485
 20
487.6380417926279
 30
0.0
 10
25.99136210634397
 20
487.641360097853
 30
0.0
 10
25.98573393633964
 20
487.6465452929879
 30
0.0
 10
25.98051846939271
 20
487.6531670259654
 30
0.0
 10
25.97530302162717
 20
487.6597887345895
 30
0.0
 10
25.97035603955176
 20
487.6680294881144
 30
0.0
 10
25.96607609746854
 20
487.6772048298079
 30
0.0
 10
25.96179576355416
 20
487.6863810115092
 30
0.0
 10
25.95806392692294
 20
487.6967449269944
 30
0.0
 10
25.9551767528321
 20
487.7074360099154
 30
0.0
 10
25.9522894594066
 20
487.7181275347276
 30
0.0
 10
25.95016670778829
 20
487.7294410872825
 30
0.0
 10
25.94897529565895
 20
487.7404378484869
 30
0.0
 10
25.94859157300726
 20
487.7439796173387
 30
0.0
 10
25.94829988816883
 20
487.747509858215
 30
0.0
 10
25.94810265187403
 20
487.7509976324359
 30
0.0
  0
SPLINE
  5
15A
330
5E
100
AcDbEntity
  8
$DDT_AUDIT_GENERATED_(85)
  6
Continuous
 62
     7
100
AcDbSpline
210
0.0
220
0.0
230
1.0
 70
    12
 71
     2
 72
     6
 73
     3
 74
     0
 42
0.0000000101386518
 43
0.0000000001
 40
0.0
 40
0.0
 40
0.0
 40
0.4390172047015318
 40
0.4390172047015318
 40
0.4390172047015318
 10
25.94810265187404
 20
487.750997632436
 30
0.0
 41
1.0
 10
25.93587916860832
 20
487.9671466783107
 30
0.0
 41
1.0
 10
25.92383441548773
 20
488.183330398575
 30
0.0
 41
1.0
  0
SPLINE
  5
15B
330
5E
100
AcDbEntity
  8
$DDT_AUDIT_GENERATED_(85)
  6
Continuous
 62
     7
100
AcDbSpline
210
0.0
220
0.0
230
1.0
 70
     8
 71
     3
 72
    11
 73
     7
 74
     0
 42
0.0000002148270264
 43
0.0000000001
 40
0.7527531951693202
 40
0.7527531951693202
 40
0.7527531951693202
 40
0.7527531951693202
 40
0.9263592169195887
 40
0.9263592169195887
 40
0.9263592169195887
 40
1.0
 40
1.0
 40
1.0
 40
1.0
 10
25.3974959707692
 20
488.1351008634633
 30
0.0
 10
25.39539655286361
 20
488.1349084788875
 30
0.0
 10
25.3932006422765
 20
488.1357750374669
 30
0.0
 10
25.39101375481888
 20
488.1376766542461
 30
0.0
 10
25.39007413068782
 20
488.1384937081862
 30
0.0
 10
25.38913062893104
 20
488.1395018384766
 30
0.0
 10
25.38819156295148
 20
488.1406922265139
 30
0.0
  0
LINE
  5
15C
330
5E
100
AcDbEntity
  8
$DDT_AUDIT_GENERATED_(85)
  6
Continuous
 62
     7
100
AcDbLine
 10
25.388191563
 20
488.1406922265
 30
0.0
 11
25.3826424587
 21
488.147775306
 31
0.0
  0
ARC
  5
15D
330
5E
100
AcDbEntity
  8
$DDT_AUDIT_GENERATED_(85)
  6
Continuous
 62
     7
100
AcDbCircle
 10
25.6032714478
 20
488.2555672631
 30
0.0
 40
0.2455529613852741
100
AcDbArc
 50
178.0212512631
 51
206.0385901968
  0
SPLINE
  5
15E
330
5E
100
AcDbEntity
  8
$DDT_AUDIT_GENERATED_(85)
  6
Continuous
 62
     7
100
AcDbSpline
210
0.0
220
0.0
230
1.0
 70
    12
 71
     2
 72
     6
 73
     3
 74
     0
 42
0.0000000101125618
 43
0.0000000001
 40
0.0
 40
0.0
 40
0.0
 40
0.4219650352489597
 40
0.4219650352489597
 40
0.4219650352489597
 10
25.35786490898558
 20
488.2640459160672
 30
0.0
 41
1.0
 10
25.352007077451
 20
488.4725921516608
 30
0.0
 41
1.0
 10
25.34633338853527
 20
488.6811546940114
 30
0.0
 41
1.0
  0
SPLINE
  5
15F
330
5E
100
AcDbEntity
  8
$DDT_AUDIT_GENERATED_(85)
  6
Continuous
 62
     7
100
AcDbSpline
210
0.0
220
0.0
230
1.0
 70
     8
 71
     3
 72
    11
 73
     7
 74
     0
 42
0.000000202351254
 43
0.0000000001
 40
0.7541602266103006
 40
0.7541602266103006
 40
0.7541602266103006
 40
0.7541602266103006
 40
0.9322077561170351
 40
0.9322077561170351
 40
0.9322077561170351
 40
1.0
 40
1.0
 40
1.0
 40
1.0
 10
34.22131302545383
 20
488.94375031437
 30
0.0
 10
34.21878309705921
 20
488.9435181769442
 30
0.0
 10
34.2162943778965
 20
488.9444263168619
 30
0.0
 10
34.2139681948562
 20
488.9464492279702
 30
0.0
 10
34.21307067913934
 20
488.9472297316889
 30
0.0
 10
34.21219204763587
 20
488.9481760533587
 30
0.0
 10
34.21133897872282
 20
488.9492809353293
 30
0.0
  0
SPLINE
  5
160
330
5E
100
AcDbEntity
  8
$DDT_AUDIT_GENERATED_(85)
  6
Continuous
 62
     7
100
AcDbSpline
210
0.0
220
0.0
230
1.0
 70
    12
 71
     2
 72
     6
 73
     3
 74
     0
 42
0.0000011113404023
 43
0.0000000001
 40
0.0
 40
0.0
 40
0.0
 40
1.0
 40
1.0
 40
1.0
 10
34.21133897872281
 20
488.9492809353293
 30
0.0
 41
1.0
 10
34.20860193536524
 20
488.952825912543
 30
0.0
 41
1.0
 10
34.20578987445619
 20
488.9563640148467
 30
0.0
 41
1.0
  0
SPLINE
  5
161
330
5E
100
AcDbEntity
  8
$DDT_AUDIT_GENERATED_(85)
  6
Continuous
 62
     7
100
AcDbSpline
210
0.0
220
0.0
230
1.0
 70
     8
 71
     3
 72
    20
 73
    16
 74
     0
 42
0.000000083113704
 43
0.0000000001
 40
0.0
 40
0.0
 40
0.0
 40
0.0
 40
0.2280395246181127
 40
0.2280395246181127
 40
0.2280395246181127
 40
0.4560243242012931
 40
0.4560243242012931
 40
0.4560243242012931
 40
0.6848913991968159
 40
0.6848913991968159
 40
0.6848913991968159
 40
0.9162090720400039
 40
0.9162090720400039
 40
0.9162090720400039
 40
1.0
 40
1.0
 40
1.0
 40
1.0
 10
34.2057898744562
 20
488.9563640148467
 30
0.0
 10
34.20288098003513
 20
488.960023951948
 30
0.0
 10
34.20020665553233
 20
488.9655435826689
 30
0.0
 10
34.19799756227061
 20
488.9724603434182
 30
0.0
 10
34.19578875994756
 20
488.9793761932266
 30
0.0
 10
34.19398518174362
 20
488.9878776021463
 30
0.0
 10
34.1927549848853
 20
488.9972550590898
 30
0.0
 10
34.19151991200969
 20
489.0066696845902
 30
0.0
 10
34.19083006996253
 20
489.0172220685724
 30
0.0
 10
34.19076198607091
 20
489.0280462283578
 30
0.0
 10
34.19069317572199
 20
489.0389858822757
 30
0.0
 10
34.19125817467448
 20
489.0504984738891
 30
0.0
 10
34.1924233128974
 20
489.0616536869497
 30
0.0
 10
34.19285046476316
 20
489.0657433047977
 30
0.0
 10
34.19335911703859
 20
489.0698132937316
 30
0.0
 10
34.19394390713417
 20
489.0738197269959
 30
0.0
  0
SPLINE
  5
162
330
5E
100
AcDbEntity
  8
$DDT_AUDIT_GENERATED_(85)
  6
Continuous
 62
     7
100
AcDbSpline
210
0.0
220
0.0
230
1.0
 70
    12
 71
     2
 72
     6
 73
     3
 74
     0
 42
0.0000000098549229
 43
0.0000000001
 40
0.0
 40
0.0
 40
0.0
 40
0.3186618573284767
 40
0.3186618573284767
 40
0.3186618573284767
 10
34.19394390713416
 20
489.0738197269959
 30
0.0
 41
1.0
 10
34.2172890026845
 20
489.233806976286
 30
0.0
 41
1.0
 10
34.24046163896497
 20
489.3938091232847
 30
0.0
 41
1.0
  0
SPLINE
  5
163
330
5E
100
AcDbEntity
  8
$DDT_AUDIT_GENERATED_(85)
  6
Continuous
 62
     7
100
AcDbSpline
210
0.0
220
0.0
230
1.0
 70
     8
 71
     3
 72
    14
 73
    10
 74
     0
 42
0.0000000787290569
 43
0.0000000001
 40
0.5705427391492648
 40
0.5705427391492648
 40
0.5705427391492648
 40
0.5705427391492648
 40
0.7025460167341704
 40
0.7025460167341704
 40
0.7025460167341704
 40
0.9322077560535574
 40
0.9322077560535574
 40
0.9322077560535574
 40
1.0
 40
1.0
 40
1.0
 40
1.0
 10
32.89135506645687
 20
489.5743637321021
 30
0.0
 10
32.88655849677511
 20
489.5715210190802
 30
0.0
 10
32.88148160023366
 20
489.569225031693
 30
0.0
 10
32.87625592781925
 20
489.5675539229514
 30
0.0
 10
32.86716215503264
 20
489.5646458410831
 30
0.0
 10
32.85736377893844
 20
489.5635488760162
 30
0.0
 10
32.84767514266488
 20
489.5643605439716
 30
0.0
 10
32.84477707759519
 20
489.5646033301061
 30
0.0
 10
32.84187315300214
 20
489.5650137793914
 30
0.0
 10
32.8389856628882
 20
489.5655887386765
 30
0.0
  0
LINE
  5
164
330
5E
100
AcDbEntity
  8
$DDT_AUDIT_GENERATED_(85)
  6
Continuous
 62
     7
100
AcDbLine
 10
32.8389856629
 20
489.5655887387
 30
0.0
 11
32.8204179981
 21
489.5692552104
 31
0.0
  0
ARC
  5
165
330
5E
100
AcDbEntity
  8
$DDT_AUDIT_GENERATED_(85)
  6
Continuous
 62
     7
100
AcDbCircle
 10
32.8468519165
 20
489.6712203573
 30
0.0
 40
0.1053358591585977
100
AcDbArc
 50
178.5643805226
 51
255.4663295067
  0
ARC
  5
166
330
5E
100
AcDbEntity
  8
$DDT_AUDIT_GENERATED_(85)
  6
Continuous
 62
     7
100
AcDbCircle
 10
30.5833338723
 20
489.7723978373
 30
0.0
 40
0.1035039114228563
100
AcDbArc
 50
276.1401520035
 51
332.4825363224
  0
LINE
  5
167
330
5E
100
AcDbEntity
  8
$DDT_AUDIT_GENERATED_(85)
  6
Continuous
 62
     7
100
AcDbLine
 10
30.5944047399
 20
489.6694877038
 30
0.0
 11
30.5736952009
 21
489.6675897983
 31
0.0
  0
ARC
  5
168
330
5E
100
AcDbEntity
  8
$DDT_AUDIT_GENERATED_(85)
  6
Continuous
 62
     7
100
AcDbCircle
 10
30.5651744889
 20
489.7591900871
 30
0.0
 40
0.0919957359339156
100
AcDbArc
 50
218.4740849869
 51
275.314393668
  0
SPLINE
  5
169
330
5E
100
AcDbEntity
  8
$DDT_AUDIT_GENERATED_(85)
  6
Continuous
 62
     7
100
AcDbSpline
210
0.0
220
0.0
230
1.0
 70
    12
 71
     2
 72
     6
 73
     3
 74
     0
 42
0.0000000098020846
 43
0.0000000001
 40
0.8337064353254794
 40
0.8337064353254794
 40
0.8337064353254794
 40
1.0
 40
1.0
 40
1.0
 10
28.81300176775634
 20
489.4841893686598
 30
0.0
 41
1.0
 10
28.82132252447592
 20
489.3997749208876
 30
0.0
 41
1.0
 10
28.8296856489479
 20
489.3153605076923
 30
0.0
 41
1.0
  0
SPLINE
  5
16A
330
5E
100
AcDbEntity
  8
$DDT_AUDIT_GENERATED_(85)
  6
Continuous
 62
     7
100
AcDbSpline
210
0.0
220
0.0
230
1.0
 70
     8
 71
     3
 72
    20
 73
    16
 74
     0
 42
0.0000000788838294
 43
0.0000000001
 40
0.0
 40
0.0
 40
0.0
 40
0.0
 40
0.2348909762147773
 40
0.2348909762147773
 40
0.2348909762147773
 40
0.4699467597707788
 40
0.4699467597707788
 40
0.4699467597707788
 40
0.7025460169685178
 40
0.7025460169685178
 40
0.7025460169685178
 40
0.9322077561069695
 40
0.9322077561069695
 40
0.9322077561069695
 40
1.0
 40
1.0
 40
1.0
 40
1.0
 10
28.82968564902855
 20
489.3153605077229
 30
0.0
 10
28.83079770095891
 20
489.3041402690636
 30
0.0
 10
28.83086049033647
 20
489.2923971127665
 30
0.0
 10
28.82986938215322
 20
489.2810961584045
 30
0.0
 10
28.82887786521251
 20
489.2697905432502
 30
0.0
 10
28.8268031184159
 20
489.258613596485
 30
0.0
 10
28.82383246370472
 20
489.248518668231
 30
0.0
 10
28.82089267024645
 20
489.2385286131999
 30
0.0
 10
28.81699372724811
 20
489.2293189642881
 30
0.0
 10
28.81248403544747
 20
489.2216826202483
 30
0.0
 10
28.80803029226073
 20
489.2141410150252
 30
0.0
 10
28.80285773893921
 20
489.2079236905338
 30
0.0
 10
28.79741247929406
 20
489.203559261238
 30
0.0
 10
28.79578369312361
 20
489.2022537730625
 30
0.0
 10
28.79412234111907
 20
489.2011028057916
 30
0.0
 10
28.79244127263162
 20
489.200115226009
 30
0.0
  0
SPLINE
  5
16B
330
5E
100
AcDbEntity
  8
$DDT_AUDIT_GENERATED_(85)
  6
Continuous
 62
     7
100
AcDbSpline
210
0.0
220
0.0
230
1.0
 70
    12
 71
     2
 72
     6
 73
     3
 74
     0
 42
0.0000008025709941
 43
0.0000000001
 40
0.0
 40
0.0
 40
0.0
 40
1.0
 40
1.0
 40
1.0
 10
28.79244127263161
 20
489.200115226009
 30
0.0
 41
1.0
 10
28.78704762005938
 20
489.1969466089809
 30
0.0
 41
1.0
 10
28.78172122638381
 20
489.1937647106463
 30
0.0
 41
1.0
  0
SPLINE
  5
16C
330
5E
100
AcDbEntity
  8
$DDT_AUDIT_GENERATED_(85)
  6
Continuous
 62
     7
100
AcDbSpline
210
0.0
220
0.0
230
1.0
 70
     8
 71
     3
 72
    11
 73
     7
 74
     0
 42
0.0000001267741786
 43
0.0000000001
 40
0.0
 40
0.0
 40
0.0
 40
0.0
 40
0.2280395246263889
 40
0.2280395246263889
 40
0.2280395246263889
 40
0.271111690078444
 40
0.271111690078444
 40
0.271111690078444
 40
0.271111690078444
 10
28.78172122638382
 20
489.1937647106463
 30
0.0
 10
28.77621141797339
 20
489.1904732434224
 30
0.0
 10
28.77037860022343
 20
489.188968444533
 30
0.0
 10
28.76469866312002
 20
489.1893711566336
 30
0.0
 10
28.76362571891076
 20
489.1894472292395
 30
0.0
 10
28.76255264218992
 20
489.1895917283535
 30
0.0
 10
28.76148242267586
 20
489.1898032744701
 30
0.0
  0
ELLIPSE
  5
16D
330
5E
100
AcDbEntity
  8
$DDT_AUDIT_GENERATED_(85)
  6
Continuous
 62
     7
100
AcDbEllipse
 10
-146.1016156231
 20
522.9102155043
 30
0.0
 11
73.53198166031623
 21
-194.1055270394027
 31
0.0
210
0.0
220
0.0
230
1.0
 40
0.8472101712
 41
1.08989252632119
 42
1.091400015425273
  0
SPLINE
  5
16E
330
5E
100
AcDbEntity
  8
$DDT_AUDIT_GENERATED_(85)
  6
Continuous
 62
     7
100
AcDbSpline
210
0.0
220
0.0
230
1.0
 70
     8
 71
     3
 72
    20
 73
    16
 74
     0
 42
0.0000000787952341
 43
0.0000000001
 40
0.0
 40
0.0
 40
0.0
 40
0.0
 40
0.2315031754325903
 40
0.2315031754325903
 40
0.2315031754325903
 40
0.4629973076973091
 40
0.4629973076973091
 40
0.4629973076973091
 40
0.6946193130780761
 40
0.6946193130780761
 40
0.6946193130780761
 40
0.9262742376810612
 40
0.9262742376810612
 40
0.9262742376810612
 40
1.0
 40
1.0
 40
1.0
 40
1.0
 10
33.7088613267807
 20
488.3518920243829
 30
0.0
 10
33.70827491123476
 20
488.3410616048031
 30
0.0
 10
33.7067903107138
 20
488.3297050466155
 30
0.0
 10
33.70451479033485
 20
488.3187661809137
 30
0.0
 10
33.70223932244113
 20
488.3078275675185
 30
0.0
 10
33.69910918609106
 20
488.297005179686
 30
0.0
 10
33.69535506080953
 20
488.2871990791683
 30
0.0
 10
33.69159891290033
 20
488.2773876953719
 30
0.0
 10
33.68711303514279
 20
488.2683233276914
 30
0.0
 10
33.68224025017338
 20
488.2607617008445
 30
0.0
 10
33.67736685396151
 20
488.2531991254668
 30
0.0
 10
33.67197076383606
 20
488.2469312827559
 30
0.0
 10
33.66648342261662
 20
488.242481457378
 30
0.0
 10
33.66471445694393
 20
488.2410469578585
 30
0.0
 10
33.66292610612648
 20
488.2397883639626
 30
0.0
 10
33.66113397083783
 20
488.2387167686586
 30
0.0
  0
SPLINE
  5
16F
330
5E
100
AcDbEntity
  8
$DDT_AUDIT_GENERATED_(85)
  6
Continuous
 62
     7
100
AcDbSpline
210
0.0
220
0.0
230
1.0
 70
    12
 71
     2
 72
     6
 73
     3
 74
     0
 42
0.0000008025697224
 43
0.0000000001
 40
0.0
 40
0.0
 40
0.0
 40
1.0
 40
1.0
 40
1.0
 10
33.66113397083785
 20
488.2387167686586
 30
0.0
 41
1.0
 10
33.6558113275897
 20
488.2355341297443
 30
0.0
 41
1.0
 10
33.65041392459005
 20
488.232366253296
 30
0.0
 41
1.0
  0
SPLINE
  5
170
330
5E
100
AcDbEntity
  8
$DDT_AUDIT_GENERATED_(85)
  6
Continuous
 62
     7
100
AcDbSpline
210
0.0
220
0.0
230
1.0
 70
     8
 71
     3
 72
    11
 73
     7
 74
     0
 42
0.0000001307552417
 43
0.0000000001
 40
0.0
 40
0.0
 40
0.0
 40
0.0
 40
0.2314987849580193
 40
0.2314987849580193
 40
0.2314987849580193
 40
0.2725926609965976
 40
0.2725926609965976
 40
0.2725926609965976
 40
0.2725926609965976
 10
33.65041392459003
 20
488.232366253296
 30
0.0
 10
33.6447803462287
 20
488.2290597593743
 30
0.0
 10
33.63900480238498
 20
488.227535331114
 30
0.0
 10
33.63357552940074
 20
488.2279166838109
 30
0.0
 10
33.6326117528906
 20
488.2279843795728
 30
0.0
 10
33.63165419785025
 20
488.2281124487747
 30
0.0
 10
33.63070542497861
 20
488.2282997976841
 30
0.0
  0
ELLIPSE
  5
171
330
5E
100
AcDbEntity
  8
$DDT_AUDIT_GENERATED_(85)
  6
Continuous
 62
     7
100
AcDbEllipse
 10
-21.6824990673
 20
555.5628871021
 30
0.0
 11
-3.923613756927333
 21
-207.5298377092873
 31
0.0
210
0.0
220
0.0
230
1.0
 40
0.2802723124
 41
1.244015143097621
 42
1.24708732378941
  0
ARC
  5
172
330
5E
100
AcDbEntity
  8
$DDT_AUDIT_GENERATED_(85)
  6
Continuous
 62
     7
100
AcDbCircle
 10
32.03839186
 20
487.9189929072
 30
0.0
 40
0.1073559462141895
100
AcDbArc
 50
275.9148309761
 51
352.568946717
  0
LINE
  5
173
330
5E
100
AcDbEntity
  8
$DDT_AUDIT_GENERATED_(85)
  6
Continuous
 62
     7
100
AcDbLine
 10
32.0494548915
 20
487.8122085052
 30
0.0
 11
32.0287453524
 21
487.8103105997
 31
0.0
  0
ARC
  5
174
330
5E
100
AcDbEntity
  8
$DDT_AUDIT_GENERATED_(85)
  6
Continuous
 62
     7
100
AcDbCircle
 10
32.0184265344
 20
487.896636698
 30
0.0
 40
0.0869406305581407
100
AcDbArc
 50
217.8158136533
 51
276.8163949828
  0
ARC
  5
175
330
5E
100
AcDbEntity
  8
$DDT_AUDIT_GENERATED_(85)
  6
Continuous
 62
     7
100
AcDbCircle
 10
30.0427910706
 20
487.9714226455
 30
0.0
 40
0.0725395856151405
100
AcDbArc
 50
258.2706850589
 51
300.2801482233
  0
LINE
  5
176
330
5E
100
AcDbEntity
  8
$DDT_AUDIT_GENERATED_(85)
  6
Continuous
 62
     7
100
AcDbLine
 10
30.028044623
 20
487.9003977642
 30
0.0
 11
30.0094769582
 21
487.904064236
 31
0.0
  0
ARC
  5
177
330
5E
100
AcDbEntity
  8
$DDT_AUDIT_GENERATED_(85)
  6
Continuous
 62
     7
100
AcDbCircle
 10
30.0384454795
 20
488.014620378
 30
0.0
 40
0.1142883886118704
100
AcDbArc
 50
184.7868845931
 51
255.3171367614
  0
ELLIPSE
  5
178
330
5E
100
AcDbEntity
  8
$DDT_AUDIT_GENERATED_(85)
  6
Continuous
 62
     7
100
AcDbEllipse
 10
133.8014110164
 20
548.5616809299
 30
0.0
 11
-15.35142751740402
 21
-206.9982683043382
 31
0.0
210
0.0
220
0.0
230
0.9999999999999998
 40
0.5054585477
 41
-1.239378790230496
 42
-1.236654058051164
  0
SPLINE
  5
179
330
5E
100
AcDbEntity
  8
$DDT_AUDIT_GENERATED_(85)
  6
Continuous
 62
     7
100
AcDbSpline
210
0.0
220
0.0
230
1.0
 70
     8
 71
     3
 72
    11
 73
     7
 74
     0
 42
0.0000002115584228
 43
0.0000000001
 40
0.7527645376441638
 40
0.7527645376441638
 40
0.7527645376441638
 40
0.7527645376441638
 40
0.9262742376824143
 40
0.9262742376824143
 40
0.9262742376824143
 40
1.0
 40
1.0
 40
1.0
 40
1.0
 10
28.79052969151912
 20
488.4460521453327
 30
0.0
 10
28.7883567034739
 20
488.4458529909891
 30
0.0
 10
28.78610243822042
 20
488.4467129413158
 30
0.0
 10
28.7838795814957
 20
488.4486091385282
 30
0.0
 10
28.78292285745399
 20
488.4494252673595
 30
0.0
 10
28.7819661155065
 20
488.4504333231008
 30
0.0
 10
28.78101788547117
 20
488.4516244739404
 30
0.0
  0
SPLINE
  5
17A
330
5E
100
AcDbEntity
  8
$DDT_AUDIT_GENERATED_(85)
  6
Continuous
 62
     7
100
AcDbSpline
210
0.0
220
0.0
230
1.0
 70
    12
 71
     2
 72
     6
 73
     3
 74
     0
 42
0.000001111333928
 43
0.0000000001
 40
0.0
 40
0.0
 40
0.0
 40
1.0
 40
1.0
 40
1.0
 10
28.78101788547116
 20
488.4516244739404
 30
0.0
 41
1.0
 10
28.77820164150386
 20
488.4551621928917
 30
0.0
 41
1.0
 10
28.77546878120454
 20
488.4587075534578
 30
0.0
 41
1.0
  0
SPLINE
  5
17B
330
5E
100
AcDbEntity
  8
$DDT_AUDIT_GENERATED_(85)
  6
Continuous
 62
     7
100
AcDbSpline
210
0.0
220
0.0
230
1.0
 70
    12
 71
     2
 72
     6
 73
     3
 74
     0
 42
0.0000000101365347
 43
0.0000000001
 40
0.0953193385035242
 40
0.0953193385035242
 40
0.0953193385035242
 40
1.0
 40
1.0
 40
1.0
 10
35.29553738347992
 20
488.9393584810894
 30
0.0
 41
1.0
 10
35.27172006372714
 20
488.4936740685924
 30
0.0
 41
1.0
 10
35.24684538090607
 20
488.0481933543519
 30
0.0
 41
1.0
  0
SPLINE
  5
17C
330
5E
100
AcDbEntity
  8
$DDT_AUDIT_GENERATED_(85)
  6
Continuous
 62
     7
100
AcDbSpline
210
0.0
220
0.0
230
1.0
 70
     8
 71
     3
 72
    20
 73
    16
 74
     0
 42
0.0000000786865166
 43
0.0000000001
 40
0.0
 40
0.0
 40
0.0
 40
0.0
 40
0.2315617260745451
 40
0.2315617260745451
 40
0.2315617260745451
 40
0.463120196782799
 40
0.463120196782799
 40
0.463120196782799
 40
0.6947246956527071
 40
0.6947246956527071
 40
0.6947246956527071
 40
0.9263410358372094
 40
0.9263410358372094
 40
0.9263410358372094
 40
1.0
 40
1.0
 40
1.0
 40
1.0
 10
35.24684538092199
 20
488.0481933543581
 30
0.0
 10
35.24624073424293
 20
488.0373646092412
 30
0.0
 10
35.24470955192852
 20
488.0260148451881
 30
0.0
 10
35.24236915615099
 20
488.0150859181441
 30
0.0
 10
35.24002877979891
 20
488.0041570818111
 30
0.0
 10
35.23681401437909
 20
487.9933477890704
 30
0.0
 10
35.23297401047463
 20
487.9835558916458
 30
0.0
 10
35.22913326208194
 20
487.9737620957981
 30
0.0
 10
35.22456022506706
 20
487.9647161208061
 30
0.0
 10
35.21961651084116
 20
487.9571702405589
 30
0.0
 10
35.21467257353724
 20
487.9496240198146
 30
0.0
 10
35.20922083759402
 20
487.9433700202602
 30
0.0
 10
35.20370344307585
 20
487.9389284101864
 30
0.0
 10
35.20192612253088
 20
487.937497632523
 30
0.0
 10
35.20013193666873
 20
487.9362419610843
 30
0.0
 10
35.19833653852914
 20
487.9351724152107
 30
0.0
  0
LINE
  5
17D
330
5E
100
AcDbEntity
  8
$DDT_AUDIT_GENERATED_(85)
  6
Continuous
 62
     7
100
AcDbLine
 10
35.1983365385
 20
487.9351724152
 30
0.0
 11
35.1876164923
 21
487.9288218998
 31
0.0
  0
SPLINE
  5
17E
330
5E
100
AcDbEntity
  8
$DDT_AUDIT_GENERATED_(85)
  6
Continuous
 62
     7
100
AcDbSpline
210
0.0
220
0.0
230
1.0
 70
     8
 71
     3
 72
    11
 73
     7
 74
     0
 42
0.0000001316770367
 43
0.0000000001
 40
0.0
 40
0.0
 40
0.0
 40
0.0
 40
0.2315601448457835
 40
0.2315601448457835
 40
0.2315601448457835
 40
0.272602623972537
 40
0.272602623972537
 40
0.272602623972537
 40
0.272602623972537
 10
35.18761649228134
 20
487.9288218998481
 30
0.0
 10
35.1819974748773
 20
487.9255117083835
 30
0.0
 10
35.17626234831896
 20
487.923979023342
 30
0.0
 10
35.17089200668833
 20
487.9243493885965
 30
0.0
 10
35.16994014478423
 20
487.9244150336896
 30
0.0
 10
35.16899510656291
 20
487.9245407793181
 30
0.0
 10
35.1680593513077
 20
487.9247255552577
 30
0.0
  0
SPLINE
  5
17F
330
5E
100
AcDbEntity
  8
$DDT_AUDIT_GENERATED_(85)
  6
Continuous
 62
     7
100
AcDbSpline
210
0.0
220
0.0
230
1.0
 70
    12
 71
     2
 72
     6
 73
     3
 74
     0
 42
0.0000000103333501
 43
0.0000000001
 40
0.9672303137180769
 40
0.9672303137180769
 40
0.9672303137180769
 40
1.0
 40
1.0
 40
1.0
 10
32.60809872154096
 20
487.3499135221385
 30
0.0
 41
1.0
 10
32.60629243817166
 20
487.3341602288483
 30
0.0
 41
1.0
 10
32.60448573955871
 20
487.3184074581913
 30
0.0
 41
1.0
  0
ARC
  5
180
330
5E
100
AcDbEntity
  8
$DDT_AUDIT_GENERATED_(85)
  6
Continuous
 62
     7
100
AcDbCircle
 10
32.4981227883
 20
487.3325687175
 30
0.0
 40
0.1073015320672075
100
AcDbArc
 50
275.7434580456
 51
352.4161898593
  0
LINE
  5
181
330
5E
100
AcDbEntity
  8
$DDT_AUDIT_GENERATED_(85)
  6
Continuous
 62
     7
100
AcDbLine
 10
32.5088609308
 20
487.2258058443
 30
0.0
 11
32.4881513917
 21
487.2239079389
 31
0.0
  0
ARC
  5
182
330
5E
100
AcDbEntity
  8
$DDT_AUDIT_GENERATED_(85)
  6
Continuous
 62
     7
100
AcDbCircle
 10
32.4776537181
 20
487.3097805855
 30
0.0
 40
0.0865119216413086
100
AcDbArc
 50
217.826493788
 51
276.9696556347
  0
ARC
  5
183
330
5E
100
AcDbEntity
  8
$DDT_AUDIT_GENERATED_(85)
  6
Continuous
 62
     7
100
AcDbCircle
 10
29.1553721583
 20
487.4450860519
 30
0.0
 40
0.0719870396408675
100
AcDbArc
 50
258.1099048509
 51
300.2908032238
  0
LINE
  5
184
330
5E
100
AcDbEntity
  8
$DDT_AUDIT_GENERATED_(85)
  6
Continuous
 62
     7
100
AcDbLine
 10
29.1405403067
 20
487.3746435217
 30
0.0
 11
29.121972642
 21
487.3783099935
 31
0.0
  0
ARC
  5
185
330
5E
100
AcDbEntity
  8
$DDT_AUDIT_GENERATED_(85)
  6
Continuous
 62
     7
100
AcDbCircle
 10
29.1506116544
 20
487.489123618
 30
0.0
 40
0.1144545867153712
100
AcDbArc
 50
185.0435832479
 51
255.5093729511
  0
SPLINE
  5
186
330
5E
100
AcDbEntity
  8
$DDT_AUDIT_GENERATED_(85)
  6
Continuous
 62
     7
100
AcDbSpline
210
0.0
220
0.0
230
1.0
 70
    12
 71
     2
 72
     6
 73
     3
 74
     0
 42
0.0000000102478245
 43
0.0000000001
 40
0.0
 40
0.0
 40
0.0
 40
0.1884431525873206
 40
0.1884431525873206
 40
0.1884431525873206
 10
29.03660022286371
 20
487.4790615153958
 30
0.0
 41
1.0
 10
29.02735724717563
 20
487.5705323445846
 30
0.0
 41
1.0
 10
29.01814077326814
 20
487.6620186449185
 30
0.0
 41
1.0
  0
SPLINE
  5
187
330
5E
100
AcDbEntity
  8
$DDT_AUDIT_GENERATED_(85)
  6
Continuous
 62
     7
100
AcDbSpline
210
0.0
220
0.0
230
1.0
 70
     8
 71
     3
 72
    11
 73
     7
 74
     0
 42
0.0000002138485732
 43
0.0000000001
 40
0.7527556192335292
 40
0.7527556192335292
 40
0.7527556192335292
 40
0.7527556192335292
 40
0.9263410358224847
 40
0.9263410358224847
 40
0.9263410358224847
 40
1.0
 40
1.0
 40
1.0
 40
1.0
 10
27.07585715565189
 20
488.2889126373764
 30
0.0
 10
27.07373579964359
 20
488.288718236434
 30
0.0
 10
27.07152246709426
 20
488.2895829287093
 30
0.0
 10
27.06932481612561
 20
488.291483104792
 30
0.0
 10
27.06838021947797
 20
488.2922998404717
 30
0.0
 10
27.06743289121563
 20
488.2933078637523
 30
0.0
 10
27.06649120544262
 20
488.2944983545291
 30
0.0
  0
SPLINE
  5
188
330
5E
100
AcDbEntity
  8
$DDT_AUDIT_GENERATED_(85)
  6
Continuous
 62
     7
100
AcDbSpline
210
0.0
220
0.0
230
1.0
 70
    12
 71
     2
 72
     6
 73
     3
 74
     0
 42
0.000001111355668
 43
0.0000000001
 40
0.0
 40
0.0
 40
0.0
 40
1.0
 40
1.0
 40
1.0
 10
27.06649120544261
 20
488.2944983545291
 30
0.0
 41
1.0
 10
27.06369163833866
 20
488.2980376018153
 30
0.0
 41
1.0
 10
27.06094210117599
 20
488.3015814340465
 30
0.0
 41
1.0
  0
ARC
  5
189
330
5E
100
AcDbEntity
  8
$DDT_AUDIT_GENERATED_(85)
  6
Continuous
 62
     7
100
AcDbCircle
 10
27.2823577239
 20
488.4087656643
 30
0.0
 40
0.245994587701816
100
AcDbArc
 50
177.8753120845
 51
205.8309799017
  0
SPLINE
  5
18A
330
5E
100
AcDbEntity
  8
$DDT_AUDIT_GENERATED_(85)
  6
Continuous
 62
     7
100
AcDbSpline
210
0.0
220
0.0
230
1.0
 70
    12
 71
     2
 72
     6
 73
     3
 74
     0
 42
0.0000000101121224
 43
0.0000000001
 40
0.0
 40
0.0
 40
0.0
 40
0.1957387081902749
 40
0.1957387081902749
 40
0.1957387081902749
 10
27.0365322545469
 20
488.4178857417327
 30
0.0
 41
1.0
 10
27.03389078836083
 20
488.5146322104747
 30
0.0
 41
1.0
 10
27.03130452170607
 20
488.6113835005659
 30
0.0
 41
1.0
  0
LINE
  5
18B
330
5E
100
AcDbEntity
  8
$DDT_AUDIT_GENERATED_(85)
  6
Continuous
 62
     7
100
AcDbLine
 10
31.5879970805
 20
489.1707845862
 30
0.0
 11
31.5676085879
 21
488.9784214188
 31
0.0
  0
SPLINE
  5
18C
330
5E
100
AcDbEntity
  8
$DDT_AUDIT_GENERATED_(85)
  6
Continuous
 62
     7
100
AcDbSpline
210
0.0
220
0.0
230
1.0
 70
    12
 71
     2
 72
     6
 73
     3
 74
     0
 42
0.0000005283490689
 43
0.0000000001
 40
0.0
 40
0.0
 40
0.0
 40
1.0
 40
1.0
 40
1.0
 10
31.61880665374993
 20
488.8574251374965
 30
0.0
 41
1.0
 10
31.62819379728014
 20
488.8556531027588
 30
0.0
 41
1.0
 10
31.63737431851062
 20
488.8537586657423
 30
0.0
 41
1.0
  0
SPLINE
  5
18D
330
5E
100
AcDbEntity
  8
$DDT_AUDIT_GENERATED_(85)
  6
Continuous
 62
     7
100
AcDbSpline
210
0.0
220
0.0
230
1.0
 70
     8
 71
     3
 72
    14
 73
    10
 74
     0
 42
0.0000000642882157
 43
0.0000000001
 40
0.0
 40
0.0
 40
0.0
 40
0.0
 40
0.1662420688385254
 40
0.1662420688385254
 40
0.1662420688385254
 40
0.3310650875756719
 40
0.3310650875756719
 40
0.3310650875756719
 40
0.4009291771572221
 40
0.4009291771572221
 40
0.4009291771572221
 40
0.4009291771572221
 10
31.63737431851062
 20
488.8537586657423
 30
0.0
 10
31.64512967025103
 20
488.8521583181087
 30
0.0
 10
31.65363571002539
 20
488.8521069043269
 30
0.0
 10
31.66202395082406
 20
488.8534807487969
 30
0.0
 10
31.67037152089115
 20
488.8548479321252
 30
0.0
 10
31.67881842638544
 20
488.8576214673444
 30
0.0
 10
31.68680272419497
 20
488.8613781488208
 30
0.0
 10
31.69017336277012
 20
488.86296406355
 30
0.0
 10
31.69349148585132
 20
488.8647361839489
 30
0.0
 10
31.69673896993082
 20
488.8666692771515
 30
0.0
  0
SPLINE
  5
18E
330
5E
100
AcDbEntity
  8
$DDT_AUDIT_GENERATED_(85)
  6
Continuous
 62
     7
100
AcDbSpline
210
0.0
220
0.0
230
1.0
 70
     8
 71
     3
 72
    10
 73
     6
 74
     0
 42
0.0000000664841213
 43
0.0000000001
 40
0.0
 40
0.0
 40
0.0
 40
0.0
 40
0.5
 40
0.5
 40
1.0
 40
1.0
 40
1.0
 40
1.0
 10
31.56760858788162
 20
488.9784214188197
 30
0.0
 10
31.56204337957927
 20
488.9521221171711
 30
0.0
 10
31.56263702520717
 20
488.9259067635725
 30
0.0
 10
31.57801983378201
 20
488.8812177098137
 30
0.0
 10
31.59448369570072
 20
488.8620166435743
 30
0.0
 10
31.61880665374994
 20
488.8574251374965
 30
0.0
  0
SPLINE
  5
18F
330
5E
100
AcDbEntity
  8
$DDT_AUDIT_GENERATED_(85)
  6
Continuous
 62
     7
100
AcDbSpline
210
0.0
220
0.0
230
1.0
 70
    12
 71
     2
 72
     6
 73
     3
 74
     0
 42
0.0000004808424308
 43
0.0000000001
 40
0.0
 40
0.0
 40
0.0
 40
1.0
 40
1.0
 40
1.0
 10
31.19569500232557
 20
488.8736465163473
 30
0.0
 41
1.0
 10
31.20599629406902
 20
488.8746637300668
 30
0.0
 41
1.0
 10
31.21640454138508
 20
488.8755444217839
 30
0.0
 41
1.0
  0
LINE
  5
190
330
5E
100
AcDbEntity
  8
$DDT_AUDIT_GENERATED_(85)
  6
Continuous
 62
     7
100
AcDbLine
 10
31.2943394031
 20
488.9907261307
 30
0.0
 11
31.2942415448
 21
489.1354924963
 31
0.0
  0
SPLINE
  5
191
330
5E
100
AcDbEntity
  8
$DDT_AUDIT_GENERATED_(85)
  6
Continuous
 62
     7
100
AcDbSpline
210
0.0
220
0.0
230
1.0
 70
    12
 71
     2
 72
     6
 73
     3
 74
     0
 42
0.0000008024234772
 43
0.0000000001
 40
0.0
 40
0.0
 40
0.0
 40
1.0
 40
1.0
 40
1.0
 10
30.86297312579694
 20
488.7827894264205
 30
0.0
 41
1.0
 10
30.86815420876029
 20
488.7860000185962
 30
0.0
 41
1.0
 10
30.87369317204474
 20
488.7891399417832
 30
0.0
 41
1.0
  0
LINE
  5
192
330
5E
100
AcDbEntity
  8
$DDT_AUDIT_GENERATED_(85)
  6
Continuous
 62
     7
100
AcDbLine
 10
30.8630102979
 20
488.9138491982
 30
0.0
 11
30.8075603102
 21
489.0992622223
 31
0.0
  0
SPLINE
  5
193
330
5E
100
AcDbEntity
  8
$DDT_AUDIT_GENERATED_(85)
  6
Continuous
 62
     7
100
AcDbSpline
210
0.0
220
0.0
230
1.0
 70
    12
 71
     2
 72
     6
 73
     3
 74
     0
 42
0.0000011105898116
 43
0.0000000001
 40
0.0
 40
0.0
 40
0.0
 40
1.0
 40
1.0
 40
1.0
 10
31.88445501306372
 20
488.7436275535986
 30
0.0
 41
1.0
 10
31.88742914701263
 20
488.74010430432
 30
0.0
 41
1.0
 10
31.89000411733034
 20
488.7365444740812
 30
0.0
 41
1.0
  0
LINE
  5
194
330
5E
100
AcDbEntity
  8
$DDT_AUDIT_GENERATED_(85)
  6
Continuous
 62
     7
100
AcDbLine
 10
31.9939292119
 20
489.0458426334
 30
0.0
 11
31.9260649476
 21
488.8659821796
 31
0.0
  0
SPLINE
  5
195
330
5E
100
AcDbEntity
  8
$DDT_AUDIT_GENERATED_(85)
  6
Continuous
 62
     7
100
AcDbSpline
210
0.0
220
0.0
230
1.0
 70
     8
 71
     3
 72
    11
 73
     7
 74
     0
 42
0.0000001364428799
 43
0.0000000001
 40
0.0
 40
0.0
 40
0.0
 40
0.0
 40
0.1662420688385254
 40
0.1662420688385254
 40
0.1662420688385254
 40
0.2234852446531674
 40
0.2234852446531674
 40
0.2234852446531674
 40
0.2234852446531674
 10
31.89000411733035
 20
488.7365444740812
 30
0.0
 10
31.89217935335495
 20
488.7335372662163
 30
0.0
 10
31.89558651457351
 20
488.7317981166125
 30
0.0
 10
31.89977117448529
 20
488.7313907660093
 30
0.0
 10
31.90121746390336
 20
488.731249978734
 30
0.0
 10
31.90276617826263
 20
488.7312626147425
 30
0.0
 10
31.90439508267006
 20
488.731417430584
 30
0.0
  0
SPLINE
  5
196
330
5E
100
AcDbEntity
  8
$DDT_AUDIT_GENERATED_(85)
  6
Continuous
 62
     7
100
AcDbSpline
210
0.0
220
0.0
230
1.0
 70
     8
 71
     3
 72
    10
 73
     6
 74
     0
 42
0.0000000733819831
 43
0.0000000001
 40
0.0
 40
0.0
 40
0.0
 40
0.0
 40
0.4999999999999998
 40
0.4999999999999998
 40
1.0
 40
1.0
 40
1.0
 40
1.0
 10
31.92606494760409
 20
488.8659821795613
 30
0.0
 10
31.91168045899571
 20
488.8425091391446
 30
0.0
 10
31.89871121174084
 20
488.8180470293799
 30
0.0
 10
31.88107839410659
 20
488.7736767330139
 30
0.0
 10
31.87674875662172
 20
488.7527566186983
 30
0.0
 10
31.88445501306373
 20
488.7436275535986
 30
0.0
  0
SPLINE
  5
197
330
5E
100
AcDbEntity
  8
$DDT_AUDIT_GENERATED_(85)
  6
Continuous
 62
     7
100
AcDbSpline
210
0.0
220
0.0
230
1.0
 70
     8
 71
     3
 72
    20
 73
    16
 74
     0
 42
0.000000074239226
 43
0.0000000001
 40
0.0
 40
0.0
 40
0.0
 40
0.0
 40
0.1662420688385241
 40
0.1662420688385241
 40
0.1662420688385241
 40
0.3310650875756706
 40
0.3310650875756706
 40
0.3310650875756706
 40
0.5632461486768631
 40
0.5632461486768631
 40
0.5632461486768631
 40
0.8533054901456377
 40
0.8533054901456377
 40
0.8533054901456377
 40
1.0
 40
1.0
 40
1.0
 40
1.0
 10
30.87369317204472
 20
488.7891399417832
 30
0.0
 10
30.87837227549778
 20
488.791792428297
 30
0.0
 10
30.88205986166766
 20
488.7959114802083
 30
0.0
 10
30.88453009966518
 20
488.8009991431525
 30
0.0
 10
30.88698836061185
 20
488.8060621383528
 30
0.0
 10
30.88834505100184
 20
488.8121887008415
 30
0.0
 10
30.88878886905545
 20
488.8188279677134
 30
0.0
 10
30.88941153227277
 20
488.8281426570045
 30
0.0
 10
30.88829399091876
 20
488.8387203335199
 30
0.0
 10
30.88604630920577
 20
488.8496159776166
 30
0.0
 10
30.88324470826744
 20
488.8631967468815
 30
0.0
 10
30.87861156398218
 20
488.8777120804155
 30
0.0
 10
30.87282422888019
 20
488.8920111670956
 30
0.0
 10
30.86986746455497
 20
488.899316607101
 30
0.0
 10
30.86657537248751
 20
488.9066449625113
 30
0.0
 10
30.86301029789893
 20
488.9138491981956
 30
0.0
  0
SPLINE
  5
198
330
5E
100
AcDbEntity
  8
$DDT_AUDIT_GENERATED_(85)
  6
Continuous
 62
     7
100
AcDbSpline
210
0.0
220
0.0
230
1.0
 70
     8
 71
     3
 72
     8
 73
     4
 74
     0
 42
0.0000000928785158
 43
0.0000000001
 40
0.7528654537740198
 40
0.7528654537740198
 40
0.7528654537740198
 40
0.7528654537740198
 40
1.0
 40
1.0
 40
1.0
 40
1.0
 10
30.83775131794073
 20
488.7799666306196
 30
0.0
 10
30.84746398105023
 20
488.7780260940709
 30
0.0
 10
30.85633772847785
 20
488.7786776307067
 30
0.0
 10
30.86297312579692
 20
488.7827894264205
 30
0.0
  0
SPLINE
  5
199
330
5E
100
AcDbEntity
  8
$DDT_AUDIT_GENERATED_(85)
  6
Continuous
 62
     7
100
AcDbSpline
210
0.0
220
0.0
230
1.0
 70
     8
 71
     3
 72
    20
 73
    16
 74
     0
 42
0.0000000647344898
 43
0.0000000001
 40
0.0
 40
0.0
 40
0.0
 40
0.0
 40
0.1662420688385232
 40
0.1662420688385232
 40
0.1662420688385232
 40
0.3310650875756697
 40
0.3310650875756697
 40
0.3310650875756697
 40
0.5632461486768617
 40
0.5632461486768617
 40
0.5632461486768617
 40
0.8533054901456363
 40
0.8533054901456363
 40
0.8533054901456363
 40
1.0
 40
1.0
 40
1.0
 40
1.0
 10
31.21640454138509
 20
488.8755444217838
 30
0.0
 10
31.22519702897276
 20
488.8762883963208
 30
0.0
 10
31.23381922456518
 20
488.8786635290576
 30
0.0
 10
31.24149732855534
 20
488.8823134826643
 30
0.0
 10
31.24913820494153
 20
488.8859457393204
 30
0.0
 10
31.25607039407131
 20
488.8908980213703
 30
0.0
 10
31.26202997195076
 20
488.8966301230977
 30
0.0
 10
31.27039107827842
 20
488.9046720873097
 30
0.0
 10
31.27711154746371
 20
488.914456000502
 30
0.0
 10
31.28215238354128
 20
488.9249559401461
 30
0.0
 10
31.2884354844818
 20
488.9380434874574
 30
0.0
 10
31.2923315054265
 20
488.9526632487995
 30
0.0
 10
31.29384987794664
 20
488.9675671167702
 30
0.0
 10
31.29462561835579
 20
488.9751815410858
 30
0.0
 10
31.29479228675471
 20
488.9829526733358
 30
0.0
 10
31.29433940307407
 20
488.9907261306847
 30
0.0
  0
SPLINE
  5
19A
330
5E
100
AcDbEntity
  8
$DDT_AUDIT_GENERATED_(85)
  6
Continuous
 62
     7
100
AcDbSpline
210
0.0
220
0.0
230
1.0
 70
     8
 71
     3
 72
    10
 73
     6
 74
     0
 42
0.0000000598065915
 43
0.0000000001
 40
0.3698566820034989
 40
0.3698566820034989
 40
0.3698566820034989
 40
0.3698566820034989
 40
0.5
 40
0.5
 40
1.0
 40
1.0
 40
1.0
 40
1.0
 10
31.10753958445263
 20
488.9179458873621
 30
0.0
 10
31.11184333534279
 20
488.9124316187544
 30
0.0
 10
31.11657064408222
 20
488.9072386004608
 30
0.0
 10
31.141390347318
 20
488.883967538174
 30
0.0
 10
31.16900340161734
 20
488.8710108214144
 30
0.0
 10
31.19569500232556
 20
488.8736465163473
 30
0.0
  0
SPLINE
  5
19B
330
5E
100
AcDbEntity
  8
$DDT_AUDIT_GENERATED_(85)
  6
Continuous
 62
     7
100
AcDbSpline
210
0.0
220
0.0
230
1.0
 70
     8
 71
     3
 72
    16
 73
    12
 74
     0
 42
0.0000000092363825
 43
0.0000000001
 40
0.0
 40
0.0
 40
0.0
 40
0.0
 40
0.0621031264755657
 40
0.1688031912011682
 40
0.2915165238260626
 40
0.4312503671975793
 40
0.5679181803393714
 40
0.7139809832332655
 40
0.8487089792563519
 40
0.9583728846239495
 40
1.0
 40
1.0
 40
1.0
 40
1.0
 10
31.83096872680644
 20
488.5966842211155
 30
0.0
 10
31.81092412411657
 20
488.582758087697
 30
0.0
 10
31.76432443415469
 20
488.5508272413306
 30
0.0
 10
31.66643695068101
 20
488.5110565949212
 30
0.0
 10
31.54041339350807
 20
488.4787557311369
 30
0.0
 10
31.39380653624735
 20
488.4635164087083
 30
0.0
 10
31.23636837246021
 20
488.4680936772666
 30
0.0
 10
31.08695548211361
 20
488.4934442980234
 30
0.0
 10
30.95888826444411
 20
488.5399279446991
 30
0.0
 10
30.86636758971104
 20
488.5904696924729
 30
0.0
 10
30.82906019860697
 20
488.6257877910492
 30
0.0
 10
30.81710872972126
 20
488.6372093489094
 30
0.0
  0
ARC
  5
19C
330
5E
100
AcDbEntity
  8
$DDT_AUDIT_GENERATED_(85)
  6
Continuous
 62
     7
100
AcDbCircle
 10
31.7511650076
 20
488.7560577929
 30
0.0
 40
0.1782373950073174
100
AcDbArc
 50
296.5986718912
 51
316.3186278533
  0
LINE
  5
19D
330
5E
100
AcDbEntity
  8
$DDT_AUDIT_GENERATED_(85)
  6
Continuous
 62
     7
100
AcDbLine
 10
31.9372554306
 20
488.6875179982
 30
0.0
 11
31.8800648169
 21
488.6329586128
 31
0.0
  0
ARC
  5
19E
330
5E
100
AcDbEntity
  8
$DDT_AUDIT_GENERATED_(85)
  6
Continuous
 62
     7
100
AcDbCircle
 10
31.569008683
 20
489.0289977391
 30
0.0
 40
0.502209200054941
100
AcDbArc
 50
317.1598602022
 51
324.3341631798
  0
ARC
  5
19F
330
5E
100
AcDbEntity
  8
$DDT_AUDIT_GENERATED_(85)
  6
Continuous
 62
     7
100
AcDbCircle
 10
35.1296455155
 20
492.4198900947
 30
0.0
 40
6.611388401740826
100
AcDbArc
 50
282.0282420055
 51
308.08736899
  0
ARC
  5
1A0
330
5E
100
AcDbEntity
  8
$DDT_AUDIT_GENERATED_(85)
  6
Continuous
 62
     7
100
AcDbCircle
 10
29.6514976806
 20
498.3032751463
 30
0.0
 40
12.81994753587789
100
AcDbArc
 50
256.5596496048
 51
260.7559042728
  0
ARC
  5
1A1
330
5E
100
AcDbEntity
  8
$DDT_AUDIT_GENERATED_(85)
  6
Continuous
 62
     7
100
AcDbCircle
 10
27.9315065595
 20
493.1063793678
 30
0.0
 40
7.380260153808644
100
AcDbArc
 50
233.2704874484
 51
260.1716655587
  0
SPLINE
  5
1A2
330
5E
100
AcDbEntity
  8
$DDT_AUDIT_GENERATED_(85)
  6
Continuous
 62
     7
100
AcDbSpline
210
0.0
220
0.0
230
1.0
 70
     8
 71
     3
 72
    18
 73
    14
 74
     0
 42
0.0000000029981822
 43
0.0000000001
 40
0.0
 40
0.0
 40
0.0
 40
0.0
 40
0.0914961689016966
 40
0.1888292143482729
 40
0.2862437312799724
 40
0.3837599639333248
 40
0.4814019845258531
 40
0.579197015679347
 40
0.677172096704841
 40
0.7753442623176993
 40
0.8736961646746927
 40
0.9720921091929832
 40
1.0
 40
1.0
 40
1.0
 40
1.0
 10
34.49658034253622
 20
486.3264978010458
 30
0.0
 10
34.63997000608012
 20
486.355589410124
 30
0.0
 10
34.88895264532686
 20
486.4067136694664
 30
0.0
 10
35.27997046422818
 20
486.5047459063444
 30
0.0
 10
35.64744493947858
 20
486.6119339626035
 30
0.0
 10
35.99320785386218
 20
486.7295442338613
 30
0.0
 10
36.3121886665289
 20
486.8560399395805
 30
0.0
 10
36.60358317237286
 20
486.9912027274452
 30
0.0
 10
36.86520458957998
 20
487.1343574009933
 30
0.0
 10
37.09694234600889
 20
487.2854893112693
 30
0.0
 10
37.29235237649592
 20
487.4426225919564
 30
0.0
 10
37.42649732090182
 20
487.5709624444933
 30
0.0
 10
37.47726703618441
 20
487.6402773437394
 30
0.0
 10
37.49030650953554
 20
487.6582026918091
 30
0.0
  0
SPLINE
  5
1A3
330
5E
100
AcDbEntity
  8
$DDT_AUDIT_GENERATED_(85)
  6
Continuous
 62
     7
100
AcDbSpline
210
0.0
220
0.0
230
1.0
 70
     8
 71
     3
 72
    17
 73
    13
 74
     0
 42
0.0000000035250219
 43
0.0000000001
 40
0.0
 40
0.0
 40
0.0
 40
0.0
 40
0.0988955081774857
 40
0.2087631448604692
 40
0.3193509658274711
 40
0.430108327377546
 40
0.5407374962319507
 40
0.6511776855630318
 40
0.7614296155145988
 40
0.8715160788575248
 40
0.981464770229325
 40
1.0
 40
1.0
 40
1.0
 40
1.0
 10
25.19814290451368
 20
487.6694242546187
 30
0.0
 10
25.24411797023329
 20
487.6140448392419
 30
0.0
 10
25.32741301978562
 20
487.5155314096341
 30
0.0
 10
25.50784009503835
 20
487.3577587416889
 30
0.0
 10
25.72153348209245
 20
487.2047846113415
 30
0.0
 10
25.96945454867746
 20
487.0576060510555
 30
0.0
 10
26.24759481160602
 20
486.9183636808363
 30
0.0
 10
26.55445828564795
 20
486.7875531082096
 30
0.0
 10
26.88893410255325
 20
486.6651611540809
 30
0.0
 10
27.2459843218882
 20
486.5541782235279
 30
0.0
 10
27.52766758094719
 20
486.4758453960285
 30
0.0
 10
27.67628619594604
 20
486.4422110618116
 30
0.0
 10
27.70129007022651
 20
486.4365646239057
 30
0.0
  0
SPLINE
  5
1A4
330
5E
100
AcDbEntity
  8
$DDT_AUDIT_GENERATED_(85)
  6
Continuous
 62
     7
100
AcDbSpline
210
0.0
220
0.0
230
1.0
 70
     8
 71
     3
 72
    14
 73
    10
 74
     0
 42
0.00000000685479
 43
0.0000000001
 40
0.0
 40
0.0
 40
0.0
 40
0.0
 40
0.1088033467022551
 40
0.2636869377207109
 40
0.4182421990121243
 40
0.5725278850262373
 40
0.7267418929194918
 40
0.8812566773141908
 40
1.0
 40
1.0
 40
1.0
 40
1.0
 10
36.37266528485038
 20
489.4656608325774
 30
0.0
 10
36.44345477575367
 20
489.4325165032021
 30
0.0
 10
36.58792184207344
 20
489.3643064154918
 30
0.0
 10
36.80519562418843
 20
489.2385826603208
 30
0.0
 10
37.00965676051841
 20
489.0990567102151
 30
0.0
 10
37.18184571318647
 20
488.9548308447957
 30
0.0
 10
37.31788076147204
 20
488.8102530827452
 30
0.0
 10
37.41642056352192
 20
488.6727222414072
 30
0.0
 10
37.45084386584922
 20
488.5938286948498
 30
0.0
 10
37.46793407982498
 20
488.553327280922
 30
0.0
  0
SPLINE
  5
1A5
330
5E
100
AcDbEntity
  8
$DDT_AUDIT_GENERATED_(85)
  6
Continuous
 62
     7
100
AcDbSpline
210
0.0
220
0.0
230
1.0
 70
     8
 71
     3
 72
    15
 73
    11
 74
     0
 42
0.0000000065132977
 43
0.0000000001
 40
0.0
 40
0.0
 40
0.0
 40
0.0
 40
0.0688451461167055
 40
0.2094080059686182
 40
0.3473778351905646
 40
0.4815383029883323
 40
0.6133231158179316
 40
0.74411224307216
 40
0.8746717712274815
 40
1.0
 40
1.0
 40
1.0
 40
1.0
 10
25.175
 20
488.2914827723441
 30
0.0
 10
25.17578836501436
 20
488.3187244026669
 30
0.0
 10
25.17865026825841
 20
488.3892576864799
 30
0.0
 10
25.20941822665312
 20
488.518336607122
 30
0.0
 10
25.28159054886108
 20
488.6694108606473
 30
0.0
 10
25.38962776714079
 20
488.8200147668235
 30
0.0
 10
25.53193739313125
 20
488.9676667945837
 30
0.0
 10
25.70661671709584
 20
489.1110532934714
 30
0.0
 10
25.9154903625207
 20
489.252323122536
 30
0.0
 10
26.064408169932
 20
489.333645633953
 30
0.0
 10
26.1516171060352
 20
489.3807289043382
 30
0.0
  0
SPLINE
  5
1A6
330
5E
100
AcDbEntity
  8
$DDT_AUDIT_GENERATED_(85)
  6
Continuous
 62
     7
100
AcDbSpline
210
0.0
220
0.0
230
1.0
 70
     8
 71
     3
 72
    20
 73
    16
 74
     0
 42
0.0000000034336298
 43
0.0000000001
 40
0.0
 40
0.0
 40
0.0
 40
0.0
 40
0.0092364840022217
 40
0.0970265719990463
 40
0.184914059999157
 40
0.272928920533306
 40
0.3611085776963688
 40
0.4494979871350613
 40
0.538145026028741
 40
0.6270818033960077
 40
0.7162687492490325
 40
0.805327639209455
 40
0.8933577579356713
 40
0.9791589780137325
 40
1.0
 40
1.0
 40
1.0
 40
1.0
 10
33.59757119438418
 20
486.8365703289456
 30
0.0
 10
33.61173301665341
 20
486.8390444710869
 30
0.0
 10
33.73962452238365
 20
486.8614270215345
 30
0.0
 10
33.98949959048041
 20
486.9185307355232
 30
0.0
 10
34.31594634791293
 20
487.0034525994907
 30
0.0
 10
34.62196498190216
 20
487.1003194671297
 30
0.0
 10
34.90218866561656
 20
487.2061872229834
 30
0.0
 10
35.15538613198232
 20
487.3211682377743
 30
0.0
 10
35.37943321711975
 20
487.4446129743419
 30
0.0
 10
35.5727147350909
 20
487.5762465131963
 30
0.0
 10
35.73304695652968
 20
487.7155794985698
 30
0.0
 10
35.85940666036715
 20
487.8625855013569
 30
0.0
 10
35.94528812862188
 20
488.0139930894032
 30
0.0
 10
35.98973136582459
 20
488.1355612166615
 30
0.0
 10
35.99256836021112
 20
488.1977620244741
 30
0.0
 10
35.99315368471049
 20
488.2119704221942
 30
0.0
  0
SPLINE
  5
1A7
330
5E
100
AcDbEntity
  8
$DDT_AUDIT_GENERATED_(85)
  6
Continuous
 62
     7
100
AcDbSpline
210
0.0
220
0.0
230
1.0
 70
     8
 71
     3
 72
    18
 73
    14
 74
     0
 42
0.0000000042199981
 43
0.0000000001
 40
0.0
 40
0.0
 40
0.0
 40
0.0
 40
0.0687923912276856
 40
0.1656361969466356
 40
0.2651430162021964
 40
0.3673779913015763
 40
0.4712506476157756
 40
0.5756603758739548
 40
0.6799232123041828
 40
0.7839057465482872
 40
0.8876139316316912
 40
0.9910917252456208
 40
1.0
 40
1.0
 40
1.0
 40
1.0
 10
26.71517303212088
 20
488.1623325861965
 30
0.0
 10
26.72344477985244
 20
488.1227830156499
 30
0.0
 10
26.74125536785046
 20
488.0422519571616
 30
0.0
 10
26.8124084836483
 20
487.9066132592965
 30
0.0
 10
26.92025313957223
 20
487.7649568548243
 30
0.0
 10
27.06507057231389
 20
487.6262245833736
 30
0.0
 10
27.24445075854711
 20
487.4930165200844
 30
0.0
 10
27.45707654569027
 20
487.3664559127277
 30
0.0
 10
27.70017457445336
 20
487.2480497149158
 30
0.0
 10
27.97194959953394
 20
487.1378982155715
 30
0.0
 10
28.26792419255815
 20
487.0392044844185
 30
0.0
 10
28.49494151760337
 20
486.9721522118379
 30
0.0
 10
28.61250850325963
 20
486.9448962560707
 30
0.0
 10
28.62334097976668
 20
486.942388065376
 30
0.0
  0
SPLINE
  5
1A8
330
5E
100
AcDbEntity
  8
$DDT_AUDIT_GENERATED_(85)
  6
Continuous
 62
     7
100
AcDbSpline
210
0.0
220
0.0
230
1.0
 70
     8
 71
     3
 72
    14
 73
    10
 74
     0
 42
0.0000000092740156
 43
0.0000000001
 40
0.0
 40
0.0
 40
0.0
 40
0.0
 40
0.1496146522894125
 40
0.3006111347754498
 40
0.4512252196073661
 40
0.6018718417578531
 40
0.7536581107758868
 40
0.909157940135608
 40
1.0
 40
1.0
 40
1.0
 40
1.0
 10
35.1187203584164
 20
489.0428904580513
 30
0.0
 10
35.19243020598299
 20
489.0017914284364
 30
0.0
 10
35.31599133058741
 20
488.9319593631507
 30
0.0
 10
35.48046273777634
 20
488.8114801485509
 30
0.0
 10
35.60822055011045
 20
488.6919393683428
 30
0.0
 10
35.70263635968755
 20
488.571400204243
 30
0.0
 10
35.76180186506267
 20
488.453376099136
 30
0.0
 10
35.78905992840778
 20
488.3512040012935
 30
0.0
 10
35.78486527803368
 20
488.2940025926904
 30
0.0
 10
35.78271051746363
 20
488.2692165586517
 30
0.0
  0
SPLINE
  5
1A9
330
5E
100
AcDbEntity
  8
$DDT_AUDIT_GENERATED_(85)
  6
Continuous
 62
     7
100
AcDbSpline
210
0.0
220
0.0
230
1.0
 70
     8
 71
     3
 72
    15
 73
    11
 74
     0
 42
0.0000000080524491
 43
0.0000000001
 40
0.0
 40
0.0
 40
0.0
 40
0.0
 40
0.0736918929015749
 40
0.2285874014964301
 40
0.3778476262493101
 40
0.5208084989881946
 40
0.6610363176862435
 40
0.8006106036922112
 40
0.9402382894902174
 40
1.0
 40
1.0
 40
1.0
 40
1.0
 10
26.91249999999999
 20
488.2914827723441
 30
0.0
 10
26.91322969347488
 20
488.3132267181439
 30
0.0
 10
26.91599383255375
 20
488.3707213124695
 30
0.0
 10
26.9459022117534
 20
488.4764032110515
 30
0.0
 10
27.01775233206573
 20
488.602019401052
 30
0.0
 10
27.12504194727851
 20
488.7266583958929
 30
0.0
 10
27.26551587006594
 20
488.8481688457282
 30
0.0
 10
27.4382561027425
 20
488.964796677956
 30
0.0
 10
27.60524609500107
 20
489.0594666282007
 30
0.0
 10
27.71151166347206
 20
489.1068573557851
 30
0.0
 10
27.74905352549
 20
489.1234996838568
 30
0.0
  0
SPLINE
  5
1AA
330
5E
100
AcDbEntity
  8
$DDT_AUDIT_GENERATED_(85)
  6
Continuous
 62
     7
100
AcDbSpline
210
0.0
220
0.0
230
1.0
 70
     8
 71
     3
 72
    16
 73
    12
 74
     0
 42
0.0000000066217787
 43
0.0000000001
 40
0.0
 40
0.0
 40
0.0
 40
0.0
 40
0.0300984437090485
 40
0.1627610042152908
 40
0.2958702672108359
 40
0.4295957065707928
 40
0.5641329279924919
 40
0.6995905768345665
 40
0.8353174138854901
 40
0.9542031215113312
 40
1.0
 40
1.0
 40
1.0
 40
1.0
 10
32.97469183254712
 20
487.4186943584134
 30
0.0
 10
32.99746874265239
 20
487.4237190054534
 30
0.0
 10
33.10285127611651
 20
487.447072573892
 30
0.0
 10
33.29199149815413
 20
487.5039441846715
 30
0.0
 10
33.51829904238398
 20
487.5849120961592
 30
0.0
 10
33.7194174552364
 20
487.6770472866071
 30
0.0
 10
33.89130123068029
 20
487.7780827407517
 30
0.0
 10
34.03292113177987
 20
487.8889109001664
 30
0.0
 10
34.13392176216743
 20
488.0039314670706
 30
0.0
 10
34.19311947864594
 20
488.1028245633069
 30
0.0
 10
34.20502123788224
 20
488.1560251378114
 30
0.0
 10
34.20877439230043
 20
488.1733948936764
 30
0.0
  0
SPLINE
  5
1AB
330
5E
100
AcDbEntity
  8
$DDT_AUDIT_GENERATED_(85)
  6
Continuous
 62
     7
100
AcDbSpline
210
0.0
220
0.0
230
1.0
 70
     8
 71
     3
 72
    16
 73
    12
 74
     0
 42
0.0000000065422794
 43
0.0000000001
 40
0.0
 40
0.0
 40
0.0
 40
0.0
 40
0.0990248145294903
 40
0.2173167802656274
 40
0.3417499577320859
 40
0.4715400494746844
 40
0.6034676622442023
 40
0.7351249799018352
 40
0.8660766800040224
 40
0.9964060942269166
 40
1.0
 40
1.0
 40
1.0
 40
1.0
 10
28.48296645397169
 20
488.19933128756
 30
0.0
 10
28.49284156251804
 20
488.1611720903549
 30
0.0
 10
28.5122357821302
 20
488.0905412131768
 30
0.0
 10
28.58538563771097
 20
487.977997693022
 30
0.0
 10
28.69162609895725
 20
487.8676431550458
 30
0.0
 10
28.83421088882508
 20
487.761301855193
 30
0.0
 10
29.01015028958621
 20
487.6620651816864
 30
0.0
 10
29.21666042476648
 20
487.5708450372504
 30
0.0
 10
29.44856229845241
 20
487.4914427853655
 30
0.0
 10
29.62390695655673
 20
487.4396142166424
 30
0.0
 10
29.71383544431406
 20
487.4202363009638
 30
0.0
 10
29.71663337630005
 20
487.4196337065103
 30
0.0
  0
SPLINE
  5
1AC
330
5E
100
AcDbEntity
  8
$DDT_AUDIT_GENERATED_(85)
  6
Continuous
 62
     7
100
AcDbSpline
210
0.0
220
0.0
230
1.0
 70
     8
 71
     3
 72
    14
 73
    10
 74
     0
 42
0.0000000108300062
 43
0.0000000001
 40
0.0
 40
0.0
 40
0.0
 40
0.0
 40
0.1104677496135416
 40
0.2667162904806082
 40
0.4218901247494602
 40
0.57590506943398
 40
0.7293478812259452
 40
0.8837277338278753
 40
1.0
 40
1.0
 40
1.0
 40
1.0
 10
33.31204935744737
 20
488.8488172809703
 30
0.0
 10
33.36646245873762
 20
488.8293190878113
 30
0.0
 10
33.47705874346187
 20
488.7892219848487
 30
0.0
 10
33.63724998061767
 20
488.7118213844168
 30
0.0
 10
33.78002092344538
 20
488.6249321438308
 30
0.0
 10
33.88946792008354
 20
488.5355562881405
 30
0.0
 10
33.96306083098687
 20
488.4487072245135
 30
0.0
 10
34.00273047610012
 20
488.3721230797461
 30
0.0
 10
34.00718280105311
 20
488.3314579776351
 30
0.0
 10
34.00888310328205
 20
488.3109487694911
 30
0.0
  0
SPLINE
  5
1AD
330
5E
100
AcDbEntity
  8
$DDT_AUDIT_GENERATED_(85)
  6
Continuous
 62
     7
100
AcDbSpline
210
0.0
220
0.0
230
1.0
 70
     8
 71
     3
 72
    13
 73
     9
 74
     0
 42
0.0000000153796514
 43
0.0000000001
 40
0.0
 40
0.0
 40
0.0
 40
0.0
 40
0.100060361036892
 40
0.2922685281639289
 40
0.473318962533621
 40
0.665496266627052
 40
0.854250802009567
 40
1.0
 40
1.0
 40
1.0
 40
1.0
 10
28.68749999999999
 20
488.2914827723441
 30
0.0
 10
28.68809031007888
 20
488.305875680944
 30
0.0
 10
28.69032089851326
 20
488.3418075984649
 30
0.0
 10
28.71315466806358
 20
488.4085437793862
 30
0.0
 10
28.77089053732962
 20
488.493458843737
 30
0.0
 10
28.86245851630515
 20
488.581296546177
 30
0.0
 10
28.98151070459776
 20
488.6656962631046
 30
0.0
 10
29.07159651132785
 20
488.7119007770439
 30
0.0
 10
29.11845214610988
 20
488.7356287875401
 30
0.0
  0
LINE
  5
1AE
330
5E
100
AcDbEntity
  8
$DDT_AUDIT_GENERATED_(85)
  6
Continuous
 62
     7
100
AcDbLine
 10
22.4869200058
 20
489.365565872
 30
0.0
 11
22.9860575655
 21
487.9238603096
 31
0.0
  0
LINE
  5
1AF
330
5E
100
AcDbEntity
  8
$DDT_AUDIT_GENERATED_(85)
  6
Continuous
 62
     7
100
AcDbLine
 10
39.7139424345
 20
487.9238603096
 30
0.0
 11
40.2130799942
 21
489.365565872
 31
0.0
  0
LINE
  5
1B0
330
5E
100
AcDbEntity
  8
$DDT_AUDIT_GENERATED_(85)
  6
Continuous
 62
     7
100
AcDbLine
 10
28.2663750534
 20
489.2875660361
 30
0.0
 11
28.4788938072
 21
488.2082900212
 31
0.0
  0
LINE
  5
1B1
330
5E
100
AcDbEntity
  8
$DDT_AUDIT_GENERATED_(85)
  6
Continuous
 62
     7
100
AcDbLine
 10
34.2211061928
 20
488.2082900212
 30
0.0
 11
34.3685811878
 21
488.9572414524
 31
0.0
  0
LINE
  5
1B2
330
5E
100
AcDbEntity
  8
$DDT_AUDIT_GENERATED_(85)
  6
Continuous
 62
     7
100
AcDbLine
 10
24.8653260291
 20
488.6811549265
 30
0.0
 11
24.9743324252
 21
488.1275661883
 31
0.0
  0
LINE
  5
1B3
330
5E
100
AcDbEntity
  8
$DDT_AUDIT_GENERATED_(85)
  6
Continuous
 62
     7
100
AcDbLine
 10
37.7256675748
 20
488.1275661883
 30
0.0
 11
37.8346739709
 21
488.6811549265
 31
0.0
  0
LINE
  5
1B4
330
5E
100
AcDbEntity
  8
$DDT_AUDIT_GENERATED_(85)
  6
Continuous
 62
     7
100
AcDbLine
 10
26.6259064111
 20
488.6811549265
 30
0.0
 11
26.7067513124
 21
488.1881288657
 31
0.0
  0
LINE
  5
1B5
330
5E
100
AcDbEntity
  8
$DDT_AUDIT_GENERATED_(85)
  6
Continuous
 62
     7
100
AcDbLine
 10
35.9932486876
 20
488.1881288657
 30
0.0
 11
36.0740935889
 21
488.6811549265
 31
0.0
  0
LINE
  5
1B6
330
5E
100
AcDbEntity
  8
$DDT_AUDIT_GENERATED_(85)
  6
Continuous
 62
     7
100
AcDbLine
 10
31.3021415388
 20
492.6947190907
 30
0.0
 11
31.35
 21
492.6947963161
 31
0.0
  0
SPLINE
  5
1B7
330
5E
100
AcDbEntity
  8
$DDT_AUDIT_GENERATED_(85)
  6
Continuous
 62
     7
100
AcDbSpline
210
0.0
220
0.0
230
1.0
 70
     8
 71
     3
 72
    19
 73
    15
 74
     0
 42
0.0000000027745784
 43
0.0000000001
 40
0.0
 40
0.0
 40
0.0
 40
0.0
 40
0.0710384741980219
 40
0.1596773162003278
 40
0.2468489659260385
 40
0.3331723418182759
 40
0.4191170802201023
 40
0.5049598880669756
 40
0.5908164079957887
 40
0.6767585253268272
 40
0.762815816260084
 40
0.8489914445825013
 40
0.9352766896897027
 40
1.0
 40
1.0
 40
1.0
 40
1.0
 10
22.48185898953237
 20
490.0413462140985
 30
0.0
 10
22.50051535274689
 20
490.0944167908322
 30
0.0
 10
22.53724660761466
 20
490.1953258854847
 30
0.0
 10
22.64194365016681
 20
490.3685459424844
 30
0.0
 10
22.78395189090114
 20
490.547793759845
 30
0.0
 10
22.96140502542892
 20
490.7254825851745
 30
0.0
 10
23.17209152124358
 20
490.8995275280274
 30
0.0
 10
23.4160100306054
 20
491.0697486982575
 30
0.0
 10
23.69238500955772
 20
491.2352908095912
 30
0.0
 10
24.00007835829424
 20
491.3952506783887
 30
0.0
 10
24.33877200316329
 20
491.5492348860694
 30
0.0
 10
24.70405209798696
 20
491.6948937147402
 30
0.0
 10
25.07234830788198
 20
491.8254501755449
 30
0.0
 10
25.30243109679149
 20
491.8953146268486
 30
0.0
 10
25.41935431296232
 20
491.9305622255386
 30
0.0
  0
SPLINE
  5
1B8
330
5E
100
AcDbEntity
  8
$DDT_AUDIT_GENERATED_(85)
  6
Continuous
 62
     7
100
AcDbSpline
210
0.0
220
0.0
230
1.0
 70
     8
 71
     3
 72
    19
 73
    15
 74
     0
 42
0.0000000029233283
 43
0.0000000001
 40
0.0
 40
0.0
 40
0.0
 40
0.0
 40
0.0730559399244466
 40
0.1630887464628763
 40
0.2530205766970713
 40
0.3428358026253172
 40
0.4325208400670498
 40
0.5220695821327714
 40
0.6114942683987533
 40
0.7008458112115947
 40
0.7902102110001972
 40
0.8797768820880031
 40
0.9699135391799328
 40
1.0
 40
1.0
 40
1.0
 40
1.0
 10
37.43880884835257
 20
491.882234599129
 30
0.0
 10
37.56231404424684
 20
491.8429292259813
 30
0.0
 10
37.79452437099606
 20
491.7684569713373
 30
0.0
 10
38.16027250194494
 20
491.6315958894402
 30
0.0
 10
38.51369616332729
 20
491.4824324780478
 30
0.0
 10
38.83973172235591
 20
491.3252947323934
 30
0.0
 10
39.13406421139516
 20
491.1625527730587
 30
0.0
 10
39.39628677917116
 20
490.9947392734236
 30
0.0
 10
39.62528163462877
 20
490.8229136475406
 30
0.0
 10
39.82010330331197
 20
490.6482659530188
 30
0.0
 10
39.98124536232945
 20
490.4712639185777
 30
0.0
 10
40.10503926805257
 20
490.2950994643747
 30
0.0
 10
40.18261842107319
 20
490.1531779121739
 30
0.0
 10
40.20509604822308
 20
490.079777482876
 30
0.0
 10
40.21156882734189
 20
490.0582658323318
 30
0.0
  0
LINE
  5
1B9
330
5E
100
AcDbEntity
  8
$DDT_AUDIT_GENERATED_(85)
  6
Continuous
 62
     7
100
AcDbLine
 10
31.35
 20
492.6947963161
 30
0.0
 11
31.4083218216
 21
492.6944630966
 31
0.0
  0
SPLINE
  5
1BA
330
5E
100
AcDbEntity
  8
$DDT_AUDIT_GENERATED_(85)
  6
Continuous
 62
     7
100
AcDbSpline
210
0.0
220
0.0
230
1.0
 70
     8
 71
     3
 72
    12
 73
     8
 74
     0
 42
0.0000000048200742
 43
0.0000000001
 40
0.0352352329672943
 40
0.0352352329672943
 40
0.0352352329672943
 40
0.0352352329672943
 40
0.0588421118043644
 40
0.1794718290320741
 40
0.3010850068554734
 40
0.4238495020118117
 40
0.4629101688479024
 40
0.4629101688479024
 40
0.4629101688479024
 40
0.4629101688479024
 10
22.24306534649996
 20
489.179434832933
 30
0.0
 10
22.248817464591
 20
489.1664695488435
 30
0.0
 10
22.28439989054749
 20
489.0889714184165
 30
0.0
 10
22.37343958867526
 20
488.9375132449899
 30
0.0
 10
22.52557461606029
 20
488.7412765117364
 30
0.0
 10
22.67115567690743
 20
488.5918091936674
 30
0.0
 10
22.76383544428176
 20
488.508345865896
 30
0.0
 10
22.78676485426342
 20
488.4883049590407
 30
0.0
  0
SPLINE
  5
1BB
330
5E
100
AcDbEntity
  8
$DDT_AUDIT_GENERATED_(85)
  6
Continuous
 62
     7
100
AcDbSpline
210
0.0
220
0.0
230
1.0
 70
     8
 71
     3
 72
    12
 73
     8
 74
     0
 42
0.0000000048235738
 43
0.0000000001
 40
0.5356882967965602
 40
0.5356882967965602
 40
0.5356882967965602
 40
0.5356882967965602
 40
0.5524535252636325
 40
0.6764219462513569
 40
0.8001473507116517
 40
0.9232506783590031
 40
0.9651864058779827
 40
0.9651864058779827
 40
0.9651864058779827
 40
0.9651864058779827
 10
39.91070991374075
 20
488.486107082613
 30
0.0
 10
39.92057048031953
 20
488.4947078284542
 30
0.0
 10
40.00248601957658
 20
488.5670724806905
 30
0.0
 10
40.14291085135527
 20
488.705726729821
 30
0.0
 10
40.30358455196496
 20
488.9042270201755
 30
0.0
 10
40.40476150515465
 20
489.067770342851
 30
0.0
 10
40.44601399435477
 20
489.1559348282258
 30
0.0
 10
40.45645248043384
 20
489.1793743225591
 30
0.0
  0
LINE
  5
1BC
330
5E
100
AcDbEntity
  8
$DDT_AUDIT_GENERATED_(85)
  6
Continuous
 62
     7
100
AcDbLine
 10
31.6968742692
 20
488.8667458186
 30
0.0
 11
32.1018877244
 21
489.1066742769
 31
0.0
  0
LINE
  5
1BD
330
5E
100
AcDbEntity
  8
$DDT_AUDIT_GENERATED_(85)
  6
Continuous
 62
     7
100
AcDbLine
 10
32.8914232381
 20
489.5743921667
 30
0.0
 11
33.0061617054
 21
489.6423628062
 31
0.0
  0
LINE
  5
1BE
330
5E
100
AcDbEntity
  8
$DDT_AUDIT_GENERATED_(85)
  6
Continuous
 62
     7
100
AcDbLine
 10
33.770688261
 20
490.0952654826
 30
0.0
 11
33.8820126908
 21
490.1612136591
 31
0.0
  0
LINE
  5
1BF
330
5E
100
AcDbEntity
  8
$DDT_AUDIT_GENERATED_(85)
  6
Continuous
 62
     7
100
AcDbLine
 10
34.6478986187
 20
490.6149216225
 30
0.0
 11
34.68575972
 21
490.6373503975
 31
0.0
  0
LINE
  5
1C0
330
5E
100
AcDbEntity
  8
$DDT_AUDIT_GENERATED_(85)
  6
Continuous
 62
     7
100
AcDbLine
 10
31.9048932611
 20
488.7314591839
 30
0.0
 11
33.3134836214
 21
488.8605480687
 31
0.0
  0
LINE
  5
1C1
330
5E
100
AcDbEntity
  8
$DDT_AUDIT_GENERATED_(85)
  6
Continuous
 62
     7
100
AcDbLine
 10
34.2214288082
 20
488.9437558166
 30
0.0
 11
35.1436727018
 21
489.0282739556
 31
0.0
  0
LINE
  5
1C2
330
5E
100
AcDbEntity
  8
$DDT_AUDIT_GENERATED_(85)
  6
Continuous
 62
     7
100
AcDbLine
 10
35.9202650213
 20
489.0994439986
 30
0.0
 11
36.8746582671
 21
489.1869084334
 31
0.0
  0
LINE
  5
1C3
330
5E
100
AcDbEntity
  8
$DDT_AUDIT_GENERATED_(85)
  6
Continuous
 62
     7
100
AcDbLine
 10
37.6144412695
 20
489.2547051226
 30
0.0
 11
38.4885200918
 21
489.3348092207
 31
0.0
  0
LINE
  5
1C4
330
5E
100
AcDbEntity
  8
$DDT_AUDIT_GENERATED_(85)
  6
Continuous
 62
     7
100
AcDbLine
 10
31.8132049314
 20
488.5871897781
 30
0.0
 11
33.6306480768
 21
488.2283076007
 31
0.0
  0
LINE
  5
1C5
330
5E
100
AcDbEntity
  8
$DDT_AUDIT_GENERATED_(85)
  6
Continuous
 62
     7
100
AcDbLine
 10
34.1919428016
 20
488.1174713011
 30
0.0
 11
35.168008024
 21
487.9247321703
 31
0.0
  0
LINE
  5
1C6
330
5E
100
AcDbEntity
  8
$DDT_AUDIT_GENERATED_(85)
  6
Continuous
 62
     7
100
AcDbLine
 10
35.7985945233
 20
487.8002131412
 30
0.0
 11
36.6727967298
 21
487.6275884337
 31
0.0
  0
LINE
  5
1C7
330
5E
100
AcDbEntity
  8
$DDT_AUDIT_GENERATED_(85)
  6
Continuous
 62
     7
100
AcDbLine
 10
37.3402497524
 20
487.4957895411
 30
0.0
 11
38.2533336204
 21
487.3154870499
 31
0.0
  0
LINE
  5
1C8
330
5E
100
AcDbEntity
  8
$DDT_AUDIT_GENERATED_(85)
  6
Continuous
 62
     7
100
AcDbLine
 10
31.4556856088
 20
488.473603401
 30
0.0
 11
31.9496203972
 21
487.8431269827
 31
0.0
  0
LINE
  5
1C9
330
5E
100
AcDbEntity
  8
$DDT_AUDIT_GENERATED_(85)
  6
Continuous
 62
     7
100
AcDbLine
 10
32.3652245775
 20
487.3126346159
 30
0.0
 11
32.4091888427
 21
487.2565170207
 31
0.0
  0
LINE
  5
1CA
330
5E
100
AcDbEntity
  8
$DDT_AUDIT_GENERATED_(85)
  6
Continuous
 62
     7
100
AcDbLine
 10
32.825729673
 20
486.7248290796
 30
0.0
 11
32.8589563957
 21
486.6824172762
 31
0.0
  0
LINE
  5
1CB
330
5E
100
AcDbEntity
  8
$DDT_AUDIT_GENERATED_(85)
  6
Continuous
 62
     7
100
AcDbLine
 10
33.2768538321
 20
486.1489977133
 30
0.0
 11
33.3313416181
 21
486.0794475116
 31
0.0
  0
LINE
  5
1CC
330
5E
100
AcDbEntity
  8
$DDT_AUDIT_GENERATED_(85)
  6
Continuous
 62
     7
100
AcDbLine
 10
30.0794631372
 20
487.9085975043
 30
0.0
 11
31.0790854211
 21
488.5007700121
 31
0.0
  0
LINE
  5
1CD
330
5E
100
AcDbEntity
  8
$DDT_AUDIT_GENERATED_(85)
  6
Continuous
 62
     7
100
AcDbLine
 10
29.1917784782
 20
487.3827364274
 30
0.0
 11
29.4046059758
 21
487.5088146421
 31
0.0
  0
LINE
  5
1CE
330
5E
100
AcDbEntity
  8
$DDT_AUDIT_GENERATED_(85)
  6
Continuous
 62
     7
100
AcDbLine
 10
28.3229505564
 20
486.8680460112
 30
0.0
 11
28.5031523592
 21
486.9747968862
 31
0.0
  0
LINE
  5
1CF
330
5E
100
AcDbEntity
  8
$DDT_AUDIT_GENERATED_(85)
  6
Continuous
 62
     7
100
AcDbLine
 10
27.4104051604
 20
486.3274575266
 30
0.0
 11
27.6247093799
 21
486.4544105459
 31
0.0
  0
LINE
  5
1D0
330
5E
100
AcDbEntity
  8
$DDT_AUDIT_GENERATED_(85)
  6
Continuous
 62
     7
100
AcDbLine
 10
28.7905375806
 20
488.4460471059
 30
0.0
 11
30.8191925664
 21
488.6319612064
 31
0.0
  0
LINE
  5
1D1
330
5E
100
AcDbEntity
  8
$DDT_AUDIT_GENERATED_(85)
  6
Continuous
 62
     7
100
AcDbLine
 10
27.0758534447
 20
488.2889065566
 30
0.0
 11
28.4384313199
 21
488.4137786722
 31
0.0
  0
LINE
  5
1D2
330
5E
100
AcDbEntity
  8
$DDT_AUDIT_GENERATED_(85)
  6
Continuous
 62
     7
100
AcDbLine
 10
25.3974873666
 20
488.1350943401
 30
0.0
 11
26.6959353175
 21
488.2540893317
 31
0.0
  0
LINE
  5
1D3
330
5E
100
AcDbEntity
  8
$DDT_AUDIT_GENERATED_(85)
  6
Continuous
 62
     7
100
AcDbLine
 10
23.6346319803
 20
487.9735391837
 30
0.0
 11
24.9809987079
 21
488.0969256446
 31
0.0
  0
LINE
  5
1D4
330
5E
100
AcDbEntity
  8
$DDT_AUDIT_GENERATED_(85)
  6
Continuous
 62
     7
100
AcDbLine
 10
29.8119718975
 20
488.9823641033
 30
0.0
 11
30.8374169987
 21
488.7798741538
 31
0.0
  0
LINE
  5
1D5
330
5E
100
AcDbEntity
  8
$DDT_AUDIT_GENERATED_(85)
  6
Continuous
 62
     7
100
AcDbLine
 10
28.1738490817
 20
489.3058367161
 30
0.0
 11
28.7613339931
 21
489.1898287602
 31
0.0
  0
LINE
  5
1D6
330
5E
100
AcDbEntity
  8
$DDT_AUDIT_GENERATED_(85)
  6
Continuous
 62
     7
100
AcDbLine
 10
26.628245189
 20
489.6110400407
 30
0.0
 11
27.2383099358
 21
489.4905733481
 31
0.0
  0
LINE
  5
1D7
330
5E
100
AcDbEntity
  8
$DDT_AUDIT_GENERATED_(85)
  6
Continuous
 62
     7
100
AcDbLine
 10
25.2213054082
 20
489.888861998
 30
0.0
 11
25.7192179767
 21
489.7905414826
 31
0.0
  0
LINE
  5
1D8
330
5E
100
AcDbEntity
  8
$DDT_AUDIT_GENERATED_(85)
  6
Continuous
 62
     7
100
AcDbLine
 10
30.9399723061
 20
489.131878711
 30
0.0
 11
31.1077017137
 21
488.9177827643
 31
0.0
  0
LINE
  5
1D9
330
5E
100
AcDbEntity
  8
$DDT_AUDIT_GENERATED_(85)
  6
Continuous
 62
     7
100
AcDbLine
 10
30.4787847462
 20
489.7205553698
 30
0.0
 11
30.493309586
 21
489.7020153335
 31
0.0
  0
LINE
  5
1DA
330
5E
100
AcDbEntity
  8
$DDT_AUDIT_GENERATED_(85)
  6
Continuous
 62
     7
100
AcDbLine
 10
30.0283207736
 20
490.2955440499
 30
0.0
 11
30.0383068033
 21
490.2827975166
 31
0.0
  0
LINE
  5
1DB
330
5E
100
AcDbEntity
  8
$DDT_AUDIT_GENERATED_(85)
  6
Continuous
 62
     7
100
AcDbLine
 10
32.6617299219
 20
490.2828443939
 30
0.0
 11
32.6716792264
 21
490.2955440499
 31
0.0
  0
LINE
  5
1DC
330
5E
100
AcDbEntity
  8
$DDT_AUDIT_GENERATED_(85)
  6
Continuous
 62
     7
100
AcDbLine
 10
34.7272755643
 20
489.8290453273
 30
0.0
 11
35.035586056
 21
489.9344937258
 31
0.0
  0
LINE
  5
1DD
330
5E
100
AcDbEntity
  8
$DDT_AUDIT_GENERATED_(85)
  6
Continuous
 62
     7
100
AcDbLine
 10
35.9676188572
 20
490.2532677181
 30
0.0
 11
36.1782328661
 21
490.3253019516
 31
0.0
  0
LINE
  5
1DE
330
5E
100
AcDbEntity
  8
$DDT_AUDIT_GENERATED_(85)
  6
Continuous
 62
     7
100
AcDbLine
 10
35.4617583345
 20
489.4905868292
 30
0.0
 11
36.071754811
 21
489.6110400407
 31
0.0
  0
LINE
  5
1DF
330
5E
100
AcDbEntity
  8
$DDT_AUDIT_GENERATED_(85)
  6
Continuous
 62
     7
100
AcDbLine
 10
36.980746025
 20
489.7905343742
 30
0.0
 11
37.4786945918
 21
489.888861998
 31
0.0
  0
LINE
  5
1E0
330
5E
100
AcDbEntity
  8
$DDT_AUDIT_GENERATED_(85)
  6
Continuous
 62
     7
100
AcDbLine
 10
36.0691282865
 20
488.6811549265
 30
0.0
 11
37.4035045217
 21
488.6811549265
 31
0.0
  0
LINE
  5
1E1
330
5E
100
AcDbEntity
  8
$DDT_AUDIT_GENERATED_(85)
  6
Continuous
 62
     7
100
AcDbLine
 10
37.8230578576
 20
488.6811549265
 30
0.0
 11
39.0970008927
 21
488.6811549265
 31
0.0
  0
LINE
  5
1E2
330
5E
100
AcDbEntity
  8
$DDT_AUDIT_GENERATED_(85)
  6
Continuous
 62
     7
100
AcDbLine
 10
36.0040646825
 20
488.2540893317
 30
0.0
 11
37.3025229006
 21
488.1350933992
 31
0.0
  0
LINE
  5
1E3
330
5E
100
AcDbEntity
  8
$DDT_AUDIT_GENERATED_(85)
  6
Continuous
 62
     7
100
AcDbLine
 10
37.7190012921
 20
488.0969256446
 30
0.0
 11
39.0653759437
 21
487.9735384575
 31
0.0
  0
LINE
  5
1E4
330
5E
100
AcDbEntity
  8
$DDT_AUDIT_GENERATED_(85)
  6
Continuous
 62
     7
100
AcDbLine
 10
35.2081752362
 20
487.3543754075
 30
0.0
 11
35.6762522522
 21
487.1942836394
 31
0.0
  0
LINE
  5
1E5
330
5E
100
AcDbEntity
  8
$DDT_AUDIT_GENERATED_(85)
  6
Continuous
 62
     7
100
AcDbLine
 10
36.4575420509
 20
486.9270667905
 30
0.0
 11
36.9667655523
 21
486.7529020955
 31
0.0
  0
LINE
  5
1E6
330
5E
100
AcDbEntity
  8
$DDT_AUDIT_GENERATED_(85)
  6
Continuous
 62
     7
100
AcDbLine
 10
34.1966208334
 20
486.9749312461
 30
0.0
 11
34.3770502093
 21
486.8680455576
 31
0.0
  0
LINE
  5
1E7
330
5E
100
AcDbEntity
  8
$DDT_AUDIT_GENERATED_(85)
  6
Continuous
 62
     7
100
AcDbLine
 10
35.0731776332
 20
486.4556622714
 30
0.0
 11
35.2895954299
 21
486.3274571769
 31
0.0
  0
LINE
  5
1E8
330
5E
100
AcDbEntity
  8
$DDT_AUDIT_GENERATED_(85)
  6
Continuous
 62
     7
100
AcDbLine
 10
29.8410420126
 20
486.6824152444
 30
0.0
 11
29.874270327
 21
486.7248290796
 31
0.0
  0
LINE
  5
1E9
330
5E
100
AcDbEntity
  8
$DDT_AUDIT_GENERATED_(85)
  6
Continuous
 62
     7
100
AcDbLine
 10
29.3686571535
 20
486.0794459436
 30
0.0
 11
29.4231461679
 21
486.1489977133
 31
0.0
  0
LINE
  5
1EA
330
5E
100
AcDbEntity
  8
$DDT_AUDIT_GENERATED_(85)
  6
Continuous
 62
     7
100
AcDbLine
 10
27.0237418405
 20
487.194281619
 30
0.0
 11
27.490588879
 21
487.35395271
 31
0.0
  0
LINE
  5
1EB
330
5E
100
AcDbEntity
  8
$DDT_AUDIT_GENERATED_(85)
  6
Continuous
 62
     7
100
AcDbLine
 10
25.7332298892
 20
486.7529005364
 30
0.0
 11
26.2397064504
 21
486.9261257225
 31
0.0
  0
LINE
  5
1EC
330
5E
100
AcDbEntity
  8
$DDT_AUDIT_GENERATED_(85)
  6
Continuous
 62
     7
100
AcDbLine
 10
26.0272047352
 20
487.627588723
 30
0.0
 11
26.8998917821
 21
487.7999142389
 31
0.0
  0
LINE
  5
1ED
330
5E
100
AcDbEntity
  8
$DDT_AUDIT_GENERATED_(85)
  6
Continuous
 62
     7
100
AcDbLine
 10
24.446667509
 20
487.315487273
 30
0.0
 11
25.358209195
 21
487.4954852365
 31
0.0
  0
LINE
  5
1EE
330
5E
100
AcDbEntity
  8
$DDT_AUDIT_GENERATED_(85)
  6
Continuous
 62
     7
100
AcDbLine
 10
25.2958441061
 20
488.6811549265
 30
0.0
 11
26.631016744
 21
488.6811549265
 31
0.0
  0
LINE
  5
1EF
330
5E
100
AcDbEntity
  8
$DDT_AUDIT_GENERATED_(85)
  6
Continuous
 62
     7
100
AcDbLine
 10
23.6029991073
 20
488.6811549265
 30
0.0
 11
24.8770818167
 21
488.6811549265
 31
0.0
  0
LINE
  5
1F0
330
5E
100
AcDbEntity
  8
$DDT_AUDIT_GENERATED_(85)
  6
Continuous
 62
     7
100
AcDbLine
 10
25.825616168
 20
489.1868832831
 30
0.0
 11
26.7798630021
 21
489.099432266
 31
0.0
  0
LINE
  5
1F1
330
5E
100
AcDbEntity
  8
$DDT_AUDIT_GENERATED_(85)
  6
Continuous
 62
     7
100
AcDbLine
 10
24.2114799082
 20
489.3348092207
 30
0.0
 11
25.0856534451
 21
489.2546964426
 31
0.0
  0
LINE
  5
1F2
330
5E
100
AcDbEntity
  8
$DDT_AUDIT_GENERATED_(85)
  6
Continuous
 62
     7
100
AcDbLine
 10
27.664413944
 20
489.9344937258
 30
0.0
 11
27.9727701517
 21
489.8290296915
 31
0.0
  0
LINE
  5
1F3
330
5E
100
AcDbEntity
  8
$DDT_AUDIT_GENERATED_(85)
  6
Continuous
 62
     7
100
AcDbLine
 10
26.5217671339
 20
490.3253019516
 30
0.0
 11
26.7322971244
 21
490.2532964541
 31
0.0
  0
LINE
  5
1F4
330
5E
100
AcDbEntity
  8
$DDT_AUDIT_GENERATED_(85)
  6
Continuous
 62
     7
100
AcDbLine
 10
28.8179873092
 20
490.1612136591
 30
0.0
 11
28.9293968049
 21
490.0952150899
 31
0.0
  0
LINE
  5
1F5
330
5E
100
AcDbEntity
  8
$DDT_AUDIT_GENERATED_(85)
  6
Continuous
 62
     7
100
AcDbLine
 10
28.01424028
 20
490.6373503975
 30
0.0
 11
28.0521637197
 21
490.6148846935
 31
0.0
  0
LINE
  5
1F8
330
5E
100
AcDbEntity
  8
DV1_Default
  6
CENTER2
 62
     7
100
AcDbLine
 10
51.349999553
 20
388.8516733052
 30
0.0
 11
11.350000447
 21
388.8516733052
 31
0.0
  0
LINE
  5
1F9
330
5E
100
AcDbEntity
  8
DV1_Default
  6
CENTER2
 62
     7
100
AcDbLine
 10
31.35
 20
408.8516728582
 30
0.0
 11
31.35
 21
368.8516737522
 31
0.0
  0
ENDBLK
  5
1FB
330
5E
100
AcDbEntity
  8
0
100
AcDbBlockEnd
  0
BLOCK
  5
248
330
1FC
100
AcDbEntity
  8
0
100
AcDbBlockBegin
  2
SE1
 70
     0
 10
0.0
 20
0.0
 30
0.0
  3
SE1
  1

  0
LINE
  5
1FE
330
1FC
100
AcDbEntity
  8
405584038_EHM_WT
  6
Continuous
 62
     7
100
AcDbLine
 10
213.0464123909
 20
388.8516733052
 30
0.0
 11
167.3518697442
 21
388.8516733052
 31
0.0
  0
SPLINE
  5
1FF
330
1FC
100
AcDbEntity
  8
405584038_EHM_WT
  6
Continuous
 62
     7
100
AcDbSpline
210
0.0
220
0.0
230
1.0
 70
     8
 71
     3
 72
    10
 73
     6
 74
     0
 42
0.0000000154962936
 43
0.0000000001
 40
0.4982160037404841
 40
0.4982160037404841
 40
0.4982160037404841
 40
0.4982160037404841
 40
0.4999999999999942
 40
0.4999999999999942
 40
0.5000615691533387
 40
0.5000615691533387
 40
0.5000615691533387
 40
0.5000615691533387
 10
306.4230414028446
 20
497.1471722009185
 30
0.0
 10
306.422554401052
 20
497.1465780235272
 30
0.0
 10
306.4223027646171
 20
497.1462705752363
 30
0.0
 10
306.4222871906753
 20
497.1462510542223
 30
0.0
 10
306.422286951749
 20
497.1462507493872
 30
0.0
 10
306.4222869934134
 20
497.146250790871
 30
0.0
  0
LINE
  5
200
330
1FC
100
AcDbEntity
  8
405584038_EHM_WT
  6
Continuous
 62
     7
100
AcDbLine
 10
239.2679764431
 20
541.8512248164
 30
0.0
 11
238.9443538402
 21
542.7281388543
 31
0.0
  0
LINE
  5
201
330
1FC
100
AcDbEntity
  8
405584038_EHM_WT
  6
Continuous
 62
     7
100
AcDbLine
 10
197.0224751281
 20
550.1200971532
 30
0.0
 11
196.4122233113
 21
549.3994028006
 31
0.0
  0
ARC
  5
202
330
1FC
100
AcDbEntity
  8
405584038_EHM_WT
  6
Continuous
 62
     7
100
AcDbCircle
 10
200.5727500257
 20
545.8819534567
 30
0.0
 40
5.448224782815282
100
AcDbArc
 50
139.4596376746
 51
170.2849742891
  0
ARC
  5
203
330
1FC
100
AcDbEntity
  8
405584038_EHM_WT
  6
Continuous
 62
     7
100
AcDbCircle
 10
234.159146406
 20
539.959875979
 30
0.0
 40
5.447753221236207
100
AcDbArc
 50
349.713858823
 51
20.5393577367
  0
SPLINE
  5
204
330
1FC
100
AcDbEntity
  8
405584038_EHM_WT
  6
Continuous
 62
     7
100
AcDbSpline
210
0.0
220
0.0
230
1.0
 70
     8
 71
     3
 72
    15
 73
    11
 74
     0
 42
0.0000000016069778
 43
0.0000000001
 40
0.0
 40
0.0
 40
0.0
 40
0.0
 40
0.2022129825008913
 40
0.3628505767264726
 40
0.472748600700055
 40
0.5371140728921644
 40
0.6051348428499927
 40
0.7062027719870384
 40
0.8400536984837782
 40
1.0
 40
1.0
 40
1.0
 40
1.0
 10
241.2395714697973
 20
526.1462305642839
 30
0.0
 10
240.7817331050628
 20
526.1476722741371
 30
0.0
 10
240.0846684860782
 20
526.1715666448832
 30
0.0
 10
239.1355509989097
 20
526.5101079897054
 30
0.0
 10
238.5810847678342
 20
526.9320039216481
 30
0.0
 10
238.2677238393579
 20
527.3212752809545
 30
0.0
 10
238.0382499886063
 20
527.7467352070126
 30
0.0
 10
237.8564417785021
 20
528.3456983167122
 30
0.0
 10
237.8009589010233
 20
529.1778344881179
 30
0.0
 10
237.8866540526771
 20
529.7308200103735
 30
0.0
 10
237.9495548630734
 20
530.0857776315014
 30
0.0
  0
ARC
  5
205
330
1FC
100
AcDbEntity
  8
405584038_EHM_WT
  6
Continuous
 62
     7
100
AcDbCircle
 10
235.7445512365
 20
492.8510049519
 30
0.0
 40
4.312220771571289
100
AcDbArc
 50
84.920924976
 51
175.2617163673
  0
ARC
  5
206
330
1FC
100
AcDbEntity
  8
405584038_EHM_WT
  6
Continuous
 62
     7
100
AcDbCircle
 10
135.6068787405
 20
547.2715789125
 30
0.0
 40
205.3897971571221
100
AcDbArc
 50
346.0401088024
 51
353.8361566033
  0
LINE
  5
207
330
1FC
100
AcDbEntity
  8
405584038_EHM_WT
  6
Continuous
 62
     7
100
AcDbLine
 10
332.4946514862
 20
497.1462507499
 30
0.0
 11
334.0100392035
 21
497.1462507499
 31
0.0
  0
LINE
  5
208
330
1FC
100
AcDbEntity
  8
405584038_EHM_WT
  6
Continuous
 62
     7
100
AcDbLine
 10
236.1227739169
 20
497.1462507499
 30
0.0
 11
306.4488752954
 21
497.1462507499
 31
0.0
  0
LINE
  5
209
330
1FC
100
AcDbEntity
  8
405584038_EHM_WT
  6
Continuous
 62
     7
100
AcDbLine
 10
338.7985381316
 20
526.1462507499
 30
0.0
 11
241.234470247
 21
526.1462507499
 31
0.0
  0
ARC
  5
20A
330
1FC
100
AcDbEntity
  8
405584038_EHM_WT
  6
Continuous
 62
     7
100
AcDbCircle
 10
334.0100391854
 20
498.1462507513
 30
0.0
 40
1.000000001363127
100
AcDbArc
 50
270.0000000776
 51
344.7435017724
  0
ARC
  5
20B
330
1FC
100
AcDbEntity
  8
405584038_EHM_WT
  6
Continuous
 62
     7
100
AcDbCircle
 10
338.7985381767
 20
525.1462507495
 30
0.0
 40
1.000000000188505
100
AcDbArc
 50
354.6504151545
 51
89.9999999863
  0
LINE
  5
20C
330
1FC
100
AcDbEntity
  8
405584038_EHM_WT
  6
Continuous
 62
     7
100
AcDbLine
 10
195.2061823694
 20
546.8213300944
 30
0.0
 11
167.3518697442
 21
388.8516733052
 31
0.0
  0
LINE
  5
20D
330
1FC
100
AcDbEntity
  8
405584038_EHM_WT
  6
Continuous
 62
     7
100
AcDbLine
 10
237.9484829536
 20
530.0783333582
 30
0.0
 11
239.5193394208
 21
538.9871030818
 31
0.0
  0
LINE
  5
20E
330
1FC
100
AcDbEntity
  8
405584038_EHM_WT
  6
Continuous
 62
     7
100
AcDbLine
 10
213.0464123909
 20
388.8516733052
 30
0.0
 11
231.4483340572
 21
493.2141570974
 31
0.0
  0
SPLINE
  5
20F
330
1FC
100
AcDbEntity
  8
405584038_EHM_WT
  6
Continuous
 62
     7
100
AcDbSpline
210
0.0
220
0.0
230
1.0
 70
     8
 71
     3
 72
    38
 73
    34
 74
     0
 42
0.0000000003323186
 43
0.0000000001
 40
0.0219763508039857
 40
0.0219763508039857
 40
0.0219763508039857
 40
0.0219763508039857
 40
0.0303741400583676
 40
0.0507056639825444
 40
0.0813306263263418
 40
0.11560825981927
 40
0.151054555530735
 40
0.1869375438479386
 40
0.2226887433057403
 40
0.2580968265258182
 40
0.296399067300945
 40
0.334303807809407
 40
0.3657404259286684
 40
0.3947685778157494
 40
0.4215442277015177
 40
0.4459998154748118
 40
0.4686235422260038
 40
0.4927544108336773
 40
0.5171406766118644
 40
0.5448454208553952
 40
0.575893326859837
 40
0.6113716356054553
 40
0.6534755970025634
 40
0.7002597529727854
 40
0.7490356095713565
 40
0.7924786281901984
 40
0.8323724733739208
 40
0.869031240136041
 40
0.9029147498580643
 40
0.9345988384722348
 40
0.9647342876208865
 40
0.9938693175589599
 40
1.0
 40
1.0
 40
1.0
 40
1.0
 10
306.837983676431
 20
497.3746045149661
 30
0.0
 10
306.8378171437694
 20
497.3743565548149
 30
0.0
 10
306.848266267503
 20
497.3880934515726
 30
0.0
 10
306.9054706991162
 20
497.4584883280459
 30
0.0
 10
307.0608356871409
 20
497.6429887776143
 30
0.0
 10
307.3439769113383
 20
497.9698046608216
 30
0.0
 10
307.7498649481859
 20
498.4267987343922
 30
0.0
 10
308.2680972304206
 20
498.9963247242303
 30
0.0
 10
308.8928333849524
 20
499.6662909113094
 30
0.0
 10
309.6259227986291
 20
500.4322007804868
 30
0.0
 10
310.4723123700841
 20
501.2593196394448
 30
0.0
 10
311.399927514445
 20
502.0709400649799
 30
0.0
 10
312.3416546353829
 20
502.7970735503717
 30
0.0
 10
313.2729058892297
 20
503.3834463158253
 30
0.0
 10
314.2099011410878
 20
503.8421648161324
 30
0.0
 10
315.1371159728777
 20
504.163269999343
 30
0.0
 10
316.079177719855
 20
504.3519747419819
 30
0.0
 10
317.0451052413779
 20
504.3866519948614
 30
0.0
 10
318.0724045437711
 20
504.2903231750312
 30
0.0
 10
319.166845641695
 20
504.0603457941657
 30
0.0
 10
320.3637850186361
 20
503.6863408074705
 30
0.0
 10
321.6915010256802
 20
503.1623986183933
 30
0.0
 10
323.153474050143
 20
502.4955432483624
 30
0.0
 10
324.6964108626062
 20
501.7022721214452
 30
0.0
 10
326.1770846931574
 20
500.8838515663854
 30
0.0
 10
327.5102216240443
 20
500.1171228665788
 30
0.0
 10
328.6446745473441
 20
499.4444082511087
 30
0.0
 10
329.6061965368025
 20
498.8616255999945
 30
0.0
 10
330.4049926220032
 20
498.3692840234389
 30
0.0
 10
331.053685019997
 20
497.9643807937568
 30
0.0
 10
331.5562272669861
 20
497.6479107441186
 30
0.0
 10
331.8395014456434
 20
497.4686979895656
 30
0.0
 10
331.948702883338
 20
497.3997626396295
 30
0.0
 10
331.9706408128618
 20
497.3859116296734
 30
0.0
  0
SPLINE
  5
210
330
1FC
100
AcDbEntity
  8
405584038_EHM_WT
  6
Continuous
 62
     7
100
AcDbSpline
210
0.0
220
0.0
230
1.0
 70
     8
 71
     3
 72
    17
 73
    13
 74
     0
 42
0.0000000179160194
 43
0.0000000001
 40
0.0
 40
0.0
 40
0.0
 40
0.0
 40
0.2548795928343232
 40
0.7392128820041312
 40
0.8620178442818685
 40
0.8826975017759029
 40
0.8911231583540179
 40
0.8963421495542198
 40
0.9017464669227384
 40
0.9146510502789926
 40
0.9403092744637784
 40
1.0
 40
1.0
 40
1.0
 40
1.0
 10
331.9706408128618
 20
497.3859116296734
 30
0.0
 10
332.018605806978
 20
497.3556515119565
 30
0.0
 10
332.1332813144303
 20
497.2832985222826
 30
0.0
 10
332.2089765455743
 20
497.2356965039629
 30
0.0
 10
332.2200491660919
 20
497.2287470331365
 30
0.0
 10
332.2267160698171
 20
497.2246233741914
 30
0.0
 10
332.2318988448103
 20
497.2214946016083
 30
0.0
 10
332.2382969978048
 20
497.2177391249751
 30
0.0
 10
332.2515017316649
 20
497.2102772314863
 30
0.0
 10
332.2824958808615
 20
497.1944047039054
 30
0.0
 10
332.354561275246
 20
497.1648735034366
 30
0.0
 10
332.4168044533314
 20
497.1579458992872
 30
0.0
 10
332.4681195856286
 20
497.1530045183119
 30
0.0
  0
SPLINE
  5
211
330
1FC
100
AcDbEntity
  8
405584038_EHM_WT
  6
Continuous
 62
     7
100
AcDbSpline
210
0.0
220
0.0
230
1.0
 70
     8
 71
     3
 72
    17
 73
    13
 74
     0
 42
0.000000000871996
 43
0.0000000001
 40
0.0
 40
0.0
 40
0.0
 40
0.0
 40
0.0010614509757201
 40
0.0036672029759614
 40
0.0058120441763534
 40
0.0074121452120505
 40
0.0087973848207593
 40
0.0106164303767106
 40
0.0140295044301925
 40
0.0234192363310252
 40
0.0474353221246195
 40
0.0770272353074804
 40
0.0770272353074804
 40
0.0770272353074804
 40
0.0770272353074804
 10
306.4493355890883
 20
497.1658175706016
 30
0.0
 10
306.4658302838126
 20
497.1652467269478
 30
0.0
 10
306.514582351596
 20
497.1638302284122
 30
0.0
 10
306.5961662253048
 20
497.1873957671532
 30
0.0
 10
306.6736208937851
 20
497.2230977282838
 30
0.0
 10
306.7221857826113
 20
497.2552848757957
 30
0.0
 10
306.7512552909999
 20
497.2781081128099
 30
0.0
 10
306.7744176874785
 20
497.2985933592887
 30
0.0
 10
306.7993999822327
 20
497.3231971071416
 30
0.0
 10
306.8320942504615
 20
497.3585361760377
 30
0.0
 10
306.9134992205148
 20
497.4502454445193
 30
0.0
 10
307.0356588676659
 20
497.5956327133355
 30
0.0
 10
307.1163652339079
 20
497.6923770594224
 30
0.0
  0
LINE
  5
212
330
1FC
100
AcDbEntity
  8
$DDT_AUDIT_GENERATED_(69)
  6
Continuous
 62
     7
100
AcDbLine
 10
198.8929883353
 20
576.3638067061
 30
0.0
 11
193.9379207076
 21
550.8706146153
 31
0.0
  0
LINE
  5
213
330
1FC
100
AcDbEntity
  8
$DDT_AUDIT_GENERATED_(69)
  6
Continuous
 62
     7
100
AcDbLine
 10
246.7820139166
 20
575.9156096874
 30
0.0
 11
246.7820100924
 21
575.9155941093
 31
0.0
  0
LINE
  5
214
330
1FC
100
AcDbEntity
  8
$DDT_AUDIT_GENERATED_(69)
  6
Continuous
 62
     7
100
AcDbLine
 10
200.1449069579
 20
577.6471334607
 30
0.0
 11
199.0295061973
 21
576.6097296237
 31
0.0
  0
LINE
  5
215
330
1FC
100
AcDbEntity
  8
$DDT_AUDIT_GENERATED_(69)
  6
Continuous
 62
     7
100
AcDbLine
 10
246.6949735765
 20
576.2615118434
 30
0.0
 11
245.5793882835
 21
577.728766008
 31
0.0
  0
ARC
  5
216
330
1FC
100
AcDbEntity
  8
$DDT_AUDIT_GENERATED_(69)
  6
Continuous
 62
     7
100
AcDbCircle
 10
246.3284010051
 20
575.9853823217
 30
0.0
 40
0.4589478099705637
100
AcDbArc
 50
351.2553213512
 51
36.9908430865
  0
ARC
  5
217
330
1FC
100
AcDbEntity
  8
$DDT_AUDIT_GENERATED_(69)
  6
Continuous
 62
     7
100
AcDbCircle
 10
199.3416558214
 20
576.2755970155
 30
0.0
 40
0.4572548389126662
100
AcDbArc
 50
133.051862277
 51
168.8738886667
  0
ARC
  5
218
330
1FC
100
AcDbEntity
  8
$DDT_AUDIT_GENERATED_(69)
  6
Continuous
 62
     7
100
AcDbCircle
 10
245.2152412186
 20
577.4492686134
 30
0.0
 40
0.4590445277524692
100
AcDbArc
 50
37.5076766513
 51
83.2894131027
  0
ARC
  5
219
330
1FC
100
AcDbEntity
  8
$DDT_AUDIT_GENERATED_(69)
  6
Continuous
 62
     7
100
AcDbCircle
 10
200.4555043735
 20
577.3117713569
 30
0.0
 40
0.4570979055558067
100
AcDbArc
 50
96.9266303751
 51
132.8044792031
  0
SPLINE
  5
21A
330
1FC
100
AcDbEntity
  8
$DDT_AUDIT_GENERATED_(69)
  6
Continuous
 62
     7
100
AcDbSpline
210
0.0
220
0.0
230
1.0
 70
     8
 71
     3
 72
    14
 73
    10
 74
     0
 42
0.0000000005776102
 43
0.0000000001
 40
0.5003084324216871
 40
0.5003084324216871
 40
0.5003084324216871
 40
0.5003084324216871
 40
0.625
 40
0.625
 40
0.75
 40
0.75
 40
0.875
 40
0.875
 40
1.0
 40
1.0
 40
1.0
 40
1.0
 10
305.4230313412473
 20
572.3211976780041
 30
0.0
 10
305.4227493648092
 20
572.3192738740952
 30
0.0
 10
305.3409637306598
 20
571.8547302317436
 30
0.0
 10
305.0611374622899
 20
570.2680706317465
 30
0.0
 10
304.8671709432898
 20
569.1693630892722
 30
0.0
 10
304.4754916927199
 20
566.9543765689773
 30
0.0
 10
304.2801201517533
 20
565.8513539090931
 30
0.0
 10
304.0006360732655
 20
564.2750552662949
 30
0.0
 10
303.9166866629724
 20
563.8023962912886
 30
0.0
 10
303.9166280562184
 20
563.8023913073699
 30
0.0
  0
LINE
  5
21B
330
1FC
100
AcDbEntity
  8
$DDT_AUDIT_GENERATED_(69)
  6
Continuous
 62
     7
100
AcDbLine
 10
246.3957691001
 20
573.4770672677
 30
0.0
 11
246.7820138381
 21
575.9156077558
 31
0.0
  0
LINE
  5
21C
330
1FC
100
AcDbEntity
  8
$DDT_AUDIT_GENERATED_(69)
  6
Continuous
 62
     7
100
AcDbLine
 10
244.7326557422
 20
562.9770685357
 30
0.0
 11
244.5927213864
 21
562.0935986556
 31
0.0
  0
ARC
  5
21D
330
1FC
100
AcDbEntity
  8
$DDT_AUDIT_GENERATED_(69)
  6
Continuous
 62
     7
100
AcDbCircle
 10
246.8896126976
 20
573.3988465459
 30
0.0
 40
0.4999999801838083
100
AcDbArc
 50
170.9995948045
 51
270.0000015629
  0
ARC
  5
21E
330
1FC
100
AcDbEntity
  8
$DDT_AUDIT_GENERATED_(69)
  6
Continuous
 62
     7
100
AcDbCircle
 10
245.2264993343
 20
562.8988477762
 30
0.0
 40
0.4999999365941924
100
AcDbArc
 50
89.9999978083
 51
170.9995904583
  0
LINE
  5
21F
330
1FC
100
AcDbEntity
  8
$DDT_AUDIT_GENERATED_(69)
  6
Continuous
 62
     7
100
AcDbLine
 10
243.4582083895
 20
554.9308968632
 30
0.0
 11
243.054658395
 21
552.3831003404
 31
0.0
  0
LINE
  5
220
330
1FC
100
AcDbEntity
  8
$DDT_AUDIT_GENERATED_(69)
  6
Continuous
 62
     7
100
AcDbLine
 10
241.4871043622
 20
542.4864115306
 30
0.0
 11
243.054658395
 21
552.3831003404
 31
0.0
  0
LINE
  5
221
330
1FC
100
AcDbEntity
  8
$DDT_AUDIT_GENERATED_(69)
  6
Continuous
 62
     7
100
AcDbLine
 10
241.2548372821
 20
542.320738285
 30
0.0
 11
194.0995169515
 21
550.6354935432
 31
0.0
  0
SPLINE
  5
222
330
1FC
100
AcDbEntity
  8
$DDT_AUDIT_GENERATED_(69)
  6
Continuous
 62
     7
100
AcDbSpline
210
0.0
220
0.0
230
1.0
 70
     8
 71
     3
 72
    10
 73
     6
 74
     0
 42
0.0000000306896768
 43
0.0000000001
 40
0.0
 40
0.0
 40
0.0
 40
0.0
 40
0.5
 40
0.5
 40
1.0
 40
1.0
 40
1.0
 40
1.0
 10
241.4871043621504
 20
542.486411530613
 30
0.0
 10
241.4788221263463
 20
542.4341219707749
 30
0.0
 10
241.4488074648658
 20
542.3856193993895
 30
0.0
 10
241.3626063889228
 20
542.3241332342943
 30
0.0
 10
241.3069743987891
 20
542.3115451046253
 30
0.0
 10
241.254837282137
 20
542.3207382849874
 30
0.0
  0
SPLINE
  5
223
330
1FC
100
AcDbEntity
  8
$DDT_AUDIT_GENERATED_(69)
  6
Continuous
 62
     7
100
AcDbSpline
210
0.0
220
0.0
230
1.0
 70
     8
 71
     3
 72
    10
 73
     6
 74
     0
 42
0.0000000306897671
 43
0.0000000001
 40
0.0
 40
0.0
 40
0.0
 40
0.0
 40
0.5000000000000001
 40
0.5000000000000001
 40
1.0
 40
1.0
 40
1.0
 40
1.0
 10
194.0995169514754
 20
550.6354935432336
 30
0.0
 10
194.0473799810209
 20
550.6446866978171
 30
0.0
 10
193.9994085234545
 20
550.6755427794807
 30
0.0
 10
193.939435489345
 20
550.7628030012154
 30
0.0
 10
193.9278196404914
 20
550.8186459109899
 30
0.0
 10
193.9379207076008
 20
550.8706146152517
 30
0.0
  0
ARC
  5
224
330
1FC
100
AcDbEntity
  8
$DDT_AUDIT_GENERATED_(69)
  6
Continuous
 62
     7
100
AcDbCircle
 10
223.4354984771
 20
384.7605660738
 30
0.0
 40
194.3747257569171
100
AcDbArc
 50
83.5507008673
 51
96.8060093538
  0
LINE
  5
225
330
1FC
100
AcDbEntity
  8
$DDT_AUDIT_GENERATED_(69)
  6
Continuous
 62
     7
100
AcDbLine
 10
304.925824996
 20
572.8988471393
 30
0.0
 11
246.8894620955
 21
572.8988471393
 31
0.0
  0
LINE
  5
226
330
1FC
100
AcDbEntity
  8
$DDT_AUDIT_GENERATED_(69)
  6
Continuous
 62
     7
100
AcDbLine
 10
245.2265210479
 20
563.3988471393
 30
0.0
 11
303.4260200607
 21
563.3988471393
 31
0.0
  0
SPLINE
  5
227
330
1FC
100
AcDbEntity
  8
$DDT_AUDIT_GENERATED_(69)
  6
Continuous
 62
     7
100
AcDbSpline
210
0.0
220
0.0
230
1.0
 70
     8
 71
     3
 72
    12
 73
     8
 74
     0
 42
0.0000000143077915
 43
0.0000000001
 40
0.0
 40
0.0
 40
0.0
 40
0.0
 40
0.178856009538302
 40
0.3965681291247841
 40
0.6436160730769089
 40
0.9065121912079029
 40
1.0
 40
1.0
 40
1.0
 40
1.0
 10
305.4150503809341
 20
572.4973659134284
 30
0.0
 10
305.4051888568954
 20
572.5412771142068
 30
0.0
 10
305.3849382181762
 20
572.6241371948245
 30
0.0
 10
305.2963838421797
 20
572.7503198272448
 30
0.0
 10
305.1643300642372
 20
572.8499388707469
 30
0.0
 10
305.0251801576057
 20
572.9014326955461
 30
0.0
 10
304.9484078955651
 20
572.8938153011628
 30
0.0
 10
304.9250220082279
 20
572.8912690482683
 30
0.0
  0
ARC
  5
228
330
1FC
100
AcDbEntity
  8
$DDT_AUDIT_GENERATED_(69)
  6
Continuous
 62
     7
100
AcDbCircle
 10
303.444444915
 20
563.8723871319
 30
0.0
 40
0.4680624745264213
100
AcDbArc
 50
291.1729580777
 51
327.5229920208
  0
LINE
  5
229
330
1FC
100
AcDbEntity
  8
$DDT_AUDIT_GENERATED_(7A)
  6
Continuous
 62
     7
100
AcDbLine
 10
244.6633549824
 20
562.0503143324
 30
0.0
 11
243.9275516077
 21
554.4087041136
 31
0.0
  0
LINE
  5
22A
330
1FC
100
AcDbEntity
  8
$DDT_AUDIT_GENERATED_(7A)
  6
Continuous
 62
     7
100
AcDbLine
 10
243.453227057
 20
554.6993705721
 30
0.0
 11
243.9275516077
 21
554.4087041136
 31
0.0
  0
LINE
  5
22B
330
1FC
100
AcDbEntity
  8
$DDT_AUDIT_GENERATED_(7A)
  6
Continuous
 62
     7
100
AcDbLine
 10
243.4583444551
 20
554.9308001659
 30
0.0
 11
243.4745546911
 21
554.9208665205
 31
0.0
  0
LINE
  5
22C
330
1FC
100
AcDbEntity
  8
$DDT_AUDIT_GENERATED_(7E)
  6
Continuous
 62
     7
100
AcDbLine
 10
312.3788400823
 20
486.1781279499
 30
0.0
 11
332.2533390119
 21
493.4118539813
 31
0.0
  0
LINE
  5
22D
330
1FC
100
AcDbEntity
  8
$DDT_AUDIT_GENERATED_(7E)
  6
Continuous
 62
     7
100
AcDbLine
 10
332.8510114894
 20
494.6935667454
 30
0.0
 11
331.8413592104
 21
497.4675635835
 31
0.0
  0
LINE
  5
22E
330
1FC
100
AcDbEntity
  8
$DDT_AUDIT_GENERATED_(7E)
  6
Continuous
 62
     7
100
AcDbLine
 10
307.1181580339
 20
497.7079286888
 30
0.0
 11
311.0971273182
 21
486.7758004274
 31
0.0
  0
ARC
  5
22F
330
1FC
100
AcDbEntity
  8
$DDT_AUDIT_GENERATED_(7E)
  6
Continuous
 62
     7
100
AcDbCircle
 10
331.9113188686
 20
494.3515466021
 30
0.0
 40
0.9999999999999979
100
AcDbArc
 50
290.0
 51
20.0
  0
ARC
  5
230
330
1FC
100
AcDbEntity
  8
$DDT_AUDIT_GENERATED_(7E)
  6
Continuous
 62
     7
100
AcDbCircle
 10
312.036819939
 20
487.1178205707
 30
0.0
 40
0.9999999999999931
100
AcDbArc
 50
200.0
 51
290.0
  0
LINE
  5
231
330
1FC
100
AcDbEntity
  8
$DDT_AUDIT_GENERATED_(85)
  6
Continuous
 62
     7
100
AcDbLine
 10
315.0724982321
 20
485.3494371245
 30
0.0
 11
330.7225493494
 21
491.045589896
 31
0.0
  0
LINE
  5
232
330
1FC
100
AcDbEntity
  8
$DDT_AUDIT_GENERATED_(85)
  6
Continuous
 62
     7
100
AcDbLine
 10
327.6438190068
 20
491.5212903507
 30
0.0
 11
327.5599815176
 21
491.4907760001
 31
0.0
  0
LINE
  5
233
330
1FC
100
AcDbEntity
  8
$DDT_AUDIT_GENERATED_(85)
  6
Continuous
 62
     7
100
AcDbLine
 10
330.9969187053
 20
492.7417188334
 30
0.0
 11
330.878354591
 21
492.698565025
 31
0.0
  0
SPLINE
  5
234
330
1FC
100
AcDbEntity
  8
$DDT_AUDIT_GENERATED_(85)
  6
Continuous
 62
     7
100
AcDbSpline
210
0.0
220
0.0
230
1.0
 70
     8
 71
     3
 72
    20
 73
    16
 74
     0
 42
0.0000000630965777
 43
0.0000000001
 40
0.0
 40
0.0
 40
0.0
 40
0.0
 40
0.2174093870011324
 40
0.2174093870011324
 40
0.2174093870011324
 40
0.4348768202247565
 40
0.4348768202247565
 40
0.4348768202247565
 40
0.6514121854905272
 40
0.6514121854905272
 40
0.6514121854905272
 40
0.8660380396115381
 40
0.8660380396115381
 40
0.8660380396115381
 40
1.0
 40
1.0
 40
1.0
 40
1.0
 10
330.9969187052647
 20
492.7417188334234
 30
0.0
 10
331.0076058016865
 20
492.7456086184117
 30
0.0
 10
331.0177707890725
 20
492.751391817134
 30
0.0
 10
331.0265710897817
 20
492.758595924616
 30
0.0
 10
331.0353727017525
 20
492.7658011055236
 30
0.0
 10
331.0430525070508
 20
492.7746285534604
 30
0.0
 10
331.048957745364
 20
492.7843502387907
 30
0.0
 10
331.0548373964558
 20
492.7940298003486
 30
0.0
 10
331.0591205455065
 20
492.8048668448075
 30
0.0
 10
331.0614305948963
 20
492.8159541294494
 30
0.0
 10
331.0637205028539
 20
492.8269447435212
 30
0.0
 10
331.0641345317395
 20
492.8384879166835
 30
0.0
 10
331.0626264069116
 20
492.8496127913179
 30
0.0
 10
331.0616767552627
 20
492.8566180175082
 30
0.0
 10
331.0599643080092
 20
492.8635603393058
 30
0.0
 10
331.0575464642902
 20
492.8702033103265
 30
0.0
  0
LINE
  5
235
330
1FC
100
AcDbEntity
  8
$DDT_AUDIT_GENERATED_(85)
  6
Continuous
 62
     7
100
AcDbLine
 10
331.02334445
 20
492.9641725724
 30
0.0
 11
331.0575464643
 21
492.8702033103
 31
0.0
  0
LINE
  5
236
330
1FC
100
AcDbEntity
  8
$DDT_AUDIT_GENERATED_(85)
  6
Continuous
 62
     7
100
AcDbLine
 10
313.6430366586
 20
486.5318400967
 30
0.0
 11
313.6088346443
 21
486.6258093588
 31
0.0
  0
SPLINE
  5
237
330
1FC
100
AcDbEntity
  8
$DDT_AUDIT_GENERATED_(85)
  6
Continuous
 62
     7
100
AcDbSpline
210
0.0
220
0.0
230
1.0
 70
     8
 71
     3
 72
    20
 73
    16
 74
     0
 42
0.0000000631015441
 43
0.0000000001
 40
0.0
 40
0.0
 40
0.0
 40
0.0
 40
0.2125265405902813
 40
0.2125265405902813
 40
0.2125265405902813
 40
0.4250001490955159
 40
0.4250001490955159
 40
0.4250001490955159
 40
0.63831211777819
 40
0.63831211777819
 40
0.63831211777819
 40
0.853467134590417
 40
0.853467134590417
 40
0.853467134590417
 40
1.0
 40
1.0
 40
1.0
 40
1.0
 10
313.6430366586026
 20
486.5318400967193
 30
0.0
 10
313.6468390592443
 20
486.5213930868166
 30
0.0
 10
313.6525026349572
 20
486.5114604078963
 30
0.0
 10
313.6595525630559
 20
486.5028640842431
 30
0.0
 10
313.666601513414
 20
486.4942689527971
 30
0.0
 10
313.6752288528335
 20
486.4867731828717
 30
0.0
 10
313.6847171566949
 20
486.4809821488051
 30
0.0
 10
313.6942433884627
 20
486.475167966049
 30
0.0
 10
313.7048964635222
 20
486.4709123330963
 30
0.0
 10
313.7158032342714
 20
486.4685467116895
 30
0.0
 10
313.7268032837309
 20
486.4661608586193
 30
0.0
 10
313.7383612127376
 20
486.4656314976288
 30
0.0
 10
313.7495347698744
 20
486.4669898068335
 30
0.0
 10
313.7572019254493
 20
486.4679218616718
 30
0.0
 10
313.7648106361319
 20
486.4697444225998
 30
0.0
 10
313.7720684462933
 20
486.4723860494653
 30
0.0
  0
LINE
  5
238
330
1FC
100
AcDbEntity
  8
$DDT_AUDIT_GENERATED_(85)
  6
Continuous
 62
     7
100
AcDbLine
 10
313.8906325606
 20
486.5155398579
 30
0.0
 11
313.7720684463
 21
486.4723860495
 31
0.0
  0
LINE
  5
239
330
1FC
100
AcDbEntity
  8
$DDT_AUDIT_GENERATED_(85)
  6
Continuous
 62
     7
100
AcDbLine
 10
317.2090056339
 20
487.7233288828
 30
0.0
 11
317.1251681447
 21
487.6928145322
 31
0.0
  0
LINE
  5
23A
330
1FC
100
AcDbEntity
  8
$DDT_AUDIT_GENERATED_(85)
  6
Continuous
 62
     7
100
AcDbLine
 10
330.878354591
 20
492.698565025
 30
0.0
 11
329.3186883919
 21
492.1308929531
 31
0.0
  0
LINE
  5
23B
330
1FC
100
AcDbEntity
  8
$DDT_AUDIT_GENERATED_(85)
  6
Continuous
 62
     7
100
AcDbLine
 10
329.3049765678
 20
492.1259022573
 30
0.0
 11
327.6438190068
 21
491.5212903507
 31
0.0
  0
LINE
  5
23C
330
1FC
100
AcDbEntity
  8
$DDT_AUDIT_GENERATED_(85)
  6
Continuous
 62
     7
100
AcDbLine
 10
327.5599815176
 20
491.4907760001
 30
0.0
 11
323.5591093518
 21
490.0345776206
 31
0.0
  0
LINE
  5
23D
330
1FC
100
AcDbEntity
  8
$DDT_AUDIT_GENERATED_(85)
  6
Continuous
 62
     7
100
AcDbLine
 10
323.5591093518
 20
490.0345776206
 30
0.0
 11
321.2098777998
 21
489.1795272623
 31
0.0
  0
LINE
  5
23E
330
1FC
100
AcDbEntity
  8
$DDT_AUDIT_GENERATED_(85)
  6
Continuous
 62
     7
100
AcDbLine
 10
321.2098777998
 20
489.1795272623
 30
0.0
 11
317.2090056339
 21
487.7233288828
 31
0.0
  0
LINE
  5
23F
330
1FC
100
AcDbEntity
  8
$DDT_AUDIT_GENERATED_(85)
  6
Continuous
 62
     7
100
AcDbLine
 10
317.1251681447
 20
487.6928145322
 30
0.0
 11
315.4640105838
 21
487.0882026256
 31
0.0
  0
LINE
  5
240
330
1FC
100
AcDbEntity
  8
$DDT_AUDIT_GENERATED_(85)
  6
Continuous
 62
     7
100
AcDbLine
 10
315.4436990511
 20
487.0808098323
 30
0.0
 11
313.8906325606
 21
486.5155398579
 31
0.0
  0
ARC
  5
241
330
1FC
100
AcDbEntity
  8
$DDT_AUDIT_GENERATED_(85)
  6
Continuous
 62
     7
100
AcDbCircle
 10
330.6883473351
 20
491.1395591581
 30
0.0
 40
0.1000000000000056
100
AcDbArc
 50
290.0
 51
2.0955524938
  0
ARC
  5
242
330
1FC
100
AcDbEntity
  8
$DDT_AUDIT_GENERATED_(85)
  6
Continuous
 62
     7
100
AcDbCircle
 10
315.0382962178
 20
485.4434063866
 30
0.0
 40
0.1000000000000129
100
AcDbArc
 50
217.9044475062
 51
290.0
  0
LINE
  5
243
330
1FC
100
AcDbEntity
  8
$DDT_AUDIT_GENERATED_(85)
  6
Continuous
 62
     7
100
AcDbLine
 10
314.0356860603
 20
486.5683350142
 30
0.0
 11
314.9593925778
 21
485.3819717416
 31
0.0
  0
LINE
  5
244
330
1FC
100
AcDbEntity
  8
$DDT_AUDIT_GENERATED_(85)
  6
Continuous
 62
     7
100
AcDbLine
 10
330.7882804586
 20
491.1432157718
 30
0.0
 11
330.7333010912
 21
492.6457698687
 31
0.0
  0
LINE
  5
246
330
1FC
100
AcDbEntity
  8
DV2_Default
  6
CENTER2
 62
     7
100
AcDbLine
 10
210.1991406205
 20
388.8516733052
 30
0.0
 11
170.1991415146
 21
388.8516733052
 31
0.0
  0
LINE
  5
247
330
1FC
100
AcDbEntity
  8
DV2_Default
  6
CENTER2
 62
     7
100
AcDbLine
 10
190.1991410676
 20
408.8516728582
 30
0.0
 11
190.1991410676
 21
368.8516737522
 31
0.0
  0
ENDBLK
  5
249
330
1FC
100
AcDbEntity
  8
0
100
AcDbBlockEnd
  0
BLOCK
  5
267
330
24A
100
AcDbEntity
  8
0
100
AcDbBlockBegin
  2
SE2
 70
     0
 10
0.0
 20
0.0
 30
0.0
  3
SE2
  1

  0
ELLIPSE
  5
24C
330
24A
100
AcDbEntity
  8
405584038_EHM_WT
  6
Continuous
 62
     7
100
AcDbEllipse
 10
31.35
 20
255.9500717075
 30
0.0
 11
-1.149688444883116E-14
 21
-22.8472713233584
 31
0.0
210
0.0
220
0.0
230
1.0
 40
0.984807753
 41
1.570796326794897
 42
4.71238898038469
  0
SPLINE
  5
24D
330
24A
100
AcDbEntity
  8
405584038_EHM_WT
  6
Continuous
 62
     7
100
AcDbSpline
210
0.0
220
0.0
230
1.0
 70
     8
 71
     3
 72
    10
 73
     6
 74
     0
 42
0.0000000006719033
 43
0.0000000001
 40
0.2499548525459353
 40
0.2499548525459353
 40
0.2499548525459353
 40
0.2499548525459353
 40
0.2500000000000018
 40
0.2500000000000018
 40
0.2504561982108064
 40
0.2504561982108064
 40
0.2504561982108064
 40
0.2504561982108064
 10
16.84989162598704
 20
109.7769363679201
 30
0.0
 10
16.84989159856954
 20
109.7767124115586
 30
0.0
 10
16.84989176619007
 20
109.7764884598007
 30
0.0
 10
16.84989579351535
 20
109.7740016102995
 30
0.0
 10
16.8499193806929
 20
109.7717385482284
 30
0.0
 10
16.84996287736958
 20
109.7694753372106
 30
0.0
  0
LINE
  5
24E
330
24A
100
AcDbEntity
  8
405584038_EHM_WT
  6
Continuous
 62
     7
100
AcDbLine
 10
16.8498916115
 20
204.2748922125
 30
0.0
 11
16.8498916115
 21
109.7769118218
 31
0.0
  0
LINE
  5
24F
330
24A
100
AcDbEntity
  8
405584038_EHM_WT
  6
Continuous
 62
     7
100
AcDbLine
 10
45.8498916115
 20
109.776909906
 30
0.0
 11
45.8498916115
 21
204.2602380117
 31
0.0
  0
SPLINE
  5
250
330
24A
100
AcDbEntity
  8
405584038_EHM_WT
  6
Continuous
 62
     7
100
AcDbSpline
210
0.0
220
0.0
230
1.0
 70
     8
 71
     3
 72
    73
 73
    69
 74
     0
 42
0.0000000003197696
 43
0.0000000001
 40
0.0
 40
0.0
 40
0.0
 40
0.0
 40
0.0009504103316031
 40
0.0109595943059785
 40
0.0208828759948943
 40
0.0309072344300167
 40
0.0412672060785039
 40
0.0521497245022371
 40
0.0642436667614898
 40
0.0779593415134474
 40
0.0937758692810349
 40
0.1117090551794453
 40
0.1307429461495317
 40
0.149472472933191
 40
0.1676635828144541
 40
0.1854033273954976
 40
0.2027899692841525
 40
0.2198921065091253
 40
0.2367542767583057
 40
0.2534059601311506
 40
0.2698681772284836
 40
0.2861574789617067
 40
0.3023026113085874
 40
0.3183662728252203
 40
0.3344707664745862
 40
0.3506160611602392
 40
0.3667977882705327
 40
0.3830078648555215
 40
0.3992353563657168
 40
0.4154647293871501
 40
0.4316797023423513
 40
0.4478659586369869
 40
0.4640100370466834
 40
0.4801000969081013
 40
0.496126598560781
 40
0.5120828787615679
 40
0.5279656079291449
 40
0.5437344764186215
 40
0.5594533131758834
 40
0.5753042377271684
 40
0.5912398885373579
 40
0.6072586939707357
 40
0.6233564407079599
 40
0.6395268879886402
 40
0.6557623016486023
 40
0.6720541044536215
 40
0.6883936412942512
 40
0.7047730597057413
 40
0.7211863124750758
 40
0.7376303035055577
 40
0.7541062249804162
 40
0.7706211799463418
 40
0.7871618866368275
 40
0.8036607315351985
 40
0.8205956786510181
 40
0.8377233142628654
 40
0.8551277488659598
 40
0.8729160306986017
 40
0.8912163988113143
 40
0.9101156997013986
 40
0.9262582006302321
 40
0.9403182166753387
 40
0.9527050777270981
 40
0.9639224462428886
 40
0.9743577136641903
 40
0.9843046248860122
 40
0.9949521872155367
 40
1.0
 40
1.0
 40
1.0
 40
1.0
 10
16.85434616005214
 20
109.7703057420954
 30
0.0
 10
16.85374999669942
 20
109.7624267181146
 30
0.0
 10
16.84791780694706
 20
109.6843013227665
 30
0.0
 10
16.8706273650508
 20
109.5193821878151
 30
0.0
 10
16.9241637984776
 20
109.3041771989318
 30
0.0
 10
17.01156017767379
 20
109.1008404602545
 30
0.0
 10
17.12338953265847
 20
108.9153954262616
 30
0.0
 10
17.25906669109991
 20
108.7433977918067
 30
0.0
 10
17.42191065503452
 20
108.5791804220097
 30
0.0
 10
17.62000506559381
 20
108.4172578327542
 30
0.0
 10
17.86242917546398
 20
108.2548633927038
 30
0.0
 10
18.15482867550037
 20
108.093078858059
 30
0.0
 10
18.49282522210444
 20
107.9367439669359
 30
0.0
 10
18.86524936595066
 20
107.7900935144727
 30
0.0
 10
19.26201877705528
 20
107.6546036535287
 30
0.0
 10
19.68111830568831
 20
107.5287617330507
 30
0.0
 10
20.12265871268402
 20
107.4110568300763
 30
0.0
 10
20.5866475648965
 20
107.300526734951
 30
0.0
 10
21.07268095740531
 20
107.1966220280088
 30
0.0
 10
21.58002254784635
 20
107.0990501062756
 30
0.0
 10
22.1076786367663
 20
107.0076605772339
 30
0.0
 10
22.65475431147622
 20
106.9223925015499
 30
0.0
 10
23.22050306535408
 20
106.8430613228633
 30
0.0
 10
23.80554817454752
 20
106.7692662241648
 30
0.0
 10
24.41036517874126
 20
106.7008852838776
 30
0.0
 10
25.03488342881771
 20
106.6379315854119
 30
0.0
 10
25.67738436576245
 20
106.5806243134368
 30
0.0
 10
26.33595450083164
 20
106.5291867292962
 30
0.0
 10
27.00846836592012
 20
106.4838426239775
 30
0.0
 10
27.69262343740628
 20
106.4448051193591
 30
0.0
 10
28.3860069308798
 20
106.4122669820533
 30
0.0
 10
29.0861803913342
 20
106.3863940705682
 30
0.0
 10
29.79072345798976
 20
106.3673239519217
 30
0.0
 10
30.49724798622586
 20
106.3551650580504
 30
0.0
 10
31.20343751549838
 20
106.35
 30
0.0
 10
31.90707873868481
 20
106.351874902313
 30
0.0
 10
32.60550384498587
 20
106.360839540988
 30
0.0
 10
33.29705381953032
 20
106.3767848294195
 30
0.0
 10
33.98294119199257
 20
106.3990885541936
 30
0.0
 10
34.66424034356037
 20
106.427861742702
 30
0.0
 10
35.34099672712389
 20
106.4631135491754
 30
0.0
 10
36.01060776118937
 20
106.5047605150059
 30
0.0
 10
36.6710841378397
 20
106.5527178284606
 30
0.0
 10
37.32038122417232
 20
106.6068827577054
 30
0.0
 10
37.95643296519675
 20
106.667132138948
 30
0.0
 10
38.57718727023429
 20
106.7333260527075
 30
0.0
 10
39.18064390794039
 20
106.8053122741888
 30
0.0
 10
39.7648953511686
 20
106.882933784576
 30
0.0
 10
40.3281642022934
 20
106.9660385548901
 30
0.0
 10
40.86885683484626
 20
107.0544964223315
 30
0.0
 10
41.3855577774851
 20
107.1482107467146
 30
0.0
 10
41.87696768468482
 20
107.2471231952323
 30
0.0
 10
42.34076824912783
 20
107.3509827437736
 30
0.0
 10
42.7808435696037
 20
107.4605915197443
 30
0.0
 10
43.19731015364096
 20
107.5766662839608
 30
0.0
 10
43.5911951580088
 20
107.700490893106
 30
0.0
 10
43.96093166417702
 20
107.8328670635548
 30
0.0
 10
44.30794553766567
 20
107.9762542200436
 30
0.0
 10
44.63351677086603
 20
108.134465962227
 30
0.0
 10
44.92142118535969
 20
108.3032816056281
 30
0.0
 10
45.16488912421589
 20
108.4797832042229
 30
0.0
 10
45.35973691549828
 20
108.6555523755639
 30
0.0
 10
45.51772296512242
 20
108.8354186432663
 30
0.0
 10
45.64438889495371
 20
109.0223175366798
 30
0.0
 10
45.7427539302977
 20
109.2194499172846
 30
0.0
 10
45.81209703582287
 20
109.4311881263979
 30
0.0
 10
45.84827859085025
 20
109.625179829973
 30
0.0
 10
45.84591343630937
 20
109.7353911272918
 30
0.0
 10
45.8447981212469
 20
109.7771596287995
 30
0.0
  0
LINE
  5
251
330
24A
100
AcDbEntity
  8
405584038_EHM_WT
  6
Continuous
 62
     7
100
AcDbLine
 10
53.8501699344
 20
236.9949543887
 30
0.0
 11
53.8501699344
 21
255.9500717075
 31
0.0
  0
LINE
  5
252
330
24A
100
AcDbEntity
  8
405584038_EHM_WT
  6
Continuous
 62
     7
100
AcDbLine
 10
8.8498300656
 20
255.9500717075
 30
0.0
 11
8.8498300656
 21
236.9543231493
 31
0.0
  0
ARC
  5
253
330
24A
100
AcDbEntity
  8
$DDT_AUDIT_GENERATED_(69)
  6
Continuous
 62
     7
100
AcDbCircle
 10
31.3301638957
 20
223.3117100143
 30
0.0
 40
23.94451545942682
100
AcDbArc
 50
152.8849490957
 51
213.6304237659
  0
ARC
  5
254
330
24A
100
AcDbEntity
  8
$DDT_AUDIT_GENERATED_(69)
  6
Continuous
 62
     7
100
AcDbCircle
 10
31.375571328
 20
223.2869745369
 30
0.0
 40
23.83274474856778
100
AcDbArc
 50
269.95993777
 51
90.0401880622
  0
ARC
  5
255
330
24A
100
AcDbEntity
  8
$DDT_AUDIT_GENERATED_(69)
  6
Continuous
 62
     7
100
AcDbCircle
 10
31.3364322876
 20
223.2869728882
 30
0.0
 40
23.83273748726965
100
AcDbArc
 50
89.9676548492
 51
270.0323451573
  0
ARC
  5
256
330
24A
100
AcDbEntity
  8
$DDT_AUDIT_GENERATED_(69)
  6
Continuous
 62
     7
100
AcDbCircle
 10
31.3817890334
 20
223.3117116884
 30
0.0
 40
23.94452398907442
100
AcDbArc
 50
326.1600003878
 51
27.3974576793
  0
ARC
  5
257
330
24A
100
AcDbEntity
  8
$DDT_AUDIT_GENERATED_(69)
  6
Continuous
 62
     7
100
AcDbCircle
 10
31.7030920788
 20
228.4367002402
 30
0.0
 40
23.77708766326676
100
AcDbArc
 50
358.3392490081
 51
90.8301758994
  0
ARC
  5
258
330
24A
100
AcDbEntity
  8
$DDT_AUDIT_GENERATED_(69)
  6
Continuous
 62
     7
100
AcDbCircle
 10
31.0138525579
 20
228.4367002402
 30
0.0
 40
23.77709109514842
100
AcDbArc
 50
89.1692535827
 51
181.6602452004
  0
LINE
  5
259
330
24A
100
AcDbEntity
  8
$DDT_AUDIT_GENERATED_(69)
  6
Continuous
 62
     7
100
AcDbLine
 10
7.2507485898
 20
227.7478178905
 30
0.0
 11
7.3997000876
 21
222.6711207987
 31
0.0
  0
LINE
  5
25A
330
24A
100
AcDbEntity
  8
$DDT_AUDIT_GENERATED_(69)
  6
Continuous
 62
     7
100
AcDbLine
 10
55.3175792256
 20
222.6744573162
 30
0.0
 11
55.4664328415
 21
227.7478182838
 31
0.0
  0
ARC
  5
25B
330
24A
100
AcDbEntity
  8
$DDT_AUDIT_GENERATED_(69)
  6
Continuous
 62
     7
100
AcDbCircle
 10
31.3819144773
 20
223.3205825262
 30
0.0
 40
23.96201751754572
100
AcDbArc
 50
213.5790751253
 51
269.923235557
  0
ARC
  5
25C
330
24A
100
AcDbEntity
  8
$DDT_AUDIT_GENERATED_(69)
  6
Continuous
 62
     7
100
AcDbCircle
 10
31.3261441986
 20
223.3300051109
 30
0.0
 40
23.97219071763192
100
AcDbArc
 50
270.0779822701
 51
326.1983023744
  0
LINE
  5
25D
330
24A
100
AcDbEntity
  8
$DDT_AUDIT_GENERATED_(69)
  6
Continuous
 62
     7
100
AcDbLine
 10
36.1111707305
 20
141.9705690283
 30
0.0
 11
36.1111707305
 21
199.8467386689
 31
0.0
  0
LINE
  5
25E
330
24A
100
AcDbEntity
  8
$DDT_AUDIT_GENERATED_(69)
  6
Continuous
 62
     7
100
AcDbLine
 10
26.6111707305
 20
199.8415967928
 30
0.0
 11
26.6111707305
 21
141.970111889
 31
0.0
  0
SPLINE
  5
25F
330
24A
100
AcDbEntity
  8
$DDT_AUDIT_GENERATED_(69)
  6
Continuous
 62
     7
100
AcDbSpline
210
0.0
220
0.0
230
1.0
 70
     8
 71
     3
 72
    46
 73
    42
 74
     0
 42
0.0000000009592482
 43
0.0000000001
 40
0.0
 40
0.0
 40
0.0
 40
0.0
 40
0.015268661126301
 40
0.0312555209698041
 40
0.0474883578798047
 40
0.0648868290953909
 40
0.0846817064058308
 40
0.1086585692204351
 40
0.1388809782648776
 40
0.1699005716777642
 40
0.1992568043017257
 40
0.2302793171098089
 40
0.2601172612015507
 40
0.289112905006531
 40
0.317926241459891
 40
0.3466557195002521
 40
0.3753136257531627
 40
0.4038761017440739
 40
0.4323053773679756
 40
0.4605668997005621
 40
0.4886425248406637
 40
0.5163880051366644
 40
0.544011654210126
 40
0.5719372298640222
 40
0.6001352872294092
 40
0.6285577002238077
 40
0.657144931841861
 40
0.6858399487733046
 40
0.7146053541030364
 40
0.7434144682986055
 40
0.7721421715777176
 40
0.8013503221423317
 40
0.8315149812904904
 40
0.8630080712299926
 40
0.8965710521900875
 40
0.9216122343607809
 40
0.9415082058871796
 40
0.9589798207201822
 40
0.975102956026378
 40
0.9906117428411514
 40
1.0
 40
1.0
 40
1.0
 40
1.0
 10
26.61246940071285
 20
141.9676444920117
 30
0.0
 10
26.61537873813876
 20
141.9156785811981
 30
0.0
 10
26.6212891001805
 20
141.8264382833521
 30
0.0
 10
26.67113475561661
 20
141.6909225345531
 30
0.0
 10
26.7414744727709
 20
141.5754532725184
 30
0.0
 10
26.83064365208106
 20
141.4748134958352
 30
0.0
 10
26.94000842878839
 20
141.384081019128
 30
0.0
 10
27.08042321576117
 20
141.2962082539217
 30
0.0
 10
27.25700079419111
 20
141.2126386812645
 30
0.0
 10
27.46872565531277
 20
141.1352871023546
 30
0.0
 10
27.70980962174376
 20
141.064987200832
 30
0.0
 10
27.97639216302558
 20
141.0019006613733
 30
0.0
 10
28.27083543916673
 20
140.9450629791546
 30
0.0
 10
28.58372282195281
 20
140.8953429913519
 30
0.0
 10
28.91540154880118
 20
140.8518401620614
 30
0.0
 10
29.265908276846
 20
140.8142204159707
 30
0.0
 10
29.63275718064609
 20
140.7825947947879
 30
0.0
 10
30.01278310706687
 20
140.7571524280646
 30
0.0
 10
30.40245328810885
 20
140.7380778085422
 30
0.0
 10
30.79809747291519
 20
140.7255174822656
 30
0.0
 10
31.19540994737032
 20
140.7195641306985
 30
0.0
 10
31.59109784295825
 20
140.7202332716602
 30
0.0
 10
31.98404926964994
 20
140.7272996462832
 30
0.0
 10
32.37391794072384
 20
140.7406870603384
 30
0.0
 10
32.75908554171578
 20
140.7604242034392
 30
0.0
 10
33.13569443717272
 20
140.786446708677
 30
0.0
 10
33.499829456553
 20
140.8186366447885
 30
0.0
 10
33.84772853477548
 20
140.8568442629623
 30
0.0
 10
34.17594321267773
 20
140.9009023734385
 30
0.0
 10
34.48099824291447
 20
140.950662830766
 30
0.0
 10
34.76205621962034
 20
141.0061829499766
 30
0.0
 10
35.02081838010739
 20
141.0680709568834
 30
0.0
 10
35.25966520897892
 20
141.1380475912263
 30
0.0
 10
35.48108500941057
 20
141.2195791004388
 30
0.0
 10
35.66565905977631
 20
141.3089039033551
 30
0.0
 10
35.81283774021517
 20
141.40622684012
 30
0.0
 10
35.92307810178411
 20
141.5057100511981
 30
0.0
 10
36.00994256155314
 20
141.6158723731174
 30
0.0
 10
36.07273568407715
 20
141.7401211153326
 30
0.0
 10
36.10870780267027
 20
141.8654663165788
 30
0.0
 10
36.10718880842335
 20
141.9377067893291
 30
0.0
 10
36.10627801911497
 20
141.9699251268536
 30
0.0
  0
LINE
  5
261
330
24A
100
AcDbEntity
  8
DV3_Default
  6
CENTER2
 62
     7
100
AcDbLine
 10
31.35
 20
235.9500721546
 30
0.0
 11
31.35
 21
275.9500712605
 31
0.0
  0
LINE
  5
262
330
24A
100
AcDbEntity
  8
DV3_Default
  6
CENTER2
 62
     7
100
AcDbLine
 10
51.349999553
 20
255.9500717075
 30
0.0
 11
11.350000447
 21
255.9500717075
 31
0.0
  0
LINE
  5
263
330
24A
100
AcDbEntity
  8
DV3_Default
  6
CENTER2
 62
     7
100
AcDbLine
 10
31.35
 20
230.9500722663
 30
0.0
 11
31.35
 21
229.6028003842
 31
0.0
  0
LINE
  5
264
330
24A
100
AcDbEntity
  8
DV3_Default
  6
CENTER2
 62
     7
100
AcDbLine
 10
56.3499994412
 20
255.9500717075
 30
0.0
 11
57.3501699344
 21
255.9500717075
 31
0.0
  0
LINE
  5
265
330
24A
100
AcDbEntity
  8
DV3_Default
  6
CENTER2
 62
     7
100
AcDbLine
 10
31.35
 20
280.9500711487
 30
0.0
 11
31.35
 21
282.2973430309
 31
0.0
  0
LINE
  5
266
330
24A
100
AcDbEntity
  8
DV3_Default
  6
CENTER2
 62
     7
100
AcDbLine
 10
6.3500005588
 20
255.9500717075
 30
0.0
 11
5.3498300656
 21
255.9500717075
 31
0.0
  0
ENDBLK
  5
268
330
24A
100
AcDbEntity
  8
0
100
AcDbBlockEnd
  0
ENDSEC
  0
SECTION
  2
ENTITIES
  0
INSERT
  5
5F
330
1F
100
AcDbEntity
  8
Default
100
AcDbBlockReference
  2
SE
 10
0.0
 20
0.0
 30
0.0
  0
INSERT
  5
1FD
330
1F
100
AcDbEntity
  8
Default
100
AcDbBlockReference
  2
SE1
 10
0.0
 20
0.0
 30
0.0
  0
INSERT
  5
24B
330
1F
100
AcDbEntity
  8
Default
100
AcDbBlockReference
  2
SE2
 10
0.0
 20
0.0
 30
0.0
  0
TEXT
  5
26A
330
1F
100
AcDbEntity
  8
Default
  6
Continuous
 62
     7
100
AcDbText
 10
5.9362635081
 20
53.4225120485
 30
0.0
 40
10.0
  1
Grohe AG^J
  7
SEACAD_seiso_ttf
 11
5.9362635081
 21
63.4225120485
 31
0.0
100
AcDbText
 73
     3
  0
TEXT
  5
26B
330
1F
100
AcDbEntity
  8
Default
  6
Continuous
 62
     7
100
AcDbText
 10
5.9362635081
 20
37.0588756849
 30
0.0
 40
10.0
  1
 
  7
SEACAD_seiso_ttf
 11
5.9362635081
 21
47.0588756849
 31
0.0
100
AcDbText
 73
     3
  0
TEXT
  5
26C
330
1F
100
AcDbEntity
  8
Default
  6
Continuous
 62
     7
100
AcDbText
 10
5.9362635081
 20
20.6952393213
 30
0.0
 40
10.0
  1
ecn:
  7
SEACAD_seiso_ttf
 11
5.9362635081
 21
30.6952393213
 31
0.0
100
AcDbText
 73
     3
  0
TEXT
  5
26D
330
1F
100
AcDbEntity
  8
Default
  6
Continuous
 62
     7
100
AcDbText
 10
5.9362635081
 20
4.3316029576
 30
0.0
 40
10.0
  1
unit: mm
  7
SEACAD_seiso_ttf
 11
5.9362635081
 21
14.3316029576
 31
0.0
100
AcDbText
 73
     3
  0
LINE
  5
26E
330
1F
100
AcDbEntity
  8
Default
  6
Continuous
 62
     7
100
AcDbLine
 10
0.0
 20
0.0
 30
0.0
 11
100.0
 21
0.0
 31
0.0
  0
LINE
  5
26F
330
1F
100
AcDbEntity
  8
Default
  6
Continuous
 62
     7
100
AcDbLine
 10
0.0
 20
0.0
 30
0.0
 11
0.0
 21
100.0
 31
0.0
  0
TEXT
  5
270
330
1F
100
AcDbEntity
  8
Default
  6
Continuous
 62
     7
100
AcDbText
 10
24.3923665681
 20
-18.2375342018
 30
0.0
 40
10.0
  1
100 mm
  7
SEACAD_seiso_ttf
 11
24.3923665681
 21
-8.2375342018
 31
0.0
100
AcDbText
 73
     3
  0
TEXT
  5
271
330
1F
100
AcDbEntity
  8
Default
  6
Continuous
 62
     7
100
AcDbText
 10
-7.6150308803
 20
24.6231930421
 30
0.0
 40
10.0
  1
100 mm
 50
90.0
  7
SEACAD_seiso_ttf
 11
-17.6150308803
 21
24.6231930421
 31
0.0
100
AcDbText
 73
     3
  0
TEXT
  5
272
330
1F
100
AcDbEntity
  8
Default
  6
Continuous
 62
     7
100
AcDbText
 10
28.4878128572
 20
20.0907663715
 30
0.0
 40
10.0
  1
229897
  7
SEACAD_seiso_ttf
 11
28.4878128572
 21
30.0907663715
 31
0.0
100
AcDbText
 73
     3
  0
TEXT
  5
273
330
1F
100
AcDbEntity
  8
Default
  6
Continuous
 62
     7
100
AcDbText
 10
5.9012241913
 20
36.7242780188
 30
0.0
 40
10.0
  1
23451001
  7
SEACAD_seiso_ttf
 11
5.9012241913
 21
46.7242780188
 31
0.0
100
AcDbText
 73
     3
  0
ENDSEC
  0
SECTION
  2
OBJECTS
  0
DICTIONARY
  5
C
330
0
100
AcDbDictionary
281
     1
  3
ACAD_GROUP
350
D
  3
ACAD_LAYOUT
350
1A
  3
ACAD_MLEADERSTYLE
350
277
  3
ACAD_MLINESTYLE
350
17
  3
ACAD_PLOTSETTINGS
350
19
  3
ACAD_PLOTSTYLENAME
350
E
  3
ACAD_SCALELIST
350
3B
  3
ACAD_TABLESTYLE
350
276
  3
ACAD_VISUALSTYLE
350
2A
  3
AcDbVariableDictionary
350
274
  0
DICTIONARY
  5
D
102
{ACAD_REACTORS
330
C
102
}
330
C
100
AcDbDictionary
281
     1
  0
DICTIONARY
  5
1A
102
{ACAD_REACTORS
330
C
102
}
330
C
100
AcDbDictionary
281
     1
  3
Layout1
350
1E
  3
Model
350
22
  0
DICTIONARY
  5
277
102
{ACAD_REACTORS
330
C
102
}
330
C
100
AcDbDictionary
281
     1
  0
DICTIONARY
  5
17
102
{ACAD_REACTORS
330
C
102
}
330
C
100
AcDbDictionary
281
     1
  3
Standard
350
18
  0
DICTIONARY
  5
19
102
{ACAD_REACTORS
330
C
102
}
330
C
100
AcDbDictionary
281
     1
  0
ACDBDICTIONARYWDFLT
  5
E
102
{ACAD_REACTORS
330
C
102
}
330
C
100
AcDbDictionary
281
     1
  3
Normal
350
F
100
AcDbDictionaryWithDefault
340
F
  0
DICTIONARY
  5
3B
102
{ACAD_REACTORS
330
C
102
}
330
C
100
AcDbDictionary
281
     1
  3
A0
350
3C
  3
A1
350
3D
  3
A2
350
3E
  3
A3
350
3F
  3
A4
350
40
  3
A5
350
41
  3
A6
350
42
  3
A7
350
43
  3
A8
350
44
  3
A9
350
45
  3
B0
350
46
  3
B1
350
47
  3
B2
350
48
  3
B3
350
49
  3
B4
350
4A
  3
B5
350
4B
  3
B6
350
4C
  3
B7
350
4D
  3
B8
350
4E
  3
B9
350
4F
  3
C0
350
50
  3
C1
350
51
  3
C2
350
52
  3
C3
350
53
  3
C4
350
54
  3
C5
350
55
  3
C6
350
56
  3
C7
350
57
  3
C8
350
58
  3
C9
350
59
  3
D0
350
5A
  3
D1
350
5B
  3
D2
350
5C
  0
DICTIONARY
  5
276
102
{ACAD_REACTORS
330
C
102
}
330
C
100
AcDbDictionary
281
     1
  0
DICTIONARY
  5
2A
102
{ACAD_REACTORS
330
C
102
}
330
C
100
AcDbDictionary
281
     1
  3
2dWireframe
350
2F
  3
3D Hidden
350
31
  3
3dWireframe
350
30
  3
Basic
350
32
  3
Brighten
350
36
  3
ColorChange
350
3A
  3
Conceptual
350
34
  3
Dim
350
35
  3
Facepattern
350
39
  3
Flat
350
2B
  3
FlatWithEdges
350
2C
  3
Gouraud
350
2D
  3
GouraudWithEdges
350
2E
  3
Linepattern
350
38
  3
Realistic
350
33
  3
Thicken
350
37
  0
DICTIONARY
  5
274
102
{ACAD_REACTORS
330
C
102
}
330
C
100
AcDbDictionary
281
     1
  3
CANNOSCALE
350
275
  3
PSOLHEIGHT
350
279
  3
PSOLWIDTH
350
278
  0
LAYOUT
  5
1E
102
{ACAD_REACTORS
330
1A
102
}
330
1A
100
AcDbPlotSettings
  1

  2
none_device
  4

  6

 40
0.0
 41
0.0
 42
0.0
 43
0.0
 44
0.0
 45
0.0
 46
0.0
 47
0.0
 48
0.0
 49
0.0
140
0.0
141
0.0
142
1.0
143
1.0
 70
   688
 72
     0
 73
     0
 74
     5
  7

 75
    16
147
1.0
148
0.0
149
0.0
100
AcDbLayout
  1
Layout1
 70
     1
 71
     1
 10
0.0
 20
0.0
 11
3000.0
 21
4500.0
 12
0.0
 22
0.0
 32
0.0
 14
0.0
 24
0.0
 34
0.0
 15
3000.0
 25
4500.0
 35
0.0
146
0.0
 13
0.0
 23
0.0
 33
0.0
 16
1.0
 26
0.0
 36
0.0
 17
0.0
 27
1.0
 37
0.0
 76
     0
330
1B
  0
LAYOUT
  5
22
102
{ACAD_REACTORS
330
1A
102
}
330
1A
100
AcDbPlotSettings
  1

  2
none_device
  4

  6

 40
0.0
 41
0.0
 42
0.0
 43
0.0
 44
0.0
 45
0.0
 46
0.0
 47
0.0
 48
0.0
 49
0.0
140
0.0
141
0.0
142
1.0
143
1.0
 70
  1712
 72
     0
 73
     0
 74
     0
  7

 75
     0
147
1.0
148
0.0
149
0.0
100
AcDbLayout
  1
Model
 70
     1
 71
     0
 10
0.0
 20
0.0
 11
3000.0
 21
4500.0
 12
0.0
 22
0.0
 32
0.0
 14
0.0
 24
0.0
 34
0.0
 15
3000.0
 25
4500.0
 35
0.0
146
0.0
 13
0.0
 23
0.0
 33
0.0
 16
1.0
 26
0.0
 36
0.0
 17
0.0
 27
1.0
 37
0.0
 76
     0
330
1F
331
29
  0
MLINESTYLE
  5
18
102
{ACAD_REACTORS
330
17
102
}
330
17
100
AcDbMlineStyle
  2
Standard
 70
     0
  3

 62
   256
 51
90.0
 52
90.0
 71
     2
 49
0.5
 62
   256
  6
BYLAYER
 49
-0.5
 62
   256
  6
BYLAYER
  0
ACDBPLACEHOLDER
  5
F
102
{ACAD_REACTORS
330
E
102
}
330
E
  0
SCALE
  5
3C
102
{ACAD_REACTORS
330
3B
102
}
330
3B
100
AcDbScale
 70
     0
300
1:1
140
1.0
141
1.0
290
     1
  0
SCALE
  5
3D
102
{ACAD_REACTORS
330
3B
102
}
330
3B
100
AcDbScale
 70
     0
300
1:2
140
1.0
141
2.0
290
     0
  0
SCALE
  5
3E
102
{ACAD_REACTORS
330
3B
102
}
330
3B
100
AcDbScale
 70
     0
300
1:4
140
1.0
141
4.0
290
     0
  0
SCALE
  5
3F
102
{ACAD_REACTORS
330
3B
102
}
330
3B
100
AcDbScale
 70
     0
300
1:5
140
1.0
141
5.0
290
     0
  0
SCALE
  5
40
102
{ACAD_REACTORS
330
3B
102
}
330
3B
100
AcDbScale
 70
     0
300
1:8
140
1.0
141
8.0
290
     0
  0
SCALE
  5
41
102
{ACAD_REACTORS
330
3B
102
}
330
3B
100
AcDbScale
 70
     0
300
1:10
140
1.0
141
10.0
290
     0
  0
SCALE
  5
42
102
{ACAD_REACTORS
330
3B
102
}
330
3B
100
AcDbScale
 70
     0
300
1:16
140
1.0
141
16.0
290
     0
  0
SCALE
  5
43
102
{ACAD_REACTORS
330
3B
102
}
330
3B
100
AcDbScale
 70
     0
300
1:20
140
1.0
141
20.0
290
     0
  0
SCALE
  5
44
102
{ACAD_REACTORS
330
3B
102
}
330
3B
100
AcDbScale
 70
     0
300
1:30
140
1.0
141
30.0
290
     0
  0
SCALE
  5
45
102
{ACAD_REACTORS
330
3B
102
}
330
3B
100
AcDbScale
 70
     0
300
1:40
140
1.0
141
40.0
290
     0
  0
SCALE
  5
46
102
{ACAD_REACTORS
330
3B
102
}
330
3B
100
AcDbScale
 70
     0
300
1:50
140
1.0
141
50.0
290
     0
  0
SCALE
  5
47
102
{ACAD_REACTORS
330
3B
102
}
330
3B
100
AcDbScale
 70
     0
300
1:100
140
1.0
141
100.0
290
     0
  0
SCALE
  5
48
102
{ACAD_REACTORS
330
3B
102
}
330
3B
100
AcDbScale
 70
     0
300
2:1
140
2.0
141
1.0
290
     0
  0
SCALE
  5
49
102
{ACAD_REACTORS
330
3B
102
}
330
3B
100
AcDbScale
 70
     0
300
4:1
140
4.0
141
1.0
290
     0
  0
SCALE
  5
4A
102
{ACAD_REACTORS
330
3B
102
}
330
3B
100
AcDbScale
 70
     0
300
8:1
140
8.0
141
1.0
290
     0
  0
SCALE
  5
4B
102
{ACAD_REACTORS
330
3B
102
}
330
3B
100
AcDbScale
 70
     0
300
10:1
140
10.0
141
1.0
290
     0
  0
SCALE
  5
4C
102
{ACAD_REACTORS
330
3B
102
}
330
3B
100
AcDbScale
 70
     0
300
100:1
140
100.0
141
1.0
290
     0
  0
SCALE
  5
4D
102
{ACAD_REACTORS
330
3B
102
}
330
3B
100
AcDbScale
 70
     0
300
1/128" = 1'-0"
140
0.0078125
141
12.0
290
     0
  0
SCALE
  5
4E
102
{ACAD_REACTORS
330
3B
102
}
330
3B
100
AcDbScale
 70
     0
300
1/64" = 1'-0"
140
0.015625
141
12.0
290
     0
  0
SCALE
  5
4F
102
{ACAD_REACTORS
330
3B
102
}
330
3B
100
AcDbScale
 70
     0
300
1/32" = 1'-0"
140
0.03125
141
12.0
290
     0
  0
SCALE
  5
50
102
{ACAD_REACTORS
330
3B
102
}
330
3B
100
AcDbScale
 70
     0
300
1/16" = 1'-0"
140
0.0625
141
12.0
290
     0
  0
SCALE
  5
51
102
{ACAD_REACTORS
330
3B
102
}
330
3B
100
AcDbScale
 70
     0
300
3/32" = 1'-0"
140
0.09375
141
12.0
290
     0
  0
SCALE
  5
52
102
{ACAD_REACTORS
330
3B
102
}
330
3B
100
AcDbScale
 70
     0
300
1/8" = 1'-0"
140
0.125
141
12.0
290
     0
  0
SCALE
  5
53
102
{ACAD_REACTORS
330
3B
102
}
330
3B
100
AcDbScale
 70
     0
300
3/16" = 1'-0"
140
0.1875
141
12.0
290
     0
  0
SCALE
  5
54
102
{ACAD_REACTORS
330
3B
102
}
330
3B
100
AcDbScale
 70
     0
300
1/4" = 1'-0"
140
0.25
141
12.0
290
     0
  0
SCALE
  5
55
102
{ACAD_REACTORS
330
3B
102
}
330
3B
100
AcDbScale
 70
     0
300
3/8" = 1'-0"
140
0.375
141
12.0
290
     0
  0
SCALE
  5
56
102
{ACAD_REACTORS
330
3B
102
}
330
3B
100
AcDbScale
 70
     0
300
1/2" = 1'-0"
140
0.5
141
12.0
290
     0
  0
SCALE
  5
57
102
{ACAD_REACTORS
330
3B
102
}
330
3B
100
AcDbScale
 70
     0
300
3/4" = 1'-0"
140
0.75
141
12.0
290
     0
  0
SCALE
  5
58
102
{ACAD_REACTORS
330
3B
102
}
330
3B
100
AcDbScale
 70
     0
300
1" = 1'-0"
140
1.0
141
12.0
290
     0
  0
SCALE
  5
59
102
{ACAD_REACTORS
330
3B
102
}
330
3B
100
AcDbScale
 70
     0
300
1-1/2" = 1'-0"
140
1.5
141
12.0
290
     0
  0
SCALE
  5
5A
102
{ACAD_REACTORS
330
3B
102
}
330
3B
100
AcDbScale
 70
     0
300
3" = 1'-0"
140
3.0
141
12.0
290
     0
  0
SCALE
  5
5B
102
{ACAD_REACTORS
330
3B
102
}
330
3B
100
AcDbScale
 70
     0
300
6" = 1'-0"
140
6.0
141
12.0
290
     0
  0
SCALE
  5
5C
102
{ACAD_REACTORS
330
3B
102
}
330
3B
100
AcDbScale
 70
     0
300
1'-0" = 1'-0"
140
12.0
141
12.0
290
     0
  0
VISUALSTYLE
  5
2F
102
{ACAD_REACTORS
330
2A
102
}
330
2A
100
AcDbVisualStyle
  2
2dWireframe
 70
     4
 71
     0
 72
     2
 73
     0
 90
        0
 40
-0.6
 41
-30.0
 62
     5
 63
     7
 74
     1
 91
        4
 64
     7
 65
   257
 75
     1
175
     1
 42
1.0
 92
        0
 66
   257
 43
1.0
 76
     1
 77
     6
 78
     2
 67
     7
 79
     5
170
     0
171
     0
290
     0
174
     0
 93
        1
 44
0.0
173
     0
291
     0
 45
0.0
1001
ACAD
1000
AcDbSavedByObjectVersion
1070
     0
  0
VISUALSTYLE
  5
31
102
{ACAD_REACTORS
330
2A
102
}
330
2A
100
AcDbVisualStyle
  2
3D Hidden
 70
     6
 71
     1
 72
     2
 73
     2
 90
        0
 40
-0.6
 41
-30.0
 62
     5
 63
     7
 74
     2
 91
        2
 64
     7
 65
   257
 75
     2
175
     1
 42
40.0
 92
        0
 66
   257
 43
1.0
 76
     1
 77
     6
 78
     2
 67
     7
 79
     3
170
     0
171
     0
290
     0
174
     0
 93
        1
 44
0.0
173
     0
291
     0
 45
0.0
1001
ACAD
1000
AcDbSavedByObjectVersion
1070
     0
  0
VISUALSTYLE
  5
30
102
{ACAD_REACTORS
330
2A
102
}
330
2A
100
AcDbVisualStyle
  2
3dWireframe
 70
     5
 71
     0
 72
     2
 73
     0
 90
        0
 40
-0.6
 41
-30.0
 62
     5
 63
     7
 74
     1
 91
        4
 64
     7
 65
   257
 75
     1
175
     1
 42
1.0
 92
        0
 66
   257
 43
1.0
 76
     1
 77
     6
 78
     2
 67
     7
 79
     5
170
     0
171
     0
290
     0
174
     0
 93
        1
 44
0.0
173
     0
291
     0
 45
0.0
1001
ACAD
1000
AcDbSavedByObjectVersion
1070
     0
  0
VISUALSTYLE
  5
32
102
{ACAD_REACTORS
330
2A
102
}
330
2A
100
AcDbVisualStyle
  2
Basic
 70
     7
 71
     1
 72
     0
 73
     1
 90
        0
 40
-0.6
 41
-30.0
 62
     5
 63
     7
 74
     0
 91
        4
 64
     7
 65
   257
 75
     1
175
     1
 42
1.0
 92
        8
 66
     7
 43
1.0
 76
     1
 77
     6
 78
     2
 67
     7
 79
     5
170
     0
171
     0
290
     0
174
     0
 93
        1
 44
0.0
173
     0
291
     1
 45
0.0
1001
ACAD
1000
AcDbSavedByObjectVersion
1070
     0
  0
VISUALSTYLE
  5
36
102
{ACAD_REACTORS
330
2A
102
}
330
2A
100
AcDbVisualStyle
  2
Brighten
 70
    12
 71
     2
 72
     2
 73
     0
 90
        0
 40
-0.6
 41
-30.0
 62
     5
 63
     7
 74
     1
 91
        4
 64
     7
 65
   257
 75
     1
175
     1
 42
1.0
 92
        8
 66
     7
 43
1.0
 76
     1
 77
     6
 78
     2
 67
     7
 79
     5
170
     0
171
     0
290
     0
174
     0
 93
        1
 44
50.0
173
     0
291
     1
 45
0.0
1001
ACAD
1000
AcDbSavedByObjectVersion
1070
     0
  0
VISUALSTYLE
  5
3A
102
{ACAD_REACTORS
330
2A
102
}
330
2A
100
AcDbVisualStyle
  2
ColorChange
 70
    16
 71
     2
 72
     2
 73
     3
 90
        0
 40
-0.6
 41
-30.0
 62
     5
 63
     8
 74
     1
 91
        4
 64
     7
 65
   257
 75
     1
175
     1
 42
1.0
 92
        8
 66
     8
 43
1.0
 76
     1
 77
     6
 78
     2
 67
     7
 79
     5
170
     0
171
     0
290
     0
174
     0
 93
        1
 44
0.0
173
     0
291
     1
 45
0.0
1001
ACAD
1000
AcDbSavedByObjectVersion
1070
     0
  0
VISUALSTYLE
  5
34
102
{ACAD_REACTORS
330
2A
102
}
330
2A
100
AcDbVisualStyle
  2
Conceptual
 70
     9
 71
     3
 72
     2
 73
     0
 90
        0
 40
-0.6
 41
-30.0
 62
     5
 63
     7
 74
     2
 91
        2
 64
     7
 65
   257
 75
     1
175
     1
 42
40.0
 92
        8
 66
     7
 43
1.0
 76
     1
 77
     6
 78
     2
 67
     7
 79
     3
170
     0
171
     0
290
     0
174
     0
 93
        1
 44
0.0
173
     0
291
     0
 45
0.0
1001
ACAD
1000
AcDbSavedByObjectVersion
1070
     0
  0
VISUALSTYLE
  5
35
102
{ACAD_REACTORS
330
2A
102
}
330
2A
100
AcDbVisualStyle
  2
Dim
 70
    11
 71
     2
 72
     2
 73
     0
 90
        0
 40
-0.6
 41
-30.0
 62
     5
 63
     7
 74
     1
 91
        4
 64
     7
 65
   257
 75
     1
175
     1
 42
1.0
 92
        8
 66
     7
 43
1.0
 76
     1
 77
     6
 78
     2
 67
     7
 79
     5
170
     0
171
     0
290
     0
174
     0
 93
        1
 44
-50.0
173
     0
291
     1
 45
0.0
1001
ACAD
1000
AcDbSavedByObjectVersion
1070
     0
  0
VISUALSTYLE
  5
39
102
{ACAD_REACTORS
330
2A
102
}
330
2A
100
AcDbVisualStyle
  2
Facepattern
 70
    15
 71
     2
 72
     2
 73
     0
 90
        0
 40
-0.6
 41
-30.0
 62
     5
 63
     7
 74
     1
 91
        4
 64
     7
 65
   257
 75
     1
175
     1
 42
1.0
 92
        8
 66
     7
 43
1.0
 76
     1
 77
     6
 78
     2
 67
     7
 79
     5
170
     0
171
     0
290
     0
174
     0
 93
        1
 44
0.0
173
     0
291
     1
 45
0.0
1001
ACAD
1000
AcDbSavedByObjectVersion
1070
     0
  0
VISUALSTYLE
  5
2B
102
{ACAD_REACTORS
330
2A
102
}
330
2A
100
AcDbVisualStyle
  2
Flat
 70
     0
 71
     2
 72
     1
 73
     1
 90
        2
 40
-0.6
 41
30.0
 62
     5
 63
     7
 74
     0
 91
        4
 64
     7
 65
   257
 75
     1
175
     1
 42
1.0
 92
        8
 66
     7
 43
1.0
 76
     1
 77
     6
 78
     2
 67
     7
 79
     5
170
     0
171
     0
290
     0
174
     0
 93
       13
 44
0.0
173
     0
291
     1
 45
0.0
1001
ACAD
1000
AcDbSavedByObjectVersion
1070
     0
  0
VISUALSTYLE
  5
2C
102
{ACAD_REACTORS
330
2A
102
}
330
2A
100
AcDbVisualStyle
  2
FlatWithEdges
 70
     1
 71
     2
 72
     1
 73
     1
 90
        2
 40
-0.6
 41
30.0
 62
     5
 63
     7
 74
     1
 91
        4
 64
     7
 65
   257
 75
     1
175
     1
 42
1.0
 92
        0
 66
   257
 43
1.0
 76
     1
 77
     6
 78
     2
 67
     7
 79
     5
170
     0
171
     0
290
     0
174
     0
 93
       13
 44
0.0
173
     0
291
     1
 45
0.0
1001
ACAD
1000
AcDbSavedByObjectVersion
1070
     0
  0
VISUALSTYLE
  5
2D
102
{ACAD_REACTORS
330
2A
102
}
330
2A
100
AcDbVisualStyle
  2
Gouraud
 70
     2
 71
     2
 72
     2
 73
     1
 90
        2
 40
-0.6
 41
30.0
 62
     5
 63
     7
 74
     0
 91
        4
 64
     7
 65
   257
 75
     1
175
     1
 42
1.0
 92
        0
 66
     7
 43
1.0
 76
     1
 77
     6
 78
     2
 67
     7
 79
     5
170
     0
171
     0
290
     0
174
     0
 93
       13
 44
0.0
173
     0
291
     1
 45
0.0
1001
ACAD
1000
AcDbSavedByObjectVersion
1070
     0
  0
VISUALSTYLE
  5
2E
102
{ACAD_REACTORS
330
2A
102
}
330
2A
100
AcDbVisualStyle
  2
GouraudWithEdges
 70
     3
 71
     2
 72
     2
 73
     1
 90
        2
 40
-0.6
 41
30.0
 62
     5
 63
     7
 74
     1
 91
        4
 64
     7
 65
   257
 75
     1
175
     1
 42
1.0
 92
        0
 66
   257
 43
1.0
 76
     1
 77
     6
 78
     2
 67
     7
 79
     5
170
     0
171
     0
290
     0
174
     0
 93
       13
 44
0.0
173
     0
291
     1
 45
0.0
1001
ACAD
1000
AcDbSavedByObjectVersion
1070
     0
  0
VISUALSTYLE
  5
38
102
{ACAD_REACTORS
330
2A
102
}
330
2A
100
AcDbVisualStyle
  2
Linepattern
 70
    14
 71
     2
 72
     2
 73
     0
 90
        0
 40
-0.6
 41
-30.0
 62
     5
 63
     7
 74
     1
 91
        4
 64
     7
 65
   257
 75
     7
175
     7
 42
1.0
 92
        8
 66
     7
 43
1.0
 76
     1
 77
     6
 78
     2
 67
     7
 79
     5
170
     0
171
     0
290
     0
174
     0
 93
        1
 44
0.0
173
     0
291
     1
 45
0.0
1001
ACAD
1000
AcDbSavedByObjectVersion
1070
     0
  0
VISUALSTYLE
  5
33
102
{ACAD_REACTORS
330
2A
102
}
330
2A
100
AcDbVisualStyle
  2
Realistic
 70
     8
 71
     2
 72
     2
 73
     0
 90
        0
 40
-0.6
 41
-30.0
 62
     5
 63
     7
 74
     1
 91
        0
 64
     7
 65
   257
 75
     1
175
     1
 42
1.0
 92
        8
 66
     8
 43
1.0
 76
     1
 77
     6
 78
     2
 67
     7
 79
     5
170
     0
171
     0
290
     0
174
     0
 93
       13
 44
0.0
173
     0
291
     0
 45
0.0
1001
ACAD
1000
AcDbSavedByObjectVersion
1070
     0
  0
VISUALSTYLE
  5
37
102
{ACAD_REACTORS
330
2A
102
}
330
2A
100
AcDbVisualStyle
  2
Thicken
 70
    13
 71
     2
 72
     2
 73
     0
 90
        0
 40
-0.6
 41
-30.0
 62
     5
 63
     7
 74
     1
 91
        4
 64
     7
 65
   257
 75
     1
175
     1
 42
1.0
 92
       12
 66
     7
 43
1.0
 76
     1
 77
     6
 78
     2
 67
     7
 79
     5
170
     0
171
     0
290
     0
174
     0
 93
        1
 44
0.0
173
     0
291
     1
 45
0.0
1001
ACAD
1000
AcDbSavedByObjectVersion
1070
     0
  0
DICTIONARYVAR
  5
275
102
{ACAD_REACTORS
330
274
102
}
330
274
100
DictionaryVariables
280
     0
  1
1:1
  0
DICTIONARYVAR
  5
279
102
{ACAD_REACTORS
330
274
102
}
330
274
100
DictionaryVariables
280
     0
  1
80.000000
  0
DICTIONARYVAR
  5
278
102
{ACAD_REACTORS
330
274
102
}
330
274
100
DictionaryVariables
280
     0
  1
5.000000
  0
ENDSEC
  0
EOF
