  0
SECTION
  2
HEADER
  9
$ACADVER
  1
AC1015
  9
$ACADMAINTVER
 70
     6
  9
$DWGCODEPAGE
  3
ANSI_1252
  9
$INSBASE
 10
0.0
 20
0.0
 30
0.0
  9
$EXTMIN
 10
0.0
 20
0.0
 30
0.0
  9
$EXTMAX
 10
3000.0
 20
4500.0
 30
0.0
  9
$LIMMIN
 10
0.0
 20
0.0
  9
$LIMMAX
 10
3000.0
 20
4500.0
  9
$ORTHOMODE
 70
     0
  9
$REGENMODE
 70
     1
  9
$FILLMODE
 70
     1
  9
$QTEXTMODE
 70
     0
  9
$MIRRTEXT
 70
     1
  9
$LTSCALE
 40
1.0
  9
$ATTMODE
 70
     1
  9
$TEXTSIZE
 40
2.5
  9
$TRACEWID
 40
1.0
  9
$TEXTSTYLE
  7
Standard
  9
$CLAYER
  8
0
  9
$CELTYPE
  6
ByLayer
  9
$CECOLOR
 62
   256
  9
$CELTSCALE
 40
1.0
  9
$DISPSILH
 70
     0
  9
$DIMSCALE
 40
1.0
  9
$DIMASZ
 40
2.5
  9
$DIMEXO
 40
0.625
  9
$DIMDLI
 40
3.75
  9
$DIMRND
 40
0.0
  9
$DIMDLE
 40
0.0
  9
$DIMEXE
 40
1.25
  9
$DIMTP
 40
0.0
  9
$DIMTM
 40
0.0
  9
$DIMTXT
 40
2.5
  9
$DIMCEN
 40
2.5
  9
$DIMTSZ
 40
0.0
  9
$DIMTOL
 70
     0
  9
$DIMLIM
 70
     0
  9
$DIMTIH
 70
     0
  9
$DIMTOH
 70
     0
  9
$DIMSE1
 70
     0
  9
$DIMSE2
 70
     0
  9
$DIMTAD
 70
     1
  9
$DIMZIN
 70
     8
  9
$DIMBLK
  1

  9
$DIMASO
 70
     1
  9
$DIMSHO
 70
     1
  9
$DIMPOST
  1

  9
$DIMAPOST
  1

  9
$DIMALT
 70
     0
  9
$DIMALTD
 70
     3
  9
$DIMALTF
 40
0.0393700787
  9
$DIMLFAC
 40
1.0
  9
$DIMTOFL
 70
     1
  9
$DIMTVP
 40
0.0
  9
$DIMTIX
 70
     0
  9
$DIMSOXD
 70
     0
  9
$DIMSAH
 70
     0
  9
$DIMBLK1
  1

  9
$DIMBLK2
  1

  9
$DIMSTYLE
  2
ISO-25
  9
$DIMCLRD
 70
     0
  9
$DIMCLRE
 70
     0
  9
$DIMCLRT
 70
     0
  9
$DIMTFAC
 40
1.0
  9
$DIMGAP
 40
0.625
  9
$DIMJUST
 70
     0
  9
$DIMSD1
 70
     0
  9
$DIMSD2
 70
     0
  9
$DIMTOLJ
 70
     0
  9
$DIMTZIN
 70
     8
  9
$DIMALTZ
 70
     0
  9
$DIMALTTZ
 70
     0
  9
$DIMUPT
 70
     0
  9
$DIMDEC
 70
     2
  9
$DIMTDEC
 70
     2
  9
$DIMALTU
 70
     2
  9
$DIMALTTD
 70
     3
  9
$DIMTXSTY
  7
Standard
  9
$DIMAUNIT
 70
     0
  9
$DIMADEC
 70
     0
  9
$DIMALTRND
 40
0.0
  9
$DIMAZIN
 70
     0
  9
$DIMDSEP
 70
    44
  9
$DIMATFIT
 70
     3
  9
$DIMFRAC
 70
     0
  9
$DIMLDRBLK
  1

  9
$DIMLUNIT
 70
     2
  9
$DIMLWD
 70
    -2
  9
$DIMLWE
 70
    -2
  9
$DIMTMOVE
 70
     0
  9
$LUNITS
 70
     2
  9
$LUPREC
 70
     4
  9
$SKETCHINC
 40
1.0
  9
$FILLETRAD
 40
10.0
  9
$AUNITS
 70
     0
  9
$AUPREC
 70
     0
  9
$MENU
  1
.
  9
$ELEVATION
 40
0.0
  9
$PELEVATION
 40
0.0
  9
$THICKNESS
 40
0.0
  9
$LIMCHECK
 70
     0
  9
$CHAMFERA
 40
10.0
  9
$CHAMFERB
 40
10.0
  9
$CHAMFERC
 40
20.0
  9
$CHAMFERD
 40
0.0
  9
$SKPOLY
 70
     0
  9
$TDCREATE
 40
2456610.477415926
  9
$TDUCREATE
 40
2456610.435749259
  9
$TDUPDATE
 40
2456610.477415937
  9
$TDUUPDATE
 40
2456610.435749271
  9
$TDINDWG
 40
0.0000000116
  9
$TDUSRTIMER
 40
0.0000000116
  9
$USRTIMER
 70
     1
  9
$ANGBASE
 50
0.0
  9
$ANGDIR
 70
     0
  9
$PDMODE
 70
     0
  9
$PDSIZE
 40
0.0
  9
$PLINEWID
 40
0.0
  9
$SPLFRAME
 70
     0
  9
$SPLINETYPE
 70
     6
  9
$SPLINESEGS
 70
     8
  9
$HANDSEED
  5
28C
  9
$SURFTAB1
 70
     6
  9
$SURFTAB2
 70
     6
  9
$SURFTYPE
 70
     6
  9
$SURFU
 70
     6
  9
$SURFV
 70
     6
  9
$UCSBASE
  2

  9
$UCSNAME
  2

  9
$UCSORG
 10
0.0
 20
0.0
 30
0.0
  9
$UCSXDIR
 10
1.0
 20
0.0
 30
0.0
  9
$UCSYDIR
 10
0.0
 20
1.0
 30
0.0
  9
$UCSORTHOREF
  2

  9
$UCSORTHOVIEW
 70
     0
  9
$UCSORGTOP
 10
0.0
 20
0.0
 30
0.0
  9
$UCSORGBOTTOM
 10
0.0
 20
0.0
 30
0.0
  9
$UCSORGLEFT
 10
0.0
 20
0.0
 30
0.0
  9
$UCSORGRIGHT
 10
0.0
 20
0.0
 30
0.0
  9
$UCSORGFRONT
 10
0.0
 20
0.0
 30
0.0
  9
$UCSORGBACK
 10
0.0
 20
0.0
 30
0.0
  9
$PUCSBASE
  2

  9
$PUCSNAME
  2

  9
$PUCSORG
 10
0.0
 20
0.0
 30
0.0
  9
$PUCSXDIR
 10
1.0
 20
0.0
 30
0.0
  9
$PUCSYDIR
 10
0.0
 20
1.0
 30
0.0
  9
$PUCSORTHOREF
  2

  9
$PUCSORTHOVIEW
 70
     0
  9
$PUCSORGTOP
 10
0.0
 20
0.0
 30
0.0
  9
$PUCSORGBOTTOM
 10
0.0
 20
0.0
 30
0.0
  9
$PUCSORGLEFT
 10
0.0
 20
0.0
 30
0.0
  9
$PUCSORGRIGHT
 10
0.0
 20
0.0
 30
0.0
  9
$PUCSORGFRONT
 10
0.0
 20
0.0
 30
0.0
  9
$PUCSORGBACK
 10
0.0
 20
0.0
 30
0.0
  9
$USERI1
 70
     0
  9
$USERI2
 70
     0
  9
$USERI3
 70
     0
  9
$USERI4
 70
     0
  9
$USERI5
 70
     0
  9
$USERR1
 40
0.0
  9
$USERR2
 40
0.0
  9
$USERR3
 40
0.0
  9
$USERR4
 40
0.0
  9
$USERR5
 40
0.0
  9
$WORLDVIEW
 70
     1
  9
$SHADEDGE
 70
     3
  9
$SHADEDIF
 70
    70
  9
$TILEMODE
 70
     1
  9
$MAXACTVP
 70
    64
  9
$PINSBASE
 10
0.0
 20
0.0
 30
0.0
  9
$PLIMCHECK
 70
     0
  9
$PEXTMIN
 10
0.0
 20
0.0
 30
0.0
  9
$PEXTMAX
 10
3000.0
 20
4500.0
 30
0.0
  9
$PLIMMIN
 10
0.0
 20
0.0
  9
$PLIMMAX
 10
3000.0
 20
4500.0
  9
$UNITMODE
 70
     0
  9
$VISRETAIN
 70
     1
  9
$PLINEGEN
 70
     0
  9
$PSLTSCALE
 70
     1
  9
$TREEDEPTH
 70
  3020
  9
$CMLSTYLE
  2
Standard
  9
$CMLJUST
 70
     0
  9
$CMLSCALE
 40
20.0
  9
$PROXYGRAPHICS
 70
     1
  9
$MEASUREMENT
 70
     1
  9
$CELWEIGHT
370
    -1
  9
$ENDCAPS
280
     0
  9
$JOINSTYLE
280
     0
  9
$LWDISPLAY
290
     0
  9
$INSUNITS
 70
     4
  9
$HYPERLINKBASE
  1

  9
$STYLESHEET
  1

  9
$XEDIT
290
     1
  9
$CEPSNTYPE
380
     0
  9
$PSTYLEMODE
290
     1
  9
$FINGERPRINTGUID
  2
{B9FDF0B8-5515-4A0F-8A7A-CD5079C19D5E}
  9
$VERSIONGUID
  2
{FAEB1C32-E019-11D5-929B-00C0DF256EC4}
  9
$EXTNAMES
290
     1
  9
$PSVPSCALE
 40
0.0
  9
$OLESTARTUP
290
     0
  0
ENDSEC
  0
SECTION
  2
CLASSES
  0
CLASS
  1
ACDBDICTIONARYWDFLT
  2
AcDbDictionaryWithDefault
  3
ObjectDBX Classes
 90
        0
280
     0
281
     0
  0
CLASS
  1
VISUALSTYLE
  2
AcDbVisualStyle
  3
ObjectDBX Classes
 90
     4095
280
     0
281
     0
  0
CLASS
  1
SCALE
  2
AcDbScale
  3
ObjectDBX Classes
 90
     1153
280
     0
281
     0
  0
CLASS
  1
DICTIONARYVAR
  2
AcDbDictionaryVar
  3
ObjectDBX Classes
 90
        0
280
     0
281
     0
  0
CLASS
  1
ACDBPLACEHOLDER
  2
AcDbPlaceHolder
  3
ObjectDBX Classes
 90
        0
280
     0
281
     0
  0
CLASS
  1
LAYOUT
  2
AcDbLayout
  3
ObjectDBX Classes
 90
        0
280
     0
281
     0
  0
ENDSEC
  0
SECTION
  2
TABLES
  0
TABLE
  2
VPORT
  5
8
330
0
100
AcDbSymbolTable
 70
     1
  0
VPORT
  5
29
330
8
100
AcDbSymbolTableRecord
100
AcDbViewportTableRecord
  2
*Active
 70
     0
 10
0.0
 20
0.0
 11
1.0
 21
1.0
 12
344.1869158879
 22
148.5
 13
0.0
 23
0.0
 14
10.0
 24
10.0
 15
10.0
 25
10.0
 16
0.0
 26
0.0
 36
1.0
 17
0.0
 27
0.0
 37
0.0
 40
297.0
 41
1.9729729729
 42
50.0
 43
0.0
 44
0.0
 50
0.0
 51
0.0
 71
     0
 72
   100
 73
     1
 74
     3
 75
     0
 76
     0
 77
     0
 78
     0
281
     0
 65
     1
110
0.0
120
0.0
130
0.0
111
1.0
121
0.0
131
0.0
112
0.0
122
1.0
132
0.0
 79
     0
146
0.0
  0
ENDTAB
  0
TABLE
  2
LTYPE
  5
5
330
0
100
AcDbSymbolTable
 70
     2
  0
LTYPE
  5
14
330
5
100
AcDbSymbolTableRecord
100
AcDbLinetypeTableRecord
  2
ByBlock
 70
     0
  3

 72
    65
 73
     0
 40
0.0
  0
LTYPE
  5
15
330
5
100
AcDbSymbolTableRecord
100
AcDbLinetypeTableRecord
  2
ByLayer
 70
     0
  3

 72
    65
 73
     0
 40
0.0
  0
LTYPE
  5
16
330
5
100
AcDbSymbolTableRecord
100
AcDbLinetypeTableRecord
  2
Continuous
 70
     0
  3
Solid line
 72
    65
 73
     0
 40
0.0
  0
LTYPE
  5
1F5
330
5
100
AcDbSymbolTableRecord
100
AcDbLinetypeTableRecord
  2
CENTER2
 70
     0
  3
Center (.5x) ___ _ ___ _ ___ _ ___ _ ___ _ ___
 72
    65
 73
     4
 40
28.575
 49
19.05
 74
     4
 75
     0
340
0
 46
0.0
 50
0.0
 44
0.0
 45
0.0
 49
-3.175
 74
     4
 75
     0
340
0
 46
0.0
 50
0.0
 44
0.0
 45
0.0
 49
3.175
 74
     4
 75
     0
340
0
 46
0.0
 50
0.0
 44
0.0
 45
0.0
 49
-3.175
 74
     4
 75
     0
340
0
 46
0.0
 50
0.0
 44
0.0
 45
0.0
  0
ENDTAB
  0
TABLE
  2
LAYER
  5
2
330
0
100
AcDbSymbolTable
 70
    12
  0
LAYER
  5
10
330
2
100
AcDbSymbolTableRecord
100
AcDbLayerTableRecord
  2
0
 70
     0
 62
     7
  6
Continuous
370
    -3
390
F
  0
LAYER
  5
5D
330
2
100
AcDbSymbolTableRecord
100
AcDbLayerTableRecord
  2
Default
 70
     0
 62
     7
  6
Continuous
370
    -3
390
F
  0
LAYER
  5
60
330
2
100
AcDbSymbolTableRecord
100
AcDbLayerTableRecord
  2
$DDT_AUDIT_GENERATED_(60)
 70
     0
 62
     7
  6
Continuous
370
    -3
390
F
  0
LAYER
  5
67
330
2
100
AcDbSymbolTableRecord
100
AcDbLayerTableRecord
  2
09130031_ADAPTER
 70
     0
 62
     7
  6
Continuous
370
    -3
390
F
  0
LAYER
  5
69
330
2
100
AcDbSymbolTableRecord
100
AcDbLayerTableRecord
  2
$DDT_AUDIT_GENERATED_(69)
 70
     0
 62
     7
  6
Continuous
370
    -3
390
F
  0
LAYER
  5
7A
330
2
100
AcDbSymbolTableRecord
100
AcDbLayerTableRecord
  2
$DDT_AUDIT_GENERATED_(7A)
 70
     0
 62
     7
  6
Continuous
370
    -3
390
F
  0
LAYER
  5
7E
330
2
100
AcDbSymbolTableRecord
100
AcDbLayerTableRecord
  2
$DDT_AUDIT_GENERATED_(7E)
 70
     0
 62
     7
  6
Continuous
370
    -3
390
F
  0
LAYER
  5
85
330
2
100
AcDbSymbolTableRecord
100
AcDbLayerTableRecord
  2
$DDT_AUDIT_GENERATED_(85)
 70
     0
 62
     7
  6
Continuous
370
    -3
390
F
  0
LAYER
  5
1F4
330
2
100
AcDbSymbolTableRecord
100
AcDbLayerTableRecord
  2
DV1_Default
 70
     0
 62
     7
  6
Continuous
370
    -3
390
F
  0
LAYER
  5
229
330
2
100
AcDbSymbolTableRecord
100
AcDbLayerTableRecord
  2
$DDT_AUDIT_GENERATED_(229)
 70
     0
 62
     7
  6
Continuous
370
    -3
390
F
  0
LAYER
  5
24D
330
2
100
AcDbSymbolTableRecord
100
AcDbLayerTableRecord
  2
DV2_Default
 70
     0
 62
     7
  6
Continuous
370
    -3
390
F
  0
LAYER
  5
272
330
2
100
AcDbSymbolTableRecord
100
AcDbLayerTableRecord
  2
DV3_Default
 70
     0
 62
     7
  6
Continuous
370
    -3
390
F
  0
ENDTAB
  0
TABLE
  2
STYLE
  5
3
330
0
100
AcDbSymbolTable
 70
     2
  0
STYLE
  5
11
330
3
100
AcDbSymbolTableRecord
100
AcDbTextStyleTableRecord
  2
Standard
 70
     0
 40
0.0
 41
1.0
 50
0.0
 71
     0
 42
2.5
  3
txt
  4

  0
STYLE
  5
27B
330
3
100
AcDbSymbolTableRecord
100
AcDbTextStyleTableRecord
  2
SEACAD_seiso_ttf
 70
     0
 40
0.0
 41
1.0
 50
0.0
 71
     0
 42
0.2
  3
seiso.ttf
  4

  0
ENDTAB
  0
TABLE
  2
VIEW
  5
6
330
0
100
AcDbSymbolTable
 70
     0
  0
ENDTAB
  0
TABLE
  2
UCS
  5
7
330
0
100
AcDbSymbolTable
 70
     0
  0
ENDTAB
  0
TABLE
  2
APPID
  5
9
330
0
100
AcDbSymbolTable
 70
     1
  0
APPID
  5
12
330
9
100
AcDbSymbolTableRecord
100
AcDbRegAppTableRecord
  2
ACAD
 70
     0
  0
ENDTAB
  0
TABLE
  2
DIMSTYLE
  5
A
330
0
100
AcDbSymbolTable
 70
     1
100
AcDbDimStyleTable
  0
DIMSTYLE
105
27
330
A
100
AcDbSymbolTableRecord
100
AcDbDimStyleTableRecord
  2
ISO-25
 70
     0
 41
2.5
 42
0.625
 43
3.75
 44
1.25
 73
     0
 74
     0
 77
     1
 78
     8
140
2.5
141
2.5
143
0.0393700787
147
0.625
171
     3
172
     1
271
     2
272
     2
274
     3
278
    44
283
     0
284
     8
340
11
  0
ENDTAB
  0
TABLE
  2
BLOCK_RECORD
  5
1
330
0
100
AcDbSymbolTable
 70
     4
  0
BLOCK_RECORD
  5
1F
330
1
100
AcDbSymbolTableRecord
100
AcDbBlockTableRecord
  2
*Model_Space
340
22
  0
BLOCK_RECORD
  5
1B
330
1
100
AcDbSymbolTableRecord
100
AcDbBlockTableRecord
  2
*Paper_Space
340
1E
  0
BLOCK_RECORD
  5
5E
330
1
100
AcDbSymbolTableRecord
100
AcDbBlockTableRecord
  2
SE
340
0
102
{BLKREFS
331
5F
102
}
  0
BLOCK_RECORD
  5
1FA
330
1
100
AcDbSymbolTableRecord
100
AcDbBlockTableRecord
  2
SE1
340
0
102
{BLKREFS
331
1FB
102
}
  0
BLOCK_RECORD
  5
252
330
1
100
AcDbSymbolTableRecord
100
AcDbBlockTableRecord
  2
SE2
340
0
102
{BLKREFS
331
253
102
}
  0
ENDTAB
  0
ENDSEC
  0
SECTION
  2
BLOCKS
  0
BLOCK
  5
20
330
1F
100
AcDbEntity
  8
0
100
AcDbBlockBegin
  2
*Model_Space
 70
     0
 10
0.0
 20
0.0
 30
0.0
  3
*Model_Space
  1

  0
ENDBLK
  5
21
330
1F
100
AcDbEntity
  8
0
100
AcDbBlockEnd
  0
BLOCK
  5
1C
330
1B
100
AcDbEntity
 67
     1
  8
0
100
AcDbBlockBegin
  2
*Paper_Space
 70
     0
 10
0.0
 20
0.0
 30
0.0
  3
*Paper_Space
  1

  0
ENDBLK
  5
1D
330
1B
100
AcDbEntity
 67
     1
  8
0
100
AcDbBlockEnd
  0
BLOCK
  5
1F8
330
5E
100
AcDbEntity
  8
0
100
AcDbBlockBegin
  2
SE
 70
     0
 10
0.0
 20
0.0
 30
0.0
  3
SE
  1

  0
LINE
  5
61
330
5E
100
AcDbEntity
  8
$DDT_AUDIT_GENERATED_(60)
  6
Continuous
 62
     7
100
AcDbLine
 10
8.8498300656
 20
399.0338608558
 30
0.0
 11
53.8501699344
 21
399.0338608558
 31
0.0
  0
CIRCLE
  5
62
330
5E
100
AcDbEntity
  8
$DDT_AUDIT_GENERATED_(60)
  6
Continuous
 62
     7
100
AcDbCircle
 10
31.3498916115
 20
521.8284383005
 30
0.0
 40
14.49999999999977
  0
ARC
  5
63
330
5E
100
AcDbEntity
  8
$DDT_AUDIT_GENERATED_(60)
  6
Continuous
 62
     7
100
AcDbCircle
 10
14.8326477168
 20
553.1089786921
 30
0.0
 40
5.98290439558101
100
AcDbArc
 50
160.714383059
 51
180.3116148076
  0
ARC
  5
64
330
5E
100
AcDbEntity
  8
$DDT_AUDIT_GENERATED_(60)
  6
Continuous
 62
     7
100
AcDbCircle
 10
47.8661917813
 20
553.1086456878
 30
0.0
 40
5.984061239380273
100
AcDbArc
 50
359.6913732243
 51
19.2022609666
  0
LINE
  5
65
330
5E
100
AcDbEntity
  8
$DDT_AUDIT_GENERATED_(60)
  6
Continuous
 62
     7
100
AcDbLine
 10
8.8498300656
 20
553.0764041387
 30
0.0
 11
8.8498300656
 21
399.0338608558
 31
0.0
  0
LINE
  5
66
330
5E
100
AcDbEntity
  8
$DDT_AUDIT_GENERATED_(60)
  6
Continuous
 62
     7
100
AcDbLine
 10
53.8501699344
 20
399.0338608558
 30
0.0
 11
53.8501699344
 21
553.0764041387
 31
0.0
  0
LINE
  5
68
330
5E
100
AcDbEntity
  8
09130031_ADAPTER
  6
Continuous
 62
     7
100
AcDbLine
 10
27.2055768851
 20
580.6635276759
 30
0.0
 11
27.2417437979
 21
580.6635276759
 31
0.0
  0
CIRCLE
  5
6A
330
5E
100
AcDbEntity
  8
$DDT_AUDIT_GENERATED_(69)
  6
Continuous
 62
     7
100
AcDbCircle
 10
31.3611707305
 20
578.3310346898
 30
0.0
 40
4.749999999999969
  0
SPLINE
  5
6B
330
5E
100
AcDbEntity
  8
$DDT_AUDIT_GENERATED_(69)
  6
Continuous
 62
     7
100
AcDbSpline
210
0.0
220
0.0
230
1.0
 70
     8
 71
     3
 72
    10
 73
     6
 74
     0
 42
0.0000000007560205
 43
0.0000000001
 40
0.4883633742261378
 40
0.4883633742261378
 40
0.4883633742261378
 40
0.4883633742261378
 40
0.5
 40
0.5
 40
0.5001621583545021
 40
0.5001621583545021
 40
0.5001621583545021
 40
0.5001621583545021
 10
55.46050641919431
 20
556.7067651584343
 30
0.0
 10
55.47126467133756
 20
556.7576282356478
 30
0.0
 10
55.47661155031869
 20
556.8084871171684
 30
0.0
 10
55.47649645280569
 20
556.8600075055208
 30
0.0
 10
55.47649381757609
 20
556.8607156112851
 30
0.0
 10
55.47649012906302
 20
556.8614237444365
 30
0.0
  0
SPLINE
  5
6C
330
5E
100
AcDbEntity
  8
$DDT_AUDIT_GENERATED_(69)
  6
Continuous
 62
     7
100
AcDbSpline
210
0.0
220
0.0
230
1.0
 70
     8
 71
     3
 72
    14
 73
    10
 74
     0
 42
0.0000000001434011
 43
0.0000000001
 40
0.0
 40
0.0
 40
0.0
 40
0.0
 40
0.0625
 40
0.0625
 40
0.125
 40
0.125
 40
0.1875000000000001
 40
0.1875000000000001
 40
0.2151496878132058
 40
0.2151496878132058
 40
0.2151496878132058
 40
0.2151496878132058
 10
31.35859070990325
 20
552.502925835566
 30
0.0
 10
29.77779601411382
 20
552.502925835566
 30
0.0
 10
28.22345475601147
 20
552.5298917984121
 30
0.0
 10
25.1655108707244
 20
552.6355453964395
 30
0.0
 10
23.64601937151413
 20
552.7155205769957
 30
0.0
 10
20.74896734505592
 20
552.9242717623443
 30
0.0
 10
19.3750052208926
 20
553.0520088214053
 30
0.0
 10
17.49978922750042
 20
553.2696485238512
 30
0.0
 10
16.93819147315904
 20
553.3412419469146
 30
0.0
 10
16.39522065629136
 20
553.4169349113478
 30
0.0
  0
SPLINE
  5
6D
330
5E
100
AcDbEntity
  8
$DDT_AUDIT_GENERATED_(69)
  6
Continuous
 62
     7
100
AcDbSpline
210
0.0
220
0.0
230
1.0
 70
     8
 71
     3
 72
    14
 73
    10
 74
     0
 42
0.000000000144893
 43
0.0000000001
 40
0.7695327026987567
 40
0.7695327026987567
 40
0.7695327026987567
 40
0.7695327026987567
 40
0.8124999999999999
 40
0.8124999999999999
 40
0.875
 40
0.875
 40
0.9375
 40
0.9375
 40
1.0
 40
1.0
 40
1.0
 40
1.0
 10
47.21502047393923
 20
553.5475740140996
 30
0.0
 10
46.40823601718785
 20
553.4233974318507
 30
0.0
 10
45.55802286013532
 20
553.3094767124685
 30
0.0
 10
43.37318055131966
 20
553.0551895339233
 30
0.0
 10
41.97605213746552
 20
552.924929483888
 30
0.0
 10
39.07715574603206
 20
552.7158599648968
 30
0.0
 10
37.58597386500652
 20
552.637100068826
 30
0.0
 10
34.52119711270984
 20
552.5304788146951
 30
0.0
 10
32.93935846316626
 20
552.502925835566
 30
0.0
 10
31.35859070990325
 20
552.502925835566
 30
0.0
  0
SPLINE
  5
6E
330
5E
100
AcDbEntity
  8
$DDT_AUDIT_GENERATED_(69)
  6
Continuous
 62
     7
100
AcDbSpline
210
0.0
220
0.0
230
1.0
 70
     8
 71
     3
 72
    10
 73
     6
 74
     0
 42
0.0000000007546222
 43
0.0000000001
 40
0.4996520672295409
 40
0.4996520672295409
 40
0.4996520672295409
 40
0.4996520672295409
 40
0.5000000000000002
 40
0.5000000000000002
 40
0.5117913739601438
 40
0.5117913739601438
 40
0.5117913739601438
 40
0.5117913739601438
 10
7.24069139591866
 20
556.8613884884405
 30
0.0
 10
7.240683405691835
 20
556.8598691590324
 30
0.0
 10
7.240680295415937
 20
556.8583498720525
 30
0.0
 10
7.240742084976041
 20
556.8053437645225
 30
0.0
 10
7.246371327771988
 20
556.7537131112297
 30
0.0
 10
7.257537196995196
 20
556.7020207031435
 30
0.0
  0
LINE
  5
6F
330
5E
100
AcDbEntity
  8
$DDT_AUDIT_GENERATED_(69)
  6
Continuous
 62
     7
100
AcDbLine
 10
7.3894160821
 20
585.9802329354
 30
0.0
 11
7.2406912793
 21
556.8614474759
 31
0.0
  0
LINE
  5
70
330
5E
100
AcDbEntity
  8
$DDT_AUDIT_GENERATED_(69)
  6
Continuous
 62
     7
100
AcDbLine
 10
55.4764901537
 20
556.8614448957
 30
0.0
 11
55.3278630497
 21
585.9611012958
 31
0.0
  0
ARC
  5
71
330
5E
100
AcDbEntity
  8
$DDT_AUDIT_GENERATED_(69)
  6
Continuous
 62
     7
100
AcDbCircle
 10
31.3498865702
 20
394.9427536243
 30
0.0
 40
194.3747257569171
100
AcDbArc
 50
83.4819582592
 51
96.5179636818
  0
SPLINE
  5
72
330
5E
100
AcDbEntity
  8
$DDT_AUDIT_GENERATED_(69)
  6
Continuous
 62
     7
100
AcDbSpline
210
0.0
220
0.0
230
1.0
 70
     8
 71
     3
 72
     8
 73
     4
 74
     0
 42
0.0000000044692793
 43
0.0000000001
 40
0.0
 40
0.0
 40
0.0
 40
0.0
 40
1.0
 40
1.0
 40
1.0
 40
1.0
 10
8.99934759458374
 20
587.9266859989744
 30
0.0
 10
8.59179649177376
 20
587.477346826706
 30
0.0
 10
8.090413335166954
 20
586.92518667992
 30
0.0
 10
7.49519812476334
 20
586.2702055586161
 30
0.0
  0
SPLINE
  5
73
330
5E
100
AcDbEntity
  8
$DDT_AUDIT_GENERATED_(69)
  6
Continuous
 62
     7
100
AcDbSpline
210
0.0
220
0.0
230
1.0
 70
     8
 71
     3
 72
     8
 73
     4
 74
     0
 42
0.000000004464308
 43
0.0000000001
 40
0.0
 40
0.0
 40
0.0
 40
0.0
 40
1.0
 40
1.0
 40
1.0
 40
1.0
 10
55.2062552645391
 20
586.2683620234352
 30
0.0
 10
54.67946894894796
 20
586.847960559779
 30
0.0
 10
54.17752501235975
 20
587.4007333456998
 30
0.0
 10
53.70042345477447
 20
587.9266803811971
 30
0.0
  0
ARC
  5
74
330
5E
100
AcDbEntity
  8
$DDT_AUDIT_GENERATED_(69)
  6
Continuous
 62
     7
100
AcDbCircle
 10
7.8353863621
 20
585.9803266768
 30
0.0
 40
0.4454871010245046
100
AcDbArc
 50
137.0710665854
 51
180.0282138953
  0
ARC
  5
75
330
5E
100
AcDbEntity
  8
$DDT_AUDIT_GENERATED_(69)
  6
Continuous
 62
     7
100
AcDbCircle
 10
54.8762588782
 20
585.9602602603
 30
0.0
 40
0.4508996345176517
100
AcDbArc
 50
0.0558822245
 51
43.053625638
  0
ARC
  5
76
330
5E
100
AcDbEntity
  8
$DDT_AUDIT_GENERATED_(69)
  6
Continuous
 62
     7
100
AcDbCircle
 10
53.3829539468
 20
587.6260144243
 30
0.0
 40
0.4351205538800132
100
AcDbArc
 50
42.3757027666
 51
80.5199554669
  0
ARC
  5
77
330
5E
100
AcDbEntity
  8
$DDT_AUDIT_GENERATED_(69)
  6
Continuous
 62
     7
100
AcDbCircle
 10
9.3172944935
 20
587.6248378202
 30
0.0
 40
0.4363971807106466
100
AcDbArc
 50
99.4721307852
 51
137.8179930861
  0
SPLINE
  5
78
330
5E
100
AcDbEntity
  8
$DDT_AUDIT_GENERATED_(69)
  6
Continuous
 62
     7
100
AcDbSpline
210
0.0
220
0.0
230
1.0
 70
     8
 71
     3
 72
    30
 73
    26
 74
     0
 42
0.0000000010033152
 43
0.0000000001
 40
0.0
 40
0.0
 40
0.0
 40
0.0
 40
0.0232024784920787
 40
0.0645773119817626
 40
0.1071238171782675
 40
0.1511479914381046
 40
0.1963399578338594
 40
0.2420516087407059
 40
0.2878690752484607
 40
0.334165018762354
 40
0.3804616416776949
 40
0.4267259387087284
 40
0.4729533399858785
 40
0.5191409562596152
 40
0.5652819758115988
 40
0.6113649753432971
 40
0.657374888298514
 40
0.7032944051688262
 40
0.7491053693089742
 40
0.794790026775573
 40
0.8403320950143294
 40
0.8857176512397889
 40
0.9309123262305333
 40
0.9759727393057832
 40
1.0
 40
1.0
 40
1.0
 40
1.0
 10
7.274555288150797
 20
556.6630543357425
 30
0.0
 10
7.281429506059776
 20
556.6250391978272
 30
0.0
 10
7.298344239280372
 20
556.5353721754469
 30
0.0
 10
7.367511952611011
 20
556.3779407595104
 30
0.0
 10
7.476248192324078
 20
556.2026650072764
 30
0.0
 10
7.623516765517917
 20
556.0280899182711
 30
0.0
 10
7.807686189967147
 20
555.856176693368
 30
0.0
 10
8.029553889169122
 20
555.6872282049943
 30
0.0
 10
8.287560968601872
 20
555.521675137221
 30
0.0
 10
8.581253579687253
 20
555.3591629026347
 30
0.0
 10
8.910364877889473
 20
555.1996001498662
 30
0.0
 10
9.27336288310543
 20
555.0433820194733
 30
0.0
 10
9.669602405556928
 20
554.890509596224
 30
0.0
 10
10.09844354656195
 20
554.7410297831234
 30
0.0
 10
10.55916885110503
 20
554.5950526368372
 30
0.0
 10
11.05096591273711
 20
554.4527336057798
 30
0.0
 10
11.57292109613917
 20
554.3142597944834
 30
0.0
 10
12.12404180575008
 20
554.1798335508537
 30
0.0
 10
12.70321365004508
 20
554.0496741139534
 30
0.0
 10
13.3094190884918
 20
553.9239657463594
 30
0.0
 10
13.94099456745497
 20
553.8030155739284
 30
0.0
 10
14.59835038496358
 20
553.6866615979579
 30
0.0
 10
15.27394185169318
 20
553.5764501449513
 30
0.0
 10
15.8797562011223
 20
553.4841526337863
 30
0.0
 10
16.22712381758479
 20
553.4361882334949
 30
0.0
 10
16.36953320013937
 20
553.4165905092954
 30
0.0
  0
SPLINE
  5
79
330
5E
100
AcDbEntity
  8
$DDT_AUDIT_GENERATED_(69)
  6
Continuous
 62
     7
100
AcDbSpline
210
0.0
220
0.0
230
1.0
 70
     8
 71
     3
 72
    29
 73
    25
 74
     0
 42
0.0000000011057332
 43
0.0000000001
 40
0.0
 40
0.0
 40
0.0
 40
0.0
 40
0.0193483981179486
 40
0.0668929407130189
 40
0.1144739062906962
 40
0.1625359770897739
 40
0.2107266820062281
 40
0.259038122287135
 40
0.3074608519729969
 40
0.3559853278829292
 40
0.4046028142243661
 40
0.4533064292358674
 40
0.5020923306737788
 40
0.5509609940033373
 40
0.5999184080531447
 40
0.6489766629351116
 40
0.6981524948110651
 40
0.7474600764419972
 40
0.7967460425145927
 40
0.8459749376991814
 40
0.89509520026647
 40
0.9431423583570624
 40
0.9894326892717407
 40
1.0
 40
1.0
 40
1.0
 40
1.0
 10
47.27155000628722
 20
553.5520552885112
 30
0.0
 10
47.37563927364466
 20
553.5677865631097
 30
0.0
 10
47.68187985221613
 20
553.6141857133824
 30
0.0
 10
48.23091437192811
 20
553.7061727580037
 30
0.0
 10
48.87394654526213
 20
553.820996732109
 30
0.0
 10
49.49853282347888
 20
553.9419712397159
 30
0.0
 10
50.09749250945136
 20
554.0674367375917
 30
0.0
 10
50.66993503187334
 20
554.1973662449146
 30
0.0
 10
51.21434298340714
 20
554.3314655234274
 30
0.0
 10
51.72983130507727
 20
554.4695902152683
 30
0.0
 10
52.21542283676712
 20
554.611563705582
 30
0.0
 10
52.67025857127903
 20
554.7572370756129
 30
0.0
 10
53.09355421292811
 20
554.9064876853
 30
0.0
 10
53.4846222453756
 20
555.0592410924955
 30
0.0
 10
53.84286989266692
 20
555.2154913014007
 30
0.0
 10
54.16779553298483
 20
555.3753459676005
 30
0.0
 10
54.45894991099251
 20
555.5390260176581
 30
0.0
 10
54.71565684005729
 20
555.7069105731185
 30
0.0
 10
54.93720193144051
 20
555.8791522901998
 30
0.0
 10
55.12357636389318
 20
556.0566751202819
 30
0.0
 10
55.27393372724303
 20
556.2403376006199
 30
0.0
 10
55.3813813608641
 20
556.4270769438971
 30
0.0
 10
55.44165434359375
 20
556.5749308151817
 30
0.0
 10
55.45191182634836
 20
556.6506370089495
 30
0.0
 10
55.45408444655263
 20
556.6670844510046
 30
0.0
  0
ELLIPSE
  5
7B
330
5E
100
AcDbEntity
  8
$DDT_AUDIT_GENERATED_(7A)
  6
Continuous
 62
     7
100
AcDbEllipse
 10
31.35
 20
568.4116967736
 30
0.0
 11
3.181459353766902E-15
 21
3.820805109365055
 31
0.0
210
0.0
220
0.0
230
1.0
 40
0.9029510538
 41
0.0
 42
6.283185307179586
  0
LINE
  5
7C
330
5E
100
AcDbEntity
  8
$DDT_AUDIT_GENERATED_(7A)
  6
Continuous
 62
     7
100
AcDbLine
 10
27.9
 20
568.7023632321
 30
0.0
 11
27.9
 21
568.4116967736
 31
0.0
  0
LINE
  5
7D
330
5E
100
AcDbEntity
  8
$DDT_AUDIT_GENERATED_(7A)
  6
Continuous
 62
     7
100
AcDbLine
 10
34.8
 20
568.4116967736
 30
0.0
 11
34.8
 21
568.7023632321
 31
0.0
  0
ELLIPSE
  5
7F
330
5E
100
AcDbEntity
  8
$DDT_AUDIT_GENERATED_(7E)
  6
Continuous
 62
     7
100
AcDbEllipse
 10
31.35
 20
499.9771785162
 30
0.0
 11
10.075
 21
0.0
 31
0.0
210
0.0
220
0.0
230
1.0
 40
0.3420201433
 41
0.0
 42
3.737132702278552
  0
ELLIPSE
  5
80
330
5E
100
AcDbEntity
  8
$DDT_AUDIT_GENERATED_(7E)
  6
Continuous
 62
     7
100
AcDbEllipse
 10
31.35
 20
499.9771785162
 30
0.0
 11
10.075
 21
0.0
 31
0.0
210
0.0
220
0.0
230
1.0
 40
0.3420201433
 41
5.687645258490828
 42
6.283185307179586
  0
LINE
  5
81
330
5E
100
AcDbEntity
  8
$DDT_AUDIT_GENERATED_(7E)
  6
Continuous
 62
     7
100
AcDbLine
 10
42.925
 20
500.916871137
 30
0.0
 11
42.925
 21
513.1154341245
 31
0.0
  0
LINE
  5
82
330
5E
100
AcDbEntity
  8
$DDT_AUDIT_GENERATED_(7E)
  6
Continuous
 62
     7
100
AcDbLine
 10
19.775
 20
513.1164191848
 30
0.0
 11
19.775
 21
500.916871137
 31
0.0
  0
SPLINE
  5
83
330
5E
100
AcDbEntity
  8
$DDT_AUDIT_GENERATED_(7E)
  6
Continuous
 62
     7
100
AcDbSpline
210
0.0
220
0.0
230
1.0
 70
     8
 71
     3
 72
    23
 73
    19
 74
     0
 42
0.0000000009319146
 43
0.0000000001
 40
0.0
 40
0.0
 40
0.0
 40
0.0
 40
0.001008813439747
 40
0.0306504457760005
 40
0.0602190771547983
 40
0.090069261473825
 40
0.1206068339136943
 40
0.1522093991677242
 40
0.1851920909042809
 40
0.2197417144873356
 40
0.2558341058411358
 40
0.2931933661190071
 40
0.3313655285448454
 40
0.3698861621737093
 40
0.408362053267112
 40
0.4466283261390881
 40
0.4846375712456495
 40
0.5034960364829624
 40
0.5034960364829624
 40
0.5034960364829624
 40
0.5034960364829624
 10
19.7756088810208
 20
500.9183546201767
 30
0.0
 10
19.77538364019976
 20
500.9147939645153
 30
0.0
 10
19.76951009978889
 20
500.8215071548578
 30
0.0
 10
19.79084779403049
 20
500.6205146390825
 30
0.0
 10
19.8428993397026
 20
500.3422145824954
 30
0.0
 10
19.93346237588092
 20
500.0671502046017
 30
0.0
 10
20.05665613270573
 20
499.7998998122873
 30
0.0
 10
20.2142728858442
 20
499.5385052956663
 30
0.0
 10
20.40715809834288
 20
499.2826021347491
 30
0.0
 10
20.63708092171098
 20
499.0318294183342
 30
0.0
 10
20.9052274250236
 20
498.7868155312777
 30
0.0
 10
21.21149752837924
 20
498.5490487478626
 30
0.0
 10
21.55409281822779
 20
498.3204901503905
 30
0.0
 10
21.92981897939736
 20
498.1030133379071
 30
0.0
 10
22.33519877353691
 20
497.8977987833923
 30
0.0
 10
22.76724947065883
 20
497.7053011705722
 30
0.0
 10
23.14823315905419
 20
497.5552425659408
 30
0.0
 10
23.38576780581814
 20
497.4697785707233
 30
0.0
 10
23.46559272130447
 20
497.4419050087076
 30
0.0
  0
SPLINE
  5
84
330
5E
100
AcDbEntity
  8
$DDT_AUDIT_GENERATED_(7E)
  6
Continuous
 62
     7
100
AcDbSpline
210
0.0
220
0.0
230
1.0
 70
     8
 71
     3
 72
    23
 73
    19
 74
     0
 42
0.0000000009318583
 43
0.0000000001
 40
0.4961259630668064
 40
0.4961259630668064
 40
0.4961259630668064
 40
0.4961259630668064
 40
0.4971285755986957
 40
0.5347157829284257
 40
0.5725477316984522
 40
0.6106575407912075
 40
0.6490677719072195
 40
0.6877707148357526
 40
0.7266906821269029
 40
0.7655379214784861
 40
0.8038320621111891
 40
0.8371922303871465
 40
0.8690536298022059
 40
0.8995500308675716
 40
0.9320877869526808
 40
0.9633105617839541
 40
0.9935617578475175
 40
1.0
 40
1.0
 40
1.0
 40
1.0
 10
39.2277304986411
 20
497.4395756527498
 30
0.0
 10
39.23197627005866
 20
497.4410557286662
 30
0.0
 10
39.39527830825578
 20
497.4980735983486
 30
0.0
 10
39.70993012904725
 20
497.6148629194336
 30
0.0
 10
40.15093476883008
 20
497.7995632476191
 30
0.0
 10
40.56745666318832
 20
497.9970889295028
 30
0.0
 10
40.95832937397577
 20
498.2081536321206
 30
0.0
 10
41.32209695704882
 20
498.4336430112093
 30
0.0
 10
41.656477461351
 20
498.6742623772956
 30
0.0
 10
41.95817268132664
 20
498.9300563230982
 30
0.0
 10
42.21435973844385
 20
499.1909234392014
 30
0.0
 10
42.42522750481501
 20
499.4524250307371
 30
0.0
 10
42.59331865444371
 20
499.7100356699523
 30
0.0
 10
42.73104189869952
 20
499.9805504870568
 30
0.0
 10
42.8361758023227
 20
500.2647780409259
 30
0.0
 10
42.90085954880406
 20
500.5568832653951
 30
0.0
 10
42.92794013107161
 20
500.781679868795
 30
0.0
 10
42.92295474462167
 20
500.8927242496372
 30
0.0
 10
42.92188550073452
 20
500.9154770142202
 30
0.0
  0
ELLIPSE
  5
86
330
5E
100
AcDbEntity
  8
$DDT_AUDIT_GENERATED_(85)
  6
Continuous
 62
     7
100
AcDbEllipse
 10
31.35
 20
498.3797010608
 30
0.0
 11
7.875000000000002
 21
0.0
 31
0.0
210
0.0
220
0.0
230
1.0
 40
0.3420201433
 41
0.0
 42
6.283185307179586
  0
LINE
  5
87
330
5E
100
AcDbEntity
  8
$DDT_AUDIT_GENERATED_(85)
  6
Continuous
 62
     7
100
AcDbLine
 10
30.7169531555
 20
498.9373618634
 30
0.0
 11
30.6918156763
 21
498.9908129309
 31
0.0
  0
ARC
  5
88
330
5E
100
AcDbEntity
  8
$DDT_AUDIT_GENERATED_(85)
  6
Continuous
 62
     7
100
AcDbCircle
 10
31.7464780916
 20
499.7137115737
 30
0.0
 40
1.289434165341157
100
AcDbArc
 50
217.0194124008
 51
223.4250863556
  0
SPLINE
  5
89
330
5E
100
AcDbEntity
  8
$DDT_AUDIT_GENERATED_(85)
  6
Continuous
 62
     7
100
AcDbSpline
210
0.0
220
0.0
230
1.0
 70
    12
 71
     2
 72
     6
 73
     3
 74
     0
 42
0.0000011105898116
 43
0.0000000001
 40
0.0
 40
0.0
 40
0.0
 40
1.0
 40
1.0
 40
1.0
 10
30.81554498693813
 20
498.8202642693363
 30
0.0
 41
1.0
 10
30.81257085298924
 20
498.8237875186149
 30
0.0
 41
1.0
 10
30.80999588267154
 20
498.8273473488537
 30
0.0
 41
1.0
  0
SPLINE
  5
8A
330
5E
100
AcDbEntity
  8
$DDT_AUDIT_GENERATED_(85)
  6
Continuous
 62
     7
100
AcDbSpline
210
0.0
220
0.0
230
1.0
 70
     8
 71
     3
 72
     8
 73
     4
 74
     0
 42
0.0000002741158626
 43
0.0000000001
 40
0.7772426216629023
 40
0.7772426216629023
 40
0.7772426216629023
 40
0.7772426216629023
 40
1.0
 40
1.0
 40
1.0
 40
1.0
 10
30.81934551283848
 20
498.8143125076814
 30
0.0
 10
30.82002256373454
 20
498.8143452240777
 30
0.0
 10
30.81897823790094
 20
498.8161971361196
 30
0.0
 10
30.81554498693815
 20
498.8202642693363
 30
0.0
  0
ELLIPSE
  5
8B
330
5E
100
AcDbEntity
  8
$DDT_AUDIT_GENERATED_(85)
  6
Continuous
 62
     7
100
AcDbEllipse
 10
31.35
 20
498.4447813073
 30
0.0
 11
8.422375322854236
 21
0.0
 31
0.0
210
0.0
220
0.0
230
1.0
 40
0.3420201433
 41
5.923581994009463
 42
6.283185307179586
  0
ELLIPSE
  5
8C
330
5E
100
AcDbEntity
  8
$DDT_AUDIT_GENERATED_(85)
  6
Continuous
 62
     7
100
AcDbEllipse
 10
31.35
 20
498.4447813073
 30
0.0
 11
8.422375322854236
 21
0.0
 31
0.0
210
0.0
220
0.0
230
1.0
 40
0.3420201433
 41
3.141592653589793
 42
3.510081904151294
  0
ELLIPSE
  5
8D
330
5E
100
AcDbEntity
  8
$DDT_AUDIT_GENERATED_(85)
  6
Continuous
 62
     7
100
AcDbEllipse
 10
31.35
 20
498.4447813073
 30
0.0
 11
8.422375322854236
 21
0.0
 31
0.0
210
0.0
220
0.0
230
1.0
 40
0.3420201433
 41
0.0
 42
0.0145262525451488
  0
ELLIPSE
  5
8E
330
5E
100
AcDbEntity
  8
$DDT_AUDIT_GENERATED_(85)
  6
Continuous
 62
     7
100
AcDbEllipse
 10
31.35
 20
498.3797010608
 30
0.0
 11
8.327218268566536
 21
0.0
 31
0.0
210
0.0
220
0.0
230
1.0
 40
0.3420201433
 41
4.246508224829184
 42
5.374484190670401
  0
ELLIPSE
  5
8F
330
5E
100
AcDbEntity
  8
$DDT_AUDIT_GENERATED_(85)
  6
Continuous
 62
     7
100
AcDbEllipse
 10
31.35
 20
498.4566104402
 30
0.0
 11
-6.390109892686958
 21
0.0
 31
0.0
210
0.0
220
0.0
230
1.0
 40
0.3420201433
 41
2.872889242979775
 42
3.2145747977607
  0
ELLIPSE
  5
90
330
5E
100
AcDbEntity
  8
$DDT_AUDIT_GENERATED_(85)
  6
Continuous
 62
     7
100
AcDbEllipse
 10
31.35
 20
498.4566104402
 30
0.0
 11
-6.390109892686958
 21
0.0
 31
0.0
210
0.0
220
0.0
230
1.0
 40
0.3420201433
 41
0.0
 42
0.2635609476964146
  0
ELLIPSE
  5
91
330
5E
100
AcDbEntity
  8
$DDT_AUDIT_GENERATED_(85)
  6
Continuous
 62
     7
100
AcDbEllipse
 10
31.35
 20
498.3797010608
 30
0.0
 11
-6.29177167464824
 21
0.0
 31
0.0
210
0.0
220
0.0
230
1.0
 40
0.3420201433
 41
3.763131840766467
 42
5.705101237730751
  0
ELLIPSE
  5
92
330
5E
100
AcDbEntity
  8
$DDT_AUDIT_GENERATED_(85)
  6
Continuous
 62
     7
100
AcDbEllipse
 10
31.35
 20
498.3797010608
 30
0.0
 11
6.275000000000003
 21
0.0
 31
0.0
210
0.0
220
0.0
230
1.0
 40
0.3420201433
 41
3.964011514342224
 42
5.410314792782823
  0
ELLIPSE
  5
93
330
5E
100
AcDbEntity
  8
$DDT_AUDIT_GENERATED_(85)
  6
Continuous
 62
     7
100
AcDbEllipse
 10
31.35
 20
498.3797010608
 30
0.0
 11
6.275000000000003
 21
0.0
 31
0.0
210
0.0
220
0.0
230
1.0
 40
0.3420201433
 41
0.6307634051871616
 42
2.560685524742977
  0
ELLIPSE
  5
94
330
5E
100
AcDbEntity
  8
$DDT_AUDIT_GENERATED_(85)
  6
Continuous
 62
     7
100
AcDbEllipse
 10
31.35
 20
498.4736703229
 30
0.0
 11
6.175000000000002
 21
0.0
 31
0.0
210
0.0
220
0.0
230
1.0
 40
0.3420201433
 41
0.0
 42
0.1400952032357599
  0
ELLIPSE
  5
95
330
5E
100
AcDbEntity
  8
$DDT_AUDIT_GENERATED_(85)
  6
Continuous
 62
     7
100
AcDbEllipse
 10
31.35
 20
498.4736703229
 30
0.0
 11
6.175000000000002
 21
0.0
 31
0.0
210
0.0
220
0.0
230
1.0
 40
0.3420201433
 41
6.152804398792934
 42
6.283185307179586
  0
ELLIPSE
  5
96
330
5E
100
AcDbEntity
  8
$DDT_AUDIT_GENERATED_(85)
  6
Continuous
 62
     7
100
AcDbEllipse
 10
31.35
 20
498.4593816215
 30
0.0
 11
4.650545274088402
 21
0.0
 31
0.0
210
0.0
220
0.0
230
1.0
 40
0.3420201433
 41
3.141592653589793
 42
3.197617377764893
  0
ELLIPSE
  5
97
330
5E
100
AcDbEntity
  8
$DDT_AUDIT_GENERATED_(85)
  6
Continuous
 62
     7
100
AcDbEllipse
 10
31.35
 20
498.3797010608
 30
0.0
 11
4.55170810432334
 21
0.0
 31
0.0
210
0.0
220
0.0
230
1.0
 40
0.3420201433
 41
4.083199342686337
 42
5.223064193844403
  0
ELLIPSE
  5
98
330
5E
100
AcDbEntity
  8
$DDT_AUDIT_GENERATED_(85)
  6
Continuous
 62
     7
100
AcDbEllipse
 10
31.35
 20
498.3797010608
 30
0.0
 11
4.537499999999997
 21
0.0
 31
0.0
210
0.0
220
0.0
230
1.0
 40
0.3420201433
 41
3.946854571153307
 42
5.458005851047394
  0
ELLIPSE
  5
99
330
5E
100
AcDbEntity
  8
$DDT_AUDIT_GENERATED_(85)
  6
Continuous
 62
     7
100
AcDbEllipse
 10
31.35
 20
498.3797010608
 30
0.0
 11
4.537499999999997
 21
0.0
 31
0.0
210
0.0
220
0.0
230
1.0
 40
0.3420201433
 41
0.5719610197742901
 42
2.503893403838502
  0
ELLIPSE
  5
9A
330
5E
100
AcDbEntity
  8
$DDT_AUDIT_GENERATED_(85)
  6
Continuous
 62
     7
100
AcDbEllipse
 10
31.35
 20
498.4736703229
 30
0.0
 11
4.437500000000001
 21
0.0
 31
0.0
210
0.0
220
0.0
230
1.0
 40
0.3420201433
 41
6.265554430505663
 42
6.283185307179586
  0
ELLIPSE
  5
9B
330
5E
100
AcDbEntity
  8
$DDT_AUDIT_GENERATED_(85)
  6
Continuous
 62
     7
100
AcDbEllipse
 10
31.35
 20
498.4566104402
 30
0.0
 11
-2.877609892686964
 21
-1.387778780781446E-14
 31
0.0
210
0.0
220
0.0
230
1.0
 40
0.3420201433
 41
0.0
 42
0.0672451728035949
  0
ELLIPSE
  5
9C
330
5E
100
AcDbEntity
  8
$DDT_AUDIT_GENERATED_(85)
  6
Continuous
 62
     7
100
AcDbEllipse
 10
31.35
 20
498.3797010608
 30
0.0
 11
2.7625
 21
0.0
 31
0.0
210
0.0
220
0.0
230
1.0
 40
0.3420201433
 41
4.097545160176686
 42
5.317479260598944
  0
ELLIPSE
  5
9D
330
5E
100
AcDbEntity
  8
$DDT_AUDIT_GENERATED_(85)
  6
Continuous
 62
     7
100
AcDbEllipse
 10
31.35
 20
498.3797010608
 30
0.0
 11
2.7625
 21
0.0
 31
0.0
210
0.0
220
0.0
230
1.0
 40
0.3420201433
 41
0.7633330087833858
 42
2.540761303598535
  0
ELLIPSE
  5
9E
330
5E
100
AcDbEntity
  8
$DDT_AUDIT_GENERATED_(85)
  6
Continuous
 62
     7
100
AcDbEllipse
 10
31.35
 20
498.4736703229
 30
0.0
 11
-2.6625
 21
0.0
 31
0.0
210
0.0
220
0.0
230
1.0
 40
0.3420201433
 41
3.141592653589793
 42
3.170882342820406
  0
ELLIPSE
  5
9F
330
5E
100
AcDbEntity
  8
$DDT_AUDIT_GENERATED_(85)
  6
Continuous
 62
     7
100
AcDbEllipse
 10
31.35
 20
499.9067015696
 30
0.0
 11
8.925000000000004
 21
0.0
 31
0.0
210
0.0
220
0.0
230
1.0
 40
0.3420201433
 41
0.0
 42
0.1217006194894148
  0
ELLIPSE
  5
A0
330
5E
100
AcDbEntity
  8
$DDT_AUDIT_GENERATED_(85)
  6
Continuous
 62
     7
100
AcDbEllipse
 10
31.35
 20
499.9067015696
 30
0.0
 11
8.925000000000004
 21
0.0
 31
0.0
210
0.0
220
0.0
230
1.0
 40
0.3420201433
 41
3.026077376682767
 42
3.25945573402612
  0
ELLIPSE
  5
A1
330
5E
100
AcDbEntity
  8
$DDT_AUDIT_GENERATED_(85)
  6
Continuous
 62
     7
100
AcDbEllipse
 10
31.35
 20
499.9067015696
 30
0.0
 11
8.925000000000004
 21
0.0
 31
0.0
210
0.0
220
0.0
230
1.0
 40
0.3420201433
 41
6.165322226743262
 42
6.283185307179586
  0
LINE
  5
A2
330
5E
100
AcDbEntity
  8
$DDT_AUDIT_GENERATED_(85)
  6
Continuous
 62
     7
100
AcDbLine
 10
24.8780858014
 20
498.8767061585
 30
0.0
 11
24.8780858014
 21
498.869373215
 31
0.0
  0
SPLINE
  5
A3
330
5E
100
AcDbEntity
  8
$DDT_AUDIT_GENERATED_(85)
  6
Continuous
 62
     7
100
AcDbSpline
210
0.0
220
0.0
230
1.0
 70
     8
 71
     3
 72
    11
 73
     7
 74
     0
 42
0.0000003617126088
 43
0.0000000001
 40
0.0
 40
0.0
 40
0.0
 40
0.0
 40
0.2274863332652541
 40
0.2274863332652541
 40
0.2274863332652541
 40
0.237884006045096
 40
0.237884006045096
 40
0.237884006045096
 40
0.237884006045096
 10
24.87808580138627
 20
498.8693732150025
 30
0.0
 10
24.87810413901012
 20
498.8655867771192
 30
0.0
 10
24.87780338466504
 20
498.8635260049665
 30
0.0
 10
24.87720532302189
 20
498.8633545109153
 30
0.0
 10
24.87717798320933
 20
498.8633466712298
 30
0.0
 10
24.877149987579
 20
498.8633427662546
 30
0.0
 10
24.87712134248548
 20
498.8633427805617
 30
0.0
  0
SPLINE
  5
A4
330
5E
100
AcDbEntity
  8
$DDT_AUDIT_GENERATED_(85)
  6
Continuous
 62
     7
100
AcDbSpline
210
0.0
220
0.0
230
1.0
 70
     8
 71
     3
 72
    11
 73
     7
 74
     0
 42
0.0000003633118671
 43
0.0000000001
 40
0.7620081792794177
 40
0.7620081792794177
 40
0.7620081792794177
 40
0.7620081792794177
 40
0.934016552734404
 40
0.934016552734404
 40
0.934016552734404
 40
1.0
 40
1.0
 40
1.0
 40
1.0
 10
37.82288703486784
 20
498.8633484688848
 30
0.0
 10
37.82241099073329
 20
498.8633480551035
 30
0.0
 10
37.82210309170374
 20
498.864403137753
 30
0.0
 10
37.82197871202693
 20
498.8664854363942
 30
0.0
 10
37.82193035536284
 20
498.8672949980406
 30
0.0
 10
37.82190880703051
 20
498.8682599358194
 30
0.0
 10
37.82191419861372
 20
498.8693732150024
 30
0.0
  0
LINE
  5
A5
330
5E
100
AcDbEntity
  8
$DDT_AUDIT_GENERATED_(85)
  6
Continuous
 62
     7
100
AcDbLine
 10
37.8219141986
 20
498.869373215
 30
0.0
 11
37.8219141986
 21
498.8767061585
 31
0.0
  0
ARC
  5
A6
330
5E
100
AcDbEntity
  8
$DDT_AUDIT_GENERATED_(85)
  6
Continuous
 62
     7
100
AcDbCircle
 10
27.1836741755
 20
498.8730396868
 30
0.0
 40
0.551943406151244
100
AcDbArc
 50
179.6193905029
 51
180.3806094971
  0
SPLINE
  5
A7
330
5E
100
AcDbEntity
  8
$DDT_AUDIT_GENERATED_(85)
  6
Continuous
 62
     7
100
AcDbSpline
210
0.0
220
0.0
230
1.0
 70
     8
 71
     3
 72
    11
 73
     7
 74
     0
 42
0.0000003683914279
 43
0.0000000001
 40
0.0
 40
0.0
 40
0.0
 40
0.0
 40
0.228937770474165
 40
0.228937770474165
 40
0.228937770474165
 40
0.2362616721738839
 40
0.2362616721738839
 40
0.2362616721738839
 40
0.2362616721738839
 10
26.63174294737642
 20
498.8693732150025
 30
0.0
 10
26.6317681999792
 20
498.8655718220022
 30
0.0
 10
26.63154192572432
 20
498.8635093937032
 30
0.0
 10
26.63107720748465
 20
498.8633524628978
 30
0.0
 10
26.63106233942176
 20
498.8633474420982
 30
0.0
 10
26.63104721375278
 20
498.8633443663587
 30
0.0
 10
26.63103183193918
 20
498.8633432305282
 30
0.0
  0
SPLINE
  5
A8
330
5E
100
AcDbEntity
  8
$DDT_AUDIT_GENERATED_(85)
  6
Continuous
 62
     7
100
AcDbSpline
210
0.0
220
0.0
230
1.0
 70
     8
 71
     3
 72
    11
 73
     7
 74
     0
 42
0.0000003717636871
 43
0.0000000001
 40
0.7615121461813038
 40
0.7615121461813038
 40
0.7615121461813038
 40
0.7615121461813038
 40
0.9310036385220741
 40
0.9310036385220741
 40
0.9310036385220741
 40
1.0
 40
1.0
 40
1.0
 40
1.0
 10
36.06898799049659
 20
498.8633487526137
 30
0.0
 10
36.06862673815507
 20
498.8633485031926
 30
0.0
 10
36.06839526478841
 20
498.8643686034947
 30
0.0
 10
36.06830275488518
 20
498.8663820636672
 30
0.0
 10
36.06826459677816
 20
498.8672125674951
 30
0.0
 10
36.06824934028144
 20
498.8682122398881
 30
0.0
 10
36.06825705262357
 20
498.8693732150024
 30
0.0
  0
ARC
  5
A9
330
5E
100
AcDbEntity
  8
$DDT_AUDIT_GENERATED_(85)
  6
Continuous
 62
     7
100
AcDbCircle
 10
35.5163258245
 20
498.8730396868
 30
0.0
 40
0.5519434061491552
100
AcDbArc
 50
359.6193905029
 51
0.3806094971
  0
ELLIPSE
  5
AA
330
5E
100
AcDbEntity
  8
$DDT_AUDIT_GENERATED_(85)
  6
Continuous
 62
     7
100
AcDbEllipse
 10
31.35
 20
499.789239992
 30
0.0
 11
9.049999999999999
 21
0.0
 31
0.0
210
0.0
220
0.0
230
1.0
 40
0.3420201433
 41
1.576389658546129
 42
2.291077827362828
  0
ELLIPSE
  5
AB
330
5E
100
AcDbEntity
  8
$DDT_AUDIT_GENERATED_(85)
  6
Continuous
 62
     7
100
AcDbEllipse
 10
31.35
 20
499.789239992
 30
0.0
 11
9.049999999999999
 21
0.0
 31
0.0
210
0.0
220
0.0
230
1.0
 40
0.3420201433
 41
0.826957396446721
 42
1.564038437713721
  0
LINE
  5
AC
330
5E
100
AcDbEntity
  8
$DDT_AUDIT_GENERATED_(85)
  6
Continuous
 62
     7
100
AcDbLine
 10
30.1
 20
502.923906384
 30
0.0
 11
30.1
 21
502.8807525756
 31
0.0
  0
LINE
  5
AD
330
5E
100
AcDbEntity
  8
$DDT_AUDIT_GENERATED_(85)
  6
Continuous
 62
     7
100
AcDbLine
 10
32.6
 20
502.8807525756
 30
0.0
 11
32.6
 21
502.923906384
 31
0.0
  0
LINE
  5
AE
330
5E
100
AcDbEntity
  8
$DDT_AUDIT_GENERATED_(85)
  6
Continuous
 62
     7
100
AcDbLine
 10
40.5151513899
 20
500.2167651712
 30
0.0
 11
40.3889780949
 21
500.2167651712
 31
0.0
  0
ARC
  5
AF
330
5E
100
AcDbEntity
  8
$DDT_AUDIT_GENERATED_(85)
  6
Continuous
 62
     7
100
AcDbCircle
 10
40.5183906344
 20
500.3144589611
 30
0.0
 40
0.0977474771856341
100
AcDbArc
 50
268.1009328449
 51
357.8162976153
  0
LINE
  5
B0
330
5E
100
AcDbEntity
  8
$DDT_AUDIT_GENERATED_(85)
  6
Continuous
 62
     7
100
AcDbLine
 10
40.6160671269
 20
501.3300238343
 30
0.0
 11
40.6160671269
 21
500.3107344333
 31
0.0
  0
ARC
  5
B1
330
5E
100
AcDbEntity
  8
$DDT_AUDIT_GENERATED_(85)
  6
Continuous
 62
     7
100
AcDbCircle
 10
40.51861055
 20
499.4591724303
 30
0.0
 40
0.0975189878558403
100
AcDbArc
 50
267.9671972884
 51
357.9500331719
  0
LINE
  5
B2
330
5E
100
AcDbEntity
  8
$DDT_AUDIT_GENERATED_(85)
  6
Continuous
 62
     7
100
AcDbLine
 10
40.3889780949
 20
499.3617148129
 30
0.0
 11
40.5151513899
 21
499.3617148129
 31
0.0
  0
LINE
  5
B3
330
5E
100
AcDbEntity
  8
$DDT_AUDIT_GENERATED_(85)
  6
Continuous
 62
     7
100
AcDbLine
 10
22.1848486101
 20
499.3617148129
 30
0.0
 11
22.3110219051
 21
499.3617148129
 31
0.0
  0
ARC
  5
B4
330
5E
100
AcDbEntity
  8
$DDT_AUDIT_GENERATED_(85)
  6
Continuous
 62
     7
100
AcDbCircle
 10
22.1816093656
 20
499.4594086028
 30
0.0
 40
0.0977474771856396
100
AcDbArc
 50
182.1837023847
 51
271.8990671551
  0
LINE
  5
B5
330
5E
100
AcDbEntity
  8
$DDT_AUDIT_GENERATED_(85)
  6
Continuous
 62
     7
100
AcDbLine
 10
22.0839328731
 20
500.3107344333
 30
0.0
 11
22.0839328731
 21
501.3300238343
 31
0.0
  0
ARC
  5
B6
330
5E
100
AcDbEntity
  8
$DDT_AUDIT_GENERATED_(85)
  6
Continuous
 62
     7
100
AcDbCircle
 10
22.18138945
 20
500.3142227887
 30
0.0
 40
0.0975189878558452
100
AcDbArc
 50
182.0499668281
 51
272.0328027116
  0
LINE
  5
B7
330
5E
100
AcDbEntity
  8
$DDT_AUDIT_GENERATED_(85)
  6
Continuous
 62
     7
100
AcDbLine
 10
22.3110219051
 20
500.2167651712
 30
0.0
 11
22.1848486101
 21
500.2167651712
 31
0.0
  0
ELLIPSE
  5
B8
330
5E
100
AcDbEntity
  8
$DDT_AUDIT_GENERATED_(85)
  6
Continuous
 62
     7
100
AcDbEllipse
 10
31.35
 20
499.8832092541
 30
0.0
 11
-9.349999999984666
 21
4.163336342344337E-13
 31
0.0
210
0.0
220
0.0
230
1.0
 40
0.3420201433
 41
3.00750133739573
 42
3.275683969783875
  0
ELLIPSE
  5
B9
330
5E
100
AcDbEntity
  8
$DDT_AUDIT_GENERATED_(85)
  6
Continuous
 62
     7
100
AcDbEllipse
 10
31.35
 20
499.8832092541
 30
0.0
 11
9.349999999982844
 21
0.0
 31
0.0
210
0.0
220
0.0
230
1.0
 40
0.3420201433
 41
3.007501337395693
 42
3.275683969783876
  0
SPLINE
  5
BA
330
5E
100
AcDbEntity
  8
$DDT_AUDIT_GENERATED_(85)
  6
Continuous
 62
     7
100
AcDbSpline
210
0.0
220
0.0
230
1.0
 70
    12
 71
     2
 72
     6
 73
     3
 74
     0
 42
0.0000000101128699
 43
0.0000000001
 40
0.4606819042472664
 40
0.4606819042472664
 40
0.4606819042472664
 40
1.0
 40
1.0
 40
1.0
 10
39.12015126971806
 20
498.8177503524496
 30
0.0
 41
1.0
 10
39.11277465839093
 20
498.5511959322673
 30
0.0
 41
1.0
 10
39.10516597223025
 20
498.2846622271064
 30
0.0
 41
1.0
  0
SPLINE
  5
BB
330
5E
100
AcDbEntity
  8
$DDT_AUDIT_GENERATED_(85)
  6
Continuous
 62
     7
100
AcDbSpline
210
0.0
220
0.0
230
1.0
 70
     8
 71
     3
 72
    20
 73
    16
 74
     0
 42
0.0000000831783522
 43
0.0000000001
 40
0.0
 40
0.0
 40
0.0
 40
0.0
 40
0.2315845247926668
 40
0.2315845247926668
 40
0.2315845247926668
 40
0.4631680505545722
 40
0.4631680505545722
 40
0.4631680505545722
 40
0.6947657374433955
 40
0.6947657374433955
 40
0.6947657374433955
 40
0.9263670664941054
 40
0.9263670664941054
 40
0.9263670664941054
 40
1.0
 40
1.0
 40
1.0
 40
1.0
 10
39.10516597166072
 20
498.2846622266145
 30
0.0
 10
39.10485570285601
 20
498.2737933856753
 30
0.0
 10
39.10406999677475
 20
498.2623430826488
 30
0.0
 10
39.10286800079283
 20
498.2512600942893
 30
0.0
 10
39.10166600788002
 20
498.2401771342286
 30
0.0
 10
39.10001416183395
 20
498.2291558476931
 30
0.0
 10
39.09803873563167
 20
498.2191096813899
 30
0.0
 10
39.09606319161119
 20
498.2090629159142
 30
0.0
 10
39.09370900466156
 20
498.1997143290629
 30
0.0
 10
39.09116063306482
 20
498.1918389854733
 30
0.0
 10
39.08861222609831
 20
498.1839635325789
 30
0.0
 10
39.08579891625721
 20
498.1773441837381
 30
0.0
 10
39.08294785156662
 20
498.1725297531994
 30
0.0
 10
39.08202970560903
 20
498.1709793324209
 30
0.0
 10
39.08110247199934
 20
498.1696024786083
 30
0.0
 10
39.08017422471721
 20
498.1684112471057
 30
0.0
  0
LINE
  5
BC
330
5E
100
AcDbEntity
  8
$DDT_AUDIT_GENERATED_(85)
  6
Continuous
 62
     7
100
AcDbLine
 10
39.0801742247
 20
498.1684112471
 30
0.0
 11
39.0746251205
 21
498.1613281676
 31
0.0
  0
SPLINE
  5
BD
330
5E
100
AcDbEntity
  8
$DDT_AUDIT_GENERATED_(85)
  6
Continuous
 62
     7
100
AcDbSpline
210
0.0
220
0.0
230
1.0
 70
     8
 71
     3
 72
    11
 73
     7
 74
     0
 42
0.0000002130074134
 43
0.0000000001
 40
0.0
 40
0.0
 40
0.0
 40
0.0
 40
0.2315840401501965
 40
0.2315840401501965
 40
0.2315840401501965
 40
0.2470737975213545
 40
0.2470737975213545
 40
0.2470737975213545
 40
0.2470737975213545
 10
39.0746251204506
 20
498.1613281675883
 30
0.0
 10
39.07171392651035
 20
498.15763203174
 30
0.0
 10
39.06873866162627
 20
498.1557028621505
 30
0.0
 10
39.06594938994765
 20
498.1557000145612
 30
0.0
 10
39.06576282609524
 20
498.1556998240967
 30
0.0
 10
39.06557675165554
 20
498.1557082509586
 30
0.0
 10
39.06539123583992
 20
498.1557252472174
 30
0.0
  0
SPLINE
  5
BE
330
5E
100
AcDbEntity
  8
$DDT_AUDIT_GENERATED_(85)
  6
Continuous
 62
     7
100
AcDbSpline
210
0.0
220
0.0
230
1.0
 70
    12
 71
     2
 72
     6
 73
     3
 74
     0
 42
0.0000000101392083
 43
0.0000000001
 40
0.3919695679319123
 40
0.3919695679319123
 40
0.3919695679319123
 40
1.0
 40
1.0
 40
1.0
 10
38.36642774543404
 20
498.2197802494053
 30
0.0
 41
1.0
 10
38.34963991517363
 20
497.9203911226667
 30
0.0
 41
1.0
 10
38.33258759359039
 20
497.6210535172831
 30
0.0
 41
1.0
  0
SPLINE
  5
BF
330
5E
100
AcDbEntity
  8
$DDT_AUDIT_GENERATED_(85)
  6
Continuous
 62
     7
100
AcDbSpline
210
0.0
220
0.0
230
1.0
 70
     8
 71
     3
 72
    20
 73
    16
 74
     0
 42
0.0000000786123329
 43
0.0000000001
 40
0.0
 40
0.0
 40
0.0
 40
0.0
 40
0.2315845265246971
 40
0.2315845265246971
 40
0.2315845265246971
 40
0.463168051764622
 40
0.463168051764622
 40
0.463168051764622
 40
0.6947657381314324
 40
0.6947657381314324
 40
0.6947657381314324
 40
0.9263670666601213
 40
0.9263670666601213
 40
0.9263670666601213
 40
1.0
 40
1.0
 40
1.0
 40
1.0
 10
38.33258759372285
 20
497.6210535173337
 30
0.0
 10
38.33197080908216
 20
497.6102264190545
 30
0.0
 10
38.33040865258502
 20
497.5988818351289
 30
0.0
 10
38.32802520240126
 20
497.5879602915441
 30
0.0
 10
38.32564175830327
 20
497.5770387758459
 30
0.0
 10
38.32237092287531
 20
497.5662391468572
 30
0.0
 10
38.31847411032886
 20
497.5564573945817
 30
0.0
 10
38.31457706536907
 20
497.5466750589039
 30
0.0
 10
38.30994600053933
 20
497.5376410026153
 30
0.0
 10
38.30495498099072
 20
497.5301051412682
 30
0.0
 10
38.29996389216999
 20
497.5225691753282
 30
0.0
 10
38.29447478822101
 20
497.5163236659656
 30
0.0
 10
38.2889370246457
 20
497.5118869659595
 30
0.0
 10
38.28715366446539
 20
497.5104581880755
 30
0.0
 10
38.28535509930065
 20
497.5092040710016
 30
0.0
 10
38.28355703320207
 20
497.5081355994092
 30
0.0
  0
LINE
  5
C0
330
5E
100
AcDbEntity
  8
$DDT_AUDIT_GENERATED_(85)
  6
Continuous
 62
     7
100
AcDbLine
 10
38.2835570332
 20
497.5081355994
 30
0.0
 11
38.272836987
 21
497.501785084
 31
0.0
  0
SPLINE
  5
C1
330
5E
100
AcDbEntity
  8
$DDT_AUDIT_GENERATED_(85)
  6
Continuous
 62
     7
100
AcDbSpline
210
0.0
220
0.0
230
1.0
 70
     8
 71
     3
 72
    11
 73
     7
 74
     0
 42
0.0000001322983622
 43
0.0000000001
 40
0.0
 40
0.0
 40
0.0
 40
0.0
 40
0.2315840402084322
 40
0.2315840402084322
 40
0.2315840402084322
 40
0.2726065000170989
 40
0.2726065000170989
 40
0.2726065000170989
 40
0.2726065000170989
 10
38.27283698695427
 20
497.5017850840465
 30
0.0
 10
38.26722798951299
 20
497.4984725937236
 30
0.0
 10
38.2615202008979
 20
497.4969344029834
 30
0.0
 10
38.25618958991559
 20
497.4972971758961
 30
0.0
 10
38.25524533173382
 20
497.4973614370646
 30
0.0
 10
38.25430830474987
 20
497.4974856583771
 30
0.0
 10
38.25338090294261
 20
497.4976687838549
 30
0.0
  0
SPLINE
  5
C2
330
5E
100
AcDbEntity
  8
$DDT_AUDIT_GENERATED_(85)
  6
Continuous
 62
     7
100
AcDbSpline
210
0.0
220
0.0
230
1.0
 70
    12
 71
     2
 72
     6
 73
     3
 74
     0
 42
0.0000000101851245
 43
0.0000000001
 40
0.546710228037634
 40
0.546710228037634
 40
0.546710228037634
 40
1.0
 40
1.0
 40
1.0
 10
37.12036505573603
 20
497.492021858449
 30
0.0
 41
1.0
 10
37.10232125134937
 20
497.2702137945616
 30
0.0
 41
1.0
 10
37.08415740971905
 20
497.0484463891269
 30
0.0
 41
1.0
  0
SPLINE
  5
C3
330
5E
100
AcDbEntity
  8
$DDT_AUDIT_GENERATED_(85)
  6
Continuous
 62
     7
100
AcDbSpline
210
0.0
220
0.0
230
1.0
 70
     8
 71
     3
 72
    20
 73
    16
 74
     0
 42
0.0000000740261086
 43
0.0000000001
 40
0.0
 40
0.0
 40
0.0
 40
0.0
 40
0.2315845242646621
 40
0.2315845242646621
 40
0.2315845242646621
 40
0.4631680501856974
 40
0.4631680501856974
 40
0.4631680501856974
 40
0.6947657372336652
 40
0.6947657372336652
 40
0.6947657372336652
 40
0.9263670664435186
 40
0.9263670664435186
 40
0.9263670664435186
 40
1.0
 40
1.0
 40
1.0
 40
1.0
 10
37.0841574116919
 20
497.0484463895037
 30
0.0
 10
37.08327614292163
 20
497.037686744862
 30
0.0
 10
37.08104399439232
 20
497.0265130101674
 30
0.0
 10
37.0776415181979
 20
497.0158519941537
 30
0.0
 10
37.07423905069118
 20
497.0051910053613
 30
0.0
 10
37.06957212791044
 20
496.99474879621
 30
0.0
 10
37.06401949035509
 20
496.9853925319414
 30
0.0
 10
37.05846652162982
 20
496.9760357096474
 30
0.0
 10
37.05187417833492
 20
496.9675070188035
 30
0.0
 10
37.04478064056865
 20
496.9605152985599
 30
0.0
 10
37.03768700434865
 20
496.9535234812757
 30
0.0
 10
37.02989617965473
 20
496.9478759379651
 30
0.0
 10
37.02204910663077
 20
496.944041927786
 30
0.0
 10
37.01952206527688
 20
496.9428072378265
 30
0.0
 10
37.01697473780082
 20
496.9417488067636
 30
0.0
 10
37.01442938811896
 20
496.9408759096547
 30
0.0
  0
LINE
  5
C4
330
5E
100
AcDbEntity
  8
$DDT_AUDIT_GENERATED_(85)
  6
Continuous
 62
     7
100
AcDbLine
 10
37.0144293881
 20
496.9408759097
 30
0.0
 11
36.9992689533
 21
496.9356907356
 31
0.0
  0
SPLINE
  5
C5
330
5E
100
AcDbEntity
  8
$DDT_AUDIT_GENERATED_(85)
  6
Continuous
 62
     7
100
AcDbSpline
210
0.0
220
0.0
230
1.0
 70
     8
 71
     3
 72
    11
 73
     7
 74
     0
 42
0.0000000979328065
 43
0.0000000001
 40
0.0
 40
0.0
 40
0.0
 40
0.0
 40
0.2315840402130826
 40
0.2315840402130826
 40
0.2315840402130826
 40
0.3260835775960261
 40
0.3260835775960261
 40
0.3260835775960261
 40
0.3260835775960261
 10
36.99926895332604
 20
496.935690735574
 30
0.0
 10
36.99134439629005
 20
496.932987631518
 30
0.0
 10
36.9832930603055
 20
496.9320689839722
 30
0.0
 10
36.97578438234869
 20
496.9330098818976
 30
0.0
 10
36.97272040726568
 20
496.9333938226946
 30
0.0
 10
36.96971234752471
 20
496.9340917021102
 30
0.0
 10
36.96680102254795
 20
496.935087455816
 30
0.0
  0
SPLINE
  5
C6
330
5E
100
AcDbEntity
  8
$DDT_AUDIT_GENERATED_(85)
  6
Continuous
 62
     7
100
AcDbSpline
210
0.0
220
0.0
230
1.0
 70
    12
 71
     2
 72
     6
 73
     3
 74
     0
 42
0.0000000102515426
 43
0.0000000001
 40
0.8599224931913723
 40
0.8599224931913723
 40
0.8599224931913723
 40
1.0
 40
1.0
 40
1.0
 10
35.45877599387134
 20
496.7418025909908
 30
0.0
 41
1.0
 10
35.4518689877947
 20
496.6738304496064
 30
0.0
 41
1.0
 10
35.44495387451842
 20
496.6058630721437
 30
0.0
 41
1.0
  0
ARC
  5
C7
330
5E
100
AcDbEntity
  8
$DDT_AUDIT_GENERATED_(85)
  6
Continuous
 62
     7
100
AcDbCircle
 10
35.3303603229
 20
496.6167028302
 30
0.0
 40
0.1151050955603334
100
AcDbArc
 50
284.5513711819
 51
354.5962943363
  0
LINE
  5
C8
330
5E
100
AcDbEntity
  8
$DDT_AUDIT_GENERATED_(85)
  6
Continuous
 62
     7
100
AcDbLine
 10
35.3592802411
 20
496.5052899883
 30
0.0
 11
35.3407125764
 21
496.5016235165
 31
0.0
  0
ARC
  5
C9
330
5E
100
AcDbEntity
  8
$DDT_AUDIT_GENERATED_(85)
  6
Continuous
 62
     7
100
AcDbCircle
 10
35.3256805378
 20
496.5714917948
 30
0.0
 40
0.0714670448174097
100
AcDbArc
 50
239.6866951515
 51
282.1419993851
  0
SPLINE
  5
CA
330
5E
100
AcDbEntity
  8
$DDT_AUDIT_GENERATED_(85)
  6
Continuous
 62
     7
100
AcDbSpline
210
0.0
220
0.0
230
1.0
 70
    12
 71
     2
 72
     6
 73
     3
 74
     0
 42
0.0000000103374966
 43
0.0000000001
 40
0.9607169198388376
 40
0.9607169198388376
 40
0.9607169198388376
 40
1.0
 40
1.0
 40
1.0
 10
33.53103016550915
 20
496.3612163360979
 30
0.0
 41
1.0
 10
33.52885824786487
 20
496.3423404029201
 30
0.0
 41
1.0
 10
33.52668600000077
 20
496.3234648879824
 30
0.0
 41
1.0
  0
ARC
  5
CB
330
5E
100
AcDbEntity
  8
$DDT_AUDIT_GENERATED_(85)
  6
Continuous
 62
     7
100
AcDbCircle
 10
33.4203837498
 20
496.3378109532
 30
0.0
 40
0.1072659230542908
100
AcDbArc
 50
275.6290912917
 51
352.3140606367
  0
LINE
  5
CC
330
5E
100
AcDbEntity
  8
$DDT_AUDIT_GENERATED_(85)
  6
Continuous
 62
     7
100
AcDbLine
 10
33.4309052714
 20
496.2310622959
 30
0.0
 11
33.4101957323
 21
496.2291643905
 31
0.0
  0
ARC
  5
CD
330
5E
100
AcDbEntity
  8
$DDT_AUDIT_GENERATED_(85)
  6
Continuous
 62
     7
100
AcDbCircle
 10
33.3995792423
 20
496.3147347442
 30
0.0
 40
0.0862264187391551
100
AcDbArc
 50
217.8337205779
 51
277.0723974757
  0
ARC
  5
CE
330
5E
100
AcDbEntity
  8
$DDT_AUDIT_GENERATED_(85)
  6
Continuous
 62
     7
100
AcDbCircle
 10
31.3631124618
 20
496.2348809707
 30
0.0
 40
0.0980291719718624
100
AcDbArc
 50
268.6015496994
 51
351.5623241576
  0
LINE
  5
CF
330
5E
100
AcDbEntity
  8
$DDT_AUDIT_GENERATED_(85)
  6
Continuous
 62
     7
100
AcDbLine
 10
31.3607200462
 20
496.1368809967
 30
0.0
 11
31.3392799538
 21
496.1368809967
 31
0.0
  0
ARC
  5
D0
330
5E
100
AcDbEntity
  8
$DDT_AUDIT_GENERATED_(85)
  6
Continuous
 62
     7
100
AcDbCircle
 10
31.3371509976
 20
496.2351940393
 30
0.0
 40
0.0983360909970885
100
AcDbArc
 50
188.5955874772
 51
271.2405387441
  0
ARC
  5
D1
330
5E
100
AcDbEntity
  8
$DDT_AUDIT_GENERATED_(85)
  6
Continuous
 62
     7
100
AcDbCircle
 10
29.3005840997
 20
496.3145247747
 30
0.0
 40
0.086038363401901
100
AcDbArc
 50
262.8024394288
 51
322.1564792083
  0
LINE
  5
D2
330
5E
100
AcDbEntity
  8
$DDT_AUDIT_GENERATED_(85)
  6
Continuous
 62
     7
100
AcDbLine
 10
29.2898042677
 20
496.2291643905
 30
0.0
 11
29.2690947286
 21
496.2310622959
 31
0.0
  0
ARC
  5
D3
330
5E
100
AcDbEntity
  8
$DDT_AUDIT_GENERATED_(85)
  6
Continuous
 62
     7
100
AcDbCircle
 10
29.2796973616
 20
496.3378950274
 30
0.0
 40
0.1073575723167673
100
AcDbArc
 50
187.7246165037
 51
264.3322302216
  0
SPLINE
  5
D4
330
5E
100
AcDbEntity
  8
$DDT_AUDIT_GENERATED_(85)
  6
Continuous
 62
     7
100
AcDbSpline
210
0.0
220
0.0
230
1.0
 70
    12
 71
     2
 72
     6
 73
     3
 74
     0
 42
0.0000000103374966
 43
0.0000000001
 40
0.0
 40
0.0
 40
0.0
 40
0.0392830802923784
 40
0.0392830802923784
 40
0.0392830802923784
 10
29.17331400098884
 20
496.323464888001
 30
0.0
 41
1.0
 10
29.17114175311763
 20
496.3423404030004
 30
0.0
 41
1.0
 10
29.16896983546625
 20
496.3612163362399
 30
0.0
 41
1.0
  0
ARC
  5
D5
330
5E
100
AcDbEntity
  8
$DDT_AUDIT_GENERATED_(85)
  6
Continuous
 62
     7
100
AcDbCircle
 10
27.3741755673
 20
496.5716785514
 30
0.0
 40
0.0716195834211998
100
AcDbArc
 50
258.0019670086
 51
300.2979427943
  0
LINE
  5
D6
330
5E
100
AcDbEntity
  8
$DDT_AUDIT_GENERATED_(85)
  6
Continuous
 62
     7
100
AcDbLine
 10
27.3592874236
 20
496.5016235165
 30
0.0
 11
27.3407197589
 21
496.5052899883
 31
0.0
  0
ARC
  5
D7
330
5E
100
AcDbEntity
  8
$DDT_AUDIT_GENERATED_(85)
  6
Continuous
 62
     7
100
AcDbCircle
 10
27.3691388518
 20
496.6162761966
 30
0.0
 40
0.1145669379916245
100
AcDbArc
 50
185.2148782264
 51
255.6374544391
  0
SPLINE
  5
D8
330
5E
100
AcDbEntity
  8
$DDT_AUDIT_GENERATED_(85)
  6
Continuous
 62
     7
100
AcDbSpline
210
0.0
220
0.0
230
1.0
 70
    12
 71
     2
 72
     6
 73
     3
 74
     0
 42
0.0000000102515467
 43
0.0000000001
 40
0.0
 40
0.0
 40
0.0
 40
0.1381135802248743
 40
0.1381135802248743
 40
0.1381135802248743
 10
27.25504612579112
 20
496.6058630721207
 30
0.0
 41
1.0
 10
27.24822796437499
 20
496.6728775275687
 30
0.0
 41
1.0
 10
27.2414176844215
 20
496.7398966142929
 30
0.0
 41
1.0
  0
SPLINE
  5
D9
330
5E
100
AcDbEntity
  8
$DDT_AUDIT_GENERATED_(85)
  6
Continuous
 62
     7
100
AcDbSpline
210
0.0
220
0.0
230
1.0
 70
     8
 71
     3
 72
    14
 73
    10
 74
     0
 42
0.0000000977230315
 43
0.0000000001
 40
0.6746727820294746
 40
0.6746727820294746
 40
0.6746727820294746
 40
0.6746727820294746
 40
0.6947657378622393
 40
0.6947657378622393
 40
0.6947657378622393
 40
0.9263670665954574
 40
0.9263670665954574
 40
0.9263670665954574
 40
1.0
 40
1.0
 40
1.0
 40
1.0
 10
25.7331882135913
 20
496.9350749180218
 30
0.0
 10
25.73257204556557
 20
496.9348641833453
 30
0.0
 10
25.73195189886404
 20
496.9346673257343
 30
0.0
 10
25.73132814129485
 20
496.9344845620786
 30
0.0
 10
25.72413841688439
 20
496.9323779418445
 30
0.0
 10
25.71627093236387
 20
496.9320858556956
 30
0.0
 10
25.70838153257687
 20
496.9336340362026
 30
0.0
 10
25.70584086047427
 20
496.9341326063259
 30
0.0
 10
25.70328322708164
 20
496.934820174711
 30
0.0
 10
25.70073104667386
 20
496.935690735574
 30
0.0
  0
LINE
  5
DA
330
5E
100
AcDbEntity
  8
$DDT_AUDIT_GENERATED_(85)
  6
Continuous
 62
     7
100
AcDbLine
 10
25.7007310467
 20
496.9356907356
 30
0.0
 11
25.6855706119
 21
496.9408759097
 31
0.0
  0
ARC
  5
DB
330
5E
100
AcDbEntity
  8
$DDT_AUDIT_GENERATED_(85)
  6
Continuous
 62
     7
100
AcDbCircle
 10
25.739948871
 20
497.0525086828
 30
0.0
 40
0.1241727470330459
100
AcDbArc
 50
181.8747577647
 51
244.0284840099
  0
SPLINE
  5
DC
330
5E
100
AcDbEntity
  8
$DDT_AUDIT_GENERATED_(85)
  6
Continuous
 62
     7
100
AcDbSpline
210
0.0
220
0.0
230
1.0
 70
    12
 71
     2
 72
     6
 73
     3
 74
     0
 42
0.0000000101851222
 43
0.0000000001
 40
0.0
 40
0.0
 40
0.0
 40
0.454775449713949
 40
0.454775449713949
 40
0.454775449713949
 10
25.61584259046541
 20
497.0484463890917
 30
0.0
 41
1.0
 10
25.59761921602329
 20
497.2709406472198
 30
0.0
 41
1.0
 10
25.57951666696791
 20
497.4934758307746
 30
0.0
 41
1.0
  0
SPLINE
  5
DD
330
5E
100
AcDbEntity
  8
$DDT_AUDIT_GENERATED_(85)
  6
Continuous
 62
     7
100
AcDbSpline
210
0.0
220
0.0
230
1.0
 70
     8
 71
     3
 72
    11
 73
     7
 74
     0
 42
0.0000001323825268
 43
0.0000000001
 40
0.7270388833890756
 40
0.7270388833890756
 40
0.7270388833890756
 40
0.7270388833890756
 40
0.9263670665175509
 40
0.9263670665175509
 40
0.9263670665175509
 40
1.0
 40
1.0
 40
1.0
 40
1.0
 10
24.44670000583657
 20
497.4976836303974
 30
0.0
 10
24.44219719808926
 20
497.4967944309009
 30
0.0
 10
24.43739139061999
 20
497.4972851536796
 30
0.0
 10
24.43258068669387
 20
497.4991399541209
 30
0.0
 10
24.43078063232398
 20
497.499833977634
 30
0.0
 10
24.42896944504078
 20
497.5007182644295
 30
0.0
 10
24.42716301304567
 20
497.5017850840465
 30
0.0
  0
LINE
  5
DE
330
5E
100
AcDbEntity
  8
$DDT_AUDIT_GENERATED_(85)
  6
Continuous
 62
     7
100
AcDbLine
 10
24.427163013
 20
497.501785084
 30
0.0
 11
24.4164429668
 21
497.5081355994
 31
0.0
  0
SPLINE
  5
DF
330
5E
100
AcDbEntity
  8
$DDT_AUDIT_GENERATED_(85)
  6
Continuous
 62
     7
100
AcDbSpline
210
0.0
220
0.0
230
1.0
 70
     8
 71
     3
 72
    20
 73
    16
 74
     0
 42
0.0000000785906973
 43
0.0000000001
 40
0.0
 40
0.0
 40
0.0
 40
0.0
 40
0.2315840402895025
 40
0.2315840402895025
 40
0.2315840402895025
 40
0.4631672024700597
 40
0.4631672024700597
 40
0.4631672024700597
 40
0.6947632584348779
 40
0.6947632584348779
 40
0.6947632584348779
 40
0.9263655147223508
 40
0.9263655147223508
 40
0.9263655147223508
 40
1.0
 40
1.0
 40
1.0
 40
1.0
 10
24.41644296679787
 20
497.5081355994092
 30
0.0
 10
24.41085994558621
 20
497.5114532191392
 30
0.0
 10
24.40522140742478
 20
497.5166365500079
 30
0.0
 10
24.39999099232461
 20
497.5232556353312
 30
0.0
 10
24.39476058868637
 20
497.5298747061494
 30
0.0
 10
24.38979374717936
 20
497.5381120039193
 30
0.0
 10
24.38549324043737
 20
497.5472838005259
 30
0.0
 10
24.38119249911094
 20
497.5564560974364
 30
0.0
 10
24.37743907656029
 20
497.5668158882698
 30
0.0
 10
24.37453387038548
 20
497.5775034426816
 30
0.0
 10
24.37162859269591
 20
497.5881912601789
 30
0.0
 10
24.36949101284099
 20
497.5995015900937
 30
0.0
 10
24.3682911923889
 20
497.6104963485168
 30
0.0
 10
24.36790480021058
 20
497.6140371188461
 30
0.0
 10
24.36761105159843
 20
497.6175664793565
 30
0.0
 10
24.36741240722142
 20
497.6210535169756
 30
0.0
  0
SPLINE
  5
E0
330
5E
100
AcDbEntity
  8
$DDT_AUDIT_GENERATED_(85)
  6
Continuous
 62
     7
100
AcDbSpline
210
0.0
220
0.0
230
1.0
 70
    12
 71
     2
 72
     6
 73
     3
 74
     0
 42
0.0000000101392083
 43
0.0000000001
 40
0.0
 40
0.0
 40
0.0
 40
0.6080304324088982
 40
0.6080304324088982
 40
0.6080304324088982
 10
24.36741240722153
 20
497.6210535169756
 30
0.0
 41
1.0
 10
24.35036008562751
 20
497.920391122548
 30
0.0
 41
1.0
 10
24.33357225535809
 20
498.21978024945
 30
0.0
 41
1.0
  0
SPLINE
  5
E1
330
5E
100
AcDbEntity
  8
$DDT_AUDIT_GENERATED_(85)
  6
Continuous
 62
     7
100
AcDbSpline
210
0.0
220
0.0
230
1.0
 70
     8
 71
     3
 72
    11
 73
     7
 74
     0
 42
0.0000002154003918
 43
0.0000000001
 40
0.7527521496808595
 40
0.7527521496808595
 40
0.7527521496808595
 40
0.7527521496808595
 40
0.9263670665924272
 40
0.9263670665924272
 40
0.9263670665924272
 40
1.0
 40
1.0
 40
1.0
 40
1.0
 10
23.63464343576946
 20
498.1557335164046
 30
0.0
 10
23.63255683828195
 20
498.1555423092757
 30
0.0
 10
23.6303711173802
 20
498.156409918117
 30
0.0
 10
23.62819053543679
 20
498.1583123088968
 30
0.0
 10
23.62725376953018
 20
498.1591295654227
 30
0.0
 10
23.62631245777662
 20
498.160137791211
 30
0.0
 10
23.62537487954937
 20
498.1613281675883
 30
0.0
  0
LINE
  5
E2
330
5E
100
AcDbEntity
  8
$DDT_AUDIT_GENERATED_(85)
  6
Continuous
 62
     7
100
AcDbLine
 10
23.6253748795
 20
498.1613281676
 30
0.0
 11
23.6198257753
 21
498.1684112471
 31
0.0
  0
ARC
  5
E3
330
5E
100
AcDbEntity
  8
$DDT_AUDIT_GENERATED_(85)
  6
Continuous
 62
     7
100
AcDbCircle
 10
23.8399944135
 20
498.2765551795
 30
0.0
 40
0.2452943932755831
100
AcDbArc
 50
178.1060135457
 51
206.1596622144
  0
SPLINE
  5
E4
330
5E
100
AcDbEntity
  8
$DDT_AUDIT_GENERATED_(85)
  6
Continuous
 62
     7
100
AcDbSpline
210
0.0
220
0.0
230
1.0
 70
    12
 71
     2
 72
     6
 73
     3
 74
     0
 42
0.0000000101128699
 43
0.0000000001
 40
0.0
 40
0.0
 40
0.0
 40
0.5393180949361837
 40
0.5393180949361837
 40
0.5393180949361837
 10
23.59483402694419
 20
498.2846622278198
 30
0.0
 41
1.0
 10
23.58722534079461
 20
498.5511959325919
 30
0.0
 41
1.0
 10
23.5798487294783
 20
498.8177503523694
 30
0.0
 41
1.0
  0
ARC
  5
E5
330
5E
100
AcDbEntity
  8
$DDT_AUDIT_GENERATED_(85)
  6
Continuous
 62
     7
100
AcDbCircle
 10
37.0809090712
 20
498.8292000345
 30
0.0
 40
1.013765723734198
100
AcDbArc
 50
170.641565828
 51
177.3140760951
  0
SPLINE
  5
E6
330
5E
100
AcDbEntity
  8
$DDT_AUDIT_GENERATED_(85)
  6
Continuous
 62
     7
100
AcDbSpline
210
0.0
220
0.0
230
1.0
 70
    12
 71
     2
 72
     6
 73
     3
 74
     0
 42
0.0000000099882947
 43
0.0000000001
 40
0.0
 40
0.0
 40
0.0
 40
0.3098696692960156
 40
0.3098696692960156
 40
0.3098696692960156
 10
36.0806361754077
 20
498.9940486816875
 30
0.0
 41
1.0
 10
36.10432671094718
 20
499.1473458555755
 30
0.0
 41
1.0
 10
36.12789968052765
 20
499.3006600649355
 30
0.0
 41
1.0
  0
SPLINE
  5
E7
330
5E
100
AcDbEntity
  8
$DDT_AUDIT_GENERATED_(85)
  6
Continuous
 62
     7
100
AcDbSpline
210
0.0
220
0.0
230
1.0
 70
     8
 71
     3
 72
    11
 73
     7
 74
     0
 42
0.0000002038848073
 43
0.0000000001
 40
0.7537709427444073
 40
0.7537709427444073
 40
0.7537709427444073
 40
0.7537709427444073
 40
0.9310036384841974
 40
0.9310036384841974
 40
0.9310036384841974
 40
1.0
 40
1.0
 40
1.0
 40
1.0
 10
35.9201645975543
 20
499.2816276016644
 30
0.0
 10
35.91769518157113
 20
499.2814010609291
 30
0.0
 10
35.91524624196656
 20
499.2822988423747
 30
0.0
 10
35.91293725683754
 20
499.2842959392272
 30
0.0
 10
35.91202645522353
 20
499.2850837134808
 30
0.0
 10
35.91113199675191
 20
499.2860424234046
 30
0.0
 10
35.91026089433296
 20
499.287164521958
 30
0.0
  0
LINE
  5
E8
330
5E
100
AcDbEntity
  8
$DDT_AUDIT_GENERATED_(85)
  6
Continuous
 62
     7
100
AcDbLine
 10
35.9102608943
 20
499.287164522
 30
0.0
 11
35.9047117901
 21
499.2942476015
 31
0.0
  0
SPLINE
  5
E9
330
5E
100
AcDbEntity
  8
$DDT_AUDIT_GENERATED_(85)
  6
Continuous
 62
     7
100
AcDbSpline
210
0.0
220
0.0
230
1.0
 70
     8
 71
     3
 72
    20
 73
    16
 74
     0
 42
0.0000000832119301
 43
0.0000000001
 40
0.0
 40
0.0
 40
0.0
 40
0.0
 40
0.2289377704749237
 40
0.2289377704749237
 40
0.2289377704749237
 40
0.4578289888433238
 40
0.4578289888433238
 40
0.4578289888433238
 40
0.6874672639041113
 40
0.6874672639041113
 40
0.6874672639041113
 40
0.9190278165324397
 40
0.9190278165324397
 40
0.9190278165324397
 40
1.0
 40
1.0
 40
1.0
 40
1.0
 10
35.90471179006634
 20
499.2942476014753
 30
0.0
 10
35.90181074599217
 20
499.2979172297564
 30
0.0
 10
35.89911284581937
 20
499.3034515168649
 30
0.0
 10
35.89684729547354
 20
499.310387553303
 30
0.0
 10
35.89458199918735
 20
499.3173228119315
 30
0.0
 10
35.89268714797389
 20
499.32584914378
 30
0.0
 10
35.89133084049535
 20
499.3352567166662
 30
0.0
 10
35.8899700160375
 20
499.3446956200678
 30
0.0
 10
35.88911470243825
 20
499.355278191086
 30
0.0
 10
35.88884726925507
 20
499.3661352167116
 30
0.0
 10
35.88857760992514
 20
499.3770826175552
 30
0.0
 10
35.88889868851849
 20
499.3886064827795
 30
0.0
 10
35.88979200963868
 20
499.3997695992791
 30
0.0
 10
35.89010823525666
 20
499.4037212168261
 30
0.0
 10
35.89049642600767
 20
499.4076540752897
 30
0.0
 10
35.89095270814495
 20
499.4115279881196
 30
0.0
  0
SPLINE
  5
EA
330
5E
100
AcDbEntity
  8
$DDT_AUDIT_GENERATED_(85)
  6
Continuous
 62
     7
100
AcDbSpline
210
0.0
220
0.0
230
1.0
 70
    12
 71
     2
 72
     6
 73
     3
 74
     0
 42
0.0000000099154853
 43
0.0000000001
 40
0.0
 40
0.0
 40
0.0
 40
0.3536212941398953
 40
0.3536212941398953
 40
0.3536212941398953
 10
35.89095270814492
 20
499.4115279881196
 30
0.0
 41
1.0
 10
35.91180898879367
 20
499.5886262084393
 30
0.0
 41
1.0
 10
35.93251671085184
 20
499.7657330310244
 30
0.0
 41
1.0
  0
SPLINE
  5
EB
330
5E
100
AcDbEntity
  8
$DDT_AUDIT_GENERATED_(85)
  6
Continuous
 62
     7
100
AcDbSpline
210
0.0
220
0.0
230
1.0
 70
     8
 71
     3
 72
    11
 73
     7
 74
     0
 42
0.0000001274771044
 43
0.0000000001
 40
0.7282092223623853
 40
0.7282092223623853
 40
0.7282092223623853
 40
0.7282092223623853
 40
0.931003638503072
 40
0.931003638503072
 40
0.931003638503072
 40
1.0
 40
1.0
 40
1.0
 40
1.0
 10
35.46173003263189
 20
499.6727706790252
 30
0.0
 10
35.45675671416534
 20
499.6717884367004
 30
0.0
 10
35.45160839603884
 20
499.6722752524508
 30
0.0
 10
35.44661512534677
 20
499.6742165847532
 30
0.0
 10
35.44489374985059
 20
499.6748858378463
 30
0.0
 10
35.44318104527073
 20
499.6757271529377
 30
0.0
 10
35.44149049228101
 20
499.6767339057681
 30
0.0
  0
LINE
  5
EC
330
5E
100
AcDbEntity
  8
$DDT_AUDIT_GENERATED_(85)
  6
Continuous
 62
     7
100
AcDbLine
 10
35.4414904923
 20
499.6767339058
 30
0.0
 11
35.430770446
 21
499.6830844211
 31
0.0
  0
SPLINE
  5
ED
330
5E
100
AcDbEntity
  8
$DDT_AUDIT_GENERATED_(85)
  6
Continuous
 62
     7
100
AcDbSpline
210
0.0
220
0.0
230
1.0
 70
     8
 71
     3
 72
    20
 73
    16
 74
     0
 42
0.0000000789018891
 43
0.0000000001
 40
0.0
 40
0.0
 40
0.0
 40
0.0
 40
0.2289377704741555
 40
0.2289377704741555
 40
0.2289377704741555
 40
0.457828988841791
 40
0.457828988841791
 40
0.457828988841791
 40
0.6874672639017996
 40
0.6874672639017996
 40
0.6874672639017996
 40
0.9190278165293514
 40
0.9190278165293514
 40
0.9190278165293514
 40
1.0
 40
1.0
 40
1.0
 40
1.0
 10
35.43077044603321
 20
499.6830844211308
 30
0.0
 10
35.42519131184708
 20
499.6863722055895
 30
0.0
 10
35.4197530946849
 20
499.6915401411843
 30
0.0
 10
35.41491166926566
 20
499.6981561660958
 30
0.0
 10
35.41007078676562
 20
499.7047714490838
 30
0.0
 10
35.4056939383437
 20
499.7130153800572
 30
0.0
 10
35.40215047690715
 20
499.7222023270988
 30
0.0
 10
35.39859521450196
 20
499.7314198698944
 30
0.0
 10
35.39578216849905
 20
499.7418372627278
 30
0.0
 10
35.39394829972763
 20
499.7525996713364
 30
0.0
 10
35.39209916560678
 20
499.7634516675593
 30
0.0
 10
35.39119530792868
 20
499.77494929152
 30
0.0
 10
35.39131261744058
 20
499.7861579144998
 30
0.0
 10
35.39135414368691
 20
499.7901256408285
 30
0.0
 10
35.39152079921911
 20
499.794083482803
 30
0.0
 10
35.39181081810135
 20
499.7979909999308
 30
0.0
  0
SPLINE
  5
EE
330
5E
100
AcDbEntity
  8
$DDT_AUDIT_GENERATED_(85)
  6
Continuous
 62
     7
100
AcDbSpline
210
0.0
220
0.0
230
1.0
 70
    12
 71
     2
 72
     6
 73
     3
 74
     0
 42
0.0000000098710125
 43
0.0000000001
 40
0.0
 40
0.0
 40
0.0
 40
0.2164785457710873
 40
0.2164785457710873
 40
0.2164785457710873
 10
35.39181081810135
 20
499.7979909999308
 30
0.0
 41
1.0
 10
35.39992567412968
 20
499.9073466148587
 30
0.0
 41
1.0
 10
35.40799035570885
 20
500.0167006874554
 30
0.0
 41
1.0
  0
SPLINE
  5
EF
330
5E
100
AcDbEntity
  8
$DDT_AUDIT_GENERATED_(85)
  6
Continuous
 62
     7
100
AcDbSpline
210
0.0
220
0.0
230
1.0
 70
     8
 71
     3
 72
    14
 73
    10
 74
     0
 42
0.0000000948814018
 43
0.0000000001
 40
0.6760242232919816
 40
0.6760242232919816
 40
0.6760242232919816
 40
0.6760242232919816
 40
0.700722372586397
 40
0.700722372586397
 40
0.700722372586397
 40
0.9310036385232539
 40
0.9310036385232539
 40
0.9310036385232539
 40
1.0
 40
1.0
 40
1.0
 40
1.0
 10
34.72718238831153
 20
500.0112026262479
 30
0.0
 10
34.72637718436346
 20
500.010927169779
 30
0.0
 10
34.72556769344362
 20
500.010673366007
 30
0.0
 10
34.72475463652651
 20
500.0104416476883
 30
0.0
 10
34.71717262749943
 20
500.0082808021839
 30
0.0
 10
34.70906905844904
 20
500.0079805354944
 30
0.0
 10
34.70111544304022
 20
500.0095715526271
 30
0.0
 10
34.69870080255721
 20
500.0100545699946
 30
0.0
 10
34.69628656985586
 20
500.0107100581544
 30
0.0
 10
34.69389177468784
 20
500.0115328567201
 30
0.0
  0
LINE
  5
F0
330
5E
100
AcDbEntity
  8
$DDT_AUDIT_GENERATED_(85)
  6
Continuous
 62
     7
100
AcDbLine
 10
34.6938917747
 20
500.0115328567
 30
0.0
 11
34.6787313399
 21
500.0167180308
 31
0.0
  0
SPLINE
  5
F1
330
5E
100
AcDbEntity
  8
$DDT_AUDIT_GENERATED_(85)
  6
Continuous
 62
     7
100
AcDbSpline
210
0.0
220
0.0
230
1.0
 70
     8
 71
     3
 72
    20
 73
    16
 74
     0
 42
0.0000000741959867
 43
0.0000000001
 40
0.0
 40
0.0
 40
0.0
 40
0.0
 40
0.2289377704741451
 40
0.2289377704741451
 40
0.2289377704741451
 40
0.4578289888417686
 40
0.4578289888417686
 40
0.4578289888417686
 40
0.6874672639017716
 40
0.6874672639017716
 40
0.6874672639017716
 40
0.9190278165293138
 40
0.9190278165293138
 40
0.9190278165293138
 40
1.0
 40
1.0
 40
1.0
 40
1.0
 10
34.67873133989494
 20
500.0167180308009
 30
0.0
 10
34.67085432437167
 20
500.0193999143596
 30
0.0
 10
34.66304639573264
 20
500.0239714050699
 30
0.0
 10
34.65595903038147
 20
500.0300503027037
 30
0.0
 10
34.64887245981001
 20
500.0361285186476
 30
0.0
 10
34.64231188916652
 20
500.043879961636
 30
0.0
 10
34.63682275481301
 20
500.052660190706
 30
0.0
 10
34.63131533971805
 20
500.0614696610164
 30
0.0
 10
34.62673626574779
 20
500.071554202905
 30
0.0
 10
34.62346093651431
 20
500.0820865555364
 30
0.0
 10
34.62015834303701
 20
500.0927065807681
 30
0.0
 10
34.61809114549455
 20
500.1040704246304
 30
0.0
 10
34.61742444894877
 20
500.1152543099173
 30
0.0
 10
34.6171884458784
 20
500.1192132793814
 30
0.0
 10
34.61712220889265
 20
500.1231756429827
 30
0.0
 10
34.61722620021228
 20
500.1271009015255
 30
0.0
  0
SPLINE
  5
F2
330
5E
100
AcDbEntity
  8
$DDT_AUDIT_GENERATED_(85)
  6
Continuous
 62
     7
100
AcDbSpline
210
0.0
220
0.0
230
1.0
 70
    12
 71
     2
 72
     6
 73
     3
 74
     0
 42
0.0000000098498548
 43
0.0000000001
 40
0.0
 40
0.0
 40
0.0
 40
0.083207084027805
 40
0.083207084027805
 40
0.083207084027805
 10
34.61722620021225
 20
500.1271009015255
 30
0.0
 41
1.0
 10
34.6183443140844
 20
500.169324319397
 30
0.0
 41
1.0
 10
34.61945633292343
 20
500.211546901187
 30
0.0
 41
1.0
  0
SPLINE
  5
F3
330
5E
100
AcDbEntity
  8
$DDT_AUDIT_GENERATED_(85)
  6
Continuous
 62
     7
100
AcDbSpline
210
0.0
220
0.0
230
1.0
 70
     8
 71
     3
 72
    14
 73
    10
 74
     0
 42
0.0000000790819162
 43
0.0000000001
 40
0.5699820466234626
 40
0.5699820466234626
 40
0.5699820466234626
 40
0.5699820466234626
 40
0.7007223725200021
 40
0.7007223725200021
 40
0.7007223725200021
 40
0.9310036385082049
 40
0.9310036385082049
 40
0.9310036385082049
 40
1.0
 40
1.0
 40
1.0
 40
1.0
 10
33.77063009623948
 20
500.2774304128625
 30
0.0
 10
33.76591807653771
 20
500.2746381107038
 30
0.0
 10
33.76092679904644
 20
500.2723785936488
 30
0.0
 10
33.75578349796783
 20
500.2707265979274
 30
0.0
 10
33.746722831489
 20
500.2678163692576
 30
0.0
 10
33.73693792540865
 20
500.2667106237786
 30
0.0
 10
33.72724278127053
 20
500.2675069559884
 30
0.0
 10
33.72429942955925
 20
500.2677487147225
 30
0.0
 10
33.72134819470533
 20
500.2681626076495
 30
0.0
 10
33.71841235869212
 20
500.268745379588
 30
0.0
  0
LINE
  5
F4
330
5E
100
AcDbEntity
  8
$DDT_AUDIT_GENERATED_(85)
  6
Continuous
 62
     7
100
AcDbLine
 10
33.6998446939
 20
500.2724118513
 30
0.0
 11
33.7184123587
 21
500.2687453796
 31
0.0
  0
ARC
  5
F5
330
5E
100
AcDbEntity
  8
$DDT_AUDIT_GENERATED_(85)
  6
Continuous
 62
     7
100
AcDbCircle
 10
33.7266521782
 20
500.3756578242
 30
0.0
 40
0.1066694526492446
100
AcDbArc
 50
179.5855584888
 51
255.4447420408
  0
ARC
  5
F6
330
5E
100
AcDbEntity
  8
$DDT_AUDIT_GENERATED_(85)
  6
Continuous
 62
     7
100
AcDbCircle
 10
32.5902890798
 20
500.5216544762
 30
0.0
 40
0.091233096149555
100
AcDbArc
 50
264.4903969102
 51
321.5766363326
  0
LINE
  5
F7
330
5E
100
AcDbEntity
  8
$DDT_AUDIT_GENERATED_(85)
  6
Continuous
 62
     7
100
AcDbLine
 10
32.5815295544
 20
500.430842866
 30
0.0
 11
32.5608200154
 21
500.4327407714
 31
0.0
  0
ARC
  5
F8
330
5E
100
AcDbEntity
  8
$DDT_AUDIT_GENERATED_(85)
  6
Continuous
 62
     7
100
AcDbCircle
 10
32.5717835089
 20
500.5361422172
 30
0.0
 40
0.1039810423738496
100
AcDbArc
 50
208.6264127575
 51
263.9476308361
  0
ARC
  5
F9
330
5E
100
AcDbEntity
  8
$DDT_AUDIT_GENERATED_(85)
  6
Continuous
 62
     7
100
AcDbCircle
 10
31.3614408309
 20
500.5861119743
 30
0.0
 40
0.099335949228401
100
AcDbArc
 50
269.5842564152
 51
319.6196453447
  0
LINE
  5
FA
330
5E
100
AcDbEntity
  8
$DDT_AUDIT_GENERATED_(85)
  6
Continuous
 62
     7
100
AcDbLine
 10
31.3392799538
 20
500.4867786401
 30
0.0
 11
31.3607200462
 21
500.4867786401
 31
0.0
  0
ARC
  5
FB
330
5E
100
AcDbEntity
  8
$DDT_AUDIT_GENERATED_(85)
  6
Continuous
 62
     7
100
AcDbCircle
 10
31.3386162222
 20
500.5861766922
 30
0.0
 40
0.0994002680548552
100
AcDbArc
 50
222.1846558117
 51
270.3825874757
  0
ARC
  5
FC
330
5E
100
AcDbEntity
  8
$DDT_AUDIT_GENERATED_(85)
  6
Continuous
 62
     7
100
AcDbCircle
 10
30.1281176236
 20
500.5362375156
 30
0.0
 40
0.1040862713502311
100
AcDbArc
 50
276.1009577594
 51
329.5220523834
  0
LINE
  5
FD
330
5E
100
AcDbEntity
  8
$DDT_AUDIT_GENERATED_(85)
  6
Continuous
 62
     7
100
AcDbLine
 10
30.1391799846
 20
500.4327407714
 30
0.0
 11
30.1184704456
 21
500.430842866
 31
0.0
  0
ARC
  5
FE
330
5E
100
AcDbEntity
  8
$DDT_AUDIT_GENERATED_(85)
  6
Continuous
 62
     7
100
AcDbCircle
 10
30.1096510301
 20
500.5215789575
 30
0.0
 40
0.0911637010581141
100
AcDbArc
 50
218.678086239
 51
275.5516267655
  0
ARC
  5
FF
330
5E
100
AcDbEntity
  8
$DDT_AUDIT_GENERATED_(85)
  6
Continuous
 62
     7
100
AcDbCircle
 10
28.9727195014
 20
500.3761402152
 30
0.0
 40
0.1072953719661465
100
AcDbArc
 50
284.8152762146
 51
0.1544233946
  0
LINE
  5
100
330
5E
100
AcDbEntity
  8
$DDT_AUDIT_GENERATED_(85)
  6
Continuous
 62
     7
100
AcDbLine
 10
29.0001553061
 20
500.2724118513
 30
0.0
 11
28.9815876413
 21
500.2687453796
 31
0.0
  0
SPLINE
  5
101
330
5E
100
AcDbEntity
  8
$DDT_AUDIT_GENERATED_(85)
  6
Continuous
 62
     7
100
AcDbSpline
210
0.0
220
0.0
230
1.0
 70
     8
 71
     3
 72
    11
 73
     7
 74
     0
 42
0.0000000790739564
 43
0.0000000001
 40
0.0
 40
0.0
 40
0.0
 40
0.0
 40
0.2289377704741763
 40
0.2289377704741763
 40
0.2289377704741763
 40
0.436488473492553
 40
0.436488473492553
 40
0.436488473492553
 40
0.436488473492553
 10
28.98158764130792
 20
500.268745379588
 30
0.0
 10
28.97197480264084
 20
500.2668372033141
 30
0.0
 10
28.96210298570359
 20
500.266768798852
 30
0.0
 10
28.95278795441709
 20
500.2685430304119
 30
0.0
 10
28.94434235086644
 20
500.2701516622997
 30
0.0
 10
28.93614383295269
 20
500.2733144102858
 30
0.0
 10
28.92873588773192
 20
500.2778001593425
 30
0.0
  0
SPLINE
  5
102
330
5E
100
AcDbEntity
  8
$DDT_AUDIT_GENERATED_(85)
  6
Continuous
 62
     7
100
AcDbSpline
210
0.0
220
0.0
230
1.0
 70
    12
 71
     2
 72
     6
 73
     3
 74
     0
 42
0.0000000098498548
 43
0.0000000001
 40
0.9167929159730219
 40
0.9167929159730219
 40
0.9167929159730219
 40
1.0
 40
1.0
 40
1.0
 10
28.08054366707669
 20
500.2115469011862
 30
0.0
 41
1.0
 10
28.08165568591571
 20
500.1693243193963
 30
0.0
 41
1.0
 10
28.08277379978787
 20
500.127100901525
 30
0.0
 41
1.0
  0
SPLINE
  5
103
330
5E
100
AcDbEntity
  8
$DDT_AUDIT_GENERATED_(85)
  6
Continuous
 62
     7
100
AcDbSpline
210
0.0
220
0.0
230
1.0
 70
     8
 71
     3
 72
    20
 73
    16
 74
     0
 42
0.0000000742038513
 43
0.0000000001
 40
0.0
 40
0.0
 40
0.0
 40
0.0
 40
0.2340589629069606
 40
0.2340589629069606
 40
0.2340589629069606
 40
0.468229668309435
 40
0.468229668309435
 40
0.468229668309435
 40
0.7007223724300249
 40
0.7007223724300249
 40
0.7007223724300249
 40
0.931003638487197
 40
0.931003638487197
 40
0.931003638487197
 40
1.0
 40
1.0
 40
1.0
 40
1.0
 10
28.08277380013437
 20
500.1271009015912
 30
0.0
 10
28.08307074549129
 20
500.1158923827386
 30
0.0
 10
28.08194767001314
 20
500.1042748930304
 30
0.0
 10
28.07949305273298
 20
500.0932054225017
 30
0.0
 10
28.07703775090095
 20
500.0821328648819
 30
0.0
 10
28.07318090700259
 20
500.0713017706715
 30
0.0
 10
28.06824736138617
 20
500.061627196303
 30
0.0
 10
28.06334904245541
 20
500.0520217006896
 30
0.0
 10
28.05725254114039
 20
500.0432886895535
 30
0.0
 10
28.05047788599338
 20
500.0361726858233
 30
0.0
 10
28.04376660188468
 20
500.029123246152
 30
0.0
 10
28.03620355934009
 20
500.0234646827195
 30
0.0
 10
28.02842769569928
 20
500.019675901173
 30
0.0
 10
28.02606701892874
 20
500.0185256638492
 30
0.0
 10
28.02367436217197
 20
500.0175370989874
 30
0.0
 10
28.0212686601051
 20
500.0167180308009
 30
0.0
  0
LINE
  5
104
330
5E
100
AcDbEntity
  8
$DDT_AUDIT_GENERATED_(85)
  6
Continuous
 62
     7
100
AcDbLine
 10
28.0212686601
 20
500.0167180308
 30
0.0
 11
28.0061082253
 21
500.0115328567
 31
0.0
  0
SPLINE
  5
105
330
5E
100
AcDbEntity
  8
$DDT_AUDIT_GENERATED_(85)
  6
Continuous
 62
     7
100
AcDbSpline
210
0.0
220
0.0
230
1.0
 70
     8
 71
     3
 72
    11
 73
     7
 74
     0
 42
0.0000000950748327
 43
0.0000000001
 40
0.0
 40
0.0
 40
0.0
 40
0.0
 40
0.228937770474173
 40
0.228937770474173
 40
0.228937770474173
 40
0.3277898309665598
 40
0.3277898309665598
 40
0.3277898309665598
 40
0.3277898309665598
 10
28.0061082253122
 20
500.0115328567201
 30
0.0
 10
27.99826692236227
 20
500.0088387587419
 30
0.0
 10
27.99013899360317
 20
500.0079598652209
 30
0.0
 10
27.98239441741478
 20
500.0089659400834
 30
0.0
 10
27.97905011496262
 20
500.00940038847
 30
0.0
 10
27.97573755143782
 20
500.0101913282227
 30
0.0
 10
27.97250574410185
 20
500.0113186407726
 30
0.0
  0
SPLINE
  5
106
330
5E
100
AcDbEntity
  8
$DDT_AUDIT_GENERATED_(85)
  6
Continuous
 62
     7
100
AcDbSpline
210
0.0
220
0.0
230
1.0
 70
    12
 71
     2
 72
     6
 73
     3
 74
     0
 42
0.0000000098710125
 43
0.0000000001
 40
0.7835214542134545
 40
0.7835214542134545
 40
0.7835214542134545
 40
1.0
 40
1.0
 40
1.0
 10
27.29200964429009
 20
500.0167006874701
 30
0.0
 41
1.0
 10
27.30007432586983
 20
499.9073466148656
 30
0.0
 41
1.0
 10
27.30818918189872
 20
499.7979909999303
 30
0.0
 41
1.0
  0
SPLINE
  5
107
330
5E
100
AcDbEntity
  8
$DDT_AUDIT_GENERATED_(85)
  6
Continuous
 62
     7
100
AcDbSpline
210
0.0
220
0.0
230
1.0
 70
     8
 71
     3
 72
    20
 73
    16
 74
     0
 42
0.0000000789217237
 43
0.0000000001
 40
0.0
 40
0.0
 40
0.0
 40
0.0
 40
0.2340589626983942
 40
0.2340589626983942
 40
0.2340589626983942
 40
0.4682296681646358
 40
0.4682296681646358
 40
0.4682296681646358
 40
0.7007223723485376
 40
0.7007223723485376
 40
0.7007223723485376
 40
0.9310036384684158
 40
0.9310036384684158
 40
0.9310036384684158
 40
1.0
 40
1.0
 40
1.0
 40
1.0
 10
27.3081891822617
 20
499.7979910000678
 30
0.0
 10
27.30901732660675
 20
499.7868331414968
 30
0.0
 10
27.3088215224481
 20
499.775156265532
 30
0.0
 10
27.30761842709889
 20
499.7639220962283
 30
0.0
 10
27.30641499622643
 20
499.7526847939018
 30
0.0
 10
27.30416971576303
 20
499.7415789344188
 30
0.0
 10
27.30107790652761
 20
499.7315429959282
 30
0.0
 10
27.29800817354331
 20
499.7215787164183
 30
0.0
 10
27.29401851963591
 20
499.7123915478406
 30
0.0
 10
27.28945560318799
 20
499.704765038135
 30
0.0
 10
27.28493536887618
 20
499.6972098678302
 30
0.0
 10
27.27972738876059
 20
499.6909762532657
 30
0.0
 10
27.27427502839345
 20
499.6865918338136
 30
0.0
 10
27.27261974467735
 20
499.6852607665996
 30
0.0
 10
27.27093346512495
 20
499.6840885361848
 30
0.0
 10
27.26922955396681
 20
499.6830844211308
 30
0.0
  0
LINE
  5
108
330
5E
100
AcDbEntity
  8
$DDT_AUDIT_GENERATED_(85)
  6
Continuous
 62
     7
100
AcDbLine
 10
27.269229554
 20
499.6830844211
 30
0.0
 11
27.2585095077
 21
499.6767339058
 31
0.0
  0
SPLINE
  5
109
330
5E
100
AcDbEntity
  8
$DDT_AUDIT_GENERATED_(85)
  6
Continuous
 62
     7
100
AcDbSpline
210
0.0
220
0.0
230
1.0
 70
     8
 71
     3
 72
    11
 73
     7
 74
     0
 42
0.0000001274634262
 43
0.0000000001
 40
0.0
 40
0.0
 40
0.0
 40
0.0
 40
0.2289377704741327
 40
0.2289377704741327
 40
0.2289377704741327
 40
0.2717888948559221
 40
0.2717888948559221
 40
0.2717888948559221
 40
0.2717888948559221
 10
27.25850950771902
 20
499.6767339057681
 30
0.0
 10
27.2529741123239
 20
499.6734374844106
 30
0.0
 10
27.24714397665583
 20
499.6719300898711
 30
0.0
 10
27.2414976356343
 20
499.6723332011101
 30
0.0
 10
27.24044069281862
 20
499.6724086598056
 30
0.0
 10
27.23938473946047
 20
499.6725514203754
 30
0.0
 10
27.23833270604287
 20
499.6727601557577
 30
0.0
  0
SPLINE
  5
10A
330
5E
100
AcDbEntity
  8
$DDT_AUDIT_GENERATED_(85)
  6
Continuous
 62
     7
100
AcDbSpline
210
0.0
220
0.0
230
1.0
 70
    12
 71
     2
 72
     6
 73
     3
 74
     0
 42
0.0000000099154853
 43
0.0000000001
 40
0.6463787058674622
 40
0.6463787058674622
 40
0.6463787058674622
 40
1.0
 40
1.0
 40
1.0
 10
26.76748328914814
 20
499.7657330310245
 30
0.0
 41
1.0
 10
26.78819101120608
 20
499.5886262084414
 30
0.0
 41
1.0
 10
26.80904729185508
 20
499.4115279881196
 30
0.0
 41
1.0
  0
SPLINE
  5
10B
330
5E
100
AcDbEntity
  8
$DDT_AUDIT_GENERATED_(85)
  6
Continuous
 62
     7
100
AcDbSpline
210
0.0
220
0.0
230
1.0
 70
     8
 71
     3
 72
    20
 73
    16
 74
     0
 42
0.000000083232726
 43
0.0000000001
 40
0.0
 40
0.0
 40
0.0
 40
0.0
 40
0.2340589632022992
 40
0.2340589632022992
 40
0.2340589632022992
 40
0.4682296685144848
 40
0.4682296685144848
 40
0.4682296685144848
 40
0.7007223725454298
 40
0.7007223725454298
 40
0.7007223725454298
 40
0.9310036385138112
 40
0.9310036385138112
 40
0.9310036385138112
 40
1.0
 40
1.0
 40
1.0
 40
1.0
 10
26.80904729181466
 20
499.4115279880847
 30
0.0
 10
26.81035019887435
 20
499.4004660862701
 30
0.0
 10
26.81109500976503
 20
499.3888139308741
 30
0.0
 10
26.81122542530661
 20
499.3775314611519
 30
0.0
 10
26.81135587721891
 20
499.3662458449368
 30
0.0
 10
26.81087517234357
 20
499.3550172403146
 30
0.0
 10
26.80983580117906
 20
499.3447952838339
 30
0.0
 10
26.80880385137114
 20
499.3346463145466
 30
0.0
 10
26.80719293319193
 20
499.325206964495
 30
0.0
 10
26.80515271065846
 20
499.3172831299277
 30
0.0
 10
26.80313157264185
 20
499.3094334159782
 30
0.0
 10
26.80063357019353
 20
499.302852817925
 30
0.0
 10
26.79787628244863
 20
499.2980987360297
 30
0.0
 10
26.79703919663672
 20
499.2966554428838
 30
0.0
 10
26.7961742114535
 20
499.2953683346152
 30
0.0
 10
26.79528820993367
 20
499.2942476014753
 30
0.0
  0
LINE
  5
10C
330
5E
100
AcDbEntity
  8
$DDT_AUDIT_GENERATED_(85)
  6
Continuous
 62
     7
100
AcDbLine
 10
26.7952882099
 20
499.2942476015
 30
0.0
 11
26.7897391057
 21
499.287164522
 31
0.0
  0
SPLINE
  5
10D
330
5E
100
AcDbEntity
  8
$DDT_AUDIT_GENERATED_(85)
  6
Continuous
 62
     7
100
AcDbSpline
210
0.0
220
0.0
230
1.0
 70
     8
 71
     3
 72
    11
 73
     7
 74
     0
 42
0.0000002015020961
 43
0.0000000001
 40
0.0
 40
0.0
 40
0.0
 40
0.0
 40
0.2289377704741654
 40
0.2289377704741654
 40
0.2289377704741654
 40
0.2444943731450142
 40
0.2444943731450142
 40
0.2444943731450142
 40
0.2444943731450142
 10
26.78973910566705
 20
499.287164521958
 30
0.0
 10
26.78688684587527
 20
499.2834904228891
 30
0.0
 10
26.78375181740926
 20
499.2815793466774
 30
0.0
 10
26.78058850036415
 20
499.2815857783412
 30
0.0
 10
26.78037352947858
 20
499.2815862154205
 30
0.0
 10
26.7801580244705
 20
499.2815955044974
 30
0.0
 10
26.77994206517074
 20
499.2816135919836
 30
0.0
  0
SPLINE
  5
10E
330
5E
100
AcDbEntity
  8
$DDT_AUDIT_GENERATED_(85)
  6
Continuous
 62
     7
100
AcDbSpline
210
0.0
220
0.0
230
1.0
 70
    12
 71
     2
 72
     6
 73
     3
 74
     0
 42
0.0000000099882947
 43
0.0000000001
 40
0.6901303306989085
 40
0.6901303306989085
 40
0.6901303306989085
 40
1.0
 40
1.0
 40
1.0
 10
26.57210031947244
 20
499.3006600649355
 30
0.0
 41
1.0
 10
26.59567328905307
 20
499.1473458555744
 30
0.0
 41
1.0
 10
26.61936382459236
 20
498.9940486816876
 30
0.0
 41
1.0
  0
ARC
  5
10F
330
5E
100
AcDbEntity
  8
$DDT_AUDIT_GENERATED_(85)
  6
Continuous
 62
     7
100
AcDbCircle
 10
25.5848390181
 20
498.8255866078
 30
0.0
 40
1.048151251271031
100
AcDbArc
 50
2.7954905261
 51
9.2488675497
  0
ARC
  5
110
330
5E
100
AcDbEntity
  8
$DDT_AUDIT_GENERATED_(85)
  6
Continuous
 62
     7
100
AcDbCircle
 10
38.6918639794
 20
498.8218369635
 30
0.0
 40
0.8716784095222675
100
AcDbArc
 50
168.6054928136
 51
176.3910393385
  0
ARC
  5
111
330
5E
100
AcDbEntity
  8
$DDT_AUDIT_GENERATED_(85)
  6
Continuous
 62
     7
100
AcDbCircle
 10
-509.8716380475
 20
601.2544729324
 30
0.0
 40
557.1735346853495
100
AcDbArc
 50
349.4243123005
 51
349.4736129751
  0
SPLINE
  5
112
330
5E
100
AcDbEntity
  8
$DDT_AUDIT_GENERATED_(85)
  6
Continuous
 62
     7
100
AcDbSpline
210
0.0
220
0.0
230
1.0
 70
     8
 71
     3
 72
    11
 73
     7
 74
     0
 42
0.0000001996213387
 43
0.0000000001
 40
0.7542903270070943
 40
0.7542903270070943
 40
0.7542903270070943
 40
0.7542903270070943
 40
0.9340165526600899
 40
0.9340165526600899
 40
0.9340165526600899
 40
1.0
 40
1.0
 40
1.0
 40
1.0
 10
37.61431620747499
 20
499.4368861507891
 30
0.0
 10
37.6116950955985
 20
499.4366455624215
 30
0.0
 10
37.60912888136479
 20
499.4375694029073
 30
0.0
 10
37.60675024765598
 20
499.4396321758142
 30
0.0
 10
37.6058651878586
 20
499.4403997077651
 30
0.0
 10
37.60500087296037
 20
499.4413247570661
 30
0.0
 10
37.60416362210123
 20
499.4424005794511
 30
0.0
  0
LINE
  5
113
330
5E
100
AcDbEntity
  8
$DDT_AUDIT_GENERATED_(85)
  6
Continuous
 62
     7
100
AcDbLine
 10
37.6041636221
 20
499.4424005795
 30
0.0
 11
37.5986145178
 21
499.449483659
 31
0.0
  0
SPLINE
  5
114
330
5E
100
AcDbEntity
  8
$DDT_AUDIT_GENERATED_(85)
  6
Continuous
 62
     7
100
AcDbSpline
210
0.0
220
0.0
230
1.0
 70
     8
 71
     3
 72
    20
 73
    16
 74
     0
 42
0.0000000831369307
 43
0.0000000001
 40
0.0
 40
0.0
 40
0.0
 40
0.0
 40
0.2274863334687613
 40
0.2274863334687613
 40
0.2274863334687613
 40
0.4548919044143034
 40
0.4548919044143034
 40
0.4548919044143034
 40
0.6835816439708875
 40
0.6835816439708875
 40
0.6835816439708875
 40
0.9153618869652961
 40
0.9153618869652961
 40
0.9153618869652961
 40
1.0
 40
1.0
 40
1.0
 40
1.0
 10
37.5986145178346
 20
499.4494836589685
 30
0.0
 10
37.5957314701966
 20
499.4531394538387
 30
0.0
 10
37.59311700663305
 20
499.4586521289446
 30
0.0
 10
37.59099122647899
 20
499.4655569059778
 30
0.0
 10
37.58886586460952
 20
499.4724603243748
 30
0.0
 10
37.58717082881297
 20
499.480942857042
 30
0.0
 10
37.58605013193105
 20
499.4902962659069
 30
0.0
 10
37.58492299966503
 20
499.4997033849049
 30
0.0
 10
37.58434622121833
 20
499.5102449295698
 30
0.0
 10
37.58437073968327
 20
499.5210600374277
 30
0.0
 10
37.58439558697147
 20
499.5320201894001
 30
0.0
 10
37.58503861068201
 20
499.5435571055559
 30
0.0
 10
37.58625001193128
 20
499.5547404691466
 30
0.0
 10
37.58669769947613
 20
499.5588734123742
 30
0.0
 10
37.5872241813091
 20
499.5629870080608
 30
0.0
 10
37.58782365518611
 20
499.5670360646278
 30
0.0
  0
SPLINE
  5
115
330
5E
100
AcDbEntity
  8
$DDT_AUDIT_GENERATED_(85)
  6
Continuous
 62
     7
100
AcDbSpline
210
0.0
220
0.0
230
1.0
 70
    12
 71
     2
 72
     6
 73
     3
 74
     0
 42
0.0000000098484301
 43
0.0000000001
 40
0.0
 40
0.0
 40
0.0
 40
0.4263100491306537
 40
0.4263100491306537
 40
0.4263100491306537
 10
37.58782365518611
 20
499.5670360646278
 30
0.0
 41
1.0
 10
37.61952038320002
 20
499.7811426484951
 30
0.0
 41
1.0
 10
37.65105904936084
 20
499.9952633692161
 30
0.0
 41
1.0
  0
SPLINE
  5
116
330
5E
100
AcDbEntity
  8
$DDT_AUDIT_GENERATED_(85)
  6
Continuous
 62
     7
100
AcDbSpline
210
0.0
220
0.0
230
1.0
 70
     8
 71
     3
 72
    11
 73
     7
 74
     0
 42
0.0000001256317258
 43
0.0000000001
 40
0.7288132718757817
 40
0.7288132718757817
 40
0.7288132718757817
 40
0.7288132718757817
 40
0.9340165527202494
 40
0.9340165527202494
 40
0.9340165527202494
 40
1.0
 40
1.0
 40
1.0
 40
1.0
 10
36.9807073313
 20
499.9727158689946
 30
0.0
 10
36.97554214695652
 20
499.9716956740563
 30
0.0
 10
36.97023276519115
 20
499.9721937702855
 30
0.0
 10
36.96513459367594
 20
499.9741971044203
 30
0.0
 10
36.96347314610783
 20
499.9748499727313
 30
0.0
 10
36.96182496627567
 20
499.9756618899068
 30
0.0
 10
36.9602021302366
 20
499.9766269399759
 30
0.0
  0
LINE
  5
117
330
5E
100
AcDbEntity
  8
$DDT_AUDIT_GENERATED_(85)
  6
Continuous
 62
     7
100
AcDbLine
 10
36.9602021302
 20
499.97662694
 30
0.0
 11
36.949482084
 21
499.9829774553
 31
0.0
  0
SPLINE
  5
118
330
5E
100
AcDbEntity
  8
$DDT_AUDIT_GENERATED_(85)
  6
Continuous
 62
     7
100
AcDbSpline
210
0.0
220
0.0
230
1.0
 70
     8
 71
     3
 72
    20
 73
    16
 74
     0
 42
0.0000000789481901
 43
0.0000000001
 40
0.0
 40
0.0
 40
0.0
 40
0.0
 40
0.2274863333613339
 40
0.2274863333613339
 40
0.2274863333613339
 40
0.4548919041995046
 40
0.4548919041995046
 40
0.4548919041995046
 40
0.6835816436481102
 40
0.6835816436481102
 40
0.6835816436481102
 40
0.9153618865330817
 40
0.9153618865330817
 40
0.9153618865330817
 40
1.0
 40
1.0
 40
1.0
 40
1.0
 10
36.9494820839888
 20
499.9829774553386
 30
0.0
 10
36.94393080126871
 20
499.986253470817
 30
0.0
 10
36.93857929116777
 20
499.9914074556053
 30
0.0
 10
36.93387453762099
 20
499.9980046686915
 30
0.0
 10
36.92917070981712
 20
500.0046005836601
 30
0.0
 10
36.92498450917815
 20
500.0128182971535
 30
0.0
 10
36.92166062584775
 20
500.0219715763225
 30
0.0
 10
36.9183176557631
 20
500.0311774164186
 30
0.0
 10
36.91575594896631
 20
500.0415776419784
 30
0.0
 10
36.91418069036054
 20
500.0523229234102
 30
0.0
 10
36.91258430556792
 20
500.0632123124964
 30
0.0
 10
36.91195741769587
 20
500.0747499552136
 30
0.0
 10
36.91234637607013
 20
500.0860053794872
 30
0.0
 10
36.91249012020092
 20
500.0901649535854
 30
0.0
 10
36.9127703219705
 20
500.0943148724646
 30
0.0
 10
36.91318368865984
 20
500.0984095352635
 30
0.0
  0
SPLINE
  5
119
330
5E
100
AcDbEntity
  8
$DDT_AUDIT_GENERATED_(85)
  6
Continuous
 62
     7
100
AcDbSpline
210
0.0
220
0.0
230
1.0
 70
    12
 71
     2
 72
     6
 73
     3
 74
     0
 42
0.0000000097950349
 43
0.0000000001
 40
0.0
 40
0.0
 40
0.0
 40
0.1785456499432526
 40
0.1785456499432526
 40
0.1785456499432526
 10
36.91318368865971
 20
500.0984095352635
 30
0.0
 41
1.0
 10
36.9223373242346
 20
500.1890908061162
 30
0.0
 41
1.0
 10
36.93146594608665
 20
500.2797721819574
 30
0.0
 41
1.0
  0
SPLINE
  5
11A
330
5E
100
AcDbEntity
  8
$DDT_AUDIT_GENERATED_(85)
  6
Continuous
 62
     7
100
AcDbSpline
210
0.0
220
0.0
230
1.0
 70
     8
 71
     3
 72
    14
 73
    10
 74
     0
 42
0.0000000938433711
 43
0.0000000001
 40
0.676699255553191
 40
0.676699255553191
 40
0.676699255553191
 40
0.676699255553191
 40
0.7042698238257111
 40
0.7042698238257111
 40
0.7042698238257111
 40
0.9340165527360099
 40
0.9340165527360099
 40
0.9340165527360099
 40
1.0
 40
1.0
 40
1.0
 40
1.0
 10
35.96750638934462
 20
500.4354187880843
 30
0.0
 10
35.96659008627773
 20
500.4351052743286
 30
0.0
 10
35.9656689276898
 20
500.434818954658
 30
0.0
 10
35.96474394974449
 20
500.434560453937
 30
0.0
 10
35.95703424611603
 20
500.4324058469464
 30
0.0
 10
35.94884304878975
 20
500.4321241812313
 30
0.0
 10
35.94085679658555
 20
500.4337505057383
 30
0.0
 10
35.9385321861528
 20
500.4342238906025
 30
0.0
 10
35.93621246211852
 20
500.4348571417722
 30
0.0
 10
35.93391463449372
 20
500.435645652958
 30
0.0
  0
LINE
  5
11B
330
5E
100
AcDbEntity
  8
$DDT_AUDIT_GENERATED_(85)
  6
Continuous
 62
     7
100
AcDbLine
 10
35.9339146345
 20
500.435645653
 30
0.0
 11
35.9187541997
 21
500.440830827
 31
0.0
  0
SPLINE
  5
11C
330
5E
100
AcDbEntity
  8
$DDT_AUDIT_GENERATED_(85)
  6
Continuous
 62
     7
100
AcDbSpline
210
0.0
220
0.0
230
1.0
 70
     8
 71
     3
 72
    20
 73
    16
 74
     0
 42
0.0000000742420717
 43
0.0000000001
 40
0.0
 40
0.0
 40
0.0
 40
0.0
 40
0.2274863332660592
 40
0.2274863332660592
 40
0.2274863332660592
 40
0.4548919040089707
 40
0.4548919040089707
 40
0.4548919040089707
 40
0.683581643361781
 40
0.683581643361781
 40
0.683581643361781
 40
0.9153618861496639
 40
0.9153618861496639
 40
0.9153618861496639
 40
1.0
 40
1.0
 40
1.0
 40
1.0
 10
35.91875419970081
 20
500.4408308270387
 30
0.0
 10
35.91091299264208
 20
500.4435038080844
 30
0.0
 10
35.90318913257336
 20
500.44806903764
 30
0.0
 10
35.89622602681309
 20
500.4541408726197
 30
0.0
 10
35.88926429116621
 20
500.4602115128594
 30
0.0
 10
35.88287220834034
 20
500.4679529094561
 30
0.0
 10
35.87757165571745
 20
500.4767178491952
 30
0.0
 10
35.87224066570094
 20
500.485533119898
 30
0.0
 10
35.86786860663886
 20
500.4956211331933
 30
0.0
 10
35.86480092223309
 20
500.5061573530872
 30
0.0
 10
35.8616920963451
 20
500.5168348768594
 30
0.0
 10
35.85983801826299
 20
500.5282608071226
 30
0.0
 10
35.85937802689182
 20
500.5395130329362
 30
0.0
 10
35.8592080316836
 20
500.543671425006
 30
0.0
 10
35.85922285810226
 20
500.5478346283573
 30
0.0
 10
35.85942194394721
 20
500.5519568694222
 30
0.0
  0
SPLINE
  5
11D
330
5E
100
AcDbEntity
  8
$DDT_AUDIT_GENERATED_(85)
  6
Continuous
 62
     7
100
AcDbSpline
210
0.0
220
0.0
230
1.0
 70
    12
 71
     2
 72
     6
 73
     3
 74
     0
 42
0.0000000097674784
 43
0.0000000001
 40
0.0
 40
0.0
 40
0.0
 40
0.0346553041921796
 40
0.0346553041921796
 40
0.0346553041921796
 10
35.85942194394727
 20
500.5519568694222
 30
0.0
 41
1.0
 10
35.86027759576444
 20
500.5696764266771
 30
0.0
 41
1.0
 10
35.86113247158858
 20
500.5873959105134
 30
0.0
 41
1.0
  0
SPLINE
  5
11E
330
5E
100
AcDbEntity
  8
$DDT_AUDIT_GENERATED_(85)
  6
Continuous
 62
     7
100
AcDbSpline
210
0.0
220
0.0
230
1.0
 70
     8
 71
     3
 72
    14
 73
    10
 74
     0
 42
0.0000000783570309
 43
0.0000000001
 40
0.5706661413979945
 40
0.5706661413979945
 40
0.5706661413979945
 40
0.5706661413979945
 40
0.7042698234630015
 40
0.7042698234630015
 40
0.7042698234630015
 40
0.9340165526552765
 40
0.9340165526552765
 40
0.9340165526552765
 40
1.0
 40
1.0
 40
1.0
 40
1.0
 10
34.64783099875714
 20
500.7970810742555
 30
0.0
 10
34.64294387455001
 20
500.7941844960661
 30
0.0
 10
34.63776964955178
 20
500.7918477971772
 30
0.0
 10
34.63244683688323
 20
500.7901536293647
 30
0.0
 10
34.62329149053232
 20
500.7872396261739
 30
0.0
 10
34.61344000903085
 20
500.7861455382152
 30
0.0
 10
34.60371969555738
 20
500.7869745749161
 30
0.0
 10
34.6008903406194
 20
500.7872158880271
 30
0.0
 10
34.59805715774242
 20
500.7876171151036
 30
0.0
 10
34.5952409316872
 20
500.788175351672
 30
0.0
  0
LINE
  5
11F
330
5E
100
AcDbEntity
  8
$DDT_AUDIT_GENERATED_(85)
  6
Continuous
 62
     7
100
AcDbLine
 10
34.5766732669
 20
500.7918418234
 30
0.0
 11
34.5952409317
 21
500.7881753517
 31
0.0
  0
ARC
  5
120
330
5E
100
AcDbEntity
  8
$DDT_AUDIT_GENERATED_(85)
  6
Continuous
 62
     7
100
AcDbCircle
 10
34.6035250432
 20
500.8935808218
 30
0.0
 40
0.1052228192198611
100
AcDbArc
 50
210.3000732219
 51
255.2151758805
  0
LINE
  5
121
330
5E
100
AcDbEntity
  8
$DDT_AUDIT_GENERATED_(85)
  6
Continuous
 62
     7
100
AcDbLine
 10
33.0354094224
 20
501.0101917197
 30
0.0
 11
33.0146998833
 21
501.0120896252
 31
0.0
  0
LINE
  5
122
330
5E
100
AcDbEntity
  8
$DDT_AUDIT_GENERATED_(85)
  6
Continuous
 62
     7
100
AcDbLine
 10
29.6853001167
 20
501.0120896252
 30
0.0
 11
29.6645905776
 21
501.0101917197
 31
0.0
  0
ARC
  5
123
330
5E
100
AcDbEntity
  8
$DDT_AUDIT_GENERATED_(85)
  6
Continuous
 62
     7
100
AcDbCircle
 10
28.0957799949
 20
500.8940995718
 30
0.0
 40
0.1059031156200796
100
AcDbArc
 50
285.0767454739
 51
332.214723387
  0
LINE
  5
124
330
5E
100
AcDbEntity
  8
$DDT_AUDIT_GENERATED_(85)
  6
Continuous
 62
     7
100
AcDbLine
 10
28.1233267331
 20
500.7918418234
 30
0.0
 11
28.1047590683
 21
500.7881753517
 31
0.0
  0
SPLINE
  5
125
330
5E
100
AcDbEntity
  8
$DDT_AUDIT_GENERATED_(85)
  6
Continuous
 62
     7
100
AcDbSpline
210
0.0
220
0.0
230
1.0
 70
     8
 71
     3
 72
    11
 73
     7
 74
     0
 42
0.0000000783592029
 43
0.0000000001
 40
0.0
 40
0.0
 40
0.0
 40
0.0
 40
0.2274863332652359
 40
0.2274863332652359
 40
0.2274863332652359
 40
0.4301038136943591
 40
0.4301038136943591
 40
0.4301038136943591
 40
0.4301038136943591
 10
28.10475906831287
 20
500.788175351672
 30
0.0
 10
28.09518063984218
 20
500.7862767011604
 30
0.0
 10
28.08531004375998
 20
500.7862244190102
 30
0.0
 10
28.07596504829357
 20
500.7880163349253
 30
0.0
 10
28.06764033197972
 20
500.7896126108897
 30
0.0
 10
28.05952929370856
 20
500.7927100194679
 30
0.0
 10
28.05214827535319
 20
500.7970831497642
 30
0.0
  0
SPLINE
  5
126
330
5E
100
AcDbEntity
  8
$DDT_AUDIT_GENERATED_(85)
  6
Continuous
 62
     7
100
AcDbSpline
210
0.0
220
0.0
230
1.0
 70
    12
 71
     2
 72
     6
 73
     3
 74
     0
 42
0.0000000097674784
 43
0.0000000001
 40
0.9653446954212548
 40
0.9653446954212548
 40
0.9653446954212548
 40
1.0
 40
1.0
 40
1.0
 10
26.83886752541591
 20
500.5873959103387
 30
0.0
 41
1.0
 10
26.83972240124954
 20
500.5696764263055
 30
0.0
 41
1.0
 10
26.84057805307623
 20
500.5519568688537
 30
0.0
 41
1.0
  0
SPLINE
  5
127
330
5E
100
AcDbEntity
  8
$DDT_AUDIT_GENERATED_(85)
  6
Continuous
 62
     7
100
AcDbSpline
210
0.0
220
0.0
230
1.0
 70
     8
 71
     3
 72
    20
 73
    16
 74
     0
 42
0.0000000742463989
 43
0.0000000001
 40
0.0
 40
0.0
 40
0.0
 40
0.0
 40
0.2354503935970864
 40
0.2354503935970864
 40
0.2354503935970864
 40
0.4710570812185482
 40
0.4710570812185482
 40
0.4710570812185482
 40
0.7042698238255743
 40
0.7042698238255743
 40
0.7042698238255743
 40
0.9340165527359828
 40
0.9340165527359828
 40
0.9340165527359828
 40
1.0
 40
1.0
 40
1.0
 40
1.0
 10
26.8405780530763
 20
500.5519568688537
 30
0.0
 10
26.84112532619849
 20
500.5406252862495
 30
0.0
 10
26.84025112407241
 20
500.5288784773544
 30
0.0
 10
26.83801794179465
 20
500.5176831902568
 30
0.0
 10
26.83578390207892
 20
500.5064836046904
 30
0.0
 10
26.83212565791661
 20
500.4955246156667
 30
0.0
 10
26.82734329932356
 20
500.4857423113269
 30
0.0
 10
26.82260949230699
 20
500.4760593191335
 30
0.0
 10
26.81664033783866
 20
500.4672581361133
 30
0.0
 10
26.80994180829817
 20
500.4601044876071
 30
0.0
 10
26.80334127199503
 20
500.4530554903041
 30
0.0
 10
26.79584803495362
 20
500.4474094320987
 30
0.0
 10
26.78809672664715
 20
500.443653193904
 30
0.0
 10
26.78584050286459
 20
500.4425598411934
 30
0.0
 10
26.78355125277412
 20
500.4416167303723
 30
0.0
 10
26.78124580029924
 20
500.4408308270388
 30
0.0
  0
LINE
  5
128
330
5E
100
AcDbEntity
  8
$DDT_AUDIT_GENERATED_(85)
  6
Continuous
 62
     7
100
AcDbLine
 10
26.7812458003
 20
500.440830827
 30
0.0
 11
26.7660853655
 21
500.435645653
 31
0.0
  0
SPLINE
  5
129
330
5E
100
AcDbEntity
  8
$DDT_AUDIT_GENERATED_(85)
  6
Continuous
 62
     7
100
AcDbSpline
210
0.0
220
0.0
230
1.0
 70
     8
 71
     3
 72
    11
 73
     7
 74
     0
 42
0.0000000940239461
 43
0.0000000001
 40
0.0
 40
0.0
 40
0.0
 40
0.0
 40
0.22748633350964
 40
0.22748633350964
 40
0.22748633350964
 40
0.3242863811730704
 40
0.3242863811730704
 40
0.3242863811730704
 40
0.3242863811730704
 10
26.76608536550633
 20
500.435645652958
 30
0.0
 10
26.75827009176395
 20
500.432963802196
 30
0.0
 10
26.75012090082146
 20
500.4321001285699
 30
0.0
 10
26.74231200817433
 20
500.4331196425371
 30
0.0
 10
26.73898863997219
 20
500.4335535350817
 30
0.0
 10
26.73568810528917
 20
500.4343332746935
 30
0.0
 10
26.73245790791955
 20
500.4354389561975
 30
0.0
  0
SPLINE
  5
12A
330
5E
100
AcDbEntity
  8
$DDT_AUDIT_GENERATED_(85)
  6
Continuous
 62
     7
100
AcDbSpline
210
0.0
220
0.0
230
1.0
 70
    12
 71
     2
 72
     6
 73
     3
 74
     0
 42
0.0000000097950349
 43
0.0000000001
 40
0.8214543502596436
 40
0.8214543502596436
 40
0.8214543502596436
 40
1.0
 40
1.0
 40
1.0
 10
25.76853405444353
 20
500.2797721819381
 30
0.0
 41
1.0
 10
25.77766267628499
 20
500.1890908062022
 30
0.0
 41
1.0
 10
25.7868163118491
 20
500.0984095354561
 30
0.0
 41
1.0
  0
SPLINE
  5
12B
330
5E
100
AcDbEntity
  8
$DDT_AUDIT_GENERATED_(85)
  6
Continuous
 62
     7
100
AcDbSpline
210
0.0
220
0.0
230
1.0
 70
     8
 71
     3
 72
    20
 73
    16
 74
     0
 42
0.0000000789658924
 43
0.0000000001
 40
0.0
 40
0.0
 40
0.0
 40
0.0
 40
0.2354503924156119
 40
0.2354503924156119
 40
0.2354503924156119
 40
0.4710570804011611
 40
0.4710570804011611
 40
0.4710570804011611
 40
0.7042698233685784
 40
0.7042698233685784
 40
0.7042698233685784
 40
0.9340165526340242
 40
0.9340165526340242
 40
0.9340165526340242
 40
1.0
 40
1.0
 40
1.0
 40
1.0
 10
25.78681631117748
 20
500.0984095352016
 30
0.0
 10
25.78795260970028
 20
500.0871537603591
 30
0.0
 10
25.78806784026799
 20
500.0753727766398
 30
0.0
 10
25.78714812267023
 20
500.0640355213781
 30
0.0
 10
25.78622805194375
 20
500.0526939131383
 30
0.0
 10
25.78424531211201
 20
500.0414809229812
 30
0.0
 10
25.78136483672704
 20
500.0313535780388
 30
0.0
 10
25.77851360457389
 20
500.0213290481724
 30
0.0
 10
25.77470215738055
 20
500.0120874661171
 30
0.0
 10
25.77025691731443
 20
500.0044320381139
 30
0.0
 10
25.76587670696302
 20
499.9968886018797
 30
0.0
 10
25.76075883365245
 20
499.9906746930428
 30
0.0
 10
25.75533863894114
 20
499.9863253709644
 30
0.0
 10
25.75376094757211
 20
499.9850593854658
 30
0.0
 10
25.75215009054636
 20
499.9839406613776
 30
0.0
 10
25.75051791601124
 20
499.9829774553386
 30
0.0
  0
LINE
  5
12C
330
5E
100
AcDbEntity
  8
$DDT_AUDIT_GENERATED_(85)
  6
Continuous
 62
     7
100
AcDbLine
 10
25.750517916
 20
499.9829774553
 30
0.0
 11
25.7397978698
 21
499.97662694
 31
0.0
  0
SPLINE
  5
12D
330
5E
100
AcDbEntity
  8
$DDT_AUDIT_GENERATED_(85)
  6
Continuous
 62
     7
100
AcDbSpline
210
0.0
220
0.0
230
1.0
 70
     8
 71
     3
 72
    11
 73
     7
 74
     0
 42
0.0000001256660196
 43
0.0000000001
 40
0.0
 40
0.0
 40
0.0
 40
0.0
 40
0.2274863332651959
 40
0.2274863332651959
 40
0.2274863332651959
 40
0.27096764853155
 40
0.27096764853155
 40
0.27096764853155
 40
0.27096764853155
 10
25.73979786976344
 20
499.976626939976
 30
0.0
 10
25.73427834873954
 20
499.9733446526608
 30
0.0
 10
25.72840591683233
 20
499.9718496161199
 30
0.0
 10
25.72266529013356
 20
499.9722590249574
 30
0.0
 10
25.72156786370136
 20
499.9723372909906
 30
0.0
 10
25.72046949712108
 20
499.9724855033171
 30
0.0
 10
25.71937340484063
 20
499.9727021964925
 30
0.0
  0
SPLINE
  5
12E
330
5E
100
AcDbEntity
  8
$DDT_AUDIT_GENERATED_(85)
  6
Continuous
 62
     7
100
AcDbSpline
210
0.0
220
0.0
230
1.0
 70
    12
 71
     2
 72
     6
 73
     3
 74
     0
 42
0.0000000098484301
 43
0.0000000001
 40
0.5736899512815982
 40
0.5736899512815982
 40
0.5736899512815982
 40
1.0
 40
1.0
 40
1.0
 10
25.04894095126238
 20
499.9952633692709
 30
0.0
 41
1.0
 10
25.08047961739258
 20
499.7811426487588
 30
0.0
 41
1.0
 10
25.1121763453739
 20
499.5670360651114
 30
0.0
 41
1.0
  0
SPLINE
  5
12F
330
5E
100
AcDbEntity
  8
$DDT_AUDIT_GENERATED_(85)
  6
Continuous
 62
     7
100
AcDbSpline
210
0.0
220
0.0
230
1.0
 70
     8
 71
     3
 72
    20
 73
    16
 74
     0
 42
0.0000000831578735
 43
0.0000000001
 40
0.0
 40
0.0
 40
0.0
 40
0.0
 40
0.2354503934061476
 40
0.2354503934061476
 40
0.2354503934061476
 40
0.471057081086445
 40
0.471057081086445
 40
0.471057081086445
 40
0.7042698237517142
 40
0.7042698237517142
 40
0.7042698237517142
 40
0.9340165527194975
 40
0.9340165527194975
 40
0.9340165527194975
 40
1.0
 40
1.0
 40
1.0
 40
1.0
 10
25.11217634531786
 20
499.5670360650628
 30
0.0
 10
25.11382423113308
 20
499.5559056556941
 30
0.0
 10
25.11492104162182
 20
499.5441792475246
 30
0.0
 10
25.11537746593844
 20
499.5328211311827
 30
0.0
 10
25.11583406550075
 20
499.5214586538533
 30
0.0
 10
25.11566195044247
 20
499.5101486353079
 30
0.0
 10
25.11487965790286
 20
499.4998563639617
 30
0.0
 10
25.11410530737247
 20
499.4896685820613
 30
0.0
 10
25.11271131128163
 20
499.4801926103152
 30
0.0
 10
25.1108222964543
 20
499.4722519647109
 30
0.0
 10
25.10896091615141
 20
499.464427483343
 30
0.0
 10
25.10656718118011
 20
499.4578753432648
 30
0.0
 10
25.10384747737625
 20
499.4531594994145
 30
0.0
 10
25.1030558354803
 20
499.451786828037
 30
0.0
 10
25.10223314876348
 20
499.4505585268132
 30
0.0
 10
25.10138548216541
 20
499.4494836589685
 30
0.0
  0
LINE
  5
130
330
5E
100
AcDbEntity
  8
$DDT_AUDIT_GENERATED_(85)
  6
Continuous
 62
     7
100
AcDbLine
 10
25.1013854822
 20
499.449483659
 30
0.0
 11
25.0958363779
 21
499.4424005795
 31
0.0
  0
SPLINE
  5
131
330
5E
100
AcDbEntity
  8
$DDT_AUDIT_GENERATED_(85)
  6
Continuous
 62
     7
100
AcDbSpline
210
0.0
220
0.0
230
1.0
 70
     8
 71
     3
 72
    11
 73
     7
 74
     0
 42
0.0000001976447553
 43
0.0000000001
 40
0.0
 40
0.0
 40
0.0
 40
0.0
 40
0.2274863332660511
 40
0.2274863332660511
 40
0.2274863332660511
 40
0.2454909621784236
 40
0.2454909621784236
 40
0.2454909621784236
 40
0.2454909621784236
 10
25.09583637789879
 20
499.4424005794511
 30
0.0
 10
25.09298875582972
 20
499.4387415380393
 30
0.0
 10
25.0897932794876
 20
499.4368381934839
 30
0.0
 10
25.08651213295989
 20
499.436841371666
 30
0.0
 10
25.08625240228909
 20
499.4368416232462
 30
0.0
 10
25.08599157027531
 20
499.4368538109734
 30
0.0
 10
25.08572977213197
 20
499.4368778471691
 30
0.0
  0
ARC
  5
132
330
5E
100
AcDbEntity
  8
$DDT_AUDIT_GENERATED_(85)
  6
Continuous
 62
     7
100
AcDbCircle
 10
572.5716381058
 20
601.2544729432
 30
0.0
 40
557.1735347527137
100
AcDbArc
 50
190.5263870249
 51
190.5756876995
  0
ARC
  5
133
330
5E
100
AcDbEntity
  8
$DDT_AUDIT_GENERATED_(85)
  6
Continuous
 62
     7
100
AcDbCircle
 10
23.9746655928
 20
498.8174294676
 30
0.0
 40
0.9053627999048152
100
AcDbArc
 50
3.7540038021
 51
11.249464052
  0
SPLINE
  5
134
330
5E
100
AcDbEntity
  8
$DDT_AUDIT_GENERATED_(85)
  6
Continuous
 62
     7
100
AcDbSpline
210
0.0
220
0.0
230
1.0
 70
    12
 71
     2
 72
     6
 73
     3
 74
     0
 42
0.0000000101125618
 43
0.0000000001
 40
0.5780349646769407
 40
0.5780349646769407
 40
0.5780349646769407
 40
1.0
 40
1.0
 40
1.0
 10
37.35366661137638
 20
498.8633422445924
 30
0.0
 41
1.0
 10
37.34799292245966
 20
498.6547797022042
 30
0.0
 41
1.0
 10
37.34213509092389
 20
498.4462334665678
 30
0.0
 41
1.0
  0
SPLINE
  5
135
330
5E
100
AcDbEntity
  8
$DDT_AUDIT_GENERATED_(85)
  6
Continuous
 62
     7
100
AcDbSpline
210
0.0
220
0.0
230
1.0
 70
     8
 71
     3
 72
    20
 73
    16
 74
     0
 42
0.000000083198725
 43
0.0000000001
 40
0.0
 40
0.0
 40
0.0
 40
0.0
 40
0.2315776519973273
 40
0.2315776519973273
 40
0.2315776519973273
 40
0.463153623123381
 40
0.463153623123381
 40
0.463153623123381
 40
0.6947533632360997
 40
0.6947533632360997
 40
0.6947533632360997
 40
0.9263592170857718
 40
0.9263592170857718
 40
0.9263592170857718
 40
1.0
 40
1.0
 40
1.0
 40
1.0
 10
37.34213509098118
 20
498.4462334666172
 30
0.0
 10
37.34182979371154
 20
498.435364394513
 30
0.0
 10
37.34105676002687
 20
498.4239132080968
 30
0.0
 10
37.33987234467999
 20
498.4128289363492
 30
0.0
 10
37.33868793440933
 20
498.401744712107
 30
0.0
 10
37.33705894572137
 20
498.3907217393646
 30
0.0
 10
37.335106645782
 20
498.3806737577013
 30
0.0
 10
37.33315415039714
 20
498.3706247701307
 30
0.0
 10
37.33082373149497
 20
498.3612738609198
 30
0.0
 10
37.32829476798535
 20
498.3533965331043
 30
0.0
 10
37.32576574555647
 20
498.3455190217644
 30
0.0
 10
37.32296786219532
 20
498.3388979324939
 30
0.0
 10
37.32012527417423
 20
498.3340824685864
 30
0.0
 10
37.31920977722467
 20
498.3325315781706
 30
0.0
 10
37.3182845172116
 20
498.3311543526308
 30
0.0
 10
37.3173575413151
 20
498.3299628566098
 30
0.0
  0
LINE
  5
136
330
5E
100
AcDbEntity
  8
$DDT_AUDIT_GENERATED_(85)
  6
Continuous
 62
     7
100
AcDbLine
 10
37.3173575413
 20
498.3299628566
 30
0.0
 11
37.311808437
 21
498.3228797771
 31
0.0
  0
SPLINE
  5
137
330
5E
100
AcDbEntity
  8
$DDT_AUDIT_GENERATED_(85)
  6
Continuous
 62
     7
100
AcDbSpline
210
0.0
220
0.0
230
1.0
 70
     8
 71
     3
 72
    11
 73
     7
 74
     0
 42
0.0000002124342954
 43
0.0000000001
 40
0.0
 40
0.0
 40
0.0
 40
0.0
 40
0.2315768355109377
 40
0.2315768355109377
 40
0.2315768355109377
 40
0.2470724432089891
 40
0.2470724432089891
 40
0.2470724432089891
 40
0.2470724432089891
 10
37.31180843704848
 20
498.3228797770925
 30
0.0
 10
37.30889302539718
 20
498.3191841143499
 30
0.0
 10
37.30590641907139
 20
498.3172560053761
 30
0.0
 10
37.30310071034602
 20
498.3172545760472
 30
0.0
 10
37.30291297015863
 20
498.3172544804056
 30
0.0
 10
37.30272569538388
 20
498.3172630108235
 30
0.0
 10
37.30253895668542
 20
498.317280119184
 30
0.0
  0
SPLINE
  5
138
330
5E
100
AcDbEntity
  8
$DDT_AUDIT_GENERATED_(85)
  6
Continuous
 62
     7
100
AcDbSpline
210
0.0
220
0.0
230
1.0
 70
    12
 71
     2
 72
     6
 73
     3
 74
     0
 42
0.0000000101386518
 43
0.0000000001
 40
0.5609827955668794
 40
0.5609827955668794
 40
0.5609827955668794
 40
1.0
 40
1.0
 40
1.0
 10
36.77616558510801
 20
498.3655179491203
 30
0.0
 41
1.0
 10
36.7641208319947
 20
498.1493342289882
 30
0.0
 41
1.0
 10
36.75189734873648
 20
497.9331851832458
 30
0.0
 41
1.0
  0
SPLINE
  5
139
330
5E
100
AcDbEntity
  8
$DDT_AUDIT_GENERATED_(85)
  6
Continuous
 62
     7
100
AcDbSpline
210
0.0
220
0.0
230
1.0
 70
     8
 71
     3
 72
    20
 73
    16
 74
     0
 42
0.0000000786397878
 43
0.0000000001
 40
0.0
 40
0.0
 40
0.0
 40
0.0
 40
0.2315776513076842
 40
0.2315776513076842
 40
0.2315776513076842
 40
0.4631536226414998
 40
0.4631536226414998
 40
0.4631536226414998
 40
0.6947533629619977
 40
0.6947533629619977
 40
0.6947533629619977
 40
0.9263592170194582
 40
0.9263592170194582
 40
0.9263592170194582
 40
1.0
 40
1.0
 40
1.0
 40
1.0
 10
36.7518973482405
 20
497.9331851830581
 30
0.0
 10
36.75128502913914
 20
497.9223574294628
 30
0.0
 10
36.74973426268262
 20
497.9110108786687
 30
0.0
 10
36.74736663650758
 20
497.900086547558
 30
0.0
 10
36.74499902047981
 20
497.8891622632672
 30
0.0
 10
36.74174878352278
 20
497.878358991351
 30
0.0
 10
36.73787283239989
 20
497.8685734430464
 30
0.0
 10
36.73399649325405
 20
497.8587869151069
 30
0.0
 10
36.72938677369844
 20
497.8497485051047
 30
0.0
 10
36.72441316317829
 20
497.8422090017377
 30
0.0
 10
36.71943943678399
 20
497.834669322717
 30
0.0
 10
36.71396410905177
 20
497.8284207579915
 30
0.0
 10
36.70843387228994
 20
497.8239823040147
 30
0.0
 10
36.70665277884685
 20
497.8225528351483
 30
0.0
 10
36.70485587114016
 20
497.8212981828488
 30
0.0
 10
36.7030588329351
 20
497.8202293432064
 30
0.0
  0
LINE
  5
13A
330
5E
100
AcDbEntity
  8
$DDT_AUDIT_GENERATED_(85)
  6
Continuous
 62
     7
100
AcDbLine
 10
36.7030588329
 20
497.8202293432
 30
0.0
 11
36.6923387867
 21
497.8138788278
 31
0.0
  0
SPLINE
  5
13B
330
5E
100
AcDbEntity
  8
$DDT_AUDIT_GENERATED_(85)
  6
Continuous
 62
     7
100
AcDbSpline
210
0.0
220
0.0
230
1.0
 70
     8
 71
     3
 72
    11
 73
     7
 74
     0
 42
0.0000001320691007
 43
0.0000000001
 40
0.0
 40
0.0
 40
0.0
 40
0.0
 40
0.2315768354864173
 40
0.2315768354864173
 40
0.2315768354864173
 40
0.2726053315197854
 40
0.2726053315197854
 40
0.2726053315197854
 40
0.2726053315197854
 10
36.6923387866873
 20
497.8138788278438
 30
0.0
 10
36.68672607326626
 20
497.8105671678634
 30
0.0
 10
36.68100818928749
 20
497.8090310029911
 30
0.0
 10
36.6756629185203
 20
497.8093965943863
 30
0.0
 10
36.67471589370652
 20
497.8094613664321
 30
0.0
 10
36.67377594951827
 20
497.8095861464187
 30
0.0
 10
36.67284550376029
 20
497.8097698732561
 30
0.0
  0
SPLINE
  5
13C
330
5E
100
AcDbEntity
  8
$DDT_AUDIT_GENERATED_(85)
  6
Continuous
 62
     7
100
AcDbSpline
210
0.0
220
0.0
230
1.0
 70
    12
 71
     2
 72
     6
 73
     3
 74
     0
 42
0.0000000101839288
 43
0.0000000001
 40
0.50369042065977
 40
0.50369042065977
 40
0.50369042065977
 40
1.0
 40
1.0
 40
1.0
 10
35.83295411356158
 20
497.9756157729062
 30
0.0
 41
1.0
 10
35.81333493840653
 20
497.7327099988248
 30
0.0
 41
1.0
 10
35.79352922928998
 20
497.4898672243774
 30
0.0
 41
1.0
  0
SPLINE
  5
13D
330
5E
100
AcDbEntity
  8
$DDT_AUDIT_GENERATED_(85)
  6
Continuous
 62
     7
100
AcDbSpline
210
0.0
220
0.0
230
1.0
 70
     8
 71
     3
 72
    20
 73
    16
 74
     0
 42
0.0000000740482866
 43
0.0000000001
 40
0.0
 40
0.0
 40
0.0
 40
0.0
 40
0.2315776517826732
 40
0.2315776517826732
 40
0.2315776517826732
 40
0.4631536229734234
 40
0.4631536229734234
 40
0.4631536229734234
 40
0.6947533631508337
 40
0.6947533631508337
 40
0.6947533631508337
 40
0.9263592170652215
 40
0.9263592170652215
 40
0.9263592170652215
 40
1.0
 40
1.0
 40
1.0
 40
1.0
 10
35.79352922961582
 20
497.4898672244396
 30
0.0
 10
35.79265161587642
 20
497.4791065590091
 30
0.0
 10
35.79042879881931
 20
497.4679299244018
 30
0.0
 10
35.78703931162724
 20
497.4572648234754
 30
0.0
 10
35.78364983896198
 20
497.446599768258
 30
0.0
 10
35.77899985201323
 20
497.436152226092
 30
0.0
 10
35.77346438937053
 20
497.4267904531014
 30
0.0
 10
35.76792837257055
 20
497.4174277429003
 30
0.0
 10
35.76135349713128
 20
497.4088929506728
 30
0.0
 10
35.75427418293827
 20
497.4018961640627
 30
0.0
 10
35.74719470381284
 20
497.3948992144429
 30
0.0
 10
35.73941506624608
 20
497.3892474917246
 30
0.0
 10
35.7315740572397
 20
497.3854111156097
 30
0.0
 10
35.72904874587785
 20
497.3841755547037
 30
0.0
 10
35.72650264676823
 20
497.383116458473
 30
0.0
 10
35.72395801143856
 20
497.3822431148647
 30
0.0
  0
LINE
  5
13E
330
5E
100
AcDbEntity
  8
$DDT_AUDIT_GENERATED_(85)
  6
Continuous
 62
     7
100
AcDbLine
 10
35.7239580114
 20
497.3822431149
 30
0.0
 11
35.7087975766
 21
497.3770579408
 31
0.0
  0
SPLINE
  5
13F
330
5E
100
AcDbEntity
  8
$DDT_AUDIT_GENERATED_(85)
  6
Continuous
 62
     7
100
AcDbSpline
210
0.0
220
0.0
230
1.0
 70
     8
 71
     3
 72
    11
 73
     7
 74
     0
 42
0.0000000978135477
 43
0.0000000001
 40
0.0
 40
0.0
 40
0.0
 40
0.0
 40
0.2315768354864408
 40
0.2315768354864408
 40
0.2315768354864408
 40
0.3260826864349395
 40
0.3260826864349395
 40
0.3260826864349395
 40
0.3260826864349395
 10
35.70879757664566
 20
497.3770579407839
 30
0.0
 10
35.70087005859908
 20
497.3743559677205
 30
0.0
 10
35.69281056131123
 20
497.3734401681004
 30
0.0
 10
35.68528999987152
 20
497.3743850796935
 30
0.0
 10
35.68222087179609
 20
497.3747706964752
 30
0.0
 10
35.67920700783627
 20
497.3754705199351
 30
0.0
 10
35.67628946151104
 20
497.3764684030485
 30
0.0
  0
SPLINE
  5
140
330
5E
100
AcDbEntity
  8
$DDT_AUDIT_GENERATED_(85)
  6
Continuous
 62
     7
100
AcDbSpline
210
0.0
220
0.0
230
1.0
 70
    12
 71
     2
 72
     6
 73
     3
 74
     0
 42
0.000000010250305
 43
0.0000000001
 40
0.8823744484351281
 40
0.8823744484351281
 40
0.8823744484351281
 40
1.0
 40
1.0
 40
1.0
 10
34.54392053801815
 20
497.2606585626173
 30
0.0
 41
1.0
 10
34.53813494236146
 20
497.2035725973819
 30
0.0
 41
1.0
 10
34.53234193614681
 20
497.1464909762421
 30
0.0
 41
1.0
  0
ARC
  5
141
330
5E
100
AcDbEntity
  8
$DDT_AUDIT_GENERATED_(85)
  6
Continuous
 62
     7
100
AcDbCircle
 10
34.4177660082
 20
497.1572110897
 30
0.0
 40
0.1150763415595869
100
AcDbArc
 50
284.60306235
 51
354.6547734352
  0
LINE
  5
142
330
5E
100
AcDbEntity
  8
$DDT_AUDIT_GENERATED_(85)
  6
Continuous
 62
     7
100
AcDbLine
 10
34.4467791798
 20
497.0458522092
 30
0.0
 11
34.428211515
 21
497.0421857375
 31
0.0
  0
ARC
  5
143
330
5E
100
AcDbEntity
  8
$DDT_AUDIT_GENERATED_(85)
  6
Continuous
 62
     7
100
AcDbCircle
 10
34.4132006402
 20
497.1121971412
 30
0.0
 40
0.0716025349898191
100
AcDbArc
 50
239.6892089856
 51
282.1013538643
  0
ARC
  5
144
330
5E
100
AcDbEntity
  8
$DDT_AUDIT_GENERATED_(85)
  6
Continuous
 62
     7
100
AcDbCircle
 10
32.9479587327
 20
496.9407349832
 30
0.0
 40
0.1072789607597929
100
AcDbArc
 50
275.6711846496
 51
352.3516696316
  0
LINE
  5
145
330
5E
100
AcDbEntity
  8
$DDT_AUDIT_GENERATED_(85)
  6
Continuous
 62
     7
100
AcDbLine
 10
32.9585599647
 20
496.8339811106
 30
0.0
 11
32.9378504256
 21
496.8320832052
 31
0.0
  0
ARC
  5
146
330
5E
100
AcDbEntity
  8
$DDT_AUDIT_GENERATED_(85)
  6
Continuous
 62
     7
100
AcDbCircle
 10
32.9272776165
 20
496.917764791
 30
0.0
 40
0.0863314452425222
100
AcDbArc
 50
217.8310511552
 51
277.034539059
  0
ARC
  5
147
330
5E
100
AcDbEntity
  8
$DDT_AUDIT_GENERATED_(85)
  6
Continuous
 62
     7
100
AcDbCircle
 10
31.3630477494
 20
496.8591322851
 30
0.0
 40
0.0980914228171818
100
AcDbArc
 50
268.6402471951
 51
351.5748140529
  0
LINE
  5
148
330
5E
100
AcDbEntity
  8
$DDT_AUDIT_GENERATED_(85)
  6
Continuous
 62
     7
100
AcDbLine
 10
31.3607200462
 20
496.7610684843
 30
0.0
 11
31.3392799538
 21
496.7610684843
 31
0.0
  0
ARC
  5
149
330
5E
100
AcDbEntity
  8
$DDT_AUDIT_GENERATED_(85)
  6
Continuous
 62
     7
100
AcDbCircle
 10
31.3372121383
 20
496.8594408292
 30
0.0
 40
0.0983940755539984
100
AcDbArc
 50
188.5807419655
 51
271.2041966831
  0
ARC
  5
14A
330
5E
100
AcDbEntity
  8
$DDT_AUDIT_GENERATED_(85)
  6
Continuous
 62
     7
100
AcDbCircle
 10
29.7728845397
 20
496.917556422
 30
0.0
 40
0.0861447054330217
100
AcDbArc
 50
262.8414481872
 51
322.1587390436
  0
LINE
  5
14B
330
5E
100
AcDbEntity
  8
$DDT_AUDIT_GENERATED_(85)
  6
Continuous
 62
     7
100
AcDbLine
 10
29.7621495744
 20
496.8320832052
 30
0.0
 11
29.7414400353
 21
496.8339811106
 31
0.0
  0
ARC
  5
14C
330
5E
100
AcDbEntity
  8
$DDT_AUDIT_GENERATED_(85)
  6
Continuous
 62
     7
100
AcDbCircle
 10
29.7521153198
 20
496.9408116348
 30
0.0
 40
0.1073625754089854
100
AcDbArc
 50
187.6836131963
 51
264.2935317779
  0
ARC
  5
14D
330
5E
100
AcDbEntity
  8
$DDT_AUDIT_GENERATED_(85)
  6
Continuous
 62
     7
100
AcDbCircle
 10
28.2866559756
 20
497.1123832867
 30
0.0
 40
0.0717547085176331
100
AcDbArc
 50
258.0417540043
 51
300.2953121632
  0
LINE
  5
14E
330
5E
100
AcDbEntity
  8
$DDT_AUDIT_GENERATED_(85)
  6
Continuous
 62
     7
100
AcDbLine
 10
28.271788485
 20
497.0421857375
 30
0.0
 11
28.2532208202
 21
497.0458522092
 31
0.0
  0
ARC
  5
14F
330
5E
100
AcDbEntity
  8
$DDT_AUDIT_GENERATED_(85)
  6
Continuous
 62
     7
100
AcDbCircle
 10
28.2817208553
 20
497.1567748224
 30
0.0
 40
0.1145254474343407
100
AcDbArc
 50
185.1518305538
 51
255.5903334893
  0
SPLINE
  5
150
330
5E
100
AcDbEntity
  8
$DDT_AUDIT_GENERATED_(85)
  6
Continuous
 62
     7
100
AcDbSpline
210
0.0
220
0.0
230
1.0
 70
    12
 71
     2
 72
     6
 73
     3
 74
     0
 42
0.0000000102503035
 43
0.0000000001
 40
0.0
 40
0.0
 40
0.0
 40
0.118173463593383
 40
0.118173463593383
 40
0.118173463593383
 10
28.16765806281878
 20
497.1464909763188
 30
0.0
 41
1.0
 10
28.16183807217997
 20
497.2038384895739
 30
0.0
 41
1.0
 10
28.1560255612982
 20
497.2611903874894
 30
0.0
 41
1.0
  0
SPLINE
  5
151
330
5E
100
AcDbEntity
  8
$DDT_AUDIT_GENERATED_(85)
  6
Continuous
 62
     7
100
AcDbSpline
210
0.0
220
0.0
230
1.0
 70
     8
 71
     3
 72
    14
 73
    10
 74
     0
 42
0.0000000976048146
 43
0.0000000001
 40
0.6746736759905567
 40
0.6746736759905567
 40
0.6746736759905567
 40
0.6746736759905567
 40
0.6947533625737577
 40
0.6947533625737577
 40
0.6947533625737577
 40
0.9263592169259651
 40
0.9263592169259651
 40
0.9263592169259651
 40
1.0
 40
1.0
 40
1.0
 40
1.0
 10
27.02369971033028
 20
497.37645584363
 30
0.0
 10
27.02308267569388
 20
497.3762448125525
 30
0.0
 10
27.02246168888247
 20
497.3760476474272
 30
0.0
 10
27.02183711934225
 20
497.3758645655481
 30
0.0
 10
27.01463314666366
 20
497.3737528441615
 30
0.0
 10
27.00675418585587
 20
497.3734566775035
 30
0.0
 10
26.99885833591642
 20
497.3750026241406
 30
0.0
 10
26.99631536223185
 20
497.3755005188127
 30
0.0
 10
26.99375590923903
 20
497.3761876242438
 30
0.0
 10
26.99120242335428
 20
497.377057940784
 30
0.0
  0
LINE
  5
152
330
5E
100
AcDbEntity
  8
$DDT_AUDIT_GENERATED_(85)
  6
Continuous
 62
     7
100
AcDbLine
 10
26.9912024234
 20
497.3770579408
 30
0.0
 11
26.9760419886
 21
497.3822431149
 31
0.0
  0
ARC
  5
153
330
5E
100
AcDbEntity
  8
$DDT_AUDIT_GENERATED_(85)
  6
Continuous
 62
     7
100
AcDbCircle
 10
27.0305154445
 20
497.493754713
 30
0.0
 40
0.1241055757045316
100
AcDbArc
 50
181.7950291104
 51
243.9644742041
  0
SPLINE
  5
154
330
5E
100
AcDbEntity
  8
$DDT_AUDIT_GENERATED_(85)
  6
Continuous
 62
     7
100
AcDbSpline
210
0.0
220
0.0
230
1.0
 70
    12
 71
     2
 72
     6
 73
     3
 74
     0
 42
0.0000000101839288
 43
0.0000000001
 40
0.0
 40
0.0
 40
0.0
 40
0.4963095790460694
 40
0.4963095790460694
 40
0.4963095790460694
 10
26.90647076962545
 20
497.4898672245846
 30
0.0
 41
1.0
 10
26.88666506052105
 20
497.7327099988831
 30
0.0
 41
1.0
 10
26.86704588537751
 20
497.9756157728203
 30
0.0
 41
1.0
  0
SPLINE
  5
155
330
5E
100
AcDbEntity
  8
$DDT_AUDIT_GENERATED_(85)
  6
Continuous
 62
     7
100
AcDbSpline
210
0.0
220
0.0
230
1.0
 70
     8
 71
     3
 72
    11
 73
     7
 74
     0
 42
0.0000001321543037
 43
0.0000000001
 40
0.7270398727390377
 40
0.7270398727390377
 40
0.7270398727390377
 40
0.7270398727390377
 40
0.9263592170834576
 40
0.9263592170834576
 40
0.9263592170834576
 40
1.0
 40
1.0
 40
1.0
 40
1.0
 10
26.02723566318998
 20
497.8097847726484
 30
0.0
 10
26.02271897944906
 20
497.8088928314071
 30
0.0
 10
26.01790218843245
 20
497.8093812457737
 30
0.0
 10
26.01308507927851
 20
497.8112345574692
 30
0.0
 10
26.01128235399628
 20
497.8119281294316
 30
0.0
 10
26.00946909118963
 20
497.8128121286618
 30
0.0
 10
26.00766121331265
 20
497.8138788278438
 30
0.0
  0
LINE
  5
156
330
5E
100
AcDbEntity
  8
$DDT_AUDIT_GENERATED_(85)
  6
Continuous
 62
     7
100
AcDbLine
 10
26.0076612133
 20
497.8138788278
 30
0.0
 11
25.9969411671
 21
497.8202293432
 31
0.0
  0
SPLINE
  5
157
330
5E
100
AcDbEntity
  8
$DDT_AUDIT_GENERATED_(85)
  6
Continuous
 62
     7
100
AcDbSpline
210
0.0
220
0.0
230
1.0
 70
     8
 71
     3
 72
    20
 73
    16
 74
     0
 42
0.0000000786178917
 43
0.0000000001
 40
0.0
 40
0.0
 40
0.0
 40
0.0
 40
0.2315768355912205
 40
0.2315768355912205
 40
0.2315768355912205
 40
0.4631521975120621
 40
0.4631521975120621
 40
0.4631521975120621
 40
0.69474919882332
 40
0.69474919882332
 40
0.69474919882332
 40
0.9263566109154714
 40
0.9263566109154714
 40
0.9263566109154714
 40
1.0
 40
1.0
 40
1.0
 40
1.0
 10
25.99694116706485
 20
497.8202293432064
 30
0.0
 10
25.99136210634397
 20
497.8235476484315
 30
0.0
 10
25.98573393633964
 20
497.8287328435665
 30
0.0
 10
25.98051846939271
 20
497.8353545765439
 30
0.0
 10
25.97530302162717
 20
497.841976285168
 30
0.0
 10
25.97035603955176
 20
497.850217038693
 30
0.0
 10
25.96607609746854
 20
497.8593923803865
 30
0.0
 10
25.96179576355416
 20
497.8685685620878
 30
0.0
 10
25.95806392692294
 20
497.878932477573
 30
0.0
 10
25.9551767528321
 20
497.8896235604939
 30
0.0
 10
25.9522894594066
 20
497.9003150853061
 30
0.0
 10
25.95016670778829
 20
497.911628637861
 30
0.0
 10
25.94897529565895
 20
497.9226253990654
 30
0.0
 10
25.94859157300726
 20
497.9261671679172
 30
0.0
 10
25.94829988816883
 20
497.9296974087936
 30
0.0
 10
25.94810265187403
 20
497.9331851830145
 30
0.0
  0
SPLINE
  5
158
330
5E
100
AcDbEntity
  8
$DDT_AUDIT_GENERATED_(85)
  6
Continuous
 62
     7
100
AcDbSpline
210
0.0
220
0.0
230
1.0
 70
    12
 71
     2
 72
     6
 73
     3
 74
     0
 42
0.0000000101386518
 43
0.0000000001
 40
0.0
 40
0.0
 40
0.0
 40
0.4390172047015318
 40
0.4390172047015318
 40
0.4390172047015318
 10
25.94810265187404
 20
497.9331851830145
 30
0.0
 41
1.0
 10
25.93587916860832
 20
498.1493342288892
 30
0.0
 41
1.0
 10
25.92383441548773
 20
498.3655179491535
 30
0.0
 41
1.0
  0
SPLINE
  5
159
330
5E
100
AcDbEntity
  8
$DDT_AUDIT_GENERATED_(85)
  6
Continuous
 62
     7
100
AcDbSpline
210
0.0
220
0.0
230
1.0
 70
     8
 71
     3
 72
    11
 73
     7
 74
     0
 42
0.0000002148270264
 43
0.0000000001
 40
0.7527531951693202
 40
0.7527531951693202
 40
0.7527531951693202
 40
0.7527531951693202
 40
0.9263592169195887
 40
0.9263592169195887
 40
0.9263592169195887
 40
1.0
 40
1.0
 40
1.0
 40
1.0
 10
25.3974959707692
 20
498.3172884140419
 30
0.0
 10
25.39539655286361
 20
498.317096029466
 30
0.0
 10
25.3932006422765
 20
498.3179625880455
 30
0.0
 10
25.39101375481888
 20
498.3198642048247
 30
0.0
 10
25.39007413068782
 20
498.3206812587647
 30
0.0
 10
25.38913062893104
 20
498.3216893890552
 30
0.0
 10
25.38819156295148
 20
498.3228797770925
 30
0.0
  0
LINE
  5
15A
330
5E
100
AcDbEntity
  8
$DDT_AUDIT_GENERATED_(85)
  6
Continuous
 62
     7
100
AcDbLine
 10
25.388191563
 20
498.3228797771
 30
0.0
 11
25.3826424587
 21
498.3299628566
 31
0.0
  0
ARC
  5
15B
330
5E
100
AcDbEntity
  8
$DDT_AUDIT_GENERATED_(85)
  6
Continuous
 62
     7
100
AcDbCircle
 10
25.6032714478
 20
498.4377548137
 30
0.0
 40
0.2455529613852741
100
AcDbArc
 50
178.0212512631
 51
206.0385901968
  0
SPLINE
  5
15C
330
5E
100
AcDbEntity
  8
$DDT_AUDIT_GENERATED_(85)
  6
Continuous
 62
     7
100
AcDbSpline
210
0.0
220
0.0
230
1.0
 70
    12
 71
     2
 72
     6
 73
     3
 74
     0
 42
0.0000000101125618
 43
0.0000000001
 40
0.0
 40
0.0
 40
0.0
 40
0.4219650352489597
 40
0.4219650352489597
 40
0.4219650352489597
 10
25.35786490898558
 20
498.4462334666458
 30
0.0
 41
1.0
 10
25.352007077451
 20
498.6547797022394
 30
0.0
 41
1.0
 10
25.34633338853527
 20
498.8633422445899
 30
0.0
 41
1.0
  0
SPLINE
  5
15D
330
5E
100
AcDbEntity
  8
$DDT_AUDIT_GENERATED_(85)
  6
Continuous
 62
     7
100
AcDbSpline
210
0.0
220
0.0
230
1.0
 70
     8
 71
     3
 72
    11
 73
     7
 74
     0
 42
0.000000202351254
 43
0.0000000001
 40
0.7541602266103006
 40
0.7541602266103006
 40
0.7541602266103006
 40
0.7541602266103006
 40
0.9322077561170351
 40
0.9322077561170351
 40
0.9322077561170351
 40
1.0
 40
1.0
 40
1.0
 40
1.0
 10
34.22131302545383
 20
499.1259378649485
 30
0.0
 10
34.21878309705921
 20
499.1257057275227
 30
0.0
 10
34.2162943778965
 20
499.1266138674404
 30
0.0
 10
34.2139681948562
 20
499.1286367785487
 30
0.0
 10
34.21307067913934
 20
499.1294172822675
 30
0.0
 10
34.21219204763587
 20
499.1303636039373
 30
0.0
 10
34.21133897872282
 20
499.1314684859078
 30
0.0
  0
SPLINE
  5
15E
330
5E
100
AcDbEntity
  8
$DDT_AUDIT_GENERATED_(85)
  6
Continuous
 62
     7
100
AcDbSpline
210
0.0
220
0.0
230
1.0
 70
    12
 71
     2
 72
     6
 73
     3
 74
     0
 42
0.0000011113404023
 43
0.0000000001
 40
0.0
 40
0.0
 40
0.0
 40
1.0
 40
1.0
 40
1.0
 10
34.21133897872281
 20
499.1314684859078
 30
0.0
 41
1.0
 10
34.20860193536524
 20
499.1350134631215
 30
0.0
 41
1.0
 10
34.20578987445619
 20
499.1385515654252
 30
0.0
 41
1.0
  0
SPLINE
  5
15F
330
5E
100
AcDbEntity
  8
$DDT_AUDIT_GENERATED_(85)
  6
Continuous
 62
     7
100
AcDbSpline
210
0.0
220
0.0
230
1.0
 70
     8
 71
     3
 72
    20
 73
    16
 74
     0
 42
0.000000083113704
 43
0.0000000001
 40
0.0
 40
0.0
 40
0.0
 40
0.0
 40
0.2280395246181127
 40
0.2280395246181127
 40
0.2280395246181127
 40
0.4560243242012931
 40
0.4560243242012931
 40
0.4560243242012931
 40
0.6848913991968159
 40
0.6848913991968159
 40
0.6848913991968159
 40
0.9162090720400039
 40
0.9162090720400039
 40
0.9162090720400039
 40
1.0
 40
1.0
 40
1.0
 40
1.0
 10
34.2057898744562
 20
499.1385515654252
 30
0.0
 10
34.20288098003513
 20
499.1422115025265
 30
0.0
 10
34.20020665553233
 20
499.1477311332475
 30
0.0
 10
34.19799756227061
 20
499.1546478939967
 30
0.0
 10
34.19578875994756
 20
499.1615637438051
 30
0.0
 10
34.19398518174362
 20
499.1700651527248
 30
0.0
 10
34.1927549848853
 20
499.1794426096683
 30
0.0
 10
34.19151991200969
 20
499.1888572351688
 30
0.0
 10
34.19083006996253
 20
499.1994096191509
 30
0.0
 10
34.19076198607091
 20
499.2102337789364
 30
0.0
 10
34.19069317572199
 20
499.2211734328542
 30
0.0
 10
34.19125817467448
 20
499.2326860244677
 30
0.0
 10
34.1924233128974
 20
499.2438412375282
 30
0.0
 10
34.19285046476316
 20
499.2479308553762
 30
0.0
 10
34.19335911703859
 20
499.2520008443101
 30
0.0
 10
34.19394390713417
 20
499.2560072775744
 30
0.0
  0
SPLINE
  5
160
330
5E
100
AcDbEntity
  8
$DDT_AUDIT_GENERATED_(85)
  6
Continuous
 62
     7
100
AcDbSpline
210
0.0
220
0.0
230
1.0
 70
    12
 71
     2
 72
     6
 73
     3
 74
     0
 42
0.0000000098549229
 43
0.0000000001
 40
0.0
 40
0.0
 40
0.0
 40
0.3186618573284767
 40
0.3186618573284767
 40
0.3186618573284767
 10
34.19394390713416
 20
499.2560072775744
 30
0.0
 41
1.0
 10
34.2172890026845
 20
499.4159945268645
 30
0.0
 41
1.0
 10
34.24046163896497
 20
499.5759966738632
 30
0.0
 41
1.0
  0
SPLINE
  5
161
330
5E
100
AcDbEntity
  8
$DDT_AUDIT_GENERATED_(85)
  6
Continuous
 62
     7
100
AcDbSpline
210
0.0
220
0.0
230
1.0
 70
     8
 71
     3
 72
    14
 73
    10
 74
     0
 42
0.0000000787290569
 43
0.0000000001
 40
0.5705427391492648
 40
0.5705427391492648
 40
0.5705427391492648
 40
0.5705427391492648
 40
0.7025460167341704
 40
0.7025460167341704
 40
0.7025460167341704
 40
0.9322077560535574
 40
0.9322077560535574
 40
0.9322077560535574
 40
1.0
 40
1.0
 40
1.0
 40
1.0
 10
32.89135506645687
 20
499.7565512826807
 30
0.0
 10
32.88655849677511
 20
499.7537085696587
 30
0.0
 10
32.88148160023366
 20
499.7514125822715
 30
0.0
 10
32.87625592781925
 20
499.7497414735299
 30
0.0
 10
32.86716215503264
 20
499.7468333916617
 30
0.0
 10
32.85736377893844
 20
499.7457364265948
 30
0.0
 10
32.84767514266488
 20
499.7465480945501
 30
0.0
 10
32.84477707759519
 20
499.7467908806846
 30
0.0
 10
32.84187315300214
 20
499.74720132997
 30
0.0
 10
32.8389856628882
 20
499.747776289255
 30
0.0
  0
LINE
  5
162
330
5E
100
AcDbEntity
  8
$DDT_AUDIT_GENERATED_(85)
  6
Continuous
 62
     7
100
AcDbLine
 10
32.8389856629
 20
499.7477762893
 30
0.0
 11
32.8204179981
 21
499.751442761
 31
0.0
  0
ARC
  5
163
330
5E
100
AcDbEntity
  8
$DDT_AUDIT_GENERATED_(85)
  6
Continuous
 62
     7
100
AcDbCircle
 10
32.8468519165
 20
499.8534079079
 30
0.0
 40
0.1053358591585977
100
AcDbArc
 50
178.5643805226
 51
255.4663295067
  0
ARC
  5
164
330
5E
100
AcDbEntity
  8
$DDT_AUDIT_GENERATED_(85)
  6
Continuous
 62
     7
100
AcDbCircle
 10
30.5833338723
 20
499.9545853878
 30
0.0
 40
0.1035039114228563
100
AcDbArc
 50
276.1401520035
 51
332.4825363224
  0
LINE
  5
165
330
5E
100
AcDbEntity
  8
$DDT_AUDIT_GENERATED_(85)
  6
Continuous
 62
     7
100
AcDbLine
 10
30.5944047399
 20
499.8516752544
 30
0.0
 11
30.5736952009
 21
499.8497773489
 31
0.0
  0
ARC
  5
166
330
5E
100
AcDbEntity
  8
$DDT_AUDIT_GENERATED_(85)
  6
Continuous
 62
     7
100
AcDbCircle
 10
30.5651744889
 20
499.9413776377
 30
0.0
 40
0.0919957359339156
100
AcDbArc
 50
218.4740849869
 51
275.314393668
  0
SPLINE
  5
167
330
5E
100
AcDbEntity
  8
$DDT_AUDIT_GENERATED_(85)
  6
Continuous
 62
     7
100
AcDbSpline
210
0.0
220
0.0
230
1.0
 70
    12
 71
     2
 72
     6
 73
     3
 74
     0
 42
0.0000000098020846
 43
0.0000000001
 40
0.8337064353254794
 40
0.8337064353254794
 40
0.8337064353254794
 40
1.0
 40
1.0
 40
1.0
 10
28.81300176775634
 20
499.6663769192383
 30
0.0
 41
1.0
 10
28.82132252447592
 20
499.5819624714662
 30
0.0
 41
1.0
 10
28.8296856489479
 20
499.4975480582709
 30
0.0
 41
1.0
  0
SPLINE
  5
168
330
5E
100
AcDbEntity
  8
$DDT_AUDIT_GENERATED_(85)
  6
Continuous
 62
     7
100
AcDbSpline
210
0.0
220
0.0
230
1.0
 70
     8
 71
     3
 72
    20
 73
    16
 74
     0
 42
0.0000000788838294
 43
0.0000000001
 40
0.0
 40
0.0
 40
0.0
 40
0.0
 40
0.2348909762147773
 40
0.2348909762147773
 40
0.2348909762147773
 40
0.4699467597707788
 40
0.4699467597707788
 40
0.4699467597707788
 40
0.7025460169685178
 40
0.7025460169685178
 40
0.7025460169685178
 40
0.9322077561069695
 40
0.9322077561069695
 40
0.9322077561069695
 40
1.0
 40
1.0
 40
1.0
 40
1.0
 10
28.82968564902855
 20
499.4975480583014
 30
0.0
 10
28.83079770095891
 20
499.4863278196421
 30
0.0
 10
28.83086049033647
 20
499.4745846633451
 30
0.0
 10
28.82986938215322
 20
499.4632837089831
 30
0.0
 10
28.82887786521251
 20
499.4519780938288
 30
0.0
 10
28.8268031184159
 20
499.4408011470636
 30
0.0
 10
28.82383246370472
 20
499.4307062188096
 30
0.0
 10
28.82089267024645
 20
499.4207161637785
 30
0.0
 10
28.81699372724811
 20
499.4115065148666
 30
0.0
 10
28.81248403544747
 20
499.4038701708269
 30
0.0
 10
28.80803029226073
 20
499.3963285656037
 30
0.0
 10
28.80285773893921
 20
499.3901112411123
 30
0.0
 10
28.79741247929406
 20
499.3857468118165
 30
0.0
 10
28.79578369312361
 20
499.384441323641
 30
0.0
 10
28.79412234111907
 20
499.3832903563701
 30
0.0
 10
28.79244127263162
 20
499.3823027765875
 30
0.0
  0
SPLINE
  5
169
330
5E
100
AcDbEntity
  8
$DDT_AUDIT_GENERATED_(85)
  6
Continuous
 62
     7
100
AcDbSpline
210
0.0
220
0.0
230
1.0
 70
    12
 71
     2
 72
     6
 73
     3
 74
     0
 42
0.0000008025709941
 43
0.0000000001
 40
0.0
 40
0.0
 40
0.0
 40
1.0
 40
1.0
 40
1.0
 10
28.79244127263161
 20
499.3823027765875
 30
0.0
 41
1.0
 10
28.78704762005938
 20
499.3791341595594
 30
0.0
 41
1.0
 10
28.78172122638381
 20
499.3759522612249
 30
0.0
 41
1.0
  0
SPLINE
  5
16A
330
5E
100
AcDbEntity
  8
$DDT_AUDIT_GENERATED_(85)
  6
Continuous
 62
     7
100
AcDbSpline
210
0.0
220
0.0
230
1.0
 70
     8
 71
     3
 72
    11
 73
     7
 74
     0
 42
0.0000001267741786
 43
0.0000000001
 40
0.0
 40
0.0
 40
0.0
 40
0.0
 40
0.2280395246263889
 40
0.2280395246263889
 40
0.2280395246263889
 40
0.271111690078444
 40
0.271111690078444
 40
0.271111690078444
 40
0.271111690078444
 10
28.78172122638382
 20
499.3759522612248
 30
0.0
 10
28.77621141797339
 20
499.3726607940009
 30
0.0
 10
28.77037860022343
 20
499.3711559951115
 30
0.0
 10
28.76469866312002
 20
499.3715587072122
 30
0.0
 10
28.76362571891076
 20
499.371634779818
 30
0.0
 10
28.76255264218992
 20
499.3717792789321
 30
0.0
 10
28.76148242267586
 20
499.3719908250487
 30
0.0
  0
ELLIPSE
  5
16B
330
5E
100
AcDbEntity
  8
$DDT_AUDIT_GENERATED_(85)
  6
Continuous
 62
     7
100
AcDbEllipse
 10
-146.1016156231
 20
533.0924030549
 30
0.0
 11
73.53198166031623
 21
-194.1055270394027
 31
0.0
210
0.0
220
0.0
230
1.0
 40
0.8472101712
 41
1.08989252632119
 42
1.091400015425273
  0
SPLINE
  5
16C
330
5E
100
AcDbEntity
  8
$DDT_AUDIT_GENERATED_(85)
  6
Continuous
 62
     7
100
AcDbSpline
210
0.0
220
0.0
230
1.0
 70
     8
 71
     3
 72
    20
 73
    16
 74
     0
 42
0.0000000787952341
 43
0.0000000001
 40
0.0
 40
0.0
 40
0.0
 40
0.0
 40
0.2315031754325903
 40
0.2315031754325903
 40
0.2315031754325903
 40
0.4629973076973091
 40
0.4629973076973091
 40
0.4629973076973091
 40
0.6946193130780761
 40
0.6946193130780761
 40
0.6946193130780761
 40
0.9262742376810612
 40
0.9262742376810612
 40
0.9262742376810612
 40
1.0
 40
1.0
 40
1.0
 40
1.0
 10
33.7088613267807
 20
498.5340795749614
 30
0.0
 10
33.70827491123476
 20
498.5232491553817
 30
0.0
 10
33.7067903107138
 20
498.511892597194
 30
0.0
 10
33.70451479033485
 20
498.5009537314922
 30
0.0
 10
33.70223932244113
 20
498.4900151180971
 30
0.0
 10
33.69910918609106
 20
498.4791927302645
 30
0.0
 10
33.69535506080953
 20
498.4693866297469
 30
0.0
 10
33.69159891290033
 20
498.4595752459504
 30
0.0
 10
33.68711303514279
 20
498.4505108782699
 30
0.0
 10
33.68224025017338
 20
498.4429492514231
 30
0.0
 10
33.67736685396151
 20
498.4353866760454
 30
0.0
 10
33.67197076383606
 20
498.4291188333344
 30
0.0
 10
33.66648342261662
 20
498.4246690079566
 30
0.0
 10
33.66471445694393
 20
498.4232345084371
 30
0.0
 10
33.66292610612648
 20
498.4219759145411
 30
0.0
 10
33.66113397083783
 20
498.4209043192371
 30
0.0
  0
SPLINE
  5
16D
330
5E
100
AcDbEntity
  8
$DDT_AUDIT_GENERATED_(85)
  6
Continuous
 62
     7
100
AcDbSpline
210
0.0
220
0.0
230
1.0
 70
    12
 71
     2
 72
     6
 73
     3
 74
     0
 42
0.0000008025697224
 43
0.0000000001
 40
0.0
 40
0.0
 40
0.0
 40
1.0
 40
1.0
 40
1.0
 10
33.66113397083785
 20
498.4209043192371
 30
0.0
 41
1.0
 10
33.6558113275897
 20
498.4177216803229
 30
0.0
 41
1.0
 10
33.65041392459005
 20
498.4145538038745
 30
0.0
 41
1.0
  0
SPLINE
  5
16E
330
5E
100
AcDbEntity
  8
$DDT_AUDIT_GENERATED_(85)
  6
Continuous
 62
     7
100
AcDbSpline
210
0.0
220
0.0
230
1.0
 70
     8
 71
     3
 72
    11
 73
     7
 74
     0
 42
0.0000001307552417
 43
0.0000000001
 40
0.0
 40
0.0
 40
0.0
 40
0.0
 40
0.2314987849580193
 40
0.2314987849580193
 40
0.2314987849580193
 40
0.2725926609965976
 40
0.2725926609965976
 40
0.2725926609965976
 40
0.2725926609965976
 10
33.65041392459003
 20
498.4145538038745
 30
0.0
 10
33.6447803462287
 20
498.4112473099528
 30
0.0
 10
33.63900480238498
 20
498.4097228816926
 30
0.0
 10
33.63357552940074
 20
498.4101042343894
 30
0.0
 10
33.6326117528906
 20
498.4101719301514
 30
0.0
 10
33.63165419785025
 20
498.4102999993532
 30
0.0
 10
33.63070542497861
 20
498.4104873482626
 30
0.0
  0
ELLIPSE
  5
16F
330
5E
100
AcDbEntity
  8
$DDT_AUDIT_GENERATED_(85)
  6
Continuous
 62
     7
100
AcDbEllipse
 10
-21.6824990673
 20
565.7450746527
 30
0.0
 11
-3.923613756927333
 21
-207.5298377092873
 31
0.0
210
0.0
220
0.0
230
1.0
 40
0.2802723124
 41
1.244015143097621
 42
1.24708732378941
  0
ARC
  5
170
330
5E
100
AcDbEntity
  8
$DDT_AUDIT_GENERATED_(85)
  6
Continuous
 62
     7
100
AcDbCircle
 10
32.03839186
 20
498.1011804578
 30
0.0
 40
0.1073559462141895
100
AcDbArc
 50
275.9148309761
 51
352.568946717
  0
LINE
  5
171
330
5E
100
AcDbEntity
  8
$DDT_AUDIT_GENERATED_(85)
  6
Continuous
 62
     7
100
AcDbLine
 10
32.0494548915
 20
497.9943960557
 30
0.0
 11
32.0287453524
 21
497.9924981503
 31
0.0
  0
ARC
  5
172
330
5E
100
AcDbEntity
  8
$DDT_AUDIT_GENERATED_(85)
  6
Continuous
 62
     7
100
AcDbCircle
 10
32.0184265344
 20
498.0788242485
 30
0.0
 40
0.0869406305581407
100
AcDbArc
 50
217.8158136532
 51
276.8163949828
  0
ARC
  5
173
330
5E
100
AcDbEntity
  8
$DDT_AUDIT_GENERATED_(85)
  6
Continuous
 62
     7
100
AcDbCircle
 10
30.0427910706
 20
498.1536101961
 30
0.0
 40
0.0725395856151405
100
AcDbArc
 50
258.2706850589
 51
300.2801482233
  0
LINE
  5
174
330
5E
100
AcDbEntity
  8
$DDT_AUDIT_GENERATED_(85)
  6
Continuous
 62
     7
100
AcDbLine
 10
30.028044623
 20
498.0825853148
 30
0.0
 11
30.0094769582
 21
498.0862517866
 31
0.0
  0
ARC
  5
175
330
5E
100
AcDbEntity
  8
$DDT_AUDIT_GENERATED_(85)
  6
Continuous
 62
     7
100
AcDbCircle
 10
30.0384454795
 20
498.1968079286
 30
0.0
 40
0.1142883886118704
100
AcDbArc
 50
184.7868845931
 51
255.3171367614
  0
ELLIPSE
  5
176
330
5E
100
AcDbEntity
  8
$DDT_AUDIT_GENERATED_(85)
  6
Continuous
 62
     7
100
AcDbEllipse
 10
133.8014110164
 20
558.7438684805
 30
0.0
 11
-15.35142751740402
 21
-206.9982683043382
 31
0.0
210
0.0
220
0.0
230
0.9999999999999998
 40
0.5054585477
 41
-1.239378790230496
 42
-1.236654058051164
  0
SPLINE
  5
177
330
5E
100
AcDbEntity
  8
$DDT_AUDIT_GENERATED_(85)
  6
Continuous
 62
     7
100
AcDbSpline
210
0.0
220
0.0
230
1.0
 70
     8
 71
     3
 72
    11
 73
     7
 74
     0
 42
0.0000002115584228
 43
0.0000000001
 40
0.7527645376441638
 40
0.7527645376441638
 40
0.7527645376441638
 40
0.7527645376441638
 40
0.9262742376824143
 40
0.9262742376824143
 40
0.9262742376824143
 40
1.0
 40
1.0
 40
1.0
 40
1.0
 10
28.79052969151912
 20
498.6282396959112
 30
0.0
 10
28.7883567034739
 20
498.6280405415676
 30
0.0
 10
28.78610243822042
 20
498.6289004918943
 30
0.0
 10
28.7838795814957
 20
498.6307966891067
 30
0.0
 10
28.78292285745399
 20
498.631612817938
 30
0.0
 10
28.7819661155065
 20
498.6326208736793
 30
0.0
 10
28.78101788547117
 20
498.6338120245189
 30
0.0
  0
SPLINE
  5
178
330
5E
100
AcDbEntity
  8
$DDT_AUDIT_GENERATED_(85)
  6
Continuous
 62
     7
100
AcDbSpline
210
0.0
220
0.0
230
1.0
 70
    12
 71
     2
 72
     6
 73
     3
 74
     0
 42
0.000001111333928
 43
0.0000000001
 40
0.0
 40
0.0
 40
0.0
 40
1.0
 40
1.0
 40
1.0
 10
28.78101788547116
 20
498.6338120245189
 30
0.0
 41
1.0
 10
28.77820164150386
 20
498.6373497434703
 30
0.0
 41
1.0
 10
28.77546878120454
 20
498.6408951040363
 30
0.0
 41
1.0
  0
SPLINE
  5
179
330
5E
100
AcDbEntity
  8
$DDT_AUDIT_GENERATED_(85)
  6
Continuous
 62
     7
100
AcDbSpline
210
0.0
220
0.0
230
1.0
 70
    12
 71
     2
 72
     6
 73
     3
 74
     0
 42
0.0000000101365347
 43
0.0000000001
 40
0.0953193385035242
 40
0.0953193385035242
 40
0.0953193385035242
 40
1.0
 40
1.0
 40
1.0
 10
35.29553738347992
 20
499.1215460316679
 30
0.0
 41
1.0
 10
35.27172006372714
 20
498.675861619171
 30
0.0
 41
1.0
 10
35.24684538090607
 20
498.2303809049304
 30
0.0
 41
1.0
  0
SPLINE
  5
17A
330
5E
100
AcDbEntity
  8
$DDT_AUDIT_GENERATED_(85)
  6
Continuous
 62
     7
100
AcDbSpline
210
0.0
220
0.0
230
1.0
 70
     8
 71
     3
 72
    20
 73
    16
 74
     0
 42
0.0000000786865166
 43
0.0000000001
 40
0.0
 40
0.0
 40
0.0
 40
0.0
 40
0.2315617260745451
 40
0.2315617260745451
 40
0.2315617260745451
 40
0.463120196782799
 40
0.463120196782799
 40
0.463120196782799
 40
0.6947246956527071
 40
0.6947246956527071
 40
0.6947246956527071
 40
0.9263410358372094
 40
0.9263410358372094
 40
0.9263410358372094
 40
1.0
 40
1.0
 40
1.0
 40
1.0
 10
35.24684538092199
 20
498.2303809049367
 30
0.0
 10
35.24624073424293
 20
498.2195521598197
 30
0.0
 10
35.24470955192852
 20
498.2082023957666
 30
0.0
 10
35.24236915615099
 20
498.1972734687226
 30
0.0
 10
35.24002877979891
 20
498.1863446323896
 30
0.0
 10
35.23681401437909
 20
498.1755353396489
 30
0.0
 10
35.23297401047463
 20
498.1657434422244
 30
0.0
 10
35.22913326208194
 20
498.1559496463766
 30
0.0
 10
35.22456022506706
 20
498.1469036713846
 30
0.0
 10
35.21961651084116
 20
498.1393577911374
 30
0.0
 10
35.21467257353724
 20
498.1318115703931
 30
0.0
 10
35.20922083759402
 20
498.1255575708387
 30
0.0
 10
35.20370344307585
 20
498.121115960765
 30
0.0
 10
35.20192612253088
 20
498.1196851831016
 30
0.0
 10
35.20013193666873
 20
498.1184295116628
 30
0.0
 10
35.19833653852914
 20
498.1173599657893
 30
0.0
  0
LINE
  5
17B
330
5E
100
AcDbEntity
  8
$DDT_AUDIT_GENERATED_(85)
  6
Continuous
 62
     7
100
AcDbLine
 10
35.1983365385
 20
498.1173599658
 30
0.0
 11
35.1876164923
 21
498.1110094504
 31
0.0
  0
SPLINE
  5
17C
330
5E
100
AcDbEntity
  8
$DDT_AUDIT_GENERATED_(85)
  6
Continuous
 62
     7
100
AcDbSpline
210
0.0
220
0.0
230
1.0
 70
     8
 71
     3
 72
    11
 73
     7
 74
     0
 42
0.0000001316770367
 43
0.0000000001
 40
0.0
 40
0.0
 40
0.0
 40
0.0
 40
0.2315601448457835
 40
0.2315601448457835
 40
0.2315601448457835
 40
0.272602623972537
 40
0.272602623972537
 40
0.272602623972537
 40
0.272602623972537
 10
35.18761649228134
 20
498.1110094504266
 30
0.0
 10
35.1819974748773
 20
498.107699258962
 30
0.0
 10
35.17626234831896
 20
498.1061665739206
 30
0.0
 10
35.17089200668833
 20
498.106536939175
 30
0.0
 10
35.16994014478423
 20
498.1066025842681
 30
0.0
 10
35.16899510656291
 20
498.1067283298966
 30
0.0
 10
35.1680593513077
 20
498.1069131058363
 30
0.0
  0
SPLINE
  5
17D
330
5E
100
AcDbEntity
  8
$DDT_AUDIT_GENERATED_(85)
  6
Continuous
 62
     7
100
AcDbSpline
210
0.0
220
0.0
230
1.0
 70
    12
 71
     2
 72
     6
 73
     3
 74
     0
 42
0.0000000103333501
 43
0.0000000001
 40
0.9672303137180769
 40
0.9672303137180769
 40
0.9672303137180769
 40
1.0
 40
1.0
 40
1.0
 10
32.60809872154096
 20
497.5321010727171
 30
0.0
 41
1.0
 10
32.60629243817166
 20
497.5163477794268
 30
0.0
 41
1.0
 10
32.60448573955871
 20
497.5005950087699
 30
0.0
 41
1.0
  0
ARC
  5
17E
330
5E
100
AcDbEntity
  8
$DDT_AUDIT_GENERATED_(85)
  6
Continuous
 62
     7
100
AcDbCircle
 10
32.4981227883
 20
497.514756268
 30
0.0
 40
0.1073015320672075
100
AcDbArc
 50
275.7434580456
 51
352.4161898593
  0
LINE
  5
17F
330
5E
100
AcDbEntity
  8
$DDT_AUDIT_GENERATED_(85)
  6
Continuous
 62
     7
100
AcDbLine
 10
32.5088609308
 20
497.4079933949
 30
0.0
 11
32.4881513917
 21
497.4060954895
 31
0.0
  0
ARC
  5
180
330
5E
100
AcDbEntity
  8
$DDT_AUDIT_GENERATED_(85)
  6
Continuous
 62
     7
100
AcDbCircle
 10
32.4776537181
 20
497.4919681361
 30
0.0
 40
0.0865119216413086
100
AcDbArc
 50
217.826493788
 51
276.9696556347
  0
ARC
  5
181
330
5E
100
AcDbEntity
  8
$DDT_AUDIT_GENERATED_(85)
  6
Continuous
 62
     7
100
AcDbCircle
 10
29.1553721583
 20
497.6272736025
 30
0.0
 40
0.0719870396408675
100
AcDbArc
 50
258.1099048509
 51
300.2908032238
  0
LINE
  5
182
330
5E
100
AcDbEntity
  8
$DDT_AUDIT_GENERATED_(85)
  6
Continuous
 62
     7
100
AcDbLine
 10
29.1405403067
 20
497.5568310723
 30
0.0
 11
29.121972642
 21
497.560497544
 31
0.0
  0
ARC
  5
183
330
5E
100
AcDbEntity
  8
$DDT_AUDIT_GENERATED_(85)
  6
Continuous
 62
     7
100
AcDbCircle
 10
29.1506116544
 20
497.6713111686
 30
0.0
 40
0.1144545867153712
100
AcDbArc
 50
185.0435832479
 51
255.5093729511
  0
SPLINE
  5
184
330
5E
100
AcDbEntity
  8
$DDT_AUDIT_GENERATED_(85)
  6
Continuous
 62
     7
100
AcDbSpline
210
0.0
220
0.0
230
1.0
 70
    12
 71
     2
 72
     6
 73
     3
 74
     0
 42
0.0000000102478245
 43
0.0000000001
 40
0.0
 40
0.0
 40
0.0
 40
0.1884431525873206
 40
0.1884431525873206
 40
0.1884431525873206
 10
29.03660022286371
 20
497.6612490659743
 30
0.0
 41
1.0
 10
29.02735724717563
 20
497.7527198951631
 30
0.0
 41
1.0
 10
29.01814077326814
 20
497.8442061954971
 30
0.0
 41
1.0
  0
SPLINE
  5
185
330
5E
100
AcDbEntity
  8
$DDT_AUDIT_GENERATED_(85)
  6
Continuous
 62
     7
100
AcDbSpline
210
0.0
220
0.0
230
1.0
 70
     8
 71
     3
 72
    11
 73
     7
 74
     0
 42
0.0000002138485732
 43
0.0000000001
 40
0.7527556192335292
 40
0.7527556192335292
 40
0.7527556192335292
 40
0.7527556192335292
 40
0.9263410358224847
 40
0.9263410358224847
 40
0.9263410358224847
 40
1.0
 40
1.0
 40
1.0
 40
1.0
 10
27.07585715565189
 20
498.471100187955
 30
0.0
 10
27.07373579964359
 20
498.4709057870125
 30
0.0
 10
27.07152246709426
 20
498.4717704792878
 30
0.0
 10
27.06932481612561
 20
498.4736706553705
 30
0.0
 10
27.06838021947797
 20
498.4744873910502
 30
0.0
 10
27.06743289121563
 20
498.4754954143308
 30
0.0
 10
27.06649120544262
 20
498.4766859051077
 30
0.0
  0
SPLINE
  5
186
330
5E
100
AcDbEntity
  8
$DDT_AUDIT_GENERATED_(85)
  6
Continuous
 62
     7
100
AcDbSpline
210
0.0
220
0.0
230
1.0
 70
    12
 71
     2
 72
     6
 73
     3
 74
     0
 42
0.000001111355668
 43
0.0000000001
 40
0.0
 40
0.0
 40
0.0
 40
1.0
 40
1.0
 40
1.0
 10
27.06649120544261
 20
498.4766859051077
 30
0.0
 41
1.0
 10
27.06369163833866
 20
498.4802251523939
 30
0.0
 41
1.0
 10
27.06094210117599
 20
498.483768984625
 30
0.0
 41
1.0
  0
ARC
  5
187
330
5E
100
AcDbEntity
  8
$DDT_AUDIT_GENERATED_(85)
  6
Continuous
 62
     7
100
AcDbCircle
 10
27.2823577239
 20
498.5909532148
 30
0.0
 40
0.245994587701816
100
AcDbArc
 50
177.8753120845
 51
205.8309799017
  0
SPLINE
  5
188
330
5E
100
AcDbEntity
  8
$DDT_AUDIT_GENERATED_(85)
  6
Continuous
 62
     7
100
AcDbSpline
210
0.0
220
0.0
230
1.0
 70
    12
 71
     2
 72
     6
 73
     3
 74
     0
 42
0.0000000101121224
 43
0.0000000001
 40
0.0
 40
0.0
 40
0.0
 40
0.1957387081902749
 40
0.1957387081902749
 40
0.1957387081902749
 10
27.0365322545469
 20
498.6000732923112
 30
0.0
 41
1.0
 10
27.03389078836083
 20
498.6968197610532
 30
0.0
 41
1.0
 10
27.03130452170607
 20
498.7935710511444
 30
0.0
 41
1.0
  0
LINE
  5
189
330
5E
100
AcDbEntity
  8
$DDT_AUDIT_GENERATED_(85)
  6
Continuous
 62
     7
100
AcDbLine
 10
31.5879970805
 20
499.3529721368
 30
0.0
 11
31.5676085879
 21
499.1606089694
 31
0.0
  0
SPLINE
  5
18A
330
5E
100
AcDbEntity
  8
$DDT_AUDIT_GENERATED_(85)
  6
Continuous
 62
     7
100
AcDbSpline
210
0.0
220
0.0
230
1.0
 70
    12
 71
     2
 72
     6
 73
     3
 74
     0
 42
0.0000005283490689
 43
0.0000000001
 40
0.0
 40
0.0
 40
0.0
 40
1.0
 40
1.0
 40
1.0
 10
31.61880665374993
 20
499.039612688075
 30
0.0
 41
1.0
 10
31.62819379728014
 20
499.0378406533373
 30
0.0
 41
1.0
 10
31.63737431851062
 20
499.0359462163208
 30
0.0
 41
1.0
  0
SPLINE
  5
18B
330
5E
100
AcDbEntity
  8
$DDT_AUDIT_GENERATED_(85)
  6
Continuous
 62
     7
100
AcDbSpline
210
0.0
220
0.0
230
1.0
 70
     8
 71
     3
 72
    14
 73
    10
 74
     0
 42
0.0000000642882157
 43
0.0000000001
 40
0.0
 40
0.0
 40
0.0
 40
0.0
 40
0.1662420688385254
 40
0.1662420688385254
 40
0.1662420688385254
 40
0.3310650875756719
 40
0.3310650875756719
 40
0.3310650875756719
 40
0.4009291771572221
 40
0.4009291771572221
 40
0.4009291771572221
 40
0.4009291771572221
 10
31.63737431851062
 20
499.0359462163208
 30
0.0
 10
31.64512967025103
 20
499.0343458686872
 30
0.0
 10
31.65363571002539
 20
499.0342944549054
 30
0.0
 10
31.66202395082406
 20
499.0356682993754
 30
0.0
 10
31.67037152089115
 20
499.0370354827037
 30
0.0
 10
31.67881842638544
 20
499.0398090179229
 30
0.0
 10
31.68680272419497
 20
499.0435656993993
 30
0.0
 10
31.69017336277012
 20
499.0451516141285
 30
0.0
 10
31.69349148585132
 20
499.0469237345274
 30
0.0
 10
31.69673896993082
 20
499.04885682773
 30
0.0
  0
SPLINE
  5
18C
330
5E
100
AcDbEntity
  8
$DDT_AUDIT_GENERATED_(85)
  6
Continuous
 62
     7
100
AcDbSpline
210
0.0
220
0.0
230
1.0
 70
     8
 71
     3
 72
    10
 73
     6
 74
     0
 42
0.0000000664841213
 43
0.0000000001
 40
0.0
 40
0.0
 40
0.0
 40
0.0
 40
0.5
 40
0.5
 40
1.0
 40
1.0
 40
1.0
 40
1.0
 10
31.56760858788162
 20
499.1606089693983
 30
0.0
 10
31.56204337957927
 20
499.1343096677497
 30
0.0
 10
31.56263702520717
 20
499.1080943141511
 30
0.0
 10
31.57801983378201
 20
499.0634052603922
 30
0.0
 10
31.59448369570072
 20
499.0442041941528
 30
0.0
 10
31.61880665374994
 20
499.039612688075
 30
0.0
  0
SPLINE
  5
18D
330
5E
100
AcDbEntity
  8
$DDT_AUDIT_GENERATED_(85)
  6
Continuous
 62
     7
100
AcDbSpline
210
0.0
220
0.0
230
1.0
 70
    12
 71
     2
 72
     6
 73
     3
 74
     0
 42
0.0000004808424308
 43
0.0000000001
 40
0.0
 40
0.0
 40
0.0
 40
1.0
 40
1.0
 40
1.0
 10
31.19569500232557
 20
499.0558340669259
 30
0.0
 41
1.0
 10
31.20599629406902
 20
499.0568512806453
 30
0.0
 41
1.0
 10
31.21640454138508
 20
499.0577319723624
 30
0.0
 41
1.0
  0
LINE
  5
18E
330
5E
100
AcDbEntity
  8
$DDT_AUDIT_GENERATED_(85)
  6
Continuous
 62
     7
100
AcDbLine
 10
31.2943394031
 20
499.1729136813
 30
0.0
 11
31.2942415448
 21
499.3176800468
 31
0.0
  0
SPLINE
  5
18F
330
5E
100
AcDbEntity
  8
$DDT_AUDIT_GENERATED_(85)
  6
Continuous
 62
     7
100
AcDbSpline
210
0.0
220
0.0
230
1.0
 70
    12
 71
     2
 72
     6
 73
     3
 74
     0
 42
0.0000008024234772
 43
0.0000000001
 40
0.0
 40
0.0
 40
0.0
 40
1.0
 40
1.0
 40
1.0
 10
30.86297312579694
 20
498.9649769769991
 30
0.0
 41
1.0
 10
30.86815420876029
 20
498.9681875691747
 30
0.0
 41
1.0
 10
30.87369317204474
 20
498.9713274923618
 30
0.0
 41
1.0
  0
LINE
  5
190
330
5E
100
AcDbEntity
  8
$DDT_AUDIT_GENERATED_(85)
  6
Continuous
 62
     7
100
AcDbLine
 10
30.8630102979
 20
499.0960367488
 30
0.0
 11
30.8075603102
 21
499.2814497729
 31
0.0
  0
SPLINE
  5
191
330
5E
100
AcDbEntity
  8
$DDT_AUDIT_GENERATED_(85)
  6
Continuous
 62
     7
100
AcDbSpline
210
0.0
220
0.0
230
1.0
 70
    12
 71
     2
 72
     6
 73
     3
 74
     0
 42
0.0000011105898116
 43
0.0000000001
 40
0.0
 40
0.0
 40
0.0
 40
1.0
 40
1.0
 40
1.0
 10
31.88445501306372
 20
498.9258151041771
 30
0.0
 41
1.0
 10
31.88742914701263
 20
498.9222918548986
 30
0.0
 41
1.0
 10
31.89000411733034
 20
498.9187320246597
 30
0.0
 41
1.0
  0
LINE
  5
192
330
5E
100
AcDbEntity
  8
$DDT_AUDIT_GENERATED_(85)
  6
Continuous
 62
     7
100
AcDbLine
 10
31.9939292119
 20
499.228030184
 30
0.0
 11
31.9260649476
 21
499.0481697301
 31
0.0
  0
SPLINE
  5
193
330
5E
100
AcDbEntity
  8
$DDT_AUDIT_GENERATED_(85)
  6
Continuous
 62
     7
100
AcDbSpline
210
0.0
220
0.0
230
1.0
 70
     8
 71
     3
 72
    11
 73
     7
 74
     0
 42
0.0000001364428799
 43
0.0000000001
 40
0.0
 40
0.0
 40
0.0
 40
0.0
 40
0.1662420688385254
 40
0.1662420688385254
 40
0.1662420688385254
 40
0.2234852446531674
 40
0.2234852446531674
 40
0.2234852446531674
 40
0.2234852446531674
 10
31.89000411733035
 20
498.9187320246597
 30
0.0
 10
31.89217935335495
 20
498.9157248167948
 30
0.0
 10
31.89558651457351
 20
498.9139856671911
 30
0.0
 10
31.89977117448529
 20
498.9135783165878
 30
0.0
 10
31.90121746390336
 20
498.9134375293125
 30
0.0
 10
31.90276617826263
 20
498.913450165321
 30
0.0
 10
31.90439508267006
 20
498.9136049811626
 30
0.0
  0
SPLINE
  5
194
330
5E
100
AcDbEntity
  8
$DDT_AUDIT_GENERATED_(85)
  6
Continuous
 62
     7
100
AcDbSpline
210
0.0
220
0.0
230
1.0
 70
     8
 71
     3
 72
    10
 73
     6
 74
     0
 42
0.0000000733819831
 43
0.0000000001
 40
0.0
 40
0.0
 40
0.0
 40
0.0
 40
0.4999999999999998
 40
0.4999999999999998
 40
1.0
 40
1.0
 40
1.0
 40
1.0
 10
31.92606494760409
 20
499.0481697301398
 30
0.0
 10
31.91168045899571
 20
499.0246966897231
 30
0.0
 10
31.89871121174084
 20
499.0002345799584
 30
0.0
 10
31.88107839410659
 20
498.9558642835924
 30
0.0
 10
31.87674875662172
 20
498.9349441692769
 30
0.0
 10
31.88445501306373
 20
498.9258151041771
 30
0.0
  0
SPLINE
  5
195
330
5E
100
AcDbEntity
  8
$DDT_AUDIT_GENERATED_(85)
  6
Continuous
 62
     7
100
AcDbSpline
210
0.0
220
0.0
230
1.0
 70
     8
 71
     3
 72
    20
 73
    16
 74
     0
 42
0.000000074239226
 43
0.0000000001
 40
0.0
 40
0.0
 40
0.0
 40
0.0
 40
0.1662420688385241
 40
0.1662420688385241
 40
0.1662420688385241
 40
0.3310650875756706
 40
0.3310650875756706
 40
0.3310650875756706
 40
0.5632461486768631
 40
0.5632461486768631
 40
0.5632461486768631
 40
0.8533054901456377
 40
0.8533054901456377
 40
0.8533054901456377
 40
1.0
 40
1.0
 40
1.0
 40
1.0
 10
30.87369317204472
 20
498.9713274923618
 30
0.0
 10
30.87837227549778
 20
498.9739799788755
 30
0.0
 10
30.88205986166766
 20
498.9780990307868
 30
0.0
 10
30.88453009966518
 20
498.983186693731
 30
0.0
 10
30.88698836061185
 20
498.9882496889314
 30
0.0
 10
30.88834505100184
 20
498.9943762514201
 30
0.0
 10
30.88878886905545
 20
499.0010155182919
 30
0.0
 10
30.88941153227277
 20
499.010330207583
 30
0.0
 10
30.88829399091876
 20
499.0209078840984
 30
0.0
 10
30.88604630920577
 20
499.0318035281952
 30
0.0
 10
30.88324470826744
 20
499.04538429746
 30
0.0
 10
30.87861156398218
 20
499.059899630994
 30
0.0
 10
30.87282422888019
 20
499.0741987176741
 30
0.0
 10
30.86986746455497
 20
499.0815041576795
 30
0.0
 10
30.86657537248751
 20
499.0888325130899
 30
0.0
 10
30.86301029789893
 20
499.0960367487741
 30
0.0
  0
SPLINE
  5
196
330
5E
100
AcDbEntity
  8
$DDT_AUDIT_GENERATED_(85)
  6
Continuous
 62
     7
100
AcDbSpline
210
0.0
220
0.0
230
1.0
 70
     8
 71
     3
 72
     8
 73
     4
 74
     0
 42
0.0000000928785158
 43
0.0000000001
 40
0.7528654537740198
 40
0.7528654537740198
 40
0.7528654537740198
 40
0.7528654537740198
 40
1.0
 40
1.0
 40
1.0
 40
1.0
 10
30.83775131794073
 20
498.9621541811982
 30
0.0
 10
30.84746398105023
 20
498.9602136446495
 30
0.0
 10
30.85633772847785
 20
498.9608651812852
 30
0.0
 10
30.86297312579692
 20
498.964976976999
 30
0.0
  0
SPLINE
  5
197
330
5E
100
AcDbEntity
  8
$DDT_AUDIT_GENERATED_(85)
  6
Continuous
 62
     7
100
AcDbSpline
210
0.0
220
0.0
230
1.0
 70
     8
 71
     3
 72
    20
 73
    16
 74
     0
 42
0.0000000647344898
 43
0.0000000001
 40
0.0
 40
0.0
 40
0.0
 40
0.0
 40
0.1662420688385232
 40
0.1662420688385232
 40
0.1662420688385232
 40
0.3310650875756697
 40
0.3310650875756697
 40
0.3310650875756697
 40
0.5632461486768617
 40
0.5632461486768617
 40
0.5632461486768617
 40
0.8533054901456363
 40
0.8533054901456363
 40
0.8533054901456363
 40
1.0
 40
1.0
 40
1.0
 40
1.0
 10
31.21640454138509
 20
499.0577319723624
 30
0.0
 10
31.22519702897276
 20
499.0584759468993
 30
0.0
 10
31.23381922456518
 20
499.0608510796362
 30
0.0
 10
31.24149732855534
 20
499.0645010332428
 30
0.0
 10
31.24913820494153
 20
499.0681332898989
 30
0.0
 10
31.25607039407131
 20
499.0730855719488
 30
0.0
 10
31.26202997195076
 20
499.0788176736763
 30
0.0
 10
31.27039107827842
 20
499.0868596378882
 30
0.0
 10
31.27711154746371
 20
499.0966435510805
 30
0.0
 10
31.28215238354128
 20
499.1071434907246
 30
0.0
 10
31.2884354844818
 20
499.1202310380359
 30
0.0
 10
31.2923315054265
 20
499.134850799378
 30
0.0
 10
31.29384987794664
 20
499.1497546673487
 30
0.0
 10
31.29462561835579
 20
499.1573690916643
 30
0.0
 10
31.29479228675471
 20
499.1651402239143
 30
0.0
 10
31.29433940307407
 20
499.1729136812633
 30
0.0
  0
SPLINE
  5
198
330
5E
100
AcDbEntity
  8
$DDT_AUDIT_GENERATED_(85)
  6
Continuous
 62
     7
100
AcDbSpline
210
0.0
220
0.0
230
1.0
 70
     8
 71
     3
 72
    10
 73
     6
 74
     0
 42
0.0000000598065915
 43
0.0000000001
 40
0.3698566820034989
 40
0.3698566820034989
 40
0.3698566820034989
 40
0.3698566820034989
 40
0.5
 40
0.5
 40
1.0
 40
1.0
 40
1.0
 40
1.0
 10
31.10753958445263
 20
499.1001334379406
 30
0.0
 10
31.11184333534279
 20
499.0946191693329
 30
0.0
 10
31.11657064408222
 20
499.0894261510393
 30
0.0
 10
31.141390347318
 20
499.0661550887525
 30
0.0
 10
31.16900340161734
 20
499.0531983719929
 30
0.0
 10
31.19569500232556
 20
499.0558340669258
 30
0.0
  0
SPLINE
  5
199
330
5E
100
AcDbEntity
  8
$DDT_AUDIT_GENERATED_(85)
  6
Continuous
 62
     7
100
AcDbSpline
210
0.0
220
0.0
230
1.0
 70
     8
 71
     3
 72
    16
 73
    12
 74
     0
 42
0.0000000092363825
 43
0.0000000001
 40
0.0
 40
0.0
 40
0.0
 40
0.0
 40
0.0621031264755657
 40
0.1688031912011682
 40
0.2915165238260626
 40
0.4312503671975793
 40
0.5679181803393714
 40
0.7139809832332655
 40
0.8487089792563519
 40
0.9583728846239495
 40
1.0
 40
1.0
 40
1.0
 40
1.0
 10
31.83096872680644
 20
498.778871771694
 30
0.0
 10
31.81092412411657
 20
498.7649456382755
 30
0.0
 10
31.76432443415469
 20
498.7330147919091
 30
0.0
 10
31.66643695068101
 20
498.6932441454997
 30
0.0
 10
31.54041339350807
 20
498.6609432817154
 30
0.0
 10
31.39380653624735
 20
498.6457039592868
 30
0.0
 10
31.23636837246021
 20
498.6502812278451
 30
0.0
 10
31.08695548211361
 20
498.6756318486019
 30
0.0
 10
30.95888826444411
 20
498.7221154952776
 30
0.0
 10
30.86636758971104
 20
498.7726572430515
 30
0.0
 10
30.82906019860697
 20
498.8079753416277
 30
0.0
 10
30.81710872972126
 20
498.8193968994879
 30
0.0
  0
ARC
  5
19A
330
5E
100
AcDbEntity
  8
$DDT_AUDIT_GENERATED_(85)
  6
Continuous
 62
     7
100
AcDbCircle
 10
31.7511650076
 20
498.9382453435
 30
0.0
 40
0.1782373950073174
100
AcDbArc
 50
296.5986718912
 51
316.3186278533
  0
LINE
  5
19B
330
5E
100
AcDbEntity
  8
$DDT_AUDIT_GENERATED_(85)
  6
Continuous
 62
     7
100
AcDbLine
 10
31.9372554306
 20
498.8697055488
 30
0.0
 11
31.8800648169
 21
498.8151461633
 31
0.0
  0
ARC
  5
19C
330
5E
100
AcDbEntity
  8
$DDT_AUDIT_GENERATED_(85)
  6
Continuous
 62
     7
100
AcDbCircle
 10
31.569008683
 20
499.2111852897
 30
0.0
 40
0.502209200054941
100
AcDbArc
 50
317.1598602022
 51
324.3341631798
  0
ARC
  5
19D
330
5E
100
AcDbEntity
  8
$DDT_AUDIT_GENERATED_(85)
  6
Continuous
 62
     7
100
AcDbCircle
 10
35.1296455155
 20
502.6020776453
 30
0.0
 40
6.611388401740826
100
AcDbArc
 50
282.0282420055
 51
308.08736899
  0
ARC
  5
19E
330
5E
100
AcDbEntity
  8
$DDT_AUDIT_GENERATED_(85)
  6
Continuous
 62
     7
100
AcDbCircle
 10
29.6514976806
 20
508.4854626969
 30
0.0
 40
12.81994753587789
100
AcDbArc
 50
256.5596496048
 51
260.7559042728
  0
ARC
  5
19F
330
5E
100
AcDbEntity
  8
$DDT_AUDIT_GENERATED_(85)
  6
Continuous
 62
     7
100
AcDbCircle
 10
27.9315065595
 20
503.2885669184
 30
0.0
 40
7.380260153808644
100
AcDbArc
 50
233.2704874484
 51
260.1716655587
  0
SPLINE
  5
1A0
330
5E
100
AcDbEntity
  8
$DDT_AUDIT_GENERATED_(85)
  6
Continuous
 62
     7
100
AcDbSpline
210
0.0
220
0.0
230
1.0
 70
     8
 71
     3
 72
    18
 73
    14
 74
     0
 42
0.0000000029981822
 43
0.0000000001
 40
0.0
 40
0.0
 40
0.0
 40
0.0
 40
0.0914961689016966
 40
0.1888292143482729
 40
0.2862437312799724
 40
0.3837599639333248
 40
0.4814019845258531
 40
0.579197015679347
 40
0.677172096704841
 40
0.7753442623176993
 40
0.8736961646746927
 40
0.9720921091929832
 40
1.0
 40
1.0
 40
1.0
 40
1.0
 10
34.49658034253622
 20
496.5086853516243
 30
0.0
 10
34.63997000608012
 20
496.5377769607025
 30
0.0
 10
34.88895264532686
 20
496.5889012200449
 30
0.0
 10
35.27997046422818
 20
496.6869334569229
 30
0.0
 10
35.64744493947858
 20
496.794121513182
 30
0.0
 10
35.99320785386218
 20
496.9117317844398
 30
0.0
 10
36.3121886665289
 20
497.038227490159
 30
0.0
 10
36.60358317237286
 20
497.1733902780238
 30
0.0
 10
36.86520458957998
 20
497.3165449515719
 30
0.0
 10
37.09694234600889
 20
497.4676768618478
 30
0.0
 10
37.29235237649592
 20
497.624810142535
 30
0.0
 10
37.42649732090182
 20
497.7531499950718
 30
0.0
 10
37.47726703618441
 20
497.8224648943179
 30
0.0
 10
37.49030650953554
 20
497.8403902423876
 30
0.0
  0
SPLINE
  5
1A1
330
5E
100
AcDbEntity
  8
$DDT_AUDIT_GENERATED_(85)
  6
Continuous
 62
     7
100
AcDbSpline
210
0.0
220
0.0
230
1.0
 70
     8
 71
     3
 72
    17
 73
    13
 74
     0
 42
0.0000000035250219
 43
0.0000000001
 40
0.0
 40
0.0
 40
0.0
 40
0.0
 40
0.0988955081774857
 40
0.2087631448604692
 40
0.3193509658274711
 40
0.430108327377546
 40
0.5407374962319507
 40
0.6511776855630318
 40
0.7614296155145988
 40
0.8715160788575248
 40
0.981464770229325
 40
1.0
 40
1.0
 40
1.0
 40
1.0
 10
25.19814290451368
 20
497.8516118051973
 30
0.0
 10
25.24411797023329
 20
497.7962323898204
 30
0.0
 10
25.32741301978562
 20
497.6977189602126
 30
0.0
 10
25.50784009503835
 20
497.5399462922675
 30
0.0
 10
25.72153348209245
 20
497.38697216192
 30
0.0
 10
25.96945454867746
 20
497.2397936016341
 30
0.0
 10
26.24759481160602
 20
497.1005512314148
 30
0.0
 10
26.55445828564795
 20
496.9697406587882
 30
0.0
 10
26.88893410255325
 20
496.8473487046594
 30
0.0
 10
27.2459843218882
 20
496.7363657741064
 30
0.0
 10
27.52766758094719
 20
496.658032946607
 30
0.0
 10
27.67628619594604
 20
496.6243986123901
 30
0.0
 10
27.70129007022651
 20
496.6187521744843
 30
0.0
  0
SPLINE
  5
1A2
330
5E
100
AcDbEntity
  8
$DDT_AUDIT_GENERATED_(85)
  6
Continuous
 62
     7
100
AcDbSpline
210
0.0
220
0.0
230
1.0
 70
     8
 71
     3
 72
    14
 73
    10
 74
     0
 42
0.00000000685479
 43
0.0000000001
 40
0.0
 40
0.0
 40
0.0
 40
0.0
 40
0.1088033467022551
 40
0.2636869377207109
 40
0.4182421990121243
 40
0.5725278850262373
 40
0.7267418929194918
 40
0.8812566773141908
 40
1.0
 40
1.0
 40
1.0
 40
1.0
 10
36.37266528485038
 20
499.647848383156
 30
0.0
 10
36.44345477575367
 20
499.6147040537806
 30
0.0
 10
36.58792184207344
 20
499.5464939660703
 30
0.0
 10
36.80519562418843
 20
499.4207702108993
 30
0.0
 10
37.00965676051841
 20
499.2812442607936
 30
0.0
 10
37.18184571318647
 20
499.1370183953742
 30
0.0
 10
37.31788076147204
 20
498.9924406333237
 30
0.0
 10
37.41642056352192
 20
498.8549097919857
 30
0.0
 10
37.45084386584922
 20
498.7760162454284
 30
0.0
 10
37.46793407982498
 20
498.7355148315006
 30
0.0
  0
SPLINE
  5
1A3
330
5E
100
AcDbEntity
  8
$DDT_AUDIT_GENERATED_(85)
  6
Continuous
 62
     7
100
AcDbSpline
210
0.0
220
0.0
230
1.0
 70
     8
 71
     3
 72
    15
 73
    11
 74
     0
 42
0.0000000065132977
 43
0.0000000001
 40
0.0
 40
0.0
 40
0.0
 40
0.0
 40
0.0688451461167055
 40
0.2094080059686182
 40
0.3473778351905646
 40
0.4815383029883323
 40
0.6133231158179316
 40
0.74411224307216
 40
0.8746717712274815
 40
1.0
 40
1.0
 40
1.0
 40
1.0
 10
25.175
 20
498.4736703229226
 30
0.0
 10
25.17578836501436
 20
498.5009119532454
 30
0.0
 10
25.17865026825841
 20
498.5714452370585
 30
0.0
 10
25.20941822665312
 20
498.7005241577005
 30
0.0
 10
25.28159054886108
 20
498.8515984112258
 30
0.0
 10
25.38962776714079
 20
499.002202317402
 30
0.0
 10
25.53193739313125
 20
499.1498543451622
 30
0.0
 10
25.70661671709584
 20
499.2932408440499
 30
0.0
 10
25.9154903625207
 20
499.4345106731145
 30
0.0
 10
26.064408169932
 20
499.5158331845315
 30
0.0
 10
26.1516171060352
 20
499.5629164549168
 30
0.0
  0
SPLINE
  5
1A4
330
5E
100
AcDbEntity
  8
$DDT_AUDIT_GENERATED_(85)
  6
Continuous
 62
     7
100
AcDbSpline
210
0.0
220
0.0
230
1.0
 70
     8
 71
     3
 72
    20
 73
    16
 74
     0
 42
0.0000000034336298
 43
0.0000000001
 40
0.0
 40
0.0
 40
0.0
 40
0.0
 40
0.0092364840022217
 40
0.0970265719990463
 40
0.184914059999157
 40
0.272928920533306
 40
0.3611085776963688
 40
0.4494979871350613
 40
0.538145026028741
 40
0.6270818033960077
 40
0.7162687492490325
 40
0.805327639209455
 40
0.8933577579356713
 40
0.9791589780137325
 40
1.0
 40
1.0
 40
1.0
 40
1.0
 10
33.59757119438418
 20
497.0187578795241
 30
0.0
 10
33.61173301665341
 20
497.0212320216655
 30
0.0
 10
33.73962452238365
 20
497.043614572113
 30
0.0
 10
33.98949959048041
 20
497.1007182861018
 30
0.0
 10
34.31594634791293
 20
497.1856401500693
 30
0.0
 10
34.62196498190216
 20
497.2825070177083
 30
0.0
 10
34.90218866561656
 20
497.388374773562
 30
0.0
 10
35.15538613198232
 20
497.5033557883528
 30
0.0
 10
35.37943321711975
 20
497.6268005249204
 30
0.0
 10
35.5727147350909
 20
497.7584340637749
 30
0.0
 10
35.73304695652968
 20
497.8977670491483
 30
0.0
 10
35.85940666036715
 20
498.0447730519354
 30
0.0
 10
35.94528812862188
 20
498.1961806399817
 30
0.0
 10
35.98973136582459
 20
498.31774876724
 30
0.0
 10
35.99256836021112
 20
498.3799495750526
 30
0.0
 10
35.99315368471049
 20
498.3941579727727
 30
0.0
  0
SPLINE
  5
1A5
330
5E
100
AcDbEntity
  8
$DDT_AUDIT_GENERATED_(85)
  6
Continuous
 62
     7
100
AcDbSpline
210
0.0
220
0.0
230
1.0
 70
     8
 71
     3
 72
    18
 73
    14
 74
     0
 42
0.0000000042199981
 43
0.0000000001
 40
0.0
 40
0.0
 40
0.0
 40
0.0
 40
0.0687923912276856
 40
0.1656361969466356
 40
0.2651430162021964
 40
0.3673779913015763
 40
0.4712506476157756
 40
0.5756603758739548
 40
0.6799232123041828
 40
0.7839057465482872
 40
0.8876139316316912
 40
0.9910917252456208
 40
1.0
 40
1.0
 40
1.0
 40
1.0
 10
26.71517303212088
 20
498.344520136775
 30
0.0
 10
26.72344477985244
 20
498.3049705662284
 30
0.0
 10
26.74125536785046
 20
498.2244395077401
 30
0.0
 10
26.8124084836483
 20
498.088800809875
 30
0.0
 10
26.92025313957223
 20
497.9471444054028
 30
0.0
 10
27.06507057231389
 20
497.8084121339521
 30
0.0
 10
27.24445075854711
 20
497.6752040706629
 30
0.0
 10
27.45707654569027
 20
497.5486434633062
 30
0.0
 10
27.70017457445336
 20
497.4302372654943
 30
0.0
 10
27.97194959953394
 20
497.32008576615
 30
0.0
 10
28.26792419255815
 20
497.2213920349971
 30
0.0
 10
28.49494151760337
 20
497.1543397624164
 30
0.0
 10
28.61250850325963
 20
497.1270838066492
 30
0.0
 10
28.62334097976668
 20
497.1245756159545
 30
0.0
  0
SPLINE
  5
1A6
330
5E
100
AcDbEntity
  8
$DDT_AUDIT_GENERATED_(85)
  6
Continuous
 62
     7
100
AcDbSpline
210
0.0
220
0.0
230
1.0
 70
     8
 71
     3
 72
    14
 73
    10
 74
     0
 42
0.0000000092740156
 43
0.0000000001
 40
0.0
 40
0.0
 40
0.0
 40
0.0
 40
0.1496146522894125
 40
0.3006111347754498
 40
0.4512252196073661
 40
0.6018718417578531
 40
0.7536581107758868
 40
0.909157940135608
 40
1.0
 40
1.0
 40
1.0
 40
1.0
 10
35.1187203584164
 20
499.2250780086299
 30
0.0
 10
35.19243020598299
 20
499.1839789790149
 30
0.0
 10
35.31599133058741
 20
499.1141469137293
 30
0.0
 10
35.48046273777634
 20
498.9936676991294
 30
0.0
 10
35.60822055011045
 20
498.8741269189214
 30
0.0
 10
35.70263635968755
 20
498.7535877548216
 30
0.0
 10
35.76180186506267
 20
498.6355636497145
 30
0.0
 10
35.78905992840778
 20
498.5333915518721
 30
0.0
 10
35.78486527803368
 20
498.4761901432689
 30
0.0
 10
35.78271051746363
 20
498.4514041092302
 30
0.0
  0
SPLINE
  5
1A7
330
5E
100
AcDbEntity
  8
$DDT_AUDIT_GENERATED_(85)
  6
Continuous
 62
     7
100
AcDbSpline
210
0.0
220
0.0
230
1.0
 70
     8
 71
     3
 72
    15
 73
    11
 74
     0
 42
0.0000000080524491
 43
0.0000000001
 40
0.0
 40
0.0
 40
0.0
 40
0.0
 40
0.0736918929015749
 40
0.2285874014964301
 40
0.3778476262493101
 40
0.5208084989881946
 40
0.6610363176862435
 40
0.8006106036922112
 40
0.9402382894902174
 40
1.0
 40
1.0
 40
1.0
 40
1.0
 10
26.91249999999999
 20
498.4736703229226
 30
0.0
 10
26.91322969347488
 20
498.4954142687225
 30
0.0
 10
26.91599383255375
 20
498.5529088630481
 30
0.0
 10
26.9459022117534
 20
498.6585907616301
 30
0.0
 10
27.01775233206573
 20
498.7842069516306
 30
0.0
 10
27.12504194727851
 20
498.9088459464714
 30
0.0
 10
27.26551587006594
 20
499.0303563963067
 30
0.0
 10
27.4382561027425
 20
499.1469842285345
 30
0.0
 10
27.60524609500107
 20
499.2416541787792
 30
0.0
 10
27.71151166347206
 20
499.2890449063636
 30
0.0
 10
27.74905352549
 20
499.3056872344354
 30
0.0
  0
SPLINE
  5
1A8
330
5E
100
AcDbEntity
  8
$DDT_AUDIT_GENERATED_(85)
  6
Continuous
 62
     7
100
AcDbSpline
210
0.0
220
0.0
230
1.0
 70
     8
 71
     3
 72
    16
 73
    12
 74
     0
 42
0.0000000066217787
 43
0.0000000001
 40
0.0
 40
0.0
 40
0.0
 40
0.0
 40
0.0300984437090485
 40
0.1627610042152908
 40
0.2958702672108359
 40
0.4295957065707928
 40
0.5641329279924919
 40
0.6995905768345665
 40
0.8353174138854901
 40
0.9542031215113312
 40
1.0
 40
1.0
 40
1.0
 40
1.0
 10
32.97469183254712
 20
497.6008819089919
 30
0.0
 10
32.99746874265239
 20
497.605906556032
 30
0.0
 10
33.10285127611651
 20
497.6292601244706
 30
0.0
 10
33.29199149815413
 20
497.68613173525
 30
0.0
 10
33.51829904238398
 20
497.7670996467377
 30
0.0
 10
33.7194174552364
 20
497.8592348371857
 30
0.0
 10
33.89130123068029
 20
497.9602702913302
 30
0.0
 10
34.03292113177987
 20
498.071098450745
 30
0.0
 10
34.13392176216743
 20
498.1861190176491
 30
0.0
 10
34.19311947864594
 20
498.2850121138854
 30
0.0
 10
34.20502123788224
 20
498.3382126883899
 30
0.0
 10
34.20877439230043
 20
498.3555824442549
 30
0.0
  0
SPLINE
  5
1A9
330
5E
100
AcDbEntity
  8
$DDT_AUDIT_GENERATED_(85)
  6
Continuous
 62
     7
100
AcDbSpline
210
0.0
220
0.0
230
1.0
 70
     8
 71
     3
 72
    16
 73
    12
 74
     0
 42
0.0000000065422794
 43
0.0000000001
 40
0.0
 40
0.0
 40
0.0
 40
0.0
 40
0.0990248145294903
 40
0.2173167802656274
 40
0.3417499577320859
 40
0.4715400494746844
 40
0.6034676622442023
 40
0.7351249799018352
 40
0.8660766800040224
 40
0.9964060942269166
 40
1.0
 40
1.0
 40
1.0
 40
1.0
 10
28.48296645397169
 20
498.3815188381386
 30
0.0
 10
28.49284156251804
 20
498.3433596409334
 30
0.0
 10
28.5122357821302
 20
498.2727287637554
 30
0.0
 10
28.58538563771097
 20
498.1601852436005
 30
0.0
 10
28.69162609895725
 20
498.0498307056243
 30
0.0
 10
28.83421088882508
 20
497.9434894057716
 30
0.0
 10
29.01015028958621
 20
497.844252732265
 30
0.0
 10
29.21666042476648
 20
497.753032587829
 30
0.0
 10
29.44856229845241
 20
497.673630335944
 30
0.0
 10
29.62390695655673
 20
497.6218017672209
 30
0.0
 10
29.71383544431406
 20
497.6024238515424
 30
0.0
 10
29.71663337630005
 20
497.6018212570888
 30
0.0
  0
SPLINE
  5
1AA
330
5E
100
AcDbEntity
  8
$DDT_AUDIT_GENERATED_(85)
  6
Continuous
 62
     7
100
AcDbSpline
210
0.0
220
0.0
230
1.0
 70
     8
 71
     3
 72
    14
 73
    10
 74
     0
 42
0.0000000108300062
 43
0.0000000001
 40
0.0
 40
0.0
 40
0.0
 40
0.0
 40
0.1104677496135416
 40
0.2667162904806082
 40
0.4218901247494602
 40
0.57590506943398
 40
0.7293478812259452
 40
0.8837277338278753
 40
1.0
 40
1.0
 40
1.0
 40
1.0
 10
33.31204935744737
 20
499.0310048315488
 30
0.0
 10
33.36646245873762
 20
499.0115066383898
 30
0.0
 10
33.47705874346187
 20
498.9714095354272
 30
0.0
 10
33.63724998061767
 20
498.8940089349954
 30
0.0
 10
33.78002092344538
 20
498.8071196944093
 30
0.0
 10
33.88946792008354
 20
498.7177438387191
 30
0.0
 10
33.96306083098687
 20
498.630894775092
 30
0.0
 10
34.00273047610012
 20
498.5543106303246
 30
0.0
 10
34.00718280105311
 20
498.5136455282137
 30
0.0
 10
34.00888310328205
 20
498.4931363200697
 30
0.0
  0
SPLINE
  5
1AB
330
5E
100
AcDbEntity
  8
$DDT_AUDIT_GENERATED_(85)
  6
Continuous
 62
     7
100
AcDbSpline
210
0.0
220
0.0
230
1.0
 70
     8
 71
     3
 72
    13
 73
     9
 74
     0
 42
0.0000000153796514
 43
0.0000000001
 40
0.0
 40
0.0
 40
0.0
 40
0.0
 40
0.100060361036892
 40
0.2922685281639289
 40
0.473318962533621
 40
0.665496266627052
 40
0.854250802009567
 40
1.0
 40
1.0
 40
1.0
 40
1.0
 10
28.68749999999999
 20
498.4736703229226
 30
0.0
 10
28.68809031007888
 20
498.4880632315225
 30
0.0
 10
28.69032089851326
 20
498.5239951490435
 30
0.0
 10
28.71315466806358
 20
498.5907313299647
 30
0.0
 10
28.77089053732962
 20
498.6756463943155
 30
0.0
 10
28.86245851630515
 20
498.7634840967555
 30
0.0
 10
28.98151070459776
 20
498.8478838136831
 30
0.0
 10
29.07159651132785
 20
498.8940883276225
 30
0.0
 10
29.11845214610988
 20
498.9178163381186
 30
0.0
  0
LINE
  5
1AC
330
5E
100
AcDbEntity
  8
$DDT_AUDIT_GENERATED_(85)
  6
Continuous
 62
     7
100
AcDbLine
 10
22.4869200058
 20
499.5477534226
 30
0.0
 11
22.9860575655
 21
498.1060478602
 31
0.0
  0
LINE
  5
1AD
330
5E
100
AcDbEntity
  8
$DDT_AUDIT_GENERATED_(85)
  6
Continuous
 62
     7
100
AcDbLine
 10
39.7139424345
 20
498.1060478602
 30
0.0
 11
40.2130799942
 21
499.5477534226
 31
0.0
  0
LINE
  5
1AE
330
5E
100
AcDbEntity
  8
$DDT_AUDIT_GENERATED_(85)
  6
Continuous
 62
     7
100
AcDbLine
 10
28.2663750534
 20
499.4697535866
 30
0.0
 11
28.4788938072
 21
498.3904775718
 31
0.0
  0
LINE
  5
1AF
330
5E
100
AcDbEntity
  8
$DDT_AUDIT_GENERATED_(85)
  6
Continuous
 62
     7
100
AcDbLine
 10
34.2211061928
 20
498.3904775718
 30
0.0
 11
34.3685811878
 21
499.139429003
 31
0.0
  0
LINE
  5
1B0
330
5E
100
AcDbEntity
  8
$DDT_AUDIT_GENERATED_(85)
  6
Continuous
 62
     7
100
AcDbLine
 10
24.8653260291
 20
498.8633424771
 30
0.0
 11
24.9743324252
 21
498.3097537388
 31
0.0
  0
LINE
  5
1B1
330
5E
100
AcDbEntity
  8
$DDT_AUDIT_GENERATED_(85)
  6
Continuous
 62
     7
100
AcDbLine
 10
37.7256675748
 20
498.3097537388
 30
0.0
 11
37.8346739709
 21
498.8633424771
 31
0.0
  0
LINE
  5
1B2
330
5E
100
AcDbEntity
  8
$DDT_AUDIT_GENERATED_(85)
  6
Continuous
 62
     7
100
AcDbLine
 10
26.6259064111
 20
498.8633424771
 30
0.0
 11
26.7067513124
 21
498.3703164163
 31
0.0
  0
LINE
  5
1B3
330
5E
100
AcDbEntity
  8
$DDT_AUDIT_GENERATED_(85)
  6
Continuous
 62
     7
100
AcDbLine
 10
35.9932486876
 20
498.3703164163
 30
0.0
 11
36.0740935889
 21
498.8633424771
 31
0.0
  0
LINE
  5
1B4
330
5E
100
AcDbEntity
  8
$DDT_AUDIT_GENERATED_(85)
  6
Continuous
 62
     7
100
AcDbLine
 10
31.3021415388
 20
502.8769066413
 30
0.0
 11
31.35
 21
502.8769838667
 31
0.0
  0
SPLINE
  5
1B5
330
5E
100
AcDbEntity
  8
$DDT_AUDIT_GENERATED_(85)
  6
Continuous
 62
     7
100
AcDbSpline
210
0.0
220
0.0
230
1.0
 70
     8
 71
     3
 72
    19
 73
    15
 74
     0
 42
0.0000000027745784
 43
0.0000000001
 40
0.0
 40
0.0
 40
0.0
 40
0.0
 40
0.0710384741980219
 40
0.1596773162003278
 40
0.2468489659260385
 40
0.3331723418182759
 40
0.4191170802201023
 40
0.5049598880669756
 40
0.5908164079957887
 40
0.6767585253268272
 40
0.762815816260084
 40
0.8489914445825013
 40
0.9352766896897027
 40
1.0
 40
1.0
 40
1.0
 40
1.0
 10
22.48185898953237
 20
500.223533764677
 30
0.0
 10
22.50051535274689
 20
500.2766043414107
 30
0.0
 10
22.53724660761466
 20
500.3775134360633
 30
0.0
 10
22.64194365016681
 20
500.550733493063
 30
0.0
 10
22.78395189090114
 20
500.7299813104236
 30
0.0
 10
22.96140502542892
 20
500.907670135753
 30
0.0
 10
23.17209152124358
 20
501.0817150786059
 30
0.0
 10
23.4160100306054
 20
501.251936248836
 30
0.0
 10
23.69238500955772
 20
501.4174783601697
 30
0.0
 10
24.00007835829424
 20
501.5774382289673
 30
0.0
 10
24.33877200316329
 20
501.7314224366479
 30
0.0
 10
24.70405209798696
 20
501.8770812653187
 30
0.0
 10
25.07234830788198
 20
502.0076377261233
 30
0.0
 10
25.30243109679149
 20
502.0775021774272
 30
0.0
 10
25.41935431296232
 20
502.1127497761171
 30
0.0
  0
SPLINE
  5
1B6
330
5E
100
AcDbEntity
  8
$DDT_AUDIT_GENERATED_(85)
  6
Continuous
 62
     7
100
AcDbSpline
210
0.0
220
0.0
230
1.0
 70
     8
 71
     3
 72
    19
 73
    15
 74
     0
 42
0.0000000029233283
 43
0.0000000001
 40
0.0
 40
0.0
 40
0.0
 40
0.0
 40
0.0730559399244466
 40
0.1630887464628763
 40
0.2530205766970713
 40
0.3428358026253172
 40
0.4325208400670498
 40
0.5220695821327714
 40
0.6114942683987533
 40
0.7008458112115947
 40
0.7902102110001972
 40
0.8797768820880031
 40
0.9699135391799328
 40
1.0
 40
1.0
 40
1.0
 40
1.0
 10
37.43880884835257
 20
502.0644221497075
 30
0.0
 10
37.56231404424684
 20
502.0251167765599
 30
0.0
 10
37.79452437099606
 20
501.9506445219158
 30
0.0
 10
38.16027250194494
 20
501.8137834400187
 30
0.0
 10
38.51369616332729
 20
501.6646200286263
 30
0.0
 10
38.83973172235591
 20
501.5074822829719
 30
0.0
 10
39.13406421139516
 20
501.3447403236373
 30
0.0
 10
39.39628677917116
 20
501.1769268240022
 30
0.0
 10
39.62528163462877
 20
501.0051011981191
 30
0.0
 10
39.82010330331197
 20
500.8304535035973
 30
0.0
 10
39.98124536232945
 20
500.6534514691563
 30
0.0
 10
40.10503926805257
 20
500.4772870149532
 30
0.0
 10
40.18261842107319
 20
500.3353654627525
 30
0.0
 10
40.20509604822308
 20
500.2619650334545
 30
0.0
 10
40.21156882734189
 20
500.2404533829103
 30
0.0
  0
LINE
  5
1B7
330
5E
100
AcDbEntity
  8
$DDT_AUDIT_GENERATED_(85)
  6
Continuous
 62
     7
100
AcDbLine
 10
31.35
 20
502.8769838667
 30
0.0
 11
31.4083218216
 21
502.8766506472
 31
0.0
  0
SPLINE
  5
1B8
330
5E
100
AcDbEntity
  8
$DDT_AUDIT_GENERATED_(85)
  6
Continuous
 62
     7
100
AcDbSpline
210
0.0
220
0.0
230
1.0
 70
     8
 71
     3
 72
    12
 73
     8
 74
     0
 42
0.0000000048200742
 43
0.0000000001
 40
0.0352352329672943
 40
0.0352352329672943
 40
0.0352352329672943
 40
0.0352352329672943
 40
0.0588421118043644
 40
0.1794718290320741
 40
0.3010850068554734
 40
0.4238495020118117
 40
0.4629101688479024
 40
0.4629101688479024
 40
0.4629101688479024
 40
0.4629101688479024
 10
22.24306534649996
 20
499.3616223835116
 30
0.0
 10
22.248817464591
 20
499.348657099422
 30
0.0
 10
22.28439989054749
 20
499.271158968995
 30
0.0
 10
22.37343958867526
 20
499.1197007955685
 30
0.0
 10
22.52557461606029
 20
498.923464062315
 30
0.0
 10
22.67115567690743
 20
498.7739967442459
 30
0.0
 10
22.76383544428176
 20
498.6905334164745
 30
0.0
 10
22.78676485426342
 20
498.6704925096192
 30
0.0
  0
SPLINE
  5
1B9
330
5E
100
AcDbEntity
  8
$DDT_AUDIT_GENERATED_(85)
  6
Continuous
 62
     7
100
AcDbSpline
210
0.0
220
0.0
230
1.0
 70
     8
 71
     3
 72
    12
 73
     8
 74
     0
 42
0.0000000048235738
 43
0.0000000001
 40
0.5356882967965602
 40
0.5356882967965602
 40
0.5356882967965602
 40
0.5356882967965602
 40
0.5524535252636325
 40
0.6764219462513569
 40
0.8001473507116517
 40
0.9232506783590031
 40
0.9651864058779827
 40
0.9651864058779827
 40
0.9651864058779827
 40
0.9651864058779827
 10
39.91070991374075
 20
498.6682946331915
 30
0.0
 10
39.92057048031953
 20
498.6768953790327
 30
0.0
 10
40.00248601957658
 20
498.749260031269
 30
0.0
 10
40.14291085135527
 20
498.8879142803996
 30
0.0
 10
40.30358455196496
 20
499.0864145707541
 30
0.0
 10
40.40476150515465
 20
499.2499578934295
 30
0.0
 10
40.44601399435477
 20
499.3381223788043
 30
0.0
 10
40.45645248043384
 20
499.3615618731376
 30
0.0
  0
LINE
  5
1BA
330
5E
100
AcDbEntity
  8
$DDT_AUDIT_GENERATED_(85)
  6
Continuous
 62
     7
100
AcDbLine
 10
31.6968742692
 20
499.0489333692
 30
0.0
 11
32.1018877244
 21
499.2888618275
 31
0.0
  0
LINE
  5
1BB
330
5E
100
AcDbEntity
  8
$DDT_AUDIT_GENERATED_(85)
  6
Continuous
 62
     7
100
AcDbLine
 10
32.8914232381
 20
499.7565797173
 30
0.0
 11
33.0061617054
 21
499.8245503568
 31
0.0
  0
LINE
  5
1BC
330
5E
100
AcDbEntity
  8
$DDT_AUDIT_GENERATED_(85)
  6
Continuous
 62
     7
100
AcDbLine
 10
33.770688261
 20
500.2774530332
 30
0.0
 11
33.8820126908
 21
500.3434012096
 31
0.0
  0
LINE
  5
1BD
330
5E
100
AcDbEntity
  8
$DDT_AUDIT_GENERATED_(85)
  6
Continuous
 62
     7
100
AcDbLine
 10
34.6478986187
 20
500.7971091731
 30
0.0
 11
34.68575972
 21
500.8195379481
 31
0.0
  0
LINE
  5
1BE
330
5E
100
AcDbEntity
  8
$DDT_AUDIT_GENERATED_(85)
  6
Continuous
 62
     7
100
AcDbLine
 10
31.9048932611
 20
498.9136467344
 30
0.0
 11
33.3134836214
 21
499.0427356193
 31
0.0
  0
LINE
  5
1BF
330
5E
100
AcDbEntity
  8
$DDT_AUDIT_GENERATED_(85)
  6
Continuous
 62
     7
100
AcDbLine
 10
34.2214288082
 20
499.1259433672
 30
0.0
 11
35.1436727018
 21
499.2104615062
 31
0.0
  0
LINE
  5
1C0
330
5E
100
AcDbEntity
  8
$DDT_AUDIT_GENERATED_(85)
  6
Continuous
 62
     7
100
AcDbLine
 10
35.9202650213
 20
499.2816315492
 30
0.0
 11
36.8746582671
 21
499.369095984
 31
0.0
  0
LINE
  5
1C1
330
5E
100
AcDbEntity
  8
$DDT_AUDIT_GENERATED_(85)
  6
Continuous
 62
     7
100
AcDbLine
 10
37.6144412695
 20
499.4368926732
 30
0.0
 11
38.4885200918
 21
499.5169967713
 31
0.0
  0
LINE
  5
1C2
330
5E
100
AcDbEntity
  8
$DDT_AUDIT_GENERATED_(85)
  6
Continuous
 62
     7
100
AcDbLine
 10
31.8132049314
 20
498.7693773287
 30
0.0
 11
33.6306480768
 21
498.4104951513
 31
0.0
  0
LINE
  5
1C3
330
5E
100
AcDbEntity
  8
$DDT_AUDIT_GENERATED_(85)
  6
Continuous
 62
     7
100
AcDbLine
 10
34.1919428016
 20
498.2996588517
 30
0.0
 11
35.168008024
 21
498.1069197209
 31
0.0
  0
LINE
  5
1C4
330
5E
100
AcDbEntity
  8
$DDT_AUDIT_GENERATED_(85)
  6
Continuous
 62
     7
100
AcDbLine
 10
35.7985945233
 20
497.9824006918
 30
0.0
 11
36.6727967298
 21
497.8097759843
 31
0.0
  0
LINE
  5
1C5
330
5E
100
AcDbEntity
  8
$DDT_AUDIT_GENERATED_(85)
  6
Continuous
 62
     7
100
AcDbLine
 10
37.3402497524
 20
497.6779770917
 30
0.0
 11
38.2533336204
 21
497.4976746005
 31
0.0
  0
LINE
  5
1C6
330
5E
100
AcDbEntity
  8
$DDT_AUDIT_GENERATED_(85)
  6
Continuous
 62
     7
100
AcDbLine
 10
31.4556856088
 20
498.6557909516
 30
0.0
 11
31.9496203972
 21
498.0253145333
 31
0.0
  0
LINE
  5
1C7
330
5E
100
AcDbEntity
  8
$DDT_AUDIT_GENERATED_(85)
  6
Continuous
 62
     7
100
AcDbLine
 10
32.3652245775
 20
497.4948221664
 30
0.0
 11
32.4091888427
 21
497.4387045713
 31
0.0
  0
LINE
  5
1C8
330
5E
100
AcDbEntity
  8
$DDT_AUDIT_GENERATED_(85)
  6
Continuous
 62
     7
100
AcDbLine
 10
32.825729673
 20
496.9070166301
 30
0.0
 11
32.8589563957
 21
496.8646048268
 31
0.0
  0
LINE
  5
1C9
330
5E
100
AcDbEntity
  8
$DDT_AUDIT_GENERATED_(85)
  6
Continuous
 62
     7
100
AcDbLine
 10
33.2768538321
 20
496.3311852638
 30
0.0
 11
33.3313416181
 21
496.2616350621
 31
0.0
  0
LINE
  5
1CA
330
5E
100
AcDbEntity
  8
$DDT_AUDIT_GENERATED_(85)
  6
Continuous
 62
     7
100
AcDbLine
 10
30.0794631372
 20
498.0907850549
 30
0.0
 11
31.0790854211
 21
498.6829575627
 31
0.0
  0
LINE
  5
1CB
330
5E
100
AcDbEntity
  8
$DDT_AUDIT_GENERATED_(85)
  6
Continuous
 62
     7
100
AcDbLine
 10
29.1917784782
 20
497.564923978
 30
0.0
 11
29.4046059758
 21
497.6910021927
 31
0.0
  0
LINE
  5
1CC
330
5E
100
AcDbEntity
  8
$DDT_AUDIT_GENERATED_(85)
  6
Continuous
 62
     7
100
AcDbLine
 10
28.3229505564
 20
497.0502335618
 30
0.0
 11
28.5031523592
 21
497.1569844368
 31
0.0
  0
LINE
  5
1CD
330
5E
100
AcDbEntity
  8
$DDT_AUDIT_GENERATED_(85)
  6
Continuous
 62
     7
100
AcDbLine
 10
27.4104051604
 20
496.5096450772
 30
0.0
 11
27.6247093799
 21
496.6365980964
 31
0.0
  0
LINE
  5
1CE
330
5E
100
AcDbEntity
  8
$DDT_AUDIT_GENERATED_(85)
  6
Continuous
 62
     7
100
AcDbLine
 10
28.7905375806
 20
498.6282346564
 30
0.0
 11
30.8191925664
 21
498.814148757
 31
0.0
  0
LINE
  5
1CF
330
5E
100
AcDbEntity
  8
$DDT_AUDIT_GENERATED_(85)
  6
Continuous
 62
     7
100
AcDbLine
 10
27.0758534447
 20
498.4710941071
 30
0.0
 11
28.4384313199
 21
498.5959662228
 31
0.0
  0
LINE
  5
1D0
330
5E
100
AcDbEntity
  8
$DDT_AUDIT_GENERATED_(85)
  6
Continuous
 62
     7
100
AcDbLine
 10
25.3974873666
 20
498.3172818907
 30
0.0
 11
26.6959353175
 21
498.4362768822
 31
0.0
  0
LINE
  5
1D1
330
5E
100
AcDbEntity
  8
$DDT_AUDIT_GENERATED_(85)
  6
Continuous
 62
     7
100
AcDbLine
 10
23.6346319803
 20
498.1557267343
 30
0.0
 11
24.9809987079
 21
498.2791131952
 31
0.0
  0
LINE
  5
1D2
330
5E
100
AcDbEntity
  8
$DDT_AUDIT_GENERATED_(85)
  6
Continuous
 62
     7
100
AcDbLine
 10
29.8119718975
 20
499.1645516538
 30
0.0
 11
30.8374169987
 21
498.9620617044
 31
0.0
  0
LINE
  5
1D3
330
5E
100
AcDbEntity
  8
$DDT_AUDIT_GENERATED_(85)
  6
Continuous
 62
     7
100
AcDbLine
 10
28.1738490817
 20
499.4880242667
 30
0.0
 11
28.7613339931
 21
499.3720163108
 31
0.0
  0
LINE
  5
1D4
330
5E
100
AcDbEntity
  8
$DDT_AUDIT_GENERATED_(85)
  6
Continuous
 62
     7
100
AcDbLine
 10
26.628245189
 20
499.7932275913
 30
0.0
 11
27.2383099358
 21
499.6727608987
 31
0.0
  0
LINE
  5
1D5
330
5E
100
AcDbEntity
  8
$DDT_AUDIT_GENERATED_(85)
  6
Continuous
 62
     7
100
AcDbLine
 10
25.2213054082
 20
500.0710495486
 30
0.0
 11
25.7192179767
 21
499.9727290332
 31
0.0
  0
LINE
  5
1D6
330
5E
100
AcDbEntity
  8
$DDT_AUDIT_GENERATED_(85)
  6
Continuous
 62
     7
100
AcDbLine
 10
30.9399723061
 20
499.3140662616
 30
0.0
 11
31.1077017137
 21
499.0999703149
 31
0.0
  0
LINE
  5
1D7
330
5E
100
AcDbEntity
  8
$DDT_AUDIT_GENERATED_(85)
  6
Continuous
 62
     7
100
AcDbLine
 10
30.4787847462
 20
499.9027429204
 30
0.0
 11
30.493309586
 21
499.884202884
 31
0.0
  0
LINE
  5
1D8
330
5E
100
AcDbEntity
  8
$DDT_AUDIT_GENERATED_(85)
  6
Continuous
 62
     7
100
AcDbLine
 10
30.0283207736
 20
500.4777316005
 30
0.0
 11
30.0383068033
 21
500.4649850672
 31
0.0
  0
LINE
  5
1D9
330
5E
100
AcDbEntity
  8
$DDT_AUDIT_GENERATED_(85)
  6
Continuous
 62
     7
100
AcDbLine
 10
32.6617299219
 20
500.4650319445
 30
0.0
 11
32.6716792264
 21
500.4777316005
 31
0.0
  0
LINE
  5
1DA
330
5E
100
AcDbEntity
  8
$DDT_AUDIT_GENERATED_(85)
  6
Continuous
 62
     7
100
AcDbLine
 10
34.7272755643
 20
500.0112328779
 30
0.0
 11
35.035586056
 21
500.1166812764
 31
0.0
  0
LINE
  5
1DB
330
5E
100
AcDbEntity
  8
$DDT_AUDIT_GENERATED_(85)
  6
Continuous
 62
     7
100
AcDbLine
 10
35.9676188572
 20
500.4354552687
 30
0.0
 11
36.1782328661
 21
500.5074895022
 31
0.0
  0
LINE
  5
1DC
330
5E
100
AcDbEntity
  8
$DDT_AUDIT_GENERATED_(85)
  6
Continuous
 62
     7
100
AcDbLine
 10
35.4617583345
 20
499.6727743798
 30
0.0
 11
36.071754811
 21
499.7932275913
 31
0.0
  0
LINE
  5
1DD
330
5E
100
AcDbEntity
  8
$DDT_AUDIT_GENERATED_(85)
  6
Continuous
 62
     7
100
AcDbLine
 10
36.980746025
 20
499.9727219248
 30
0.0
 11
37.4786945918
 21
500.0710495486
 31
0.0
  0
LINE
  5
1DE
330
5E
100
AcDbEntity
  8
$DDT_AUDIT_GENERATED_(85)
  6
Continuous
 62
     7
100
AcDbLine
 10
36.0691282865
 20
498.8633424771
 30
0.0
 11
37.4035045217
 21
498.8633424771
 31
0.0
  0
LINE
  5
1DF
330
5E
100
AcDbEntity
  8
$DDT_AUDIT_GENERATED_(85)
  6
Continuous
 62
     7
100
AcDbLine
 10
37.8230578576
 20
498.8633424771
 30
0.0
 11
39.0970008927
 21
498.8633424771
 31
0.0
  0
LINE
  5
1E0
330
5E
100
AcDbEntity
  8
$DDT_AUDIT_GENERATED_(85)
  6
Continuous
 62
     7
100
AcDbLine
 10
36.0040646825
 20
498.4362768822
 30
0.0
 11
37.3025229006
 21
498.3172809498
 31
0.0
  0
LINE
  5
1E1
330
5E
100
AcDbEntity
  8
$DDT_AUDIT_GENERATED_(85)
  6
Continuous
 62
     7
100
AcDbLine
 10
37.7190012921
 20
498.2791131952
 30
0.0
 11
39.0653759437
 21
498.1557260081
 31
0.0
  0
LINE
  5
1E2
330
5E
100
AcDbEntity
  8
$DDT_AUDIT_GENERATED_(85)
  6
Continuous
 62
     7
100
AcDbLine
 10
35.2081752362
 20
497.536562958
 30
0.0
 11
35.6762522522
 21
497.37647119
 31
0.0
  0
LINE
  5
1E3
330
5E
100
AcDbEntity
  8
$DDT_AUDIT_GENERATED_(85)
  6
Continuous
 62
     7
100
AcDbLine
 10
36.4575420509
 20
497.109254341
 30
0.0
 11
36.9667655523
 21
496.9350896461
 31
0.0
  0
LINE
  5
1E4
330
5E
100
AcDbEntity
  8
$DDT_AUDIT_GENERATED_(85)
  6
Continuous
 62
     7
100
AcDbLine
 10
34.1966208334
 20
497.1571187966
 30
0.0
 11
34.3770502093
 21
497.0502331082
 31
0.0
  0
LINE
  5
1E5
330
5E
100
AcDbEntity
  8
$DDT_AUDIT_GENERATED_(85)
  6
Continuous
 62
     7
100
AcDbLine
 10
35.0731776332
 20
496.637849822
 30
0.0
 11
35.2895954299
 21
496.5096447274
 31
0.0
  0
LINE
  5
1E6
330
5E
100
AcDbEntity
  8
$DDT_AUDIT_GENERATED_(85)
  6
Continuous
 62
     7
100
AcDbLine
 10
29.8410420126
 20
496.864602795
 30
0.0
 11
29.874270327
 21
496.9070166301
 31
0.0
  0
LINE
  5
1E7
330
5E
100
AcDbEntity
  8
$DDT_AUDIT_GENERATED_(85)
  6
Continuous
 62
     7
100
AcDbLine
 10
29.3686571535
 20
496.2616334942
 30
0.0
 11
29.4231461679
 21
496.3311852638
 31
0.0
  0
LINE
  5
1E8
330
5E
100
AcDbEntity
  8
$DDT_AUDIT_GENERATED_(85)
  6
Continuous
 62
     7
100
AcDbLine
 10
27.0237418405
 20
497.3764691695
 30
0.0
 11
27.490588879
 21
497.5361402605
 31
0.0
  0
LINE
  5
1E9
330
5E
100
AcDbEntity
  8
$DDT_AUDIT_GENERATED_(85)
  6
Continuous
 62
     7
100
AcDbLine
 10
25.7332298892
 20
496.935088087
 30
0.0
 11
26.2397064504
 21
497.1083132731
 31
0.0
  0
LINE
  5
1EA
330
5E
100
AcDbEntity
  8
$DDT_AUDIT_GENERATED_(85)
  6
Continuous
 62
     7
100
AcDbLine
 10
26.0272047352
 20
497.8097762736
 30
0.0
 11
26.8998917821
 21
497.9821017894
 31
0.0
  0
LINE
  5
1EB
330
5E
100
AcDbEntity
  8
$DDT_AUDIT_GENERATED_(85)
  6
Continuous
 62
     7
100
AcDbLine
 10
24.446667509
 20
497.4976748235
 30
0.0
 11
25.358209195
 21
497.6776727871
 31
0.0
  0
LINE
  5
1EC
330
5E
100
AcDbEntity
  8
$DDT_AUDIT_GENERATED_(85)
  6
Continuous
 62
     7
100
AcDbLine
 10
25.2958441061
 20
498.8633424771
 30
0.0
 11
26.631016744
 21
498.8633424771
 31
0.0
  0
LINE
  5
1ED
330
5E
100
AcDbEntity
  8
$DDT_AUDIT_GENERATED_(85)
  6
Continuous
 62
     7
100
AcDbLine
 10
23.6029991073
 20
498.8633424771
 30
0.0
 11
24.8770818167
 21
498.8633424771
 31
0.0
  0
LINE
  5
1EE
330
5E
100
AcDbEntity
  8
$DDT_AUDIT_GENERATED_(85)
  6
Continuous
 62
     7
100
AcDbLine
 10
25.825616168
 20
499.3690708337
 30
0.0
 11
26.7798630021
 21
499.2816198166
 31
0.0
  0
LINE
  5
1EF
330
5E
100
AcDbEntity
  8
$DDT_AUDIT_GENERATED_(85)
  6
Continuous
 62
     7
100
AcDbLine
 10
24.2114799082
 20
499.5169967713
 30
0.0
 11
25.0856534451
 21
499.4368839931
 31
0.0
  0
LINE
  5
1F0
330
5E
100
AcDbEntity
  8
$DDT_AUDIT_GENERATED_(85)
  6
Continuous
 62
     7
100
AcDbLine
 10
27.664413944
 20
500.1166812764
 30
0.0
 11
27.9727701517
 21
500.0112172421
 31
0.0
  0
LINE
  5
1F1
330
5E
100
AcDbEntity
  8
$DDT_AUDIT_GENERATED_(85)
  6
Continuous
 62
     7
100
AcDbLine
 10
26.5217671339
 20
500.5074895022
 30
0.0
 11
26.7322971244
 21
500.4354840047
 31
0.0
  0
LINE
  5
1F2
330
5E
100
AcDbEntity
  8
$DDT_AUDIT_GENERATED_(85)
  6
Continuous
 62
     7
100
AcDbLine
 10
28.8179873092
 20
500.3434012096
 30
0.0
 11
28.9293968049
 21
500.2774026404
 31
0.0
  0
LINE
  5
1F3
330
5E
100
AcDbEntity
  8
$DDT_AUDIT_GENERATED_(85)
  6
Continuous
 62
     7
100
AcDbLine
 10
28.01424028
 20
500.8195379481
 30
0.0
 11
28.0521637197
 21
500.797072244
 31
0.0
  0
LINE
  5
1F6
330
5E
100
AcDbEntity
  8
DV1_Default
  6
CENTER2
 62
     7
100
AcDbLine
 10
51.349999553
 20
399.0338608558
 30
0.0
 11
11.350000447
 21
399.0338608558
 31
0.0
  0
LINE
  5
1F7
330
5E
100
AcDbEntity
  8
DV1_Default
  6
CENTER2
 62
     7
100
AcDbLine
 10
31.35
 20
419.0338604087
 30
0.0
 11
31.35
 21
379.0338613028
 31
0.0
  0
ENDBLK
  5
1F9
330
5E
100
AcDbEntity
  8
0
100
AcDbBlockEnd
  0
BLOCK
  5
250
330
1FA
100
AcDbEntity
  8
0
100
AcDbBlockBegin
  2
SE1
 70
     0
 10
0.0
 20
0.0
 30
0.0
  3
SE1
  1

  0
LINE
  5
1FC
330
1FA
100
AcDbEntity
  8
$DDT_AUDIT_GENERATED_(60)
  6
Continuous
 62
     7
100
AcDbLine
 10
231.374349982
 20
399.0338608558
 30
0.0
 11
185.6798073353
 21
399.0338608558
 31
0.0
  0
SPLINE
  5
1FD
330
1FA
100
AcDbEntity
  8
$DDT_AUDIT_GENERATED_(60)
  6
Continuous
 62
     7
100
AcDbSpline
210
0.0
220
0.0
230
1.0
 70
     8
 71
     3
 72
    10
 73
     6
 74
     0
 42
0.0000000154962936
 43
0.0000000001
 40
0.4982160037404841
 40
0.4982160037404841
 40
0.4982160037404841
 40
0.4982160037404841
 40
0.4999999999999942
 40
0.4999999999999942
 40
0.5000615691533387
 40
0.5000615691533387
 40
0.5000615691533387
 40
0.5000615691533387
 10
324.7509789938857
 20
507.3293597514971
 30
0.0
 10
324.7504919920931
 20
507.3287655741057
 30
0.0
 10
324.7502403556582
 20
507.3284581258148
 30
0.0
 10
324.7502247817164
 20
507.3284386048009
 30
0.0
 10
324.7502245427901
 20
507.3284382999657
 30
0.0
 10
324.7502245844545
 20
507.3284383414496
 30
0.0
  0
ARC
  5
1FE
330
1FA
100
AcDbEntity
  8
$DDT_AUDIT_GENERATED_(60)
  6
Continuous
 62
     7
100
AcDbCircle
 10
94.4087659079
 20
469.5308583634
 30
0.0
 40
102.2648437739163
100
AcDbArc
 50
347.0151444979
 51
352.9848566067
  0
LINE
  5
1FF
330
1FA
100
AcDbEntity
  8
$DDT_AUDIT_GENERATED_(60)
  6
Continuous
 62
     7
100
AcDbLine
 10
257.5959140341
 20
552.0334123669
 30
0.0
 11
257.2722914312
 21
552.9103264049
 31
0.0
  0
LINE
  5
200
330
1FA
100
AcDbEntity
  8
$DDT_AUDIT_GENERATED_(60)
  6
Continuous
 62
     7
100
AcDbLine
 10
215.3504127191
 20
560.3022847038
 30
0.0
 11
214.7401609024
 21
559.5815903512
 31
0.0
  0
ARC
  5
201
330
1FA
100
AcDbEntity
  8
$DDT_AUDIT_GENERATED_(60)
  6
Continuous
 62
     7
100
AcDbCircle
 10
218.9006876168
 20
556.0641410073
 30
0.0
 40
5.448224782815282
100
AcDbArc
 50
139.4596376746
 51
170.2849742891
  0
ARC
  5
202
330
1FA
100
AcDbEntity
  8
$DDT_AUDIT_GENERATED_(60)
  6
Continuous
 62
     7
100
AcDbCircle
 10
252.487083997
 20
550.1420635296
 30
0.0
 40
5.447753221236207
100
AcDbArc
 50
349.713858823
 51
20.5393577367
  0
SPLINE
  5
203
330
1FA
100
AcDbEntity
  8
$DDT_AUDIT_GENERATED_(60)
  6
Continuous
 62
     7
100
AcDbSpline
210
0.0
220
0.0
230
1.0
 70
     8
 71
     3
 72
    15
 73
    11
 74
     0
 42
0.0000000016069778
 43
0.0000000001
 40
0.0
 40
0.0
 40
0.0
 40
0.0
 40
0.2022129825008913
 40
0.3628505767264726
 40
0.472748600700055
 40
0.5371140728921644
 40
0.6051348428499927
 40
0.7062027719870384
 40
0.8400536984837782
 40
1.0
 40
1.0
 40
1.0
 40
1.0
 10
259.5675090608384
 20
536.3284181148624
 30
0.0
 10
259.109670696104
 20
536.3298598247156
 30
0.0
 10
258.4126060771192
 20
536.3537541954618
 30
0.0
 10
257.4634885899508
 20
536.6922955402839
 30
0.0
 10
256.9090223588753
 20
537.1141914722266
 30
0.0
 10
256.595661430399
 20
537.503462831533
 30
0.0
 10
256.3661875796474
 20
537.9289227575912
 30
0.0
 10
256.1843793695432
 20
538.5278858672907
 30
0.0
 10
256.1288964920644
 20
539.3600220386965
 30
0.0
 10
256.2145916437182
 20
539.913007560952
 30
0.0
 10
256.2774924541146
 20
540.2679651820799
 30
0.0
  0
ARC
  5
204
330
1FA
100
AcDbEntity
  8
$DDT_AUDIT_GENERATED_(60)
  6
Continuous
 62
     7
100
AcDbCircle
 10
254.0724888276
 20
503.0331925024
 30
0.0
 40
4.312220771571289
100
AcDbArc
 50
84.920924976
 51
175.2617163673
  0
ARC
  5
205
330
1FA
100
AcDbEntity
  8
$DDT_AUDIT_GENERATED_(60)
  6
Continuous
 62
     7
100
AcDbCircle
 10
153.9348163315
 20
557.4537664631
 30
0.0
 40
205.3897971571221
100
AcDbArc
 50
346.0401088024
 51
353.8361566033
  0
LINE
  5
206
330
1FA
100
AcDbEntity
  8
$DDT_AUDIT_GENERATED_(60)
  6
Continuous
 62
     7
100
AcDbLine
 10
350.8225890773
 20
507.3284383005
 30
0.0
 11
352.3379767945
 21
507.3284383005
 31
0.0
  0
LINE
  5
207
330
1FA
100
AcDbEntity
  8
$DDT_AUDIT_GENERATED_(60)
  6
Continuous
 62
     7
100
AcDbLine
 10
254.4507115079
 20
507.3284383005
 30
0.0
 11
324.7768128865
 21
507.3284383005
 31
0.0
  0
LINE
  5
208
330
1FA
100
AcDbEntity
  8
$DDT_AUDIT_GENERATED_(60)
  6
Continuous
 62
     7
100
AcDbLine
 10
357.1264757226
 20
536.3284383005
 30
0.0
 11
259.562407838
 21
536.3284383005
 31
0.0
  0
ARC
  5
209
330
1FA
100
AcDbEntity
  8
$DDT_AUDIT_GENERATED_(60)
  6
Continuous
 62
     7
100
AcDbCircle
 10
352.3379767764
 20
508.3284383018
 30
0.0
 40
1.000000001363127
100
AcDbArc
 50
270.0000000776
 51
344.7435017724
  0
ARC
  5
20A
330
1FA
100
AcDbEntity
  8
$DDT_AUDIT_GENERATED_(60)
  6
Continuous
 62
     7
100
AcDbCircle
 10
357.1264757678
 20
535.3284383001
 30
0.0
 40
1.000000000188505
100
AcDbArc
 50
354.6504151545
 51
89.9999999863
  0
LINE
  5
20B
330
1FA
100
AcDbEntity
  8
$DDT_AUDIT_GENERATED_(60)
  6
Continuous
 62
     7
100
AcDbLine
 10
194.0613062978
 20
446.5677035434
 30
0.0
 11
185.6798073353
 21
399.0338608558
 31
0.0
  0
LINE
  5
20C
330
1FA
100
AcDbEntity
  8
$DDT_AUDIT_GENERATED_(60)
  6
Continuous
 62
     7
100
AcDbLine
 10
213.5341199605
 20
557.003517645
 30
0.0
 11
195.9080455154
 21
457.0410820934
 31
0.0
  0
LINE
  5
20D
330
1FA
100
AcDbEntity
  8
$DDT_AUDIT_GENERATED_(60)
  6
Continuous
 62
     7
100
AcDbLine
 10
256.2764205447
 20
540.2605209088
 30
0.0
 11
257.8472770119
 21
549.1692906324
 31
0.0
  0
LINE
  5
20E
330
1FA
100
AcDbEntity
  8
$DDT_AUDIT_GENERATED_(60)
  6
Continuous
 62
     7
100
AcDbLine
 10
231.374349982
 20
399.0338608558
 30
0.0
 11
249.7762716483
 21
503.396344648
 31
0.0
  0
SPLINE
  5
20F
330
1FA
100
AcDbEntity
  8
$DDT_AUDIT_GENERATED_(60)
  6
Continuous
 62
     7
100
AcDbSpline
210
0.0
220
0.0
230
1.0
 70
     8
 71
     3
 72
    38
 73
    34
 74
     0
 42
0.0000000003323186
 43
0.0000000001
 40
0.0219763508039857
 40
0.0219763508039857
 40
0.0219763508039857
 40
0.0219763508039857
 40
0.0303741400583676
 40
0.0507056639825444
 40
0.0813306263263418
 40
0.11560825981927
 40
0.151054555530735
 40
0.1869375438479386
 40
0.2226887433057403
 40
0.2580968265258182
 40
0.296399067300945
 40
0.334303807809407
 40
0.3657404259286684
 40
0.3947685778157494
 40
0.4215442277015177
 40
0.4459998154748118
 40
0.4686235422260038
 40
0.4927544108336773
 40
0.5171406766118644
 40
0.5448454208553952
 40
0.575893326859837
 40
0.6113716356054553
 40
0.6534755970025634
 40
0.7002597529727854
 40
0.7490356095713565
 40
0.7924786281901984
 40
0.8323724733739208
 40
0.869031240136041
 40
0.9029147498580643
 40
0.9345988384722348
 40
0.9647342876208865
 40
0.9938693175589599
 40
1.0
 40
1.0
 40
1.0
 40
1.0
 10
325.1659212674721
 20
507.5567920655446
 30
0.0
 10
325.1657547348105
 20
507.5565441053935
 30
0.0
 10
325.1762038585442
 20
507.5702810021512
 30
0.0
 10
325.2334082901573
 20
507.6406758786244
 30
0.0
 10
325.388773278182
 20
507.8251763281929
 30
0.0
 10
325.6719145023794
 20
508.1519922114002
 30
0.0
 10
326.077802539227
 20
508.6089862849707
 30
0.0
 10
326.5960348214617
 20
509.178512274809
 30
0.0
 10
327.2207709759936
 20
509.848478461888
 30
0.0
 10
327.9538603896702
 20
510.6143883310653
 30
0.0
 10
328.8002499611252
 20
511.4415071900233
 30
0.0
 10
329.7278651054862
 20
512.2531276155585
 30
0.0
 10
330.669592226424
 20
512.9792611009502
 30
0.0
 10
331.6008434802708
 20
513.5656338664039
 30
0.0
 10
332.5378387321289
 20
514.0243523667109
 30
0.0
 10
333.4650535639188
 20
514.3454575499215
 30
0.0
 10
334.4071153108961
 20
514.5341622925604
 30
0.0
 10
335.3730428324191
 20
514.5688395454399
 30
0.0
 10
336.4003421348123
 20
514.4725107256097
 30
0.0
 10
337.4947832327361
 20
514.2425333447443
 30
0.0
 10
338.6917226096772
 20
513.8685283580489
 30
0.0
 10
340.0194386167213
 20
513.3445861689718
 30
0.0
 10
341.4814116411841
 20
512.677730798941
 30
0.0
 10
343.0243484536473
 20
511.8844596720237
 30
0.0
 10
344.5050222841986
 20
511.0660391169639
 30
0.0
 10
345.8381592150855
 20
510.2993104171574
 30
0.0
 10
346.9726121383852
 20
509.6265958016872
 30
0.0
 10
347.9341341278437
 20
509.043813150573
 30
0.0
 10
348.7329302130443
 20
508.5514715740173
 30
0.0
 10
349.3816226110381
 20
508.1465683443354
 30
0.0
 10
349.8841648580272
 20
507.8300982946972
 30
0.0
 10
350.1674390366845
 20
507.650885540144
 30
0.0
 10
350.2766404743791
 20
507.581950190208
 30
0.0
 10
350.2985784039029
 20
507.5680991802519
 30
0.0
  0
SPLINE
  5
210
330
1FA
100
AcDbEntity
  8
$DDT_AUDIT_GENERATED_(60)
  6
Continuous
 62
     7
100
AcDbSpline
210
0.0
220
0.0
230
1.0
 70
     8
 71
     3
 72
    17
 73
    13
 74
     0
 42
0.0000000179160194
 43
0.0000000001
 40
0.0
 40
0.0
 40
0.0
 40
0.0
 40
0.2548795928343232
 40
0.7392128820041312
 40
0.8620178442818685
 40
0.8826975017759029
 40
0.8911231583540179
 40
0.8963421495542198
 40
0.9017464669227384
 40
0.9146510502789926
 40
0.9403092744637784
 40
1.0
 40
1.0
 40
1.0
 40
1.0
 10
350.2985784039029
 20
507.5680991802519
 30
0.0
 10
350.3465433980191
 20
507.537839062535
 30
0.0
 10
350.4612189054715
 20
507.4654860728612
 30
0.0
 10
350.5369141366155
 20
507.4178840545413
 30
0.0
 10
350.5479867571331
 20
507.410934583715
 30
0.0
 10
350.5546536608583
 20
507.40681092477
 30
0.0
 10
350.5598364358514
 20
507.4036821521868
 30
0.0
 10
350.5662345888459
 20
507.3999266755537
 30
0.0
 10
350.579439322706
 20
507.3924647820648
 30
0.0
 10
350.6104334719026
 20
507.376592254484
 30
0.0
 10
350.6824988662871
 20
507.3470610540152
 30
0.0
 10
350.7447420443725
 20
507.3401334498657
 30
0.0
 10
350.7960571766697
 20
507.3351920688904
 30
0.0
  0
SPLINE
  5
211
330
1FA
100
AcDbEntity
  8
$DDT_AUDIT_GENERATED_(60)
  6
Continuous
 62
     7
100
AcDbSpline
210
0.0
220
0.0
230
1.0
 70
     8
 71
     3
 72
    17
 73
    13
 74
     0
 42
0.000000000871996
 43
0.0000000001
 40
0.0
 40
0.0
 40
0.0
 40
0.0
 40
0.0010614509757201
 40
0.0036672029759614
 40
0.0058120441763534
 40
0.0074121452120505
 40
0.0087973848207593
 40
0.0106164303767106
 40
0.0140295044301925
 40
0.0234192363310252
 40
0.0474353221246195
 40
0.0770272353074804
 40
0.0770272353074804
 40
0.0770272353074804
 40
0.0770272353074804
 10
324.7772731801294
 20
507.3480051211802
 30
0.0
 10
324.7937678748537
 20
507.3474342775264
 30
0.0
 10
324.8425199426371
 20
507.3460177789907
 30
0.0
 10
324.924103816346
 20
507.3695833177318
 30
0.0
 10
325.0015584848263
 20
507.4052852788623
 30
0.0
 10
325.0501233736525
 20
507.4374724263743
 30
0.0
 10
325.079192882041
 20
507.4602956633885
 30
0.0
 10
325.1023552785196
 20
507.4807809098672
 30
0.0
 10
325.1273375732738
 20
507.5053846577201
 30
0.0
 10
325.1600318415026
 20
507.5407237266163
 30
0.0
 10
325.2414368115559
 20
507.6324329950979
 30
0.0
 10
325.363596458707
 20
507.7778202639141
 30
0.0
 10
325.444302824949
 20
507.8745646100009
 30
0.0
  0
LINE
  5
212
330
1FA
100
AcDbEntity
  8
$DDT_AUDIT_GENERATED_(69)
  6
Continuous
 62
     7
100
AcDbLine
 10
217.2209259264
 20
586.5459942567
 30
0.0
 11
212.2658582986
 21
561.0528021658
 31
0.0
  0
LINE
  5
213
330
1FA
100
AcDbEntity
  8
$DDT_AUDIT_GENERATED_(69)
  6
Continuous
 62
     7
100
AcDbLine
 10
265.1099515076
 20
586.097797238
 30
0.0
 11
265.1099476834
 21
586.0977816599
 31
0.0
  0
LINE
  5
214
330
1FA
100
AcDbEntity
  8
$DDT_AUDIT_GENERATED_(69)
  6
Continuous
 62
     7
100
AcDbLine
 10
218.4728445489
 20
587.8293210113
 30
0.0
 11
217.3574437883
 21
586.7919171743
 31
0.0
  0
LINE
  5
215
330
1FA
100
AcDbEntity
  8
$DDT_AUDIT_GENERATED_(69)
  6
Continuous
 62
     7
100
AcDbLine
 10
265.0229111675
 20
586.443699394
 30
0.0
 11
263.9073258745
 21
587.9109535586
 31
0.0
  0
ARC
  5
216
330
1FA
100
AcDbEntity
  8
$DDT_AUDIT_GENERATED_(69)
  6
Continuous
 62
     7
100
AcDbCircle
 10
264.6563385962
 20
586.1675698723
 30
0.0
 40
0.4589478099705637
100
AcDbArc
 50
351.2553213512
 51
36.9908430865
  0
ARC
  5
217
330
1FA
100
AcDbEntity
  8
$DDT_AUDIT_GENERATED_(69)
  6
Continuous
 62
     7
100
AcDbCircle
 10
217.6695934124
 20
586.457784566
 30
0.0
 40
0.4572548389126662
100
AcDbArc
 50
133.051862277
 51
168.8738886667
  0
ARC
  5
218
330
1FA
100
AcDbEntity
  8
$DDT_AUDIT_GENERATED_(69)
  6
Continuous
 62
     7
100
AcDbCircle
 10
263.5431788096
 20
587.6314561639
 30
0.0
 40
0.4590445277524692
100
AcDbArc
 50
37.5076766513
 51
83.2894131027
  0
ARC
  5
219
330
1FA
100
AcDbEntity
  8
$DDT_AUDIT_GENERATED_(69)
  6
Continuous
 62
     7
100
AcDbCircle
 10
218.7834419646
 20
587.4939589075
 30
0.0
 40
0.4570979055558067
100
AcDbArc
 50
96.9266303751
 51
132.8044792031
  0
SPLINE
  5
21A
330
1FA
100
AcDbEntity
  8
$DDT_AUDIT_GENERATED_(69)
  6
Continuous
 62
     7
100
AcDbSpline
210
0.0
220
0.0
230
1.0
 70
     8
 71
     3
 72
    14
 73
    10
 74
     0
 42
0.0000000005776102
 43
0.0000000001
 40
0.5003084324216871
 40
0.5003084324216871
 40
0.5003084324216871
 40
0.5003084324216871
 40
0.625
 40
0.625
 40
0.75
 40
0.75
 40
0.875
 40
0.875
 40
1.0
 40
1.0
 40
1.0
 40
1.0
 10
323.7509689322885
 20
582.5033852285826
 30
0.0
 10
323.7506869558504
 20
582.5014614246737
 30
0.0
 10
323.6689013217009
 20
582.0369177823221
 30
0.0
 10
323.3890750533311
 20
580.450258182325
 30
0.0
 10
323.1951085343309
 20
579.3515506398508
 30
0.0
 10
322.803429283761
 20
577.1365641195558
 30
0.0
 10
322.6080577427944
 20
576.0335414596716
 30
0.0
 10
322.3285736643066
 20
574.4572428168734
 30
0.0
 10
322.2446242540136
 20
573.9845838418671
 30
0.0
 10
322.2445656472595
 20
573.9845788579485
 30
0.0
  0
LINE
  5
21B
330
1FA
100
AcDbEntity
  8
$DDT_AUDIT_GENERATED_(69)
  6
Continuous
 62
     7
100
AcDbLine
 10
264.7237066911
 20
583.6592548183
 30
0.0
 11
265.1099514291
 21
586.0977953064
 31
0.0
  0
LINE
  5
21C
330
1FA
100
AcDbEntity
  8
$DDT_AUDIT_GENERATED_(69)
  6
Continuous
 62
     7
100
AcDbLine
 10
263.0605933333
 20
573.1592560862
 30
0.0
 11
262.9206589775
 21
572.2757862062
 31
0.0
  0
ARC
  5
21D
330
1FA
100
AcDbEntity
  8
$DDT_AUDIT_GENERATED_(69)
  6
Continuous
 62
     7
100
AcDbCircle
 10
265.2175502887
 20
583.5810340964
 30
0.0
 40
0.4999999801838083
100
AcDbArc
 50
170.9995948045
 51
270.0000015629
  0
ARC
  5
21E
330
1FA
100
AcDbEntity
  8
$DDT_AUDIT_GENERATED_(69)
  6
Continuous
 62
     7
100
AcDbCircle
 10
263.5544369254
 20
573.0810353268
 30
0.0
 40
0.4999999365941924
100
AcDbArc
 50
89.9999978083
 51
170.9995904583
  0
LINE
  5
21F
330
1FA
100
AcDbEntity
  8
$DDT_AUDIT_GENERATED_(69)
  6
Continuous
 62
     7
100
AcDbLine
 10
261.7861459805
 20
565.1130844137
 30
0.0
 11
261.3825959861
 21
562.5652878909
 31
0.0
  0
LINE
  5
220
330
1FA
100
AcDbEntity
  8
$DDT_AUDIT_GENERATED_(69)
  6
Continuous
 62
     7
100
AcDbLine
 10
259.8150419532
 20
552.6685990812
 30
0.0
 11
261.3825959861
 21
562.5652878909
 31
0.0
  0
LINE
  5
221
330
1FA
100
AcDbEntity
  8
$DDT_AUDIT_GENERATED_(69)
  6
Continuous
 62
     7
100
AcDbLine
 10
259.5827748732
 20
552.5029258356
 30
0.0
 11
212.4274545425
 21
560.8176810938
 31
0.0
  0
SPLINE
  5
222
330
1FA
100
AcDbEntity
  8
$DDT_AUDIT_GENERATED_(69)
  6
Continuous
 62
     7
100
AcDbSpline
210
0.0
220
0.0
230
1.0
 70
     8
 71
     3
 72
    10
 73
     6
 74
     0
 42
0.0000000306896768
 43
0.0000000001
 40
0.0
 40
0.0
 40
0.0
 40
0.0
 40
0.5
 40
0.5
 40
1.0
 40
1.0
 40
1.0
 40
1.0
 10
259.8150419531916
 20
552.6685990811916
 30
0.0
 10
259.8067597173874
 20
552.6163095213534
 30
0.0
 10
259.7767450559069
 20
552.567806949968
 30
0.0
 10
259.6905439799639
 20
552.5063207848729
 30
0.0
 10
259.6349119898302
 20
552.4937326552039
 30
0.0
 10
259.5827748731782
 20
552.502925835566
 30
0.0
  0
SPLINE
  5
223
330
1FA
100
AcDbEntity
  8
$DDT_AUDIT_GENERATED_(69)
  6
Continuous
 62
     7
100
AcDbSpline
210
0.0
220
0.0
230
1.0
 70
     8
 71
     3
 72
    10
 73
     6
 74
     0
 42
0.0000000306897671
 43
0.0000000001
 40
0.0
 40
0.0
 40
0.0
 40
0.0
 40
0.5000000000000001
 40
0.5000000000000001
 40
1.0
 40
1.0
 40
1.0
 40
1.0
 10
212.4274545425165
 20
560.8176810938121
 30
0.0
 10
212.375317572062
 20
560.8268742483956
 30
0.0
 10
212.3273461144956
 20
560.8577303300592
 30
0.0
 10
212.2673730803862
 20
560.9449905517939
 30
0.0
 10
212.2557572315325
 20
561.0008334615684
 30
0.0
 10
212.2658582986419
 20
561.0528021658303
 30
0.0
  0
ARC
  5
224
330
1FA
100
AcDbEntity
  8
$DDT_AUDIT_GENERATED_(69)
  6
Continuous
 62
     7
100
AcDbCircle
 10
241.7634360682
 20
394.9427536243
 30
0.0
 40
194.3747257569171
100
AcDbArc
 50
83.5507008673
 51
96.8060093538
  0
LINE
  5
225
330
1FA
100
AcDbEntity
  8
$DDT_AUDIT_GENERATED_(69)
  6
Continuous
 62
     7
100
AcDbLine
 10
323.253762587
 20
583.0810346898
 30
0.0
 11
265.2173996865
 21
583.0810346898
 31
0.0
  0
LINE
  5
226
330
1FA
100
AcDbEntity
  8
$DDT_AUDIT_GENERATED_(69)
  6
Continuous
 62
     7
100
AcDbLine
 10
263.5544586389
 20
573.5810346898
 30
0.0
 11
321.7539576517
 21
573.5810346898
 31
0.0
  0
SPLINE
  5
227
330
1FA
100
AcDbEntity
  8
$DDT_AUDIT_GENERATED_(69)
  6
Continuous
 62
     7
100
AcDbSpline
210
0.0
220
0.0
230
1.0
 70
     8
 71
     3
 72
    12
 73
     8
 74
     0
 42
0.0000000143077915
 43
0.0000000001
 40
0.0
 40
0.0
 40
0.0
 40
0.0
 40
0.178856009538302
 40
0.3965681291247841
 40
0.6436160730769089
 40
0.9065121912079029
 40
1.0
 40
1.0
 40
1.0
 40
1.0
 10
323.7429879719752
 20
582.679553464007
 30
0.0
 10
323.7331264479365
 20
582.7234646647853
 30
0.0
 10
323.7128758092173
 20
582.806324745403
 30
0.0
 10
323.6243214332208
 20
582.9325073778233
 30
0.0
 10
323.4922676552783
 20
583.0321264213254
 30
0.0
 10
323.3531177486469
 20
583.0836202461246
 30
0.0
 10
323.2763454866063
 20
583.0760028517414
 30
0.0
 10
323.252959599269
 20
583.0734565988469
 30
0.0
  0
ARC
  5
228
330
1FA
100
AcDbEntity
  8
$DDT_AUDIT_GENERATED_(69)
  6
Continuous
 62
     7
100
AcDbCircle
 10
321.772382506
 20
574.0545746825
 30
0.0
 40
0.4680624745264213
100
AcDbArc
 50
291.1729580777
 51
327.5229920208
  0
LINE
  5
22A
330
1FA
100
AcDbEntity
  8
$DDT_AUDIT_GENERATED_(229)
  6
Continuous
 62
     7
100
AcDbLine
 10
187.6331976387
 20
469.7100712999
 30
0.0
 11
176.2628252227
 21
469.7100712999
 31
0.0
  0
LINE
  5
22B
330
1FA
100
AcDbEntity
  8
$DDT_AUDIT_GENERATED_(229)
  6
Continuous
 62
     7
100
AcDbLine
 10
176.2628252227
 20
465.7100712999
 30
0.0
 11
187.6331976387
 21
465.7100712999
 31
0.0
  0
ARC
  5
22C
330
1FA
100
AcDbEntity
  8
$DDT_AUDIT_GENERATED_(229)
  6
Continuous
 62
     7
100
AcDbCircle
 10
187.6331976387
 20
464.7100712999
 30
0.0
 40
1.000000000000001
100
AcDbArc
 50
18.0
 51
90.0
  0
ARC
  5
22D
330
1FA
100
AcDbEntity
  8
$DDT_AUDIT_GENERATED_(229)
  6
Continuous
 62
     7
100
AcDbCircle
 10
187.6331976387
 20
464.7100712999
 30
0.0
 40
5.000000000000006
100
AcDbArc
 50
18.0
 51
90.0
  0
LINE
  5
22E
330
1FA
100
AcDbEntity
  8
$DDT_AUDIT_GENERATED_(229)
  6
Continuous
 62
     7
100
AcDbLine
 10
195.7552111997
 20
455.8934237619
 30
0.0
 11
192.3884802202
 21
466.2551562717
 31
0.0
  0
LINE
  5
22F
330
1FA
100
AcDbEntity
  8
$DDT_AUDIT_GENERATED_(229)
  6
Continuous
 62
     7
100
AcDbLine
 10
188.584254155
 20
465.0190882942
 30
0.0
 11
194.2758764296
 21
447.5020761199
 31
0.0
  0
ARC
  5
230
330
1FA
100
AcDbEntity
  8
$DDT_AUDIT_GENERATED_(229)
  6
Continuous
 62
     7
100
AcDbCircle
 10
176.2628252227
 20
467.7100712999
 30
0.0
 40
2.000000000000002
100
AcDbArc
 50
90.0
 51
270.0
  0
LINE
  5
231
330
1FA
100
AcDbEntity
  8
$DDT_AUDIT_GENERATED_(7A)
  6
Continuous
 62
     7
100
AcDbLine
 10
262.9912925734
 20
572.2325018829
 30
0.0
 11
262.2554891987
 21
564.5908916642
 31
0.0
  0
LINE
  5
232
330
1FA
100
AcDbEntity
  8
$DDT_AUDIT_GENERATED_(7A)
  6
Continuous
 62
     7
100
AcDbLine
 10
261.7811646481
 20
564.8815581227
 30
0.0
 11
262.2554891987
 21
564.5908916642
 31
0.0
  0
LINE
  5
233
330
1FA
100
AcDbEntity
  8
$DDT_AUDIT_GENERATED_(7A)
  6
Continuous
 62
     7
100
AcDbLine
 10
261.7862820462
 20
565.1129877164
 30
0.0
 11
261.8024922821
 21
565.1030540711
 31
0.0
  0
LINE
  5
234
330
1FA
100
AcDbEntity
  8
$DDT_AUDIT_GENERATED_(7E)
  6
Continuous
 62
     7
100
AcDbLine
 10
330.7067776733
 20
496.3603155005
 30
0.0
 11
350.581276603
 21
503.5940415318
 31
0.0
  0
LINE
  5
235
330
1FA
100
AcDbEntity
  8
$DDT_AUDIT_GENERATED_(7E)
  6
Continuous
 62
     7
100
AcDbLine
 10
351.1789490804
 20
504.875754296
 30
0.0
 11
350.1692968014
 21
507.6497511341
 31
0.0
  0
LINE
  5
236
330
1FA
100
AcDbEntity
  8
$DDT_AUDIT_GENERATED_(7E)
  6
Continuous
 62
     7
100
AcDbLine
 10
325.4460956249
 20
507.8901162394
 30
0.0
 11
329.4250649092
 21
496.957987978
 31
0.0
  0
ARC
  5
237
330
1FA
100
AcDbEntity
  8
$DDT_AUDIT_GENERATED_(7E)
  6
Continuous
 62
     7
100
AcDbCircle
 10
350.2392564596
 20
504.5337341526
 30
0.0
 40
0.9999999999999979
100
AcDbArc
 50
290.0
 51
20.0
  0
ARC
  5
238
330
1FA
100
AcDbEntity
  8
$DDT_AUDIT_GENERATED_(7E)
  6
Continuous
 62
     7
100
AcDbCircle
 10
330.36475753
 20
497.3000081213
 30
0.0
 40
0.9999999999999931
100
AcDbArc
 50
200.0
 51
290.0
  0
LINE
  5
239
330
1FA
100
AcDbEntity
  8
$DDT_AUDIT_GENERATED_(85)
  6
Continuous
 62
     7
100
AcDbLine
 10
333.4004358232
 20
495.5316246751
 30
0.0
 11
349.0504869405
 21
501.2277774466
 31
0.0
  0
LINE
  5
23A
330
1FA
100
AcDbEntity
  8
$DDT_AUDIT_GENERATED_(85)
  6
Continuous
 62
     7
100
AcDbLine
 10
345.9717565979
 20
501.7034779012
 30
0.0
 11
345.8879191087
 21
501.6729635507
 31
0.0
  0
LINE
  5
23B
330
1FA
100
AcDbEntity
  8
$DDT_AUDIT_GENERATED_(85)
  6
Continuous
 62
     7
100
AcDbLine
 10
349.3248562963
 20
502.923906384
 30
0.0
 11
349.206292182
 21
502.8807525756
 31
0.0
  0
SPLINE
  5
23C
330
1FA
100
AcDbEntity
  8
$DDT_AUDIT_GENERATED_(85)
  6
Continuous
 62
     7
100
AcDbSpline
210
0.0
220
0.0
230
1.0
 70
     8
 71
     3
 72
    20
 73
    16
 74
     0
 42
0.0000000630965777
 43
0.0000000001
 40
0.0
 40
0.0
 40
0.0
 40
0.0
 40
0.2174093870011324
 40
0.2174093870011324
 40
0.2174093870011324
 40
0.4348768202247565
 40
0.4348768202247565
 40
0.4348768202247565
 40
0.6514121854905272
 40
0.6514121854905272
 40
0.6514121854905272
 40
0.8660380396115381
 40
0.8660380396115381
 40
0.8660380396115381
 40
1.0
 40
1.0
 40
1.0
 40
1.0
 10
349.3248562963058
 20
502.9239063840018
 30
0.0
 10
349.3355433927276
 20
502.9277961689902
 30
0.0
 10
349.3457083801136
 20
502.9335793677125
 30
0.0
 10
349.3545086808228
 20
502.9407834751946
 30
0.0
 10
349.3633102927936
 20
502.9479886561022
 30
0.0
 10
349.3709900980919
 20
502.956816104039
 30
0.0
 10
349.3768953364051
 20
502.9665377893693
 30
0.0
 10
349.3827749874969
 20
502.9762173509271
 30
0.0
 10
349.3870581365476
 20
502.9870543953861
 30
0.0
 10
349.3893681859374
 20
502.998141680028
 30
0.0
 10
349.391658093895
 20
503.0091322940997
 30
0.0
 10
349.3920721227806
 20
503.020675467262
 30
0.0
 10
349.3905639979528
 20
503.0318003418964
 30
0.0
 10
349.3896143463038
 20
503.0388055680868
 30
0.0
 10
349.3879018990503
 20
503.0457478898843
 30
0.0
 10
349.3854840553313
 20
503.052390860905
 30
0.0
  0
LINE
  5
23D
330
1FA
100
AcDbEntity
  8
$DDT_AUDIT_GENERATED_(85)
  6
Continuous
 62
     7
100
AcDbLine
 10
349.351282041
 20
503.146360123
 30
0.0
 11
349.3854840553
 21
503.0523908609
 31
0.0
  0
LINE
  5
23E
330
1FA
100
AcDbEntity
  8
$DDT_AUDIT_GENERATED_(85)
  6
Continuous
 62
     7
100
AcDbLine
 10
331.9709742496
 20
496.7140276473
 30
0.0
 11
331.9367722353
 21
496.8079969094
 31
0.0
  0
SPLINE
  5
23F
330
1FA
100
AcDbEntity
  8
$DDT_AUDIT_GENERATED_(85)
  6
Continuous
 62
     7
100
AcDbSpline
210
0.0
220
0.0
230
1.0
 70
     8
 71
     3
 72
    20
 73
    16
 74
     0
 42
0.0000000631015441
 43
0.0000000001
 40
0.0
 40
0.0
 40
0.0
 40
0.0
 40
0.2125265405902813
 40
0.2125265405902813
 40
0.2125265405902813
 40
0.4250001490955159
 40
0.4250001490955159
 40
0.4250001490955159
 40
0.63831211777819
 40
0.63831211777819
 40
0.63831211777819
 40
0.853467134590417
 40
0.853467134590417
 40
0.853467134590417
 40
1.0
 40
1.0
 40
1.0
 40
1.0
 10
331.9709742496437
 20
496.7140276472979
 30
0.0
 10
331.9747766502854
 20
496.7035806373951
 30
0.0
 10
331.9804402259983
 20
496.6936479584748
 30
0.0
 10
331.987490154097
 20
496.6850516348216
 30
0.0
 10
331.9945391044551
 20
496.6764565033756
 30
0.0
 10
332.0031664438746
 20
496.6689607334503
 30
0.0
 10
332.012654747736
 20
496.6631696993836
 30
0.0
 10
332.0221809795038
 20
496.6573555166275
 30
0.0
 10
332.0328340545633
 20
496.6530998836748
 30
0.0
 10
332.0437408253125
 20
496.650734262268
 30
0.0
 10
332.0547408747721
 20
496.6483484091978
 30
0.0
 10
332.0662988037787
 20
496.6478190482073
 30
0.0
 10
332.0774723609155
 20
496.649177357412
 30
0.0
 10
332.0851395164904
 20
496.6501094122503
 30
0.0
 10
332.092748227173
 20
496.6519319731784
 30
0.0
 10
332.1000060373344
 20
496.6545736000438
 30
0.0
  0
LINE
  5
240
330
1FA
100
AcDbEntity
  8
$DDT_AUDIT_GENERATED_(85)
  6
Continuous
 62
     7
100
AcDbLine
 10
332.2185701516
 20
496.6977274085
 30
0.0
 11
332.1000060373
 21
496.6545736
 31
0.0
  0
LINE
  5
241
330
1FA
100
AcDbEntity
  8
$DDT_AUDIT_GENERATED_(85)
  6
Continuous
 62
     7
100
AcDbLine
 10
335.536943225
 20
497.9055164334
 30
0.0
 11
335.4531057358
 21
497.8750020828
 31
0.0
  0
LINE
  5
242
330
1FA
100
AcDbEntity
  8
$DDT_AUDIT_GENERATED_(85)
  6
Continuous
 62
     7
100
AcDbLine
 10
349.206292182
 20
502.8807525756
 30
0.0
 11
347.646625983
 21
502.3130805037
 31
0.0
  0
LINE
  5
243
330
1FA
100
AcDbEntity
  8
$DDT_AUDIT_GENERATED_(85)
  6
Continuous
 62
     7
100
AcDbLine
 10
347.6329141588
 20
502.3080898079
 30
0.0
 11
345.9717565979
 21
501.7034779012
 31
0.0
  0
LINE
  5
244
330
1FA
100
AcDbEntity
  8
$DDT_AUDIT_GENERATED_(85)
  6
Continuous
 62
     7
100
AcDbLine
 10
345.8879191087
 20
501.6729635507
 30
0.0
 11
341.8870469428
 21
500.2167651712
 31
0.0
  0
LINE
  5
245
330
1FA
100
AcDbEntity
  8
$DDT_AUDIT_GENERATED_(85)
  6
Continuous
 62
     7
100
AcDbLine
 10
341.8870469428
 20
500.2167651712
 30
0.0
 11
339.5378153908
 21
499.3617148129
 31
0.0
  0
LINE
  5
246
330
1FA
100
AcDbEntity
  8
$DDT_AUDIT_GENERATED_(85)
  6
Continuous
 62
     7
100
AcDbLine
 10
339.5378153908
 20
499.3617148129
 30
0.0
 11
335.536943225
 21
497.9055164334
 31
0.0
  0
LINE
  5
247
330
1FA
100
AcDbEntity
  8
$DDT_AUDIT_GENERATED_(85)
  6
Continuous
 62
     7
100
AcDbLine
 10
335.4531057358
 20
497.8750020828
 30
0.0
 11
333.7919481748
 21
497.2703901762
 31
0.0
  0
LINE
  5
248
330
1FA
100
AcDbEntity
  8
$DDT_AUDIT_GENERATED_(85)
  6
Continuous
 62
     7
100
AcDbLine
 10
333.7716366422
 20
497.2629973829
 30
0.0
 11
332.2185701516
 21
496.6977274085
 31
0.0
  0
ARC
  5
249
330
1FA
100
AcDbEntity
  8
$DDT_AUDIT_GENERATED_(85)
  6
Continuous
 62
     7
100
AcDbCircle
 10
349.0162849261
 20
501.3217467086
 30
0.0
 40
0.1000000000000056
100
AcDbArc
 50
290.0
 51
2.0955524938
  0
ARC
  5
24A
330
1FA
100
AcDbEntity
  8
$DDT_AUDIT_GENERATED_(85)
  6
Continuous
 62
     7
100
AcDbCircle
 10
333.3662338088
 20
495.6255939372
 30
0.0
 40
0.1000000000000129
100
AcDbArc
 50
217.9044475062
 51
290.0
  0
LINE
  5
24B
330
1FA
100
AcDbEntity
  8
$DDT_AUDIT_GENERATED_(85)
  6
Continuous
 62
     7
100
AcDbLine
 10
332.3636236514
 20
496.7505225648
 30
0.0
 11
333.2873301689
 21
495.5641592922
 31
0.0
  0
LINE
  5
24C
330
1FA
100
AcDbEntity
  8
$DDT_AUDIT_GENERATED_(85)
  6
Continuous
 62
     7
100
AcDbLine
 10
349.1162180496
 20
501.3254033224
 30
0.0
 11
349.0612386823
 21
502.8279574193
 31
0.0
  0
LINE
  5
24E
330
1FA
100
AcDbEntity
  8
DV2_Default
  6
CENTER2
 62
     7
100
AcDbLine
 10
228.5270782116
 20
399.0338608558
 30
0.0
 11
188.5270791057
 21
399.0338608558
 31
0.0
  0
LINE
  5
24F
330
1FA
100
AcDbEntity
  8
DV2_Default
  6
CENTER2
 62
     7
100
AcDbLine
 10
208.5270786586
 20
419.0338604087
 30
0.0
 11
208.5270786586
 21
379.0338613028
 31
0.0
  0
ENDBLK
  5
251
330
1FA
100
AcDbEntity
  8
0
100
AcDbBlockEnd
  0
BLOCK
  5
279
330
252
100
AcDbEntity
  8
0
100
AcDbBlockBegin
  2
SE2
 70
     0
 10
0.0
 20
0.0
 30
0.0
  3
SE2
  1

  0
ELLIPSE
  5
254
330
252
100
AcDbEntity
  8
$DDT_AUDIT_GENERATED_(60)
  6
Continuous
 62
     7
100
AcDbEllipse
 10
31.35
 20
255.9500717075
 30
0.0
 11
-1.149688444883116E-14
 21
-22.8472713233584
 31
0.0
210
0.0
220
0.0
230
1.0
 40
0.984807753
 41
1.570796326794897
 42
3.052586965218027
  0
ELLIPSE
  5
255
330
252
100
AcDbEntity
  8
$DDT_AUDIT_GENERATED_(60)
  6
Continuous
 62
     7
100
AcDbEllipse
 10
31.35
 20
255.9500717075
 30
0.0
 11
-1.149688444883116E-14
 21
-22.8472713233584
 31
0.0
210
0.0
220
0.0
230
1.0
 40
0.984807753
 41
3.230598341961559
 42
4.71238898038469
  0
SPLINE
  5
256
330
252
100
AcDbEntity
  8
$DDT_AUDIT_GENERATED_(60)
  6
Continuous
 62
     7
100
AcDbSpline
210
0.0
220
0.0
230
1.0
 70
     8
 71
     3
 72
    10
 73
     6
 74
     0
 42
0.0000000006719033
 43
0.0000000001
 40
0.2499548525459353
 40
0.2499548525459353
 40
0.2499548525459353
 40
0.2499548525459353
 40
0.2500000000000018
 40
0.2500000000000018
 40
0.2504561982108064
 40
0.2504561982108064
 40
0.2504561982108064
 40
0.2504561982108064
 10
16.84989162598704
 20
109.7769363679201
 30
0.0
 10
16.84989159856954
 20
109.7767124115586
 30
0.0
 10
16.84989176619007
 20
109.7764884598007
 30
0.0
 10
16.84989579351535
 20
109.7740016102995
 30
0.0
 10
16.8499193806929
 20
109.7717385482284
 30
0.0
 10
16.84996287736958
 20
109.7694753372106
 30
0.0
  0
SPLINE
  5
257
330
252
100
AcDbEntity
  8
$DDT_AUDIT_GENERATED_(60)
  6
Continuous
 62
     7
100
AcDbSpline
210
0.0
220
0.0
230
1.0
 70
     8
 71
     3
 72
    18
 73
    14
 74
     0
 42
0.0000000010398842
 43
0.0000000001
 40
0.0
 40
0.0
 40
0.0
 40
0.0
 40
0.0312499999999995
 40
0.0312499999999995
 40
0.0624999999999991
 40
0.0624999999999991
 40
0.1249999999999988
 40
0.1249999999999988
 40
0.2499999999999983
 40
0.2499999999999983
 40
0.3749999999999977
 40
0.3749999999999977
 40
0.3825730870741505
 40
0.3825730870741505
 40
0.3825730870741505
 40
0.3825730870741505
 10
31.34999999999999
 20
268.5691048507782
 30
0.0
 10
31.07957278091262
 20
268.5691048507782
 30
0.0
 10
30.82373775747199
 20
268.5825803866006
 30
0.0
 10
30.39090772359219
 20
268.6229796268297
 30
0.0
 10
30.21238265329337
 20
268.649071053112
 30
0.0
 10
29.74646040951501
 20
268.7355533161077
 30
0.0
 10
29.53246371793914
 20
268.8025038754254
 30
0.0
 10
29.02235659444923
 20
269.020026838569
 30
0.0
 10
28.87242776589383
 20
269.1828694490758
 30
0.0
 10
28.83178770330413
 20
269.5457182385699
 30
0.0
 10
28.94116573144822
 20
269.744046526362
 30
0.0
 10
29.30130823925631
 20
269.9624224061928
 30
0.0
 10
29.32274779666397
 20
269.9749229751237
 30
0.0
 10
29.34513218689555
 20
269.9874217508008
 30
0.0
  0
SPLINE
  5
258
330
252
100
AcDbEntity
  8
$DDT_AUDIT_GENERATED_(60)
  6
Continuous
 62
     7
100
AcDbSpline
210
0.0
220
0.0
230
1.0
 70
     8
 71
     3
 72
    16
 73
    12
 74
     0
 42
0.0000000010417713
 43
0.0000000001
 40
0.6171430647097601
 40
0.6171430647097601
 40
0.6171430647097601
 40
0.6171430647097601
 40
0.6249999999999982
 40
0.6249999999999982
 40
0.7499999999999991
 40
0.7499999999999991
 40
0.8749999999999999
 40
0.8749999999999999
 40
0.9375
 40
0.9375
 40
1.0
 40
1.0
 40
1.0
 40
1.0
 10
33.35858815852145
 20
269.9853877309209
 30
0.0
 10
33.38152907879294
 20
269.9724973128673
 30
0.0
 10
33.40347091502419
 20
269.9596091126551
 30
0.0
 10
33.75936043679531
 20
269.7421783097296
 30
0.0
 10
33.86873993331489
 20
269.5422379031869
 30
0.0
 10
33.82665348676859
 20
269.1829359906884
 30
0.0
 10
33.67604311154218
 20
269.0190266764759
 30
0.0
 10
33.16611338650318
 20
268.8020570351342
 30
0.0
 10
32.95002575652596
 20
268.7348195738505
 30
0.0
 10
32.33325756995058
 20
268.6205013892589
 30
0.0
 10
31.89085443817476
 20
268.5691048507782
 30
0.0
 10
31.34999999999999
 20
268.5691048507782
 30
0.0
  0
LINE
  5
259
330
252
100
AcDbEntity
  8
$DDT_AUDIT_GENERATED_(60)
  6
Continuous
 62
     7
100
AcDbLine
 10
16.8498916115
 20
204.2748922125
 30
0.0
 11
16.8498916115
 21
109.7769118218
 31
0.0
  0
LINE
  5
25A
330
252
100
AcDbEntity
  8
$DDT_AUDIT_GENERATED_(60)
  6
Continuous
 62
     7
100
AcDbLine
 10
45.8498916115
 20
109.776909906
 30
0.0
 11
45.8498916115
 21
204.2602380117
 31
0.0
  0
SPLINE
  5
25B
330
252
100
AcDbEntity
  8
$DDT_AUDIT_GENERATED_(60)
  6
Continuous
 62
     7
100
AcDbSpline
210
0.0
220
0.0
230
1.0
 70
     8
 71
     3
 72
    73
 73
    69
 74
     0
 42
0.0000000003197696
 43
0.0000000001
 40
0.0
 40
0.0
 40
0.0
 40
0.0
 40
0.0009504103316031
 40
0.0109595943059785
 40
0.0208828759948943
 40
0.0309072344300167
 40
0.0412672060785039
 40
0.0521497245022371
 40
0.0642436667614898
 40
0.0779593415134474
 40
0.0937758692810349
 40
0.1117090551794453
 40
0.1307429461495317
 40
0.149472472933191
 40
0.1676635828144541
 40
0.1854033273954976
 40
0.2027899692841525
 40
0.2198921065091253
 40
0.2367542767583057
 40
0.2534059601311506
 40
0.2698681772284836
 40
0.2861574789617067
 40
0.3023026113085874
 40
0.3183662728252203
 40
0.3344707664745862
 40
0.3506160611602392
 40
0.3667977882705327
 40
0.3830078648555215
 40
0.3992353563657168
 40
0.4154647293871501
 40
0.4316797023423513
 40
0.4478659586369869
 40
0.4640100370466834
 40
0.4801000969081013
 40
0.496126598560781
 40
0.5120828787615679
 40
0.5279656079291449
 40
0.5437344764186215
 40
0.5594533131758834
 40
0.5753042377271684
 40
0.5912398885373579
 40
0.6072586939707357
 40
0.6233564407079599
 40
0.6395268879886402
 40
0.6557623016486023
 40
0.6720541044536215
 40
0.6883936412942512
 40
0.7047730597057413
 40
0.7211863124750758
 40
0.7376303035055577
 40
0.7541062249804162
 40
0.7706211799463418
 40
0.7871618866368275
 40
0.8036607315351985
 40
0.8205956786510181
 40
0.8377233142628654
 40
0.8551277488659598
 40
0.8729160306986017
 40
0.8912163988113143
 40
0.9101156997013986
 40
0.9262582006302321
 40
0.9403182166753387
 40
0.9527050777270981
 40
0.9639224462428886
 40
0.9743577136641903
 40
0.9843046248860122
 40
0.9949521872155367
 40
1.0
 40
1.0
 40
1.0
 40
1.0
 10
16.85434616005214
 20
109.7703057420954
 30
0.0
 10
16.85374999669942
 20
109.7624267181146
 30
0.0
 10
16.84791780694706
 20
109.6843013227665
 30
0.0
 10
16.8706273650508
 20
109.5193821878151
 30
0.0
 10
16.9241637984776
 20
109.3041771989318
 30
0.0
 10
17.01156017767379
 20
109.1008404602545
 30
0.0
 10
17.12338953265847
 20
108.9153954262616
 30
0.0
 10
17.25906669109991
 20
108.7433977918067
 30
0.0
 10
17.42191065503452
 20
108.5791804220097
 30
0.0
 10
17.62000506559381
 20
108.4172578327542
 30
0.0
 10
17.86242917546398
 20
108.2548633927038
 30
0.0
 10
18.15482867550037
 20
108.093078858059
 30
0.0
 10
18.49282522210444
 20
107.9367439669359
 30
0.0
 10
18.86524936595066
 20
107.7900935144727
 30
0.0
 10
19.26201877705528
 20
107.6546036535287
 30
0.0
 10
19.68111830568831
 20
107.5287617330507
 30
0.0
 10
20.12265871268402
 20
107.4110568300763
 30
0.0
 10
20.5866475648965
 20
107.300526734951
 30
0.0
 10
21.07268095740531
 20
107.1966220280088
 30
0.0
 10
21.58002254784635
 20
107.0990501062756
 30
0.0
 10
22.1076786367663
 20
107.0076605772339
 30
0.0
 10
22.65475431147622
 20
106.9223925015499
 30
0.0
 10
23.22050306535408
 20
106.8430613228633
 30
0.0
 10
23.80554817454752
 20
106.7692662241648
 30
0.0
 10
24.41036517874126
 20
106.7008852838776
 30
0.0
 10
25.03488342881771
 20
106.6379315854119
 30
0.0
 10
25.67738436576245
 20
106.5806243134368
 30
0.0
 10
26.33595450083164
 20
106.5291867292962
 30
0.0
 10
27.00846836592012
 20
106.4838426239775
 30
0.0
 10
27.69262343740628
 20
106.4448051193591
 30
0.0
 10
28.3860069308798
 20
106.4122669820533
 30
0.0
 10
29.0861803913342
 20
106.3863940705682
 30
0.0
 10
29.79072345798976
 20
106.3673239519217
 30
0.0
 10
30.49724798622586
 20
106.3551650580504
 30
0.0
 10
31.20343751549838
 20
106.35
 30
0.0
 10
31.90707873868481
 20
106.351874902313
 30
0.0
 10
32.60550384498587
 20
106.360839540988
 30
0.0
 10
33.29705381953032
 20
106.3767848294195
 30
0.0
 10
33.98294119199257
 20
106.3990885541936
 30
0.0
 10
34.66424034356037
 20
106.427861742702
 30
0.0
 10
35.34099672712389
 20
106.4631135491754
 30
0.0
 10
36.01060776118937
 20
106.5047605150059
 30
0.0
 10
36.6710841378397
 20
106.5527178284606
 30
0.0
 10
37.32038122417232
 20
106.6068827577054
 30
0.0
 10
37.95643296519675
 20
106.667132138948
 30
0.0
 10
38.57718727023429
 20
106.7333260527075
 30
0.0
 10
39.18064390794039
 20
106.8053122741888
 30
0.0
 10
39.7648953511686
 20
106.882933784576
 30
0.0
 10
40.3281642022934
 20
106.9660385548901
 30
0.0
 10
40.86885683484626
 20
107.0544964223315
 30
0.0
 10
41.3855577774851
 20
107.1482107467146
 30
0.0
 10
41.87696768468482
 20
107.2471231952323
 30
0.0
 10
42.34076824912783
 20
107.3509827437736
 30
0.0
 10
42.7808435696037
 20
107.4605915197443
 30
0.0
 10
43.19731015364096
 20
107.5766662839608
 30
0.0
 10
43.5911951580088
 20
107.700490893106
 30
0.0
 10
43.96093166417702
 20
107.8328670635548
 30
0.0
 10
44.30794553766567
 20
107.9762542200436
 30
0.0
 10
44.63351677086603
 20
108.134465962227
 30
0.0
 10
44.92142118535969
 20
108.3032816056281
 30
0.0
 10
45.16488912421589
 20
108.4797832042229
 30
0.0
 10
45.35973691549828
 20
108.6555523755639
 30
0.0
 10
45.51772296512242
 20
108.8354186432663
 30
0.0
 10
45.64438889495371
 20
109.0223175366798
 30
0.0
 10
45.7427539302977
 20
109.2194499172846
 30
0.0
 10
45.81209703582287
 20
109.4311881263979
 30
0.0
 10
45.84827859085025
 20
109.625179829973
 30
0.0
 10
45.84591343630937
 20
109.7353911272918
 30
0.0
 10
45.8447981212469
 20
109.7771596287995
 30
0.0
  0
LINE
  5
25C
330
252
100
AcDbEntity
  8
$DDT_AUDIT_GENERATED_(60)
  6
Continuous
 62
     7
100
AcDbLine
 10
53.8501699344
 20
236.9949543887
 30
0.0
 11
53.8501699344
 21
255.9500717075
 31
0.0
  0
LINE
  5
25D
330
252
100
AcDbEntity
  8
$DDT_AUDIT_GENERATED_(60)
  6
Continuous
 62
     7
100
AcDbLine
 10
8.8498300656
 20
255.9500717075
 30
0.0
 11
8.8498300656
 21
236.9543231493
 31
0.0
  0
ARC
  5
25E
330
252
100
AcDbEntity
  8
$DDT_AUDIT_GENERATED_(69)
  6
Continuous
 62
     7
100
AcDbCircle
 10
31.3301638957
 20
223.3117100143
 30
0.0
 40
23.94451545942682
100
AcDbArc
 50
152.8849490957
 51
213.6304237659
  0
ARC
  5
25F
330
252
100
AcDbEntity
  8
$DDT_AUDIT_GENERATED_(69)
  6
Continuous
 62
     7
100
AcDbCircle
 10
31.3301638957
 20
223.3117100143
 30
0.0
 40
23.94451545942682
100
AcDbArc
 50
89.9535574672
 51
152.8849490957
  0
ARC
  5
260
330
252
100
AcDbEntity
  8
$DDT_AUDIT_GENERATED_(69)
  6
Continuous
 62
     7
100
AcDbCircle
 10
31.375571328
 20
223.2869745369
 30
0.0
 40
23.83274474856778
100
AcDbArc
 50
269.95993777
 51
90.0401880622
  0
ARC
  5
261
330
252
100
AcDbEntity
  8
$DDT_AUDIT_GENERATED_(69)
  6
Continuous
 62
     7
100
AcDbCircle
 10
31.3817890334
 20
223.3117116884
 30
0.0
 40
23.94452398907442
100
AcDbArc
 50
326.1600003878
 51
27.3974576793
  0
ARC
  5
262
330
252
100
AcDbEntity
  8
$DDT_AUDIT_GENERATED_(69)
  6
Continuous
 62
     7
100
AcDbCircle
 10
31.7030920788
 20
228.4367002402
 30
0.0
 40
23.77708766326676
100
AcDbArc
 50
358.3392490081
 51
90.8301758994
  0
ARC
  5
263
330
252
100
AcDbEntity
  8
$DDT_AUDIT_GENERATED_(69)
  6
Continuous
 62
     7
100
AcDbCircle
 10
31.0138525579
 20
228.4367002402
 30
0.0
 40
23.77709109514842
100
AcDbArc
 50
89.1692535827
 51
181.6602452004
  0
LINE
  5
264
330
252
100
AcDbEntity
  8
$DDT_AUDIT_GENERATED_(69)
  6
Continuous
 62
     7
100
AcDbLine
 10
7.2507485898
 20
227.7478178905
 30
0.0
 11
7.3997000876
 21
222.6711207987
 31
0.0
  0
LINE
  5
265
330
252
100
AcDbEntity
  8
$DDT_AUDIT_GENERATED_(69)
  6
Continuous
 62
     7
100
AcDbLine
 10
55.3175792256
 20
222.6744573162
 30
0.0
 11
55.4664328415
 21
227.7478182838
 31
0.0
  0
ARC
  5
266
330
252
100
AcDbEntity
  8
$DDT_AUDIT_GENERATED_(69)
  6
Continuous
 62
     7
100
AcDbCircle
 10
31.3819144773
 20
223.3205825262
 30
0.0
 40
23.96201751754572
100
AcDbArc
 50
213.5790751253
 51
269.923235557
  0
ARC
  5
267
330
252
100
AcDbEntity
  8
$DDT_AUDIT_GENERATED_(69)
  6
Continuous
 62
     7
100
AcDbCircle
 10
31.3261441986
 20
223.3300051109
 30
0.0
 40
23.97219071763192
100
AcDbArc
 50
270.0779822701
 51
326.1983023744
  0
LINE
  5
268
330
252
100
AcDbEntity
  8
$DDT_AUDIT_GENERATED_(69)
  6
Continuous
 62
     7
100
AcDbLine
 10
36.1111707305
 20
141.9705690283
 30
0.0
 11
36.1111707305
 21
199.8467386689
 31
0.0
  0
LINE
  5
269
330
252
100
AcDbEntity
  8
$DDT_AUDIT_GENERATED_(69)
  6
Continuous
 62
     7
100
AcDbLine
 10
26.6111707305
 20
199.8415967928
 30
0.0
 11
26.6111707305
 21
141.970111889
 31
0.0
  0
SPLINE
  5
26A
330
252
100
AcDbEntity
  8
$DDT_AUDIT_GENERATED_(69)
  6
Continuous
 62
     7
100
AcDbSpline
210
0.0
220
0.0
230
1.0
 70
     8
 71
     3
 72
    46
 73
    42
 74
     0
 42
0.0000000009592482
 43
0.0000000001
 40
0.0
 40
0.0
 40
0.0
 40
0.0
 40
0.015268661126301
 40
0.0312555209698041
 40
0.0474883578798047
 40
0.0648868290953909
 40
0.0846817064058308
 40
0.1086585692204351
 40
0.1388809782648776
 40
0.1699005716777642
 40
0.1992568043017257
 40
0.2302793171098089
 40
0.2601172612015507
 40
0.289112905006531
 40
0.317926241459891
 40
0.3466557195002521
 40
0.3753136257531627
 40
0.4038761017440739
 40
0.4323053773679756
 40
0.4605668997005621
 40
0.4886425248406637
 40
0.5163880051366644
 40
0.544011654210126
 40
0.5719372298640222
 40
0.6001352872294092
 40
0.6285577002238077
 40
0.657144931841861
 40
0.6858399487733046
 40
0.7146053541030364
 40
0.7434144682986055
 40
0.7721421715777176
 40
0.8013503221423317
 40
0.8315149812904904
 40
0.8630080712299926
 40
0.8965710521900875
 40
0.9216122343607809
 40
0.9415082058871796
 40
0.9589798207201822
 40
0.975102956026378
 40
0.9906117428411514
 40
1.0
 40
1.0
 40
1.0
 40
1.0
 10
26.61246940071285
 20
141.9676444920117
 30
0.0
 10
26.61537873813876
 20
141.9156785811981
 30
0.0
 10
26.6212891001805
 20
141.8264382833521
 30
0.0
 10
26.67113475561661
 20
141.6909225345531
 30
0.0
 10
26.7414744727709
 20
141.5754532725184
 30
0.0
 10
26.83064365208106
 20
141.4748134958352
 30
0.0
 10
26.94000842878839
 20
141.384081019128
 30
0.0
 10
27.08042321576117
 20
141.2962082539217
 30
0.0
 10
27.25700079419111
 20
141.2126386812645
 30
0.0
 10
27.46872565531277
 20
141.1352871023546
 30
0.0
 10
27.70980962174376
 20
141.064987200832
 30
0.0
 10
27.97639216302558
 20
141.0019006613733
 30
0.0
 10
28.27083543916673
 20
140.9450629791546
 30
0.0
 10
28.58372282195281
 20
140.8953429913519
 30
0.0
 10
28.91540154880118
 20
140.8518401620614
 30
0.0
 10
29.265908276846
 20
140.8142204159707
 30
0.0
 10
29.63275718064609
 20
140.7825947947879
 30
0.0
 10
30.01278310706687
 20
140.7571524280646
 30
0.0
 10
30.40245328810885
 20
140.7380778085422
 30
0.0
 10
30.79809747291519
 20
140.7255174822656
 30
0.0
 10
31.19540994737032
 20
140.7195641306985
 30
0.0
 10
31.59109784295825
 20
140.7202332716602
 30
0.0
 10
31.98404926964994
 20
140.7272996462832
 30
0.0
 10
32.37391794072384
 20
140.7406870603384
 30
0.0
 10
32.75908554171578
 20
140.7604242034392
 30
0.0
 10
33.13569443717272
 20
140.786446708677
 30
0.0
 10
33.499829456553
 20
140.8186366447885
 30
0.0
 10
33.84772853477548
 20
140.8568442629623
 30
0.0
 10
34.17594321267773
 20
140.9009023734385
 30
0.0
 10
34.48099824291447
 20
140.950662830766
 30
0.0
 10
34.76205621962034
 20
141.0061829499766
 30
0.0
 10
35.02081838010739
 20
141.0680709568834
 30
0.0
 10
35.25966520897892
 20
141.1380475912263
 30
0.0
 10
35.48108500941057
 20
141.2195791004388
 30
0.0
 10
35.66565905977631
 20
141.3089039033551
 30
0.0
 10
35.81283774021517
 20
141.40622684012
 30
0.0
 10
35.92307810178411
 20
141.5057100511981
 30
0.0
 10
36.00994256155314
 20
141.6158723731174
 30
0.0
 10
36.07273568407715
 20
141.7401211153326
 30
0.0
 10
36.10870780267027
 20
141.8654663165788
 30
0.0
 10
36.10718880842335
 20
141.9377067893291
 30
0.0
 10
36.10627801911497
 20
141.9699251268536
 30
0.0
  0
LINE
  5
26B
330
252
100
AcDbEntity
  8
$DDT_AUDIT_GENERATED_(229)
  6
Continuous
 62
     7
100
AcDbLine
 10
33.35
 20
276.8439527275
 30
0.0
 11
33.35
 21
288.2143251435
 31
0.0
  0
LINE
  5
26C
330
252
100
AcDbEntity
  8
$DDT_AUDIT_GENERATED_(229)
  6
Continuous
 62
     7
100
AcDbLine
 10
29.35
 20
288.2143251435
 30
0.0
 11
29.35
 21
276.8439527275
 31
0.0
  0
LINE
  5
26D
330
252
100
AcDbEntity
  8
$DDT_AUDIT_GENERATED_(229)
  6
Continuous
 62
     7
100
AcDbLine
 10
29.35
 20
276.8439527275
 30
0.0
 11
29.35
 21
273.9907831786
 31
0.0
  0
LINE
  5
26E
330
252
100
AcDbEntity
  8
$DDT_AUDIT_GENERATED_(229)
  6
Continuous
 62
     7
100
AcDbLine
 10
33.35
 20
273.9907831786
 30
0.0
 11
33.35
 21
276.8439527275
 31
0.0
  0
LINE
  5
26F
330
252
100
AcDbEntity
  8
$DDT_AUDIT_GENERATED_(229)
  6
Continuous
 62
     7
100
AcDbLine
 10
33.35
 20
268.8806670423
 30
0.0
 11
33.35
 21
273.9907831786
 31
0.0
  0
LINE
  5
270
330
252
100
AcDbEntity
  8
$DDT_AUDIT_GENERATED_(229)
  6
Continuous
 62
     7
100
AcDbLine
 10
29.35
 20
273.9907831786
 30
0.0
 11
29.35
 21
268.881664993
 31
0.0
  0
ARC
  5
271
330
252
100
AcDbEntity
  8
$DDT_AUDIT_GENERATED_(229)
  6
Continuous
 62
     7
100
AcDbCircle
 10
31.35
 20
288.2143251435
 30
0.0
 40
2.000000000000002
100
AcDbArc
 50
0.0
 51
180.0
  0
LINE
  5
273
330
252
100
AcDbEntity
  8
DV3_Default
  6
CENTER2
 62
     7
100
AcDbLine
 10
31.35
 20
235.9500721546
 30
0.0
 11
31.35
 21
275.9500712605
 31
0.0
  0
LINE
  5
274
330
252
100
AcDbEntity
  8
DV3_Default
  6
CENTER2
 62
     7
100
AcDbLine
 10
51.349999553
 20
255.9500717075
 30
0.0
 11
11.350000447
 21
255.9500717075
 31
0.0
  0
LINE
  5
275
330
252
100
AcDbEntity
  8
DV3_Default
  6
CENTER2
 62
     7
100
AcDbLine
 10
31.35
 20
230.9500722663
 30
0.0
 11
31.35
 21
229.6028003842
 31
0.0
  0
LINE
  5
276
330
252
100
AcDbEntity
  8
DV3_Default
  6
CENTER2
 62
     7
100
AcDbLine
 10
56.3499994412
 20
255.9500717075
 30
0.0
 11
57.3501699344
 21
255.9500717075
 31
0.0
  0
LINE
  5
277
330
252
100
AcDbEntity
  8
DV3_Default
  6
CENTER2
 62
     7
100
AcDbLine
 10
31.35
 20
280.9500711487
 30
0.0
 11
31.35
 21
282.2973430309
 31
0.0
  0
LINE
  5
278
330
252
100
AcDbEntity
  8
DV3_Default
  6
CENTER2
 62
     7
100
AcDbLine
 10
6.3500005588
 20
255.9500717075
 30
0.0
 11
5.3498300656
 21
255.9500717075
 31
0.0
  0
ENDBLK
  5
27A
330
252
100
AcDbEntity
  8
0
100
AcDbBlockEnd
  0
ENDSEC
  0
SECTION
  2
ENTITIES
  0
INSERT
  5
5F
330
1F
100
AcDbEntity
  8
Default
100
AcDbBlockReference
  2
SE
 10
0.0
 20
0.0
 30
0.0
  0
INSERT
  5
1FB
330
1F
100
AcDbEntity
  8
Default
100
AcDbBlockReference
  2
SE1
 10
0.0
 20
0.0
 30
0.0
  0
INSERT
  5
253
330
1F
100
AcDbEntity
  8
Default
100
AcDbBlockReference
  2
SE2
 10
0.0
 20
0.0
 30
0.0
  0
TEXT
  5
27C
330
1F
100
AcDbEntity
  8
Default
  6
Continuous
 62
     7
100
AcDbText
 10
5.9362635081
 20
53.4225120485
 30
0.0
 40
10.0
  1
Grohe AG^J
  7
SEACAD_seiso_ttf
 11
5.9362635081
 21
63.4225120485
 31
0.0
100
AcDbText
 73
     3
  0
TEXT
  5
27D
330
1F
100
AcDbEntity
  8
Default
  6
Continuous
 62
     7
100
AcDbText
 10
5.9362635081
 20
37.0588756849
 30
0.0
 40
10.0
  1
 
  7
SEACAD_seiso_ttf
 11
5.9362635081
 21
47.0588756849
 31
0.0
100
AcDbText
 73
     3
  0
TEXT
  5
27E
330
1F
100
AcDbEntity
  8
Default
  6
Continuous
 62
     7
100
AcDbText
 10
5.9362635081
 20
20.6952393213
 30
0.0
 40
10.0
  1
ecn:
  7
SEACAD_seiso_ttf
 11
5.9362635081
 21
30.6952393213
 31
0.0
100
AcDbText
 73
     3
  0
TEXT
  5
27F
330
1F
100
AcDbEntity
  8
Default
  6
Continuous
 62
     7
100
AcDbText
 10
5.9362635081
 20
4.3316029576
 30
0.0
 40
10.0
  1
unit: mm
  7
SEACAD_seiso_ttf
 11
5.9362635081
 21
14.3316029576
 31
0.0
100
AcDbText
 73
     3
  0
LINE
  5
280
330
1F
100
AcDbEntity
  8
Default
  6
Continuous
 62
     7
100
AcDbLine
 10
0.0
 20
0.0
 30
0.0
 11
100.0
 21
0.0
 31
0.0
  0
LINE
  5
281
330
1F
100
AcDbEntity
  8
Default
  6
Continuous
 62
     7
100
AcDbLine
 10
0.0
 20
0.0
 30
0.0
 11
0.0
 21
100.0
 31
0.0
  0
TEXT
  5
282
330
1F
100
AcDbEntity
  8
Default
  6
Continuous
 62
     7
100
AcDbText
 10
24.3923665681
 20
-18.2375342018
 30
0.0
 40
10.0
  1
100 mm
  7
SEACAD_seiso_ttf
 11
24.3923665681
 21
-8.2375342018
 31
0.0
100
AcDbText
 73
     3
  0
TEXT
  5
283
330
1F
100
AcDbEntity
  8
Default
  6
Continuous
 62
     7
100
AcDbText
 10
-7.6150308803
 20
24.6231930421
 30
0.0
 40
10.0
  1
100 mm
 50
90.0
  7
SEACAD_seiso_ttf
 11
-17.6150308803
 21
24.6231930421
 31
0.0
100
AcDbText
 73
     3
  0
TEXT
  5
284
330
1F
100
AcDbEntity
  8
Default
  6
Continuous
 62
     7
100
AcDbText
 10
28.4878128572
 20
20.0907663715
 30
0.0
 40
10.0
  1
230035
  7
SEACAD_seiso_ttf
 11
28.4878128572
 21
30.0907663715
 31
0.0
100
AcDbText
 73
     3
  0
TEXT
  5
285
330
1F
100
AcDbEntity
  8
Default
  6
Continuous
 62
     7
100
AcDbText
 10
5.9012241913
 20
36.7242780188
 30
0.0
 40
10.0
  1
23450001
  7
SEACAD_seiso_ttf
 11
5.9012241913
 21
46.7242780188
 31
0.0
100
AcDbText
 73
     3
  0
ENDSEC
  0
SECTION
  2
OBJECTS
  0
DICTIONARY
  5
C
330
0
100
AcDbDictionary
281
     1
  3
ACAD_GROUP
350
D
  3
ACAD_LAYOUT
350
1A
  3
ACAD_MLEADERSTYLE
350
289
  3
ACAD_MLINESTYLE
350
17
  3
ACAD_PLOTSETTINGS
350
19
  3
ACAD_PLOTSTYLENAME
350
E
  3
ACAD_SCALELIST
350
3B
  3
ACAD_TABLESTYLE
350
288
  3
ACAD_VISUALSTYLE
350
2A
  3
AcDbVariableDictionary
350
286
  0
DICTIONARY
  5
D
102
{ACAD_REACTORS
330
C
102
}
330
C
100
AcDbDictionary
281
     1
  0
DICTIONARY
  5
1A
102
{ACAD_REACTORS
330
C
102
}
330
C
100
AcDbDictionary
281
     1
  3
Layout1
350
1E
  3
Model
350
22
  0
DICTIONARY
  5
289
102
{ACAD_REACTORS
330
C
102
}
330
C
100
AcDbDictionary
281
     1
  0
DICTIONARY
  5
17
102
{ACAD_REACTORS
330
C
102
}
330
C
100
AcDbDictionary
281
     1
  3
Standard
350
18
  0
DICTIONARY
  5
19
102
{ACAD_REACTORS
330
C
102
}
330
C
100
AcDbDictionary
281
     1
  0
ACDBDICTIONARYWDFLT
  5
E
102
{ACAD_REACTORS
330
C
102
}
330
C
100
AcDbDictionary
281
     1
  3
Normal
350
F
100
AcDbDictionaryWithDefault
340
F
  0
DICTIONARY
  5
3B
102
{ACAD_REACTORS
330
C
102
}
330
C
100
AcDbDictionary
281
     1
  3
A0
350
3C
  3
A1
350
3D
  3
A2
350
3E
  3
A3
350
3F
  3
A4
350
40
  3
A5
350
41
  3
A6
350
42
  3
A7
350
43
  3
A8
350
44
  3
A9
350
45
  3
B0
350
46
  3
B1
350
47
  3
B2
350
48
  3
B3
350
49
  3
B4
350
4A
  3
B5
350
4B
  3
B6
350
4C
  3
B7
350
4D
  3
B8
350
4E
  3
B9
350
4F
  3
C0
350
50
  3
C1
350
51
  3
C2
350
52
  3
C3
350
53
  3
C4
350
54
  3
C5
350
55
  3
C6
350
56
  3
C7
350
57
  3
C8
350
58
  3
C9
350
59
  3
D0
350
5A
  3
D1
350
5B
  3
D2
350
5C
  0
DICTIONARY
  5
288
102
{ACAD_REACTORS
330
C
102
}
330
C
100
AcDbDictionary
281
     1
  0
DICTIONARY
  5
2A
102
{ACAD_REACTORS
330
C
102
}
330
C
100
AcDbDictionary
281
     1
  3
2dWireframe
350
2F
  3
3D Hidden
350
31
  3
3dWireframe
350
30
  3
Basic
350
32
  3
Brighten
350
36
  3
ColorChange
350
3A
  3
Conceptual
350
34
  3
Dim
350
35
  3
Facepattern
350
39
  3
Flat
350
2B
  3
FlatWithEdges
350
2C
  3
Gouraud
350
2D
  3
GouraudWithEdges
350
2E
  3
Linepattern
350
38
  3
Realistic
350
33
  3
Thicken
350
37
  0
DICTIONARY
  5
286
102
{ACAD_REACTORS
330
C
102
}
330
C
100
AcDbDictionary
281
     1
  3
CANNOSCALE
350
287
  3
PSOLHEIGHT
350
28B
  3
PSOLWIDTH
350
28A
  0
LAYOUT
  5
1E
102
{ACAD_REACTORS
330
1A
102
}
330
1A
100
AcDbPlotSettings
  1

  2
none_device
  4

  6

 40
0.0
 41
0.0
 42
0.0
 43
0.0
 44
0.0
 45
0.0
 46
0.0
 47
0.0
 48
0.0
 49
0.0
140
0.0
141
0.0
142
1.0
143
1.0
 70
   688
 72
     0
 73
     0
 74
     5
  7

 75
    16
147
1.0
148
0.0
149
0.0
100
AcDbLayout
  1
Layout1
 70
     1
 71
     1
 10
0.0
 20
0.0
 11
3000.0
 21
4500.0
 12
0.0
 22
0.0
 32
0.0
 14
0.0
 24
0.0
 34
0.0
 15
3000.0
 25
4500.0
 35
0.0
146
0.0
 13
0.0
 23
0.0
 33
0.0
 16
1.0
 26
0.0
 36
0.0
 17
0.0
 27
1.0
 37
0.0
 76
     0
330
1B
  0
LAYOUT
  5
22
102
{ACAD_REACTORS
330
1A
102
}
330
1A
100
AcDbPlotSettings
  1

  2
none_device
  4

  6

 40
0.0
 41
0.0
 42
0.0
 43
0.0
 44
0.0
 45
0.0
 46
0.0
 47
0.0
 48
0.0
 49
0.0
140
0.0
141
0.0
142
1.0
143
1.0
 70
  1712
 72
     0
 73
     0
 74
     0
  7

 75
     0
147
1.0
148
0.0
149
0.0
100
AcDbLayout
  1
Model
 70
     1
 71
     0
 10
0.0
 20
0.0
 11
3000.0
 21
4500.0
 12
0.0
 22
0.0
 32
0.0
 14
0.0
 24
0.0
 34
0.0
 15
3000.0
 25
4500.0
 35
0.0
146
0.0
 13
0.0
 23
0.0
 33
0.0
 16
1.0
 26
0.0
 36
0.0
 17
0.0
 27
1.0
 37
0.0
 76
     0
330
1F
331
29
  0
MLINESTYLE
  5
18
102
{ACAD_REACTORS
330
17
102
}
330
17
100
AcDbMlineStyle
  2
Standard
 70
     0
  3

 62
   256
 51
90.0
 52
90.0
 71
     2
 49
0.5
 62
   256
  6
BYLAYER
 49
-0.5
 62
   256
  6
BYLAYER
  0
ACDBPLACEHOLDER
  5
F
102
{ACAD_REACTORS
330
E
102
}
330
E
  0
SCALE
  5
3C
102
{ACAD_REACTORS
330
3B
102
}
330
3B
100
AcDbScale
 70
     0
300
1:1
140
1.0
141
1.0
290
     1
  0
SCALE
  5
3D
102
{ACAD_REACTORS
330
3B
102
}
330
3B
100
AcDbScale
 70
     0
300
1:2
140
1.0
141
2.0
290
     0
  0
SCALE
  5
3E
102
{ACAD_REACTORS
330
3B
102
}
330
3B
100
AcDbScale
 70
     0
300
1:4
140
1.0
141
4.0
290
     0
  0
SCALE
  5
3F
102
{ACAD_REACTORS
330
3B
102
}
330
3B
100
AcDbScale
 70
     0
300
1:5
140
1.0
141
5.0
290
     0
  0
SCALE
  5
40
102
{ACAD_REACTORS
330
3B
102
}
330
3B
100
AcDbScale
 70
     0
300
1:8
140
1.0
141
8.0
290
     0
  0
SCALE
  5
41
102
{ACAD_REACTORS
330
3B
102
}
330
3B
100
AcDbScale
 70
     0
300
1:10
140
1.0
141
10.0
290
     0
  0
SCALE
  5
42
102
{ACAD_REACTORS
330
3B
102
}
330
3B
100
AcDbScale
 70
     0
300
1:16
140
1.0
141
16.0
290
     0
  0
SCALE
  5
43
102
{ACAD_REACTORS
330
3B
102
}
330
3B
100
AcDbScale
 70
     0
300
1:20
140
1.0
141
20.0
290
     0
  0
SCALE
  5
44
102
{ACAD_REACTORS
330
3B
102
}
330
3B
100
AcDbScale
 70
     0
300
1:30
140
1.0
141
30.0
290
     0
  0
SCALE
  5
45
102
{ACAD_REACTORS
330
3B
102
}
330
3B
100
AcDbScale
 70
     0
300
1:40
140
1.0
141
40.0
290
     0
  0
SCALE
  5
46
102
{ACAD_REACTORS
330
3B
102
}
330
3B
100
AcDbScale
 70
     0
300
1:50
140
1.0
141
50.0
290
     0
  0
SCALE
  5
47
102
{ACAD_REACTORS
330
3B
102
}
330
3B
100
AcDbScale
 70
     0
300
1:100
140
1.0
141
100.0
290
     0
  0
SCALE
  5
48
102
{ACAD_REACTORS
330
3B
102
}
330
3B
100
AcDbScale
 70
     0
300
2:1
140
2.0
141
1.0
290
     0
  0
SCALE
  5
49
102
{ACAD_REACTORS
330
3B
102
}
330
3B
100
AcDbScale
 70
     0
300
4:1
140
4.0
141
1.0
290
     0
  0
SCALE
  5
4A
102
{ACAD_REACTORS
330
3B
102
}
330
3B
100
AcDbScale
 70
     0
300
8:1
140
8.0
141
1.0
290
     0
  0
SCALE
  5
4B
102
{ACAD_REACTORS
330
3B
102
}
330
3B
100
AcDbScale
 70
     0
300
10:1
140
10.0
141
1.0
290
     0
  0
SCALE
  5
4C
102
{ACAD_REACTORS
330
3B
102
}
330
3B
100
AcDbScale
 70
     0
300
100:1
140
100.0
141
1.0
290
     0
  0
SCALE
  5
4D
102
{ACAD_REACTORS
330
3B
102
}
330
3B
100
AcDbScale
 70
     0
300
1/128" = 1'-0"
140
0.0078125
141
12.0
290
     0
  0
SCALE
  5
4E
102
{ACAD_REACTORS
330
3B
102
}
330
3B
100
AcDbScale
 70
     0
300
1/64" = 1'-0"
140
0.015625
141
12.0
290
     0
  0
SCALE
  5
4F
102
{ACAD_REACTORS
330
3B
102
}
330
3B
100
AcDbScale
 70
     0
300
1/32" = 1'-0"
140
0.03125
141
12.0
290
     0
  0
SCALE
  5
50
102
{ACAD_REACTORS
330
3B
102
}
330
3B
100
AcDbScale
 70
     0
300
1/16" = 1'-0"
140
0.0625
141
12.0
290
     0
  0
SCALE
  5
51
102
{ACAD_REACTORS
330
3B
102
}
330
3B
100
AcDbScale
 70
     0
300
3/32" = 1'-0"
140
0.09375
141
12.0
290
     0
  0
SCALE
  5
52
102
{ACAD_REACTORS
330
3B
102
}
330
3B
100
AcDbScale
 70
     0
300
1/8" = 1'-0"
140
0.125
141
12.0
290
     0
  0
SCALE
  5
53
102
{ACAD_REACTORS
330
3B
102
}
330
3B
100
AcDbScale
 70
     0
300
3/16" = 1'-0"
140
0.1875
141
12.0
290
     0
  0
SCALE
  5
54
102
{ACAD_REACTORS
330
3B
102
}
330
3B
100
AcDbScale
 70
     0
300
1/4" = 1'-0"
140
0.25
141
12.0
290
     0
  0
SCALE
  5
55
102
{ACAD_REACTORS
330
3B
102
}
330
3B
100
AcDbScale
 70
     0
300
3/8" = 1'-0"
140
0.375
141
12.0
290
     0
  0
SCALE
  5
56
102
{ACAD_REACTORS
330
3B
102
}
330
3B
100
AcDbScale
 70
     0
300
1/2" = 1'-0"
140
0.5
141
12.0
290
     0
  0
SCALE
  5
57
102
{ACAD_REACTORS
330
3B
102
}
330
3B
100
AcDbScale
 70
     0
300
3/4" = 1'-0"
140
0.75
141
12.0
290
     0
  0
SCALE
  5
58
102
{ACAD_REACTORS
330
3B
102
}
330
3B
100
AcDbScale
 70
     0
300
1" = 1'-0"
140
1.0
141
12.0
290
     0
  0
SCALE
  5
59
102
{ACAD_REACTORS
330
3B
102
}
330
3B
100
AcDbScale
 70
     0
300
1-1/2" = 1'-0"
140
1.5
141
12.0
290
     0
  0
SCALE
  5
5A
102
{ACAD_REACTORS
330
3B
102
}
330
3B
100
AcDbScale
 70
     0
300
3" = 1'-0"
140
3.0
141
12.0
290
     0
  0
SCALE
  5
5B
102
{ACAD_REACTORS
330
3B
102
}
330
3B
100
AcDbScale
 70
     0
300
6" = 1'-0"
140
6.0
141
12.0
290
     0
  0
SCALE
  5
5C
102
{ACAD_REACTORS
330
3B
102
}
330
3B
100
AcDbScale
 70
     0
300
1'-0" = 1'-0"
140
12.0
141
12.0
290
     0
  0
VISUALSTYLE
  5
2F
102
{ACAD_REACTORS
330
2A
102
}
330
2A
100
AcDbVisualStyle
  2
2dWireframe
 70
     4
 71
     0
 72
     2
 73
     0
 90
        0
 40
-0.6
 41
-30.0
 62
     5
 63
     7
 74
     1
 91
        4
 64
     7
 65
   257
 75
     1
175
     1
 42
1.0
 92
        0
 66
   257
 43
1.0
 76
     1
 77
     6
 78
     2
 67
     7
 79
     5
170
     0
171
     0
290
     0
174
     0
 93
        1
 44
0.0
173
     0
291
     0
 45
0.0
1001
ACAD
1000
AcDbSavedByObjectVersion
1070
     0
  0
VISUALSTYLE
  5
31
102
{ACAD_REACTORS
330
2A
102
}
330
2A
100
AcDbVisualStyle
  2
3D Hidden
 70
     6
 71
     1
 72
     2
 73
     2
 90
        0
 40
-0.6
 41
-30.0
 62
     5
 63
     7
 74
     2
 91
        2
 64
     7
 65
   257
 75
     2
175
     1
 42
40.0
 92
        0
 66
   257
 43
1.0
 76
     1
 77
     6
 78
     2
 67
     7
 79
     3
170
     0
171
     0
290
     0
174
     0
 93
        1
 44
0.0
173
     0
291
     0
 45
0.0
1001
ACAD
1000
AcDbSavedByObjectVersion
1070
     0
  0
VISUALSTYLE
  5
30
102
{ACAD_REACTORS
330
2A
102
}
330
2A
100
AcDbVisualStyle
  2
3dWireframe
 70
     5
 71
     0
 72
     2
 73
     0
 90
        0
 40
-0.6
 41
-30.0
 62
     5
 63
     7
 74
     1
 91
        4
 64
     7
 65
   257
 75
     1
175
     1
 42
1.0
 92
        0
 66
   257
 43
1.0
 76
     1
 77
     6
 78
     2
 67
     7
 79
     5
170
     0
171
     0
290
     0
174
     0
 93
        1
 44
0.0
173
     0
291
     0
 45
0.0
1001
ACAD
1000
AcDbSavedByObjectVersion
1070
     0
  0
VISUALSTYLE
  5
32
102
{ACAD_REACTORS
330
2A
102
}
330
2A
100
AcDbVisualStyle
  2
Basic
 70
     7
 71
     1
 72
     0
 73
     1
 90
        0
 40
-0.6
 41
-30.0
 62
     5
 63
     7
 74
     0
 91
        4
 64
     7
 65
   257
 75
     1
175
     1
 42
1.0
 92
        8
 66
     7
 43
1.0
 76
     1
 77
     6
 78
     2
 67
     7
 79
     5
170
     0
171
     0
290
     0
174
     0
 93
        1
 44
0.0
173
     0
291
     1
 45
0.0
1001
ACAD
1000
AcDbSavedByObjectVersion
1070
     0
  0
VISUALSTYLE
  5
36
102
{ACAD_REACTORS
330
2A
102
}
330
2A
100
AcDbVisualStyle
  2
Brighten
 70
    12
 71
     2
 72
     2
 73
     0
 90
        0
 40
-0.6
 41
-30.0
 62
     5
 63
     7
 74
     1
 91
        4
 64
     7
 65
   257
 75
     1
175
     1
 42
1.0
 92
        8
 66
     7
 43
1.0
 76
     1
 77
     6
 78
     2
 67
     7
 79
     5
170
     0
171
     0
290
     0
174
     0
 93
        1
 44
50.0
173
     0
291
     1
 45
0.0
1001
ACAD
1000
AcDbSavedByObjectVersion
1070
     0
  0
VISUALSTYLE
  5
3A
102
{ACAD_REACTORS
330
2A
102
}
330
2A
100
AcDbVisualStyle
  2
ColorChange
 70
    16
 71
     2
 72
     2
 73
     3
 90
        0
 40
-0.6
 41
-30.0
 62
     5
 63
     8
 74
     1
 91
        4
 64
     7
 65
   257
 75
     1
175
     1
 42
1.0
 92
        8
 66
     8
 43
1.0
 76
     1
 77
     6
 78
     2
 67
     7
 79
     5
170
     0
171
     0
290
     0
174
     0
 93
        1
 44
0.0
173
     0
291
     1
 45
0.0
1001
ACAD
1000
AcDbSavedByObjectVersion
1070
     0
  0
VISUALSTYLE
  5
34
102
{ACAD_REACTORS
330
2A
102
}
330
2A
100
AcDbVisualStyle
  2
Conceptual
 70
     9
 71
     3
 72
     2
 73
     0
 90
        0
 40
-0.6
 41
-30.0
 62
     5
 63
     7
 74
     2
 91
        2
 64
     7
 65
   257
 75
     1
175
     1
 42
40.0
 92
        8
 66
     7
 43
1.0
 76
     1
 77
     6
 78
     2
 67
     7
 79
     3
170
     0
171
     0
290
     0
174
     0
 93
        1
 44
0.0
173
     0
291
     0
 45
0.0
1001
ACAD
1000
AcDbSavedByObjectVersion
1070
     0
  0
VISUALSTYLE
  5
35
102
{ACAD_REACTORS
330
2A
102
}
330
2A
100
AcDbVisualStyle
  2
Dim
 70
    11
 71
     2
 72
     2
 73
     0
 90
        0
 40
-0.6
 41
-30.0
 62
     5
 63
     7
 74
     1
 91
        4
 64
     7
 65
   257
 75
     1
175
     1
 42
1.0
 92
        8
 66
     7
 43
1.0
 76
     1
 77
     6
 78
     2
 67
     7
 79
     5
170
     0
171
     0
290
     0
174
     0
 93
        1
 44
-50.0
173
     0
291
     1
 45
0.0
1001
ACAD
1000
AcDbSavedByObjectVersion
1070
     0
  0
VISUALSTYLE
  5
39
102
{ACAD_REACTORS
330
2A
102
}
330
2A
100
AcDbVisualStyle
  2
Facepattern
 70
    15
 71
     2
 72
     2
 73
     0
 90
        0
 40
-0.6
 41
-30.0
 62
     5
 63
     7
 74
     1
 91
        4
 64
     7
 65
   257
 75
     1
175
     1
 42
1.0
 92
        8
 66
     7
 43
1.0
 76
     1
 77
     6
 78
     2
 67
     7
 79
     5
170
     0
171
     0
290
     0
174
     0
 93
        1
 44
0.0
173
     0
291
     1
 45
0.0
1001
ACAD
1000
AcDbSavedByObjectVersion
1070
     0
  0
VISUALSTYLE
  5
2B
102
{ACAD_REACTORS
330
2A
102
}
330
2A
100
AcDbVisualStyle
  2
Flat
 70
     0
 71
     2
 72
     1
 73
     1
 90
        2
 40
-0.6
 41
30.0
 62
     5
 63
     7
 74
     0
 91
        4
 64
     7
 65
   257
 75
     1
175
     1
 42
1.0
 92
        8
 66
     7
 43
1.0
 76
     1
 77
     6
 78
     2
 67
     7
 79
     5
170
     0
171
     0
290
     0
174
     0
 93
       13
 44
0.0
173
     0
291
     1
 45
0.0
1001
ACAD
1000
AcDbSavedByObjectVersion
1070
     0
  0
VISUALSTYLE
  5
2C
102
{ACAD_REACTORS
330
2A
102
}
330
2A
100
AcDbVisualStyle
  2
FlatWithEdges
 70
     1
 71
     2
 72
     1
 73
     1
 90
        2
 40
-0.6
 41
30.0
 62
     5
 63
     7
 74
     1
 91
        4
 64
     7
 65
   257
 75
     1
175
     1
 42
1.0
 92
        0
 66
   257
 43
1.0
 76
     1
 77
     6
 78
     2
 67
     7
 79
     5
170
     0
171
     0
290
     0
174
     0
 93
       13
 44
0.0
173
     0
291
     1
 45
0.0
1001
ACAD
1000
AcDbSavedByObjectVersion
1070
     0
  0
VISUALSTYLE
  5
2D
102
{ACAD_REACTORS
330
2A
102
}
330
2A
100
AcDbVisualStyle
  2
Gouraud
 70
     2
 71
     2
 72
     2
 73
     1
 90
        2
 40
-0.6
 41
30.0
 62
     5
 63
     7
 74
     0
 91
        4
 64
     7
 65
   257
 75
     1
175
     1
 42
1.0
 92
        0
 66
     7
 43
1.0
 76
     1
 77
     6
 78
     2
 67
     7
 79
     5
170
     0
171
     0
290
     0
174
     0
 93
       13
 44
0.0
173
     0
291
     1
 45
0.0
1001
ACAD
1000
AcDbSavedByObjectVersion
1070
     0
  0
VISUALSTYLE
  5
2E
102
{ACAD_REACTORS
330
2A
102
}
330
2A
100
AcDbVisualStyle
  2
GouraudWithEdges
 70
     3
 71
     2
 72
     2
 73
     1
 90
        2
 40
-0.6
 41
30.0
 62
     5
 63
     7
 74
     1
 91
        4
 64
     7
 65
   257
 75
     1
175
     1
 42
1.0
 92
        0
 66
   257
 43
1.0
 76
     1
 77
     6
 78
     2
 67
     7
 79
     5
170
     0
171
     0
290
     0
174
     0
 93
       13
 44
0.0
173
     0
291
     1
 45
0.0
1001
ACAD
1000
AcDbSavedByObjectVersion
1070
     0
  0
VISUALSTYLE
  5
38
102
{ACAD_REACTORS
330
2A
102
}
330
2A
100
AcDbVisualStyle
  2
Linepattern
 70
    14
 71
     2
 72
     2
 73
     0
 90
        0
 40
-0.6
 41
-30.0
 62
     5
 63
     7
 74
     1
 91
        4
 64
     7
 65
   257
 75
     7
175
     7
 42
1.0
 92
        8
 66
     7
 43
1.0
 76
     1
 77
     6
 78
     2
 67
     7
 79
     5
170
     0
171
     0
290
     0
174
     0
 93
        1
 44
0.0
173
     0
291
     1
 45
0.0
1001
ACAD
1000
AcDbSavedByObjectVersion
1070
     0
  0
VISUALSTYLE
  5
33
102
{ACAD_REACTORS
330
2A
102
}
330
2A
100
AcDbVisualStyle
  2
Realistic
 70
     8
 71
     2
 72
     2
 73
     0
 90
        0
 40
-0.6
 41
-30.0
 62
     5
 63
     7
 74
     1
 91
        0
 64
     7
 65
   257
 75
     1
175
     1
 42
1.0
 92
        8
 66
     8
 43
1.0
 76
     1
 77
     6
 78
     2
 67
     7
 79
     5
170
     0
171
     0
290
     0
174
     0
 93
       13
 44
0.0
173
     0
291
     0
 45
0.0
1001
ACAD
1000
AcDbSavedByObjectVersion
1070
     0
  0
VISUALSTYLE
  5
37
102
{ACAD_REACTORS
330
2A
102
}
330
2A
100
AcDbVisualStyle
  2
Thicken
 70
    13
 71
     2
 72
     2
 73
     0
 90
        0
 40
-0.6
 41
-30.0
 62
     5
 63
     7
 74
     1
 91
        4
 64
     7
 65
   257
 75
     1
175
     1
 42
1.0
 92
       12
 66
     7
 43
1.0
 76
     1
 77
     6
 78
     2
 67
     7
 79
     5
170
     0
171
     0
290
     0
174
     0
 93
        1
 44
0.0
173
     0
291
     1
 45
0.0
1001
ACAD
1000
AcDbSavedByObjectVersion
1070
     0
  0
DICTIONARYVAR
  5
287
102
{ACAD_REACTORS
330
286
102
}
330
286
100
DictionaryVariables
280
     0
  1
1:1
  0
DICTIONARYVAR
  5
28B
102
{ACAD_REACTORS
330
286
102
}
330
286
100
DictionaryVariables
280
     0
  1
80.000000
  0
DICTIONARYVAR
  5
28A
102
{ACAD_REACTORS
330
286
102
}
330
286
100
DictionaryVariables
280
     0
  1
5.000000
  0
ENDSEC
  0
EOF
