  0
SECTION
  2
HEADER
  9
$ACADVER
  1
AC1015
  9
$ACADMAINTVER
 70
     6
  9
$DWGCODEPAGE
  3
ANSI_1252
  9
$INSBASE
 10
0.0
 20
0.0
 30
0.0
  9
$EXTMIN
 10
0.0
 20
0.0
 30
0.0
  9
$EXTMAX
 10
3000.0
 20
4500.0
 30
0.0
  9
$LIMMIN
 10
0.0
 20
0.0
  9
$LIMMAX
 10
3000.0
 20
4500.0
  9
$ORTHOMODE
 70
     0
  9
$REGENMODE
 70
     1
  9
$FILLMODE
 70
     1
  9
$QTEXTMODE
 70
     0
  9
$MIRRTEXT
 70
     1
  9
$LTSCALE
 40
1.0
  9
$ATTMODE
 70
     1
  9
$TEXTSIZE
 40
2.5
  9
$TRACEWID
 40
1.0
  9
$TEXTSTYLE
  7
Standard
  9
$CLAYER
  8
0
  9
$CELTYPE
  6
ByLayer
  9
$CECOLOR
 62
   256
  9
$CELTSCALE
 40
1.0
  9
$DISPSILH
 70
     0
  9
$DIMSCALE
 40
1.0
  9
$DIMASZ
 40
2.5
  9
$DIMEXO
 40
0.625
  9
$DIMDLI
 40
3.75
  9
$DIMRND
 40
0.0
  9
$DIMDLE
 40
0.0
  9
$DIMEXE
 40
1.25
  9
$DIMTP
 40
0.0
  9
$DIMTM
 40
0.0
  9
$DIMTXT
 40
2.5
  9
$DIMCEN
 40
2.5
  9
$DIMTSZ
 40
0.0
  9
$DIMTOL
 70
     0
  9
$DIMLIM
 70
     0
  9
$DIMTIH
 70
     0
  9
$DIMTOH
 70
     0
  9
$DIMSE1
 70
     0
  9
$DIMSE2
 70
     0
  9
$DIMTAD
 70
     1
  9
$DIMZIN
 70
     8
  9
$DIMBLK
  1

  9
$DIMASO
 70
     1
  9
$DIMSHO
 70
     1
  9
$DIMPOST
  1

  9
$DIMAPOST
  1

  9
$DIMALT
 70
     0
  9
$DIMALTD
 70
     3
  9
$DIMALTF
 40
0.0393700787
  9
$DIMLFAC
 40
1.0
  9
$DIMTOFL
 70
     1
  9
$DIMTVP
 40
0.0
  9
$DIMTIX
 70
     0
  9
$DIMSOXD
 70
     0
  9
$DIMSAH
 70
     0
  9
$DIMBLK1
  1

  9
$DIMBLK2
  1

  9
$DIMSTYLE
  2
ISO-25
  9
$DIMCLRD
 70
     0
  9
$DIMCLRE
 70
     0
  9
$DIMCLRT
 70
     0
  9
$DIMTFAC
 40
1.0
  9
$DIMGAP
 40
0.625
  9
$DIMJUST
 70
     0
  9
$DIMSD1
 70
     0
  9
$DIMSD2
 70
     0
  9
$DIMTOLJ
 70
     0
  9
$DIMTZIN
 70
     8
  9
$DIMALTZ
 70
     0
  9
$DIMALTTZ
 70
     0
  9
$DIMUPT
 70
     0
  9
$DIMDEC
 70
     2
  9
$DIMTDEC
 70
     2
  9
$DIMALTU
 70
     2
  9
$DIMALTTD
 70
     3
  9
$DIMTXSTY
  7
Standard
  9
$DIMAUNIT
 70
     0
  9
$DIMADEC
 70
     0
  9
$DIMALTRND
 40
0.0
  9
$DIMAZIN
 70
     0
  9
$DIMDSEP
 70
    44
  9
$DIMATFIT
 70
     3
  9
$DIMFRAC
 70
     0
  9
$DIMLDRBLK
  1

  9
$DIMLUNIT
 70
     2
  9
$DIMLWD
 70
    -2
  9
$DIMLWE
 70
    -2
  9
$DIMTMOVE
 70
     0
  9
$LUNITS
 70
     2
  9
$LUPREC
 70
     4
  9
$SKETCHINC
 40
1.0
  9
$FILLETRAD
 40
10.0
  9
$AUNITS
 70
     0
  9
$AUPREC
 70
     0
  9
$MENU
  1
.
  9
$ELEVATION
 40
0.0
  9
$PELEVATION
 40
0.0
  9
$THICKNESS
 40
0.0
  9
$LIMCHECK
 70
     0
  9
$CHAMFERA
 40
10.0
  9
$CHAMFERB
 40
10.0
  9
$CHAMFERC
 40
20.0
  9
$CHAMFERD
 40
0.0
  9
$SKPOLY
 70
     0
  9
$TDCREATE
 40
2456602.37493316
  9
$TDUCREATE
 40
2456602.333266493
  9
$TDUPDATE
 40
2456602.374933171
  9
$TDUUPDATE
 40
2456602.333266505
  9
$TDINDWG
 40
0.0000000116
  9
$TDUSRTIMER
 40
0.0000000116
  9
$USRTIMER
 70
     1
  9
$ANGBASE
 50
0.0
  9
$ANGDIR
 70
     0
  9
$PDMODE
 70
     0
  9
$PDSIZE
 40
0.0
  9
$PLINEWID
 40
0.0
  9
$SPLFRAME
 70
     0
  9
$SPLINETYPE
 70
     6
  9
$SPLINESEGS
 70
     8
  9
$HANDSEED
  5
1E8
  9
$SURFTAB1
 70
     6
  9
$SURFTAB2
 70
     6
  9
$SURFTYPE
 70
     6
  9
$SURFU
 70
     6
  9
$SURFV
 70
     6
  9
$UCSBASE
  2

  9
$UCSNAME
  2

  9
$UCSORG
 10
0.0
 20
0.0
 30
0.0
  9
$UCSXDIR
 10
1.0
 20
0.0
 30
0.0
  9
$UCSYDIR
 10
0.0
 20
1.0
 30
0.0
  9
$UCSORTHOREF
  2

  9
$UCSORTHOVIEW
 70
     0
  9
$UCSORGTOP
 10
0.0
 20
0.0
 30
0.0
  9
$UCSORGBOTTOM
 10
0.0
 20
0.0
 30
0.0
  9
$UCSORGLEFT
 10
0.0
 20
0.0
 30
0.0
  9
$UCSORGRIGHT
 10
0.0
 20
0.0
 30
0.0
  9
$UCSORGFRONT
 10
0.0
 20
0.0
 30
0.0
  9
$UCSORGBACK
 10
0.0
 20
0.0
 30
0.0
  9
$PUCSBASE
  2

  9
$PUCSNAME
  2

  9
$PUCSORG
 10
0.0
 20
0.0
 30
0.0
  9
$PUCSXDIR
 10
1.0
 20
0.0
 30
0.0
  9
$PUCSYDIR
 10
0.0
 20
1.0
 30
0.0
  9
$PUCSORTHOREF
  2

  9
$PUCSORTHOVIEW
 70
     0
  9
$PUCSORGTOP
 10
0.0
 20
0.0
 30
0.0
  9
$PUCSORGBOTTOM
 10
0.0
 20
0.0
 30
0.0
  9
$PUCSORGLEFT
 10
0.0
 20
0.0
 30
0.0
  9
$PUCSORGRIGHT
 10
0.0
 20
0.0
 30
0.0
  9
$PUCSORGFRONT
 10
0.0
 20
0.0
 30
0.0
  9
$PUCSORGBACK
 10
0.0
 20
0.0
 30
0.0
  9
$USERI1
 70
     0
  9
$USERI2
 70
     0
  9
$USERI3
 70
     0
  9
$USERI4
 70
     0
  9
$USERI5
 70
     0
  9
$USERR1
 40
0.0
  9
$USERR2
 40
0.0
  9
$USERR3
 40
0.0
  9
$USERR4
 40
0.0
  9
$USERR5
 40
0.0
  9
$WORLDVIEW
 70
     1
  9
$SHADEDGE
 70
     3
  9
$SHADEDIF
 70
    70
  9
$TILEMODE
 70
     1
  9
$MAXACTVP
 70
    64
  9
$PINSBASE
 10
0.0
 20
0.0
 30
0.0
  9
$PLIMCHECK
 70
     0
  9
$PEXTMIN
 10
0.0
 20
0.0
 30
0.0
  9
$PEXTMAX
 10
3000.0
 20
4500.0
 30
0.0
  9
$PLIMMIN
 10
0.0
 20
0.0
  9
$PLIMMAX
 10
3000.0
 20
4500.0
  9
$UNITMODE
 70
     0
  9
$VISRETAIN
 70
     1
  9
$PLINEGEN
 70
     0
  9
$PSLTSCALE
 70
     1
  9
$TREEDEPTH
 70
  3020
  9
$CMLSTYLE
  2
Standard
  9
$CMLJUST
 70
     0
  9
$CMLSCALE
 40
20.0
  9
$PROXYGRAPHICS
 70
     1
  9
$MEASUREMENT
 70
     1
  9
$CELWEIGHT
370
    -1
  9
$ENDCAPS
280
     0
  9
$JOINSTYLE
280
     0
  9
$LWDISPLAY
290
     0
  9
$INSUNITS
 70
     4
  9
$HYPERLINKBASE
  1

  9
$STYLESHEET
  1

  9
$XEDIT
290
     1
  9
$CEPSNTYPE
380
     0
  9
$PSTYLEMODE
290
     1
  9
$FINGERPRINTGUID
  2
{54A8F314-C274-46E3-8486-F165B202BFE7}
  9
$VERSIONGUID
  2
{FAEB1C32-E019-11D5-929B-00C0DF256EC4}
  9
$EXTNAMES
290
     1
  9
$PSVPSCALE
 40
0.0
  9
$OLESTARTUP
290
     0
  0
ENDSEC
  0
SECTION
  2
CLASSES
  0
CLASS
  1
ACDBDICTIONARYWDFLT
  2
AcDbDictionaryWithDefault
  3
ObjectDBX Classes
 90
        0
280
     0
281
     0
  0
CLASS
  1
VISUALSTYLE
  2
AcDbVisualStyle
  3
ObjectDBX Classes
 90
     4095
280
     0
281
     0
  0
CLASS
  1
SCALE
  2
AcDbScale
  3
ObjectDBX Classes
 90
     1153
280
     0
281
     0
  0
CLASS
  1
DICTIONARYVAR
  2
AcDbDictionaryVar
  3
ObjectDBX Classes
 90
        0
280
     0
281
     0
  0
CLASS
  1
ACDBPLACEHOLDER
  2
AcDbPlaceHolder
  3
ObjectDBX Classes
 90
        0
280
     0
281
     0
  0
CLASS
  1
LAYOUT
  2
AcDbLayout
  3
ObjectDBX Classes
 90
        0
280
     0
281
     0
  0
ENDSEC
  0
SECTION
  2
TABLES
  0
TABLE
  2
VPORT
  5
8
330
0
100
AcDbSymbolTable
 70
     1
  0
VPORT
  5
29
330
8
100
AcDbSymbolTableRecord
100
AcDbViewportTableRecord
  2
*Active
 70
     0
 10
0.0
 20
0.0
 11
1.0
 21
1.0
 12
344.1869158879
 22
148.5
 13
0.0
 23
0.0
 14
10.0
 24
10.0
 15
10.0
 25
10.0
 16
0.0
 26
0.0
 36
1.0
 17
0.0
 27
0.0
 37
0.0
 40
297.0
 41
1.9729729729
 42
50.0
 43
0.0
 44
0.0
 50
0.0
 51
0.0
 71
     0
 72
   100
 73
     1
 74
     3
 75
     0
 76
     0
 77
     0
 78
     0
281
     0
 65
     1
110
0.0
120
0.0
130
0.0
111
1.0
121
0.0
131
0.0
112
0.0
122
1.0
132
0.0
 79
     0
146
0.0
  0
ENDTAB
  0
TABLE
  2
LTYPE
  5
5
330
0
100
AcDbSymbolTable
 70
     2
  0
LTYPE
  5
14
330
5
100
AcDbSymbolTableRecord
100
AcDbLinetypeTableRecord
  2
ByBlock
 70
     0
  3

 72
    65
 73
     0
 40
0.0
  0
LTYPE
  5
15
330
5
100
AcDbSymbolTableRecord
100
AcDbLinetypeTableRecord
  2
ByLayer
 70
     0
  3

 72
    65
 73
     0
 40
0.0
  0
LTYPE
  5
16
330
5
100
AcDbSymbolTableRecord
100
AcDbLinetypeTableRecord
  2
Continuous
 70
     0
  3
Solid line
 72
    65
 73
     0
 40
0.0
  0
LTYPE
  5
154
330
5
100
AcDbSymbolTableRecord
100
AcDbLinetypeTableRecord
  2
CENTER2
 70
     0
  3
Center (.5x) ___ _ ___ _ ___ _ ___ _ ___ _ ___
 72
    65
 73
     4
 40
28.575
 49
19.05
 74
     4
 75
     0
340
0
 46
0.0
 50
0.0
 44
0.0
 45
0.0
 49
-3.175
 74
     4
 75
     0
340
0
 46
0.0
 50
0.0
 44
0.0
 45
0.0
 49
3.175
 74
     4
 75
     0
340
0
 46
0.0
 50
0.0
 44
0.0
 45
0.0
 49
-3.175
 74
     4
 75
     0
340
0
 46
0.0
 50
0.0
 44
0.0
 45
0.0
  0
ENDTAB
  0
TABLE
  2
LAYER
  5
2
330
0
100
AcDbSymbolTable
 70
    14
  0
LAYER
  5
10
330
2
100
AcDbSymbolTableRecord
100
AcDbLayerTableRecord
  2
0
 70
     0
 62
     7
  6
Continuous
370
    -3
390
F
  0
LAYER
  5
5D
330
2
100
AcDbSymbolTableRecord
100
AcDbLayerTableRecord
  2
Default
 70
     0
 62
     7
  6
Continuous
370
    -3
390
F
  0
LAYER
  5
60
330
2
100
AcDbSymbolTableRecord
100
AcDbLayerTableRecord
  2
405647038_AUSLAU
 70
     0
 62
     7
  6
Continuous
370
    -3
390
F
  0
LAYER
  5
6D
330
2
100
AcDbSymbolTableRecord
100
AcDbLayerTableRecord
  2
$DDT_AUDIT_GENERATED_(6D)
 70
     0
 62
     7
  6
Continuous
370
    -3
390
F
  0
LAYER
  5
7B
330
2
100
AcDbSymbolTableRecord
100
AcDbLayerTableRecord
  2
08664131_STOPFEN
 70
     0
 62
     7
  6
Continuous
370
    -3
390
F
  0
LAYER
  5
83
330
2
100
AcDbSymbolTableRecord
100
AcDbLayerTableRecord
  2
$DDT_AUDIT_GENERATED_(83)
 70
     0
 62
     7
  6
Continuous
370
    -3
390
F
  0
LAYER
  5
88
330
2
100
AcDbSymbolTableRecord
100
AcDbLayerTableRecord
  2
$DDT_AUDIT_GENERATED_(88)
 70
     0
 62
     7
  6
Continuous
370
    -3
390
F
  0
LAYER
  5
146
330
2
100
AcDbSymbolTableRecord
100
AcDbLayerTableRecord
  2
06972038_HEBEL_E
 70
     0
 62
     7
  6
Continuous
370
    -3
390
F
  0
LAYER
  5
153
330
2
100
AcDbSymbolTableRecord
100
AcDbLayerTableRecord
  2
DV1_Default
 70
     0
 62
     7
  6
Continuous
370
    -3
390
F
  0
LAYER
  5
16C
330
2
100
AcDbSymbolTableRecord
100
AcDbLayerTableRecord
  2
$DDT_AUDIT_GENERATED_(16C)
 70
     0
 62
     7
  6
Continuous
370
    -3
390
F
  0
LAYER
  5
178
330
2
100
AcDbSymbolTableRecord
100
AcDbLayerTableRecord
  2
64927031_SCHABL_
 70
     0
 62
     7
  6
Continuous
370
    -3
390
F
  0
LAYER
  5
1A0
330
2
100
AcDbSymbolTableRecord
100
AcDbLayerTableRecord
  2
$DDT_AUDIT_GENERATED_(1A0)
 70
     0
 62
     7
  6
Continuous
370
    -3
390
F
  0
LAYER
  5
1A3
330
2
100
AcDbSymbolTableRecord
100
AcDbLayerTableRecord
  2
DV2_Default
 70
     0
 62
     7
  6
Continuous
370
    -3
390
F
  0
LAYER
  5
1CE
330
2
100
AcDbSymbolTableRecord
100
AcDbLayerTableRecord
  2
DV3_Default
 70
     0
 62
     7
  6
Continuous
370
    -3
390
F
  0
ENDTAB
  0
TABLE
  2
STYLE
  5
3
330
0
100
AcDbSymbolTable
 70
     2
  0
STYLE
  5
11
330
3
100
AcDbSymbolTableRecord
100
AcDbTextStyleTableRecord
  2
Standard
 70
     0
 40
0.0
 41
1.0
 50
0.0
 71
     0
 42
2.5
  3
txt
  4

  0
STYLE
  5
1D7
330
3
100
AcDbSymbolTableRecord
100
AcDbTextStyleTableRecord
  2
SEACAD_seiso_ttf
 70
     0
 40
0.0
 41
1.0
 50
0.0
 71
     0
 42
0.2
  3
seiso.ttf
  4

  0
ENDTAB
  0
TABLE
  2
VIEW
  5
6
330
0
100
AcDbSymbolTable
 70
     0
  0
ENDTAB
  0
TABLE
  2
UCS
  5
7
330
0
100
AcDbSymbolTable
 70
     0
  0
ENDTAB
  0
TABLE
  2
APPID
  5
9
330
0
100
AcDbSymbolTable
 70
     1
  0
APPID
  5
12
330
9
100
AcDbSymbolTableRecord
100
AcDbRegAppTableRecord
  2
ACAD
 70
     0
  0
ENDTAB
  0
TABLE
  2
DIMSTYLE
  5
A
330
0
100
AcDbSymbolTable
 70
     1
100
AcDbDimStyleTable
  0
DIMSTYLE
105
27
330
A
100
AcDbSymbolTableRecord
100
AcDbDimStyleTableRecord
  2
ISO-25
 70
     0
 41
2.5
 42
0.625
 43
3.75
 44
1.25
 73
     0
 74
     0
 77
     1
 78
     8
140
2.5
141
2.5
143
0.0393700787
147
0.625
171
     3
172
     1
271
     2
272
     2
274
     3
278
    44
283
     0
284
     8
340
11
  0
ENDTAB
  0
TABLE
  2
BLOCK_RECORD
  5
1
330
0
100
AcDbSymbolTable
 70
     4
  0
BLOCK_RECORD
  5
1F
330
1
100
AcDbSymbolTableRecord
100
AcDbBlockTableRecord
  2
*Model_Space
340
22
  0
BLOCK_RECORD
  5
1B
330
1
100
AcDbSymbolTableRecord
100
AcDbBlockTableRecord
  2
*Paper_Space
340
1E
  0
BLOCK_RECORD
  5
5E
330
1
100
AcDbSymbolTableRecord
100
AcDbBlockTableRecord
  2
SE
340
0
102
{BLKREFS
331
5F
102
}
  0
BLOCK_RECORD
  5
163
330
1
100
AcDbSymbolTableRecord
100
AcDbBlockTableRecord
  2
SE1
340
0
102
{BLKREFS
331
164
102
}
  0
BLOCK_RECORD
  5
1A8
330
1
100
AcDbSymbolTableRecord
100
AcDbBlockTableRecord
  2
SE2
340
0
102
{BLKREFS
331
1A9
102
}
  0
ENDTAB
  0
ENDSEC
  0
SECTION
  2
BLOCKS
  0
BLOCK
  5
20
330
1F
100
AcDbEntity
  8
0
100
AcDbBlockBegin
  2
*Model_Space
 70
     0
 10
0.0
 20
0.0
 30
0.0
  3
*Model_Space
  1

  0
ENDBLK
  5
21
330
1F
100
AcDbEntity
  8
0
100
AcDbBlockEnd
  0
BLOCK
  5
1C
330
1B
100
AcDbEntity
 67
     1
  8
0
100
AcDbBlockBegin
  2
*Paper_Space
 70
     0
 10
0.0
 20
0.0
 30
0.0
  3
*Paper_Space
  1

  0
ENDBLK
  5
1D
330
1B
100
AcDbEntity
 67
     1
  8
0
100
AcDbBlockEnd
  0
BLOCK
  5
161
330
5E
100
AcDbEntity
  8
0
100
AcDbBlockBegin
  2
SE
 70
     0
 10
0.0
 20
0.0
 30
0.0
  3
SE
  1

  0
LINE
  5
61
330
5E
100
AcDbEntity
  8
405647038_AUSLAU
  6
Continuous
 62
     7
100
AcDbLine
 10
23.8588674461
 20
542.684978981
 30
0.0
 11
30.8588674461
 21
542.684978981
 31
0.0
  0
LINE
  5
62
330
5E
100
AcDbEntity
  8
405647038_AUSLAU
  6
Continuous
 62
     7
100
AcDbLine
 10
30.8588674461
 20
542.684978981
 30
0.0
 11
45.8588674461
 21
542.684978981
 31
0.0
  0
LINE
  5
63
330
5E
100
AcDbEntity
  8
405647038_AUSLAU
  6
Continuous
 62
     7
100
AcDbLine
 10
45.8588674461
 20
542.684978981
 30
0.0
 11
52.8588674461
 21
542.684978981
 31
0.0
  0
LINE
  5
64
330
5E
100
AcDbEntity
  8
405647038_AUSLAU
  6
Continuous
 62
     7
100
AcDbLine
 10
22.8588674461
 20
521.684978981
 30
0.0
 11
22.8588674461
 21
541.684978981
 31
0.0
  0
LINE
  5
65
330
5E
100
AcDbEntity
  8
405647038_AUSLAU
  6
Continuous
 62
     7
100
AcDbLine
 10
53.8588674461
 20
541.684978981
 30
0.0
 11
53.8588674461
 21
521.684978981
 31
0.0
  0
LINE
  5
66
330
5E
100
AcDbEntity
  8
405647038_AUSLAU
  6
Continuous
 62
     7
100
AcDbLine
 10
52.8588674461
 20
520.684978981
 30
0.0
 11
45.8588674461
 21
520.684978981
 31
0.0
  0
LINE
  5
67
330
5E
100
AcDbEntity
  8
405647038_AUSLAU
  6
Continuous
 62
     7
100
AcDbLine
 10
45.8588674461
 20
520.684978981
 30
0.0
 11
30.8588674461
 21
520.684978981
 31
0.0
  0
LINE
  5
68
330
5E
100
AcDbEntity
  8
405647038_AUSLAU
  6
Continuous
 62
     7
100
AcDbLine
 10
30.8588674461
 20
520.684978981
 30
0.0
 11
23.8588674461
 21
520.684978981
 31
0.0
  0
ARC
  5
69
330
5E
100
AcDbEntity
  8
405647038_AUSLAU
  6
Continuous
 62
     7
100
AcDbCircle
 10
52.8588674461
 20
541.684978981
 30
0.0
 40
0.9999999999999991
100
AcDbArc
 50
0.0
 51
90.0
  0
ARC
  5
6A
330
5E
100
AcDbEntity
  8
405647038_AUSLAU
  6
Continuous
 62
     7
100
AcDbCircle
 10
23.8588674461
 20
521.684978981
 30
0.0
 40
0.9999999999999991
100
AcDbArc
 50
180.0
 51
270.0
  0
ARC
  5
6B
330
5E
100
AcDbEntity
  8
405647038_AUSLAU
  6
Continuous
 62
     7
100
AcDbCircle
 10
23.8588674461
 20
541.684978981
 30
0.0
 40
0.9999999999999991
100
AcDbArc
 50
90.0
 51
180.0
  0
ARC
  5
6C
330
5E
100
AcDbEntity
  8
405647038_AUSLAU
  6
Continuous
 62
     7
100
AcDbCircle
 10
52.8588674461
 20
521.684978981
 30
0.0
 40
0.9999999999999991
100
AcDbArc
 50
270.0
 51
0.0
  0
ARC
  5
6E
330
5E
100
AcDbEntity
  8
$DDT_AUDIT_GENERATED_(6D)
  6
Continuous
 62
     7
100
AcDbCircle
 10
38.3588674461
 20
531.684978981
 30
0.0
 40
23.1
100
AcDbArc
 50
300.0716270227
 51
0.0
  0
ARC
  5
6F
330
5E
100
AcDbEntity
  8
$DDT_AUDIT_GENERATED_(6D)
  6
Continuous
 62
     7
100
AcDbCircle
 10
38.3588674461
 20
531.684978981
 30
0.0
 40
23.1
100
AcDbArc
 50
0.0
 51
239.9283729773
  0
ARC
  5
70
330
5E
100
AcDbEntity
  8
$DDT_AUDIT_GENERATED_(6D)
  6
Continuous
 62
     7
100
AcDbCircle
 10
7.95
 20
563.084978981
 30
0.0
 40
1.59999999999999
100
AcDbArc
 50
90.0
 51
180.0
  0
LINE
  5
71
330
5E
100
AcDbEntity
  8
$DDT_AUDIT_GENERATED_(6D)
  6
Continuous
 62
     7
100
AcDbLine
 10
6.35
 20
500.284978981
 30
0.0
 11
6.35
 21
563.084978981
 31
0.0
  0
ARC
  5
72
330
5E
100
AcDbEntity
  8
$DDT_AUDIT_GENERATED_(6D)
  6
Continuous
 62
     7
100
AcDbCircle
 10
7.95
 20
500.284978981
 30
0.0
 40
1.600000000000004
100
AcDbArc
 50
180.0
 51
270.0
  0
LINE
  5
73
330
5E
100
AcDbEntity
  8
$DDT_AUDIT_GENERATED_(6D)
  6
Continuous
 62
     7
100
AcDbLine
 10
180.75
 20
498.684978981
 30
0.0
 11
156.7588674461
 21
498.684978981
 31
0.0
  0
LINE
  5
74
330
5E
100
AcDbEntity
  8
$DDT_AUDIT_GENERATED_(6D)
  6
Continuous
 62
     7
100
AcDbLine
 10
139.9588674461
 20
498.684978981
 30
0.0
 11
7.95
 21
498.684978981
 31
0.0
  0
ARC
  5
75
330
5E
100
AcDbEntity
  8
$DDT_AUDIT_GENERATED_(6D)
  6
Continuous
 62
     7
100
AcDbCircle
 10
180.75
 20
500.284978981
 30
0.0
 40
1.59999999999999
100
AcDbArc
 50
270.0
 51
0.0
  0
LINE
  5
76
330
5E
100
AcDbEntity
  8
$DDT_AUDIT_GENERATED_(6D)
  6
Continuous
 62
     7
100
AcDbLine
 10
182.35
 20
563.084978981
 30
0.0
 11
182.35
 21
500.284978981
 31
0.0
  0
ARC
  5
77
330
5E
100
AcDbEntity
  8
$DDT_AUDIT_GENERATED_(6D)
  6
Continuous
 62
     7
100
AcDbCircle
 10
180.75
 20
563.084978981
 30
0.0
 40
1.600000000000004
100
AcDbArc
 50
0.0
 51
90.0
  0
LINE
  5
78
330
5E
100
AcDbEntity
  8
$DDT_AUDIT_GENERATED_(6D)
  6
Continuous
 62
     7
100
AcDbLine
 10
7.95
 20
564.684978981
 30
0.0
 11
180.75
 21
564.684978981
 31
0.0
  0
ARC
  5
79
330
5E
100
AcDbEntity
  8
$DDT_AUDIT_GENERATED_(6D)
  6
Continuous
 62
     7
100
AcDbCircle
 10
148.3588674461
 20
531.684978981
 30
0.0
 40
23.15
100
AcDbArc
 50
349.6811034295
 51
0.0
  0
ARC
  5
7A
330
5E
100
AcDbEntity
  8
$DDT_AUDIT_GENERATED_(6D)
  6
Continuous
 62
     7
100
AcDbCircle
 10
148.3588674461
 20
531.684978981
 30
0.0
 40
23.15
100
AcDbArc
 50
0.0
 51
190.2208796768
  0
ARC
  5
7C
330
5E
100
AcDbEntity
  8
08664131_STOPFEN
  6
Continuous
 62
     7
100
AcDbCircle
 10
38.3588674461
 20
531.684978981
 30
0.0
 40
15.0
100
AcDbArc
 50
47.1665719339
 51
132.8334280661
  0
ARC
  5
7D
330
5E
100
AcDbEntity
  8
08664131_STOPFEN
  6
Continuous
 62
     7
100
AcDbCircle
 10
38.3588674461
 20
531.684978981
 30
0.0
 40
17.5
100
AcDbArc
 50
0.0
 51
27.6604498993
  0
ARC
  5
7E
330
5E
100
AcDbEntity
  8
08664131_STOPFEN
  6
Continuous
 62
     7
100
AcDbCircle
 10
38.3588674461
 20
531.684978981
 30
0.0
 40
17.5
100
AcDbArc
 50
38.9448035941
 51
141.0551964059
  0
ARC
  5
7F
330
5E
100
AcDbEntity
  8
08664131_STOPFEN
  6
Continuous
 62
     7
100
AcDbCircle
 10
38.3588674461
 20
531.684978981
 30
0.0
 40
17.5
100
AcDbArc
 50
152.3395501007
 51
207.6604498993
  0
ARC
  5
80
330
5E
100
AcDbEntity
  8
08664131_STOPFEN
  6
Continuous
 62
     7
100
AcDbCircle
 10
38.3588674461
 20
531.684978981
 30
0.0
 40
17.5
100
AcDbArc
 50
218.9448035941
 51
228.591085019
  0
ARC
  5
81
330
5E
100
AcDbEntity
  8
08664131_STOPFEN
  6
Continuous
 62
     7
100
AcDbCircle
 10
38.3588674461
 20
531.684978981
 30
0.0
 40
17.5
100
AcDbArc
 50
311.408914981
 51
321.0551964059
  0
ARC
  5
82
330
5E
100
AcDbEntity
  8
08664131_STOPFEN
  6
Continuous
 62
     7
100
AcDbCircle
 10
38.3588674461
 20
531.684978981
 30
0.0
 40
17.5
100
AcDbArc
 50
332.3395501007
 51
0.0
  0
ELLIPSE
  5
84
330
5E
100
AcDbEntity
  8
$DDT_AUDIT_GENERATED_(83)
  6
Continuous
 62
     7
100
AcDbEllipse
 10
38.3588674461
 20
510.2838694699
 30
0.0
 11
10.075
 21
1.040834085586084E-14
 31
0.0
210
0.0
220
0.0
230
1.0
 40
0.4226182617
 41
0.0
 42
6.283185307179586
  0
LINE
  5
85
330
5E
100
AcDbEntity
  8
$DDT_AUDIT_GENERATED_(83)
  6
Continuous
 62
     7
100
AcDbLine
 10
49.9338674461
 20
511.1901772569
 30
0.0
 11
49.9338674461
 21
520.684978981
 31
0.0
  0
LINE
  5
86
330
5E
100
AcDbEntity
  8
$DDT_AUDIT_GENERATED_(83)
  6
Continuous
 62
     7
100
AcDbLine
 10
26.7838674461
 20
520.684978981
 30
0.0
 11
26.7838674461
 21
511.1901772569
 31
0.0
  0
SPLINE
  5
87
330
5E
100
AcDbEntity
  8
$DDT_AUDIT_GENERATED_(83)
  6
Continuous
 62
     7
100
AcDbSpline
210
0.0
220
0.0
230
1.0
 70
     8
 71
     3
 72
    42
 73
    38
 74
     0
 42
0.0000000003602084
 43
0.0000000001
 40
0.0
 40
0.0
 40
0.0
 40
0.0
 40
0.0226803001225916
 40
0.0480145320370411
 40
0.0736973111431747
 40
0.1002219787600703
 40
0.1278843889251113
 40
0.156684216263198
 40
0.1863236004651294
 40
0.2163794602670684
 40
0.2464826707226843
 40
0.2764563934073473
 40
0.3062648053709137
 40
0.3359164714587792
 40
0.3654355085758487
 40
0.3948490786155271
 40
0.4241828748236425
 40
0.4534600042285636
 40
0.4827011907866515
 40
0.5119254442109329
 40
0.5411508706916971
 40
0.5703899756317569
 40
0.5996609147960531
 40
0.6289836972969397
 40
0.6583806569960693
 40
0.6878773094856293
 40
0.7175029019635313
 40
0.7472899562351477
 40
0.7772710487686006
 40
0.8074687285906661
 40
0.8378700588991654
 40
0.8683431202935545
 40
0.8985050950552068
 40
0.9248472439158643
 40
0.9501207787929421
 40
0.9770606389799408
 40
1.0
 40
1.0
 40
1.0
 40
1.0
 10
26.78850982758803
 20
511.168186727917
 30
0.0
 10
26.79474031197161
 20
510.9977711190009
 30
0.0
 10
26.80914469518207
 20
510.6935437000273
 30
0.0
 10
26.94345397980578
 20
510.1931927212259
 30
0.0
 10
27.16130603824548
 20
509.7056405211395
 30
0.0
 10
27.46758430685638
 20
509.2315308837099
 30
0.0
 10
27.86146083229889
 20
508.7749815208191
 30
0.0
 10
28.34552195612324
 20
508.3366979622415
 30
0.0
 10
28.91773102446121
 20
507.9216561252162
 30
0.0
 10
29.57166315171619
 20
507.535305560516
 30
0.0
 10
30.29803213386055
 20
507.1821617035483
 30
0.0
 10
31.08751591996243
 20
506.864870748466
 30
0.0
 10
31.93218563306856
 20
506.5847049181335
 30
0.0
 10
32.82506702465454
 20
506.3424044311618
 30
0.0
 10
33.75932559494967
 20
506.1386348626633
 30
0.0
 10
34.72799215995836
 20
505.9740471927075
 30
0.0
 10
35.72385536520498
 20
505.8492474085386
 30
0.0
 10
36.7394542379476
 20
505.7647438426735
 30
0.0
 10
37.76712262571122
 20
505.7208998201872
 30
0.0
 10
38.79905925877294
 20
505.7178998062311
 30
0.0
 10
39.82734512038524
 20
505.7557283772274
 30
0.0
 10
40.84409094490276
 20
505.8341570468048
 30
0.0
 10
41.84153625161005
 20
505.9527555415834
 30
0.0
 10
42.81219808372818
 20
506.1109340485702
 30
0.0
 10
43.74889354311878
 20
506.3079904897795
 30
0.0
 10
44.64480595887695
 20
506.5431833786026
 30
0.0
 10
45.49353122838674
 20
506.8158348466441
 30
0.0
 10
46.28907333726555
 20
507.1254670204286
 30
0.0
 10
47.02573520052894
 20
507.4719535038613
 30
0.0
 10
47.69782170161596
 20
507.8556432575579
 30
0.0
 10
48.29881221392666
 20
508.2770652664633
 30
0.0
 10
48.8202144704128
 20
508.7359215420354
 30
0.0
 10
49.23729183071809
 20
509.2125028915862
 30
0.0
 10
49.55153484952139
 20
509.6975690952348
 30
0.0
 10
49.77453353252997
 20
510.1908035310444
 30
0.0
 10
49.90999084345172
 20
510.7017796168146
 30
0.0
 10
49.9267139940763
 20
511.0178409474537
 30
0.0
 10
49.93386744610105
 20
511.1901772569435
 30
0.0
  0
ELLIPSE
  5
89
330
5E
100
AcDbEntity
  8
$DDT_AUDIT_GENERATED_(88)
  6
Continuous
 62
     7
100
AcDbEllipse
 10
38.3588674461
 20
510.0572925231
 30
0.0
 11
-9.000000000000005
 21
-6.938893903907228E-15
 31
0.0
210
0.0
220
0.0
230
1.0
 40
0.4226182617
 41
0.0
 42
6.283185307179586
  0
ELLIPSE
  5
8A
330
5E
100
AcDbEntity
  8
$DDT_AUDIT_GENERATED_(88)
  6
Continuous
 62
     7
100
AcDbEllipse
 10
38.3588674461
 20
512.8545880379
 30
0.0
 11
-9.386474103793834
 21
1.075528555105620E-13
 31
0.0
210
0.0
220
0.0
230
1.0
 40
0.4226182617
 41
0.2081788922730679
 42
0.2879555481429505
  0
ELLIPSE
  5
8B
330
5E
100
AcDbEntity
  8
$DDT_AUDIT_GENERATED_(88)
  6
Continuous
 62
     7
100
AcDbEllipse
 10
38.3588674461
 20
512.8545880379
 30
0.0
 11
9.386474103795457
 21
-1.387778780781446E-14
 31
0.0
210
0.0
220
0.0
230
1.0
 40
0.4226182617
 41
-0.287955548142917
 42
-0.2081788922730414
  0
ELLIPSE
  5
8C
330
5E
100
AcDbEntity
  8
$DDT_AUDIT_GENERATED_(88)
  6
Continuous
 62
     7
100
AcDbEllipse
 10
38.3588674461
 20
510.0572925231
 30
0.0
 11
-5.249999999999997
 21
-6.938893903907228E-15
 31
0.0
210
0.0
220
0.0
230
1.0
 40
0.4226182617
 41
0.0
 42
6.283185307179586
  0
ELLIPSE
  5
8D
330
5E
100
AcDbEntity
  8
$DDT_AUDIT_GENERATED_(88)
  6
Continuous
 62
     7
100
AcDbEllipse
 10
38.3588674461
 20
510.0572925231
 30
0.0
 11
-6.25
 21
-6.938893903907228E-15
 31
0.0
210
0.0
220
0.0
230
1.0
 40
0.4226182617
 41
0.0
 42
6.283185307179586
  0
ELLIPSE
  5
8E
330
5E
100
AcDbEntity
  8
$DDT_AUDIT_GENERATED_(88)
  6
Continuous
 62
     7
100
AcDbEllipse
 10
38.3588674461
 20
510.0572925231
 30
0.0
 11
-2.750000000000003
 21
-3.469446951953614E-15
 31
0.0
210
0.0
220
0.0
230
1.0
 40
0.4226182617
 41
0.0
 42
6.283185307179586
  0
ELLIPSE
  5
8F
330
5E
100
AcDbEntity
  8
$DDT_AUDIT_GENERATED_(88)
  6
Continuous
 62
     7
100
AcDbEllipse
 10
38.3588674461
 20
510.0572925231
 30
0.0
 11
-2.15
 21
-3.469446951953614E-15
 31
0.0
210
0.0
220
0.0
230
1.0
 40
0.4226182617
 41
0.0
 42
6.283185307179586
  0
ELLIPSE
  5
90
330
5E
100
AcDbEntity
  8
$DDT_AUDIT_GENERATED_(88)
  6
Continuous
 62
     7
100
AcDbEllipse
 10
38.3588674461
 20
510.2385540806
 30
0.0
 11
0.5196299438963558
 21
0.0
 31
0.0
210
0.0
220
0.0
230
1.0
 40
0.4226182617
 41
0.0
 42
6.283185307179586
  0
ELLIPSE
  5
91
330
5E
100
AcDbEntity
  8
$DDT_AUDIT_GENERATED_(88)
  6
Continuous
 62
     7
100
AcDbEllipse
 10
38.3588674461
 20
510.0572925231
 30
0.0
 11
-8.700000000000001
 21
-6.938893903907228E-15
 31
0.0
210
0.0
220
0.0
230
1.0
 40
0.4226182617
 41
0.0
 42
6.283185307179586
  0
ARC
  5
92
330
5E
100
AcDbEntity
  8
$DDT_AUDIT_GENERATED_(88)
  6
Continuous
 62
     7
100
AcDbCircle
 10
45.3402315977
 20
510.2385540806
 30
0.0
 40
1.51863575479425
100
AcDbArc
 50
358.4053207505
 51
1.5946792494
  0
ARC
  5
93
330
5E
100
AcDbEntity
  8
$DDT_AUDIT_GENERATED_(88)
  6
Continuous
 62
     7
100
AcDbCircle
 10
43.4919215693
 20
510.2385540806
 30
0.0
 40
1.116945641478414
100
AcDbArc
 50
0.0
 51
2.1684156534
  0
ELLIPSE
  5
94
330
5E
100
AcDbEntity
  8
$DDT_AUDIT_GENERATED_(88)
  6
Continuous
 62
     7
100
AcDbEllipse
 10
38.3588674461
 20
510.2385540806
 30
0.0
 11
8.500000000034298
 21
2.289834988289385E-12
 31
0.0
210
0.0
220
0.0
230
1.0
 40
0.4226182617
 41
0.011764977288027
 42
0.2500344105104484
  0
LINE
  5
95
330
5E
100
AcDbEntity
  8
$DDT_AUDIT_GENERATED_(88)
  6
Continuous
 62
     7
100
AcDbLine
 10
44.6088674461
 20
510.1962922544
 30
0.0
 11
46.8582791905
 21
510.1962922544
 31
0.0
  0
LINE
  5
96
330
5E
100
AcDbEntity
  8
$DDT_AUDIT_GENERATED_(88)
  6
Continuous
 62
     7
100
AcDbLine
 10
44.6080673949
 20
510.2808159067
 30
0.0
 11
46.8582791905
 21
510.2808159067
 31
0.0
  0
LINE
  5
97
330
5E
100
AcDbEntity
  8
$DDT_AUDIT_GENERATED_(88)
  6
Continuous
 62
     7
100
AcDbLine
 10
44.6080673949
 20
510.2808159067
 30
0.0
 11
44.6080673949
 21
510.9024622077
 31
0.0
  0
ELLIPSE
  5
98
330
5E
100
AcDbEntity
  8
$DDT_AUDIT_GENERATED_(88)
  6
Continuous
 62
     7
100
AcDbEllipse
 10
38.3588674461
 20
510.4626822138
 30
0.0
 11
-0.5196299438963508
 21
-1.387778780781446E-14
 31
0.0
210
0.0
220
0.0
230
1.0
 40
0.4226182617
 41
3.141592653589793
 42
3.643514934614034
  0
LINE
  5
99
330
5E
100
AcDbEntity
  8
$DDT_AUDIT_GENERATED_(88)
  6
Continuous
 62
     7
100
AcDbLine
 10
38.8144058952
 20
510.5683367792
 30
0.0
 11
38.8144058952
 21
510.9452923107
 31
0.0
  0
LINE
  5
9A
330
5E
100
AcDbEntity
  8
$DDT_AUDIT_GENERATED_(88)
  6
Continuous
 62
     7
100
AcDbLine
 10
40.1365777126
 20
510.5683367792
 30
0.0
 11
38.8144058952
 21
510.5683367792
 31
0.0
  0
LINE
  5
9B
330
5E
100
AcDbEntity
  8
$DDT_AUDIT_GENERATED_(88)
  6
Continuous
 62
     7
100
AcDbLine
 10
40.3885195147
 20
510.3570276483
 30
0.0
 11
38.87849739
 21
510.3570276483
 31
0.0
  0
LINE
  5
9C
330
5E
100
AcDbEntity
  8
$DDT_AUDIT_GENERATED_(88)
  6
Continuous
 62
     7
100
AcDbLine
 10
37.5076659718
 20
509.6282967519
 30
0.0
 11
38.0860288695
 21
510.0516562539
 31
0.0
  0
LINE
  5
9D
330
5E
100
AcDbEntity
  8
$DDT_AUDIT_GENERATED_(88)
  6
Continuous
 62
     7
100
AcDbLine
 10
37.07465327
 20
509.7339513173
 30
0.0
 11
37.8392375022
 21
510.2936241475
 31
0.0
  0
ELLIPSE
  5
9E
330
5E
100
AcDbEntity
  8
$DDT_AUDIT_GENERATED_(88)
  6
Continuous
 62
     7
100
AcDbEllipse
 10
38.3588674461
 20
510.4626822138
 30
0.0
 11
-2.150000000004965
 21
-1.675742877793596E-12
 31
0.0
210
0.0
220
0.0
230
1.0
 40
0.4226182617
 41
0.9306548427463331
 42
1.163740259644575
  0
LINE
  5
9F
330
5E
100
AcDbEntity
  8
$DDT_AUDIT_GENERATED_(88)
  6
Continuous
 62
     7
100
AcDbLine
 10
37.07465327
 20
510.7860234196
 30
0.0
 11
37.07465327
 21
509.7339513173
 31
0.0
  0
ELLIPSE
  5
A0
330
5E
100
AcDbEntity
  8
$DDT_AUDIT_GENERATED_(88)
  6
Continuous
 62
     7
100
AcDbEllipse
 10
38.3588674461
 20
510.4626822138
 30
0.0
 11
-0.5196299438963543
 21
-3.469446951953614E-15
 31
0.0
210
0.0
220
0.0
230
1.0
 40
0.4226182617
 41
4.734065474958713
 42
5.737910037007292
  0
LINE
  5
A1
330
5E
100
AcDbEntity
  8
$DDT_AUDIT_GENERATED_(88)
  6
Continuous
 62
     7
100
AcDbLine
 10
37.4888697518
 20
510.8882081774
 30
0.0
 11
37.9145918706
 21
510.576581161
 31
0.0
  0
LINE
  5
A2
330
5E
100
AcDbEntity
  8
$DDT_AUDIT_GENERATED_(88)
  6
Continuous
 62
     7
100
AcDbLine
 10
37.9795270808
 20
510.951667089
 30
0.0
 11
38.3476045725
 21
510.6822357265
 31
0.0
  0
LINE
  5
A3
330
5E
100
AcDbEntity
  8
$DDT_AUDIT_GENERATED_(88)
  6
Continuous
 62
     7
100
AcDbLine
 10
38.3476045725
 20
510.6822357265
 30
0.0
 11
38.3476045725
 21
510.9659093183
 31
0.0
  0
ELLIPSE
  5
A4
330
5E
100
AcDbEntity
  8
$DDT_AUDIT_GENERATED_(88)
  6
Continuous
 62
     7
100
AcDbEllipse
 10
38.3588678361
 20
510.2385540365
 30
0.0
 11
8.499999609769521
 21
5.185907606120033E-8
 31
0.0
210
0.0
220
0.0
230
1.0
 40
0.4226182704
 41
-0.2735643738838309
 42
-0.2500344187489052
  0
ELLIPSE
  5
A5
330
5E
100
AcDbEntity
  8
$DDT_AUDIT_GENERATED_(88)
  6
Continuous
 62
     7
100
AcDbEllipse
 10
38.3588674461
 20
510.2385540806
 30
0.0
 11
8.500000000028423
 21
-1.942890293094024E-12
 31
0.0
210
0.0
220
0.0
230
1.0
 40
0.4226182617
 41
6.033150896669047
 42
6.271420329891606
  0
LINE
  5
A6
330
5E
100
AcDbEntity
  8
$DDT_AUDIT_GENERATED_(88)
  6
Continuous
 62
     7
100
AcDbLine
 10
46.5945506627
 20
509.3496961473
 30
0.0
 11
46.5945506627
 21
510.1962922544
 31
0.0
  0
LINE
  5
A7
330
5E
100
AcDbEntity
  8
$DDT_AUDIT_GENERATED_(88)
  6
Continuous
 62
     7
100
AcDbLine
 10
44.4696096265
 20
509.5028196178
 30
0.0
 11
46.5427868537
 21
509.2680525685
 31
0.0
  0
LINE
  5
A8
330
5E
100
AcDbEntity
  8
$DDT_AUDIT_GENERATED_(88)
  6
Continuous
 62
     7
100
AcDbLine
 10
44.5085380984
 20
509.585916673
 30
0.0
 11
46.5945506627
 21
509.3496961473
 31
0.0
  0
ELLIPSE
  5
A9
330
5E
100
AcDbEntity
  8
$DDT_AUDIT_GENERATED_(88)
  6
Continuous
 62
     7
100
AcDbEllipse
 10
38.3588677958
 20
510.2385539953
 30
0.0
 11
8.499999646720163
 21
8.987839639207351E-8
 31
0.0
210
0.0
220
0.0
230
1.0
 40
0.4226182668
 41
-0.5353637679223953
 42
-0.5118338127875184
  0
ELLIPSE
  5
AA
330
5E
100
AcDbEntity
  8
$DDT_AUDIT_GENERATED_(88)
  6
Continuous
 62
     7
100
AcDbEllipse
 10
38.3588674461
 20
510.2385540806
 30
0.0
 11
8.500000000023199
 21
-4.458239333260394E-12
 31
0.0
210
0.0
220
0.0
230
1.0
 40
0.4226182617
 41
-0.5118337983092891
 42
-0.273564365086667
  0
LINE
  5
AB
330
5E
100
AcDbEntity
  8
$DDT_AUDIT_GENERATED_(88)
  6
Continuous
 62
     7
100
AcDbLine
 10
45.7695739339
 20
508.479150587
 30
0.0
 11
45.7695739339
 21
509.3556113712
 31
0.0
  0
LINE
  5
AC
330
5E
100
AcDbEntity
  8
$DDT_AUDIT_GENERATED_(88)
  6
Continuous
 62
     7
100
AcDbLine
 10
43.9021388991
 20
508.8372029265
 30
0.0
 11
45.6695739339
 21
508.4059509569
 31
0.0
  0
LINE
  5
AD
330
5E
100
AcDbEntity
  8
$DDT_AUDIT_GENERATED_(88)
  6
Continuous
 62
     7
100
AcDbLine
 10
43.9918257096
 20
508.9129189621
 30
0.0
 11
45.7695739339
 21
508.479150587
 31
0.0
  0
ELLIPSE
  5
AE
330
5E
100
AcDbEntity
  8
$DDT_AUDIT_GENERATED_(88)
  6
Continuous
 62
     7
100
AcDbEllipse
 10
38.3588677328
 20
510.2385539595
 30
0.0
 11
8.499999695982947
 21
1.042602393308556E-7
 31
0.0
210
0.0
220
0.0
230
1.0
 40
0.4226182617
 41
-0.7971631580804752
 42
-0.7736332029434081
  0
ELLIPSE
  5
AF
330
5E
100
AcDbEntity
  8
$DDT_AUDIT_GENERATED_(88)
  6
Continuous
 62
     7
100
AcDbEllipse
 10
38.3588674461
 20
510.2385540806
 30
0.0
 11
8.500000000022121
 21
-6.786238238021269E-12
 31
0.0
210
0.0
220
0.0
230
1.0
 40
0.4226182617
 41
-0.7736331861080528
 42
-0.5353637528854609
  0
LINE
  5
B0
330
5E
100
AcDbEntity
  8
$DDT_AUDIT_GENERATED_(88)
  6
Continuous
 62
     7
100
AcDbLine
 10
44.4395698047
 20
507.7285054673
 30
0.0
 11
44.4395698047
 21
508.706070448
 31
0.0
  0
LINE
  5
B1
330
5E
100
AcDbEntity
  8
$DDT_AUDIT_GENERATED_(88)
  6
Continuous
 62
     7
100
AcDbLine
 10
42.9196866769
 20
508.2513013374
 30
0.0
 11
44.2981484485
 21
507.6687382196
 31
0.0
  0
LINE
  5
B2
330
5E
100
AcDbEntity
  8
$DDT_AUDIT_GENERATED_(88)
  6
Continuous
 62
     7
100
AcDbLine
 10
43.0542366337
 20
508.313972564
 30
0.0
 11
44.4395698047
 21
507.7285054673
 31
0.0
  0
ELLIPSE
  5
B3
330
5E
100
AcDbEntity
  8
$DDT_AUDIT_GENERATED_(88)
  6
Continuous
 62
     7
100
AcDbEllipse
 10
38.358867665
 20
510.2385539204
 30
0.0
 11
8.499999726395689
 21
9.754297369823917E-8
 31
0.0
210
0.0
220
0.0
230
1.0
 40
0.4226182563
 41
-1.058962544795558
 42
-1.035432589613512
  0
ELLIPSE
  5
B4
330
5E
100
AcDbEntity
  8
$DDT_AUDIT_GENERATED_(88)
  6
Continuous
 62
     7
100
AcDbEllipse
 10
38.3588674461
 20
510.2385540806
 30
0.0
 11
8.500000000014246
 21
-5.172945405362839E-12
 31
0.0
210
0.0
220
0.0
230
1.0
 40
0.4226182617
 41
-1.035432573907501
 42
-0.7971631406848187
  0
LINE
  5
B5
330
5E
100
AcDbEntity
  8
$DDT_AUDIT_GENERATED_(88)
  6
Continuous
 62
     7
100
AcDbLine
 10
42.6951758587
 20
507.1489160126
 30
0.0
 11
42.6951758587
 21
508.1550910908
 31
0.0
  0
LINE
  5
B6
330
5E
100
AcDbEntity
  8
$DDT_AUDIT_GENERATED_(88)
  6
Continuous
 62
     7
100
AcDbLine
 10
41.5824606505
 20
507.7943721249
 30
0.0
 11
42.5219707779
 21
507.1066541864
 31
0.0
  0
LINE
  5
B7
330
5E
100
AcDbEntity
  8
$DDT_AUDIT_GENERATED_(88)
  6
Continuous
 62
     7
100
AcDbLine
 10
41.752232058
 20
507.8391473872
 30
0.0
 11
42.6951758587
 21
507.1489160126
 31
0.0
  0
ELLIPSE
  5
B8
330
5E
100
AcDbEntity
  8
$DDT_AUDIT_GENERATED_(88)
  6
Continuous
 62
     7
100
AcDbEllipse
 10
38.3588675634
 20
510.2385538956
 30
0.0
 11
8.499999758245579
 21
5.830707444642869E-8
 31
0.0
210
0.0
220
0.0
230
1.0
 40
0.422618252
 41
-1.320761926165823
 42
-1.297231970962398
  0
ELLIPSE
  5
B9
330
5E
100
AcDbEntity
  8
$DDT_AUDIT_GENERATED_(88)
  6
Continuous
 62
     7
100
AcDbEllipse
 10
38.3588674461
 20
510.2385540805
 30
0.0
 11
8.499999999991402
 21
2.695760281667958E-12
 31
0.0
210
0.0
220
0.0
230
1.0
 40
0.4226182617
 41
-1.297231961708192
 42
-1.058962528485009
  0
LINE
  5
BA
330
5E
100
AcDbEntity
  8
$DDT_AUDIT_GENERATED_(88)
  6
Continuous
 62
     7
100
AcDbLine
 10
40.6552696603
 20
506.7798802863
 30
0.0
 11
40.6552696603
 21
507.6006828037
 31
0.0
  0
LINE
  5
BB
330
5E
100
AcDbEntity
  8
$DDT_AUDIT_GENERATED_(88)
  6
Continuous
 62
     7
100
AcDbLine
 10
39.9871167324
 20
507.5071387013
 30
0.0
 11
40.4620844951
 21
506.7580039553
 31
0.0
  0
LINE
  5
BC
330
5E
100
AcDbEntity
  8
$DDT_AUDIT_GENERATED_(88)
  6
Continuous
 62
     7
100
AcDbLine
 10
40.1793822446
 20
507.5304655394
 30
0.0
 11
40.6552696603
 21
506.7798802863
 31
0.0
  0
ARC
  5
BD
330
5E
100
AcDbEntity
  8
$DDT_AUDIT_GENERATED_(88)
  6
Continuous
 62
     7
100
AcDbCircle
 10
38.3588674461
 20
526.7578689886
 30
0.0
 40
20.11157013995529
100
AcDbArc
 50
269.7151091874
 51
270.2848908126
  0
ELLIPSE
  5
BE
330
5E
100
AcDbEntity
  8
$DDT_AUDIT_GENERATED_(88)
  6
Continuous
 62
     7
100
AcDbEllipse
 10
38.3588674461
 20
510.2385540806
 30
0.0
 11
8.500000000013603
 21
-2.008809785181143E-12
 31
0.0
210
0.0
220
0.0
230
1.0
 40
0.4226182617
 41
4.724153957673277
 42
4.962423390895872
  0
LINE
  5
BF
330
5E
100
AcDbEntity
  8
$DDT_AUDIT_GENERATED_(88)
  6
Continuous
 62
     7
100
AcDbLine
 10
38.2588674461
 20
507.4162665035
 30
0.0
 11
38.2588674461
 21
506.6465474633
 31
0.0
  0
LINE
  5
C0
330
5E
100
AcDbEntity
  8
$DDT_AUDIT_GENERATED_(88)
  6
Continuous
 62
     7
100
AcDbLine
 10
38.4588674461
 20
507.4162665035
 30
0.0
 11
38.4588674461
 21
506.6465474633
 31
0.0
  0
ELLIPSE
  5
C1
330
5E
100
AcDbEntity
  8
$DDT_AUDIT_GENERATED_(88)
  6
Continuous
 62
     7
100
AcDbEllipse
 10
38.3588673281
 20
510.2385538944
 30
0.0
 11
-8.499999756746497
 21
5.863308796816291E-8
 31
0.0
210
0.0
220
0.0
230
1.0
 40
0.4226182519
 41
1.297231971009778
 42
1.320761926217137
  0
ELLIPSE
  5
C2
330
5E
100
AcDbEntity
  8
$DDT_AUDIT_GENERATED_(88)
  6
Continuous
 62
     7
100
AcDbEllipse
 10
38.3588674461
 20
510.2385540805
 30
0.0
 11
-8.499999999982908
 21
2.439021207223391E-12
 31
0.0
210
0.0
220
0.0
230
1.0
 40
0.4226182617
 41
1.320761916284019
 42
1.559031349507458
  0
LINE
  5
C3
330
5E
100
AcDbEntity
  8
$DDT_AUDIT_GENERATED_(88)
  6
Continuous
 62
     7
100
AcDbLine
 10
36.0624652319
 20
506.7798802863
 30
0.0
 11
36.0624652319
 21
507.6006828037
 31
0.0
  0
LINE
  5
C4
330
5E
100
AcDbEntity
  8
$DDT_AUDIT_GENERATED_(88)
  6
Continuous
 62
     7
100
AcDbLine
 10
36.5383526476
 20
507.5304655394
 30
0.0
 11
36.0624652319
 21
506.7798802863
 31
0.0
  0
LINE
  5
C5
330
5E
100
AcDbEntity
  8
$DDT_AUDIT_GENERATED_(88)
  6
Continuous
 62
     7
100
AcDbLine
 10
36.7306181598
 20
507.5071387013
 30
0.0
 11
36.2556503971
 21
506.7580039553
 31
0.0
  0
ELLIPSE
  5
C6
330
5E
100
AcDbEntity
  8
$DDT_AUDIT_GENERATED_(88)
  6
Continuous
 62
     7
100
AcDbEllipse
 10
38.3588672102
 20
510.2385539079
 30
0.0
 11
-8.499999705173728
 21
1.051143304342528E-7
 31
0.0
210
0.0
220
0.0
230
1.0
 40
0.4226182559
 41
1.035432590825486
 42
1.058962546054561
  0
ELLIPSE
  5
C7
330
5E
100
AcDbEntity
  8
$DDT_AUDIT_GENERATED_(88)
  6
Continuous
 62
     7
100
AcDbEllipse
 10
38.3588674461
 20
510.2385540805
 30
0.0
 11
-8.499999999980846
 21
6.130512764102036E-12
 31
0.0
210
0.0
220
0.0
230
1.0
 40
0.4226182617
 41
1.058962528485489
 42
1.297231961708927
  0
LINE
  5
C8
330
5E
100
AcDbEntity
  8
$DDT_AUDIT_GENERATED_(88)
  6
Continuous
 62
     7
100
AcDbLine
 10
34.0225590335
 20
507.1489160126
 30
0.0
 11
34.0225590335
 21
508.1550910908
 31
0.0
  0
LINE
  5
C9
330
5E
100
AcDbEntity
  8
$DDT_AUDIT_GENERATED_(88)
  6
Continuous
 62
     7
100
AcDbLine
 10
34.9655028342
 20
507.8391473872
 30
0.0
 11
34.0225590335
 21
507.1489160126
 31
0.0
  0
LINE
  5
CA
330
5E
100
AcDbEntity
  8
$DDT_AUDIT_GENERATED_(88)
  6
Continuous
 62
     7
100
AcDbLine
 10
35.1352742417
 20
507.7943721249
 30
0.0
 11
34.1957641143
 21
507.1066541864
 31
0.0
  0
ELLIPSE
  5
CB
330
5E
100
AcDbEntity
  8
$DDT_AUDIT_GENERATED_(88)
  6
Continuous
 62
     7
100
AcDbEllipse
 10
38.3588671609
 20
510.2385539599
 30
0.0
 11
-8.499999697406386
 21
1.038266243813535E-7
 31
0.0
210
0.0
220
0.0
230
1.0
 40
0.4226182617
 41
0.7736332028525584
 42
0.797163157987341
  0
ELLIPSE
  5
CC
330
5E
100
AcDbEntity
  8
$DDT_AUDIT_GENERATED_(88)
  6
Continuous
 62
     7
100
AcDbEllipse
 10
38.3588674461
 20
510.2385540806
 30
0.0
 11
-8.500000000020581
 21
-7.466249840604178E-12
 31
0.0
210
0.0
220
0.0
230
1.0
 40
0.4226182617
 41
0.7971631406845058
 42
1.035432573907052
  0
LINE
  5
CD
330
5E
100
AcDbEntity
  8
$DDT_AUDIT_GENERATED_(88)
  6
Continuous
 62
     7
100
AcDbLine
 10
32.2781650875
 20
507.7285054673
 30
0.0
 11
32.2781650875
 21
508.706070448
 31
0.0
  0
LINE
  5
CE
330
5E
100
AcDbEntity
  8
$DDT_AUDIT_GENERATED_(88)
  6
Continuous
 62
     7
100
AcDbLine
 10
33.6634982585
 20
508.313972564
 30
0.0
 11
32.2781650875
 21
507.7285054673
 31
0.0
  0
LINE
  5
CF
330
5E
100
AcDbEntity
  8
$DDT_AUDIT_GENERATED_(88)
  6
Continuous
 62
     7
100
AcDbLine
 10
33.7980482153
 20
508.2513013374
 30
0.0
 11
32.4195864437
 21
507.6687382196
 31
0.0
  0
ELLIPSE
  5
D0
330
5E
100
AcDbEntity
  8
$DDT_AUDIT_GENERATED_(88)
  6
Continuous
 62
     7
100
AcDbEllipse
 10
38.3588670368
 20
510.2385539807
 30
0.0
 11
-8.499999586481923
 21
1.053080504742621E-7
 31
0.0
210
0.0
220
0.0
230
1.0
 40
0.4226182676
 41
0.5118338152575777
 42
0.5353637704878534
  0
ELLIPSE
  5
D1
330
5E
100
AcDbEntity
  8
$DDT_AUDIT_GENERATED_(88)
  6
Continuous
 62
     7
100
AcDbEllipse
 10
38.3588674461
 20
510.2385540806
 30
0.0
 11
-8.500000000017337
 21
-5.443562267615221E-12
 31
0.0
210
0.0
220
0.0
230
1.0
 40
0.4226182617
 41
0.5353637528856598
 42
0.7736331861083257
  0
LINE
  5
D2
330
5E
100
AcDbEntity
  8
$DDT_AUDIT_GENERATED_(88)
  6
Continuous
 62
     7
100
AcDbLine
 10
30.9481609583
 20
508.479150587
 30
0.0
 11
30.9481609583
 21
509.3556113712
 31
0.0
  0
LINE
  5
D3
330
5E
100
AcDbEntity
  8
$DDT_AUDIT_GENERATED_(88)
  6
Continuous
 62
     7
100
AcDbLine
 10
32.7259091826
 20
508.9129189621
 30
0.0
 11
30.9481609583
 21
508.479150587
 31
0.0
  0
LINE
  5
D4
330
5E
100
AcDbEntity
  8
$DDT_AUDIT_GENERATED_(88)
  6
Continuous
 62
     7
100
AcDbLine
 10
32.8155959931
 20
508.8372029265
 30
0.0
 11
31.0481609583
 21
508.4059509569
 31
0.0
  0
ELLIPSE
  5
D5
330
5E
100
AcDbEntity
  8
$DDT_AUDIT_GENERATED_(88)
  6
Continuous
 62
     7
100
AcDbEllipse
 10
38.358867056
 20
510.2385540363
 30
0.0
 11
-8.499999609628706
 21
5.205439898570141E-8
 31
0.0
210
0.0
220
0.0
230
1.0
 40
0.4226182704
 41
0.2500344187590359
 42
0.2735643738943025
  0
ELLIPSE
  5
D6
330
5E
100
AcDbEntity
  8
$DDT_AUDIT_GENERATED_(88)
  6
Continuous
 62
     7
100
AcDbEllipse
 10
38.3588674461
 20
510.2385540806
 30
0.0
 11
-8.500000000026601
 21
-5.134781488891349E-12
 31
0.0
210
0.0
220
0.0
230
1.0
 40
0.4226182617
 41
0.2735643650865783
 42
0.5118337983091519
  0
LINE
  5
D7
330
5E
100
AcDbEntity
  8
$DDT_AUDIT_GENERATED_(88)
  6
Continuous
 62
     7
100
AcDbLine
 10
30.1231842295
 20
509.3496961473
 30
0.0
 11
30.1231842295
 21
510.1962922544
 31
0.0
  0
LINE
  5
D8
330
5E
100
AcDbEntity
  8
$DDT_AUDIT_GENERATED_(88)
  6
Continuous
 62
     7
100
AcDbLine
 10
32.2091967938
 20
509.585916673
 30
0.0
 11
30.1231842295
 21
509.3496961473
 31
0.0
  0
LINE
  5
D9
330
5E
100
AcDbEntity
  8
$DDT_AUDIT_GENERATED_(88)
  6
Continuous
 62
     7
100
AcDbLine
 10
32.2481252657
 20
509.5028196178
 30
0.0
 11
30.1749480385
 21
509.2680525685
 31
0.0
  0
ARC
  5
DA
330
5E
100
AcDbEntity
  8
$DDT_AUDIT_GENERATED_(88)
  6
Continuous
 62
     7
100
AcDbCircle
 10
31.3775032945
 20
510.2385540806
 30
0.0
 40
1.51863575479425
100
AcDbArc
 50
178.4053207506
 51
181.5946792495
  0
ELLIPSE
  5
DB
330
5E
100
AcDbEntity
  8
$DDT_AUDIT_GENERATED_(88)
  6
Continuous
 62
     7
100
AcDbEllipse
 10
38.3588674461
 20
510.2385540806
 30
0.0
 11
-8.500000000031195
 21
-1.946359740045978E-12
 31
0.0
210
0.0
220
0.0
230
1.0
 40
0.4226182617
 41
0.0117649772880082
 42
0.2500344105105058
  0
ARC
  5
DC
330
5E
100
AcDbEntity
  8
$DDT_AUDIT_GENERATED_(88)
  6
Continuous
 62
     7
100
AcDbCircle
 10
33.2258133229
 20
510.2385540806
 30
0.0
 40
1.116945641478058
100
AcDbArc
 50
177.8315843466
 51
180.0
  0
LINE
  5
DD
330
5E
100
AcDbEntity
  8
$DDT_AUDIT_GENERATED_(88)
  6
Continuous
 62
     7
100
AcDbLine
 10
32.1096674973
 20
510.2808159067
 30
0.0
 11
32.1096674973
 21
510.9024622077
 31
0.0
  0
LINE
  5
DE
330
5E
100
AcDbEntity
  8
$DDT_AUDIT_GENERATED_(88)
  6
Continuous
 62
     7
100
AcDbLine
 10
32.1096674973
 20
510.2808159067
 30
0.0
 11
29.8594557018
 21
510.2808159067
 31
0.0
  0
LINE
  5
DF
330
5E
100
AcDbEntity
  8
$DDT_AUDIT_GENERATED_(88)
  6
Continuous
 62
     7
100
AcDbLine
 10
32.1088674461
 20
510.1962922544
 30
0.0
 11
29.8594557018
 21
510.1962922544
 31
0.0
  0
ELLIPSE
  5
E0
330
5E
100
AcDbEntity
  8
$DDT_AUDIT_GENERATED_(88)
  6
Continuous
 62
     7
100
AcDbEllipse
 10
38.3588669902
 20
510.2385541322
 30
0.0
 11
-8.499999543788917
 21
-6.072930353040462E-8
 31
0.0
210
0.0
220
0.0
230
1.0
 40
0.4226182719
 41
-0.2735643753753987
 42
-0.2500344201459104
  0
ELLIPSE
  5
E1
330
5E
100
AcDbEntity
  8
$DDT_AUDIT_GENERATED_(88)
  6
Continuous
 62
     7
100
AcDbEllipse
 10
38.3588674461
 20
510.2385540806
 30
0.0
 11
-8.500000000026102
 21
1.772887392448297E-12
 31
0.0
210
0.0
220
0.0
230
1.0
 40
0.4226182617
 41
6.033150896669006
 42
6.271420329891635
  0
ELLIPSE
  5
E2
330
5E
100
AcDbEntity
  8
$DDT_AUDIT_GENERATED_(88)
  6
Continuous
 62
     7
100
AcDbEllipse
 10
38.3588674247
 20
510.238554083
 30
0.0
 11
-6.249999978560941
 21
-2.857002828760002E-9
 31
0.0
210
0.0
220
0.0
230
1.0
 40
0.4226182624
 41
-0.277800071209799
 42
-0.2457987056623594
  0
LINE
  5
E3
330
5E
100
AcDbEntity
  8
$DDT_AUDIT_GENERATED_(88)
  6
Continuous
 62
     7
100
AcDbLine
 10
32.3484857264
 20
510.9629237024
 30
0.0
 11
32.3484857264
 21
511.656280057
 31
0.0
  0
LINE
  5
E4
330
5E
100
AcDbEntity
  8
$DDT_AUDIT_GENERATED_(88)
  6
Continuous
 62
     7
100
AcDbLine
 10
32.3484857264
 20
510.9629237024
 30
0.0
 11
30.1749480385
 21
511.2090555926
 31
0.0
  0
LINE
  5
E5
330
5E
100
AcDbEntity
  8
$DDT_AUDIT_GENERATED_(88)
  6
Continuous
 62
     7
100
AcDbLine
 10
32.2967219174
 20
510.8812801237
 30
0.0
 11
30.1231842295
 21
511.1274120139
 31
0.0
  0
ELLIPSE
  5
E6
330
5E
100
AcDbEntity
  8
$DDT_AUDIT_GENERATED_(88)
  6
Continuous
 62
     7
100
AcDbEllipse
 10
38.3588674461
 20
510.2385540806
 30
0.0
 11
-8.500000000005089
 21
9.783840404509192E-13
 31
0.0
210
0.0
220
0.0
230
1.0
 40
0.4226182617
 41
-0.4629216244723482
 42
-0.2735643650871067
  0
ELLIPSE
  5
E7
330
5E
100
AcDbEntity
  8
$DDT_AUDIT_GENERATED_(88)
  6
Continuous
 62
     7
100
AcDbEllipse
 10
38.358867496
 20
510.2385540684
 30
0.0
 11
-6.250000050396358
 21
1.283437939259002E-8
 31
0.0
210
0.0
220
0.0
230
1.0
 40
0.4226182608
 41
-0.5395994554064965
 42
-0.5075980900632855
  0
LINE
  5
E8
330
5E
100
AcDbEntity
  8
$DDT_AUDIT_GENERATED_(88)
  6
Continuous
 62
     7
100
AcDbLine
 10
32.9969015371
 20
511.5956669054
 30
0.0
 11
32.9969015371
 21
512.4448515448
 31
0.0
  0
LINE
  5
E9
330
5E
100
AcDbEntity
  8
$DDT_AUDIT_GENERATED_(88)
  6
Continuous
 62
     7
100
AcDbLine
 10
32.9969015371
 20
511.5956669054
 30
0.0
 11
31.0712363041
 21
512.0655268483
 31
0.0
  0
LINE
  5
EA
330
5E
100
AcDbEntity
  8
$DDT_AUDIT_GENERATED_(88)
  6
Continuous
 62
     7
100
AcDbLine
 10
32.8969015371
 20
511.5224672753
 30
0.0
 11
30.963834213
 21
511.9941333193
 31
0.0
  0
ELLIPSE
  5
EB
330
5E
100
AcDbEntity
  8
$DDT_AUDIT_GENERATED_(88)
  6
Continuous
 62
     7
100
AcDbEllipse
 10
38.3588674695
 20
510.2385540707
 30
0.0
 11
-6.250000024813091
 21
8.511587268333898E-9
 31
0.0
210
0.0
220
0.0
230
1.0
 40
0.4226182617
 41
-0.8013988442004383
 42
-0.7693974787944775
  0
LINE
  5
EC
330
5E
100
AcDbEntity
  8
$DDT_AUDIT_GENERATED_(88)
  6
Continuous
 62
     7
100
AcDbLine
 10
34.0107264634
 20
512.1359251122
 30
0.0
 11
34.0107264634
 21
513.2419299036
 31
0.0
  0
LINE
  5
ED
330
5E
100
AcDbEntity
  8
$DDT_AUDIT_GENERATED_(88)
  6
Continuous
 62
     7
100
AcDbLine
 10
34.0107264634
 20
512.1359251122
 30
0.0
 11
32.4988125473
 21
512.7748875434
 31
0.0
  0
LINE
  5
EE
330
5E
100
AcDbEntity
  8
$DDT_AUDIT_GENERATED_(88)
  6
Continuous
 62
     7
100
AcDbLine
 10
33.8693051072
 20
512.0761578645
 30
0.0
 11
32.3524579652
 21
512.7172051669
 31
0.0
  0
ELLIPSE
  5
EF
330
5E
100
AcDbEntity
  8
$DDT_AUDIT_GENERATED_(88)
  6
Continuous
 62
     7
100
AcDbEllipse
 10
38.3588674156
 20
510.2385541029
 30
0.0
 11
-6.249999961872017
 21
-1.359679729917573E-8
 31
0.0
210
0.0
220
0.0
230
1.0
 40
0.4226182607
 41
-1.063198237057351
 42
-1.031196871410609
  0
LINE
  5
F0
330
5E
100
AcDbEntity
  8
$DDT_AUDIT_GENERATED_(88)
  6
Continuous
 62
     7
100
AcDbLine
 10
35.3208700121
 20
512.5468806187
 30
0.0
 11
35.3208700121
 21
513.5026183161
 31
0.0
  0
LINE
  5
F1
330
5E
100
AcDbEntity
  8
$DDT_AUDIT_GENERATED_(88)
  6
Continuous
 62
     7
100
AcDbLine
 10
35.3208700121
 20
512.5468806187
 30
0.0
 11
34.2840320196
 21
513.3058421945
 31
0.0
  0
LINE
  5
F2
330
5E
100
AcDbEntity
  8
$DDT_AUDIT_GENERATED_(88)
  6
Continuous
 62
     7
100
AcDbLine
 10
35.1476649313
 20
512.5046187925
 30
0.0
 11
34.1083610761
 21
513.2653853707
 31
0.0
  0
ELLIPSE
  5
F3
330
5E
100
AcDbEntity
  8
$DDT_AUDIT_GENERATED_(88)
  6
Continuous
 62
     7
100
AcDbEllipse
 10
38.3588674628
 20
510.2385540543
 30
0.0
 11
-6.25000003430794
 21
8.284789521084690E-9
 31
0.0
210
0.0
220
0.0
230
1.0
 40
0.4226182636
 41
-1.324997619807419
 42
-1.292996254481381
  0
LINE
  5
F4
330
5E
100
AcDbEntity
  8
$DDT_AUDIT_GENERATED_(88)
  6
Continuous
 62
     7
100
AcDbLine
 10
36.8380480653
 20
512.8005274863
 30
0.0
 11
36.8380480653
 21
513.6774591139
 31
0.0
  0
LINE
  5
F5
330
5E
100
AcDbEntity
  8
$DDT_AUDIT_GENERATED_(88)
  6
Continuous
 62
     7
100
AcDbLine
 10
36.8380480653
 20
512.8005274863
 30
0.0
 11
36.3116220637
 21
513.6308238561
 31
0.0
  0
LINE
  5
F6
330
5E
100
AcDbEntity
  8
$DDT_AUDIT_GENERATED_(88)
  6
Continuous
 62
     7
100
AcDbLine
 10
36.6448629001
 20
512.7786511553
 30
0.0
 11
36.1177763195
 21
513.6099894118
 31
0.0
  0
ARC
  5
F7
330
5E
100
AcDbEntity
  8
$DDT_AUDIT_GENERATED_(88)
  6
Continuous
 62
     7
100
AcDbCircle
 10
38.3588674461
 20
498.0927132879
 30
0.0
 40
14.78720494629453
100
AcDbArc
 50
89.6125284227
 51
90.3874715773
  0
LINE
  5
F8
330
5E
100
AcDbEntity
  8
$DDT_AUDIT_GENERATED_(88)
  6
Continuous
 62
     7
100
AcDbLine
 10
38.4588674461
 20
512.8795801002
 30
0.0
 11
38.4588674461
 21
513.7338285082
 31
0.0
  0
LINE
  5
F9
330
5E
100
AcDbEntity
  8
$DDT_AUDIT_GENERATED_(88)
  6
Continuous
 62
     7
100
AcDbLine
 10
38.2588674461
 20
512.8795801002
 30
0.0
 11
38.2588674461
 21
513.7338285082
 31
0.0
  0
ELLIPSE
  5
FA
330
5E
100
AcDbEntity
  8
$DDT_AUDIT_GENERATED_(88)
  6
Continuous
 62
     7
100
AcDbEllipse
 10
38.3588674293
 20
510.238554054
 30
0.0
 11
6.25000003466949
 21
8.342486423895679E-9
 31
0.0
210
0.0
220
0.0
230
1.0
 40
0.4226182636
 41
1.292996254474382
 42
1.324997619798578
  0
LINE
  5
FB
330
5E
100
AcDbEntity
  8
$DDT_AUDIT_GENERATED_(88)
  6
Continuous
 62
     7
100
AcDbLine
 10
40.0728719921
 20
512.7786511553
 30
0.0
 11
40.5999585727
 21
513.6099894118
 31
0.0
  0
LINE
  5
FC
330
5E
100
AcDbEntity
  8
$DDT_AUDIT_GENERATED_(88)
  6
Continuous
 62
     7
100
AcDbLine
 10
39.8796868269
 20
512.8005274863
 30
0.0
 11
40.4061128285
 21
513.6308238561
 31
0.0
  0
LINE
  5
FD
330
5E
100
AcDbEntity
  8
$DDT_AUDIT_GENERATED_(88)
  6
Continuous
 62
     7
100
AcDbLine
 10
39.8796868269
 20
512.8005274863
 30
0.0
 11
39.8796868269
 21
513.6774591139
 31
0.0
  0
ELLIPSE
  5
FE
330
5E
100
AcDbEntity
  8
$DDT_AUDIT_GENERATED_(88)
  6
Continuous
 62
     7
100
AcDbEllipse
 10
38.358867417
 20
510.2385540593
 30
0.0
 11
6.250000036376224
 21
1.296415058638089E-8
 31
0.0
210
0.0
220
0.0
230
1.0
 40
0.4226182627
 41
1.031196865633533
 42
1.063198230975148
  0
LINE
  5
FF
330
5E
100
AcDbEntity
  8
$DDT_AUDIT_GENERATED_(88)
  6
Continuous
 62
     7
100
AcDbLine
 10
41.5700699609
 20
512.5046187925
 30
0.0
 11
42.6093738161
 21
513.2653853707
 31
0.0
  0
LINE
  5
100
330
5E
100
AcDbEntity
  8
$DDT_AUDIT_GENERATED_(88)
  6
Continuous
 62
     7
100
AcDbLine
 10
41.3968648801
 20
512.5468806187
 30
0.0
 11
42.4337028726
 21
513.3058421945
 31
0.0
  0
LINE
  5
101
330
5E
100
AcDbEntity
  8
$DDT_AUDIT_GENERATED_(88)
  6
Continuous
 62
     7
100
AcDbLine
 10
41.3968648801
 20
512.5468806187
 30
0.0
 11
41.3968648801
 21
513.5026183161
 31
0.0
  0
ELLIPSE
  5
102
330
5E
100
AcDbEntity
  8
$DDT_AUDIT_GENERATED_(88)
  6
Continuous
 62
     7
100
AcDbEllipse
 10
38.358867423
 20
510.2385540708
 30
0.0
 11
6.250000024454643
 21
8.398216150284910E-9
 31
0.0
210
0.0
220
0.0
230
1.0
 40
0.4226182617
 41
0.7693974788219234
 42
0.8013988442290662
  0
LINE
  5
103
330
5E
100
AcDbEntity
  8
$DDT_AUDIT_GENERATED_(88)
  6
Continuous
 62
     7
100
AcDbLine
 10
42.848429785
 20
512.0761578645
 30
0.0
 11
44.365276927
 21
512.7172051669
 31
0.0
  0
LINE
  5
104
330
5E
100
AcDbEntity
  8
$DDT_AUDIT_GENERATED_(88)
  6
Continuous
 62
     7
100
AcDbLine
 10
42.7070084288
 20
512.1359251122
 30
0.0
 11
44.2189223449
 21
512.7748875434
 31
0.0
  0
LINE
  5
105
330
5E
100
AcDbEntity
  8
$DDT_AUDIT_GENERATED_(88)
  6
Continuous
 62
     7
100
AcDbLine
 10
42.7070084288
 20
512.1359251122
 30
0.0
 11
42.7070084288
 21
513.2419299036
 31
0.0
  0
ELLIPSE
  5
106
330
5E
100
AcDbEntity
  8
$DDT_AUDIT_GENERATED_(88)
  6
Continuous
 62
     7
100
AcDbEllipse
 10
38.3588674182
 20
510.2385540737
 30
0.0
 11
6.250000028216077
 21
7.192756806828626E-9
 31
0.0
210
0.0
220
0.0
230
1.0
 40
0.4226182612
 41
0.5075980912907854
 42
0.5395994566988425
  0
LINE
  5
107
330
5E
100
AcDbEntity
  8
$DDT_AUDIT_GENERATED_(88)
  6
Continuous
 62
     7
100
AcDbLine
 10
43.8208333551
 20
511.5224672753
 30
0.0
 11
45.7539006793
 21
511.9941333193
 31
0.0
  0
LINE
  5
108
330
5E
100
AcDbEntity
  8
$DDT_AUDIT_GENERATED_(88)
  6
Continuous
 62
     7
100
AcDbLine
 10
43.7208333551
 20
511.5956669054
 30
0.0
 11
45.6464985881
 21
512.0655268483
 31
0.0
  0
LINE
  5
109
330
5E
100
AcDbEntity
  8
$DDT_AUDIT_GENERATED_(88)
  6
Continuous
 62
     7
100
AcDbLine
 10
43.7208333551
 20
511.5956669054
 30
0.0
 11
43.7208333551
 21
512.4448515448
 31
0.0
  0
ELLIPSE
  5
10A
330
5E
100
AcDbEntity
  8
$DDT_AUDIT_GENERATED_(88)
  6
Continuous
 62
     7
100
AcDbEllipse
 10
38.3588679017
 20
510.2385541321
 30
0.0
 11
8.499999544165954
 21
-6.066407792770789E-8
 31
0.0
210
0.0
220
0.0
230
1.0
 40
0.4226182719
 41
0.2500344201372745
 42
0.2735643753662234
  0
ELLIPSE
  5
10B
330
5E
100
AcDbEntity
  8
$DDT_AUDIT_GENERATED_(88)
  6
Continuous
 62
     7
100
AcDbEllipse
 10
38.3588674461
 20
510.2385540805
 30
0.0
 11
8.500000000030706
 21
5.981326545168031E-12
 31
0.0
210
0.0
220
0.0
230
1.0
 40
0.4226182617
 41
0.2735643650864805
 42
0.4629216244714074
  0
ELLIPSE
  5
10C
330
5E
100
AcDbEntity
  8
$DDT_AUDIT_GENERATED_(88)
  6
Continuous
 62
     7
100
AcDbEllipse
 10
38.3588674411
 20
510.23855408
 30
0.0
 11
6.250000005000933
 21
6.626262039066688E-10
 31
0.0
210
0.0
220
0.0
230
1.0
 40
0.4226182616
 41
0.2457987049122946
 42
0.2778000703896766
  0
LINE
  5
10D
330
5E
100
AcDbEntity
  8
$DDT_AUDIT_GENERATED_(88)
  6
Continuous
 62
     7
100
AcDbLine
 10
44.4210129748
 20
510.8812801237
 30
0.0
 11
46.5945506627
 21
511.1274120139
 31
0.0
  0
LINE
  5
10E
330
5E
100
AcDbEntity
  8
$DDT_AUDIT_GENERATED_(88)
  6
Continuous
 62
     7
100
AcDbLine
 10
44.3692491658
 20
510.9629237024
 30
0.0
 11
46.5427868537
 21
511.2090555926
 31
0.0
  0
LINE
  5
10F
330
5E
100
AcDbEntity
  8
$DDT_AUDIT_GENERATED_(88)
  6
Continuous
 62
     7
100
AcDbLine
 10
44.3692491658
 20
510.9629237024
 30
0.0
 11
44.3692491658
 21
511.656280057
 31
0.0
  0
ELLIPSE
  5
110
330
5E
100
AcDbEntity
  8
$DDT_AUDIT_GENERATED_(88)
  6
Continuous
 62
     7
100
AcDbEllipse
 10
38.3588674461
 20
510.2385540806
 30
0.0
 11
-2.749999999997486
 21
6.938893903907228E-15
 31
0.0
210
0.0
220
0.0
230
1.0
 40
0.4226182617
 41
3.141592653589793
 42
3.205272045846825
  0
LINE
  5
111
330
5E
100
AcDbEntity
  8
$DDT_AUDIT_GENERATED_(88)
  6
Continuous
 62
     7
100
AcDbLine
 10
41.1032936156
 20
510.822791114
 30
0.0
 11
41.1032936156
 21
510.3125122764
 31
0.0
  0
LINE
  5
112
330
5E
100
AcDbEntity
  8
$DDT_AUDIT_GENERATED_(88)
  6
Continuous
 62
     7
100
AcDbLine
 10
41.1088674461
 20
510.1645958848
 30
0.0
 11
43.6027242412
 21
510.1645958848
 31
0.0
  0
LINE
  5
113
330
5E
100
AcDbEntity
  8
$DDT_AUDIT_GENERATED_(88)
  6
Continuous
 62
     7
100
AcDbLine
 10
41.1032936156
 20
510.3125122764
 30
0.0
 11
43.5740187496
 21
510.3125122764
 31
0.0
  0
ELLIPSE
  5
114
330
5E
100
AcDbEntity
  8
$DDT_AUDIT_GENERATED_(88)
  6
Continuous
 62
     7
100
AcDbEllipse
 10
38.3588674492
 20
510.2385540798
 30
0.0
 11
5.249999996868738
 21
8.006512119962394E-10
 31
0.0
210
0.0
220
0.0
230
1.0
 40
0.4226182618
 41
-0.5569382850830165
 42
-0.4902592665376826
  0
LINE
  5
115
330
5E
100
AcDbEntity
  8
$DDT_AUDIT_GENERATED_(88)
  6
Continuous
 62
     7
100
AcDbLine
 10
40.8325731738
 20
509.5495733641
 30
0.0
 11
42.8154742065
 21
509.0657479567
 31
0.0
  0
LINE
  5
116
330
5E
100
AcDbEntity
  8
$DDT_AUDIT_GENERATED_(88)
  6
Continuous
 62
     7
100
AcDbLine
 10
40.966166864
 20
509.6877758054
 30
0.0
 11
42.9904742065
 21
509.1938473095
 31
0.0
  0
LINE
  5
117
330
5E
100
AcDbEntity
  8
$DDT_AUDIT_GENERATED_(88)
  6
Continuous
 62
     7
100
AcDbLine
 10
42.9904742065
 20
510.1645958848
 30
0.0
 11
42.9904742065
 21
509.1938473095
 31
0.0
  0
ELLIPSE
  5
118
330
5E
100
AcDbEntity
  8
$DDT_AUDIT_GENERATED_(88)
  6
Continuous
 62
     7
100
AcDbEllipse
 10
38.3588674452
 20
510.2385540812
 30
0.0
 11
5.250000001106472
 21
-3.956383831660304E-10
 31
0.0
210
0.0
220
0.0
230
1.0
 40
0.4226182618
 41
-1.080537060346896
 42
-1.013858041835524
  0
LINE
  5
119
330
5E
100
AcDbEntity
  8
$DDT_AUDIT_GENERATED_(88)
  6
Continuous
 62
     7
100
AcDbLine
 10
39.7678912533
 20
509.0592374733
 30
0.0
 11
40.8308542618
 21
508.2811524824
 31
0.0
  0
LINE
  5
11A
330
5E
100
AcDbEntity
  8
$DDT_AUDIT_GENERATED_(88)
  6
Continuous
 62
     7
100
AcDbLine
 10
40.0572834536
 20
509.1432362362
 30
0.0
 11
41.1339631531
 21
508.3551106782
 31
0.0
  0
LINE
  5
11B
330
5E
100
AcDbEntity
  8
$DDT_AUDIT_GENERATED_(88)
  6
Continuous
 62
     7
100
AcDbLine
 10
41.1339631531
 20
509.4760345807
 30
0.0
 11
41.1339631531
 21
508.3551106782
 31
0.0
  0
ARC
  5
11C
330
5E
100
AcDbEntity
  8
$DDT_AUDIT_GENERATED_(88)
  6
Continuous
 62
     7
100
AcDbCircle
 10
38.3588674461
 20
520.4366961577
 30
0.0
 40
12.41688823285113
100
AcDbArc
 50
269.1924632648
 51
270.8075367352
  0
LINE
  5
11D
330
5E
100
AcDbEntity
  8
$DDT_AUDIT_GENERATED_(88)
  6
Continuous
 62
     7
100
AcDbLine
 10
38.1838674461
 20
508.8974479059
 30
0.0
 11
38.1838674461
 21
508.0210411856
 31
0.0
  0
LINE
  5
11E
330
5E
100
AcDbEntity
  8
$DDT_AUDIT_GENERATED_(88)
  6
Continuous
 62
     7
100
AcDbLine
 10
38.5338674461
 20
508.8974479059
 30
0.0
 11
38.5338674461
 21
508.0210411856
 31
0.0
  0
ELLIPSE
  5
11F
330
5E
100
AcDbEntity
  8
$DDT_AUDIT_GENERATED_(88)
  6
Continuous
 62
     7
100
AcDbEllipse
 10
38.358867445
 20
510.2385540798
 30
0.0
 11
-5.249999998673811
 21
4.731492975196261E-10
 31
0.0
210
0.0
220
0.0
230
1.0
 40
0.4226182617
 41
1.013858042054419
 42
1.080537060590499
  0
LINE
  5
120
330
5E
100
AcDbEntity
  8
$DDT_AUDIT_GENERATED_(88)
  6
Continuous
 62
     7
100
AcDbLine
 10
36.6604514386
 20
509.1432362362
 30
0.0
 11
35.5837717391
 21
508.3551106782
 31
0.0
  0
LINE
  5
121
330
5E
100
AcDbEntity
  8
$DDT_AUDIT_GENERATED_(88)
  6
Continuous
 62
     7
100
AcDbLine
 10
36.9498436389
 20
509.0592374733
 30
0.0
 11
35.8868806304
 21
508.2811524824
 31
0.0
  0
LINE
  5
122
330
5E
100
AcDbEntity
  8
$DDT_AUDIT_GENERATED_(88)
  6
Continuous
 62
     7
100
AcDbLine
 10
35.5837717391
 20
509.4760345807
 30
0.0
 11
35.5837717391
 21
508.3551106782
 31
0.0
  0
ELLIPSE
  5
123
330
5E
100
AcDbEntity
  8
$DDT_AUDIT_GENERATED_(88)
  6
Continuous
 62
     7
100
AcDbEllipse
 10
38.3588674452
 20
510.2385540803
 30
0.0
 11
-5.249999999080192
 21
2.325882542120183E-10
 31
0.0
210
0.0
220
0.0
230
1.0
 40
0.4226182618
 41
0.4902592663958967
 42
0.5569382849251621
  0
LINE
  5
124
330
5E
100
AcDbEntity
  8
$DDT_AUDIT_GENERATED_(88)
  6
Continuous
 62
     7
100
AcDbLine
 10
35.7515680282
 20
509.6877758054
 30
0.0
 11
33.7272606857
 21
509.1938473095
 31
0.0
  0
LINE
  5
125
330
5E
100
AcDbEntity
  8
$DDT_AUDIT_GENERATED_(88)
  6
Continuous
 62
     7
100
AcDbLine
 10
35.8851617184
 20
509.5495733641
 30
0.0
 11
33.9022606857
 21
509.0657479567
 31
0.0
  0
LINE
  5
126
330
5E
100
AcDbEntity
  8
$DDT_AUDIT_GENERATED_(88)
  6
Continuous
 62
     7
100
AcDbLine
 10
33.7272606857
 20
510.1645958848
 30
0.0
 11
33.7272606857
 21
509.1938473095
 31
0.0
  0
LINE
  5
127
330
5E
100
AcDbEntity
  8
$DDT_AUDIT_GENERATED_(88)
  6
Continuous
 62
     7
100
AcDbLine
 10
35.6144412766
 20
510.822791114
 30
0.0
 11
35.6144412766
 21
510.3125122764
 31
0.0
  0
ELLIPSE
  5
128
330
5E
100
AcDbEntity
  8
$DDT_AUDIT_GENERATED_(88)
  6
Continuous
 62
     7
100
AcDbEllipse
 10
38.3588674461
 20
510.2385540806
 30
0.0
 11
2.750000000003311
 21
5.204170427930421E-13
 31
0.0
210
0.0
220
0.0
230
1.0
 40
0.4226182617
 41
3.077913261332757
 42
3.141592653589786
  0
LINE
  5
129
330
5E
100
AcDbEntity
  8
$DDT_AUDIT_GENERATED_(88)
  6
Continuous
 62
     7
100
AcDbLine
 10
35.6144412766
 20
510.3125122764
 30
0.0
 11
33.1437161426
 21
510.3125122764
 31
0.0
  0
LINE
  5
12A
330
5E
100
AcDbEntity
  8
$DDT_AUDIT_GENERATED_(88)
  6
Continuous
 62
     7
100
AcDbLine
 10
35.6088674461
 20
510.1645958848
 30
0.0
 11
33.115010651
 21
510.1645958848
 31
0.0
  0
LINE
  5
12B
330
5E
100
AcDbEntity
  8
$DDT_AUDIT_GENERATED_(88)
  6
Continuous
 62
     7
100
AcDbLine
 10
36.0696246645
 20
511.7663549384
 30
0.0
 11
36.0696246645
 21
510.8825260656
 31
0.0
  0
ELLIPSE
  5
12C
330
5E
100
AcDbEntity
  8
$DDT_AUDIT_GENERATED_(88)
  6
Continuous
 62
     7
100
AcDbEllipse
 10
38.3588674462
 20
510.2385540805
 30
0.0
 11
-2.750000000080826
 21
2.063627047022009E-11
 31
0.0
210
0.0
220
0.0
230
1.0
 40
0.4226182617
 41
-0.5872781678437988
 42
-0.4599193833319095
  0
LINE
  5
12D
330
5E
100
AcDbEntity
  8
$DDT_AUDIT_GENERATED_(88)
  6
Continuous
 62
     7
100
AcDbLine
 10
36.0696246645
 20
510.8825260656
 30
0.0
 11
34.1101486809
 21
511.3606357899
 31
0.0
  0
LINE
  5
12E
330
5E
100
AcDbEntity
  8
$DDT_AUDIT_GENERATED_(88)
  6
Continuous
 62
     7
100
AcDbLine
 10
35.8946246645
 20
510.7544267128
 30
0.0
 11
33.9136376619
 21
511.2377850992
 31
0.0
  0
LINE
  5
12F
330
5E
100
AcDbEntity
  8
$DDT_AUDIT_GENERATED_(88)
  6
Continuous
 62
     7
100
AcDbLine
 10
37.138208807
 20
512.215233366
 30
0.0
 11
37.138208807
 21
511.2799880814
 31
0.0
  0
ELLIPSE
  5
130
330
5E
100
AcDbEntity
  8
$DDT_AUDIT_GENERATED_(88)
  6
Continuous
 62
     7
100
AcDbEllipse
 10
38.3588674461
 20
510.2385540806
 30
0.0
 11
-2.749999999995826
 21
-1.682681771697503E-12
 31
0.0
210
0.0
220
0.0
230
1.0
 40
0.4226182617
 41
-1.110876943454444
 42
-0.9835181589402469
  0
LINE
  5
131
330
5E
100
AcDbEntity
  8
$DDT_AUDIT_GENERATED_(88)
  6
Continuous
 62
     7
100
AcDbLine
 10
37.138208807
 20
511.2799880814
 30
0.0
 11
36.078374071
 21
512.0557831884
 31
0.0
  0
LINE
  5
132
330
5E
100
AcDbEntity
  8
$DDT_AUDIT_GENERATED_(88)
  6
Continuous
 62
     7
100
AcDbLine
 10
36.8350999157
 20
511.2060298856
 30
0.0
 11
35.7681068609
 21
511.9870648555
 31
0.0
  0
ARC
  5
133
330
5E
100
AcDbEntity
  8
$DDT_AUDIT_GENERATED_(88)
  6
Continuous
 62
     7
100
AcDbCircle
 10
38.3588674461
 20
504.9045331506
 30
0.0
 40
6.496223113851392
100
AcDbArc
 50
88.4563377267
 51
91.5436622733
  0
LINE
  5
134
330
5E
100
AcDbEntity
  8
$DDT_AUDIT_GENERATED_(88)
  6
Continuous
 62
     7
100
AcDbLine
 10
38.5338674461
 20
511.3983986978
 30
0.0
 11
38.5338674461
 21
512.2748054181
 31
0.0
  0
LINE
  5
135
330
5E
100
AcDbEntity
  8
$DDT_AUDIT_GENERATED_(88)
  6
Continuous
 62
     7
100
AcDbLine
 10
38.1838674461
 20
511.3983986978
 30
0.0
 11
38.1838674461
 21
512.2748054181
 31
0.0
  0
ELLIPSE
  5
136
330
5E
100
AcDbEntity
  8
$DDT_AUDIT_GENERATED_(88)
  6
Continuous
 62
     7
100
AcDbEllipse
 10
38.3588674461
 20
510.2385540805
 30
0.0
 11
2.750000000056152
 21
1.975850039137583E-11
 31
0.0
210
0.0
220
0.0
230
1.0
 40
0.4226182617
 41
0.9835181589305497
 42
1.110876943442503
  0
LINE
  5
137
330
5E
100
AcDbEntity
  8
$DDT_AUDIT_GENERATED_(88)
  6
Continuous
 62
     7
100
AcDbLine
 10
39.5795260852
 20
512.215233366
 30
0.0
 11
39.5795260852
 21
511.2799880814
 31
0.0
  0
LINE
  5
138
330
5E
100
AcDbEntity
  8
$DDT_AUDIT_GENERATED_(88)
  6
Continuous
 62
     7
100
AcDbLine
 10
39.8826349765
 20
511.2060298856
 30
0.0
 11
40.9496280313
 21
511.9870648555
 31
0.0
  0
LINE
  5
139
330
5E
100
AcDbEntity
  8
$DDT_AUDIT_GENERATED_(88)
  6
Continuous
 62
     7
100
AcDbLine
 10
39.5795260852
 20
511.2799880814
 30
0.0
 11
40.6393608212
 21
512.0557831884
 31
0.0
  0
ELLIPSE
  5
13A
330
5E
100
AcDbEntity
  8
$DDT_AUDIT_GENERATED_(88)
  6
Continuous
 62
     7
100
AcDbEllipse
 10
38.3588674461
 20
510.2385540806
 30
0.0
 11
2.750000000013407
 21
3.337607967779377E-12
 31
0.0
210
0.0
220
0.0
230
1.0
 40
0.4226182617
 41
0.4599193833397284
 42
0.5872781678534259
  0
LINE
  5
13B
330
5E
100
AcDbEntity
  8
$DDT_AUDIT_GENERATED_(88)
  6
Continuous
 62
     7
100
AcDbLine
 10
40.6481102277
 20
511.7663549384
 30
0.0
 11
40.6481102277
 21
510.8825260656
 31
0.0
  0
LINE
  5
13C
330
5E
100
AcDbEntity
  8
$DDT_AUDIT_GENERATED_(88)
  6
Continuous
 62
     7
100
AcDbLine
 10
40.8231102277
 20
510.7544267128
 30
0.0
 11
42.8040972303
 21
511.2377850992
 31
0.0
  0
LINE
  5
13D
330
5E
100
AcDbEntity
  8
$DDT_AUDIT_GENERATED_(88)
  6
Continuous
 62
     7
100
AcDbLine
 10
40.6481102277
 20
510.8825260656
 30
0.0
 11
42.6075862113
 21
511.3606357899
 31
0.0
  0
LINE
  5
13E
330
5E
100
AcDbEntity
  8
$DDT_AUDIT_GENERATED_(88)
  6
Continuous
 62
     7
100
AcDbLine
 10
29.3588674461
 20
512.197617536
 30
0.0
 11
29.3588674461
 21
510.0572925231
 31
0.0
  0
LINE
  5
13F
330
5E
100
AcDbEntity
  8
$DDT_AUDIT_GENERATED_(88)
  6
Continuous
 62
     7
100
AcDbLine
 10
47.3588674461
 20
510.0572925231
 30
0.0
 11
47.3588674461
 21
512.197617536
 31
0.0
  0
LINE
  5
140
330
5E
100
AcDbEntity
  8
$DDT_AUDIT_GENERATED_(88)
  6
Continuous
 62
     7
100
AcDbLine
 10
32.1088674461
 20
510.2385540806
 30
0.0
 11
32.1088674461
 21
510.0572925231
 31
0.0
  0
LINE
  5
141
330
5E
100
AcDbEntity
  8
$DDT_AUDIT_GENERATED_(88)
  6
Continuous
 62
     7
100
AcDbLine
 10
44.6088674461
 20
510.0572925231
 30
0.0
 11
44.6088674461
 21
510.2385540806
 31
0.0
  0
LINE
  5
142
330
5E
100
AcDbEntity
  8
$DDT_AUDIT_GENERATED_(88)
  6
Continuous
 62
     7
100
AcDbLine
 10
35.6088674461
 20
510.2385540806
 30
0.0
 11
35.6088674461
 21
510.0572925231
 31
0.0
  0
LINE
  5
143
330
5E
100
AcDbEntity
  8
$DDT_AUDIT_GENERATED_(88)
  6
Continuous
 62
     7
100
AcDbLine
 10
41.1088674461
 20
510.0572925231
 30
0.0
 11
41.1088674461
 21
510.2385540806
 31
0.0
  0
LINE
  5
144
330
5E
100
AcDbEntity
  8
$DDT_AUDIT_GENERATED_(88)
  6
Continuous
 62
     7
100
AcDbLine
 10
37.8392375022
 20
510.63174028
 30
0.0
 11
37.8392375022
 21
510.2385540806
 31
0.0
  0
LINE
  5
145
330
5E
100
AcDbEntity
  8
$DDT_AUDIT_GENERATED_(88)
  6
Continuous
 62
     7
100
AcDbLine
 10
38.87849739
 20
510.2385540806
 30
0.0
 11
38.87849739
 21
510.4626822138
 31
0.0
  0
ARC
  5
147
330
5E
100
AcDbEntity
  8
06972038_HEBEL_E
  6
Continuous
 62
     7
100
AcDbCircle
 10
148.3588674461
 20
20633.128183245
 30
0.0
 40
20190.3761686392
100
AcDbArc
 50
269.9846760055
 51
270.0153239945
  0
ARC
  5
148
330
5E
100
AcDbEntity
  8
06972038_HEBEL_E
  6
Continuous
 62
     7
100
AcDbCircle
 10
153.7585136888
 20
445.7530905359
 30
0.0
 40
3.000353824697955
100
AcDbArc
 50
270.0067554712
 51
359.9878611969
  0
ARC
  5
149
330
5E
100
AcDbEntity
  8
06972038_HEBEL_E
  6
Continuous
 62
     7
100
AcDbCircle
 10
142.9591778731
 20
445.7530472015
 30
0.0
 40
3.00031048545924
100
AcDbArc
 50
180.0113114372
 51
269.9940718947
  0
LINE
  5
14A
330
5E
100
AcDbEntity
  8
06972038_HEBEL_E
  6
Continuous
 62
     7
100
AcDbLine
 10
156.7588674461
 20
504.4256889798
 30
0.0
 11
156.7588674461
 21
445.7524548747
 31
0.0
  0
LINE
  5
14B
330
5E
100
AcDbEntity
  8
06972038_HEBEL_E
  6
Continuous
 62
     7
100
AcDbLine
 10
139.9588674461
 20
445.7524548747
 30
0.0
 11
139.9588674461
 21
504.4256889798
 31
0.0
  0
ARC
  5
14C
330
5E
100
AcDbEntity
  8
06972038_HEBEL_E
  6
Continuous
 62
     7
100
AcDbCircle
 10
164.7606850624
 20
504.4243324424
 30
0.0
 40
8.001817731299967
100
AcDbArc
 50
121.9473145648
 51
179.9902867239
  0
ARC
  5
14D
330
5E
100
AcDbEntity
  8
06972038_HEBEL_E
  6
Continuous
 62
     7
100
AcDbCircle
 10
131.9570498606
 20
504.4243324595
 30
0.0
 40
8.001817700495444
100
AcDbArc
 50
0.0097131537
 51
58.0526855575
  0
ELLIPSE
  5
14E
330
5E
100
AcDbEntity
  8
06972038_HEBEL_E
  6
Continuous
 62
     7
100
AcDbEllipse
 10
148.3588674461
 20
530.7341790909
 30
0.0
 11
-22.99999999999908
 21
9.830786358577814E-12
 31
0.0
210
0.0
220
0.0
230
1.0
 40
0.999657325
 41
3.141592653589793
 42
6.283185307179584
  0
ARC
  5
14F
330
5E
100
AcDbEntity
  8
06972038_HEBEL_E
  6
Continuous
 62
     7
100
AcDbCircle
 10
148.3689990809
 20
530.7376168937
 30
0.0
 40
23.01013189156367
100
AcDbArc
 50
180.0085602115
 51
238.0459062719
  0
ARC
  5
150
330
5E
100
AcDbEntity
  8
06972038_HEBEL_E
  6
Continuous
 62
     7
100
AcDbCircle
 10
148.3487358478
 20
530.7376168735
 30
0.0
 40
23.01013185516295
100
AcDbArc
 50
301.9540936778
 51
359.9914398388
  0
LINE
  5
151
330
5E
100
AcDbEntity
  8
06972038_HEBEL_E
  6
Continuous
 62
     7
100
AcDbLine
 10
125.3588674461
 20
531.4624953884
 30
0.0
 11
125.3588674461
 21
530.7341790909
 31
0.0
  0
LINE
  5
152
330
5E
100
AcDbEntity
  8
06972038_HEBEL_E
  6
Continuous
 62
     7
100
AcDbLine
 10
171.3588674461
 20
530.7341790909
 30
0.0
 11
171.3588674461
 21
531.4624953884
 31
0.0
  0
LINE
  5
155
330
5E
100
AcDbEntity
  8
DV1_Default
  6
CENTER2
 62
     7
100
AcDbLine
 10
58.3588669991
 20
531.684978981
 30
0.0
 11
18.3588678931
 21
531.684978981
 31
0.0
  0
LINE
  5
156
330
5E
100
AcDbEntity
  8
DV1_Default
  6
CENTER2
 62
     7
100
AcDbLine
 10
38.3588674461
 20
551.684978534
 30
0.0
 11
38.3588674461
 21
511.684979428
 31
0.0
  0
LINE
  5
157
330
5E
100
AcDbEntity
  8
DV1_Default
  6
CENTER2
 62
     7
100
AcDbLine
 10
63.3588668873
 20
531.684978981
 30
0.0
 11
64.9588674461
 21
531.684978981
 31
0.0
  0
LINE
  5
158
330
5E
100
AcDbEntity
  8
DV1_Default
  6
CENTER2
 62
     7
100
AcDbLine
 10
38.3588674461
 20
556.6849784222
 30
0.0
 11
38.3588674461
 21
558.284978981
 31
0.0
  0
LINE
  5
159
330
5E
100
AcDbEntity
  8
DV1_Default
  6
CENTER2
 62
     7
100
AcDbLine
 10
13.3588680049
 20
531.684978981
 30
0.0
 11
11.7588674461
 21
531.684978981
 31
0.0
  0
LINE
  5
15A
330
5E
100
AcDbEntity
  8
DV1_Default
  6
CENTER2
 62
     7
100
AcDbLine
 10
38.3588674461
 20
506.6849795398
 30
0.0
 11
38.3588674461
 21
505.084978981
 31
0.0
  0
LINE
  5
15B
330
5E
100
AcDbEntity
  8
DV1_Default
  6
CENTER2
 62
     7
100
AcDbLine
 10
168.3588669991
 20
531.684978981
 30
0.0
 11
128.3588678931
 21
531.684978981
 31
0.0
  0
LINE
  5
15C
330
5E
100
AcDbEntity
  8
DV1_Default
  6
CENTER2
 62
     7
100
AcDbLine
 10
148.3588674461
 20
551.684978534
 30
0.0
 11
148.3588674461
 21
511.684979428
 31
0.0
  0
LINE
  5
15D
330
5E
100
AcDbEntity
  8
DV1_Default
  6
CENTER2
 62
     7
100
AcDbLine
 10
173.3588668873
 20
531.684978981
 30
0.0
 11
175.0088674461
 21
531.684978981
 31
0.0
  0
LINE
  5
15E
330
5E
100
AcDbEntity
  8
DV1_Default
  6
CENTER2
 62
     7
100
AcDbLine
 10
148.3588674461
 20
556.6849784222
 30
0.0
 11
148.3588674461
 21
558.334978981
 31
0.0
  0
LINE
  5
15F
330
5E
100
AcDbEntity
  8
DV1_Default
  6
CENTER2
 62
     7
100
AcDbLine
 10
123.3588680049
 20
531.684978981
 30
0.0
 11
121.7088674461
 21
531.684978981
 31
0.0
  0
LINE
  5
160
330
5E
100
AcDbEntity
  8
DV1_Default
  6
CENTER2
 62
     7
100
AcDbLine
 10
148.3588674461
 20
506.6849795398
 30
0.0
 11
148.3588674461
 21
505.034978981
 31
0.0
  0
ENDBLK
  5
162
330
5E
100
AcDbEntity
  8
0
100
AcDbBlockEnd
  0
BLOCK
  5
1A6
330
163
100
AcDbEntity
  8
0
100
AcDbBlockBegin
  2
SE1
 70
     0
 10
0.0
 20
0.0
 30
0.0
  3
SE1
  1

  0
LINE
  5
165
330
163
100
AcDbEntity
  8
405647038_AUSLAU
  6
Continuous
 62
     7
100
AcDbLine
 10
528.1232994979
 20
520.684978981
 30
0.0
 11
316.6232994979
 21
520.684978981
 31
0.0
  0
LINE
  5
166
330
163
100
AcDbEntity
  8
405647038_AUSLAU
  6
Continuous
 62
     7
100
AcDbLine
 10
316.6232994979
 20
542.684978981
 30
0.0
 11
528.1232994979
 21
542.684978981
 31
0.0
  0
LINE
  5
167
330
163
100
AcDbEntity
  8
405647038_AUSLAU
  6
Continuous
 62
     7
100
AcDbLine
 10
528.1232994979
 20
542.684978981
 30
0.0
 11
535.1232994979
 21
542.684978981
 31
0.0
  0
LINE
  5
168
330
163
100
AcDbEntity
  8
405647038_AUSLAU
  6
Continuous
 62
     7
100
AcDbLine
 10
535.1232994979
 20
520.684978981
 30
0.0
 11
528.1232994979
 21
520.684978981
 31
0.0
  0
LINE
  5
169
330
163
100
AcDbEntity
  8
405647038_AUSLAU
  6
Continuous
 62
     7
100
AcDbLine
 10
536.1232994979
 20
541.684978981
 30
0.0
 11
536.1232994979
 21
521.684978981
 31
0.0
  0
ARC
  5
16A
330
163
100
AcDbEntity
  8
405647038_AUSLAU
  6
Continuous
 62
     7
100
AcDbCircle
 10
535.1232994979
 20
521.684978981
 30
0.0
 40
1.000000000000001
100
AcDbArc
 50
270.0
 51
0.0
  0
ARC
  5
16B
330
163
100
AcDbEntity
  8
405647038_AUSLAU
  6
Continuous
 62
     7
100
AcDbCircle
 10
535.1232994979
 20
541.684978981
 30
0.0
 40
1.000000000000001
100
AcDbArc
 50
0.0
 51
90.0
  0
ARC
  5
16D
330
163
100
AcDbEntity
  8
$DDT_AUDIT_GENERATED_(16C)
  6
Continuous
 62
     7
100
AcDbCircle
 10
311.223299498
 20
531.5279522684
 30
0.0
 40
21.6
100
AcDbArc
 50
55.922620733
 51
64.202921917
  0
LINE
  5
16E
330
163
100
AcDbEntity
  8
$DDT_AUDIT_GENERATED_(6D)
  6
Continuous
 62
     7
100
AcDbLine
 10
306.6232994979
 20
500.284978981
 30
0.0
 11
306.6232994979
 21
563.084978981
 31
0.0
  0
LINE
  5
16F
330
163
100
AcDbEntity
  8
$DDT_AUDIT_GENERATED_(6D)
  6
Continuous
 62
     7
100
AcDbLine
 10
306.6232994979
 20
563.084978981
 30
0.0
 11
306.6232994979
 21
564.684978981
 31
0.0
  0
LINE
  5
170
330
163
100
AcDbEntity
  8
$DDT_AUDIT_GENERATED_(6D)
  6
Continuous
 62
     7
100
AcDbLine
 10
306.6232994979
 20
498.684978981
 30
0.0
 11
306.6232994979
 21
500.284978981
 31
0.0
  0
LINE
  5
171
330
163
100
AcDbEntity
  8
$DDT_AUDIT_GENERATED_(6D)
  6
Continuous
 62
     7
100
AcDbLine
 10
306.6232994979
 20
564.684978981
 30
0.0
 11
315.6232994979
 21
564.684978981
 31
0.0
  0
LINE
  5
172
330
163
100
AcDbEntity
  8
$DDT_AUDIT_GENERATED_(6D)
  6
Continuous
 62
     7
100
AcDbLine
 10
316.6232994979
 20
500.284978981
 30
0.0
 11
316.6232994979
 21
499.684978981
 31
0.0
  0
LINE
  5
173
330
163
100
AcDbEntity
  8
$DDT_AUDIT_GENERATED_(6D)
  6
Continuous
 62
     7
100
AcDbLine
 10
316.6232994979
 20
563.084978981
 30
0.0
 11
316.6232994979
 21
500.284978981
 31
0.0
  0
LINE
  5
174
330
163
100
AcDbEntity
  8
$DDT_AUDIT_GENERATED_(6D)
  6
Continuous
 62
     7
100
AcDbLine
 10
316.6232994979
 20
563.684978981
 30
0.0
 11
316.6232994979
 21
563.084978981
 31
0.0
  0
LINE
  5
175
330
163
100
AcDbEntity
  8
$DDT_AUDIT_GENERATED_(6D)
  6
Continuous
 62
     7
100
AcDbLine
 10
315.6232994979
 20
498.684978981
 30
0.0
 11
306.6232994979
 21
498.684978981
 31
0.0
  0
ARC
  5
176
330
163
100
AcDbEntity
  8
$DDT_AUDIT_GENERATED_(6D)
  6
Continuous
 62
     7
100
AcDbCircle
 10
315.6232994979
 20
499.684978981
 30
0.0
 40
1.000000000000001
100
AcDbArc
 50
270.0
 51
0.0
  0
ARC
  5
177
330
163
100
AcDbEntity
  8
$DDT_AUDIT_GENERATED_(6D)
  6
Continuous
 62
     7
100
AcDbCircle
 10
315.6232994979
 20
563.684978981
 30
0.0
 40
0.9999999999999905
100
AcDbArc
 50
0.0
 51
90.0
  0
LINE
  5
179
330
163
100
AcDbEntity
  8
64927031_SCHABL_
  6
Continuous
 62
     7
100
AcDbLine
 10
350.123299498
 20
548.6893233757
 30
0.0
 11
350.123299498
 21
542.684978981
 31
0.0
  0
LINE
  5
17A
330
163
100
AcDbEntity
  8
64927031_SCHABL_
  6
Continuous
 62
     7
100
AcDbLine
 10
350.123299498
 20
520.684978981
 30
0.0
 11
350.123299498
 21
514.6806345863
 31
0.0
  0
LINE
  5
17B
330
163
100
AcDbEntity
  8
64927031_SCHABL_
  6
Continuous
 62
     7
100
AcDbLine
 10
320.623299498
 20
554.1808038371
 30
0.0
 11
320.623299498
 21
549.184978981
 31
0.0
  0
LINE
  5
17C
330
163
100
AcDbEntity
  8
64927031_SCHABL_
  6
Continuous
 62
     7
100
AcDbLine
 10
348.8582126853
 20
514.1739387357
 30
0.0
 11
349.6276627657
 21
514.1806536248
 31
0.0
  0
LINE
  5
17D
330
163
100
AcDbEntity
  8
64927031_SCHABL_
  6
Continuous
 62
     7
100
AcDbLine
 10
349.6276627657
 20
549.1893043372
 30
0.0
 11
349.4521360509
 21
549.1908361357
 31
0.0
  0
LINE
  5
17E
330
163
100
AcDbEntity
  8
64927031_SCHABL_
  6
Continuous
 62
     7
100
AcDbLine
 10
331.7839671464
 20
549.3450239098
 30
0.0
 11
323.3260392912
 21
549.418835128
 31
0.0
  0
LINE
  5
17F
330
163
100
AcDbEntity
  8
64927031_SCHABL_
  6
Continuous
 62
     7
100
AcDbLine
 10
316.6232994979
 20
508.6585910485
 30
0.0
 11
318.0399247077
 21
508.6709537494
 31
0.0
  0
LINE
  5
180
330
163
100
AcDbEntity
  8
64927031_SCHABL_
  6
Continuous
 62
     7
100
AcDbLine
 10
320.1276627657
 20
554.6807847986
 30
0.0
 11
316.6232994979
 21
554.7113669136
 31
0.0
  0
ARC
  5
181
330
163
100
AcDbEntity
  8
64927031_SCHABL_
  6
Continuous
 62
     7
100
AcDbCircle
 10
349.623299498
 20
548.6893233757
 30
0.0
 40
0.5000000000000004
100
AcDbArc
 50
0.0
 51
89.5
  0
ARC
  5
182
330
163
100
AcDbEntity
  8
64927031_SCHABL_
  6
Continuous
 62
     7
100
AcDbCircle
 10
349.623299498
 20
514.6806345863
 30
0.0
 40
0.4999999999999986
100
AcDbArc
 50
270.5
 51
0.0
  0
ARC
  5
183
330
163
100
AcDbEntity
  8
64927031_SCHABL_
  6
Continuous
 62
     7
100
AcDbCircle
 10
320.123299498
 20
554.1808038371
 30
0.0
 40
0.5000000000000004
100
AcDbArc
 50
0.0
 51
89.5
  0
LINE
  5
184
330
163
100
AcDbEntity
  8
$DDT_AUDIT_GENERATED_(83)
  6
Continuous
 62
     7
100
AcDbLine
 10
511.8533652754
 20
505.814681352
 30
0.0
 11
531.0217749712
 21
514.7530575878
 31
0.0
  0
LINE
  5
185
330
163
100
AcDbEntity
  8
$DDT_AUDIT_GENERATED_(83)
  6
Continuous
 62
     7
100
AcDbLine
 10
531.5054644965
 20
516.0819836366
 30
0.0
 11
529.359052517
 21
520.684978981
 31
0.0
  0
LINE
  5
186
330
163
100
AcDbEntity
  8
$DDT_AUDIT_GENERATED_(83)
  6
Continuous
 62
     7
100
AcDbLine
 10
503.8259397781
 20
520.6633493018
 30
0.0
 11
510.5244392266
 21
506.2983708773
 31
0.0
  0
ARC
  5
187
330
163
100
AcDbEntity
  8
$DDT_AUDIT_GENERATED_(83)
  6
Continuous
 62
     7
100
AcDbCircle
 10
530.5991567095
 20
515.6593653749
 30
0.0
 40
1.000000000000002
100
AcDbArc
 50
295.0
 51
25.0
  0
ARC
  5
188
330
163
100
AcDbEntity
  8
$DDT_AUDIT_GENERATED_(83)
  6
Continuous
 62
     7
100
AcDbCircle
 10
511.4307470137
 20
506.720989139
 30
0.0
 40
1.000000000000002
100
AcDbArc
 50
205.0
 51
295.0
  0
ARC
  5
189
330
163
100
AcDbEntity
  8
$DDT_AUDIT_GENERATED_(83)
  6
Continuous
 62
     7
100
AcDbCircle
 10
503.9618859461
 20
520.7267420411
 30
0.0
 40
0.1500000000000068
100
AcDbArc
 50
196.1659518768
 51
205.0
  0
LINE
  5
18A
330
163
100
AcDbEntity
  8
$DDT_AUDIT_GENERATED_(88)
  6
Continuous
 62
     7
100
AcDbLine
 10
529.6999947721
 20
513.8608568788
 30
0.0
 11
513.3864546054
 21
506.2537281675
 31
0.0
  0
LINE
  5
18B
330
163
100
AcDbEntity
  8
$DDT_AUDIT_GENERATED_(88)
  6
Continuous
 62
     7
100
AcDbLine
 10
513.28080004
 20
506.4803051142
 30
0.0
 11
513.3864546054
 21
506.2537281675
 31
0.0
  0
LINE
  5
18C
330
163
100
AcDbEntity
  8
$DDT_AUDIT_GENERATED_(88)
  6
Continuous
 62
     7
100
AcDbLine
 10
529.6999947721
 20
513.8608568788
 30
0.0
 11
529.5943402067
 21
514.0874338256
 31
0.0
  0
LINE
  5
18D
330
163
100
AcDbEntity
  8
06972038_HEBEL_E
  6
Continuous
 62
     7
100
AcDbLine
 10
336.5094059065
 20
443.7083088456
 30
0.0
 11
336.5696128876
 21
446.007520693
 31
0.0
  0
LINE
  5
18E
330
163
100
AcDbEntity
  8
06972038_HEBEL_E
  6
Continuous
 62
     7
100
AcDbLine
 10
336.5696128876
 20
446.007520693
 30
0.0
 11
338.1060255941
 21
504.6807547981
 31
0.0
  0
LINE
  5
18F
330
163
100
AcDbEntity
  8
06972038_HEBEL_E
  6
Continuous
 62
     7
100
AcDbLine
 10
338.1060255941
 20
504.6807547981
 30
0.0
 11
338.1915964703
 21
507.9485747203
 31
0.0
  0
ARC
  5
190
330
163
100
AcDbEntity
  8
06972038_HEBEL_E
  6
Continuous
 62
     7
100
AcDbCircle
 10
337.209166034
 20
443.6899849817
 30
0.0
 40
0.6999999999999996
100
AcDbArc
 50
178.5
 51
268.5
  0
ARC
  5
191
330
163
100
AcDbEntity
  8
06972038_HEBEL_E
  6
Continuous
 62
     7
100
AcDbCircle
 10
352.1944900229
 20
506.620381739
 30
0.0
 40
14.06574293951307
100
AcDbArc
 50
174.156793628
 51
174.5816299835
  0
ARC
  5
192
330
163
100
AcDbEntity
  8
06972038_HEBEL_E
  6
Continuous
 62
     7
100
AcDbCircle
 10
345.2619637287
 20
576.672747021
 30
0.0
 40
23.07883559606893
100
AcDbArc
 50
271.9748725518
 51
276.6106239076
  0
LINE
  5
193
330
163
100
AcDbEntity
  8
06972038_HEBEL_E
  6
Continuous
 62
     7
100
AcDbLine
 10
327.3757795712
 20
542.684978981
 30
0.0
 11
334.8312657861
 21
553.9489899401
 31
0.0
  0
LINE
  5
194
330
163
100
AcDbEntity
  8
06972038_HEBEL_E
  6
Continuous
 62
     7
100
AcDbLine
 10
346.2601476584
 20
442.7527367321
 30
0.0
 11
337.1908421702
 21
442.9902248543
 31
0.0
  0
LINE
  5
195
330
163
100
AcDbEntity
  8
06972038_HEBEL_E
  6
Continuous
 62
     7
100
AcDbLine
 10
346.2601476584
 20
442.7527367321
 30
0.0
 11
346.2877238275
 21
442.7520146247
 31
0.0
  0
ARC
  5
196
330
163
100
AcDbEntity
  8
06972038_HEBEL_E
  6
Continuous
 62
     7
100
AcDbCircle
 10
336.6538322728
 20
506.5260542765
 30
0.0
 40
1.500000000000003
100
AcDbArc
 50
358.5
 51
88.5
  0
ARC
  5
197
330
163
100
AcDbEntity
  8
06972038_HEBEL_E
  6
Continuous
 62
     7
100
AcDbCircle
 10
318.3072560002
 20
508.8070933103
 30
0.0
 40
0.3000000000000008
100
AcDbArc
 50
206.9876565644
 51
268.5
  0
ARC
  5
198
330
163
100
AcDbEntity
  8
06972038_HEBEL_E
  6
Continuous
 62
     7
100
AcDbCircle
 10
335.0814315328
 20
553.7834088445
 30
0.0
 40
0.2999999999999989
100
AcDbArc
 50
92.5006360566
 51
146.5
  0
ARC
  5
199
330
163
100
AcDbEntity
  8
06972038_HEBEL_E
  6
Continuous
 62
     7
100
AcDbCircle
 10
-179.7775838373
 20
544.5576852506
 30
0.0
 40
529.2499999999991
100
AcDbArc
 50
0.501584095
 51
0.9180782371
  0
LINE
  5
19A
330
163
100
AcDbEntity
  8
06972038_HEBEL_E
  6
Continuous
 62
     7
100
AcDbLine
 10
318.2994029157
 20
508.5071961128
 30
0.0
 11
336.6930976952
 21
508.025540264
 31
0.0
  0
LINE
  5
19B
330
163
100
AcDbEntity
  8
06972038_HEBEL_E
  6
Continuous
 62
     7
100
AcDbLine
 10
341.3087630874
 20
553.9204432666
 30
0.0
 11
335.0892846172
 21
554.083306042
 31
0.0
  0
LINE
  5
19C
330
163
100
AcDbEntity
  8
06972038_HEBEL_E
  6
Continuous
 62
     7
100
AcDbLine
 10
348.722888299
 20
553.7262975653
 30
0.0
 11
347.8869556374
 21
553.7481872324
 31
0.0
  0
LINE
  5
19D
330
163
100
AcDbEntity
  8
06972038_HEBEL_E
  6
Continuous
 62
     7
100
AcDbLine
 10
347.0058078188
 20
443.4334508883
 30
0.0
 11
348.8582126853
 21
514.1739387357
 31
0.0
  0
ARC
  5
19E
330
163
100
AcDbEntity
  8
06972038_HEBEL_E
  6
Continuous
 62
     7
100
AcDbCircle
 10
348.7045644351
 20
553.0265374378
 30
0.0
 40
0.6999999999999396
100
AcDbArc
 50
0.9180782372
 51
88.5
  0
ARC
  5
19F
330
163
100
AcDbEntity
  8
06972038_HEBEL_E
  6
Continuous
 62
     7
100
AcDbCircle
 10
346.3060476913
 20
443.4517747521
 30
0.0
 40
0.7000000000000153
100
AcDbArc
 50
268.5
 51
358.5
  0
LINE
  5
1A1
330
163
100
AcDbEntity
  8
$DDT_AUDIT_GENERATED_(1A0)
  6
Continuous
 62
     7
100
AcDbLine
 10
341.3180117291
 20
554.0261557242
 30
0.0
 11
346.0563609411
 21
553.6116038843
 31
0.0
  0
LINE
  5
1A2
330
163
100
AcDbEntity
  8
$DDT_AUDIT_GENERATED_(1A0)
  6
Continuous
 62
     7
100
AcDbLine
 10
341.3180117291
 20
554.0261557242
 30
0.0
 11
341.3087630874
 21
553.9204432666
 31
0.0
  0
LINE
  5
1A4
330
163
100
AcDbEntity
  8
DV2_Default
  6
CENTER2
 62
     7
100
AcDbLine
 10
326.6232990509
 20
531.684978981
 30
0.0
 11
286.6232999449
 21
531.684978981
 31
0.0
  0
LINE
  5
1A5
330
163
100
AcDbEntity
  8
DV2_Default
  6
CENTER2
 62
     7
100
AcDbLine
 10
306.6232994979
 20
551.684978534
 30
0.0
 11
306.6232994979
 21
511.684979428
 31
0.0
  0
ENDBLK
  5
1A7
330
163
100
AcDbEntity
  8
0
100
AcDbBlockEnd
  0
BLOCK
  5
1D5
330
1A8
100
AcDbEntity
  8
0
100
AcDbBlockBegin
  2
SE2
 70
     0
 10
0.0
 20
0.0
 30
0.0
  3
SE2
  1

  0
LINE
  5
1AA
330
1A8
100
AcDbEntity
  8
405647038_AUSLAU
  6
Continuous
 62
     7
100
AcDbLine
 10
53.8588674461
 20
325.85
 30
0.0
 11
53.8588674461
 21
114.35
 31
0.0
  0
LINE
  5
1AB
330
1A8
100
AcDbEntity
  8
405647038_AUSLAU
  6
Continuous
 62
     7
100
AcDbLine
 10
22.8588674461
 20
114.35
 30
0.0
 11
22.8588674461
 21
325.85
 31
0.0
  0
LINE
  5
1AC
330
1A8
100
AcDbEntity
  8
405647038_AUSLAU
  6
Continuous
 62
     7
100
AcDbLine
 10
45.8588674461
 20
106.35
 30
0.0
 11
30.8588674461
 21
106.35
 31
0.0
  0
ARC
  5
1AD
330
1A8
100
AcDbEntity
  8
405647038_AUSLAU
  6
Continuous
 62
     7
100
AcDbCircle
 10
45.8588674461
 20
114.35
 30
0.0
 40
8.0
100
AcDbArc
 50
270.0
 51
0.0
  0
ARC
  5
1AE
330
1A8
100
AcDbEntity
  8
405647038_AUSLAU
  6
Continuous
 62
     7
100
AcDbCircle
 10
30.8588674461
 20
114.35
 30
0.0
 40
8.000000000000007
100
AcDbArc
 50
180.0
 51
270.0
  0
LINE
  5
1AF
330
1A8
100
AcDbEntity
  8
$DDT_AUDIT_GENERATED_(6D)
  6
Continuous
 62
     7
100
AcDbLine
 10
182.35
 20
335.85
 30
0.0
 11
182.35
 21
326.85
 31
0.0
  0
LINE
  5
1B0
330
1A8
100
AcDbEntity
  8
$DDT_AUDIT_GENERATED_(6D)
  6
Continuous
 62
     7
100
AcDbLine
 10
7.95
 20
335.85
 30
0.0
 11
180.75
 21
335.85
 31
0.0
  0
LINE
  5
1B1
330
1A8
100
AcDbEntity
  8
$DDT_AUDIT_GENERATED_(6D)
  6
Continuous
 62
     7
100
AcDbLine
 10
6.35
 20
335.85
 30
0.0
 11
7.95
 21
335.85
 31
0.0
  0
LINE
  5
1B2
330
1A8
100
AcDbEntity
  8
$DDT_AUDIT_GENERATED_(6D)
  6
Continuous
 62
     7
100
AcDbLine
 10
180.75
 20
335.85
 30
0.0
 11
182.35
 21
335.85
 31
0.0
  0
LINE
  5
1B3
330
1A8
100
AcDbEntity
  8
$DDT_AUDIT_GENERATED_(6D)
  6
Continuous
 62
     7
100
AcDbLine
 10
180.75
 20
325.85
 30
0.0
 11
7.95
 21
325.85
 31
0.0
  0
LINE
  5
1B4
330
1A8
100
AcDbEntity
  8
$DDT_AUDIT_GENERATED_(6D)
  6
Continuous
 62
     7
100
AcDbLine
 10
181.35
 20
325.85
 30
0.0
 11
180.75
 21
325.85
 31
0.0
  0
LINE
  5
1B5
330
1A8
100
AcDbEntity
  8
$DDT_AUDIT_GENERATED_(6D)
  6
Continuous
 62
     7
100
AcDbLine
 10
7.95
 20
325.85
 30
0.0
 11
7.35
 21
325.85
 31
0.0
  0
LINE
  5
1B6
330
1A8
100
AcDbEntity
  8
$DDT_AUDIT_GENERATED_(6D)
  6
Continuous
 62
     7
100
AcDbLine
 10
6.35
 20
326.85
 30
0.0
 11
6.35
 21
335.85
 31
0.0
  0
ARC
  5
1B7
330
1A8
100
AcDbEntity
  8
$DDT_AUDIT_GENERATED_(6D)
  6
Continuous
 62
     7
100
AcDbCircle
 10
181.35
 20
326.85
 30
0.0
 40
0.9999999999999905
100
AcDbArc
 50
270.0
 51
0.0
  0
ARC
  5
1B8
330
1A8
100
AcDbEntity
  8
$DDT_AUDIT_GENERATED_(6D)
  6
Continuous
 62
     7
100
AcDbCircle
 10
7.35
 20
326.85
 30
0.0
 40
1.000000000000001
100
AcDbArc
 50
180.0
 51
270.0
  0
LINE
  5
1B9
330
1A8
100
AcDbEntity
  8
64927031_SCHABL_
  6
Continuous
 62
     7
100
AcDbLine
 10
131.3545230514
 20
292.3499999999
 30
0.0
 11
165.3632118408
 21
292.3499999999
 31
0.0
  0
LINE
  5
1BA
330
1A8
100
AcDbEntity
  8
64927031_SCHABL_
  6
Continuous
 62
     7
100
AcDbLine
 10
125.86304259
 20
321.8499999999
 30
0.0
 11
170.8546923022
 21
321.8499999999
 31
0.0
  0
LINE
  5
1BB
330
1A8
100
AcDbEntity
  8
64927031_SCHABL_
  6
Continuous
 62
     7
100
AcDbLine
 10
130.8506593156
 20
293.2905585961
 30
0.0
 11
130.8545420899
 21
292.8456367322
 31
0.0
  0
LINE
  5
1BC
330
1A8
100
AcDbEntity
  8
64927031_SCHABL_
  6
Continuous
 62
     7
100
AcDbLine
 10
165.8631928023
 20
292.8456367322
 30
0.0
 11
165.8670755766
 21
293.2905585961
 31
0.0
  0
LINE
  5
1BD
330
1A8
100
AcDbEntity
  8
64927031_SCHABL_
  6
Continuous
 62
     7
100
AcDbLine
 10
124.896136124
 20
375.8499999999
 30
0.0
 11
125.2452108356
 21
335.85
 31
0.0
  0
LINE
  5
1BE
330
1A8
100
AcDbEntity
  8
64927031_SCHABL_
  6
Continuous
 62
     7
100
AcDbLine
 10
125.3324795135
 20
325.85
 30
0.0
 11
125.3630616285
 21
322.3456367322
 31
0.0
  0
LINE
  5
1BF
330
1A8
100
AcDbEntity
  8
64927031_SCHABL_
  6
Continuous
 62
     7
100
AcDbLine
 10
171.3546732637
 20
322.3456367322
 30
0.0
 11
171.3852553787
 21
325.85
 31
0.0
  0
LINE
  5
1C0
330
1A8
100
AcDbEntity
  8
64927031_SCHABL_
  6
Continuous
 62
     7
100
AcDbLine
 10
171.4725240566
 20
335.85
 30
0.0
 11
171.8215987682
 21
375.8499999999
 31
0.0
  0
ARC
  5
1C1
330
1A8
100
AcDbEntity
  8
64927031_SCHABL_
  6
Continuous
 62
     7
100
AcDbCircle
 10
165.3632118408
 20
292.8499999999
 30
0.0
 40
0.5000000000000004
100
AcDbArc
 50
270.0
 51
359.5
  0
ARC
  5
1C2
330
1A8
100
AcDbEntity
  8
64927031_SCHABL_
  6
Continuous
 62
     7
100
AcDbCircle
 10
131.3545230514
 20
292.8499999999
 30
0.0
 40
0.4999999999999986
100
AcDbArc
 50
180.5
 51
270.0
  0
ARC
  5
1C3
330
1A8
100
AcDbEntity
  8
06972038_HEBEL_E
  6
Continuous
 62
     7
100
AcDbCircle
 10
148.3588634707
 20
297.8139832331
 30
0.0
 40
3.252255520295555
100
AcDbArc
 50
179.7520258364
 51
0.0
  0
ARC
  5
1C4
330
1A8
100
AcDbEntity
  8
06972038_HEBEL_E
  6
Continuous
 62
     7
100
AcDbCircle
 10
148.3588634707
 20
297.8139832331
 30
0.0
 40
3.252255520295555
100
AcDbArc
 50
0.0
 51
0.2307219636
  0
ELLIPSE
  5
1C5
330
1A8
100
AcDbEntity
  8
06972038_HEBEL_E
  6
Continuous
 62
     7
100
AcDbEllipse
 10
148.3588674461
 20
322.1657582945
 30
0.0
 11
0.0
 21
22.53187542059925
 31
0.0
210
0.0
220
0.0
230
1.0
 40
1.0
 41
4.539646960265596
 42
4.723618258045488
  0
ELLIPSE
  5
1C6
330
1A8
100
AcDbEntity
  8
06972038_HEBEL_E
  6
Continuous
 62
     7
100
AcDbEllipse
 10
148.3588674461
 20
322.1657582945
 30
0.0
 11
0.0
 21
22.55761356218095
 31
0.0
210
0.0
220
0.0
230
1.0
 40
1.0
 41
1.738530449033612
 42
4.539646960265596
  0
ELLIPSE
  5
1C7
330
1A8
100
AcDbEntity
  8
06972038_HEBEL_E
  6
Continuous
 62
     7
100
AcDbEllipse
 10
148.3588674461
 20
322.1657582945
 30
0.0
 11
0.0
 21
22.99793967735276
 31
0.0
210
0.0
220
0.0
230
1.0
 40
1.0
 41
1.559567049184828
 42
1.738530449033612
  0
ELLIPSE
  5
1C8
330
1A8
100
AcDbEntity
  8
06972038_HEBEL_E
  6
Continuous
 62
     7
100
AcDbEllipse
 10
148.3588674461
 20
293.6533439717
 30
0.0
 11
22.32953362974296
 21
5.551115123125783E-14
 31
0.0
210
0.0
220
0.0
230
1.0
 40
0.0261769483
 41
3.255427065164037
 42
6.148855960151152
  0
LINE
  5
1C9
330
1A8
100
AcDbEntity
  8
06972038_HEBEL_E
  6
Continuous
 62
     7
100
AcDbLine
 10
125.3588674461
 20
322.1657582945
 30
0.0
 11
125.3588674461
 21
294.35248101
 31
0.0
  0
LINE
  5
1CA
330
1A8
100
AcDbEntity
  8
06972038_HEBEL_E
  6
Continuous
 62
     7
100
AcDbLine
 10
171.3588674461
 20
294.35248101
 30
0.0
 11
171.3588674461
 21
322.1657582945
 31
0.0
  0
SPLINE
  5
1CB
330
1A8
100
AcDbEntity
  8
06972038_HEBEL_E
  6
Continuous
 62
     7
100
AcDbSpline
210
0.0
220
0.0
230
1.0
 70
     8
 71
     3
 72
    13
 73
     9
 74
     0
 42
0.0000000083456241
 43
0.0000000001
 40
0.0
 40
0.0
 40
0.0
 40
0.0
 40
0.3628628374694476
 40
0.5568607653413881
 40
0.68824374017855
 40
0.8002579469631507
 40
0.9113066316766426
 40
1.0
 40
1.0
 40
1.0
 40
1.0
 10
170.5898884384364
 20
293.5907981084254
 30
0.0
 10
170.6618212009175
 20
293.6019937599407
 30
0.0
 10
170.761092754121
 20
293.6228794772597
 30
0.0
 10
170.9123369475708
 20
293.6776650162043
 30
0.0
 10
171.0538441974091
 20
293.7562065684079
 30
0.0
 10
171.2060928334869
 20
293.8907761775326
 30
0.0
 10
171.3354251671406
 20
294.1104030001897
 30
0.0
 10
171.3510711196375
 20
294.2686850007924
 30
0.0
 10
171.3588674461219
 20
294.3524810100365
 30
0.0
  0
SPLINE
  5
1CC
330
1A8
100
AcDbEntity
  8
06972038_HEBEL_E
  6
Continuous
 62
     7
100
AcDbSpline
210
0.0
220
0.0
230
1.0
 70
     8
 71
     3
 72
    14
 73
    10
 74
     0
 42
0.0000000089679988
 43
0.0000000001
 40
0.0
 40
0.0
 40
0.0
 40
0.0
 40
0.1340601676463752
 40
0.254369411353171
 40
0.3753812496937423
 40
0.5146918164867164
 40
0.6994369971696153
 40
0.9796908697975286
 40
1.0
 40
1.0
 40
1.0
 40
1.0
 10
125.358867446122
 20
294.3524810100365
 30
0.0
 10
125.37237967783
 20
294.2437849733787
 30
0.0
 10
125.394675802275
 20
294.0707449793621
 30
0.0
 10
125.5379517167279
 20
293.8647835343942
 30
0.0
 10
125.673811545328
 20
293.7508473584555
 30
0.0
 10
125.796355936227
 20
293.6827888979493
 30
0.0
 10
125.9162896266338
 20
293.6375011148739
 30
0.0
 10
125.9933159450648
 20
293.6140624021917
 30
0.0
 10
126.0425803611082
 20
293.605162017785
 30
0.0
 10
126.0464355193196
 20
293.6044702765964
 30
0.0
  0
ELLIPSE
  5
1CD
330
1A8
100
AcDbEntity
  8
$DDT_AUDIT_GENERATED_(1A0)
  6
Continuous
 62
     7
100
AcDbEllipse
 10
148.3588674461
 20
297.8180355303
 30
0.0
 11
3.34999999999995
 21
7.240735788727193E-12
 31
0.0
210
0.0
220
0.0
230
1.0
 40
0.9961946981
 41
0.0000000000000106
 42
3.141592653587606
  0
LINE
  5
1CF
330
1A8
100
AcDbEntity
  8
DV3_Default
  6
Continuous
 62
     7
100
AcDbLine
 10
125.2452108356
 20
335.85
 30
0.0
 11
171.4725240566
 21
335.85
 31
0.0
  0
LINE
  5
1D0
330
1A8
100
AcDbEntity
  8
DV3_Default
  6
CENTER2
 62
     7
100
AcDbLine
 10
168.3588669991
 20
335.85
 30
0.0
 11
128.3588678931
 21
335.85
 31
0.0
  0
LINE
  5
1D1
330
1A8
100
AcDbEntity
  8
DV3_Default
  6
CENTER2
 62
     7
100
AcDbLine
 10
148.3588674461
 20
355.849999553
 30
0.0
 11
148.3588674461
 21
315.850000447
 31
0.0
  0
LINE
  5
1D2
330
1A8
100
AcDbEntity
  8
DV3_Default
  6
Continuous
 62
     7
100
AcDbLine
 10
22.8588674461
 20
335.85
 30
0.0
 11
53.8588674461
 21
335.85
 31
0.0
  0
LINE
  5
1D3
330
1A8
100
AcDbEntity
  8
DV3_Default
  6
CENTER2
 62
     7
100
AcDbLine
 10
58.3588669991
 20
335.85
 30
0.0
 11
18.3588678931
 21
335.85
 31
0.0
  0
LINE
  5
1D4
330
1A8
100
AcDbEntity
  8
DV3_Default
  6
CENTER2
 62
     7
100
AcDbLine
 10
38.3588674461
 20
355.849999553
 30
0.0
 11
38.3588674461
 21
315.850000447
 31
0.0
  0
ENDBLK
  5
1D6
330
1A8
100
AcDbEntity
  8
0
100
AcDbBlockEnd
  0
ENDSEC
  0
SECTION
  2
ENTITIES
  0
INSERT
  5
5F
330
1F
100
AcDbEntity
  8
Default
100
AcDbBlockReference
  2
SE
 10
0.0
 20
0.0
 30
0.0
  0
INSERT
  5
164
330
1F
100
AcDbEntity
  8
Default
100
AcDbBlockReference
  2
SE1
 10
0.0
 20
0.0
 30
0.0
  0
INSERT
  5
1A9
330
1F
100
AcDbEntity
  8
Default
100
AcDbBlockReference
  2
SE2
 10
0.0
 20
0.0
 30
0.0
  0
TEXT
  5
1D8
330
1F
100
AcDbEntity
  8
Default
  6
Continuous
 62
     7
100
AcDbText
 10
5.9362635081
 20
53.4225120485
 30
0.0
 40
10.0
  1
Grohe AG^J
  7
SEACAD_seiso_ttf
 11
5.9362635081
 21
63.4225120485
 31
0.0
100
AcDbText
 73
     3
  0
TEXT
  5
1D9
330
1F
100
AcDbEntity
  8
Default
  6
Continuous
 62
     7
100
AcDbText
 10
5.9362635081
 20
37.0588756849
 30
0.0
 40
10.0
  1
 
  7
SEACAD_seiso_ttf
 11
5.9362635081
 21
47.0588756849
 31
0.0
100
AcDbText
 73
     3
  0
TEXT
  5
1DA
330
1F
100
AcDbEntity
  8
Default
  6
Continuous
 62
     7
100
AcDbText
 10
5.9362635081
 20
20.6952393213
 30
0.0
 40
10.0
  1
ecn:
  7
SEACAD_seiso_ttf
 11
5.9362635081
 21
30.6952393213
 31
0.0
100
AcDbText
 73
     3
  0
TEXT
  5
1DB
330
1F
100
AcDbEntity
  8
Default
  6
Continuous
 62
     7
100
AcDbText
 10
5.9362635081
 20
4.3316029576
 30
0.0
 40
10.0
  1
unit: mm
  7
SEACAD_seiso_ttf
 11
5.9362635081
 21
14.3316029576
 31
0.0
100
AcDbText
 73
     3
  0
LINE
  5
1DC
330
1F
100
AcDbEntity
  8
Default
  6
Continuous
 62
     7
100
AcDbLine
 10
0.0
 20
0.0
 30
0.0
 11
100.0
 21
0.0
 31
0.0
  0
LINE
  5
1DD
330
1F
100
AcDbEntity
  8
Default
  6
Continuous
 62
     7
100
AcDbLine
 10
0.0
 20
0.0
 30
0.0
 11
0.0
 21
100.0
 31
0.0
  0
TEXT
  5
1DE
330
1F
100
AcDbEntity
  8
Default
  6
Continuous
 62
     7
100
AcDbText
 10
24.3923665681
 20
-18.2375342018
 30
0.0
 40
10.0
  1
100 mm
  7
SEACAD_seiso_ttf
 11
24.3923665681
 21
-8.2375342018
 31
0.0
100
AcDbText
 73
     3
  0
TEXT
  5
1DF
330
1F
100
AcDbEntity
  8
Default
  6
Continuous
 62
     7
100
AcDbText
 10
-7.6150308803
 20
24.6231930421
 30
0.0
 40
10.0
  1
100 mm
 50
90.0
  7
SEACAD_seiso_ttf
 11
-17.6150308803
 21
24.6231930421
 31
0.0
100
AcDbText
 73
     3
  0
TEXT
  5
1E0
330
1F
100
AcDbEntity
  8
Default
  6
Continuous
 62
     7
100
AcDbText
 10
28.4878128572
 20
20.0907663715
 30
0.0
 40
10.0
  1
229897
  7
SEACAD_seiso_ttf
 11
28.4878128572
 21
30.0907663715
 31
0.0
100
AcDbText
 73
     3
  0
TEXT
  5
1E1
330
1F
100
AcDbEntity
  8
Default
  6
Continuous
 62
     7
100
AcDbText
 10
5.9012241913
 20
36.7242780188
 30
0.0
 40
10.0
  1
23444000
  7
SEACAD_seiso_ttf
 11
5.9012241913
 21
46.7242780188
 31
0.0
100
AcDbText
 73
     3
  0
ENDSEC
  0
SECTION
  2
OBJECTS
  0
DICTIONARY
  5
C
330
0
100
AcDbDictionary
281
     1
  3
ACAD_GROUP
350
D
  3
ACAD_LAYOUT
350
1A
  3
ACAD_MLEADERSTYLE
350
1E5
  3
ACAD_MLINESTYLE
350
17
  3
ACAD_PLOTSETTINGS
350
19
  3
ACAD_PLOTSTYLENAME
350
E
  3
ACAD_SCALELIST
350
3B
  3
ACAD_TABLESTYLE
350
1E4
  3
ACAD_VISUALSTYLE
350
2A
  3
AcDbVariableDictionary
350
1E2
  0
DICTIONARY
  5
D
102
{ACAD_REACTORS
330
C
102
}
330
C
100
AcDbDictionary
281
     1
  0
DICTIONARY
  5
1A
102
{ACAD_REACTORS
330
C
102
}
330
C
100
AcDbDictionary
281
     1
  3
Layout1
350
1E
  3
Model
350
22
  0
DICTIONARY
  5
1E5
102
{ACAD_REACTORS
330
C
102
}
330
C
100
AcDbDictionary
281
     1
  0
DICTIONARY
  5
17
102
{ACAD_REACTORS
330
C
102
}
330
C
100
AcDbDictionary
281
     1
  3
Standard
350
18
  0
DICTIONARY
  5
19
102
{ACAD_REACTORS
330
C
102
}
330
C
100
AcDbDictionary
281
     1
  0
ACDBDICTIONARYWDFLT
  5
E
102
{ACAD_REACTORS
330
C
102
}
330
C
100
AcDbDictionary
281
     1
  3
Normal
350
F
100
AcDbDictionaryWithDefault
340
F
  0
DICTIONARY
  5
3B
102
{ACAD_REACTORS
330
C
102
}
330
C
100
AcDbDictionary
281
     1
  3
A0
350
3C
  3
A1
350
3D
  3
A2
350
3E
  3
A3
350
3F
  3
A4
350
40
  3
A5
350
41
  3
A6
350
42
  3
A7
350
43
  3
A8
350
44
  3
A9
350
45
  3
B0
350
46
  3
B1
350
47
  3
B2
350
48
  3
B3
350
49
  3
B4
350
4A
  3
B5
350
4B
  3
B6
350
4C
  3
B7
350
4D
  3
B8
350
4E
  3
B9
350
4F
  3
C0
350
50
  3
C1
350
51
  3
C2
350
52
  3
C3
350
53
  3
C4
350
54
  3
C5
350
55
  3
C6
350
56
  3
C7
350
57
  3
C8
350
58
  3
C9
350
59
  3
D0
350
5A
  3
D1
350
5B
  3
D2
350
5C
  0
DICTIONARY
  5
1E4
102
{ACAD_REACTORS
330
C
102
}
330
C
100
AcDbDictionary
281
     1
  0
DICTIONARY
  5
2A
102
{ACAD_REACTORS
330
C
102
}
330
C
100
AcDbDictionary
281
     1
  3
2dWireframe
350
2F
  3
3D Hidden
350
31
  3
3dWireframe
350
30
  3
Basic
350
32
  3
Brighten
350
36
  3
ColorChange
350
3A
  3
Conceptual
350
34
  3
Dim
350
35
  3
Facepattern
350
39
  3
Flat
350
2B
  3
FlatWithEdges
350
2C
  3
Gouraud
350
2D
  3
GouraudWithEdges
350
2E
  3
Linepattern
350
38
  3
Realistic
350
33
  3
Thicken
350
37
  0
DICTIONARY
  5
1E2
102
{ACAD_REACTORS
330
C
102
}
330
C
100
AcDbDictionary
281
     1
  3
CANNOSCALE
350
1E3
  3
PSOLHEIGHT
350
1E7
  3
PSOLWIDTH
350
1E6
  0
LAYOUT
  5
1E
102
{ACAD_REACTORS
330
1A
102
}
330
1A
100
AcDbPlotSettings
  1

  2
none_device
  4

  6

 40
0.0
 41
0.0
 42
0.0
 43
0.0
 44
0.0
 45
0.0
 46
0.0
 47
0.0
 48
0.0
 49
0.0
140
0.0
141
0.0
142
1.0
143
1.0
 70
   688
 72
     0
 73
     0
 74
     5
  7

 75
    16
147
1.0
148
0.0
149
0.0
100
AcDbLayout
  1
Layout1
 70
     1
 71
     1
 10
0.0
 20
0.0
 11
3000.0
 21
4500.0
 12
0.0
 22
0.0
 32
0.0
 14
0.0
 24
0.0
 34
0.0
 15
3000.0
 25
4500.0
 35
0.0
146
0.0
 13
0.0
 23
0.0
 33
0.0
 16
1.0
 26
0.0
 36
0.0
 17
0.0
 27
1.0
 37
0.0
 76
     0
330
1B
  0
LAYOUT
  5
22
102
{ACAD_REACTORS
330
1A
102
}
330
1A
100
AcDbPlotSettings
  1

  2
none_device
  4

  6

 40
0.0
 41
0.0
 42
0.0
 43
0.0
 44
0.0
 45
0.0
 46
0.0
 47
0.0
 48
0.0
 49
0.0
140
0.0
141
0.0
142
1.0
143
1.0
 70
  1712
 72
     0
 73
     0
 74
     0
  7

 75
     0
147
1.0
148
0.0
149
0.0
100
AcDbLayout
  1
Model
 70
     1
 71
     0
 10
0.0
 20
0.0
 11
3000.0
 21
4500.0
 12
0.0
 22
0.0
 32
0.0
 14
0.0
 24
0.0
 34
0.0
 15
3000.0
 25
4500.0
 35
0.0
146
0.0
 13
0.0
 23
0.0
 33
0.0
 16
1.0
 26
0.0
 36
0.0
 17
0.0
 27
1.0
 37
0.0
 76
     0
330
1F
331
29
  0
MLINESTYLE
  5
18
102
{ACAD_REACTORS
330
17
102
}
330
17
100
AcDbMlineStyle
  2
Standard
 70
     0
  3

 62
   256
 51
90.0
 52
90.0
 71
     2
 49
0.5
 62
   256
  6
BYLAYER
 49
-0.5
 62
   256
  6
BYLAYER
  0
ACDBPLACEHOLDER
  5
F
102
{ACAD_REACTORS
330
E
102
}
330
E
  0
SCALE
  5
3C
102
{ACAD_REACTORS
330
3B
102
}
330
3B
100
AcDbScale
 70
     0
300
1:1
140
1.0
141
1.0
290
     1
  0
SCALE
  5
3D
102
{ACAD_REACTORS
330
3B
102
}
330
3B
100
AcDbScale
 70
     0
300
1:2
140
1.0
141
2.0
290
     0
  0
SCALE
  5
3E
102
{ACAD_REACTORS
330
3B
102
}
330
3B
100
AcDbScale
 70
     0
300
1:4
140
1.0
141
4.0
290
     0
  0
SCALE
  5
3F
102
{ACAD_REACTORS
330
3B
102
}
330
3B
100
AcDbScale
 70
     0
300
1:5
140
1.0
141
5.0
290
     0
  0
SCALE
  5
40
102
{ACAD_REACTORS
330
3B
102
}
330
3B
100
AcDbScale
 70
     0
300
1:8
140
1.0
141
8.0
290
     0
  0
SCALE
  5
41
102
{ACAD_REACTORS
330
3B
102
}
330
3B
100
AcDbScale
 70
     0
300
1:10
140
1.0
141
10.0
290
     0
  0
SCALE
  5
42
102
{ACAD_REACTORS
330
3B
102
}
330
3B
100
AcDbScale
 70
     0
300
1:16
140
1.0
141
16.0
290
     0
  0
SCALE
  5
43
102
{ACAD_REACTORS
330
3B
102
}
330
3B
100
AcDbScale
 70
     0
300
1:20
140
1.0
141
20.0
290
     0
  0
SCALE
  5
44
102
{ACAD_REACTORS
330
3B
102
}
330
3B
100
AcDbScale
 70
     0
300
1:30
140
1.0
141
30.0
290
     0
  0
SCALE
  5
45
102
{ACAD_REACTORS
330
3B
102
}
330
3B
100
AcDbScale
 70
     0
300
1:40
140
1.0
141
40.0
290
     0
  0
SCALE
  5
46
102
{ACAD_REACTORS
330
3B
102
}
330
3B
100
AcDbScale
 70
     0
300
1:50
140
1.0
141
50.0
290
     0
  0
SCALE
  5
47
102
{ACAD_REACTORS
330
3B
102
}
330
3B
100
AcDbScale
 70
     0
300
1:100
140
1.0
141
100.0
290
     0
  0
SCALE
  5
48
102
{ACAD_REACTORS
330
3B
102
}
330
3B
100
AcDbScale
 70
     0
300
2:1
140
2.0
141
1.0
290
     0
  0
SCALE
  5
49
102
{ACAD_REACTORS
330
3B
102
}
330
3B
100
AcDbScale
 70
     0
300
4:1
140
4.0
141
1.0
290
     0
  0
SCALE
  5
4A
102
{ACAD_REACTORS
330
3B
102
}
330
3B
100
AcDbScale
 70
     0
300
8:1
140
8.0
141
1.0
290
     0
  0
SCALE
  5
4B
102
{ACAD_REACTORS
330
3B
102
}
330
3B
100
AcDbScale
 70
     0
300
10:1
140
10.0
141
1.0
290
     0
  0
SCALE
  5
4C
102
{ACAD_REACTORS
330
3B
102
}
330
3B
100
AcDbScale
 70
     0
300
100:1
140
100.0
141
1.0
290
     0
  0
SCALE
  5
4D
102
{ACAD_REACTORS
330
3B
102
}
330
3B
100
AcDbScale
 70
     0
300
1/128" = 1'-0"
140
0.0078125
141
12.0
290
     0
  0
SCALE
  5
4E
102
{ACAD_REACTORS
330
3B
102
}
330
3B
100
AcDbScale
 70
     0
300
1/64" = 1'-0"
140
0.015625
141
12.0
290
     0
  0
SCALE
  5
4F
102
{ACAD_REACTORS
330
3B
102
}
330
3B
100
AcDbScale
 70
     0
300
1/32" = 1'-0"
140
0.03125
141
12.0
290
     0
  0
SCALE
  5
50
102
{ACAD_REACTORS
330
3B
102
}
330
3B
100
AcDbScale
 70
     0
300
1/16" = 1'-0"
140
0.0625
141
12.0
290
     0
  0
SCALE
  5
51
102
{ACAD_REACTORS
330
3B
102
}
330
3B
100
AcDbScale
 70
     0
300
3/32" = 1'-0"
140
0.09375
141
12.0
290
     0
  0
SCALE
  5
52
102
{ACAD_REACTORS
330
3B
102
}
330
3B
100
AcDbScale
 70
     0
300
1/8" = 1'-0"
140
0.125
141
12.0
290
     0
  0
SCALE
  5
53
102
{ACAD_REACTORS
330
3B
102
}
330
3B
100
AcDbScale
 70
     0
300
3/16" = 1'-0"
140
0.1875
141
12.0
290
     0
  0
SCALE
  5
54
102
{ACAD_REACTORS
330
3B
102
}
330
3B
100
AcDbScale
 70
     0
300
1/4" = 1'-0"
140
0.25
141
12.0
290
     0
  0
SCALE
  5
55
102
{ACAD_REACTORS
330
3B
102
}
330
3B
100
AcDbScale
 70
     0
300
3/8" = 1'-0"
140
0.375
141
12.0
290
     0
  0
SCALE
  5
56
102
{ACAD_REACTORS
330
3B
102
}
330
3B
100
AcDbScale
 70
     0
300
1/2" = 1'-0"
140
0.5
141
12.0
290
     0
  0
SCALE
  5
57
102
{ACAD_REACTORS
330
3B
102
}
330
3B
100
AcDbScale
 70
     0
300
3/4" = 1'-0"
140
0.75
141
12.0
290
     0
  0
SCALE
  5
58
102
{ACAD_REACTORS
330
3B
102
}
330
3B
100
AcDbScale
 70
     0
300
1" = 1'-0"
140
1.0
141
12.0
290
     0
  0
SCALE
  5
59
102
{ACAD_REACTORS
330
3B
102
}
330
3B
100
AcDbScale
 70
     0
300
1-1/2" = 1'-0"
140
1.5
141
12.0
290
     0
  0
SCALE
  5
5A
102
{ACAD_REACTORS
330
3B
102
}
330
3B
100
AcDbScale
 70
     0
300
3" = 1'-0"
140
3.0
141
12.0
290
     0
  0
SCALE
  5
5B
102
{ACAD_REACTORS
330
3B
102
}
330
3B
100
AcDbScale
 70
     0
300
6" = 1'-0"
140
6.0
141
12.0
290
     0
  0
SCALE
  5
5C
102
{ACAD_REACTORS
330
3B
102
}
330
3B
100
AcDbScale
 70
     0
300
1'-0" = 1'-0"
140
12.0
141
12.0
290
     0
  0
VISUALSTYLE
  5
2F
102
{ACAD_REACTORS
330
2A
102
}
330
2A
100
AcDbVisualStyle
  2
2dWireframe
 70
     4
 71
     0
 72
     2
 73
     0
 90
        0
 40
-0.6
 41
-30.0
 62
     5
 63
     7
 74
     1
 91
        4
 64
     7
 65
   257
 75
     1
175
     1
 42
1.0
 92
        0
 66
   257
 43
1.0
 76
     1
 77
     6
 78
     2
 67
     7
 79
     5
170
     0
171
     0
290
     0
174
     0
 93
        1
 44
0.0
173
     0
291
     0
 45
0.0
1001
ACAD
1000
AcDbSavedByObjectVersion
1070
     0
  0
VISUALSTYLE
  5
31
102
{ACAD_REACTORS
330
2A
102
}
330
2A
100
AcDbVisualStyle
  2
3D Hidden
 70
     6
 71
     1
 72
     2
 73
     2
 90
        0
 40
-0.6
 41
-30.0
 62
     5
 63
     7
 74
     2
 91
        2
 64
     7
 65
   257
 75
     2
175
     1
 42
40.0
 92
        0
 66
   257
 43
1.0
 76
     1
 77
     6
 78
     2
 67
     7
 79
     3
170
     0
171
     0
290
     0
174
     0
 93
        1
 44
0.0
173
     0
291
     0
 45
0.0
1001
ACAD
1000
AcDbSavedByObjectVersion
1070
     0
  0
VISUALSTYLE
  5
30
102
{ACAD_REACTORS
330
2A
102
}
330
2A
100
AcDbVisualStyle
  2
3dWireframe
 70
     5
 71
     0
 72
     2
 73
     0
 90
        0
 40
-0.6
 41
-30.0
 62
     5
 63
     7
 74
     1
 91
        4
 64
     7
 65
   257
 75
     1
175
     1
 42
1.0
 92
        0
 66
   257
 43
1.0
 76
     1
 77
     6
 78
     2
 67
     7
 79
     5
170
     0
171
     0
290
     0
174
     0
 93
        1
 44
0.0
173
     0
291
     0
 45
0.0
1001
ACAD
1000
AcDbSavedByObjectVersion
1070
     0
  0
VISUALSTYLE
  5
32
102
{ACAD_REACTORS
330
2A
102
}
330
2A
100
AcDbVisualStyle
  2
Basic
 70
     7
 71
     1
 72
     0
 73
     1
 90
        0
 40
-0.6
 41
-30.0
 62
     5
 63
     7
 74
     0
 91
        4
 64
     7
 65
   257
 75
     1
175
     1
 42
1.0
 92
        8
 66
     7
 43
1.0
 76
     1
 77
     6
 78
     2
 67
     7
 79
     5
170
     0
171
     0
290
     0
174
     0
 93
        1
 44
0.0
173
     0
291
     1
 45
0.0
1001
ACAD
1000
AcDbSavedByObjectVersion
1070
     0
  0
VISUALSTYLE
  5
36
102
{ACAD_REACTORS
330
2A
102
}
330
2A
100
AcDbVisualStyle
  2
Brighten
 70
    12
 71
     2
 72
     2
 73
     0
 90
        0
 40
-0.6
 41
-30.0
 62
     5
 63
     7
 74
     1
 91
        4
 64
     7
 65
   257
 75
     1
175
     1
 42
1.0
 92
        8
 66
     7
 43
1.0
 76
     1
 77
     6
 78
     2
 67
     7
 79
     5
170
     0
171
     0
290
     0
174
     0
 93
        1
 44
50.0
173
     0
291
     1
 45
0.0
1001
ACAD
1000
AcDbSavedByObjectVersion
1070
     0
  0
VISUALSTYLE
  5
3A
102
{ACAD_REACTORS
330
2A
102
}
330
2A
100
AcDbVisualStyle
  2
ColorChange
 70
    16
 71
     2
 72
     2
 73
     3
 90
        0
 40
-0.6
 41
-30.0
 62
     5
 63
     8
 74
     1
 91
        4
 64
     7
 65
   257
 75
     1
175
     1
 42
1.0
 92
        8
 66
     8
 43
1.0
 76
     1
 77
     6
 78
     2
 67
     7
 79
     5
170
     0
171
     0
290
     0
174
     0
 93
        1
 44
0.0
173
     0
291
     1
 45
0.0
1001
ACAD
1000
AcDbSavedByObjectVersion
1070
     0
  0
VISUALSTYLE
  5
34
102
{ACAD_REACTORS
330
2A
102
}
330
2A
100
AcDbVisualStyle
  2
Conceptual
 70
     9
 71
     3
 72
     2
 73
     0
 90
        0
 40
-0.6
 41
-30.0
 62
     5
 63
     7
 74
     2
 91
        2
 64
     7
 65
   257
 75
     1
175
     1
 42
40.0
 92
        8
 66
     7
 43
1.0
 76
     1
 77
     6
 78
     2
 67
     7
 79
     3
170
     0
171
     0
290
     0
174
     0
 93
        1
 44
0.0
173
     0
291
     0
 45
0.0
1001
ACAD
1000
AcDbSavedByObjectVersion
1070
     0
  0
VISUALSTYLE
  5
35
102
{ACAD_REACTORS
330
2A
102
}
330
2A
100
AcDbVisualStyle
  2
Dim
 70
    11
 71
     2
 72
     2
 73
     0
 90
        0
 40
-0.6
 41
-30.0
 62
     5
 63
     7
 74
     1
 91
        4
 64
     7
 65
   257
 75
     1
175
     1
 42
1.0
 92
        8
 66
     7
 43
1.0
 76
     1
 77
     6
 78
     2
 67
     7
 79
     5
170
     0
171
     0
290
     0
174
     0
 93
        1
 44
-50.0
173
     0
291
     1
 45
0.0
1001
ACAD
1000
AcDbSavedByObjectVersion
1070
     0
  0
VISUALSTYLE
  5
39
102
{ACAD_REACTORS
330
2A
102
}
330
2A
100
AcDbVisualStyle
  2
Facepattern
 70
    15
 71
     2
 72
     2
 73
     0
 90
        0
 40
-0.6
 41
-30.0
 62
     5
 63
     7
 74
     1
 91
        4
 64
     7
 65
   257
 75
     1
175
     1
 42
1.0
 92
        8
 66
     7
 43
1.0
 76
     1
 77
     6
 78
     2
 67
     7
 79
     5
170
     0
171
     0
290
     0
174
     0
 93
        1
 44
0.0
173
     0
291
     1
 45
0.0
1001
ACAD
1000
AcDbSavedByObjectVersion
1070
     0
  0
VISUALSTYLE
  5
2B
102
{ACAD_REACTORS
330
2A
102
}
330
2A
100
AcDbVisualStyle
  2
Flat
 70
     0
 71
     2
 72
     1
 73
     1
 90
        2
 40
-0.6
 41
30.0
 62
     5
 63
     7
 74
     0
 91
        4
 64
     7
 65
   257
 75
     1
175
     1
 42
1.0
 92
        8
 66
     7
 43
1.0
 76
     1
 77
     6
 78
     2
 67
     7
 79
     5
170
     0
171
     0
290
     0
174
     0
 93
       13
 44
0.0
173
     0
291
     1
 45
0.0
1001
ACAD
1000
AcDbSavedByObjectVersion
1070
     0
  0
VISUALSTYLE
  5
2C
102
{ACAD_REACTORS
330
2A
102
}
330
2A
100
AcDbVisualStyle
  2
FlatWithEdges
 70
     1
 71
     2
 72
     1
 73
     1
 90
        2
 40
-0.6
 41
30.0
 62
     5
 63
     7
 74
     1
 91
        4
 64
     7
 65
   257
 75
     1
175
     1
 42
1.0
 92
        0
 66
   257
 43
1.0
 76
     1
 77
     6
 78
     2
 67
     7
 79
     5
170
     0
171
     0
290
     0
174
     0
 93
       13
 44
0.0
173
     0
291
     1
 45
0.0
1001
ACAD
1000
AcDbSavedByObjectVersion
1070
     0
  0
VISUALSTYLE
  5
2D
102
{ACAD_REACTORS
330
2A
102
}
330
2A
100
AcDbVisualStyle
  2
Gouraud
 70
     2
 71
     2
 72
     2
 73
     1
 90
        2
 40
-0.6
 41
30.0
 62
     5
 63
     7
 74
     0
 91
        4
 64
     7
 65
   257
 75
     1
175
     1
 42
1.0
 92
        0
 66
     7
 43
1.0
 76
     1
 77
     6
 78
     2
 67
     7
 79
     5
170
     0
171
     0
290
     0
174
     0
 93
       13
 44
0.0
173
     0
291
     1
 45
0.0
1001
ACAD
1000
AcDbSavedByObjectVersion
1070
     0
  0
VISUALSTYLE
  5
2E
102
{ACAD_REACTORS
330
2A
102
}
330
2A
100
AcDbVisualStyle
  2
GouraudWithEdges
 70
     3
 71
     2
 72
     2
 73
     1
 90
        2
 40
-0.6
 41
30.0
 62
     5
 63
     7
 74
     1
 91
        4
 64
     7
 65
   257
 75
     1
175
     1
 42
1.0
 92
        0
 66
   257
 43
1.0
 76
     1
 77
     6
 78
     2
 67
     7
 79
     5
170
     0
171
     0
290
     0
174
     0
 93
       13
 44
0.0
173
     0
291
     1
 45
0.0
1001
ACAD
1000
AcDbSavedByObjectVersion
1070
     0
  0
VISUALSTYLE
  5
38
102
{ACAD_REACTORS
330
2A
102
}
330
2A
100
AcDbVisualStyle
  2
Linepattern
 70
    14
 71
     2
 72
     2
 73
     0
 90
        0
 40
-0.6
 41
-30.0
 62
     5
 63
     7
 74
     1
 91
        4
 64
     7
 65
   257
 75
     7
175
     7
 42
1.0
 92
        8
 66
     7
 43
1.0
 76
     1
 77
     6
 78
     2
 67
     7
 79
     5
170
     0
171
     0
290
     0
174
     0
 93
        1
 44
0.0
173
     0
291
     1
 45
0.0
1001
ACAD
1000
AcDbSavedByObjectVersion
1070
     0
  0
VISUALSTYLE
  5
33
102
{ACAD_REACTORS
330
2A
102
}
330
2A
100
AcDbVisualStyle
  2
Realistic
 70
     8
 71
     2
 72
     2
 73
     0
 90
        0
 40
-0.6
 41
-30.0
 62
     5
 63
     7
 74
     1
 91
        0
 64
     7
 65
   257
 75
     1
175
     1
 42
1.0
 92
        8
 66
     8
 43
1.0
 76
     1
 77
     6
 78
     2
 67
     7
 79
     5
170
     0
171
     0
290
     0
174
     0
 93
       13
 44
0.0
173
     0
291
     0
 45
0.0
1001
ACAD
1000
AcDbSavedByObjectVersion
1070
     0
  0
VISUALSTYLE
  5
37
102
{ACAD_REACTORS
330
2A
102
}
330
2A
100
AcDbVisualStyle
  2
Thicken
 70
    13
 71
     2
 72
     2
 73
     0
 90
        0
 40
-0.6
 41
-30.0
 62
     5
 63
     7
 74
     1
 91
        4
 64
     7
 65
   257
 75
     1
175
     1
 42
1.0
 92
       12
 66
     7
 43
1.0
 76
     1
 77
     6
 78
     2
 67
     7
 79
     5
170
     0
171
     0
290
     0
174
     0
 93
        1
 44
0.0
173
     0
291
     1
 45
0.0
1001
ACAD
1000
AcDbSavedByObjectVersion
1070
     0
  0
DICTIONARYVAR
  5
1E3
102
{ACAD_REACTORS
330
1E2
102
}
330
1E2
100
DictionaryVariables
280
     0
  1
1:1
  0
DICTIONARYVAR
  5
1E7
102
{ACAD_REACTORS
330
1E2
102
}
330
1E2
100
DictionaryVariables
280
     0
  1
80.000000
  0
DICTIONARYVAR
  5
1E6
102
{ACAD_REACTORS
330
1E2
102
}
330
1E2
100
DictionaryVariables
280
     0
  1
5.000000
  0
ENDSEC
  0
EOF
