  0
SECTION
  2
HEADER
  9
$ACADVER
  1
AC1015
  9
$ACADMAINTVER
 70
     6
  9
$DWGCODEPAGE
  3
ANSI_1252
  9
$INSBASE
 10
0.0
 20
0.0
 30
0.0
  9
$EXTMIN
 10
0.0
 20
0.0
 30
0.0
  9
$EXTMAX
 10
3000.0
 20
4500.0
 30
0.0
  9
$LIMMIN
 10
0.0
 20
0.0
  9
$LIMMAX
 10
3000.0
 20
4500.0
  9
$ORTHOMODE
 70
     0
  9
$REGENMODE
 70
     1
  9
$FILLMODE
 70
     1
  9
$QTEXTMODE
 70
     0
  9
$MIRRTEXT
 70
     1
  9
$LTSCALE
 40
1.0
  9
$ATTMODE
 70
     1
  9
$TEXTSIZE
 40
2.5
  9
$TRACEWID
 40
1.0
  9
$TEXTSTYLE
  7
Standard
  9
$CLAYER
  8
0
  9
$CELTYPE
  6
ByLayer
  9
$CECOLOR
 62
   256
  9
$CELTSCALE
 40
1.0
  9
$DISPSILH
 70
     0
  9
$DIMSCALE
 40
1.0
  9
$DIMASZ
 40
2.5
  9
$DIMEXO
 40
0.625
  9
$DIMDLI
 40
3.75
  9
$DIMRND
 40
0.0
  9
$DIMDLE
 40
0.0
  9
$DIMEXE
 40
1.25
  9
$DIMTP
 40
0.0
  9
$DIMTM
 40
0.0
  9
$DIMTXT
 40
2.5
  9
$DIMCEN
 40
2.5
  9
$DIMTSZ
 40
0.0
  9
$DIMTOL
 70
     0
  9
$DIMLIM
 70
     0
  9
$DIMTIH
 70
     0
  9
$DIMTOH
 70
     0
  9
$DIMSE1
 70
     0
  9
$DIMSE2
 70
     0
  9
$DIMTAD
 70
     1
  9
$DIMZIN
 70
     8
  9
$DIMBLK
  1

  9
$DIMASO
 70
     1
  9
$DIMSHO
 70
     1
  9
$DIMPOST
  1

  9
$DIMAPOST
  1

  9
$DIMALT
 70
     0
  9
$DIMALTD
 70
     3
  9
$DIMALTF
 40
0.0393700787
  9
$DIMLFAC
 40
1.0
  9
$DIMTOFL
 70
     1
  9
$DIMTVP
 40
0.0
  9
$DIMTIX
 70
     0
  9
$DIMSOXD
 70
     0
  9
$DIMSAH
 70
     0
  9
$DIMBLK1
  1

  9
$DIMBLK2
  1

  9
$DIMSTYLE
  2
ISO-25
  9
$DIMCLRD
 70
     0
  9
$DIMCLRE
 70
     0
  9
$DIMCLRT
 70
     0
  9
$DIMTFAC
 40
1.0
  9
$DIMGAP
 40
0.625
  9
$DIMJUST
 70
     0
  9
$DIMSD1
 70
     0
  9
$DIMSD2
 70
     0
  9
$DIMTOLJ
 70
     0
  9
$DIMTZIN
 70
     8
  9
$DIMALTZ
 70
     0
  9
$DIMALTTZ
 70
     0
  9
$DIMUPT
 70
     0
  9
$DIMDEC
 70
     2
  9
$DIMTDEC
 70
     2
  9
$DIMALTU
 70
     2
  9
$DIMALTTD
 70
     3
  9
$DIMTXSTY
  7
Standard
  9
$DIMAUNIT
 70
     0
  9
$DIMADEC
 70
     0
  9
$DIMALTRND
 40
0.0
  9
$DIMAZIN
 70
     0
  9
$DIMDSEP
 70
    44
  9
$DIMATFIT
 70
     3
  9
$DIMFRAC
 70
     0
  9
$DIMLDRBLK
  1

  9
$DIMLUNIT
 70
     2
  9
$DIMLWD
 70
    -2
  9
$DIMLWE
 70
    -2
  9
$DIMTMOVE
 70
     0
  9
$LUNITS
 70
     2
  9
$LUPREC
 70
     4
  9
$SKETCHINC
 40
1.0
  9
$FILLETRAD
 40
10.0
  9
$AUNITS
 70
     0
  9
$AUPREC
 70
     0
  9
$MENU
  1
.
  9
$ELEVATION
 40
0.0
  9
$PELEVATION
 40
0.0
  9
$THICKNESS
 40
0.0
  9
$LIMCHECK
 70
     0
  9
$CHAMFERA
 40
10.0
  9
$CHAMFERB
 40
10.0
  9
$CHAMFERC
 40
20.0
  9
$CHAMFERD
 40
0.0
  9
$SKPOLY
 70
     0
  9
$TDCREATE
 40
2456601.580165556
  9
$TDUCREATE
 40
2456601.538498889
  9
$TDUPDATE
 40
2456601.580165567
  9
$TDUUPDATE
 40
2456601.5384989
  9
$TDINDWG
 40
0.0000000116
  9
$TDUSRTIMER
 40
0.0000000116
  9
$USRTIMER
 70
     1
  9
$ANGBASE
 50
0.0
  9
$ANGDIR
 70
     0
  9
$PDMODE
 70
     0
  9
$PDSIZE
 40
0.0
  9
$PLINEWID
 40
0.0
  9
$SPLFRAME
 70
     0
  9
$SPLINETYPE
 70
     6
  9
$SPLINESEGS
 70
     8
  9
$HANDSEED
  5
214
  9
$SURFTAB1
 70
     6
  9
$SURFTAB2
 70
     6
  9
$SURFTYPE
 70
     6
  9
$SURFU
 70
     6
  9
$SURFV
 70
     6
  9
$UCSBASE
  2

  9
$UCSNAME
  2

  9
$UCSORG
 10
0.0
 20
0.0
 30
0.0
  9
$UCSXDIR
 10
1.0
 20
0.0
 30
0.0
  9
$UCSYDIR
 10
0.0
 20
1.0
 30
0.0
  9
$UCSORTHOREF
  2

  9
$UCSORTHOVIEW
 70
     0
  9
$UCSORGTOP
 10
0.0
 20
0.0
 30
0.0
  9
$UCSORGBOTTOM
 10
0.0
 20
0.0
 30
0.0
  9
$UCSORGLEFT
 10
0.0
 20
0.0
 30
0.0
  9
$UCSORGRIGHT
 10
0.0
 20
0.0
 30
0.0
  9
$UCSORGFRONT
 10
0.0
 20
0.0
 30
0.0
  9
$UCSORGBACK
 10
0.0
 20
0.0
 30
0.0
  9
$PUCSBASE
  2

  9
$PUCSNAME
  2

  9
$PUCSORG
 10
0.0
 20
0.0
 30
0.0
  9
$PUCSXDIR
 10
1.0
 20
0.0
 30
0.0
  9
$PUCSYDIR
 10
0.0
 20
1.0
 30
0.0
  9
$PUCSORTHOREF
  2

  9
$PUCSORTHOVIEW
 70
     0
  9
$PUCSORGTOP
 10
0.0
 20
0.0
 30
0.0
  9
$PUCSORGBOTTOM
 10
0.0
 20
0.0
 30
0.0
  9
$PUCSORGLEFT
 10
0.0
 20
0.0
 30
0.0
  9
$PUCSORGRIGHT
 10
0.0
 20
0.0
 30
0.0
  9
$PUCSORGFRONT
 10
0.0
 20
0.0
 30
0.0
  9
$PUCSORGBACK
 10
0.0
 20
0.0
 30
0.0
  9
$USERI1
 70
     0
  9
$USERI2
 70
     0
  9
$USERI3
 70
     0
  9
$USERI4
 70
     0
  9
$USERI5
 70
     0
  9
$USERR1
 40
0.0
  9
$USERR2
 40
0.0
  9
$USERR3
 40
0.0
  9
$USERR4
 40
0.0
  9
$USERR5
 40
0.0
  9
$WORLDVIEW
 70
     1
  9
$SHADEDGE
 70
     3
  9
$SHADEDIF
 70
    70
  9
$TILEMODE
 70
     1
  9
$MAXACTVP
 70
    64
  9
$PINSBASE
 10
0.0
 20
0.0
 30
0.0
  9
$PLIMCHECK
 70
     0
  9
$PEXTMIN
 10
0.0
 20
0.0
 30
0.0
  9
$PEXTMAX
 10
3000.0
 20
4500.0
 30
0.0
  9
$PLIMMIN
 10
0.0
 20
0.0
  9
$PLIMMAX
 10
3000.0
 20
4500.0
  9
$UNITMODE
 70
     0
  9
$VISRETAIN
 70
     1
  9
$PLINEGEN
 70
     0
  9
$PSLTSCALE
 70
     1
  9
$TREEDEPTH
 70
  3020
  9
$CMLSTYLE
  2
Standard
  9
$CMLJUST
 70
     0
  9
$CMLSCALE
 40
20.0
  9
$PROXYGRAPHICS
 70
     1
  9
$MEASUREMENT
 70
     1
  9
$CELWEIGHT
370
    -1
  9
$ENDCAPS
280
     0
  9
$JOINSTYLE
280
     0
  9
$LWDISPLAY
290
     0
  9
$INSUNITS
 70
     4
  9
$HYPERLINKBASE
  1

  9
$STYLESHEET
  1

  9
$XEDIT
290
     1
  9
$CEPSNTYPE
380
     0
  9
$PSTYLEMODE
290
     1
  9
$FINGERPRINTGUID
  2
{C15C6B71-E58B-4891-9E0B-2924804175D2}
  9
$VERSIONGUID
  2
{FAEB1C32-E019-11D5-929B-00C0DF256EC4}
  9
$EXTNAMES
290
     1
  9
$PSVPSCALE
 40
0.0
  9
$OLESTARTUP
290
     0
  0
ENDSEC
  0
SECTION
  2
CLASSES
  0
CLASS
  1
ACDBDICTIONARYWDFLT
  2
AcDbDictionaryWithDefault
  3
ObjectDBX Classes
 90
        0
280
     0
281
     0
  0
CLASS
  1
VISUALSTYLE
  2
AcDbVisualStyle
  3
ObjectDBX Classes
 90
     4095
280
     0
281
     0
  0
CLASS
  1
SCALE
  2
AcDbScale
  3
ObjectDBX Classes
 90
     1153
280
     0
281
     0
  0
CLASS
  1
DICTIONARYVAR
  2
AcDbDictionaryVar
  3
ObjectDBX Classes
 90
        0
280
     0
281
     0
  0
CLASS
  1
ACDBPLACEHOLDER
  2
AcDbPlaceHolder
  3
ObjectDBX Classes
 90
        0
280
     0
281
     0
  0
CLASS
  1
LAYOUT
  2
AcDbLayout
  3
ObjectDBX Classes
 90
        0
280
     0
281
     0
  0
ENDSEC
  0
SECTION
  2
TABLES
  0
TABLE
  2
VPORT
  5
8
330
0
100
AcDbSymbolTable
 70
     1
  0
VPORT
  5
29
330
8
100
AcDbSymbolTableRecord
100
AcDbViewportTableRecord
  2
*Active
 70
     0
 10
0.0
 20
0.0
 11
1.0
 21
1.0
 12
344.1869158879
 22
148.5
 13
0.0
 23
0.0
 14
10.0
 24
10.0
 15
10.0
 25
10.0
 16
0.0
 26
0.0
 36
1.0
 17
0.0
 27
0.0
 37
0.0
 40
297.0
 41
1.9729729729
 42
50.0
 43
0.0
 44
0.0
 50
0.0
 51
0.0
 71
     0
 72
   100
 73
     1
 74
     3
 75
     0
 76
     0
 77
     0
 78
     0
281
     0
 65
     1
110
0.0
120
0.0
130
0.0
111
1.0
121
0.0
131
0.0
112
0.0
122
1.0
132
0.0
 79
     0
146
0.0
  0
ENDTAB
  0
TABLE
  2
LTYPE
  5
5
330
0
100
AcDbSymbolTable
 70
     2
  0
LTYPE
  5
14
330
5
100
AcDbSymbolTableRecord
100
AcDbLinetypeTableRecord
  2
ByBlock
 70
     0
  3

 72
    65
 73
     0
 40
0.0
  0
LTYPE
  5
15
330
5
100
AcDbSymbolTableRecord
100
AcDbLinetypeTableRecord
  2
ByLayer
 70
     0
  3

 72
    65
 73
     0
 40
0.0
  0
LTYPE
  5
16
330
5
100
AcDbSymbolTableRecord
100
AcDbLinetypeTableRecord
  2
Continuous
 70
     0
  3
Solid line
 72
    65
 73
     0
 40
0.0
  0
LTYPE
  5
15F
330
5
100
AcDbSymbolTableRecord
100
AcDbLinetypeTableRecord
  2
CENTER2
 70
     0
  3
Center (.5x) ___ _ ___ _ ___ _ ___ _ ___ _ ___
 72
    65
 73
     4
 40
28.575
 49
19.05
 74
     4
 75
     0
340
0
 46
0.0
 50
0.0
 44
0.0
 45
0.0
 49
-3.175
 74
     4
 75
     0
340
0
 46
0.0
 50
0.0
 44
0.0
 45
0.0
 49
3.175
 74
     4
 75
     0
340
0
 46
0.0
 50
0.0
 44
0.0
 45
0.0
 49
-3.175
 74
     4
 75
     0
340
0
 46
0.0
 50
0.0
 44
0.0
 45
0.0
  0
ENDTAB
  0
TABLE
  2
LAYER
  5
2
330
0
100
AcDbSymbolTable
 70
    15
  0
LAYER
  5
10
330
2
100
AcDbSymbolTableRecord
100
AcDbLayerTableRecord
  2
0
 70
     0
 62
     7
  6
Continuous
370
    -3
390
F
  0
LAYER
  5
5D
330
2
100
AcDbSymbolTableRecord
100
AcDbLayerTableRecord
  2
Default
 70
     0
 62
     7
  6
Continuous
370
    -3
390
F
  0
LAYER
  5
60
330
2
100
AcDbSymbolTableRecord
100
AcDbLayerTableRecord
  2
405647038_AUSLAU
 70
     0
 62
     7
  6
Continuous
370
    -3
390
F
  0
LAYER
  5
6D
330
2
100
AcDbSymbolTableRecord
100
AcDbLayerTableRecord
  2
$DDT_AUDIT_GENERATED_(6D)
 70
     0
 62
     7
  6
Continuous
370
    -3
390
F
  0
LAYER
  5
7A
330
2
100
AcDbSymbolTableRecord
100
AcDbLayerTableRecord
  2
$DDT_AUDIT_GENERATED_(7A)
 70
     0
 62
     7
  6
Continuous
370
    -3
390
F
  0
LAYER
  5
7D
330
2
100
AcDbSymbolTableRecord
100
AcDbLayerTableRecord
  2
08664131_STOPFEN
 70
     0
 62
     7
  6
Continuous
370
    -3
390
F
  0
LAYER
  5
85
330
2
100
AcDbSymbolTableRecord
100
AcDbLayerTableRecord
  2
$DDT_AUDIT_GENERATED_(85)
 70
     0
 62
     7
  6
Continuous
370
    -3
390
F
  0
LAYER
  5
8A
330
2
100
AcDbSymbolTableRecord
100
AcDbLayerTableRecord
  2
$DDT_AUDIT_GENERATED_(8A)
 70
     0
 62
     7
  6
Continuous
370
    -3
390
F
  0
LAYER
  5
146
330
2
100
AcDbSymbolTableRecord
100
AcDbLayerTableRecord
  2
$DDT_AUDIT_GENERATED_(146)
 70
     0
 62
     7
  6
Continuous
370
    -3
390
F
  0
LAYER
  5
15E
330
2
100
AcDbSymbolTableRecord
100
AcDbLayerTableRecord
  2
DV1_Default
 70
     0
 62
     7
  6
Continuous
370
    -3
390
F
  0
LAYER
  5
177
330
2
100
AcDbSymbolTableRecord
100
AcDbLayerTableRecord
  2
$DDT_AUDIT_GENERATED_(177)
 70
     0
 62
     7
  6
Continuous
370
    -3
390
F
  0
LAYER
  5
187
330
2
100
AcDbSymbolTableRecord
100
AcDbLayerTableRecord
  2
64927031_SCHABL_
 70
     0
 62
     7
  6
Continuous
370
    -3
390
F
  0
LAYER
  5
1A3
330
2
100
AcDbSymbolTableRecord
100
AcDbLayerTableRecord
  2
$DDT_AUDIT_GENERATED_(1A3)
 70
     0
 62
     7
  6
Continuous
370
    -3
390
F
  0
LAYER
  5
1A6
330
2
100
AcDbSymbolTableRecord
100
AcDbLayerTableRecord
  2
DV2_Default
 70
     0
 62
     7
  6
Continuous
370
    -3
390
F
  0
LAYER
  5
1FA
330
2
100
AcDbSymbolTableRecord
100
AcDbLayerTableRecord
  2
DV3_Default
 70
     0
 62
     7
  6
Continuous
370
    -3
390
F
  0
ENDTAB
  0
TABLE
  2
STYLE
  5
3
330
0
100
AcDbSymbolTable
 70
     2
  0
STYLE
  5
11
330
3
100
AcDbSymbolTableRecord
100
AcDbTextStyleTableRecord
  2
Standard
 70
     0
 40
0.0
 41
1.0
 50
0.0
 71
     0
 42
2.5
  3
txt
  4

  0
STYLE
  5
203
330
3
100
AcDbSymbolTableRecord
100
AcDbTextStyleTableRecord
  2
SEACAD_seiso_ttf
 70
     0
 40
0.0
 41
1.0
 50
0.0
 71
     0
 42
0.2
  3
seiso.ttf
  4

  0
ENDTAB
  0
TABLE
  2
VIEW
  5
6
330
0
100
AcDbSymbolTable
 70
     0
  0
ENDTAB
  0
TABLE
  2
UCS
  5
7
330
0
100
AcDbSymbolTable
 70
     0
  0
ENDTAB
  0
TABLE
  2
APPID
  5
9
330
0
100
AcDbSymbolTable
 70
     1
  0
APPID
  5
12
330
9
100
AcDbSymbolTableRecord
100
AcDbRegAppTableRecord
  2
ACAD
 70
     0
  0
ENDTAB
  0
TABLE
  2
DIMSTYLE
  5
A
330
0
100
AcDbSymbolTable
 70
     1
100
AcDbDimStyleTable
  0
DIMSTYLE
105
27
330
A
100
AcDbSymbolTableRecord
100
AcDbDimStyleTableRecord
  2
ISO-25
 70
     0
 41
2.5
 42
0.625
 43
3.75
 44
1.25
 73
     0
 74
     0
 77
     1
 78
     8
140
2.5
141
2.5
143
0.0393700787
147
0.625
171
     3
172
     1
271
     2
272
     2
274
     3
278
    44
283
     0
284
     8
340
11
  0
ENDTAB
  0
TABLE
  2
BLOCK_RECORD
  5
1
330
0
100
AcDbSymbolTable
 70
     4
  0
BLOCK_RECORD
  5
1F
330
1
100
AcDbSymbolTableRecord
100
AcDbBlockTableRecord
  2
*Model_Space
340
22
  0
BLOCK_RECORD
  5
1B
330
1
100
AcDbSymbolTableRecord
100
AcDbBlockTableRecord
  2
*Paper_Space
340
1E
  0
BLOCK_RECORD
  5
5E
330
1
100
AcDbSymbolTableRecord
100
AcDbBlockTableRecord
  2
SE
340
0
102
{BLKREFS
331
5F
102
}
  0
BLOCK_RECORD
  5
16E
330
1
100
AcDbSymbolTableRecord
100
AcDbBlockTableRecord
  2
SE1
340
0
102
{BLKREFS
331
16F
102
}
  0
BLOCK_RECORD
  5
1AB
330
1
100
AcDbSymbolTableRecord
100
AcDbBlockTableRecord
  2
SE2
340
0
102
{BLKREFS
331
1AC
102
}
  0
ENDTAB
  0
ENDSEC
  0
SECTION
  2
BLOCKS
  0
BLOCK
  5
20
330
1F
100
AcDbEntity
  8
0
100
AcDbBlockBegin
  2
*Model_Space
 70
     0
 10
0.0
 20
0.0
 30
0.0
  3
*Model_Space
  1

  0
ENDBLK
  5
21
330
1F
100
AcDbEntity
  8
0
100
AcDbBlockEnd
  0
BLOCK
  5
1C
330
1B
100
AcDbEntity
 67
     1
  8
0
100
AcDbBlockBegin
  2
*Paper_Space
 70
     0
 10
0.0
 20
0.0
 30
0.0
  3
*Paper_Space
  1

  0
ENDBLK
  5
1D
330
1B
100
AcDbEntity
 67
     1
  8
0
100
AcDbBlockEnd
  0
BLOCK
  5
16C
330
5E
100
AcDbEntity
  8
0
100
AcDbBlockBegin
  2
SE
 70
     0
 10
0.0
 20
0.0
 30
0.0
  3
SE
  1

  0
LINE
  5
61
330
5E
100
AcDbEntity
  8
405647038_AUSLAU
  6
Continuous
 62
     7
100
AcDbLine
 10
23.8588674461
 20
537.6733588261
 30
0.0
 11
30.8588674461
 21
537.6733588261
 31
0.0
  0
LINE
  5
62
330
5E
100
AcDbEntity
  8
405647038_AUSLAU
  6
Continuous
 62
     7
100
AcDbLine
 10
30.8588674461
 20
537.6733588261
 30
0.0
 11
45.8588674461
 21
537.6733588261
 31
0.0
  0
LINE
  5
63
330
5E
100
AcDbEntity
  8
405647038_AUSLAU
  6
Continuous
 62
     7
100
AcDbLine
 10
45.8588674461
 20
537.6733588261
 30
0.0
 11
52.8588674461
 21
537.6733588261
 31
0.0
  0
LINE
  5
64
330
5E
100
AcDbEntity
  8
405647038_AUSLAU
  6
Continuous
 62
     7
100
AcDbLine
 10
22.8588674461
 20
516.6733588261
 30
0.0
 11
22.8588674461
 21
536.6733588261
 31
0.0
  0
LINE
  5
65
330
5E
100
AcDbEntity
  8
405647038_AUSLAU
  6
Continuous
 62
     7
100
AcDbLine
 10
53.8588674461
 20
536.6733588261
 30
0.0
 11
53.8588674461
 21
516.6733588261
 31
0.0
  0
LINE
  5
66
330
5E
100
AcDbEntity
  8
405647038_AUSLAU
  6
Continuous
 62
     7
100
AcDbLine
 10
52.8588674461
 20
515.6733588261
 30
0.0
 11
45.8588674461
 21
515.6733588261
 31
0.0
  0
LINE
  5
67
330
5E
100
AcDbEntity
  8
405647038_AUSLAU
  6
Continuous
 62
     7
100
AcDbLine
 10
45.8588674461
 20
515.6733588261
 30
0.0
 11
30.8588674461
 21
515.6733588261
 31
0.0
  0
LINE
  5
68
330
5E
100
AcDbEntity
  8
405647038_AUSLAU
  6
Continuous
 62
     7
100
AcDbLine
 10
30.8588674461
 20
515.6733588261
 30
0.0
 11
23.8588674461
 21
515.6733588261
 31
0.0
  0
ARC
  5
69
330
5E
100
AcDbEntity
  8
405647038_AUSLAU
  6
Continuous
 62
     7
100
AcDbCircle
 10
52.8588674461
 20
536.6733588261
 30
0.0
 40
0.9999999999999991
100
AcDbArc
 50
0.0
 51
90.0
  0
ARC
  5
6A
330
5E
100
AcDbEntity
  8
405647038_AUSLAU
  6
Continuous
 62
     7
100
AcDbCircle
 10
23.8588674461
 20
516.6733588261
 30
0.0
 40
0.9999999999999991
100
AcDbArc
 50
180.0
 51
270.0
  0
ARC
  5
6B
330
5E
100
AcDbEntity
  8
405647038_AUSLAU
  6
Continuous
 62
     7
100
AcDbCircle
 10
23.8588674461
 20
536.6733588261
 30
0.0
 40
0.9999999999999991
100
AcDbArc
 50
90.0
 51
180.0
  0
ARC
  5
6C
330
5E
100
AcDbEntity
  8
405647038_AUSLAU
  6
Continuous
 62
     7
100
AcDbCircle
 10
52.8588674461
 20
516.6733588261
 30
0.0
 40
0.9999999999999991
100
AcDbArc
 50
270.0
 51
0.0
  0
ARC
  5
6E
330
5E
100
AcDbEntity
  8
$DDT_AUDIT_GENERATED_(6D)
  6
Continuous
 62
     7
100
AcDbCircle
 10
38.3588674461
 20
526.6733588261
 30
0.0
 40
23.1
100
AcDbArc
 50
300.0716270227
 51
0.0
  0
ARC
  5
6F
330
5E
100
AcDbEntity
  8
$DDT_AUDIT_GENERATED_(6D)
  6
Continuous
 62
     7
100
AcDbCircle
 10
38.3588674461
 20
526.6733588261
 30
0.0
 40
23.1
100
AcDbArc
 50
0.0
 51
239.9283729773
  0
ARC
  5
70
330
5E
100
AcDbEntity
  8
$DDT_AUDIT_GENERATED_(6D)
  6
Continuous
 62
     7
100
AcDbCircle
 10
7.95
 20
558.0733588261
 30
0.0
 40
1.59999999999999
100
AcDbArc
 50
90.0
 51
180.0
  0
LINE
  5
71
330
5E
100
AcDbEntity
  8
$DDT_AUDIT_GENERATED_(6D)
  6
Continuous
 62
     7
100
AcDbLine
 10
6.35
 20
495.2733588261
 30
0.0
 11
6.35
 21
558.0733588261
 31
0.0
  0
ARC
  5
72
330
5E
100
AcDbEntity
  8
$DDT_AUDIT_GENERATED_(6D)
  6
Continuous
 62
     7
100
AcDbCircle
 10
7.95
 20
495.2733588261
 30
0.0
 40
1.600000000000004
100
AcDbArc
 50
180.0
 51
270.0
  0
LINE
  5
73
330
5E
100
AcDbEntity
  8
$DDT_AUDIT_GENERATED_(6D)
  6
Continuous
 62
     7
100
AcDbLine
 10
180.75
 20
493.6733588261
 30
0.0
 11
169.3600116503
 21
493.6733588261
 31
0.0
  0
LINE
  5
74
330
5E
100
AcDbEntity
  8
$DDT_AUDIT_GENERATED_(6D)
  6
Continuous
 62
     7
100
AcDbLine
 10
158.0507183202
 20
493.6733588261
 30
0.0
 11
138.6670165721
 21
493.6733588261
 31
0.0
  0
LINE
  5
75
330
5E
100
AcDbEntity
  8
$DDT_AUDIT_GENERATED_(6D)
  6
Continuous
 62
     7
100
AcDbLine
 10
127.3600116503
 20
493.6733588261
 30
0.0
 11
7.95
 21
493.6733588261
 31
0.0
  0
ARC
  5
76
330
5E
100
AcDbEntity
  8
$DDT_AUDIT_GENERATED_(6D)
  6
Continuous
 62
     7
100
AcDbCircle
 10
180.75
 20
495.2733588261
 30
0.0
 40
1.59999999999999
100
AcDbArc
 50
270.0
 51
0.0
  0
LINE
  5
77
330
5E
100
AcDbEntity
  8
$DDT_AUDIT_GENERATED_(6D)
  6
Continuous
 62
     7
100
AcDbLine
 10
182.35
 20
558.0733588261
 30
0.0
 11
182.35
 21
495.2733588261
 31
0.0
  0
ARC
  5
78
330
5E
100
AcDbEntity
  8
$DDT_AUDIT_GENERATED_(6D)
  6
Continuous
 62
     7
100
AcDbCircle
 10
180.75
 20
558.0733588261
 30
0.0
 40
1.600000000000004
100
AcDbArc
 50
0.0
 51
90.0
  0
LINE
  5
79
330
5E
100
AcDbEntity
  8
$DDT_AUDIT_GENERATED_(6D)
  6
Continuous
 62
     7
100
AcDbLine
 10
7.95
 20
559.6733588261
 30
0.0
 11
180.75
 21
559.6733588261
 31
0.0
  0
ARC
  5
7B
330
5E
100
AcDbEntity
  8
$DDT_AUDIT_GENERATED_(7A)
  6
Continuous
 62
     7
100
AcDbCircle
 10
148.3588674461
 20
526.6733588261
 30
0.0
 40
23.09984335770181
100
AcDbArc
 50
335.3876840277
 51
0.0
  0
ARC
  5
7C
330
5E
100
AcDbEntity
  8
$DDT_AUDIT_GENERATED_(7A)
  6
Continuous
 62
     7
100
AcDbCircle
 10
148.3588674461
 20
526.6733588261
 30
0.0
 40
23.09984335770181
100
AcDbArc
 50
0.0
 51
204.6259412135
  0
ARC
  5
7E
330
5E
100
AcDbEntity
  8
08664131_STOPFEN
  6
Continuous
 62
     7
100
AcDbCircle
 10
38.3588674461
 20
526.6733588261
 30
0.0
 40
15.0
100
AcDbArc
 50
47.1665719339
 51
132.8334280661
  0
ARC
  5
7F
330
5E
100
AcDbEntity
  8
08664131_STOPFEN
  6
Continuous
 62
     7
100
AcDbCircle
 10
38.3588674461
 20
526.6733588261
 30
0.0
 40
17.5
100
AcDbArc
 50
0.0
 51
27.6604498993
  0
ARC
  5
80
330
5E
100
AcDbEntity
  8
08664131_STOPFEN
  6
Continuous
 62
     7
100
AcDbCircle
 10
38.3588674461
 20
526.6733588261
 30
0.0
 40
17.5
100
AcDbArc
 50
38.9448035941
 51
141.0551964059
  0
ARC
  5
81
330
5E
100
AcDbEntity
  8
08664131_STOPFEN
  6
Continuous
 62
     7
100
AcDbCircle
 10
38.3588674461
 20
526.6733588261
 30
0.0
 40
17.5
100
AcDbArc
 50
152.3395501007
 51
207.6604498993
  0
ARC
  5
82
330
5E
100
AcDbEntity
  8
08664131_STOPFEN
  6
Continuous
 62
     7
100
AcDbCircle
 10
38.3588674461
 20
526.6733588261
 30
0.0
 40
17.5
100
AcDbArc
 50
218.9448035941
 51
228.591085019
  0
ARC
  5
83
330
5E
100
AcDbEntity
  8
08664131_STOPFEN
  6
Continuous
 62
     7
100
AcDbCircle
 10
38.3588674461
 20
526.6733588261
 30
0.0
 40
17.5
100
AcDbArc
 50
311.408914981
 51
321.0551964059
  0
ARC
  5
84
330
5E
100
AcDbEntity
  8
08664131_STOPFEN
  6
Continuous
 62
     7
100
AcDbCircle
 10
38.3588674461
 20
526.6733588261
 30
0.0
 40
17.5
100
AcDbArc
 50
332.3395501007
 51
0.0
  0
ELLIPSE
  5
86
330
5E
100
AcDbEntity
  8
$DDT_AUDIT_GENERATED_(85)
  6
Continuous
 62
     7
100
AcDbEllipse
 10
38.3588674461
 20
505.272249315
 30
0.0
 11
-10.075
 21
0.0
 31
0.0
210
0.0
220
0.0
230
1.0
 40
0.4226182617
 41
0.0
 42
6.283185307179586
  0
LINE
  5
87
330
5E
100
AcDbEntity
  8
$DDT_AUDIT_GENERATED_(85)
  6
Continuous
 62
     7
100
AcDbLine
 10
49.9338674461
 20
506.178557102
 30
0.0
 11
49.9338674461
 21
515.6733588261
 31
0.0
  0
LINE
  5
88
330
5E
100
AcDbEntity
  8
$DDT_AUDIT_GENERATED_(85)
  6
Continuous
 62
     7
100
AcDbLine
 10
26.7838674461
 20
515.6733588261
 30
0.0
 11
26.7838674461
 21
506.178557102
 31
0.0
  0
SPLINE
  5
89
330
5E
100
AcDbEntity
  8
$DDT_AUDIT_GENERATED_(85)
  6
Continuous
 62
     7
100
AcDbSpline
210
0.0
220
0.0
230
1.0
 70
     8
 71
     3
 72
    42
 73
    38
 74
     0
 42
0.0000000003602621
 43
0.0000000001
 40
0.0
 40
0.0
 40
0.0
 40
0.0
 40
0.0230698370994924
 40
0.0484270771443244
 40
0.0741461051077139
 40
0.1007179245749721
 40
0.1284329462631886
 40
0.1572828648183953
 40
0.1869633327761361
 40
0.2170503245098434
 40
0.2471766376239902
 40
0.2771712995636973
 40
0.3070002412413239
 40
0.3366727825702373
 40
0.3662133000771337
 40
0.3956490087561892
 40
0.4250055833287211
 40
0.4543060986141281
 40
0.4835712566108917
 40
0.512820065332691
 40
0.5420706544638715
 40
0.571335364967096
 40
0.6006326260811581
 40
0.6299825565964514
 40
0.6594076386487114
 40
0.6889335727972983
 40
0.7185898094525796
 40
0.748409028724593
 40
0.7784237455013029
 40
0.8086557947787694
 40
0.8390899351912271
 40
0.8695845438001034
 40
0.8997487441187048
 40
0.9260594307463026
 40
0.951308250930518
 40
0.9782174528760934
 40
1.0
 40
1.0
 40
1.0
 40
1.0
 10
26.78799349403698
 20
506.1524698390007
 30
0.0
 10
26.79497903884885
 20
505.9791817582326
 30
0.0
 10
26.81069225583592
 20
505.6725125263204
 30
0.0
 10
26.94761044966067
 20
505.1697484409008
 30
0.0
 10
27.16771144408649
 20
504.6822994377839
 30
0.0
 10
27.47631235749767
 20
504.2083047455761
 30
0.0
 10
27.87269798204324
 20
503.7519040434052
 30
0.0
 10
28.35938277858981
 20
503.3138840387375
 30
0.0
 10
28.93422022470554
 20
502.8992716905646
 30
0.0
 10
29.59066267220452
 20
502.5135257460411
 30
0.0
 10
30.31937685205992
 20
502.1611222453442
 30
0.0
 10
31.11104410215938
 20
501.8446683526237
 30
0.0
 10
31.95776392044363
 20
501.565411594939
 30
0.0
 10
32.85255740379272
 20
501.3240893754093
 30
0.0
 10
33.78857520265864
 20
501.1213681296834
 30
0.0
 10
34.75882786532329
 20
500.9578994450421
 30
0.0
 10
35.75608186813266
 20
500.8342882454768
 30
0.0
 10
36.77285427236779
 20
500.7510398935385
 30
0.0
 10
37.80145839943074
 20
500.7085130541544
 30
0.0
 10
38.83407466115187
 20
500.7068862183607
 30
0.0
 10
39.86276594688219
 20
500.7461369352503
 30
0.0
 10
40.87963040654588
 20
500.8260290346174
 30
0.0
 10
41.87689856542305
 20
500.9461247343818
 30
0.0
 10
42.84708432948548
 20
501.1058282314942
 30
0.0
 10
43.7830029439282
 20
501.3044331604023
 30
0.0
 10
44.67783908736239
 20
501.5411968639281
 30
0.0
 10
45.52519206472543
 20
501.8154449475331
 30
0.0
 10
46.31906857954787
 20
502.1267092448578
 30
0.0
 10
47.05376782807866
 20
502.4748797344998
 30
0.0
 10
47.72357345311084
 20
502.8603248535491
 30
0.0
 10
48.32188396262752
 20
503.2835593039985
 30
0.0
 10
48.84011090402471
 20
503.7442214016796
 30
0.0
 10
49.25353729803837
 20
504.2223342574769
 30
0.0
 10
49.56384248308733
 20
504.7086020204317
 30
0.0
 10
49.78273292457281
 20
505.202503629676
 30
0.0
 10
49.91185064802484
 20
505.7062799857539
 30
0.0
 10
49.92742584913282
 20
506.0149457222842
 30
0.0
 10
49.93386744610101
 20
506.1785571020167
 30
0.0
  0
ELLIPSE
  5
8B
330
5E
100
AcDbEntity
  8
$DDT_AUDIT_GENERATED_(8A)
  6
Continuous
 62
     7
100
AcDbEllipse
 10
38.3588674461
 20
505.0456723682
 30
0.0
 11
-9.000000000000002
 21
0.0
 31
0.0
210
0.0
220
0.0
230
1.0
 40
0.4226182617
 41
0.0
 42
6.283185307179586
  0
ELLIPSE
  5
8C
330
5E
100
AcDbEntity
  8
$DDT_AUDIT_GENERATED_(8A)
  6
Continuous
 62
     7
100
AcDbEllipse
 10
38.3588674461
 20
505.0456723682
 30
0.0
 11
5.250000000000001
 21
0.0
 31
0.0
210
0.0
220
0.0
230
1.0
 40
0.4226182617
 41
0.0
 42
6.283185307179586
  0
ELLIPSE
  5
8D
330
5E
100
AcDbEntity
  8
$DDT_AUDIT_GENERATED_(8A)
  6
Continuous
 62
     7
100
AcDbEllipse
 10
38.3588674461
 20
505.0456723682
 30
0.0
 11
-6.25
 21
-3.469446951953614E-15
 31
0.0
210
0.0
220
0.0
230
1.0
 40
0.4226182617
 41
0.0
 42
6.283185307179586
  0
ELLIPSE
  5
8E
330
5E
100
AcDbEntity
  8
$DDT_AUDIT_GENERATED_(8A)
  6
Continuous
 62
     7
100
AcDbEllipse
 10
38.3588674461
 20
505.0456723682
 30
0.0
 11
2.750000000000003
 21
0.0
 31
0.0
210
0.0
220
0.0
230
1.0
 40
0.4226182617
 41
0.0
 42
6.283185307179586
  0
ELLIPSE
  5
8F
330
5E
100
AcDbEntity
  8
$DDT_AUDIT_GENERATED_(8A)
  6
Continuous
 62
     7
100
AcDbEllipse
 10
38.3588674461
 20
505.0456723682
 30
0.0
 11
-2.150000000000001
 21
-3.469446951953614E-15
 31
0.0
210
0.0
220
0.0
230
1.0
 40
0.4226182617
 41
0.0
 42
6.283185307179586
  0
ELLIPSE
  5
90
330
5E
100
AcDbEntity
  8
$DDT_AUDIT_GENERATED_(8A)
  6
Continuous
 62
     7
100
AcDbEllipse
 10
38.3588674461
 20
505.2269339256
 30
0.0
 11
0.5196299438963558
 21
0.0
 31
0.0
210
0.0
220
0.0
230
1.0
 40
0.4226182617
 41
0.0
 42
6.283185307179586
  0
ELLIPSE
  5
91
330
5E
100
AcDbEntity
  8
$DDT_AUDIT_GENERATED_(8A)
  6
Continuous
 62
     7
100
AcDbEllipse
 10
38.3588674461
 20
505.0456723682
 30
0.0
 11
-8.699999999999999
 21
0.0
 31
0.0
210
0.0
220
0.0
230
1.0
 40
0.4226182617
 41
0.0
 42
6.283185307179586
  0
ARC
  5
92
330
5E
100
AcDbEntity
  8
$DDT_AUDIT_GENERATED_(8A)
  6
Continuous
 62
     7
100
AcDbCircle
 10
45.3402315977
 20
505.2269339256
 30
0.0
 40
1.51863575479425
100
AcDbArc
 50
358.4053207506
 51
1.5946792495
  0
ARC
  5
93
330
5E
100
AcDbEntity
  8
$DDT_AUDIT_GENERATED_(8A)
  6
Continuous
 62
     7
100
AcDbCircle
 10
43.4919215693
 20
505.2269339256
 30
0.0
 40
1.116945641478414
100
AcDbArc
 50
0.0
 51
2.1684156534
  0
ELLIPSE
  5
94
330
5E
100
AcDbEntity
  8
$DDT_AUDIT_GENERATED_(8A)
  6
Continuous
 62
     7
100
AcDbEllipse
 10
38.3588674461
 20
505.2269339256
 30
0.0
 11
8.500000000006596
 21
3.955169525227120E-13
 31
0.0
210
0.0
220
0.0
230
1.0
 40
0.4226182617
 41
0.0117649772880082
 42
0.2500344105109487
  0
LINE
  5
95
330
5E
100
AcDbEntity
  8
$DDT_AUDIT_GENERATED_(8A)
  6
Continuous
 62
     7
100
AcDbLine
 10
44.6088674461
 20
505.1846720995
 30
0.0
 11
46.8582791905
 21
505.1846720995
 31
0.0
  0
LINE
  5
96
330
5E
100
AcDbEntity
  8
$DDT_AUDIT_GENERATED_(8A)
  6
Continuous
 62
     7
100
AcDbLine
 10
44.6080673949
 20
505.2691957518
 30
0.0
 11
46.8582791905
 21
505.2691957518
 31
0.0
  0
LINE
  5
97
330
5E
100
AcDbEntity
  8
$DDT_AUDIT_GENERATED_(8A)
  6
Continuous
 62
     7
100
AcDbLine
 10
44.6080673949
 20
505.2691957518
 30
0.0
 11
44.6080673949
 21
505.8908420528
 31
0.0
  0
ELLIPSE
  5
98
330
5E
100
AcDbEntity
  8
$DDT_AUDIT_GENERATED_(8A)
  6
Continuous
 62
     7
100
AcDbEllipse
 10
38.3588674461
 20
505.4510620588
 30
0.0
 11
-0.5196299438963464
 21
0.0
 31
0.0
210
0.0
220
0.0
230
1.0
 40
0.4226182617
 41
3.141592653589793
 42
3.643514934614059
  0
LINE
  5
99
330
5E
100
AcDbEntity
  8
$DDT_AUDIT_GENERATED_(8A)
  6
Continuous
 62
     7
100
AcDbLine
 10
38.8144058952
 20
505.5567166243
 30
0.0
 11
38.8144058952
 21
505.9336721558
 31
0.0
  0
LINE
  5
9A
330
5E
100
AcDbEntity
  8
$DDT_AUDIT_GENERATED_(8A)
  6
Continuous
 62
     7
100
AcDbLine
 10
40.1365777126
 20
505.5567166243
 30
0.0
 11
38.8144058952
 21
505.5567166243
 31
0.0
  0
LINE
  5
9B
330
5E
100
AcDbEntity
  8
$DDT_AUDIT_GENERATED_(8A)
  6
Continuous
 62
     7
100
AcDbLine
 10
40.3885195147
 20
505.3454074934
 30
0.0
 11
38.87849739
 21
505.3454074934
 31
0.0
  0
LINE
  5
9C
330
5E
100
AcDbEntity
  8
$DDT_AUDIT_GENERATED_(8A)
  6
Continuous
 62
     7
100
AcDbLine
 10
37.5076659718
 20
504.6166765969
 30
0.0
 11
38.0860288695
 21
505.040036099
 31
0.0
  0
LINE
  5
9D
330
5E
100
AcDbEntity
  8
$DDT_AUDIT_GENERATED_(8A)
  6
Continuous
 62
     7
100
AcDbLine
 10
37.07465327
 20
504.7223311624
 30
0.0
 11
37.8392375022
 21
505.2820039926
 31
0.0
  0
ELLIPSE
  5
9E
330
5E
100
AcDbEntity
  8
$DDT_AUDIT_GENERATED_(8A)
  6
Continuous
 62
     7
100
AcDbEllipse
 10
38.3588674461
 20
505.4510620588
 30
0.0
 11
-2.150000000001345
 21
-5.204170427930421E-13
 31
0.0
210
0.0
220
0.0
230
1.0
 40
0.4226182617
 41
0.930654842747008
 42
1.16374025964557
  0
LINE
  5
9F
330
5E
100
AcDbEntity
  8
$DDT_AUDIT_GENERATED_(8A)
  6
Continuous
 62
     7
100
AcDbLine
 10
37.07465327
 20
505.7744032647
 30
0.0
 11
37.07465327
 21
504.7223311624
 31
0.0
  0
ELLIPSE
  5
A0
330
5E
100
AcDbEntity
  8
$DDT_AUDIT_GENERATED_(8A)
  6
Continuous
 62
     7
100
AcDbEllipse
 10
38.3588674461
 20
505.4510620588
 30
0.0
 11
-0.5196299438963571
 21
6.938893903907229E-15
 31
0.0
210
0.0
220
0.0
230
1.0
 40
0.4226182617
 41
4.734065474958681
 42
5.737910037007318
  0
LINE
  5
A1
330
5E
100
AcDbEntity
  8
$DDT_AUDIT_GENERATED_(8A)
  6
Continuous
 62
     7
100
AcDbLine
 10
37.4888697518
 20
505.8765880225
 30
0.0
 11
37.9145918706
 21
505.5649610061
 31
0.0
  0
LINE
  5
A2
330
5E
100
AcDbEntity
  8
$DDT_AUDIT_GENERATED_(8A)
  6
Continuous
 62
     7
100
AcDbLine
 10
37.9795270808
 20
505.9400469341
 30
0.0
 11
38.3476045725
 21
505.6706155715
 31
0.0
  0
LINE
  5
A3
330
5E
100
AcDbEntity
  8
$DDT_AUDIT_GENERATED_(8A)
  6
Continuous
 62
     7
100
AcDbLine
 10
38.3476045725
 20
505.6706155715
 30
0.0
 11
38.3476045725
 21
505.9542891634
 31
0.0
  0
ELLIPSE
  5
A4
330
5E
100
AcDbEntity
  8
$DDT_AUDIT_GENERATED_(8A)
  6
Continuous
 62
     7
100
AcDbEllipse
 10
38.3588679018
 20
505.226933874
 30
0.0
 11
8.499999544006018
 21
6.070028507609848E-8
 31
0.0
210
0.0
220
0.0
230
1.0
 40
0.4226182719
 41
-0.2735643753703876
 42
-0.2500344201412004
  0
ELLIPSE
  5
A5
330
5E
100
AcDbEntity
  8
$DDT_AUDIT_GENERATED_(8A)
  6
Continuous
 62
     7
100
AcDbEllipse
 10
38.3588674461
 20
505.2269339256
 30
0.0
 11
8.500000000029015
 21
-1.991462550421375E-12
 31
0.0
210
0.0
220
0.0
230
1.0
 40
0.4226182617
 41
6.033150896669058
 42
6.271420329891654
  0
LINE
  5
A6
330
5E
100
AcDbEntity
  8
$DDT_AUDIT_GENERATED_(8A)
  6
Continuous
 62
     7
100
AcDbLine
 10
46.5945506627
 20
504.3380759923
 30
0.0
 11
46.5945506627
 21
505.1846720995
 31
0.0
  0
LINE
  5
A7
330
5E
100
AcDbEntity
  8
$DDT_AUDIT_GENERATED_(8A)
  6
Continuous
 62
     7
100
AcDbLine
 10
44.4696096265
 20
504.4911994629
 30
0.0
 11
46.5427868537
 21
504.2564324136
 31
0.0
  0
LINE
  5
A8
330
5E
100
AcDbEntity
  8
$DDT_AUDIT_GENERATED_(8A)
  6
Continuous
 62
     7
100
AcDbLine
 10
44.5085380984
 20
504.5742965181
 30
0.0
 11
46.5945506627
 21
504.3380759923
 31
0.0
  0
ELLIPSE
  5
A9
330
5E
100
AcDbEntity
  8
$DDT_AUDIT_GENERATED_(8A)
  6
Continuous
 62
     7
100
AcDbEllipse
 10
38.3588678561
 20
505.2269338256
 30
0.0
 11
8.499999585799396
 21
1.054815679246701E-7
 31
0.0
210
0.0
220
0.0
230
1.0
 40
0.4226182676
 41
-0.5353637705166943
 42
-0.511833815285331
  0
ELLIPSE
  5
AA
330
5E
100
AcDbEntity
  8
$DDT_AUDIT_GENERATED_(8A)
  6
Continuous
 62
     7
100
AcDbEllipse
 10
38.3588674461
 20
505.2269339256
 30
0.0
 11
8.500000000028429
 21
-5.721118023771510E-12
 31
0.0
210
0.0
220
0.0
230
1.0
 40
0.4226182617
 41
-0.5118337983090733
 42
-0.2735643650865311
  0
LINE
  5
AB
330
5E
100
AcDbEntity
  8
$DDT_AUDIT_GENERATED_(8A)
  6
Continuous
 62
     7
100
AcDbLine
 10
45.7695739339
 20
503.4675304321
 30
0.0
 11
45.7695739339
 21
504.3439912162
 31
0.0
  0
LINE
  5
AC
330
5E
100
AcDbEntity
  8
$DDT_AUDIT_GENERATED_(8A)
  6
Continuous
 62
     7
100
AcDbLine
 10
43.9021388991
 20
503.8255827715
 30
0.0
 11
45.6695739339
 21
503.3943308019
 31
0.0
  0
LINE
  5
AD
330
5E
100
AcDbEntity
  8
$DDT_AUDIT_GENERATED_(8A)
  6
Continuous
 62
     7
100
AcDbLine
 10
43.9918257096
 20
503.9012988072
 30
0.0
 11
45.7695739339
 21
503.4675304321
 31
0.0
  0
ELLIPSE
  5
AE
330
5E
100
AcDbEntity
  8
$DDT_AUDIT_GENERATED_(8A)
  6
Continuous
 62
     7
100
AcDbEllipse
 10
38.3588677797
 20
505.2269337847
 30
0.0
 11
8.499999646215722
 21
1.213492951956940E-7
 31
0.0
210
0.0
220
0.0
230
1.0
 40
0.4226182617
 41
-0.7971631609199683
 42
-0.7736332056908797
  0
ELLIPSE
  5
AF
330
5E
100
AcDbEntity
  8
$DDT_AUDIT_GENERATED_(8A)
  6
Continuous
 62
     7
100
AcDbEllipse
 10
38.3588674461
 20
505.2269339256
 30
0.0
 11
8.500000000027457
 21
-8.555656183517613E-12
 31
0.0
210
0.0
220
0.0
230
1.0
 40
0.4226182617
 41
-0.773633186107733
 42
-0.5353637528852389
  0
LINE
  5
B0
330
5E
100
AcDbEntity
  8
$DDT_AUDIT_GENERATED_(8A)
  6
Continuous
 62
     7
100
AcDbLine
 10
44.4395698047
 20
502.7168853124
 30
0.0
 11
44.4395698047
 21
503.6944502931
 31
0.0
  0
LINE
  5
B1
330
5E
100
AcDbEntity
  8
$DDT_AUDIT_GENERATED_(8A)
  6
Continuous
 62
     7
100
AcDbLine
 10
42.9196866769
 20
503.2396811824
 30
0.0
 11
44.2981484485
 21
502.6571180647
 31
0.0
  0
LINE
  5
B2
330
5E
100
AcDbEntity
  8
$DDT_AUDIT_GENERATED_(8A)
  6
Continuous
 62
     7
100
AcDbLine
 10
43.0542366337
 20
503.3023524091
 30
0.0
 11
44.4395698047
 21
502.7168853124
 31
0.0
  0
ELLIPSE
  5
B3
330
5E
100
AcDbEntity
  8
$DDT_AUDIT_GENERATED_(8A)
  6
Continuous
 62
     7
100
AcDbEllipse
 10
38.3588676659
 20
505.2269337648
 30
0.0
 11
8.499999725364544
 21
9.791253224866736E-8
 31
0.0
210
0.0
220
0.0
230
1.0
 40
0.4226182563
 41
-1.058962544856852
 42
-1.035432589672536
  0
ELLIPSE
  5
B4
330
5E
100
AcDbEntity
  8
$DDT_AUDIT_GENERATED_(8A)
  6
Continuous
 62
     7
100
AcDbEllipse
 10
38.3588674461
 20
505.2269339256
 30
0.0
 11
8.500000000013614
 21
-4.912736883966318E-12
 31
0.0
210
0.0
220
0.0
230
1.0
 40
0.4226182617
 41
-1.035432573907542
 42
-0.797163140684849
  0
LINE
  5
B5
330
5E
100
AcDbEntity
  8
$DDT_AUDIT_GENERATED_(8A)
  6
Continuous
 62
     7
100
AcDbLine
 10
42.6951758587
 20
502.1372958576
 30
0.0
 11
42.6951758587
 21
503.1434709358
 31
0.0
  0
LINE
  5
B6
330
5E
100
AcDbEntity
  8
$DDT_AUDIT_GENERATED_(8A)
  6
Continuous
 62
     7
100
AcDbLine
 10
41.5824606505
 20
502.78275197
 30
0.0
 11
42.5219707779
 21
502.0950340315
 31
0.0
  0
LINE
  5
B7
330
5E
100
AcDbEntity
  8
$DDT_AUDIT_GENERATED_(8A)
  6
Continuous
 62
     7
100
AcDbLine
 10
41.752232058
 20
502.8275272323
 30
0.0
 11
42.6951758587
 21
502.1372958576
 31
0.0
  0
ELLIPSE
  5
B8
330
5E
100
AcDbEntity
  8
$DDT_AUDIT_GENERATED_(8A)
  6
Continuous
 62
     7
100
AcDbEllipse
 10
38.3588675726
 20
505.2269337261
 30
0.0
 11
8.49999973924395
 21
6.283911585525104E-8
 31
0.0
210
0.0
220
0.0
230
1.0
 40
0.4226182512
 41
-1.320761926929079
 42
-1.297231971676267
  0
ELLIPSE
  5
B9
330
5E
100
AcDbEntity
  8
$DDT_AUDIT_GENERATED_(8A)
  6
Continuous
 62
     7
100
AcDbEllipse
 10
38.3588674461
 20
505.2269339256
 30
0.0
 11
8.499999999980673
 21
6.203371150093062E-12
 31
0.0
210
0.0
220
0.0
230
1.0
 40
0.4226182617
 41
-1.297231961708882
 42
-1.058962528485437
  0
LINE
  5
BA
330
5E
100
AcDbEntity
  8
$DDT_AUDIT_GENERATED_(8A)
  6
Continuous
 62
     7
100
AcDbLine
 10
40.6552696603
 20
501.7682601314
 30
0.0
 11
40.6552696603
 21
502.5890626488
 31
0.0
  0
LINE
  5
BB
330
5E
100
AcDbEntity
  8
$DDT_AUDIT_GENERATED_(8A)
  6
Continuous
 62
     7
100
AcDbLine
 10
39.9871167324
 20
502.4955185464
 30
0.0
 11
40.4620844951
 21
501.7463838004
 31
0.0
  0
LINE
  5
BC
330
5E
100
AcDbEntity
  8
$DDT_AUDIT_GENERATED_(8A)
  6
Continuous
 62
     7
100
AcDbLine
 10
40.1793822446
 20
502.5188453844
 30
0.0
 11
40.6552696603
 21
501.7682601314
 31
0.0
  0
ARC
  5
BD
330
5E
100
AcDbEntity
  8
$DDT_AUDIT_GENERATED_(8A)
  6
Continuous
 62
     7
100
AcDbCircle
 10
38.3588674461
 20
521.7462488337
 30
0.0
 40
20.11157013995546
100
AcDbArc
 50
269.7151091874
 51
270.2848908126
  0
ELLIPSE
  5
BE
330
5E
100
AcDbEntity
  8
$DDT_AUDIT_GENERATED_(8A)
  6
Continuous
 62
     7
100
AcDbEllipse
 10
38.3588674461
 20
505.2269339256
 30
0.0
 11
8.500000000013115
 21
-1.831867990631508E-12
 31
0.0
210
0.0
220
0.0
230
1.0
 40
0.4226182617
 41
4.724153957673254
 42
4.962423390895863
  0
LINE
  5
BF
330
5E
100
AcDbEntity
  8
$DDT_AUDIT_GENERATED_(8A)
  6
Continuous
 62
     7
100
AcDbLine
 10
38.2588674461
 20
502.4046463486
 30
0.0
 11
38.2588674461
 21
501.6349273084
 31
0.0
  0
LINE
  5
C0
330
5E
100
AcDbEntity
  8
$DDT_AUDIT_GENERATED_(8A)
  6
Continuous
 62
     7
100
AcDbLine
 10
38.4588674461
 20
502.4046463486
 30
0.0
 11
38.4588674461
 21
501.6349273084
 31
0.0
  0
ELLIPSE
  5
C1
330
5E
100
AcDbEntity
  8
$DDT_AUDIT_GENERATED_(8A)
  6
Continuous
 62
     7
100
AcDbEllipse
 10
38.3588673196
 20
505.2269337262
 30
0.0
 11
-8.49999973934611
 21
6.287856346709475E-8
 31
0.0
210
0.0
220
0.0
230
1.0
 40
0.4226182512
 41
1.297231971687632
 42
1.320761926940046
  0
ELLIPSE
  5
C2
330
5E
100
AcDbEntity
  8
$DDT_AUDIT_GENERATED_(8A)
  6
Continuous
 62
     7
100
AcDbEllipse
 10
38.3588674461
 20
505.2269339256
 30
0.0
 11
-8.500000000017316
 21
-2.473715676742927E-12
 31
0.0
210
0.0
220
0.0
230
1.0
 40
0.4226182617
 41
1.320761916283668
 42
1.559031349506157
  0
LINE
  5
C3
330
5E
100
AcDbEntity
  8
$DDT_AUDIT_GENERATED_(8A)
  6
Continuous
 62
     7
100
AcDbLine
 10
36.0624652319
 20
501.7682601314
 30
0.0
 11
36.0624652319
 21
502.5890626488
 31
0.0
  0
LINE
  5
C4
330
5E
100
AcDbEntity
  8
$DDT_AUDIT_GENERATED_(8A)
  6
Continuous
 62
     7
100
AcDbLine
 10
36.5383526476
 20
502.5188453844
 30
0.0
 11
36.0624652319
 21
501.7682601314
 31
0.0
  0
LINE
  5
C5
330
5E
100
AcDbEntity
  8
$DDT_AUDIT_GENERATED_(8A)
  6
Continuous
 62
     7
100
AcDbLine
 10
36.7306181598
 20
502.4955185464
 30
0.0
 11
36.2556503971
 21
501.7463838004
 31
0.0
  0
ELLIPSE
  5
C6
330
5E
100
AcDbEntity
  8
$DDT_AUDIT_GENERATED_(8A)
  6
Continuous
 62
     7
100
AcDbEllipse
 10
38.3588671931
 20
505.2269337405
 30
0.0
 11
-8.499999683847781
 21
1.127234902642549E-7
 31
0.0
210
0.0
220
0.0
230
1.0
 40
0.4226182555
 41
1.035432592056669
 42
1.058962547332894
  0
ELLIPSE
  5
C7
330
5E
100
AcDbEntity
  8
$DDT_AUDIT_GENERATED_(8A)
  6
Continuous
 62
     7
100
AcDbEllipse
 10
38.3588674461
 20
505.2269339256
 30
0.0
 11
-8.500000000003057
 21
-9.436895709313831E-13
 31
0.0
210
0.0
220
0.0
230
1.0
 40
0.4226182617
 41
1.058962528484581
 42
1.297231961707475
  0
LINE
  5
C8
330
5E
100
AcDbEntity
  8
$DDT_AUDIT_GENERATED_(8A)
  6
Continuous
 62
     7
100
AcDbLine
 10
34.0225590335
 20
502.1372958576
 30
0.0
 11
34.0225590335
 21
503.1434709358
 31
0.0
  0
LINE
  5
C9
330
5E
100
AcDbEntity
  8
$DDT_AUDIT_GENERATED_(8A)
  6
Continuous
 62
     7
100
AcDbLine
 10
34.9655028342
 20
502.8275272323
 30
0.0
 11
34.0225590335
 21
502.1372958576
 31
0.0
  0
LINE
  5
CA
330
5E
100
AcDbEntity
  8
$DDT_AUDIT_GENERATED_(8A)
  6
Continuous
 62
     7
100
AcDbLine
 10
35.1352742417
 20
502.78275197
 30
0.0
 11
34.1957641143
 21
502.0950340315
 31
0.0
  0
ELLIPSE
  5
CB
330
5E
100
AcDbEntity
  8
$DDT_AUDIT_GENERATED_(8A)
  6
Continuous
 62
     7
100
AcDbEllipse
 10
38.3588671119
 20
505.2269337844
 30
0.0
 11
-8.499999645564175
 21
1.215955149069803E-7
 31
0.0
210
0.0
220
0.0
230
1.0
 40
0.4226182617
 41
0.773633205729278
 42
0.797163160959561
  0
ELLIPSE
  5
CC
330
5E
100
AcDbEntity
  8
$DDT_AUDIT_GENERATED_(8A)
  6
Continuous
 62
     7
100
AcDbEllipse
 10
38.3588674461
 20
505.2269339256
 30
0.0
 11
-8.500000000013141
 21
-4.784367346744034E-12
 31
0.0
210
0.0
220
0.0
230
1.0
 40
0.4226182617
 41
0.7971631406848969
 42
1.035432573907598
  0
LINE
  5
CD
330
5E
100
AcDbEntity
  8
$DDT_AUDIT_GENERATED_(8A)
  6
Continuous
 62
     7
100
AcDbLine
 10
32.2781650875
 20
502.7168853124
 30
0.0
 11
32.2781650875
 21
503.6944502931
 31
0.0
  0
LINE
  5
CE
330
5E
100
AcDbEntity
  8
$DDT_AUDIT_GENERATED_(8A)
  6
Continuous
 62
     7
100
AcDbLine
 10
33.6634982585
 20
503.3023524091
 30
0.0
 11
32.2781650875
 21
502.7168853124
 31
0.0
  0
LINE
  5
CF
330
5E
100
AcDbEntity
  8
$DDT_AUDIT_GENERATED_(8A)
  6
Continuous
 62
     7
100
AcDbLine
 10
33.7980482153
 20
503.2396811824
 30
0.0
 11
32.4195864437
 21
502.6571180647
 31
0.0
  0
ELLIPSE
  5
D0
330
5E
100
AcDbEntity
  8
$DDT_AUDIT_GENERATED_(8A)
  6
Continuous
 62
     7
100
AcDbEllipse
 10
38.3588669775
 20
505.2269338114
 30
0.0
 11
-8.499999526549207
 21
1.204801466925254E-7
 31
0.0
210
0.0
220
0.0
230
1.0
 40
0.4226182685
 41
0.5118338177128702
 42
0.5353637730378233
  0
ELLIPSE
  5
D1
330
5E
100
AcDbEntity
  8
$DDT_AUDIT_GENERATED_(8A)
  6
Continuous
 62
     7
100
AcDbEllipse
 10
38.3588674461
 20
505.2269339256
 30
0.0
 11
-8.500000000001396
 21
-4.857225732735060E-13
 31
0.0
210
0.0
220
0.0
230
1.0
 40
0.4226182617
 41
0.5353637528863396
 42
0.7736331861092803
  0
LINE
  5
D2
330
5E
100
AcDbEntity
  8
$DDT_AUDIT_GENERATED_(8A)
  6
Continuous
 62
     7
100
AcDbLine
 10
30.9481609583
 20
503.4675304321
 30
0.0
 11
30.9481609583
 21
504.3439912162
 31
0.0
  0
LINE
  5
D3
330
5E
100
AcDbEntity
  8
$DDT_AUDIT_GENERATED_(8A)
  6
Continuous
 62
     7
100
AcDbLine
 10
32.7259091826
 20
503.9012988072
 30
0.0
 11
30.9481609583
 21
503.4675304321
 31
0.0
  0
LINE
  5
D4
330
5E
100
AcDbEntity
  8
$DDT_AUDIT_GENERATED_(8A)
  6
Continuous
 62
     7
100
AcDbLine
 10
32.8155959931
 20
503.8255827715
 30
0.0
 11
31.0481609583
 21
503.3943308019
 31
0.0
  0
ELLIPSE
  5
D5
330
5E
100
AcDbEntity
  8
$DDT_AUDIT_GENERATED_(8A)
  6
Continuous
 62
     7
100
AcDbEllipse
 10
38.3588670556
 20
505.2269338813
 30
0.0
 11
-8.499999609312047
 21
5.209655276616765E-8
 31
0.0
210
0.0
220
0.0
230
1.0
 40
0.4226182704
 41
0.250034418765716
 42
0.2735643739014357
  0
ELLIPSE
  5
D6
330
5E
100
AcDbEntity
  8
$DDT_AUDIT_GENERATED_(8A)
  6
Continuous
 62
     7
100
AcDbEllipse
 10
38.3588674461
 20
505.2269339256
 30
0.0
 11
-8.500000000028662
 21
-5.540706782269922E-12
 31
0.0
210
0.0
220
0.0
230
1.0
 40
0.4226182617
 41
0.2735643650865286
 42
0.5118337983090683
  0
LINE
  5
D7
330
5E
100
AcDbEntity
  8
$DDT_AUDIT_GENERATED_(8A)
  6
Continuous
 62
     7
100
AcDbLine
 10
30.1231842295
 20
504.3380759923
 30
0.0
 11
30.1231842295
 21
505.1846720995
 31
0.0
  0
LINE
  5
D8
330
5E
100
AcDbEntity
  8
$DDT_AUDIT_GENERATED_(8A)
  6
Continuous
 62
     7
100
AcDbLine
 10
32.2091967938
 20
504.5742965181
 30
0.0
 11
30.1231842295
 21
504.3380759923
 31
0.0
  0
LINE
  5
D9
330
5E
100
AcDbEntity
  8
$DDT_AUDIT_GENERATED_(8A)
  6
Continuous
 62
     7
100
AcDbLine
 10
32.2481252657
 20
504.4911994629
 30
0.0
 11
30.1749480385
 21
504.2564324136
 31
0.0
  0
ARC
  5
DA
330
5E
100
AcDbEntity
  8
$DDT_AUDIT_GENERATED_(8A)
  6
Continuous
 62
     7
100
AcDbCircle
 10
31.3775032945
 20
505.2269339256
 30
0.0
 40
1.51863575479425
100
AcDbArc
 50
178.4053207505
 51
181.5946792495
  0
ELLIPSE
  5
DB
330
5E
100
AcDbEntity
  8
$DDT_AUDIT_GENERATED_(8A)
  6
Continuous
 62
     7
100
AcDbEllipse
 10
38.3588674461
 20
505.2269339256
 30
0.0
 11
-8.500000000031143
 21
-1.949829186997931E-12
 31
0.0
210
0.0
220
0.0
230
1.0
 40
0.4226182617
 41
0.0117649772880459
 42
0.2500344105105067
  0
ARC
  5
DC
330
5E
100
AcDbEntity
  8
$DDT_AUDIT_GENERATED_(8A)
  6
Continuous
 62
     7
100
AcDbCircle
 10
33.2258133229
 20
505.2269339256
 30
0.0
 40
1.11694564147869
100
AcDbArc
 50
177.8315843466
 51
180.0
  0
LINE
  5
DD
330
5E
100
AcDbEntity
  8
$DDT_AUDIT_GENERATED_(8A)
  6
Continuous
 62
     7
100
AcDbLine
 10
32.1096674973
 20
505.2691957518
 30
0.0
 11
32.1096674973
 21
505.8908420528
 31
0.0
  0
LINE
  5
DE
330
5E
100
AcDbEntity
  8
$DDT_AUDIT_GENERATED_(8A)
  6
Continuous
 62
     7
100
AcDbLine
 10
32.1096674973
 20
505.2691957518
 30
0.0
 11
29.8594557018
 21
505.2691957518
 31
0.0
  0
LINE
  5
DF
330
5E
100
AcDbEntity
  8
$DDT_AUDIT_GENERATED_(8A)
  6
Continuous
 62
     7
100
AcDbLine
 10
32.1088674461
 20
505.1846720995
 30
0.0
 11
29.8594557018
 21
505.1846720995
 31
0.0
  0
ELLIPSE
  5
E0
330
5E
100
AcDbEntity
  8
$DDT_AUDIT_GENERATED_(8A)
  6
Continuous
 62
     7
100
AcDbEllipse
 10
38.3588670563
 20
505.2269339697
 30
0.0
 11
-8.499999609968022
 21
-5.183240989192761E-8
 31
0.0
210
0.0
220
0.0
230
1.0
 40
0.4226182704
 41
-0.2735643738793563
 42
-0.2500344187447041
  0
ELLIPSE
  5
E1
330
5E
100
AcDbEntity
  8
$DDT_AUDIT_GENERATED_(8A)
  6
Continuous
 62
     7
100
AcDbEllipse
 10
38.3588674461
 20
505.2269339256
 30
0.0
 11
-8.500000000025057
 21
1.568190022283034E-12
 31
0.0
210
0.0
220
0.0
230
1.0
 40
0.4226182617
 41
6.033150896668978
 42
6.271420329891531
  0
ELLIPSE
  5
E2
330
5E
100
AcDbEntity
  8
$DDT_AUDIT_GENERATED_(8A)
  6
Continuous
 62
     7
100
AcDbEllipse
 10
38.3588674246
 20
505.2269339281
 30
0.0
 11
-6.249999978507851
 21
-2.864063153307228E-9
 31
0.0
210
0.0
220
0.0
230
1.0
 40
0.4226182624
 41
-0.2778000712114279
 42
-0.2457987056638551
  0
LINE
  5
E3
330
5E
100
AcDbEntity
  8
$DDT_AUDIT_GENERATED_(8A)
  6
Continuous
 62
     7
100
AcDbLine
 10
32.3484857264
 20
505.9513035475
 30
0.0
 11
32.3484857264
 21
506.6446599021
 31
0.0
  0
LINE
  5
E4
330
5E
100
AcDbEntity
  8
$DDT_AUDIT_GENERATED_(8A)
  6
Continuous
 62
     7
100
AcDbLine
 10
32.3484857264
 20
505.9513035475
 30
0.0
 11
30.1749480385
 21
506.1974354377
 31
0.0
  0
LINE
  5
E5
330
5E
100
AcDbEntity
  8
$DDT_AUDIT_GENERATED_(8A)
  6
Continuous
 62
     7
100
AcDbLine
 10
32.2967219174
 20
505.8696599688
 30
0.0
 11
30.1231842295
 21
506.1157918589
 31
0.0
  0
ELLIPSE
  5
E6
330
5E
100
AcDbEntity
  8
$DDT_AUDIT_GENERATED_(8A)
  6
Continuous
 62
     7
100
AcDbEllipse
 10
38.3588674461
 20
505.2269339256
 30
0.0
 11
-8.500000000048772
 21
9.690165336806444E-12
 31
0.0
210
0.0
220
0.0
230
1.0
 40
0.4226182617
 41
-0.4629216244744985
 42
-0.2735643650860267
  0
ELLIPSE
  5
E7
330
5E
100
AcDbEntity
  8
$DDT_AUDIT_GENERATED_(8A)
  6
Continuous
 62
     7
100
AcDbEllipse
 10
38.3588674963
 20
505.2269339134
 30
0.0
 11
-6.250000050766766
 21
1.292883508585696E-8
 31
0.0
210
0.0
220
0.0
230
1.0
 40
0.4226182608
 41
-0.5395994553849306
 42
-0.5075980900427988
  0
LINE
  5
E8
330
5E
100
AcDbEntity
  8
$DDT_AUDIT_GENERATED_(8A)
  6
Continuous
 62
     7
100
AcDbLine
 10
32.9969015371
 20
506.5840467505
 30
0.0
 11
32.9969015371
 21
507.4332313898
 31
0.0
  0
LINE
  5
E9
330
5E
100
AcDbEntity
  8
$DDT_AUDIT_GENERATED_(8A)
  6
Continuous
 62
     7
100
AcDbLine
 10
32.9969015371
 20
506.5840467505
 30
0.0
 11
31.0712363041
 21
507.0539066934
 31
0.0
  0
LINE
  5
EA
330
5E
100
AcDbEntity
  8
$DDT_AUDIT_GENERATED_(8A)
  6
Continuous
 62
     7
100
AcDbLine
 10
32.8969015371
 20
506.5108471204
 30
0.0
 11
30.963834213
 21
506.9825131643
 31
0.0
  0
ELLIPSE
  5
EB
330
5E
100
AcDbEntity
  8
$DDT_AUDIT_GENERATED_(8A)
  6
Continuous
 62
     7
100
AcDbEllipse
 10
38.3588674692
 20
505.2269339159
 30
0.0
 11
-6.250000024453797
 21
8.388029854033974E-9
 31
0.0
210
0.0
220
0.0
230
1.0
 40
0.4226182617
 41
-0.801398844228931
 42
-0.7693974788217455
  0
LINE
  5
EC
330
5E
100
AcDbEntity
  8
$DDT_AUDIT_GENERATED_(8A)
  6
Continuous
 62
     7
100
AcDbLine
 10
34.0107264634
 20
507.1243049573
 30
0.0
 11
34.0107264634
 21
508.2303097486
 31
0.0
  0
LINE
  5
ED
330
5E
100
AcDbEntity
  8
$DDT_AUDIT_GENERATED_(8A)
  6
Continuous
 62
     7
100
AcDbLine
 10
34.0107264634
 20
507.1243049573
 30
0.0
 11
32.4988125473
 21
507.7632673884
 31
0.0
  0
LINE
  5
EE
330
5E
100
AcDbEntity
  8
$DDT_AUDIT_GENERATED_(8A)
  6
Continuous
 62
     7
100
AcDbLine
 10
33.8693051072
 20
507.0645377095
 30
0.0
 11
32.3524579652
 21
507.705585012
 31
0.0
  0
ELLIPSE
  5
EF
330
5E
100
AcDbEntity
  8
$DDT_AUDIT_GENERATED_(8A)
  6
Continuous
 62
     7
100
AcDbEllipse
 10
38.3588674156
 20
505.2269339479
 30
0.0
 11
-6.249999961882656
 21
-1.359195395123080E-8
 31
0.0
210
0.0
220
0.0
230
1.0
 40
0.4226182607
 41
-1.063198237056535
 42
-1.031196871409823
  0
LINE
  5
F0
330
5E
100
AcDbEntity
  8
$DDT_AUDIT_GENERATED_(8A)
  6
Continuous
 62
     7
100
AcDbLine
 10
35.3208700121
 20
507.5352604638
 30
0.0
 11
35.3208700121
 21
508.4909981612
 31
0.0
  0
LINE
  5
F1
330
5E
100
AcDbEntity
  8
$DDT_AUDIT_GENERATED_(8A)
  6
Continuous
 62
     7
100
AcDbLine
 10
35.3208700121
 20
507.5352604638
 30
0.0
 11
34.2840320196
 21
508.2942220395
 31
0.0
  0
LINE
  5
F2
330
5E
100
AcDbEntity
  8
$DDT_AUDIT_GENERATED_(8A)
  6
Continuous
 62
     7
100
AcDbLine
 10
35.1476649313
 20
507.4929986376
 30
0.0
 11
34.1083610761
 21
508.2537652158
 31
0.0
  0
ELLIPSE
  5
F3
330
5E
100
AcDbEntity
  8
$DDT_AUDIT_GENERATED_(8A)
  6
Continuous
 62
     7
100
AcDbEllipse
 10
38.358867461
 20
505.2269339021
 30
0.0
 11
-6.250000030700349
 21
7.405572682861462E-9
 31
0.0
210
0.0
220
0.0
230
1.0
 40
0.4226182634
 41
-1.32499762001479
 42
-1.292996254671479
  0
LINE
  5
F4
330
5E
100
AcDbEntity
  8
$DDT_AUDIT_GENERATED_(8A)
  6
Continuous
 62
     7
100
AcDbLine
 10
36.8380480653
 20
507.7889073314
 30
0.0
 11
36.8380480653
 21
508.665838959
 31
0.0
  0
LINE
  5
F5
330
5E
100
AcDbEntity
  8
$DDT_AUDIT_GENERATED_(8A)
  6
Continuous
 62
     7
100
AcDbLine
 10
36.8380480653
 20
507.7889073314
 30
0.0
 11
36.3116220637
 21
508.6192037011
 31
0.0
  0
LINE
  5
F6
330
5E
100
AcDbEntity
  8
$DDT_AUDIT_GENERATED_(8A)
  6
Continuous
 62
     7
100
AcDbLine
 10
36.6448629001
 20
507.7670310004
 30
0.0
 11
36.1177763195
 21
508.5983692569
 31
0.0
  0
ARC
  5
F7
330
5E
100
AcDbEntity
  8
$DDT_AUDIT_GENERATED_(8A)
  6
Continuous
 62
     7
100
AcDbCircle
 10
38.3588674461
 20
493.081093133
 30
0.0
 40
14.78720494629448
100
AcDbArc
 50
89.6125284227
 51
90.3874715773
  0
LINE
  5
F8
330
5E
100
AcDbEntity
  8
$DDT_AUDIT_GENERATED_(8A)
  6
Continuous
 62
     7
100
AcDbLine
 10
38.4588674461
 20
507.8679599453
 30
0.0
 11
38.4588674461
 21
508.7222083533
 31
0.0
  0
LINE
  5
F9
330
5E
100
AcDbEntity
  8
$DDT_AUDIT_GENERATED_(8A)
  6
Continuous
 62
     7
100
AcDbLine
 10
38.2588674461
 20
507.8679599453
 30
0.0
 11
38.2588674461
 21
508.7222083533
 31
0.0
  0
ELLIPSE
  5
FA
330
5E
100
AcDbEntity
  8
$DDT_AUDIT_GENERATED_(8A)
  6
Continuous
 62
     7
100
AcDbEllipse
 10
38.358867431
 20
505.2269339019
 30
0.0
 11
6.250000031048433
 21
7.479340063953899E-9
 31
0.0
210
0.0
220
0.0
230
1.0
 40
0.4226182634
 41
1.292996254656052
 42
1.324997619997654
  0
LINE
  5
FB
330
5E
100
AcDbEntity
  8
$DDT_AUDIT_GENERATED_(8A)
  6
Continuous
 62
     7
100
AcDbLine
 10
40.0728719921
 20
507.7670310004
 30
0.0
 11
40.5999585727
 21
508.5983692569
 31
0.0
  0
LINE
  5
FC
330
5E
100
AcDbEntity
  8
$DDT_AUDIT_GENERATED_(8A)
  6
Continuous
 62
     7
100
AcDbLine
 10
39.8796868269
 20
507.7889073314
 30
0.0
 11
40.4061128285
 21
508.6192037011
 31
0.0
  0
LINE
  5
FD
330
5E
100
AcDbEntity
  8
$DDT_AUDIT_GENERATED_(8A)
  6
Continuous
 62
     7
100
AcDbLine
 10
39.8796868269
 20
507.7889073314
 30
0.0
 11
39.8796868269
 21
508.665838959
 31
0.0
  0
ELLIPSE
  5
FE
330
5E
100
AcDbEntity
  8
$DDT_AUDIT_GENERATED_(8A)
  6
Continuous
 62
     7
100
AcDbEllipse
 10
38.358867417
 20
505.2269339043
 30
0.0
 11
6.250000036409236
 21
1.297485383022767E-8
 31
0.0
210
0.0
220
0.0
230
1.0
 40
0.4226182627
 41
1.031196865630998
 42
1.063198230972466
  0
LINE
  5
FF
330
5E
100
AcDbEntity
  8
$DDT_AUDIT_GENERATED_(8A)
  6
Continuous
 62
     7
100
AcDbLine
 10
41.5700699609
 20
507.4929986376
 30
0.0
 11
42.6093738161
 21
508.2537652158
 31
0.0
  0
LINE
  5
100
330
5E
100
AcDbEntity
  8
$DDT_AUDIT_GENERATED_(8A)
  6
Continuous
 62
     7
100
AcDbLine
 10
41.3968648801
 20
507.5352604638
 30
0.0
 11
42.4337028726
 21
508.2942220395
 31
0.0
  0
LINE
  5
101
330
5E
100
AcDbEntity
  8
$DDT_AUDIT_GENERATED_(8A)
  6
Continuous
 62
     7
100
AcDbLine
 10
41.3968648801
 20
507.5352604638
 30
0.0
 11
41.3968648801
 21
508.4909981612
 31
0.0
  0
ELLIPSE
  5
102
330
5E
100
AcDbEntity
  8
$DDT_AUDIT_GENERATED_(8A)
  6
Continuous
 62
     7
100
AcDbEllipse
 10
38.3588674619
 20
505.2269339323
 30
0.0
 11
6.249999983296627
 21
-5.732730262719699E-9
 31
0.0
210
0.0
220
0.0
230
1.0
 40
0.4226182617
 41
0.7693974819026026
 42
0.8013988474502852
  0
LINE
  5
103
330
5E
100
AcDbEntity
  8
$DDT_AUDIT_GENERATED_(8A)
  6
Continuous
 62
     7
100
AcDbLine
 10
42.848429785
 20
507.0645377095
 30
0.0
 11
44.365276927
 21
507.705585012
 31
0.0
  0
LINE
  5
104
330
5E
100
AcDbEntity
  8
$DDT_AUDIT_GENERATED_(8A)
  6
Continuous
 62
     7
100
AcDbLine
 10
42.7070084288
 20
507.1243049573
 30
0.0
 11
44.2189223449
 21
507.7632673884
 31
0.0
  0
LINE
  5
105
330
5E
100
AcDbEntity
  8
$DDT_AUDIT_GENERATED_(8A)
  6
Continuous
 62
     7
100
AcDbLine
 10
42.7070084288
 20
507.1243049573
 30
0.0
 11
42.7070084288
 21
508.2303097486
 31
0.0
  0
ELLIPSE
  5
106
330
5E
100
AcDbEntity
  8
$DDT_AUDIT_GENERATED_(8A)
  6
Continuous
 62
     7
100
AcDbEllipse
 10
38.3588674185
 20
505.2269339189
 30
0.0
 11
6.25000002788096
 21
7.093825526993669E-9
 31
0.0
210
0.0
220
0.0
230
1.0
 40
0.4226182612
 41
0.5075980913102568
 42
0.5395994567193119
  0
LINE
  5
107
330
5E
100
AcDbEntity
  8
$DDT_AUDIT_GENERATED_(8A)
  6
Continuous
 62
     7
100
AcDbLine
 10
43.8208333551
 20
506.5108471204
 30
0.0
 11
45.7539006793
 21
506.9825131643
 31
0.0
  0
LINE
  5
108
330
5E
100
AcDbEntity
  8
$DDT_AUDIT_GENERATED_(8A)
  6
Continuous
 62
     7
100
AcDbLine
 10
43.7208333551
 20
506.5840467505
 30
0.0
 11
45.6464985881
 21
507.0539066934
 31
0.0
  0
LINE
  5
109
330
5E
100
AcDbEntity
  8
$DDT_AUDIT_GENERATED_(8A)
  6
Continuous
 62
     7
100
AcDbLine
 10
43.7208333551
 20
506.5840467505
 30
0.0
 11
43.7208333551
 21
507.4332313898
 31
0.0
  0
ELLIPSE
  5
10A
330
5E
100
AcDbEntity
  8
$DDT_AUDIT_GENERATED_(8A)
  6
Continuous
 62
     7
100
AcDbEllipse
 10
38.3588679679
 20
505.2269339846
 30
0.0
 11
8.49999947789142
 21
-6.939732469235516E-8
 31
0.0
210
0.0
220
0.0
230
1.0
 40
0.4226182734
 41
0.2500344215334225
 42
0.2735643768572116
  0
ELLIPSE
  5
10B
330
5E
100
AcDbEntity
  8
$DDT_AUDIT_GENERATED_(8A)
  6
Continuous
 62
     7
100
AcDbEllipse
 10
38.3588674461
 20
505.2269339256
 30
0.0
 11
8.500000000028203
 21
5.342948306008565E-12
 31
0.0
210
0.0
220
0.0
230
1.0
 40
0.4226182617
 41
0.273564365086552
 42
0.4629216244752632
  0
ELLIPSE
  5
10C
330
5E
100
AcDbEntity
  8
$DDT_AUDIT_GENERATED_(8A)
  6
Continuous
 62
     7
100
AcDbEllipse
 10
38.3588674152
 20
505.2269339221
 30
0.0
 11
6.25000003088147
 21
4.123278107837081E-9
 31
0.0
210
0.0
220
0.0
230
1.0
 40
0.4226182608
 41
0.2457987041768611
 42
0.2778000695856852
  0
LINE
  5
10D
330
5E
100
AcDbEntity
  8
$DDT_AUDIT_GENERATED_(8A)
  6
Continuous
 62
     7
100
AcDbLine
 10
44.4210129748
 20
505.8696599688
 30
0.0
 11
46.5945506627
 21
506.1157918589
 31
0.0
  0
LINE
  5
10E
330
5E
100
AcDbEntity
  8
$DDT_AUDIT_GENERATED_(8A)
  6
Continuous
 62
     7
100
AcDbLine
 10
44.3692491658
 20
505.9513035475
 30
0.0
 11
46.5427868537
 21
506.1974354377
 31
0.0
  0
LINE
  5
10F
330
5E
100
AcDbEntity
  8
$DDT_AUDIT_GENERATED_(8A)
  6
Continuous
 62
     7
100
AcDbLine
 10
44.3692491658
 20
505.9513035475
 30
0.0
 11
44.3692491658
 21
506.6446599021
 31
0.0
  0
ELLIPSE
  5
110
330
5E
100
AcDbEntity
  8
$DDT_AUDIT_GENERATED_(8A)
  6
Continuous
 62
     7
100
AcDbEllipse
 10
38.3588674461
 20
505.2269339256
 30
0.0
 11
-2.750000000000065
 21
-5.065392549852277E-13
 31
0.0
210
0.0
220
0.0
230
1.0
 40
0.4226182617
 41
3.141592653589793
 42
3.205272045846716
  0
LINE
  5
111
330
5E
100
AcDbEntity
  8
$DDT_AUDIT_GENERATED_(8A)
  6
Continuous
 62
     7
100
AcDbLine
 10
41.1032936156
 20
505.8111709591
 30
0.0
 11
41.1032936156
 21
505.3008921214
 31
0.0
  0
LINE
  5
112
330
5E
100
AcDbEntity
  8
$DDT_AUDIT_GENERATED_(8A)
  6
Continuous
 62
     7
100
AcDbLine
 10
41.1088674461
 20
505.1529757298
 30
0.0
 11
43.6027242412
 21
505.1529757298
 31
0.0
  0
LINE
  5
113
330
5E
100
AcDbEntity
  8
$DDT_AUDIT_GENERATED_(8A)
  6
Continuous
 62
     7
100
AcDbLine
 10
41.1032936156
 20
505.3008921214
 30
0.0
 11
43.5740187496
 21
505.3008921214
 31
0.0
  0
ELLIPSE
  5
114
330
5E
100
AcDbEntity
  8
$DDT_AUDIT_GENERATED_(8A)
  6
Continuous
 62
     7
100
AcDbEllipse
 10
38.3588674468
 20
505.2269339254
 30
0.0
 11
5.249999999243615
 21
1.940704541514293E-10
 31
0.0
210
0.0
220
0.0
230
1.0
 40
0.4226182618
 41
-0.556938284913576
 42
-0.490259266385479
  0
LINE
  5
115
330
5E
100
AcDbEntity
  8
$DDT_AUDIT_GENERATED_(8A)
  6
Continuous
 62
     7
100
AcDbLine
 10
40.8325731738
 20
504.5379532092
 30
0.0
 11
42.8154742065
 21
504.0541278018
 31
0.0
  0
LINE
  5
116
330
5E
100
AcDbEntity
  8
$DDT_AUDIT_GENERATED_(8A)
  6
Continuous
 62
     7
100
AcDbLine
 10
40.966166864
 20
504.6761556505
 30
0.0
 11
42.9904742065
 21
504.1822271545
 31
0.0
  0
LINE
  5
117
330
5E
100
AcDbEntity
  8
$DDT_AUDIT_GENERATED_(8A)
  6
Continuous
 62
     7
100
AcDbLine
 10
42.9904742065
 20
505.1529757298
 30
0.0
 11
42.9904742065
 21
504.1822271545
 31
0.0
  0
ELLIPSE
  5
118
330
5E
100
AcDbEntity
  8
$DDT_AUDIT_GENERATED_(8A)
  6
Continuous
 62
     7
100
AcDbEllipse
 10
38.3588674472
 20
505.2269339248
 30
0.0
 11
5.249999998656255
 21
4.777914175413400E-10
 31
0.0
210
0.0
220
0.0
230
1.0
 40
0.4226182617
 41
-1.080537060591784
 42
-1.013858042055513
  0
LINE
  5
119
330
5E
100
AcDbEntity
  8
$DDT_AUDIT_GENERATED_(8A)
  6
Continuous
 62
     7
100
AcDbLine
 10
39.7678912533
 20
504.0476173183
 30
0.0
 11
40.8308542618
 21
503.2695323275
 31
0.0
  0
LINE
  5
11A
330
5E
100
AcDbEntity
  8
$DDT_AUDIT_GENERATED_(8A)
  6
Continuous
 62
     7
100
AcDbLine
 10
40.0572834536
 20
504.1316160813
 30
0.0
 11
41.1339631531
 21
503.3434905233
 31
0.0
  0
LINE
  5
11B
330
5E
100
AcDbEntity
  8
$DDT_AUDIT_GENERATED_(8A)
  6
Continuous
 62
     7
100
AcDbLine
 10
41.1339631531
 20
504.4644144258
 30
0.0
 11
41.1339631531
 21
503.3434905233
 31
0.0
  0
ARC
  5
11C
330
5E
100
AcDbEntity
  8
$DDT_AUDIT_GENERATED_(8A)
  6
Continuous
 62
     7
100
AcDbCircle
 10
38.3588674461
 20
515.4250760028
 30
0.0
 40
12.41688823285108
100
AcDbArc
 50
269.1924632648
 51
270.8075367352
  0
LINE
  5
11D
330
5E
100
AcDbEntity
  8
$DDT_AUDIT_GENERATED_(8A)
  6
Continuous
 62
     7
100
AcDbLine
 10
38.1838674461
 20
503.885827751
 30
0.0
 11
38.1838674461
 21
503.0094210307
 31
0.0
  0
LINE
  5
11E
330
5E
100
AcDbEntity
  8
$DDT_AUDIT_GENERATED_(8A)
  6
Continuous
 62
     7
100
AcDbLine
 10
38.5338674461
 20
503.885827751
 30
0.0
 11
38.5338674461
 21
503.0094210307
 31
0.0
  0
ELLIPSE
  5
11F
330
5E
100
AcDbEntity
  8
$DDT_AUDIT_GENERATED_(8A)
  6
Continuous
 62
     7
100
AcDbEllipse
 10
38.3588674457
 20
505.2269339253
 30
0.0
 11
-5.249999999476088
 21
1.862433818278220E-10
 31
0.0
210
0.0
220
0.0
230
1.0
 40
0.4226182617
 41
1.013858041982479
 42
1.080537060510404
  0
LINE
  5
120
330
5E
100
AcDbEntity
  8
$DDT_AUDIT_GENERATED_(8A)
  6
Continuous
 62
     7
100
AcDbLine
 10
36.6604514386
 20
504.1316160813
 30
0.0
 11
35.5837717391
 21
503.3434905233
 31
0.0
  0
LINE
  5
121
330
5E
100
AcDbEntity
  8
$DDT_AUDIT_GENERATED_(8A)
  6
Continuous
 62
     7
100
AcDbLine
 10
36.9498436389
 20
504.0476173183
 30
0.0
 11
35.8868806304
 21
503.2695323275
 31
0.0
  0
LINE
  5
122
330
5E
100
AcDbEntity
  8
$DDT_AUDIT_GENERATED_(8A)
  6
Continuous
 62
     7
100
AcDbLine
 10
35.5837717391
 20
504.4644144258
 30
0.0
 11
35.5837717391
 21
503.3434905233
 31
0.0
  0
ELLIPSE
  5
123
330
5E
100
AcDbEntity
  8
$DDT_AUDIT_GENERATED_(8A)
  6
Continuous
 62
     7
100
AcDbEllipse
 10
38.3588674454
 20
505.2269339254
 30
0.0
 11
-5.249999999251172
 21
1.889668976851056E-10
 31
0.0
210
0.0
220
0.0
230
1.0
 40
0.4226182618
 41
0.4902592663848653
 42
0.5569382849128988
  0
LINE
  5
124
330
5E
100
AcDbEntity
  8
$DDT_AUDIT_GENERATED_(8A)
  6
Continuous
 62
     7
100
AcDbLine
 10
35.7515680282
 20
504.6761556505
 30
0.0
 11
33.7272606857
 21
504.1822271545
 31
0.0
  0
LINE
  5
125
330
5E
100
AcDbEntity
  8
$DDT_AUDIT_GENERATED_(8A)
  6
Continuous
 62
     7
100
AcDbLine
 10
35.8851617184
 20
504.5379532092
 30
0.0
 11
33.9022606857
 21
504.0541278018
 31
0.0
  0
LINE
  5
126
330
5E
100
AcDbEntity
  8
$DDT_AUDIT_GENERATED_(8A)
  6
Continuous
 62
     7
100
AcDbLine
 10
33.7272606857
 20
505.1529757298
 30
0.0
 11
33.7272606857
 21
504.1822271545
 31
0.0
  0
LINE
  5
127
330
5E
100
AcDbEntity
  8
$DDT_AUDIT_GENERATED_(8A)
  6
Continuous
 62
     7
100
AcDbLine
 10
35.6144412766
 20
505.8111709591
 30
0.0
 11
35.6144412766
 21
505.3008921214
 31
0.0
  0
ELLIPSE
  5
128
330
5E
100
AcDbEntity
  8
$DDT_AUDIT_GENERATED_(8A)
  6
Continuous
 62
     7
100
AcDbEllipse
 10
38.3588674461
 20
505.2269339256
 30
0.0
 11
2.749999999994885
 21
3.469446951953614E-15
 31
0.0
210
0.0
220
0.0
230
1.0
 40
0.4226182617
 41
3.077913261332691
 42
3.141592653589793
  0
LINE
  5
129
330
5E
100
AcDbEntity
  8
$DDT_AUDIT_GENERATED_(8A)
  6
Continuous
 62
     7
100
AcDbLine
 10
35.6144412766
 20
505.3008921214
 30
0.0
 11
33.1437161426
 21
505.3008921214
 31
0.0
  0
LINE
  5
12A
330
5E
100
AcDbEntity
  8
$DDT_AUDIT_GENERATED_(8A)
  6
Continuous
 62
     7
100
AcDbLine
 10
35.6088674461
 20
505.1529757298
 30
0.0
 11
33.115010651
 21
505.1529757298
 31
0.0
  0
LINE
  5
12B
330
5E
100
AcDbEntity
  8
$DDT_AUDIT_GENERATED_(8A)
  6
Continuous
 62
     7
100
AcDbLine
 10
36.0696246645
 20
506.7547347835
 30
0.0
 11
36.0696246645
 21
505.8709059106
 31
0.0
  0
ELLIPSE
  5
12C
330
5E
100
AcDbEntity
  8
$DDT_AUDIT_GENERATED_(8A)
  6
Continuous
 62
     7
100
AcDbEllipse
 10
38.3588674461
 20
505.2269339256
 30
0.0
 11
-2.749999999992609
 21
-1.880440247958859E-12
 31
0.0
210
0.0
220
0.0
230
1.0
 40
0.4226182617
 41
-0.587278167856355
 42
-0.4599193833421253
  0
LINE
  5
12D
330
5E
100
AcDbEntity
  8
$DDT_AUDIT_GENERATED_(8A)
  6
Continuous
 62
     7
100
AcDbLine
 10
36.0696246645
 20
505.8709059106
 30
0.0
 11
34.1101486809
 21
506.3490156349
 31
0.0
  0
LINE
  5
12E
330
5E
100
AcDbEntity
  8
$DDT_AUDIT_GENERATED_(8A)
  6
Continuous
 62
     7
100
AcDbLine
 10
35.8946246645
 20
505.7428065579
 30
0.0
 11
33.9136376619
 21
506.2261649443
 31
0.0
  0
LINE
  5
12F
330
5E
100
AcDbEntity
  8
$DDT_AUDIT_GENERATED_(8A)
  6
Continuous
 62
     7
100
AcDbLine
 10
37.138208807
 20
507.2036132111
 30
0.0
 11
37.138208807
 21
506.2683679265
 31
0.0
  0
ELLIPSE
  5
130
330
5E
100
AcDbEntity
  8
$DDT_AUDIT_GENERATED_(8A)
  6
Continuous
 62
     7
100
AcDbEllipse
 10
38.3588674461
 20
505.2269339256
 30
0.0
 11
-2.749999999997321
 21
-1.144917494144693E-12
 31
0.0
210
0.0
220
0.0
230
1.0
 40
0.4226182617
 41
-1.110876943454151
 42
-0.9835181589399982
  0
LINE
  5
131
330
5E
100
AcDbEntity
  8
$DDT_AUDIT_GENERATED_(8A)
  6
Continuous
 62
     7
100
AcDbLine
 10
37.138208807
 20
506.2683679265
 30
0.0
 11
36.078374071
 21
507.0441630335
 31
0.0
  0
LINE
  5
132
330
5E
100
AcDbEntity
  8
$DDT_AUDIT_GENERATED_(8A)
  6
Continuous
 62
     7
100
AcDbLine
 10
36.8350999157
 20
506.1944097307
 30
0.0
 11
35.7681068609
 21
506.9754447006
 31
0.0
  0
ARC
  5
133
330
5E
100
AcDbEntity
  8
$DDT_AUDIT_GENERATED_(8A)
  6
Continuous
 62
     7
100
AcDbCircle
 10
38.3588674461
 20
499.8929129957
 30
0.0
 40
6.496223113851267
100
AcDbArc
 50
88.4563377267
 51
91.5436622733
  0
LINE
  5
134
330
5E
100
AcDbEntity
  8
$DDT_AUDIT_GENERATED_(8A)
  6
Continuous
 62
     7
100
AcDbLine
 10
38.5338674461
 20
506.3867785429
 30
0.0
 11
38.5338674461
 21
507.2631852632
 31
0.0
  0
LINE
  5
135
330
5E
100
AcDbEntity
  8
$DDT_AUDIT_GENERATED_(8A)
  6
Continuous
 62
     7
100
AcDbLine
 10
38.1838674461
 20
506.3867785429
 30
0.0
 11
38.1838674461
 21
507.2631852632
 31
0.0
  0
ELLIPSE
  5
136
330
5E
100
AcDbEntity
  8
$DDT_AUDIT_GENERATED_(8A)
  6
Continuous
 62
     7
100
AcDbEllipse
 10
38.3588674461
 20
505.2269339256
 30
0.0
 11
2.750000000020211
 21
7.067263441129512E-12
 31
0.0
210
0.0
220
0.0
230
1.0
 40
0.4226182617
 41
0.9835181589362287
 42
1.110876943449522
  0
LINE
  5
137
330
5E
100
AcDbEntity
  8
$DDT_AUDIT_GENERATED_(8A)
  6
Continuous
 62
     7
100
AcDbLine
 10
39.5795260852
 20
507.2036132111
 30
0.0
 11
39.5795260852
 21
506.2683679265
 31
0.0
  0
LINE
  5
138
330
5E
100
AcDbEntity
  8
$DDT_AUDIT_GENERATED_(8A)
  6
Continuous
 62
     7
100
AcDbLine
 10
39.8826349765
 20
506.1944097307
 30
0.0
 11
40.9496280313
 21
506.9754447006
 31
0.0
  0
LINE
  5
139
330
5E
100
AcDbEntity
  8
$DDT_AUDIT_GENERATED_(8A)
  6
Continuous
 62
     7
100
AcDbLine
 10
39.5795260852
 20
506.2683679265
 30
0.0
 11
40.6393608212
 21
507.0441630335
 31
0.0
  0
ELLIPSE
  5
13A
330
5E
100
AcDbEntity
  8
$DDT_AUDIT_GENERATED_(8A)
  6
Continuous
 62
     7
100
AcDbEllipse
 10
38.3588674461
 20
505.2269339256
 30
0.0
 11
2.750000000013952
 21
3.476385845857521E-12
 31
0.0
210
0.0
220
0.0
230
1.0
 40
0.4226182617
 41
0.4599193833396644
 42
0.5872781678533333
  0
LINE
  5
13B
330
5E
100
AcDbEntity
  8
$DDT_AUDIT_GENERATED_(8A)
  6
Continuous
 62
     7
100
AcDbLine
 10
40.6481102277
 20
506.7547347835
 30
0.0
 11
40.6481102277
 21
505.8709059106
 31
0.0
  0
LINE
  5
13C
330
5E
100
AcDbEntity
  8
$DDT_AUDIT_GENERATED_(8A)
  6
Continuous
 62
     7
100
AcDbLine
 10
40.8231102277
 20
505.7428065579
 30
0.0
 11
42.8040972303
 21
506.2261649443
 31
0.0
  0
LINE
  5
13D
330
5E
100
AcDbEntity
  8
$DDT_AUDIT_GENERATED_(8A)
  6
Continuous
 62
     7
100
AcDbLine
 10
40.6481102277
 20
505.8709059106
 30
0.0
 11
42.6075862113
 21
506.3490156349
 31
0.0
  0
LINE
  5
13E
330
5E
100
AcDbEntity
  8
$DDT_AUDIT_GENERATED_(8A)
  6
Continuous
 62
     7
100
AcDbLine
 10
29.3588674461
 20
507.1859973811
 30
0.0
 11
29.3588674461
 21
505.0456723682
 31
0.0
  0
LINE
  5
13F
330
5E
100
AcDbEntity
  8
$DDT_AUDIT_GENERATED_(8A)
  6
Continuous
 62
     7
100
AcDbLine
 10
47.3588674461
 20
505.0456723682
 30
0.0
 11
47.3588674461
 21
507.1859973811
 31
0.0
  0
LINE
  5
140
330
5E
100
AcDbEntity
  8
$DDT_AUDIT_GENERATED_(8A)
  6
Continuous
 62
     7
100
AcDbLine
 10
32.1088674461
 20
505.2269339256
 30
0.0
 11
32.1088674461
 21
505.0456723682
 31
0.0
  0
LINE
  5
141
330
5E
100
AcDbEntity
  8
$DDT_AUDIT_GENERATED_(8A)
  6
Continuous
 62
     7
100
AcDbLine
 10
44.6088674461
 20
505.0456723682
 30
0.0
 11
44.6088674461
 21
505.2269339256
 31
0.0
  0
LINE
  5
142
330
5E
100
AcDbEntity
  8
$DDT_AUDIT_GENERATED_(8A)
  6
Continuous
 62
     7
100
AcDbLine
 10
35.6088674461
 20
505.2269339256
 30
0.0
 11
35.6088674461
 21
505.0456723682
 31
0.0
  0
LINE
  5
143
330
5E
100
AcDbEntity
  8
$DDT_AUDIT_GENERATED_(8A)
  6
Continuous
 62
     7
100
AcDbLine
 10
41.1088674461
 20
505.0456723682
 30
0.0
 11
41.1088674461
 21
505.2269339256
 31
0.0
  0
LINE
  5
144
330
5E
100
AcDbEntity
  8
$DDT_AUDIT_GENERATED_(8A)
  6
Continuous
 62
     7
100
AcDbLine
 10
37.8392375022
 20
505.6201201251
 30
0.0
 11
37.8392375022
 21
505.2269339256
 31
0.0
  0
LINE
  5
145
330
5E
100
AcDbEntity
  8
$DDT_AUDIT_GENERATED_(8A)
  6
Continuous
 62
     7
100
AcDbLine
 10
38.87849739
 20
505.2269339256
 30
0.0
 11
38.87849739
 21
505.4510620588
 31
0.0
  0
LINE
  5
147
330
5E
100
AcDbEntity
  8
$DDT_AUDIT_GENERATED_(146)
  6
Continuous
 62
     7
100
AcDbLine
 10
127.3600116503
 20
445.5574429394
 30
0.0
 11
127.3600116503
 21
524.2950339242
 31
0.0
  0
ELLIPSE
  5
148
330
5E
100
AcDbEntity
  8
$DDT_AUDIT_GENERATED_(146)
  6
Continuous
 62
     7
100
AcDbEllipse
 10
135.3600116503
 20
445.5574429394
 30
0.0
 11
8.000000000001311
 21
-4.690692279041286E-12
 31
0.0
210
0.0
220
0.0
230
1.0
 40
0.999657325
 41
3.141592653590372
 42
4.712388980385276
  0
ELLIPSE
  5
149
330
5E
100
AcDbEntity
  8
$DDT_AUDIT_GENERATED_(146)
  6
Continuous
 62
     7
100
AcDbEllipse
 10
161.3600116503
 20
445.5574429394
 30
0.0
 11
8.000000000000117
 21
-2.235711615838909E-11
 31
0.0
210
0.0
220
0.0
230
1.0
 40
0.999657325
 41
4.712388980387487
 42
6.283185307179586
  0
LINE
  5
14A
330
5E
100
AcDbEntity
  8
$DDT_AUDIT_GENERATED_(146)
  6
Continuous
 62
     7
100
AcDbLine
 10
169.3600116503
 20
524.3265868856
 30
0.0
 11
169.3600116503
 21
445.5574429394
 31
0.0
  0
ELLIPSE
  5
14B
330
5E
100
AcDbEntity
  8
$DDT_AUDIT_GENERATED_(146)
  6
Continuous
 62
     7
100
AcDbEllipse
 10
148.3588674461
 20
525.7288203154
 30
0.0
 11
21.04225370357507
 21
1.393566251978173E-10
 31
0.0
210
0.0
220
0.0
230
1.0
 40
0.999657325
 41
-0.0606540400258793
 42
3.204111872511078
  0
ARC
  5
14C
330
5E
100
AcDbEntity
  8
$DDT_AUDIT_GENERATED_(146)
  6
Continuous
 62
     7
100
AcDbCircle
 10
148.3588674461
 20
525.2205759517
 30
0.0
 40
22.95515648178678
100
AcDbArc
 50
1.2700072871
 51
178.7299927129
  0
ARC
  5
14D
330
5E
100
AcDbEntity
  8
$DDT_AUDIT_GENERATED_(146)
  6
Continuous
 62
     7
100
AcDbCircle
 10
142.6699644714
 20
457.8267102924
 30
0.0
 40
4.003132574684041
100
AcDbArc
 50
181.5908030981
 51
268.4342082739
  0
LINE
  5
14E
330
5E
100
AcDbEntity
  8
$DDT_AUDIT_GENERATED_(146)
  6
Continuous
 62
     7
100
AcDbLine
 10
138.6670165721
 20
496.7666715308
 30
0.0
 11
138.6670165721
 21
457.8222518536
 31
0.0
  0
ARC
  5
14F
330
5E
100
AcDbEntity
  8
$DDT_AUDIT_GENERATED_(146)
  6
Continuous
 62
     7
100
AcDbCircle
 10
141.5168213761
 20
495.8363786949
 30
0.0
 40
3.782484674865772
100
AcDbArc
 50
89.9999994851
 51
91.5606807932
  0
ARC
  5
150
330
5E
100
AcDbEntity
  8
$DDT_AUDIT_GENERATED_(146)
  6
Continuous
 62
     7
100
AcDbCircle
 10
141.3742834067
 20
496.9116256943
 30
0.0
 40
2.706123110297639
100
AcDbArc
 50
89.163237127
 51
180.8638534083
  0
ARC
  5
151
330
5E
100
AcDbEntity
  8
$DDT_AUDIT_GENERATED_(146)
  6
Continuous
 62
     7
100
AcDbCircle
 10
142.4051854902
 20
496.7666718001
 30
0.0
 40
3.738168918158586
100
AcDbArc
 50
178.4033857776
 51
180.0000041278
  0
LINE
  5
152
330
5E
100
AcDbEntity
  8
$DDT_AUDIT_GENERATED_(146)
  6
Continuous
 62
     7
100
AcDbLine
 10
158.0507183202
 20
457.8222518536
 30
0.0
 11
158.0507183202
 21
496.7666715308
 31
0.0
  0
ARC
  5
153
330
5E
100
AcDbEntity
  8
$DDT_AUDIT_GENERATED_(146)
  6
Continuous
 62
     7
100
AcDbCircle
 10
155.2009133345
 20
495.8379065348
 30
0.0
 40
3.780956834947063
100
AcDbArc
 50
88.4388059723
 51
89.9999977625
  0
ARC
  5
154
330
5E
100
AcDbEntity
  8
$DDT_AUDIT_GENERATED_(146)
  6
Continuous
 62
     7
100
AcDbCircle
 10
155.3431613332
 20
496.9113350424
 30
0.0
 40
2.706409269199551
100
AcDbArc
 50
359.1426356209
 51
90.8306991583
  0
ARC
  5
155
330
5E
100
AcDbEntity
  8
$DDT_AUDIT_GENERATED_(146)
  6
Continuous
 62
     7
100
AcDbCircle
 10
154.3102340513
 20
496.7666717981
 30
0.0
 40
3.740484268884599
100
AcDbArc
 50
0.0
 51
1.5958021249
  0
ARC
  5
156
330
5E
100
AcDbEntity
  8
$DDT_AUDIT_GENERATED_(146)
  6
Continuous
 62
     7
100
AcDbCircle
 10
154.0519280433
 20
457.8363401173
 30
0.0
 40
3.998790280138898
100
AcDbArc
 50
269.9826667507
 51
359.9976960517
  0
LINE
  5
157
330
5E
100
AcDbEntity
  8
$DDT_AUDIT_GENERATED_(146)
  6
Continuous
 62
     7
100
AcDbLine
 10
154.0507183202
 20
453.8376185552
 30
0.0
 11
154.0507183202
 21
453.8375500202
 31
0.0
  0
LINE
  5
158
330
5E
100
AcDbEntity
  8
$DDT_AUDIT_GENERATED_(146)
  6
Continuous
 62
     7
100
AcDbLine
 10
142.6670165721
 20
453.8376185552
 30
0.0
 11
142.6670165721
 21
453.8375500202
 31
0.0
  0
ARC
  5
159
330
5E
100
AcDbEntity
  8
$DDT_AUDIT_GENERATED_(146)
  6
Continuous
 62
     7
100
AcDbCircle
 10
150.6976531836
 20
524.6723689735
 30
0.0
 40
18.86327242987399
100
AcDbArc
 50
351.4702703337
 51
351.6981712513
  0
ARC
  5
15A
330
5E
100
AcDbEntity
  8
$DDT_AUDIT_GENERATED_(146)
  6
Continuous
 62
     7
100
AcDbCircle
 10
146.003786999
 20
524.6638477768
 30
0.0
 40
18.84549689487364
100
AcDbArc
 50
188.3209506171
 51
188.6320379841
  0
LINE
  5
15B
330
5E
100
AcDbEntity
  8
$DDT_AUDIT_GENERATED_(146)
  6
Continuous
 62
     7
100
AcDbLine
 10
135.3600116503
 20
437.5599444671
 30
0.0
 11
161.3600116503
 21
437.5599444671
 31
0.0
  0
LINE
  5
15C
330
5E
100
AcDbEntity
  8
$DDT_AUDIT_GENERATED_(146)
  6
Continuous
 62
     7
100
AcDbLine
 10
141.5168214101
 20
499.6185206947
 30
0.0
 11
155.2009134821
 21
499.6185206947
 31
0.0
  0
LINE
  5
15D
330
5E
100
AcDbEntity
  8
$DDT_AUDIT_GENERATED_(146)
  6
Continuous
 62
     7
100
AcDbLine
 10
154.0507183202
 20
453.8376185552
 30
0.0
 11
142.6670165721
 21
453.8376185552
 31
0.0
  0
LINE
  5
160
330
5E
100
AcDbEntity
  8
DV1_Default
  6
CENTER2
 62
     7
100
AcDbLine
 10
58.3588669991
 20
526.6733588261
 30
0.0
 11
18.3588678931
 21
526.6733588261
 31
0.0
  0
LINE
  5
161
330
5E
100
AcDbEntity
  8
DV1_Default
  6
CENTER2
 62
     7
100
AcDbLine
 10
38.3588674461
 20
546.673358379
 30
0.0
 11
38.3588674461
 21
506.6733592731
 31
0.0
  0
LINE
  5
162
330
5E
100
AcDbEntity
  8
DV1_Default
  6
CENTER2
 62
     7
100
AcDbLine
 10
63.3588668873
 20
526.6733588261
 30
0.0
 11
64.9588674461
 21
526.6733588261
 31
0.0
  0
LINE
  5
163
330
5E
100
AcDbEntity
  8
DV1_Default
  6
CENTER2
 62
     7
100
AcDbLine
 10
38.3588674461
 20
551.6733582673
 30
0.0
 11
38.3588674461
 21
553.2733588261
 31
0.0
  0
LINE
  5
164
330
5E
100
AcDbEntity
  8
DV1_Default
  6
CENTER2
 62
     7
100
AcDbLine
 10
13.3588680049
 20
526.6733588261
 30
0.0
 11
11.7588674461
 21
526.6733588261
 31
0.0
  0
LINE
  5
165
330
5E
100
AcDbEntity
  8
DV1_Default
  6
CENTER2
 62
     7
100
AcDbLine
 10
38.3588674461
 20
501.6733593849
 30
0.0
 11
38.3588674461
 21
500.0733588261
 31
0.0
  0
LINE
  5
166
330
5E
100
AcDbEntity
  8
DV1_Default
  6
CENTER2
 62
     7
100
AcDbLine
 10
168.3588669991
 20
526.6733588261
 30
0.0
 11
128.3588678931
 21
526.6733588261
 31
0.0
  0
LINE
  5
167
330
5E
100
AcDbEntity
  8
DV1_Default
  6
CENTER2
 62
     7
100
AcDbLine
 10
148.3588674461
 20
546.673358379
 30
0.0
 11
148.3588674461
 21
506.6733592731
 31
0.0
  0
LINE
  5
168
330
5E
100
AcDbEntity
  8
DV1_Default
  6
CENTER2
 62
     7
100
AcDbLine
 10
173.3588668873
 20
526.6733588261
 30
0.0
 11
174.9587108038
 21
526.6733588261
 31
0.0
  0
LINE
  5
169
330
5E
100
AcDbEntity
  8
DV1_Default
  6
CENTER2
 62
     7
100
AcDbLine
 10
148.3588674461
 20
551.6733582673
 30
0.0
 11
148.3588674461
 21
553.2732021838
 31
0.0
  0
LINE
  5
16A
330
5E
100
AcDbEntity
  8
DV1_Default
  6
CENTER2
 62
     7
100
AcDbLine
 10
123.3588680049
 20
526.6733588261
 30
0.0
 11
121.7590240884
 21
526.6733588261
 31
0.0
  0
LINE
  5
16B
330
5E
100
AcDbEntity
  8
DV1_Default
  6
CENTER2
 62
     7
100
AcDbLine
 10
148.3588674461
 20
501.6733593849
 30
0.0
 11
148.3588674461
 21
500.0735154684
 31
0.0
  0
ENDBLK
  5
16D
330
5E
100
AcDbEntity
  8
0
100
AcDbBlockEnd
  0
BLOCK
  5
1A9
330
16E
100
AcDbEntity
  8
0
100
AcDbBlockBegin
  2
SE1
 70
     0
 10
0.0
 20
0.0
 30
0.0
  3
SE1
  1

  0
LINE
  5
170
330
16E
100
AcDbEntity
  8
405647038_AUSLAU
  6
Continuous
 62
     7
100
AcDbLine
 10
527.1830373542
 20
515.6733588261
 30
0.0
 11
315.6830373542
 21
515.6733588261
 31
0.0
  0
LINE
  5
171
330
16E
100
AcDbEntity
  8
405647038_AUSLAU
  6
Continuous
 62
     7
100
AcDbLine
 10
315.6830373542
 20
537.6733588261
 30
0.0
 11
527.1830373542
 21
537.6733588261
 31
0.0
  0
LINE
  5
172
330
16E
100
AcDbEntity
  8
405647038_AUSLAU
  6
Continuous
 62
     7
100
AcDbLine
 10
527.1830373542
 20
537.6733588261
 30
0.0
 11
534.1830373542
 21
537.6733588261
 31
0.0
  0
LINE
  5
173
330
16E
100
AcDbEntity
  8
405647038_AUSLAU
  6
Continuous
 62
     7
100
AcDbLine
 10
534.1830373542
 20
515.6733588261
 30
0.0
 11
527.1830373542
 21
515.6733588261
 31
0.0
  0
LINE
  5
174
330
16E
100
AcDbEntity
  8
405647038_AUSLAU
  6
Continuous
 62
     7
100
AcDbLine
 10
535.1830373542
 20
536.6733588261
 30
0.0
 11
535.1830373542
 21
516.6733588261
 31
0.0
  0
ARC
  5
175
330
16E
100
AcDbEntity
  8
405647038_AUSLAU
  6
Continuous
 62
     7
100
AcDbCircle
 10
534.1830373542
 20
516.6733588261
 30
0.0
 40
1.000000000000001
100
AcDbArc
 50
270.0
 51
0.0
  0
ARC
  5
176
330
16E
100
AcDbEntity
  8
405647038_AUSLAU
  6
Continuous
 62
     7
100
AcDbCircle
 10
534.1830373542
 20
536.6733588261
 30
0.0
 40
1.000000000000001
100
AcDbArc
 50
0.0
 51
90.0
  0
ARC
  5
178
330
16E
100
AcDbEntity
  8
$DDT_AUDIT_GENERATED_(177)
  6
Continuous
 62
     7
100
AcDbCircle
 10
310.2830373543
 20
526.5163321134
 30
0.0
 40
21.6
100
AcDbArc
 50
55.922620733
 51
64.202921917
  0
LINE
  5
179
330
16E
100
AcDbEntity
  8
$DDT_AUDIT_GENERATED_(6D)
  6
Continuous
 62
     7
100
AcDbLine
 10
305.6830373542
 20
495.2733588261
 30
0.0
 11
305.6830373542
 21
558.0733588261
 31
0.0
  0
LINE
  5
17A
330
16E
100
AcDbEntity
  8
$DDT_AUDIT_GENERATED_(6D)
  6
Continuous
 62
     7
100
AcDbLine
 10
305.6830373542
 20
558.0733588261
 30
0.0
 11
305.6830373542
 21
559.6733588261
 31
0.0
  0
LINE
  5
17B
330
16E
100
AcDbEntity
  8
$DDT_AUDIT_GENERATED_(6D)
  6
Continuous
 62
     7
100
AcDbLine
 10
305.6830373542
 20
493.6733588261
 30
0.0
 11
305.6830373542
 21
495.2733588261
 31
0.0
  0
LINE
  5
17C
330
16E
100
AcDbEntity
  8
$DDT_AUDIT_GENERATED_(6D)
  6
Continuous
 62
     7
100
AcDbLine
 10
305.6830373542
 20
559.6733588261
 30
0.0
 11
314.6830373542
 21
559.6733588261
 31
0.0
  0
LINE
  5
17D
330
16E
100
AcDbEntity
  8
$DDT_AUDIT_GENERATED_(6D)
  6
Continuous
 62
     7
100
AcDbLine
 10
315.6830373542
 20
495.2733588261
 30
0.0
 11
315.6830373542
 21
494.6733588261
 31
0.0
  0
LINE
  5
17E
330
16E
100
AcDbEntity
  8
$DDT_AUDIT_GENERATED_(6D)
  6
Continuous
 62
     7
100
AcDbLine
 10
315.6830373542
 20
558.0733588261
 30
0.0
 11
315.6830373542
 21
495.2733588261
 31
0.0
  0
LINE
  5
17F
330
16E
100
AcDbEntity
  8
$DDT_AUDIT_GENERATED_(6D)
  6
Continuous
 62
     7
100
AcDbLine
 10
315.6830373542
 20
558.6733588261
 30
0.0
 11
315.6830373542
 21
558.0733588261
 31
0.0
  0
LINE
  5
180
330
16E
100
AcDbEntity
  8
$DDT_AUDIT_GENERATED_(6D)
  6
Continuous
 62
     7
100
AcDbLine
 10
314.6830373542
 20
493.6733588261
 30
0.0
 11
305.6830373542
 21
493.6733588261
 31
0.0
  0
ARC
  5
181
330
16E
100
AcDbEntity
  8
$DDT_AUDIT_GENERATED_(6D)
  6
Continuous
 62
     7
100
AcDbCircle
 10
314.6830373542
 20
494.6733588261
 30
0.0
 40
1.000000000000001
100
AcDbArc
 50
270.0
 51
0.0
  0
ARC
  5
182
330
16E
100
AcDbEntity
  8
$DDT_AUDIT_GENERATED_(6D)
  6
Continuous
 62
     7
100
AcDbCircle
 10
314.6830373542
 20
558.6733588261
 30
0.0
 40
0.9999999999999905
100
AcDbArc
 50
0.0
 51
90.0
  0
LINE
  5
183
330
16E
100
AcDbEntity
  8
08664131_STOPFEN
  6
Continuous
 62
     7
100
AcDbLine
 10
323.6830373543
 20
509.1733588261
 30
0.0
 11
323.6830373543
 21
515.6733588261
 31
0.0
  0
LINE
  5
184
330
16E
100
AcDbEntity
  8
08664131_STOPFEN
  6
Continuous
 62
     7
100
AcDbLine
 10
323.6830373543
 20
537.6733588261
 30
0.0
 11
323.6830373543
 21
544.1733588261
 31
0.0
  0
LINE
  5
185
330
16E
100
AcDbEntity
  8
08664131_STOPFEN
  6
Continuous
 62
     7
100
AcDbLine
 10
323.6830373543
 20
544.1733588261
 30
0.0
 11
315.6830373542
 21
544.1733588261
 31
0.0
  0
LINE
  5
186
330
16E
100
AcDbEntity
  8
08664131_STOPFEN
  6
Continuous
 62
     7
100
AcDbLine
 10
315.6830373542
 20
509.1733588261
 30
0.0
 11
323.6830373543
 21
509.1733588261
 31
0.0
  0
LINE
  5
188
330
16E
100
AcDbEntity
  8
64927031_SCHABL_
  6
Continuous
 62
     7
100
AcDbLine
 10
319.6830373543
 20
549.1691836822
 30
0.0
 11
319.6830373543
 21
544.1733588261
 31
0.0
  0
LINE
  5
189
330
16E
100
AcDbEntity
  8
64927031_SCHABL_
  6
Continuous
 62
     7
100
AcDbLine
 10
330.232521701
 20
544.3387374708
 30
0.0
 11
322.3857771475
 21
544.4072149731
 31
0.0
  0
LINE
  5
18A
330
16E
100
AcDbEntity
  8
64927031_SCHABL_
  6
Continuous
 62
     7
100
AcDbLine
 10
315.6830373542
 20
503.6469708935
 30
0.0
 11
317.2123376402
 21
503.6603168949
 31
0.0
  0
LINE
  5
18B
330
16E
100
AcDbEntity
  8
64927031_SCHABL_
  6
Continuous
 62
     7
100
AcDbLine
 10
319.187400622
 20
549.6691646437
 30
0.0
 11
315.6830373542
 21
549.6997467586
 31
0.0
  0
ARC
  5
18C
330
16E
100
AcDbEntity
  8
64927031_SCHABL_
  6
Continuous
 62
     7
100
AcDbCircle
 10
319.1830373543
 20
549.1691836822
 30
0.0
 40
0.5000000000000004
100
AcDbArc
 50
0.0
 51
89.5
  0
LINE
  5
18D
330
16E
100
AcDbEntity
  8
$DDT_AUDIT_GENERATED_(85)
  6
Continuous
 62
     7
100
AcDbLine
 10
510.9131031317
 20
500.8030611971
 30
0.0
 11
530.0815128275
 21
509.7414374329
 31
0.0
  0
LINE
  5
18E
330
16E
100
AcDbEntity
  8
$DDT_AUDIT_GENERATED_(85)
  6
Continuous
 62
     7
100
AcDbLine
 10
530.5652023528
 20
511.0703634817
 30
0.0
 11
528.4187903733
 21
515.6733588261
 31
0.0
  0
LINE
  5
18F
330
16E
100
AcDbEntity
  8
$DDT_AUDIT_GENERATED_(85)
  6
Continuous
 62
     7
100
AcDbLine
 10
502.8856776344
 20
515.6517291469
 30
0.0
 11
509.5841770829
 21
501.2867507224
 31
0.0
  0
ARC
  5
190
330
16E
100
AcDbEntity
  8
$DDT_AUDIT_GENERATED_(85)
  6
Continuous
 62
     7
100
AcDbCircle
 10
529.6588945658
 20
510.6477452199
 30
0.0
 40
1.000000000000014
100
AcDbArc
 50
295.0
 51
25.0
  0
ARC
  5
191
330
16E
100
AcDbEntity
  8
$DDT_AUDIT_GENERATED_(85)
  6
Continuous
 62
     7
100
AcDbCircle
 10
510.49048487
 20
501.7093689841
 30
0.0
 40
0.9999999999999772
100
AcDbArc
 50
205.0
 51
295.0
  0
ARC
  5
192
330
16E
100
AcDbEntity
  8
$DDT_AUDIT_GENERATED_(85)
  6
Continuous
 62
     7
100
AcDbCircle
 10
503.0216238024
 20
515.7151218862
 30
0.0
 40
0.1500000000000068
100
AcDbArc
 50
196.1659518768
 51
205.0
  0
LINE
  5
193
330
16E
100
AcDbEntity
  8
$DDT_AUDIT_GENERATED_(146)
  6
Continuous
 62
     7
100
AcDbLine
 10
340.6360938219
 20
445.6961807655
 30
0.0
 11
342.4244753736
 21
513.9917168587
 31
0.0
  0
LINE
  5
194
330
16E
100
AcDbEntity
  8
$DDT_AUDIT_GENERATED_(146)
  6
Continuous
 62
     7
100
AcDbLine
 10
340.4450020993
 20
438.3986822932
 30
0.0
 11
340.6360938219
 21
445.6961807655
 31
0.0
  0
ARC
  5
195
330
16E
100
AcDbEntity
  8
$DDT_AUDIT_GENERATED_(146)
  6
Continuous
 62
     7
100
AcDbCircle
 10
341.1447622268
 20
438.3803584293
 30
0.0
 40
0.7000000000000028
100
AcDbArc
 50
178.5
 51
268.5
  0
LINE
  5
196
330
16E
100
AcDbEntity
  8
$DDT_AUDIT_GENERATED_(146)
  6
Continuous
 62
     7
100
AcDbLine
 10
349.2659662047
 20
546.048410891
 30
0.0
 11
349.0466577482
 21
537.6733588261
 31
0.0
  0
LINE
  5
197
330
16E
100
AcDbEntity
  8
$DDT_AUDIT_GENERATED_(146)
  6
Continuous
 62
     7
100
AcDbLine
 10
346.6340377722
 20
445.5391190756
 30
0.0
 11
346.4429460496
 21
438.2416206033
 31
0.0
  0
LINE
  5
198
330
16E
100
AcDbEntity
  8
$DDT_AUDIT_GENERATED_(146)
  6
Continuous
 62
     7
100
AcDbLine
 10
348.4705674737
 20
515.6733588261
 30
0.0
 11
346.6340377722
 21
445.5391190756
 31
0.0
  0
LINE
  5
199
330
16E
100
AcDbEntity
  8
$DDT_AUDIT_GENERATED_(146)
  6
Continuous
 62
     7
100
AcDbLine
 10
345.7248620583
 20
437.5601843396
 30
0.0
 11
341.126438363
 21
437.6805983019
 31
0.0
  0
ARC
  5
19A
330
16E
100
AcDbEntity
  8
$DDT_AUDIT_GENERATED_(146)
  6
Continuous
 62
     7
100
AcDbCircle
 10
345.7431859221
 20
438.2599444671
 30
0.0
 40
0.6999999999999996
100
AcDbArc
 50
268.5
 51
358.5
  0
LINE
  5
19B
330
16E
100
AcDbEntity
  8
$DDT_AUDIT_GENERATED_(146)
  6
Continuous
 62
     7
100
AcDbLine
 10
325.8277789993
 20
537.6838971781
 30
0.0
 11
332.6912784384
 21
548.0535136821
 31
0.0
  0
ARC
  5
19C
330
16E
100
AcDbEntity
  8
$DDT_AUDIT_GENERATED_(146)
  6
Continuous
 62
     7
100
AcDbCircle
 10
340.1204821264
 20
502.4088645442
 30
0.0
 40
1.999999999999995
100
AcDbArc
 50
358.5
 51
92.1913859865
  0
ARC
  5
19D
330
16E
100
AcDbEntity
  8
$DDT_AUDIT_GENERATED_(146)
  6
Continuous
 62
     7
100
AcDbCircle
 10
348.5662060772
 20
546.0667347549
 30
0.0
 40
0.7000000000000028
100
AcDbArc
 50
358.5
 51
84.8086140135
  0
ARC
  5
19E
330
16E
100
AcDbEntity
  8
$DDT_AUDIT_GENERATED_(146)
  6
Continuous
 62
     7
100
AcDbCircle
 10
332.9414725647
 20
547.8879754791
 30
0.0
 40
0.299999991453571
100
AcDbArc
 50
86.437081887
 51
146.5020908111
  0
ARC
  5
19F
330
16E
100
AcDbEntity
  8
$DDT_AUDIT_GENERATED_(146)
  6
Continuous
 62
     7
100
AcDbCircle
 10
317.4502564385
 20
503.8430589137
 30
0.0
 40
0.2999999999999972
100
AcDbArc
 50
217.5273498209
 51
272.1913859865
  0
LINE
  5
1A0
330
16E
100
AcDbEntity
  8
$DDT_AUDIT_GENERATED_(146)
  6
Continuous
 62
     7
100
AcDbLine
 10
317.4617277115
 20
503.5432783107
 30
0.0
 11
340.0440069732
 21
504.4074018971
 31
0.0
  0
LINE
  5
1A1
330
16E
100
AcDbEntity
  8
$DDT_AUDIT_GENERATED_(146)
  6
Continuous
 62
     7
100
AcDbLine
 10
340.3829150464
 20
547.5131153247
 30
0.0
 11
332.9610641859
 21
548.1874316166
 31
0.0
  0
LINE
  5
1A2
330
16E
100
AcDbEntity
  8
$DDT_AUDIT_GENERATED_(146)
  6
Continuous
 62
     7
100
AcDbLine
 10
348.6295440757
 20
546.7638633642
 30
0.0
 11
346.920022887
 21
546.9191828405
 31
0.0
  0
LINE
  5
1A4
330
16E
100
AcDbEntity
  8
$DDT_AUDIT_GENERATED_(1A3)
  6
Continuous
 62
     7
100
AcDbLine
 10
340.3216450854
 20
547.5081467985
 30
0.0
 11
346.9210370534
 21
546.9307748152
 31
0.0
  0
LINE
  5
1A5
330
16E
100
AcDbEntity
  8
$DDT_AUDIT_GENERATED_(1A3)
  6
Continuous
 62
     7
100
AcDbLine
 10
346.920022887
 20
546.9191828405
 30
0.0
 11
346.9210370534
 21
546.9307748152
 31
0.0
  0
LINE
  5
1A7
330
16E
100
AcDbEntity
  8
DV2_Default
  6
CENTER2
 62
     7
100
AcDbLine
 10
325.6830369072
 20
526.6733588261
 30
0.0
 11
285.6830378012
 21
526.6733588261
 31
0.0
  0
LINE
  5
1A8
330
16E
100
AcDbEntity
  8
DV2_Default
  6
CENTER2
 62
     7
100
AcDbLine
 10
305.6830373542
 20
546.673358379
 30
0.0
 11
305.6830373542
 21
506.6733592731
 31
0.0
  0
ENDBLK
  5
1AA
330
16E
100
AcDbEntity
  8
0
100
AcDbBlockEnd
  0
BLOCK
  5
201
330
1AB
100
AcDbEntity
  8
0
100
AcDbBlockBegin
  2
SE2
 70
     0
 10
0.0
 20
0.0
 30
0.0
  3
SE2
  1

  0
LINE
  5
1AD
330
1AB
100
AcDbEntity
  8
405647038_AUSLAU
  6
Continuous
 62
     7
100
AcDbLine
 10
53.8588674461
 20
325.85
 30
0.0
 11
53.8588674461
 21
114.35
 31
0.0
  0
LINE
  5
1AE
330
1AB
100
AcDbEntity
  8
405647038_AUSLAU
  6
Continuous
 62
     7
100
AcDbLine
 10
22.8588674461
 20
114.35
 30
0.0
 11
22.8588674461
 21
325.85
 31
0.0
  0
LINE
  5
1AF
330
1AB
100
AcDbEntity
  8
405647038_AUSLAU
  6
Continuous
 62
     7
100
AcDbLine
 10
45.8588674461
 20
106.35
 30
0.0
 11
30.8588674461
 21
106.35
 31
0.0
  0
ARC
  5
1B0
330
1AB
100
AcDbEntity
  8
405647038_AUSLAU
  6
Continuous
 62
     7
100
AcDbCircle
 10
45.8588674461
 20
114.35
 30
0.0
 40
8.0
100
AcDbArc
 50
270.0
 51
0.0
  0
ARC
  5
1B1
330
1AB
100
AcDbEntity
  8
405647038_AUSLAU
  6
Continuous
 62
     7
100
AcDbCircle
 10
30.8588674461
 20
114.35
 30
0.0
 40
8.000000000000007
100
AcDbArc
 50
180.0
 51
270.0
  0
LINE
  5
1B2
330
1AB
100
AcDbEntity
  8
$DDT_AUDIT_GENERATED_(6D)
  6
Continuous
 62
     7
100
AcDbLine
 10
182.35
 20
335.85
 30
0.0
 11
182.35
 21
326.85
 31
0.0
  0
LINE
  5
1B3
330
1AB
100
AcDbEntity
  8
$DDT_AUDIT_GENERATED_(6D)
  6
Continuous
 62
     7
100
AcDbLine
 10
7.95
 20
335.85
 30
0.0
 11
180.75
 21
335.85
 31
0.0
  0
LINE
  5
1B4
330
1AB
100
AcDbEntity
  8
$DDT_AUDIT_GENERATED_(6D)
  6
Continuous
 62
     7
100
AcDbLine
 10
6.35
 20
335.85
 30
0.0
 11
7.95
 21
335.85
 31
0.0
  0
LINE
  5
1B5
330
1AB
100
AcDbEntity
  8
$DDT_AUDIT_GENERATED_(6D)
  6
Continuous
 62
     7
100
AcDbLine
 10
180.75
 20
335.85
 30
0.0
 11
182.35
 21
335.85
 31
0.0
  0
LINE
  5
1B6
330
1AB
100
AcDbEntity
  8
$DDT_AUDIT_GENERATED_(6D)
  6
Continuous
 62
     7
100
AcDbLine
 10
180.75
 20
325.85
 30
0.0
 11
7.95
 21
325.85
 31
0.0
  0
LINE
  5
1B7
330
1AB
100
AcDbEntity
  8
$DDT_AUDIT_GENERATED_(6D)
  6
Continuous
 62
     7
100
AcDbLine
 10
181.35
 20
325.85
 30
0.0
 11
180.75
 21
325.85
 31
0.0
  0
LINE
  5
1B8
330
1AB
100
AcDbEntity
  8
$DDT_AUDIT_GENERATED_(6D)
  6
Continuous
 62
     7
100
AcDbLine
 10
7.95
 20
325.85
 30
0.0
 11
7.35
 21
325.85
 31
0.0
  0
LINE
  5
1B9
330
1AB
100
AcDbEntity
  8
$DDT_AUDIT_GENERATED_(6D)
  6
Continuous
 62
     7
100
AcDbLine
 10
6.35
 20
326.85
 30
0.0
 11
6.35
 21
335.85
 31
0.0
  0
ARC
  5
1BA
330
1AB
100
AcDbEntity
  8
$DDT_AUDIT_GENERATED_(6D)
  6
Continuous
 62
     7
100
AcDbCircle
 10
181.35
 20
326.85
 30
0.0
 40
0.9999999999999905
100
AcDbArc
 50
270.0
 51
0.0
  0
ARC
  5
1BB
330
1AB
100
AcDbEntity
  8
$DDT_AUDIT_GENERATED_(6D)
  6
Continuous
 62
     7
100
AcDbCircle
 10
7.35
 20
326.85
 30
0.0
 40
1.000000000000001
100
AcDbArc
 50
180.0
 51
270.0
  0
LINE
  5
1BC
330
1AB
100
AcDbEntity
  8
64927031_SCHABL_
  6
Continuous
 62
     7
100
AcDbLine
 10
125.86304259
 20
321.8499999999
 30
0.0
 11
170.8546923022
 21
321.8499999999
 31
0.0
  0
LINE
  5
1BD
330
1AB
100
AcDbEntity
  8
64927031_SCHABL_
  6
Continuous
 62
     7
100
AcDbLine
 10
141.2263882592
 20
291.8499999999
 30
0.0
 11
141.2263882592
 21
292.3008734841
 31
0.0
  0
LINE
  5
1BE
330
1AB
100
AcDbEntity
  8
64927031_SCHABL_
  6
Continuous
 62
     7
100
AcDbLine
 10
141.2222571273
 20
291.8499999999
 30
0.0
 11
141.2222571273
 21
292.300913981
 31
0.0
  0
LINE
  5
1BF
330
1AB
100
AcDbEntity
  8
64927031_SCHABL_
  6
Continuous
 62
     7
100
AcDbLine
 10
142.8639395704
 20
291.8499999999
 30
0.0
 11
142.7589691671
 21
291.8499999999
 31
0.0
  0
LINE
  5
1C0
330
1AB
100
AcDbEntity
  8
64927031_SCHABL_
  6
Continuous
 62
     7
100
AcDbLine
 10
142.7589691671
 20
291.8499999999
 30
0.0
 11
142.6365879473
 21
291.8499999999
 31
0.0
  0
LINE
  5
1C1
330
1AB
100
AcDbEntity
  8
64927031_SCHABL_
  6
Continuous
 62
     7
100
AcDbLine
 10
142.6365879473
 20
291.8499999999
 30
0.0
 11
142.5158261333
 21
291.8499999999
 31
0.0
  0
LINE
  5
1C2
330
1AB
100
AcDbEntity
  8
64927031_SCHABL_
  6
Continuous
 62
     7
100
AcDbLine
 10
142.5158261333
 20
291.8499999999
 30
0.0
 11
142.402284079
 21
291.8499999999
 31
0.0
  0
LINE
  5
1C3
330
1AB
100
AcDbEntity
  8
64927031_SCHABL_
  6
Continuous
 62
     7
100
AcDbLine
 10
142.402284079
 20
291.8499999999
 30
0.0
 11
142.2958960851
 21
291.8499999999
 31
0.0
  0
LINE
  5
1C4
330
1AB
100
AcDbEntity
  8
64927031_SCHABL_
  6
Continuous
 62
     7
100
AcDbLine
 10
142.2958960851
 20
291.8499999999
 30
0.0
 11
142.1965964522
 21
291.8499999999
 31
0.0
  0
LINE
  5
1C5
330
1AB
100
AcDbEntity
  8
64927031_SCHABL_
  6
Continuous
 62
     7
100
AcDbLine
 10
142.1965964522
 20
291.8499999999
 30
0.0
 11
142.1043194812
 21
291.8499999999
 31
0.0
  0
LINE
  5
1C6
330
1AB
100
AcDbEntity
  8
64927031_SCHABL_
  6
Continuous
 62
     7
100
AcDbLine
 10
142.1043194812
 20
291.8499999999
 30
0.0
 11
142.0189994728
 21
291.8499999999
 31
0.0
  0
LINE
  5
1C7
330
1AB
100
AcDbEntity
  8
64927031_SCHABL_
  6
Continuous
 62
     7
100
AcDbLine
 10
142.0189994728
 20
291.8499999999
 30
0.0
 11
141.9405707277
 21
291.8499999999
 31
0.0
  0
LINE
  5
1C8
330
1AB
100
AcDbEntity
  8
64927031_SCHABL_
  6
Continuous
 62
     7
100
AcDbLine
 10
141.9405707277
 20
291.8499999999
 30
0.0
 11
141.8689675467
 21
291.8499999999
 31
0.0
  0
LINE
  5
1C9
330
1AB
100
AcDbEntity
  8
64927031_SCHABL_
  6
Continuous
 62
     7
100
AcDbLine
 10
141.8689675467
 20
291.8499999999
 30
0.0
 11
141.8041242305
 21
291.8499999999
 31
0.0
  0
LINE
  5
1CA
330
1AB
100
AcDbEntity
  8
64927031_SCHABL_
  6
Continuous
 62
     7
100
AcDbLine
 10
141.8041242305
 20
291.8499999999
 30
0.0
 11
141.7495977951
 21
291.8499999999
 31
0.0
  0
LINE
  5
1CB
330
1AB
100
AcDbEntity
  8
64927031_SCHABL_
  6
Continuous
 62
     7
100
AcDbLine
 10
141.7495977951
 20
291.8499999999
 30
0.0
 11
141.7001813196
 21
291.8499999999
 31
0.0
  0
LINE
  5
1CC
330
1AB
100
AcDbEntity
  8
64927031_SCHABL_
  6
Continuous
 62
     7
100
AcDbLine
 10
141.7001813196
 20
291.8499999999
 30
0.0
 11
141.6551674283
 21
291.8499999999
 31
0.0
  0
LINE
  5
1CD
330
1AB
100
AcDbEntity
  8
64927031_SCHABL_
  6
Continuous
 62
     7
100
AcDbLine
 10
141.6551674283
 20
291.8499999999
 30
0.0
 11
141.6138487453
 21
291.8499999999
 31
0.0
  0
LINE
  5
1CE
330
1AB
100
AcDbEntity
  8
64927031_SCHABL_
  6
Continuous
 62
     7
100
AcDbLine
 10
141.6138487453
 20
291.8499999999
 30
0.0
 11
141.5755178949
 21
291.8499999999
 31
0.0
  0
LINE
  5
1CF
330
1AB
100
AcDbEntity
  8
64927031_SCHABL_
  6
Continuous
 62
     7
100
AcDbLine
 10
141.5755178949
 20
291.8499999999
 30
0.0
 11
141.5394675011
 21
291.8499999999
 31
0.0
  0
LINE
  5
1D0
330
1AB
100
AcDbEntity
  8
64927031_SCHABL_
  6
Continuous
 62
     7
100
AcDbLine
 10
141.5394675011
 20
291.8499999999
 30
0.0
 11
141.4881203821
 21
291.8499999999
 31
0.0
  0
LINE
  5
1D1
330
1AB
100
AcDbEntity
  8
64927031_SCHABL_
  6
Continuous
 62
     7
100
AcDbLine
 10
141.4881203821
 20
291.8499999999
 30
0.0
 11
141.4379253017
 21
291.8499999999
 31
0.0
  0
LINE
  5
1D2
330
1AB
100
AcDbEntity
  8
64927031_SCHABL_
  6
Continuous
 62
     7
100
AcDbLine
 10
141.4379253017
 20
291.8499999999
 30
0.0
 11
141.4032516455
 21
291.8499999999
 31
0.0
  0
LINE
  5
1D3
330
1AB
100
AcDbEntity
  8
64927031_SCHABL_
  6
Continuous
 62
     7
100
AcDbLine
 10
141.4032516455
 20
291.8499999999
 30
0.0
 11
141.3689752287
 21
291.8499999999
 31
0.0
  0
LINE
  5
1D4
330
1AB
100
AcDbEntity
  8
64927031_SCHABL_
  6
Continuous
 62
     7
100
AcDbLine
 10
141.3689752287
 20
291.8499999999
 30
0.0
 11
141.3360733637
 21
291.8499999999
 31
0.0
  0
LINE
  5
1D5
330
1AB
100
AcDbEntity
  8
64927031_SCHABL_
  6
Continuous
 62
     7
100
AcDbLine
 10
141.3360733637
 20
291.8499999999
 30
0.0
 11
141.3055233633
 21
291.8499999999
 31
0.0
  0
LINE
  5
1D6
330
1AB
100
AcDbEntity
  8
64927031_SCHABL_
  6
Continuous
 62
     7
100
AcDbLine
 10
141.3055233633
 20
291.8499999999
 30
0.0
 11
141.2783025401
 21
291.8499999999
 31
0.0
  0
LINE
  5
1D7
330
1AB
100
AcDbEntity
  8
64927031_SCHABL_
  6
Continuous
 62
     7
100
AcDbLine
 10
141.2783025401
 20
291.8499999999
 30
0.0
 11
141.2553882066
 21
291.8499999999
 31
0.0
  0
LINE
  5
1D8
330
1AB
100
AcDbEntity
  8
64927031_SCHABL_
  6
Continuous
 62
     7
100
AcDbLine
 10
141.2553882066
 20
291.8499999999
 30
0.0
 11
141.2377576754
 21
291.8499999999
 31
0.0
  0
LINE
  5
1D9
330
1AB
100
AcDbEntity
  8
64927031_SCHABL_
  6
Continuous
 62
     7
100
AcDbLine
 10
141.2377576754
 20
291.8499999999
 30
0.0
 11
141.2263882592
 21
291.8499999999
 31
0.0
  0
LINE
  5
1DA
330
1AB
100
AcDbEntity
  8
64927031_SCHABL_
  6
Continuous
 62
     7
100
AcDbLine
 10
141.2263882592
 20
291.8499999999
 30
0.0
 11
141.2222571273
 21
291.8499999999
 31
0.0
  0
LINE
  5
1DB
330
1AB
100
AcDbEntity
  8
64927031_SCHABL_
  6
Continuous
 62
     7
100
AcDbLine
 10
153.8537953218
 20
291.8499999999
 30
0.0
 11
155.0528960324
 21
291.8499999999
 31
0.0
  0
LINE
  5
1DC
330
1AB
100
AcDbEntity
  8
64927031_SCHABL_
  6
Continuous
 62
     7
100
AcDbLine
 10
155.0528960324
 20
291.8499999999
 30
0.0
 11
155.2166602877
 21
291.8499999999
 31
0.0
  0
LINE
  5
1DD
330
1AB
100
AcDbEntity
  8
64927031_SCHABL_
  6
Continuous
 62
     7
100
AcDbLine
 10
155.2166602877
 20
291.8499999999
 30
0.0
 11
155.2166602877
 21
292.2982404435
 31
0.0
  0
LINE
  5
1DE
330
1AB
100
AcDbEntity
  8
64927031_SCHABL_
  6
Continuous
 62
     7
100
AcDbLine
 10
144.9134191789
 20
291.8499999999
 30
0.0
 11
146.7134191789
 21
291.8499999999
 31
0.0
  0
LINE
  5
1DF
330
1AB
100
AcDbEntity
  8
64927031_SCHABL_
  6
Continuous
 62
     7
100
AcDbLine
 10
146.7134191789
 20
291.8499999999
 30
0.0
 11
150.0043157133
 21
291.8499999999
 31
0.0
  0
LINE
  5
1E0
330
1AB
100
AcDbEntity
  8
64927031_SCHABL_
  6
Continuous
 62
     7
100
AcDbLine
 10
150.0043157133
 20
291.8499999999
 30
0.0
 11
151.1043157133
 21
291.8499999999
 31
0.0
  0
LINE
  5
1E1
330
1AB
100
AcDbEntity
  8
64927031_SCHABL_
  6
Continuous
 62
     7
100
AcDbLine
 10
151.1043157133
 20
291.8499999999
 30
0.0
 11
152.0515116011
 21
291.8499999999
 31
0.0
  0
LINE
  5
1E2
330
1AB
100
AcDbEntity
  8
64927031_SCHABL_
  6
Continuous
 62
     7
100
AcDbLine
 10
152.0515116011
 20
291.8499999999
 30
0.0
 11
152.1121027586
 21
291.8499999999
 31
0.0
  0
LINE
  5
1E3
330
1AB
100
AcDbEntity
  8
64927031_SCHABL_
  6
Continuous
 62
     7
100
AcDbLine
 10
143.1184913032
 20
291.8499999999
 30
0.0
 11
142.8639395704
 21
291.8499999999
 31
0.0
  0
LINE
  5
1E4
330
1AB
100
AcDbEntity
  8
64927031_SCHABL_
  6
Continuous
 62
     7
100
AcDbLine
 10
143.1184913032
 20
291.8499999999
 30
0.0
 11
143.2510983629
 21
291.8499999999
 31
0.0
  0
LINE
  5
1E5
330
1AB
100
AcDbEntity
  8
64927031_SCHABL_
  6
Continuous
 62
     7
100
AcDbLine
 10
143.2510983629
 20
291.8499999999
 30
0.0
 11
143.2914924678
 21
291.8499999999
 31
0.0
  0
LINE
  5
1E6
330
1AB
100
AcDbEntity
  8
64927031_SCHABL_
  6
Continuous
 62
     7
100
AcDbLine
 10
143.2914924678
 20
291.8499999999
 30
0.0
 11
144.9134191789
 21
291.8499999999
 31
0.0
  0
LINE
  5
1E7
330
1AB
100
AcDbEntity
  8
64927031_SCHABL_
  6
Continuous
 62
     7
100
AcDbLine
 10
152.1121027586
 20
291.8499999999
 30
0.0
 11
153.599243589
 21
291.8499999999
 31
0.0
  0
LINE
  5
1E8
330
1AB
100
AcDbEntity
  8
64927031_SCHABL_
  6
Continuous
 62
     7
100
AcDbLine
 10
153.8537953218
 20
291.8499999999
 30
0.0
 11
153.599243589
 21
291.8499999999
 31
0.0
  0
LINE
  5
1E9
330
1AB
100
AcDbEntity
  8
64927031_SCHABL_
  6
Continuous
 62
     7
100
AcDbLine
 10
125.3324795135
 20
325.85
 30
0.0
 11
125.3630616285
 21
322.3456367322
 31
0.0
  0
LINE
  5
1EA
330
1AB
100
AcDbEntity
  8
64927031_SCHABL_
  6
Continuous
 62
     7
100
AcDbLine
 10
171.3546732637
 20
322.3456367322
 30
0.0
 11
171.3852553787
 21
325.85
 31
0.0
  0
ARC
  5
1EB
330
1AB
100
AcDbEntity
  8
64927031_SCHABL_
  6
Continuous
 62
     7
100
AcDbCircle
 10
170.8546923022
 20
322.3499999999
 30
0.0
 40
0.5000000000000004
100
AcDbArc
 50
270.0
 51
359.5
  0
ARC
  5
1EC
330
1AB
100
AcDbEntity
  8
64927031_SCHABL_
  6
Continuous
 62
     7
100
AcDbCircle
 10
125.86304259
 20
322.3499999999
 30
0.0
 40
0.5000000000000018
100
AcDbArc
 50
180.5
 51
270.0
  0
ELLIPSE
  5
1ED
330
1AB
100
AcDbEntity
  8
$DDT_AUDIT_GENERATED_(146)
  6
Continuous
 62
     7
100
AcDbEllipse
 10
148.3588674461
 20
292.7996072895
 30
0.0
 11
0.0
 21
20.03675542629173
 31
0.0
210
0.0
220
0.0
230
1.0
 40
1.0
 41
1.575397428702144
 42
4.706822172226016
  0
SPLINE
  5
1EE
330
1AB
100
AcDbEntity
  8
$DDT_AUDIT_GENERATED_(146)
  6
Continuous
 62
     7
100
AcDbSpline
210
0.0
220
0.0
230
1.0
 70
     8
 71
     3
 72
    34
 73
    30
 74
     0
 42
0.0000000001657461
 43
0.0000000001
 40
0.0122326949147816
 40
0.0122326949147816
 40
0.0122326949147816
 40
0.0122326949147816
 40
0.125
 40
0.125
 40
0.1875
 40
0.1875
 40
0.2499999999999999
 40
0.2499999999999999
 40
0.3124999999999999
 40
0.3124999999999999
 40
0.3749999999999999
 40
0.3749999999999999
 40
0.4374999999999999
 40
0.4374999999999999
 40
0.4999999999999999
 40
0.4999999999999999
 40
0.5625
 40
0.5625
 40
0.625
 40
0.625
 40
0.6875
 40
0.6875
 40
0.75
 40
0.75
 40
0.8125
 40
0.8125
 40
0.875
 40
0.875
 40
0.9878124670510341
 40
0.9878124670510341
 40
0.9878124670510341
 40
0.9878124670510341
 10
171.2894327748668
 20
322.706552854221
 30
0.0
 10
171.1876898123723
 20
321.0964743120843
 30
0.0
 10
170.684387904615
 20
319.5265601235097
 30
0.0
 10
169.2565863525661
 20
317.1510636329429
 30
0.0
 10
168.616431182306
 20
316.3220257790904
 30
0.0
 10
167.1089084624824
 20
314.7592873033862
 30
0.0
 10
166.2372978307588
 20
314.0172061615935
 30
0.0
 10
164.2338143769101
 20
312.6197713999726
 30
0.0
 10
163.0916768521184
 20
311.9619982252023
 30
0.0
 10
160.621125018889
 20
310.8073853159692
 30
0.0
 10
159.2815725048394
 20
310.3013099530035
 30
0.0
 10
156.3755814454256
 20
309.4554054214138
 30
0.0
 10
154.8650725834318
 20
309.1317714157709
 30
0.0
 10
151.7264616027783
 20
308.6875396638755
 30
0.0
 10
150.074282071632
 20
308.5685467367589
 30
0.0
 10
146.8198522227789
 20
308.5605103081214
 30
0.0
 10
145.200420470159
 20
308.6670856050012
 30
0.0
 10
142.0049868345216
 20
309.1020438639842
 30
0.0
 10
140.4856072032696
 20
309.4219890400186
 30
0.0
 10
137.5899054351161
 20
310.2490309283164
 30
0.0
 10
136.2193267081988
 20
310.757802745156
 30
0.0
 10
133.7303304971267
 20
311.9061763596652
 30
0.0
 10
132.5855387251339
 20
312.557166778299
 30
0.0
 10
130.5538496601869
 20
313.9584117361582
 30
0.0
 10
129.6679033235198
 20
314.7049066879778
 30
0.0
 10
128.1337802822487
 20
316.28189831995
 30
0.0
 10
127.488468571698
 20
317.1132069999263
 30
0.0
 10
126.052384422074
 20
319.4816740539881
 30
0.0
 10
125.5332172641069
 20
321.0866081270968
 30
0.0
 10
125.4286951212829
 20
322.7064935924751
 30
0.0
  0
ELLIPSE
  5
1EF
330
1AB
100
AcDbEntity
  8
$DDT_AUDIT_GENERATED_(146)
  6
Continuous
 62
     7
100
AcDbEllipse
 10
148.3588674461
 20
325.3393086045
 30
0.0
 11
-22.34639570355672
 21
-6.505213034913027E-15
 31
0.0
210
0.0
220
0.0
230
1.0
 40
0.5519369853
 41
0.2868226984371363
 42
0.7969369600012415
  0
ELLIPSE
  5
1F0
330
1AB
100
AcDbEntity
  8
$DDT_AUDIT_GENERATED_(146)
  6
Continuous
 62
     7
100
AcDbEllipse
 10
148.3588674461
 20
325.3393086045
 30
0.0
 11
-22.34639570355672
 21
-6.505213034913027E-15
 31
0.0
210
0.0
220
0.0
230
1.0
 40
0.5519369853
 41
2.382731093049324
 42
2.854769955152659
  0
SPLINE
  5
1F1
330
1AB
100
AcDbEntity
  8
$DDT_AUDIT_GENERATED_(146)
  6
Continuous
 62
     7
100
AcDbSpline
210
0.0
220
0.0
230
1.0
 70
     8
 71
     3
 72
    14
 73
    10
 74
     0
 42
0.0000000069115541
 43
0.0000000001
 40
0.0
 40
0.0
 40
0.0
 40
0.0
 40
0.223432894948668
 40
0.5700665196677803
 40
0.687183691089868
 40
0.7832806920944867
 40
0.8614463117373772
 40
0.938967332851299
 40
1.0
 40
1.0
 40
1.0
 40
1.0
 10
168.3309097504679
 20
292.6946485652213
 30
0.0
 10
168.4159090912324
 20
292.7044028886483
 30
0.0
 10
168.6033227729904
 20
292.7283670920794
 30
0.0
 10
168.7673717243571
 20
292.7603010574298
 30
0.0
 10
168.9405628146943
 20
292.8205488289011
 30
0.0
 10
169.0687234638877
 20
292.884831553365
 30
0.0
 10
169.2195960455615
 20
293.0065703205362
 30
0.0
 10
169.3618531676072
 20
293.2067271248423
 30
0.0
 10
169.3808115122308
 20
293.3626593988109
 30
0.0
 10
169.3904710658753
 20
293.4440624391677
 30
0.0
  0
SPLINE
  5
1F2
330
1AB
100
AcDbEntity
  8
$DDT_AUDIT_GENERATED_(146)
  6
Continuous
 62
     7
100
AcDbSpline
210
0.0
220
0.0
230
1.0
 70
     8
 71
     3
 72
    14
 73
    10
 74
     0
 42
0.0000000078433803
 43
0.0000000001
 40
0.0
 40
0.0
 40
0.0
 40
0.0
 40
0.0940939319153775
 40
0.1787793520705773
 40
0.2657413122672263
 40
0.367701989746464
 40
0.5057887129623531
 40
0.7206617687127053
 40
1.0
 40
1.0
 40
1.0
 40
1.0
 10
127.3191249255593
 20
293.4349953255604
 30
0.0
 10
127.3406403384465
 20
293.3322154979817
 30
0.0
 10
127.3756032430226
 20
293.1680706857558
 30
0.0
 10
127.5235317670877
 20
292.9832603742351
 30
0.0
 10
127.6566033101915
 20
292.8817707788471
 30
0.0
 10
127.7762060580909
 20
292.8210199233739
 30
0.0
 10
127.8957648651844
 20
292.7789654878284
 30
0.0
 10
128.032311201963
 20
292.7447690436371
 30
0.0
 10
128.149482758429
 20
292.7270344034566
 30
0.0
 10
128.2266433571278
 20
292.7163962304352
 30
0.0
  0
ARC
  5
1F3
330
1AB
100
AcDbEntity
  8
$DDT_AUDIT_GENERATED_(146)
  6
Continuous
 62
     7
100
AcDbCircle
 10
143.394625916
 20
336.0617182438
 30
0.0
 40
22.20940407911645
100
AcDbArc
 50
241.4842692191
 51
250.3599437342
  0
ARC
  5
1F4
330
1AB
100
AcDbEntity
  8
$DDT_AUDIT_GENERATED_(146)
  6
Continuous
 62
     7
100
AcDbCircle
 10
153.004533741
 20
336.7956759789
 30
0.0
 40
23.00938500411493
100
AcDbArc
 50
288.1825828774
 51
300.1425415602
  0
LINE
  5
1F5
330
1AB
100
AcDbEntity
  8
$DDT_AUDIT_GENERATED_(146)
  6
Continuous
 62
     7
100
AcDbLine
 10
125.4717970603
 20
322.03866909
 30
0.0
 11
127.3166437711
 21
293.4533846994
 31
0.0
  0
LINE
  5
1F6
330
1AB
100
AcDbEntity
  8
$DDT_AUDIT_GENERATED_(146)
  6
Continuous
 62
     7
100
AcDbLine
 10
169.4010911211
 20
293.4533846994
 30
0.0
 11
171.245937832
 21
322.0386690901
 31
0.0
  0
ELLIPSE
  5
1F7
330
1AB
100
AcDbEntity
  8
$DDT_AUDIT_GENERATED_(1A3)
  6
Continuous
 62
     7
100
AcDbEllipse
 10
148.3588674461
 20
297.9492525394
 30
0.0
 11
3.349999999999964
 21
7.181755190543981E-12
 31
0.0
210
0.0
220
0.0
230
1.0
 40
0.9961946981
 41
0.0
 42
6.283185307179586
  0
LINE
  5
1F8
330
1AB
100
AcDbEntity
  8
$DDT_AUDIT_GENERATED_(1A3)
  6
Continuous
 62
     7
100
AcDbLine
 10
151.7088674461
 20
297.9492525394
 30
0.0
 11
151.7088674461
 21
297.9928304108
 31
0.0
  0
LINE
  5
1F9
330
1AB
100
AcDbEntity
  8
$DDT_AUDIT_GENERATED_(1A3)
  6
Continuous
 62
     7
100
AcDbLine
 10
145.0088674461
 20
297.9928304108
 30
0.0
 11
145.0088674461
 21
297.9492525394
 31
0.0
  0
LINE
  5
1FB
330
1AB
100
AcDbEntity
  8
DV3_Default
  6
Continuous
 62
     7
100
AcDbLine
 10
34.6758158248
 20
335.85
 30
0.0
 11
42.0419190674
 21
335.85
 31
0.0
  0
LINE
  5
1FC
330
1AB
100
AcDbEntity
  8
DV3_Default
  6
Continuous
 62
     7
100
AcDbLine
 10
143.6274379578
 20
335.85
 30
0.0
 11
153.0902969344
 21
335.85
 31
0.0
  0
LINE
  5
1FD
330
1AB
100
AcDbEntity
  8
DV3_Default
  6
CENTER2
 62
     7
100
AcDbLine
 10
58.3588669991
 20
335.85
 30
0.0
 11
18.3588678931
 21
335.85
 31
0.0
  0
LINE
  5
1FE
330
1AB
100
AcDbEntity
  8
DV3_Default
  6
CENTER2
 62
     7
100
AcDbLine
 10
38.3588674461
 20
355.849999553
 30
0.0
 11
38.3588674461
 21
315.850000447
 31
0.0
  0
LINE
  5
1FF
330
1AB
100
AcDbEntity
  8
DV3_Default
  6
CENTER2
 62
     7
100
AcDbLine
 10
168.3588669991
 20
335.85
 30
0.0
 11
128.3588678931
 21
335.85
 31
0.0
  0
LINE
  5
200
330
1AB
100
AcDbEntity
  8
DV3_Default
  6
CENTER2
 62
     7
100
AcDbLine
 10
148.3588674461
 20
355.849999553
 30
0.0
 11
148.3588674461
 21
315.850000447
 31
0.0
  0
ENDBLK
  5
202
330
1AB
100
AcDbEntity
  8
0
100
AcDbBlockEnd
  0
ENDSEC
  0
SECTION
  2
ENTITIES
  0
INSERT
  5
5F
330
1F
100
AcDbEntity
  8
Default
100
AcDbBlockReference
  2
SE
 10
0.0
 20
0.0
 30
0.0
  0
INSERT
  5
16F
330
1F
100
AcDbEntity
  8
Default
100
AcDbBlockReference
  2
SE1
 10
0.0
 20
0.0
 30
0.0
  0
INSERT
  5
1AC
330
1F
100
AcDbEntity
  8
Default
100
AcDbBlockReference
  2
SE2
 10
0.0
 20
0.0
 30
0.0
  0
TEXT
  5
204
330
1F
100
AcDbEntity
  8
Default
  6
Continuous
 62
     7
100
AcDbText
 10
5.9362635081
 20
53.4225120485
 30
0.0
 40
10.0
  1
Grohe AG^J
  7
SEACAD_seiso_ttf
 11
5.9362635081
 21
63.4225120485
 31
0.0
100
AcDbText
 73
     3
  0
TEXT
  5
205
330
1F
100
AcDbEntity
  8
Default
  6
Continuous
 62
     7
100
AcDbText
 10
5.9362635081
 20
37.0588756849
 30
0.0
 40
10.0
  1
 
  7
SEACAD_seiso_ttf
 11
5.9362635081
 21
47.0588756849
 31
0.0
100
AcDbText
 73
     3
  0
TEXT
  5
206
330
1F
100
AcDbEntity
  8
Default
  6
Continuous
 62
     7
100
AcDbText
 10
5.9362635081
 20
20.6952393213
 30
0.0
 40
10.0
  1
ecn:
  7
SEACAD_seiso_ttf
 11
5.9362635081
 21
30.6952393213
 31
0.0
100
AcDbText
 73
     3
  0
TEXT
  5
207
330
1F
100
AcDbEntity
  8
Default
  6
Continuous
 62
     7
100
AcDbText
 10
5.9362635081
 20
4.3316029576
 30
0.0
 40
10.0
  1
unit: mm
  7
SEACAD_seiso_ttf
 11
5.9362635081
 21
14.3316029576
 31
0.0
100
AcDbText
 73
     3
  0
LINE
  5
208
330
1F
100
AcDbEntity
  8
Default
  6
Continuous
 62
     7
100
AcDbLine
 10
0.0
 20
0.0
 30
0.0
 11
100.0
 21
0.0
 31
0.0
  0
LINE
  5
209
330
1F
100
AcDbEntity
  8
Default
  6
Continuous
 62
     7
100
AcDbLine
 10
0.0
 20
0.0
 30
0.0
 11
0.0
 21
100.0
 31
0.0
  0
TEXT
  5
20A
330
1F
100
AcDbEntity
  8
Default
  6
Continuous
 62
     7
100
AcDbText
 10
24.3923665681
 20
-18.2375342018
 30
0.0
 40
10.0
  1
100 mm
  7
SEACAD_seiso_ttf
 11
24.3923665681
 21
-8.2375342018
 31
0.0
100
AcDbText
 73
     3
  0
TEXT
  5
20B
330
1F
100
AcDbEntity
  8
Default
  6
Continuous
 62
     7
100
AcDbText
 10
-7.6150308803
 20
24.6231930421
 30
0.0
 40
10.0
  1
100 mm
 50
90.0
  7
SEACAD_seiso_ttf
 11
-17.6150308803
 21
24.6231930421
 31
0.0
100
AcDbText
 73
     3
  0
TEXT
  5
20C
330
1F
100
AcDbEntity
  8
Default
  6
Continuous
 62
     7
100
AcDbText
 10
28.4878128572
 20
20.0907663715
 30
0.0
 40
10.0
  1
229897
  7
SEACAD_seiso_ttf
 11
28.4878128572
 21
30.0907663715
 31
0.0
100
AcDbText
 73
     3
  0
TEXT
  5
20D
330
1F
100
AcDbEntity
  8
Default
  6
Continuous
 62
     7
100
AcDbText
 10
5.9012241913
 20
36.7242780188
 30
0.0
 40
10.0
  1
23442000
  7
SEACAD_seiso_ttf
 11
5.9012241913
 21
46.7242780188
 31
0.0
100
AcDbText
 73
     3
  0
ENDSEC
  0
SECTION
  2
OBJECTS
  0
DICTIONARY
  5
C
330
0
100
AcDbDictionary
281
     1
  3
ACAD_GROUP
350
D
  3
ACAD_LAYOUT
350
1A
  3
ACAD_MLEADERSTYLE
350
211
  3
ACAD_MLINESTYLE
350
17
  3
ACAD_PLOTSETTINGS
350
19
  3
ACAD_PLOTSTYLENAME
350
E
  3
ACAD_SCALELIST
350
3B
  3
ACAD_TABLESTYLE
350
210
  3
ACAD_VISUALSTYLE
350
2A
  3
AcDbVariableDictionary
350
20E
  0
DICTIONARY
  5
D
102
{ACAD_REACTORS
330
C
102
}
330
C
100
AcDbDictionary
281
     1
  0
DICTIONARY
  5
1A
102
{ACAD_REACTORS
330
C
102
}
330
C
100
AcDbDictionary
281
     1
  3
Layout1
350
1E
  3
Model
350
22
  0
DICTIONARY
  5
211
102
{ACAD_REACTORS
330
C
102
}
330
C
100
AcDbDictionary
281
     1
  0
DICTIONARY
  5
17
102
{ACAD_REACTORS
330
C
102
}
330
C
100
AcDbDictionary
281
     1
  3
Standard
350
18
  0
DICTIONARY
  5
19
102
{ACAD_REACTORS
330
C
102
}
330
C
100
AcDbDictionary
281
     1
  0
ACDBDICTIONARYWDFLT
  5
E
102
{ACAD_REACTORS
330
C
102
}
330
C
100
AcDbDictionary
281
     1
  3
Normal
350
F
100
AcDbDictionaryWithDefault
340
F
  0
DICTIONARY
  5
3B
102
{ACAD_REACTORS
330
C
102
}
330
C
100
AcDbDictionary
281
     1
  3
A0
350
3C
  3
A1
350
3D
  3
A2
350
3E
  3
A3
350
3F
  3
A4
350
40
  3
A5
350
41
  3
A6
350
42
  3
A7
350
43
  3
A8
350
44
  3
A9
350
45
  3
B0
350
46
  3
B1
350
47
  3
B2
350
48
  3
B3
350
49
  3
B4
350
4A
  3
B5
350
4B
  3
B6
350
4C
  3
B7
350
4D
  3
B8
350
4E
  3
B9
350
4F
  3
C0
350
50
  3
C1
350
51
  3
C2
350
52
  3
C3
350
53
  3
C4
350
54
  3
C5
350
55
  3
C6
350
56
  3
C7
350
57
  3
C8
350
58
  3
C9
350
59
  3
D0
350
5A
  3
D1
350
5B
  3
D2
350
5C
  0
DICTIONARY
  5
210
102
{ACAD_REACTORS
330
C
102
}
330
C
100
AcDbDictionary
281
     1
  0
DICTIONARY
  5
2A
102
{ACAD_REACTORS
330
C
102
}
330
C
100
AcDbDictionary
281
     1
  3
2dWireframe
350
2F
  3
3D Hidden
350
31
  3
3dWireframe
350
30
  3
Basic
350
32
  3
Brighten
350
36
  3
ColorChange
350
3A
  3
Conceptual
350
34
  3
Dim
350
35
  3
Facepattern
350
39
  3
Flat
350
2B
  3
FlatWithEdges
350
2C
  3
Gouraud
350
2D
  3
GouraudWithEdges
350
2E
  3
Linepattern
350
38
  3
Realistic
350
33
  3
Thicken
350
37
  0
DICTIONARY
  5
20E
102
{ACAD_REACTORS
330
C
102
}
330
C
100
AcDbDictionary
281
     1
  3
CANNOSCALE
350
20F
  3
PSOLHEIGHT
350
213
  3
PSOLWIDTH
350
212
  0
LAYOUT
  5
1E
102
{ACAD_REACTORS
330
1A
102
}
330
1A
100
AcDbPlotSettings
  1

  2
none_device
  4

  6

 40
0.0
 41
0.0
 42
0.0
 43
0.0
 44
0.0
 45
0.0
 46
0.0
 47
0.0
 48
0.0
 49
0.0
140
0.0
141
0.0
142
1.0
143
1.0
 70
   688
 72
     0
 73
     0
 74
     5
  7

 75
    16
147
1.0
148
0.0
149
0.0
100
AcDbLayout
  1
Layout1
 70
     1
 71
     1
 10
0.0
 20
0.0
 11
3000.0
 21
4500.0
 12
0.0
 22
0.0
 32
0.0
 14
0.0
 24
0.0
 34
0.0
 15
3000.0
 25
4500.0
 35
0.0
146
0.0
 13
0.0
 23
0.0
 33
0.0
 16
1.0
 26
0.0
 36
0.0
 17
0.0
 27
1.0
 37
0.0
 76
     0
330
1B
  0
LAYOUT
  5
22
102
{ACAD_REACTORS
330
1A
102
}
330
1A
100
AcDbPlotSettings
  1

  2
none_device
  4

  6

 40
0.0
 41
0.0
 42
0.0
 43
0.0
 44
0.0
 45
0.0
 46
0.0
 47
0.0
 48
0.0
 49
0.0
140
0.0
141
0.0
142
1.0
143
1.0
 70
  1712
 72
     0
 73
     0
 74
     0
  7

 75
     0
147
1.0
148
0.0
149
0.0
100
AcDbLayout
  1
Model
 70
     1
 71
     0
 10
0.0
 20
0.0
 11
3000.0
 21
4500.0
 12
0.0
 22
0.0
 32
0.0
 14
0.0
 24
0.0
 34
0.0
 15
3000.0
 25
4500.0
 35
0.0
146
0.0
 13
0.0
 23
0.0
 33
0.0
 16
1.0
 26
0.0
 36
0.0
 17
0.0
 27
1.0
 37
0.0
 76
     0
330
1F
331
29
  0
MLINESTYLE
  5
18
102
{ACAD_REACTORS
330
17
102
}
330
17
100
AcDbMlineStyle
  2
Standard
 70
     0
  3

 62
   256
 51
90.0
 52
90.0
 71
     2
 49
0.5
 62
   256
  6
BYLAYER
 49
-0.5
 62
   256
  6
BYLAYER
  0
ACDBPLACEHOLDER
  5
F
102
{ACAD_REACTORS
330
E
102
}
330
E
  0
SCALE
  5
3C
102
{ACAD_REACTORS
330
3B
102
}
330
3B
100
AcDbScale
 70
     0
300
1:1
140
1.0
141
1.0
290
     1
  0
SCALE
  5
3D
102
{ACAD_REACTORS
330
3B
102
}
330
3B
100
AcDbScale
 70
     0
300
1:2
140
1.0
141
2.0
290
     0
  0
SCALE
  5
3E
102
{ACAD_REACTORS
330
3B
102
}
330
3B
100
AcDbScale
 70
     0
300
1:4
140
1.0
141
4.0
290
     0
  0
SCALE
  5
3F
102
{ACAD_REACTORS
330
3B
102
}
330
3B
100
AcDbScale
 70
     0
300
1:5
140
1.0
141
5.0
290
     0
  0
SCALE
  5
40
102
{ACAD_REACTORS
330
3B
102
}
330
3B
100
AcDbScale
 70
     0
300
1:8
140
1.0
141
8.0
290
     0
  0
SCALE
  5
41
102
{ACAD_REACTORS
330
3B
102
}
330
3B
100
AcDbScale
 70
     0
300
1:10
140
1.0
141
10.0
290
     0
  0
SCALE
  5
42
102
{ACAD_REACTORS
330
3B
102
}
330
3B
100
AcDbScale
 70
     0
300
1:16
140
1.0
141
16.0
290
     0
  0
SCALE
  5
43
102
{ACAD_REACTORS
330
3B
102
}
330
3B
100
AcDbScale
 70
     0
300
1:20
140
1.0
141
20.0
290
     0
  0
SCALE
  5
44
102
{ACAD_REACTORS
330
3B
102
}
330
3B
100
AcDbScale
 70
     0
300
1:30
140
1.0
141
30.0
290
     0
  0
SCALE
  5
45
102
{ACAD_REACTORS
330
3B
102
}
330
3B
100
AcDbScale
 70
     0
300
1:40
140
1.0
141
40.0
290
     0
  0
SCALE
  5
46
102
{ACAD_REACTORS
330
3B
102
}
330
3B
100
AcDbScale
 70
     0
300
1:50
140
1.0
141
50.0
290
     0
  0
SCALE
  5
47
102
{ACAD_REACTORS
330
3B
102
}
330
3B
100
AcDbScale
 70
     0
300
1:100
140
1.0
141
100.0
290
     0
  0
SCALE
  5
48
102
{ACAD_REACTORS
330
3B
102
}
330
3B
100
AcDbScale
 70
     0
300
2:1
140
2.0
141
1.0
290
     0
  0
SCALE
  5
49
102
{ACAD_REACTORS
330
3B
102
}
330
3B
100
AcDbScale
 70
     0
300
4:1
140
4.0
141
1.0
290
     0
  0
SCALE
  5
4A
102
{ACAD_REACTORS
330
3B
102
}
330
3B
100
AcDbScale
 70
     0
300
8:1
140
8.0
141
1.0
290
     0
  0
SCALE
  5
4B
102
{ACAD_REACTORS
330
3B
102
}
330
3B
100
AcDbScale
 70
     0
300
10:1
140
10.0
141
1.0
290
     0
  0
SCALE
  5
4C
102
{ACAD_REACTORS
330
3B
102
}
330
3B
100
AcDbScale
 70
     0
300
100:1
140
100.0
141
1.0
290
     0
  0
SCALE
  5
4D
102
{ACAD_REACTORS
330
3B
102
}
330
3B
100
AcDbScale
 70
     0
300
1/128" = 1'-0"
140
0.0078125
141
12.0
290
     0
  0
SCALE
  5
4E
102
{ACAD_REACTORS
330
3B
102
}
330
3B
100
AcDbScale
 70
     0
300
1/64" = 1'-0"
140
0.015625
141
12.0
290
     0
  0
SCALE
  5
4F
102
{ACAD_REACTORS
330
3B
102
}
330
3B
100
AcDbScale
 70
     0
300
1/32" = 1'-0"
140
0.03125
141
12.0
290
     0
  0
SCALE
  5
50
102
{ACAD_REACTORS
330
3B
102
}
330
3B
100
AcDbScale
 70
     0
300
1/16" = 1'-0"
140
0.0625
141
12.0
290
     0
  0
SCALE
  5
51
102
{ACAD_REACTORS
330
3B
102
}
330
3B
100
AcDbScale
 70
     0
300
3/32" = 1'-0"
140
0.09375
141
12.0
290
     0
  0
SCALE
  5
52
102
{ACAD_REACTORS
330
3B
102
}
330
3B
100
AcDbScale
 70
     0
300
1/8" = 1'-0"
140
0.125
141
12.0
290
     0
  0
SCALE
  5
53
102
{ACAD_REACTORS
330
3B
102
}
330
3B
100
AcDbScale
 70
     0
300
3/16" = 1'-0"
140
0.1875
141
12.0
290
     0
  0
SCALE
  5
54
102
{ACAD_REACTORS
330
3B
102
}
330
3B
100
AcDbScale
 70
     0
300
1/4" = 1'-0"
140
0.25
141
12.0
290
     0
  0
SCALE
  5
55
102
{ACAD_REACTORS
330
3B
102
}
330
3B
100
AcDbScale
 70
     0
300
3/8" = 1'-0"
140
0.375
141
12.0
290
     0
  0
SCALE
  5
56
102
{ACAD_REACTORS
330
3B
102
}
330
3B
100
AcDbScale
 70
     0
300
1/2" = 1'-0"
140
0.5
141
12.0
290
     0
  0
SCALE
  5
57
102
{ACAD_REACTORS
330
3B
102
}
330
3B
100
AcDbScale
 70
     0
300
3/4" = 1'-0"
140
0.75
141
12.0
290
     0
  0
SCALE
  5
58
102
{ACAD_REACTORS
330
3B
102
}
330
3B
100
AcDbScale
 70
     0
300
1" = 1'-0"
140
1.0
141
12.0
290
     0
  0
SCALE
  5
59
102
{ACAD_REACTORS
330
3B
102
}
330
3B
100
AcDbScale
 70
     0
300
1-1/2" = 1'-0"
140
1.5
141
12.0
290
     0
  0
SCALE
  5
5A
102
{ACAD_REACTORS
330
3B
102
}
330
3B
100
AcDbScale
 70
     0
300
3" = 1'-0"
140
3.0
141
12.0
290
     0
  0
SCALE
  5
5B
102
{ACAD_REACTORS
330
3B
102
}
330
3B
100
AcDbScale
 70
     0
300
6" = 1'-0"
140
6.0
141
12.0
290
     0
  0
SCALE
  5
5C
102
{ACAD_REACTORS
330
3B
102
}
330
3B
100
AcDbScale
 70
     0
300
1'-0" = 1'-0"
140
12.0
141
12.0
290
     0
  0
VISUALSTYLE
  5
2F
102
{ACAD_REACTORS
330
2A
102
}
330
2A
100
AcDbVisualStyle
  2
2dWireframe
 70
     4
 71
     0
 72
     2
 73
     0
 90
        0
 40
-0.6
 41
-30.0
 62
     5
 63
     7
 74
     1
 91
        4
 64
     7
 65
   257
 75
     1
175
     1
 42
1.0
 92
        0
 66
   257
 43
1.0
 76
     1
 77
     6
 78
     2
 67
     7
 79
     5
170
     0
171
     0
290
     0
174
     0
 93
        1
 44
0.0
173
     0
291
     0
 45
0.0
1001
ACAD
1000
AcDbSavedByObjectVersion
1070
     0
  0
VISUALSTYLE
  5
31
102
{ACAD_REACTORS
330
2A
102
}
330
2A
100
AcDbVisualStyle
  2
3D Hidden
 70
     6
 71
     1
 72
     2
 73
     2
 90
        0
 40
-0.6
 41
-30.0
 62
     5
 63
     7
 74
     2
 91
        2
 64
     7
 65
   257
 75
     2
175
     1
 42
40.0
 92
        0
 66
   257
 43
1.0
 76
     1
 77
     6
 78
     2
 67
     7
 79
     3
170
     0
171
     0
290
     0
174
     0
 93
        1
 44
0.0
173
     0
291
     0
 45
0.0
1001
ACAD
1000
AcDbSavedByObjectVersion
1070
     0
  0
VISUALSTYLE
  5
30
102
{ACAD_REACTORS
330
2A
102
}
330
2A
100
AcDbVisualStyle
  2
3dWireframe
 70
     5
 71
     0
 72
     2
 73
     0
 90
        0
 40
-0.6
 41
-30.0
 62
     5
 63
     7
 74
     1
 91
        4
 64
     7
 65
   257
 75
     1
175
     1
 42
1.0
 92
        0
 66
   257
 43
1.0
 76
     1
 77
     6
 78
     2
 67
     7
 79
     5
170
     0
171
     0
290
     0
174
     0
 93
        1
 44
0.0
173
     0
291
     0
 45
0.0
1001
ACAD
1000
AcDbSavedByObjectVersion
1070
     0
  0
VISUALSTYLE
  5
32
102
{ACAD_REACTORS
330
2A
102
}
330
2A
100
AcDbVisualStyle
  2
Basic
 70
     7
 71
     1
 72
     0
 73
     1
 90
        0
 40
-0.6
 41
-30.0
 62
     5
 63
     7
 74
     0
 91
        4
 64
     7
 65
   257
 75
     1
175
     1
 42
1.0
 92
        8
 66
     7
 43
1.0
 76
     1
 77
     6
 78
     2
 67
     7
 79
     5
170
     0
171
     0
290
     0
174
     0
 93
        1
 44
0.0
173
     0
291
     1
 45
0.0
1001
ACAD
1000
AcDbSavedByObjectVersion
1070
     0
  0
VISUALSTYLE
  5
36
102
{ACAD_REACTORS
330
2A
102
}
330
2A
100
AcDbVisualStyle
  2
Brighten
 70
    12
 71
     2
 72
     2
 73
     0
 90
        0
 40
-0.6
 41
-30.0
 62
     5
 63
     7
 74
     1
 91
        4
 64
     7
 65
   257
 75
     1
175
     1
 42
1.0
 92
        8
 66
     7
 43
1.0
 76
     1
 77
     6
 78
     2
 67
     7
 79
     5
170
     0
171
     0
290
     0
174
     0
 93
        1
 44
50.0
173
     0
291
     1
 45
0.0
1001
ACAD
1000
AcDbSavedByObjectVersion
1070
     0
  0
VISUALSTYLE
  5
3A
102
{ACAD_REACTORS
330
2A
102
}
330
2A
100
AcDbVisualStyle
  2
ColorChange
 70
    16
 71
     2
 72
     2
 73
     3
 90
        0
 40
-0.6
 41
-30.0
 62
     5
 63
     8
 74
     1
 91
        4
 64
     7
 65
   257
 75
     1
175
     1
 42
1.0
 92
        8
 66
     8
 43
1.0
 76
     1
 77
     6
 78
     2
 67
     7
 79
     5
170
     0
171
     0
290
     0
174
     0
 93
        1
 44
0.0
173
     0
291
     1
 45
0.0
1001
ACAD
1000
AcDbSavedByObjectVersion
1070
     0
  0
VISUALSTYLE
  5
34
102
{ACAD_REACTORS
330
2A
102
}
330
2A
100
AcDbVisualStyle
  2
Conceptual
 70
     9
 71
     3
 72
     2
 73
     0
 90
        0
 40
-0.6
 41
-30.0
 62
     5
 63
     7
 74
     2
 91
        2
 64
     7
 65
   257
 75
     1
175
     1
 42
40.0
 92
        8
 66
     7
 43
1.0
 76
     1
 77
     6
 78
     2
 67
     7
 79
     3
170
     0
171
     0
290
     0
174
     0
 93
        1
 44
0.0
173
     0
291
     0
 45
0.0
1001
ACAD
1000
AcDbSavedByObjectVersion
1070
     0
  0
VISUALSTYLE
  5
35
102
{ACAD_REACTORS
330
2A
102
}
330
2A
100
AcDbVisualStyle
  2
Dim
 70
    11
 71
     2
 72
     2
 73
     0
 90
        0
 40
-0.6
 41
-30.0
 62
     5
 63
     7
 74
     1
 91
        4
 64
     7
 65
   257
 75
     1
175
     1
 42
1.0
 92
        8
 66
     7
 43
1.0
 76
     1
 77
     6
 78
     2
 67
     7
 79
     5
170
     0
171
     0
290
     0
174
     0
 93
        1
 44
-50.0
173
     0
291
     1
 45
0.0
1001
ACAD
1000
AcDbSavedByObjectVersion
1070
     0
  0
VISUALSTYLE
  5
39
102
{ACAD_REACTORS
330
2A
102
}
330
2A
100
AcDbVisualStyle
  2
Facepattern
 70
    15
 71
     2
 72
     2
 73
     0
 90
        0
 40
-0.6
 41
-30.0
 62
     5
 63
     7
 74
     1
 91
        4
 64
     7
 65
   257
 75
     1
175
     1
 42
1.0
 92
        8
 66
     7
 43
1.0
 76
     1
 77
     6
 78
     2
 67
     7
 79
     5
170
     0
171
     0
290
     0
174
     0
 93
        1
 44
0.0
173
     0
291
     1
 45
0.0
1001
ACAD
1000
AcDbSavedByObjectVersion
1070
     0
  0
VISUALSTYLE
  5
2B
102
{ACAD_REACTORS
330
2A
102
}
330
2A
100
AcDbVisualStyle
  2
Flat
 70
     0
 71
     2
 72
     1
 73
     1
 90
        2
 40
-0.6
 41
30.0
 62
     5
 63
     7
 74
     0
 91
        4
 64
     7
 65
   257
 75
     1
175
     1
 42
1.0
 92
        8
 66
     7
 43
1.0
 76
     1
 77
     6
 78
     2
 67
     7
 79
     5
170
     0
171
     0
290
     0
174
     0
 93
       13
 44
0.0
173
     0
291
     1
 45
0.0
1001
ACAD
1000
AcDbSavedByObjectVersion
1070
     0
  0
VISUALSTYLE
  5
2C
102
{ACAD_REACTORS
330
2A
102
}
330
2A
100
AcDbVisualStyle
  2
FlatWithEdges
 70
     1
 71
     2
 72
     1
 73
     1
 90
        2
 40
-0.6
 41
30.0
 62
     5
 63
     7
 74
     1
 91
        4
 64
     7
 65
   257
 75
     1
175
     1
 42
1.0
 92
        0
 66
   257
 43
1.0
 76
     1
 77
     6
 78
     2
 67
     7
 79
     5
170
     0
171
     0
290
     0
174
     0
 93
       13
 44
0.0
173
     0
291
     1
 45
0.0
1001
ACAD
1000
AcDbSavedByObjectVersion
1070
     0
  0
VISUALSTYLE
  5
2D
102
{ACAD_REACTORS
330
2A
102
}
330
2A
100
AcDbVisualStyle
  2
Gouraud
 70
     2
 71
     2
 72
     2
 73
     1
 90
        2
 40
-0.6
 41
30.0
 62
     5
 63
     7
 74
     0
 91
        4
 64
     7
 65
   257
 75
     1
175
     1
 42
1.0
 92
        0
 66
     7
 43
1.0
 76
     1
 77
     6
 78
     2
 67
     7
 79
     5
170
     0
171
     0
290
     0
174
     0
 93
       13
 44
0.0
173
     0
291
     1
 45
0.0
1001
ACAD
1000
AcDbSavedByObjectVersion
1070
     0
  0
VISUALSTYLE
  5
2E
102
{ACAD_REACTORS
330
2A
102
}
330
2A
100
AcDbVisualStyle
  2
GouraudWithEdges
 70
     3
 71
     2
 72
     2
 73
     1
 90
        2
 40
-0.6
 41
30.0
 62
     5
 63
     7
 74
     1
 91
        4
 64
     7
 65
   257
 75
     1
175
     1
 42
1.0
 92
        0
 66
   257
 43
1.0
 76
     1
 77
     6
 78
     2
 67
     7
 79
     5
170
     0
171
     0
290
     0
174
     0
 93
       13
 44
0.0
173
     0
291
     1
 45
0.0
1001
ACAD
1000
AcDbSavedByObjectVersion
1070
     0
  0
VISUALSTYLE
  5
38
102
{ACAD_REACTORS
330
2A
102
}
330
2A
100
AcDbVisualStyle
  2
Linepattern
 70
    14
 71
     2
 72
     2
 73
     0
 90
        0
 40
-0.6
 41
-30.0
 62
     5
 63
     7
 74
     1
 91
        4
 64
     7
 65
   257
 75
     7
175
     7
 42
1.0
 92
        8
 66
     7
 43
1.0
 76
     1
 77
     6
 78
     2
 67
     7
 79
     5
170
     0
171
     0
290
     0
174
     0
 93
        1
 44
0.0
173
     0
291
     1
 45
0.0
1001
ACAD
1000
AcDbSavedByObjectVersion
1070
     0
  0
VISUALSTYLE
  5
33
102
{ACAD_REACTORS
330
2A
102
}
330
2A
100
AcDbVisualStyle
  2
Realistic
 70
     8
 71
     2
 72
     2
 73
     0
 90
        0
 40
-0.6
 41
-30.0
 62
     5
 63
     7
 74
     1
 91
        0
 64
     7
 65
   257
 75
     1
175
     1
 42
1.0
 92
        8
 66
     8
 43
1.0
 76
     1
 77
     6
 78
     2
 67
     7
 79
     5
170
     0
171
     0
290
     0
174
     0
 93
       13
 44
0.0
173
     0
291
     0
 45
0.0
1001
ACAD
1000
AcDbSavedByObjectVersion
1070
     0
  0
VISUALSTYLE
  5
37
102
{ACAD_REACTORS
330
2A
102
}
330
2A
100
AcDbVisualStyle
  2
Thicken
 70
    13
 71
     2
 72
     2
 73
     0
 90
        0
 40
-0.6
 41
-30.0
 62
     5
 63
     7
 74
     1
 91
        4
 64
     7
 65
   257
 75
     1
175
     1
 42
1.0
 92
       12
 66
     7
 43
1.0
 76
     1
 77
     6
 78
     2
 67
     7
 79
     5
170
     0
171
     0
290
     0
174
     0
 93
        1
 44
0.0
173
     0
291
     1
 45
0.0
1001
ACAD
1000
AcDbSavedByObjectVersion
1070
     0
  0
DICTIONARYVAR
  5
20F
102
{ACAD_REACTORS
330
20E
102
}
330
20E
100
DictionaryVariables
280
     0
  1
1:1
  0
DICTIONARYVAR
  5
213
102
{ACAD_REACTORS
330
20E
102
}
330
20E
100
DictionaryVariables
280
     0
  1
80.000000
  0
DICTIONARYVAR
  5
212
102
{ACAD_REACTORS
330
20E
102
}
330
20E
100
DictionaryVariables
280
     0
  1
5.000000
  0
ENDSEC
  0
EOF
