  0
SECTION
  2
HEADER
  9
$ACADVER
  1
AC1015
  9
$ACADMAINTVER
 70
     6
  9
$DWGCODEPAGE
  3
ANSI_1252
  9
$INSBASE
 10
0.0
 20
0.0
 30
0.0
  9
$EXTMIN
 10
0.0
 20
0.0
 30
0.0
  9
$EXTMAX
 10
3000.0
 20
4500.0
 30
0.0
  9
$LIMMIN
 10
0.0
 20
0.0
  9
$LIMMAX
 10
3000.0
 20
4500.0
  9
$ORTHOMODE
 70
     0
  9
$REGENMODE
 70
     1
  9
$FILLMODE
 70
     1
  9
$QTEXTMODE
 70
     0
  9
$MIRRTEXT
 70
     1
  9
$LTSCALE
 40
1.0
  9
$ATTMODE
 70
     1
  9
$TEXTSIZE
 40
2.5
  9
$TRACEWID
 40
1.0
  9
$TEXTSTYLE
  7
Standard
  9
$CLAYER
  8
0
  9
$CELTYPE
  6
ByLayer
  9
$CECOLOR
 62
   256
  9
$CELTSCALE
 40
1.0
  9
$DISPSILH
 70
     0
  9
$DIMSCALE
 40
1.0
  9
$DIMASZ
 40
2.5
  9
$DIMEXO
 40
0.625
  9
$DIMDLI
 40
3.75
  9
$DIMRND
 40
0.0
  9
$DIMDLE
 40
0.0
  9
$DIMEXE
 40
1.25
  9
$DIMTP
 40
0.0
  9
$DIMTM
 40
0.0
  9
$DIMTXT
 40
2.5
  9
$DIMCEN
 40
2.5
  9
$DIMTSZ
 40
0.0
  9
$DIMTOL
 70
     0
  9
$DIMLIM
 70
     0
  9
$DIMTIH
 70
     0
  9
$DIMTOH
 70
     0
  9
$DIMSE1
 70
     0
  9
$DIMSE2
 70
     0
  9
$DIMTAD
 70
     1
  9
$DIMZIN
 70
     8
  9
$DIMBLK
  1

  9
$DIMASO
 70
     1
  9
$DIMSHO
 70
     1
  9
$DIMPOST
  1

  9
$DIMAPOST
  1

  9
$DIMALT
 70
     0
  9
$DIMALTD
 70
     3
  9
$DIMALTF
 40
0.0393700787
  9
$DIMLFAC
 40
1.0
  9
$DIMTOFL
 70
     1
  9
$DIMTVP
 40
0.0
  9
$DIMTIX
 70
     0
  9
$DIMSOXD
 70
     0
  9
$DIMSAH
 70
     0
  9
$DIMBLK1
  1

  9
$DIMBLK2
  1

  9
$DIMSTYLE
  2
ISO-25
  9
$DIMCLRD
 70
     0
  9
$DIMCLRE
 70
     0
  9
$DIMCLRT
 70
     0
  9
$DIMTFAC
 40
1.0
  9
$DIMGAP
 40
0.625
  9
$DIMJUST
 70
     0
  9
$DIMSD1
 70
     0
  9
$DIMSD2
 70
     0
  9
$DIMTOLJ
 70
     0
  9
$DIMTZIN
 70
     8
  9
$DIMALTZ
 70
     0
  9
$DIMALTTZ
 70
     0
  9
$DIMUPT
 70
     0
  9
$DIMDEC
 70
     2
  9
$DIMTDEC
 70
     2
  9
$DIMALTU
 70
     2
  9
$DIMALTTD
 70
     3
  9
$DIMTXSTY
  7
Standard
  9
$DIMAUNIT
 70
     0
  9
$DIMADEC
 70
     0
  9
$DIMALTRND
 40
0.0
  9
$DIMAZIN
 70
     0
  9
$DIMDSEP
 70
    44
  9
$DIMATFIT
 70
     3
  9
$DIMFRAC
 70
     0
  9
$DIMLDRBLK
  1

  9
$DIMLUNIT
 70
     2
  9
$DIMLWD
 70
    -2
  9
$DIMLWE
 70
    -2
  9
$DIMTMOVE
 70
     0
  9
$LUNITS
 70
     2
  9
$LUPREC
 70
     4
  9
$SKETCHINC
 40
1.0
  9
$FILLETRAD
 40
10.0
  9
$AUNITS
 70
     0
  9
$AUPREC
 70
     0
  9
$MENU
  1
.
  9
$ELEVATION
 40
0.0
  9
$PELEVATION
 40
0.0
  9
$THICKNESS
 40
0.0
  9
$LIMCHECK
 70
     0
  9
$CHAMFERA
 40
10.0
  9
$CHAMFERB
 40
10.0
  9
$CHAMFERC
 40
20.0
  9
$CHAMFERD
 40
0.0
  9
$SKPOLY
 70
     0
  9
$TDCREATE
 40
2456601.334963912
  9
$TDUCREATE
 40
2456601.293297245
  9
$TDUPDATE
 40
2456601.334963924
  9
$TDUUPDATE
 40
2456601.293297257
  9
$TDINDWG
 40
0.0000000116
  9
$TDUSRTIMER
 40
0.0000000116
  9
$USRTIMER
 70
     1
  9
$ANGBASE
 50
0.0
  9
$ANGDIR
 70
     0
  9
$PDMODE
 70
     0
  9
$PDSIZE
 40
0.0
  9
$PLINEWID
 40
0.0
  9
$SPLFRAME
 70
     0
  9
$SPLINETYPE
 70
     6
  9
$SPLINESEGS
 70
     8
  9
$HANDSEED
  5
2B1
  9
$SURFTAB1
 70
     6
  9
$SURFTAB2
 70
     6
  9
$SURFTYPE
 70
     6
  9
$SURFU
 70
     6
  9
$SURFV
 70
     6
  9
$UCSBASE
  2

  9
$UCSNAME
  2

  9
$UCSORG
 10
0.0
 20
0.0
 30
0.0
  9
$UCSXDIR
 10
1.0
 20
0.0
 30
0.0
  9
$UCSYDIR
 10
0.0
 20
1.0
 30
0.0
  9
$UCSORTHOREF
  2

  9
$UCSORTHOVIEW
 70
     0
  9
$UCSORGTOP
 10
0.0
 20
0.0
 30
0.0
  9
$UCSORGBOTTOM
 10
0.0
 20
0.0
 30
0.0
  9
$UCSORGLEFT
 10
0.0
 20
0.0
 30
0.0
  9
$UCSORGRIGHT
 10
0.0
 20
0.0
 30
0.0
  9
$UCSORGFRONT
 10
0.0
 20
0.0
 30
0.0
  9
$UCSORGBACK
 10
0.0
 20
0.0
 30
0.0
  9
$PUCSBASE
  2

  9
$PUCSNAME
  2

  9
$PUCSORG
 10
0.0
 20
0.0
 30
0.0
  9
$PUCSXDIR
 10
1.0
 20
0.0
 30
0.0
  9
$PUCSYDIR
 10
0.0
 20
1.0
 30
0.0
  9
$PUCSORTHOREF
  2

  9
$PUCSORTHOVIEW
 70
     0
  9
$PUCSORGTOP
 10
0.0
 20
0.0
 30
0.0
  9
$PUCSORGBOTTOM
 10
0.0
 20
0.0
 30
0.0
  9
$PUCSORGLEFT
 10
0.0
 20
0.0
 30
0.0
  9
$PUCSORGRIGHT
 10
0.0
 20
0.0
 30
0.0
  9
$PUCSORGFRONT
 10
0.0
 20
0.0
 30
0.0
  9
$PUCSORGBACK
 10
0.0
 20
0.0
 30
0.0
  9
$USERI1
 70
     0
  9
$USERI2
 70
     0
  9
$USERI3
 70
     0
  9
$USERI4
 70
     0
  9
$USERI5
 70
     0
  9
$USERR1
 40
0.0
  9
$USERR2
 40
0.0
  9
$USERR3
 40
0.0
  9
$USERR4
 40
0.0
  9
$USERR5
 40
0.0
  9
$WORLDVIEW
 70
     1
  9
$SHADEDGE
 70
     3
  9
$SHADEDIF
 70
    70
  9
$TILEMODE
 70
     1
  9
$MAXACTVP
 70
    64
  9
$PINSBASE
 10
0.0
 20
0.0
 30
0.0
  9
$PLIMCHECK
 70
     0
  9
$PEXTMIN
 10
0.0
 20
0.0
 30
0.0
  9
$PEXTMAX
 10
3000.0
 20
4500.0
 30
0.0
  9
$PLIMMIN
 10
0.0
 20
0.0
  9
$PLIMMAX
 10
3000.0
 20
4500.0
  9
$UNITMODE
 70
     0
  9
$VISRETAIN
 70
     1
  9
$PLINEGEN
 70
     0
  9
$PSLTSCALE
 70
     1
  9
$TREEDEPTH
 70
  3020
  9
$CMLSTYLE
  2
Standard
  9
$CMLJUST
 70
     0
  9
$CMLSCALE
 40
20.0
  9
$PROXYGRAPHICS
 70
     1
  9
$MEASUREMENT
 70
     1
  9
$CELWEIGHT
370
    -1
  9
$ENDCAPS
280
     0
  9
$JOINSTYLE
280
     0
  9
$LWDISPLAY
290
     0
  9
$INSUNITS
 70
     4
  9
$HYPERLINKBASE
  1

  9
$STYLESHEET
  1

  9
$XEDIT
290
     1
  9
$CEPSNTYPE
380
     0
  9
$PSTYLEMODE
290
     1
  9
$FINGERPRINTGUID
  2
{B38D3BED-9448-4BC8-9C8D-D37FB8CBC0E1}
  9
$VERSIONGUID
  2
{FAEB1C32-E019-11D5-929B-00C0DF256EC4}
  9
$EXTNAMES
290
     1
  9
$PSVPSCALE
 40
0.0
  9
$OLESTARTUP
290
     0
  0
ENDSEC
  0
SECTION
  2
CLASSES
  0
CLASS
  1
ACDBDICTIONARYWDFLT
  2
AcDbDictionaryWithDefault
  3
ObjectDBX Classes
 90
        0
280
     0
281
     0
  0
CLASS
  1
VISUALSTYLE
  2
AcDbVisualStyle
  3
ObjectDBX Classes
 90
     4095
280
     0
281
     0
  0
CLASS
  1
SCALE
  2
AcDbScale
  3
ObjectDBX Classes
 90
     1153
280
     0
281
     0
  0
CLASS
  1
DICTIONARYVAR
  2
AcDbDictionaryVar
  3
ObjectDBX Classes
 90
        0
280
     0
281
     0
  0
CLASS
  1
ACDBPLACEHOLDER
  2
AcDbPlaceHolder
  3
ObjectDBX Classes
 90
        0
280
     0
281
     0
  0
CLASS
  1
LAYOUT
  2
AcDbLayout
  3
ObjectDBX Classes
 90
        0
280
     0
281
     0
  0
ENDSEC
  0
SECTION
  2
TABLES
  0
TABLE
  2
VPORT
  5
8
330
0
100
AcDbSymbolTable
 70
     1
  0
VPORT
  5
29
330
8
100
AcDbSymbolTableRecord
100
AcDbViewportTableRecord
  2
*Active
 70
     0
 10
0.0
 20
0.0
 11
1.0
 21
1.0
 12
344.1869158879
 22
148.5
 13
0.0
 23
0.0
 14
10.0
 24
10.0
 15
10.0
 25
10.0
 16
0.0
 26
0.0
 36
1.0
 17
0.0
 27
0.0
 37
0.0
 40
297.0
 41
1.9729729729
 42
50.0
 43
0.0
 44
0.0
 50
0.0
 51
0.0
 71
     0
 72
   100
 73
     1
 74
     3
 75
     0
 76
     0
 77
     0
 78
     0
281
     0
 65
     1
110
0.0
120
0.0
130
0.0
111
1.0
121
0.0
131
0.0
112
0.0
122
1.0
132
0.0
 79
     0
146
0.0
  0
ENDTAB
  0
TABLE
  2
LTYPE
  5
5
330
0
100
AcDbSymbolTable
 70
     2
  0
LTYPE
  5
14
330
5
100
AcDbSymbolTableRecord
100
AcDbLinetypeTableRecord
  2
ByBlock
 70
     0
  3

 72
    65
 73
     0
 40
0.0
  0
LTYPE
  5
15
330
5
100
AcDbSymbolTableRecord
100
AcDbLinetypeTableRecord
  2
ByLayer
 70
     0
  3

 72
    65
 73
     0
 40
0.0
  0
LTYPE
  5
16
330
5
100
AcDbSymbolTableRecord
100
AcDbLinetypeTableRecord
  2
Continuous
 70
     0
  3
Solid line
 72
    65
 73
     0
 40
0.0
  0
LTYPE
  5
60
330
5
100
AcDbSymbolTableRecord
100
AcDbLinetypeTableRecord
  2
CENTER2
 70
     0
  3
Center (.5x) ___ _ ___ _ ___ _ ___ _ ___ _ ___
 72
    65
 73
     4
 40
28.575
 49
19.05
 74
     4
 75
     0
340
0
 46
0.0
 50
0.0
 44
0.0
 45
0.0
 49
-3.175
 74
     4
 75
     0
340
0
 46
0.0
 50
0.0
 44
0.0
 45
0.0
 49
3.175
 74
     4
 75
     0
340
0
 46
0.0
 50
0.0
 44
0.0
 45
0.0
 49
-3.175
 74
     4
 75
     0
340
0
 46
0.0
 50
0.0
 44
0.0
 45
0.0
  0
ENDTAB
  0
TABLE
  2
LAYER
  5
2
330
0
100
AcDbSymbolTable
 70
    17
  0
LAYER
  5
10
330
2
100
AcDbSymbolTableRecord
100
AcDbLayerTableRecord
  2
0
 70
     0
 62
     7
  6
Continuous
370
    -3
390
F
  0
LAYER
  5
5D
330
2
100
AcDbSymbolTableRecord
100
AcDbLayerTableRecord
  2
Default
 70
     0
 62
     7
  6
Continuous
370
    -3
390
F
  0
LAYER
  5
8E
330
2
100
AcDbSymbolTableRecord
100
AcDbLayerTableRecord
  2
$DDT_AUDIT_GENERATED_(8E)
 70
     0
 62
     7
  6
Continuous
370
    -3
390
F
  0
LAYER
  5
A7
330
2
100
AcDbSymbolTableRecord
100
AcDbLayerTableRecord
  2
$DDT_AUDIT_GENERATED_(A7)
 70
     0
 62
     7
  6
Continuous
370
    -3
390
F
  0
LAYER
  5
B5
330
2
100
AcDbSymbolTableRecord
100
AcDbLayerTableRecord
  2
$DDT_AUDIT_GENERATED_(B5)
 70
     0
 62
     7
  6
Continuous
370
    -3
390
F
  0
LAYER
  5
BE
330
2
100
AcDbSymbolTableRecord
100
AcDbLayerTableRecord
  2
$DDT_AUDIT_GENERATED_(BE)
 70
     0
 62
     7
  6
Continuous
370
    -3
390
F
  0
LAYER
  5
D9
330
2
100
AcDbSymbolTableRecord
100
AcDbLayerTableRecord
  2
$DDT_AUDIT_GENERATED_(D9)
 70
     0
 62
     7
  6
Continuous
370
    -3
390
F
  0
LAYER
  5
DB
330
2
100
AcDbSymbolTableRecord
100
AcDbLayerTableRecord
  2
$DDT_AUDIT_GENERATED_(DB)
 70
     0
 62
     7
  6
Continuous
370
    -3
390
F
  0
LAYER
  5
DE
330
2
100
AcDbSymbolTableRecord
100
AcDbLayerTableRecord
  2
$DDT_AUDIT_GENERATED_(DE)
 70
     0
 62
     7
  6
Continuous
370
    -3
390
F
  0
LAYER
  5
E8
330
2
100
AcDbSymbolTableRecord
100
AcDbLayerTableRecord
  2
$DDT_AUDIT_GENERATED_(E8)
 70
     0
 62
     7
  6
Continuous
370
    -3
390
F
  0
LAYER
  5
FE
330
2
100
AcDbSymbolTableRecord
100
AcDbLayerTableRecord
  2
$DDT_AUDIT_GENERATED_(FE)
 70
     0
 62
     7
  6
Continuous
370
    -3
390
F
  0
LAYER
  5
100
330
2
100
AcDbSymbolTableRecord
100
AcDbLayerTableRecord
  2
$DDT_AUDIT_GENERATED_(100)
 70
     0
 62
     7
  6
Continuous
370
    -3
390
F
  0
LAYER
  5
103
330
2
100
AcDbSymbolTableRecord
100
AcDbLayerTableRecord
  2
$DDT_AUDIT_GENERATED_(103)
 70
     0
 62
     7
  6
Continuous
370
    -3
390
F
  0
LAYER
  5
10A
330
2
100
AcDbSymbolTableRecord
100
AcDbLayerTableRecord
  2
$DDT_AUDIT_GENERATED_(10A)
 70
     0
 62
     7
  6
Continuous
370
    -3
390
F
  0
LAYER
  5
10C
330
2
100
AcDbSymbolTableRecord
100
AcDbLayerTableRecord
  2
$DDT_AUDIT_GENERATED_(10C)
 70
     0
 62
     7
  6
Continuous
370
    -3
390
F
  0
LAYER
  5
240
330
2
100
AcDbSymbolTableRecord
100
AcDbLayerTableRecord
  2
$DDT_AUDIT_GENERATED_(240)
 70
     0
 62
     7
  6
Continuous
370
    -3
390
F
  0
LAYER
  5
248
330
2
100
AcDbSymbolTableRecord
100
AcDbLayerTableRecord
  2
$DDT_AUDIT_GENERATED_(248)
 70
     0
 62
     7
  6
Continuous
370
    -3
390
F
  0
ENDTAB
  0
TABLE
  2
STYLE
  5
3
330
0
100
AcDbSymbolTable
 70
     2
  0
STYLE
  5
11
330
3
100
AcDbSymbolTableRecord
100
AcDbTextStyleTableRecord
  2
Standard
 70
     0
 40
0.0
 41
1.0
 50
0.0
 71
     0
 42
2.5
  3
txt
  4

  0
STYLE
  5
2A0
330
3
100
AcDbSymbolTableRecord
100
AcDbTextStyleTableRecord
  2
SEACAD_seiso_ttf
 70
     0
 40
0.0
 41
1.0
 50
0.0
 71
     0
 42
0.2
  3
seiso.ttf
  4

  0
ENDTAB
  0
TABLE
  2
VIEW
  5
6
330
0
100
AcDbSymbolTable
 70
     0
  0
ENDTAB
  0
TABLE
  2
UCS
  5
7
330
0
100
AcDbSymbolTable
 70
     0
  0
ENDTAB
  0
TABLE
  2
APPID
  5
9
330
0
100
AcDbSymbolTable
 70
     1
  0
APPID
  5
12
330
9
100
AcDbSymbolTableRecord
100
AcDbRegAppTableRecord
  2
ACAD
 70
     0
  0
ENDTAB
  0
TABLE
  2
DIMSTYLE
  5
A
330
0
100
AcDbSymbolTable
 70
     1
100
AcDbDimStyleTable
  0
DIMSTYLE
105
27
330
A
100
AcDbSymbolTableRecord
100
AcDbDimStyleTableRecord
  2
ISO-25
 70
     0
 41
2.5
 42
0.625
 43
3.75
 44
1.25
 73
     0
 74
     0
 77
     1
 78
     8
140
2.5
141
2.5
143
0.0393700787
147
0.625
171
     3
172
     1
271
     2
272
     2
274
     3
278
    44
283
     0
284
     8
340
11
  0
ENDTAB
  0
TABLE
  2
BLOCK_RECORD
  5
1
330
0
100
AcDbSymbolTable
 70
    10
  0
BLOCK_RECORD
  5
1F
330
1
100
AcDbSymbolTableRecord
100
AcDbBlockTableRecord
  2
*Model_Space
340
22
  0
BLOCK_RECORD
  5
1B
330
1
100
AcDbSymbolTableRecord
100
AcDbBlockTableRecord
  2
*Paper_Space
340
1E
  0
BLOCK_RECORD
  5
5E
330
1
100
AcDbSymbolTableRecord
100
AcDbBlockTableRecord
  2
SEANNOT_GROUP
340
0
102
{BLKREFS
331
5F
102
}
  0
BLOCK_RECORD
  5
65
330
1
100
AcDbSymbolTableRecord
100
AcDbBlockTableRecord
  2
SEANNOT_GROUP1
340
0
102
{BLKREFS
331
66
102
}
  0
BLOCK_RECORD
  5
6B
330
1
100
AcDbSymbolTableRecord
100
AcDbBlockTableRecord
  2
SEANNOT_GROUP2
340
0
102
{BLKREFS
331
6C
102
}
  0
BLOCK_RECORD
  5
75
330
1
100
AcDbSymbolTableRecord
100
AcDbBlockTableRecord
  2
SEANNOT_GROUP3
340
0
102
{BLKREFS
331
76
102
}
  0
BLOCK_RECORD
  5
7F
330
1
100
AcDbSymbolTableRecord
100
AcDbBlockTableRecord
  2
SEANNOT_GROUP4
340
0
102
{BLKREFS
331
80
102
}
  0
BLOCK_RECORD
  5
86
330
1
100
AcDbSymbolTableRecord
100
AcDbBlockTableRecord
  2
SEANNOT_GROUP5
340
0
102
{BLKREFS
331
87
102
}
  0
BLOCK_RECORD
  5
8C
330
1
100
AcDbSymbolTableRecord
100
AcDbBlockTableRecord
  2
SE
340
0
102
{BLKREFS
331
8D
102
}
  0
BLOCK_RECORD
  5
205
330
1
100
AcDbSymbolTableRecord
100
AcDbBlockTableRecord
  2
SE1
340
0
102
{BLKREFS
331
206
102
}
  0
BLOCK_RECORD
  5
266
330
1
100
AcDbSymbolTableRecord
100
AcDbBlockTableRecord
  2
SE2
340
0
102
{BLKREFS
331
267
102
}
  0
ENDTAB
  0
ENDSEC
  0
SECTION
  2
BLOCKS
  0
BLOCK
  5
20
330
1F
100
AcDbEntity
  8
0
100
AcDbBlockBegin
  2
*Model_Space
 70
     0
 10
0.0
 20
0.0
 30
0.0
  3
*Model_Space
  1

  0
ENDBLK
  5
21
330
1F
100
AcDbEntity
  8
0
100
AcDbBlockEnd
  0
BLOCK
  5
1C
330
1B
100
AcDbEntity
 67
     1
  8
0
100
AcDbBlockBegin
  2
*Paper_Space
 70
     0
 10
0.0
 20
0.0
 30
0.0
  3
*Paper_Space
  1

  0
ENDBLK
  5
1D
330
1B
100
AcDbEntity
 67
     1
  8
0
100
AcDbBlockEnd
  0
BLOCK
  5
63
330
5E
100
AcDbEntity
  8
0
100
AcDbBlockBegin
  2
SEANNOT_GROUP
 70
     0
 10
0.0
 20
0.0
 30
0.0
  3
SEANNOT_GROUP
  1

  0
LINE
  5
61
330
5E
100
AcDbEntity
  8
Default
  6
CENTER2
 62
     7
100
AcDbLine
 10
133.2099363382
 20
459.3255861696
 30
0.0
 11
93.2099372323
 21
459.3255861696
 31
0.0
  0
LINE
  5
62
330
5E
100
AcDbEntity
  8
Default
  6
CENTER2
 62
     7
100
AcDbLine
 10
113.2099367852
 20
479.3255857226
 30
0.0
 11
113.2099367852
 21
439.3255866167
 31
0.0
  0
ENDBLK
  5
64
330
5E
100
AcDbEntity
  8
0
100
AcDbBlockEnd
  0
BLOCK
  5
69
330
65
100
AcDbEntity
  8
0
100
AcDbBlockBegin
  2
SEANNOT_GROUP1
 70
     0
 10
0.0
 20
0.0
 30
0.0
  3
SEANNOT_GROUP1
  1

  0
LINE
  5
67
330
65
100
AcDbEntity
  8
Default
  6
CENTER2
 62
     7
100
AcDbLine
 10
333.1816495221
 20
459.3255861696
 30
0.0
 11
293.1816504162
 21
459.3255861696
 31
0.0
  0
LINE
  5
68
330
65
100
AcDbEntity
  8
Default
  6
CENTER2
 62
     7
100
AcDbLine
 10
313.1816499691
 20
479.3255857226
 30
0.0
 11
313.1816499691
 21
439.3255866167
 31
0.0
  0
ENDBLK
  5
6A
330
65
100
AcDbEntity
  8
0
100
AcDbBlockEnd
  0
BLOCK
  5
73
330
6B
100
AcDbEntity
  8
0
100
AcDbBlockBegin
  2
SEANNOT_GROUP2
 70
     0
 10
0.0
 20
0.0
 30
0.0
  3
SEANNOT_GROUP2
  1

  0
LINE
  5
6D
330
6B
100
AcDbEntity
  8
Default
  6
CENTER2
 62
     7
100
AcDbLine
 10
133.2099363382
 20
346.1782564914
 30
0.0
 11
93.2099372323
 21
346.1782564914
 31
0.0
  0
LINE
  5
6E
330
6B
100
AcDbEntity
  8
Default
  6
CENTER2
 62
     7
100
AcDbLine
 10
113.2099367852
 20
366.1782560444
 30
0.0
 11
113.2099367852
 21
326.1782569385
 31
0.0
  0
LINE
  5
6F
330
6B
100
AcDbEntity
  8
Default
  6
CENTER2
 62
     7
100
AcDbLine
 10
138.2099362264
 20
346.1782564914
 30
0.0
 11
143.7099367852
 21
346.1782564914
 31
0.0
  0
LINE
  5
70
330
6B
100
AcDbEntity
  8
Default
  6
CENTER2
 62
     7
100
AcDbLine
 10
113.2099367852
 20
371.1782559326
 30
0.0
 11
113.2099367852
 21
376.6782564914
 31
0.0
  0
LINE
  5
71
330
6B
100
AcDbEntity
  8
Default
  6
CENTER2
 62
     7
100
AcDbLine
 10
88.209937344
 20
346.1782564914
 30
0.0
 11
82.7099367852
 21
346.1782564914
 31
0.0
  0
LINE
  5
72
330
6B
100
AcDbEntity
  8
Default
  6
CENTER2
 62
     7
100
AcDbLine
 10
113.2099367852
 20
321.1782570502
 30
0.0
 11
113.2099367852
 21
315.6782564914
 31
0.0
  0
ENDBLK
  5
74
330
6B
100
AcDbEntity
  8
0
100
AcDbBlockEnd
  0
BLOCK
  5
7D
330
75
100
AcDbEntity
  8
0
100
AcDbBlockBegin
  2
SEANNOT_GROUP3
 70
     0
 10
0.0
 20
0.0
 30
0.0
  3
SEANNOT_GROUP3
  1

  0
LINE
  5
77
330
75
100
AcDbEntity
  8
Default
  6
CENTER2
 62
     7
100
AcDbLine
 10
133.2099363382
 20
712.2354993482
 30
0.0
 11
93.2099372323
 21
712.2354993482
 31
0.0
  0
LINE
  5
78
330
75
100
AcDbEntity
  8
Default
  6
CENTER2
 62
     7
100
AcDbLine
 10
113.2099367852
 20
732.2354989012
 30
0.0
 11
113.2099367852
 21
692.2354997953
 31
0.0
  0
LINE
  5
79
330
75
100
AcDbEntity
  8
Default
  6
CENTER2
 62
     7
100
AcDbLine
 10
138.2099362264
 20
712.2354993482
 30
0.0
 11
119.7599367852
 21
712.2354993482
 31
0.0
  0
LINE
  5
7A
330
75
100
AcDbEntity
  8
Default
  6
CENTER2
 62
     7
100
AcDbLine
 10
113.2099367852
 20
737.2354987894
 30
0.0
 11
113.2099367852
 21
716.0013243636
 31
0.0
  0
LINE
  5
7B
330
75
100
AcDbEntity
  8
Default
  6
CENTER2
 62
     7
100
AcDbLine
 10
88.209937344
 20
712.2354993482
 30
0.0
 11
106.6599367852
 21
712.2354993482
 31
0.0
  0
LINE
  5
7C
330
75
100
AcDbEntity
  8
Default
  6
CENTER2
 62
     7
100
AcDbLine
 10
113.2099367852
 20
687.235499907
 30
0.0
 11
113.2099367852
 21
708.4696743328
 31
0.0
  0
ENDBLK
  5
7E
330
75
100
AcDbEntity
  8
0
100
AcDbBlockEnd
  0
BLOCK
  5
83
330
7F
100
AcDbEntity
  8
0
100
AcDbBlockBegin
  2
SEANNOT_GROUP4
 70
     0
 10
0.0
 20
0.0
 30
0.0
  3
SEANNOT_GROUP4
  1

  0
LINE
  5
81
330
7F
100
AcDbEntity
  8
Default
  6
CENTER2
 62
     7
100
AcDbLine
 10
559.0126253509
 20
712.2354993482
 30
0.0
 11
519.012626245
 21
712.2354993482
 31
0.0
  0
LINE
  5
82
330
7F
100
AcDbEntity
  8
Default
  6
CENTER2
 62
     7
100
AcDbLine
 10
539.012625798
 20
732.2354989012
 30
0.0
 11
539.012625798
 21
692.2354997953
 31
0.0
  0
ENDBLK
  5
84
330
7F
100
AcDbEntity
  8
0
100
AcDbBlockEnd
  0
BLOCK
  5
8A
330
86
100
AcDbEntity
  8
0
100
AcDbBlockBegin
  2
SEANNOT_GROUP5
 70
     0
 10
0.0
 20
0.0
 30
0.0
  3
SEANNOT_GROUP5
  1

  0
LINE
  5
88
330
86
100
AcDbEntity
  8
Default
  6
CENTER2
 62
     7
100
AcDbLine
 10
133.2099363382
 20
120.3472806626
 30
0.0
 11
93.2099372323
 21
120.3472806626
 31
0.0
  0
LINE
  5
89
330
86
100
AcDbEntity
  8
Default
  6
CENTER2
 62
     7
100
AcDbLine
 10
113.2099367852
 20
140.3472802155
 30
0.0
 11
113.2099367852
 21
100.3472811096
 31
0.0
  0
ENDBLK
  5
8B
330
86
100
AcDbEntity
  8
0
100
AcDbBlockEnd
  0
BLOCK
  5
203
330
8C
100
AcDbEntity
  8
0
100
AcDbBlockBegin
  2
SE
 70
     0
 10
0.0
 20
0.0
 30
0.0
  3
SE
  1

  0
SPLINE
  5
8F
330
8C
100
AcDbEntity
  8
$DDT_AUDIT_GENERATED_(8E)
  6
Continuous
 62
     7
100
AcDbSpline
210
0.0
220
0.0
230
1.0
 70
     8
 71
     3
 72
    40
 73
    36
 74
     0
 42
0.0000000000912134
 43
0.0000000001
 40
0.1118834722967919
 40
0.1118834722967919
 40
0.1118834722967919
 40
0.1118834722967919
 40
0.1183338632662271
 40
0.1372443335660539
 40
0.1566211563458099
 40
0.1767790178609623
 40
0.2062651954156288
 40
0.2375134774051237
 40
0.2532493959242036
 40
0.2688218972885675
 40
0.2852933448026726
 40
0.3008098189860032
 40
0.3183434201665061
 40
0.3343465706595449
 40
0.3465241810214948
 40
0.3583408469420422
 40
0.3700372909195564
 40
0.3819427841782736
 40
0.3944626228220452
 40
0.4078029762671819
 40
0.4221345748261013
 40
0.437595253588617
 40
0.4498595768161648
 40
0.4622176870613777
 40
0.4747042486818344
 40
0.4873528651647364
 40
0.5001958629615669
 40
0.5160497441991122
 40
0.5313287633884451
 40
0.5461119733739856
 40
0.5604866093412502
 40
0.5754214293356158
 40
0.5899807254150115
 40
0.6043054071933134
 40
0.6118766365027393
 40
0.6118766365027393
 40
0.6118766365027393
 40
0.6118766365027393
 10
136.3312220425852
 20
567.275503669755
 30
0.0
 10
136.3312396155272
 20
567.2755098308786
 30
0.0
 10
136.3010332877742
 20
567.2487386724845
 30
0.0
 10
136.037237349249
 20
567.015186960525
 30
0.0
 10
135.3031326584182
 20
566.3684295695774
 30
0.0
 10
134.0190929622439
 20
565.2508223120883
 30
0.0
 10
132.0096084231987
 20
563.5253516176981
 30
0.0
 10
129.6560936194916
 20
561.6003676338551
 30
0.0
 10
127.5170972225929
 20
559.9428232281045
 30
0.0
 10
125.7720097977899
 20
558.663696899359
 30
0.0
 10
123.9265930405612
 20
557.4064066748681
 30
0.0
 10
121.8814746493399
 20
556.1632994906554
 30
0.0
 10
119.7180602452495
 20
555.0578413507778
 30
0.0
 10
117.5582270119356
 20
554.2428799365864
 30
0.0
 10
115.5730346965749
 20
553.7730156940397
 30
0.0
 10
113.7527147939271
 20
553.5792656360877
 30
0.0
 10
111.9341410452509
 20
553.6266944791618
 30
0.0
 10
110.1081342634298
 20
553.9211187893296
 30
0.0
 10
108.2645308425643
 20
554.4547080194118
 30
0.0
 10
106.394731009934
 20
555.216805361349
 30
0.0
 10
104.4977826664224
 20
556.1910557595202
 30
0.0
 10
102.7574706280304
 20
557.2451400239921
 30
0.0
 10
101.1814624523851
 20
558.2925524217652
 30
0.0
 10
99.78852163782794
 20
559.280275186243
 30
0.0
 10
98.45193026901993
 20
560.2824339875513
 30
0.0
 10
97.17155367022498
 20
561.285467596844
 30
0.0
 10
95.85819080488079
 20
562.3451294419945
 30
0.0
 10
94.56053296024363
 20
563.4141108273033
 30
0.0
 10
93.34298079868222
 20
564.4417020636128
 30
0.0
 10
92.31261820290749
 20
565.3275439199452
 30
0.0
 10
91.45243562574234
 20
566.0760974748706
 30
0.0
 10
90.77977225157557
 20
566.6652490916296
 30
0.0
 10
90.31791961228481
 20
567.0726943269751
 30
0.0
 10
90.11941292028037
 20
567.2483244519973
 30
0.0
 10
90.08867533187612
 20
567.2754958000814
 30
0.0
 10
90.08865474829919
 20
567.2755026055243
 30
0.0
  0
SPLINE
  5
90
330
8C
100
AcDbEntity
  8
$DDT_AUDIT_GENERATED_(8E)
  6
Continuous
 62
     7
100
AcDbSpline
210
0.0
220
0.0
230
1.0
 70
     8
 71
     3
 72
    15
 73
    11
 74
     0
 42
0.0000000001437884
 43
0.0000000001
 40
0.0
 40
0.0
 40
0.0
 40
0.0
 40
0.0158683545929425
 40
0.0311627772492385
 40
0.0459617827564971
 40
0.0603519973078487
 40
0.0752447189769988
 40
0.0897579256779651
 40
0.1040302145812357
 40
0.1124816989020999
 40
0.1124816989020999
 40
0.1124816989020999
 40
0.1124816989020999
 10
130.3791725582867
 20
524.3506913392159
 30
0.0
 10
130.8693074969466
 20
523.952267805915
 30
0.0
 10
131.7931984908727
 20
523.1921639278834
 30
0.0
 10
133.0192061428799
 20
522.1584747176771
 30
0.0
 10
134.0585633753725
 20
521.265550579028
 30
0.0
 10
134.9273488072143
 20
520.5099027830181
 30
0.0
 10
135.6090398531664
 20
519.9130855812724
 30
0.0
 10
136.0813081325431
 20
519.4965758942299
 30
0.0
 10
136.2955920479408
 20
519.3070066002174
 30
0.0
 10
136.3312076158567
 20
519.2755151557376
 30
0.0
 10
136.3312304573582
 20
519.2755061907985
 30
0.0
  0
SPLINE
  5
91
330
8C
100
AcDbEntity
  8
$DDT_AUDIT_GENERATED_(8E)
  6
Continuous
 62
     7
100
AcDbSpline
210
0.0
220
0.0
230
1.0
 70
     8
 71
     3
 72
    32
 73
    28
 74
     0
 42
0.0000000000824632
 43
0.0000000001
 40
0.6124813826007677
 40
0.6124813826007677
 40
0.6124813826007677
 40
0.6124813826007677
 40
0.6184291820035313
 40
0.6372482157272863
 40
0.6565200430842328
 40
0.6765562126344525
 40
0.7060248731372727
 40
0.737276062863423
 40
0.7529377874355595
 40
0.7684563880817458
 40
0.7849294488819955
 40
0.8004693897849299
 40
0.8179628378797431
 40
0.8339290044154054
 40
0.8461750618243156
 40
0.8580350957241212
 40
0.8697499695202091
 40
0.8817128390051014
 40
0.8942814605938373
 40
0.9076686370415072
 40
0.92205080872084
 40
0.937570422888612
 40
0.9497836934376563
 40
0.962099277477075
 40
0.9745517700534553
 40
0.9871746356509925
 40
1.0
 40
1.0
 40
1.0
 40
1.0
 10
90.0886463533469
 20
519.2755074120421
 30
0.0
 10
90.08863006608117
 20
519.2755012257732
 30
0.0
 10
90.11582972564175
 20
519.299608482072
 30
0.0
 10
90.3666884875742
 20
519.52171431636
 30
0.0
 10
91.08434157894418
 20
520.1541213194103
 30
0.0
 10
92.3489870081739
 20
521.2554044916255
 30
0.0
 10
94.3404371562213
 20
522.9667553262118
 30
0.0
 10
96.68047048214407
 20
524.883660694886
 30
0.0
 10
98.80709379629269
 20
526.535638077978
 30
0.0
 10
100.5410983234838
 20
527.8113250274703
 30
0.0
 10
102.3785841950394
 20
529.0700077880615
 30
0.0
 10
104.4154967800571
 20
530.3180215171643
 30
0.0
 10
106.5679741228993
 20
531.4320227528777
 30
0.0
 10
108.7187279437633
 20
532.2625939857784
 30
0.0
 10
110.7016981493342
 20
532.7523222750483
 30
0.0
 10
112.5260349218282
 20
532.9654934500422
 30
0.0
 10
114.3512150980543
 20
532.9366708671095
 30
0.0
 10
116.1868959513486
 20
532.6578754633147
 30
0.0
 10
118.0429949507907
 20
532.1353634267447
 30
0.0
 10
119.9253021431952
 20
531.3803309823496
 30
0.0
 10
121.8347672998743
 20
530.4091802325646
 30
0.0
 10
123.5820587285871
 20
529.3569983115309
 30
0.0
 10
125.1605745841286
 20
528.3121324592825
 30
0.0
 10
126.552458041126
 20
527.3284092836657
 30
0.0
 10
127.8893763047923
 20
526.3286556623788
 30
0.0
 10
129.1714832721807
 20
525.3264070981207
 30
0.0
 10
129.9830281986637
 20
524.6727113035341
 30
0.0
 10
130.3791725582867
 20
524.3506913392159
 30
0.0
  0
LINE
  5
92
330
8C
100
AcDbEntity
  8
$DDT_AUDIT_GENERATED_(8E)
  6
Continuous
 62
     7
100
AcDbLine
 10
77.2099367852
 20
519.4755060056
 30
0.0
 11
77.2099367852
 21
567.0755060056
 31
0.0
  0
LINE
  5
93
330
8C
100
AcDbEntity
  8
$DDT_AUDIT_GENERATED_(8E)
  6
Continuous
 62
     7
100
AcDbLine
 10
180.2099367852
 20
519.4755060056
 30
0.0
 11
180.2099367852
 21
567.0755060056
 31
0.0
  0
LINE
  5
94
330
8C
100
AcDbEntity
  8
$DDT_AUDIT_GENERATED_(8E)
  6
Continuous
 62
     7
100
AcDbLine
 10
92.4099367852
 20
605.7755060056
 30
0.0
 11
134.0099367852
 21
605.7755060056
 31
0.0
  0
LINE
  5
95
330
8C
100
AcDbEntity
  8
$DDT_AUDIT_GENERATED_(8E)
  6
Continuous
 62
     7
100
AcDbLine
 10
90.0991048385
 20
567.2755060056
 30
0.0
 11
77.4099367852
 21
567.2755060056
 31
0.0
  0
LINE
  5
96
330
8C
100
AcDbEntity
  8
$DDT_AUDIT_GENERATED_(8E)
  6
Continuous
 62
     7
100
AcDbLine
 10
180.0099367852
 20
567.2755060056
 30
0.0
 11
136.3203853026
 21
567.2755060056
 31
0.0
  0
LINE
  5
97
330
8C
100
AcDbEntity
  8
$DDT_AUDIT_GENERATED_(8E)
  6
Continuous
 62
     7
100
AcDbLine
 10
136.3193913561
 20
519.2755060056
 30
0.0
 11
180.0099367852
 21
519.2755060056
 31
0.0
  0
LINE
  5
98
330
8C
100
AcDbEntity
  8
$DDT_AUDIT_GENERATED_(8E)
  6
Continuous
 62
     7
100
AcDbLine
 10
77.4099367852
 20
519.2755060056
 30
0.0
 11
90.1002544899
 21
519.2755060056
 31
0.0
  0
LINE
  5
99
330
8C
100
AcDbEntity
  8
$DDT_AUDIT_GENERATED_(8E)
  6
Continuous
 62
     7
100
AcDbLine
 10
134.2099367852
 20
569.3871655147
 30
0.0
 11
134.2099367852
 21
605.5755060056
 31
0.0
  0
LINE
  5
9A
330
8C
100
AcDbEntity
  8
$DDT_AUDIT_GENERATED_(8E)
  6
Continuous
 62
     7
100
AcDbLine
 10
92.2099367852
 20
605.5755060056
 30
0.0
 11
92.2099367852
 21
569.3871770204
 31
0.0
  0
LINE
  5
9B
330
8C
100
AcDbEntity
  8
$DDT_AUDIT_GENERATED_(8E)
  6
Continuous
 62
     7
100
AcDbLine
 10
134.2099367852
 20
463.5755060056
 30
0.0
 11
134.2099367852
 21
517.1646931433
 31
0.0
  0
LINE
  5
9C
330
8C
100
AcDbEntity
  8
$DDT_AUDIT_GENERATED_(8E)
  6
Continuous
 62
     7
100
AcDbLine
 10
92.2099367852
 20
517.1645009535
 30
0.0
 11
92.2099367852
 21
463.5755060056
 31
0.0
  0
ARC
  5
9D
330
8C
100
AcDbEntity
  8
$DDT_AUDIT_GENERATED_(8E)
  6
Continuous
 62
     7
100
AcDbCircle
 10
90.0890406733
 20
569.3964236121
 30
0.0
 40
2.121339638646349
100
AcDbArc
 50
270.0005380287
 51
359.9995027828
  0
ARC
  5
9E
330
8C
100
AcDbEntity
  8
$DDT_AUDIT_GENERATED_(8E)
  6
Continuous
 62
     7
100
AcDbCircle
 10
136.3312680519
 20
569.3968015412
 30
0.0
 40
2.121223373646197
100
AcDbArc
 50
179.9975094841
 51
270.0027736474
  0
ARC
  5
9F
330
8C
100
AcDbEntity
  8
$DDT_AUDIT_GENERATED_(8E)
  6
Continuous
 62
     7
100
AcDbCircle
 10
136.331257133
 20
517.1542144169
 30
0.0
 40
2.121240563738849
100
AcDbArc
 50
89.99771943
 51
180.0020502182
  0
ARC
  5
A0
330
8C
100
AcDbEntity
  8
$DDT_AUDIT_GENERATED_(8E)
  6
Continuous
 62
     7
100
AcDbCircle
 10
90.0889765286
 20
517.154527333
 30
0.0
 40
2.121333070126657
100
AcDbArc
 50
0.0003241276
 51
89.99964156
  0
ARC
  5
A1
330
8C
100
AcDbEntity
  8
$DDT_AUDIT_GENERATED_(8E)
  6
Continuous
 62
     7
100
AcDbCircle
 10
77.4099367852
 20
567.0755060056
 30
0.0
 40
0.1999999999999988
100
AcDbArc
 50
90.0
 51
180.0
  0
ARC
  5
A2
330
8C
100
AcDbEntity
  8
$DDT_AUDIT_GENERATED_(8E)
  6
Continuous
 62
     7
100
AcDbCircle
 10
77.4099367852
 20
519.4755060056
 30
0.0
 40
0.2000000000000057
100
AcDbArc
 50
180.0
 51
270.0
  0
ARC
  5
A3
330
8C
100
AcDbEntity
  8
$DDT_AUDIT_GENERATED_(8E)
  6
Continuous
 62
     7
100
AcDbCircle
 10
180.0099367852
 20
519.4755060056
 30
0.0
 40
0.1999999999999988
100
AcDbArc
 50
270.0
 51
0.0
  0
ARC
  5
A4
330
8C
100
AcDbEntity
  8
$DDT_AUDIT_GENERATED_(8E)
  6
Continuous
 62
     7
100
AcDbCircle
 10
180.0099367852
 20
567.0755060056
 30
0.0
 40
0.2000000000000057
100
AcDbArc
 50
0.0
 51
90.0
  0
ARC
  5
A5
330
8C
100
AcDbEntity
  8
$DDT_AUDIT_GENERATED_(8E)
  6
Continuous
 62
     7
100
AcDbCircle
 10
134.0099367852
 20
605.5755060056
 30
0.0
 40
0.1999999999999988
100
AcDbArc
 50
0.0
 51
90.0
  0
ARC
  5
A6
330
8C
100
AcDbEntity
  8
$DDT_AUDIT_GENERATED_(8E)
  6
Continuous
 62
     7
100
AcDbCircle
 10
92.4099367852
 20
605.5755060056
 30
0.0
 40
0.1999999999999988
100
AcDbArc
 50
90.0
 51
180.0
  0
ELLIPSE
  5
A8
330
8C
100
AcDbEntity
  8
$DDT_AUDIT_GENERATED_(A7)
  6
Continuous
 62
     7
100
AcDbEllipse
 10
113.2099367852
 20
723.0442118225
 30
0.0
 11
15.0
 21
0.0
 31
0.0
210
0.0
220
0.0
230
1.0
 40
0.0871557427
 41
5.737775633017169
 42
6.283185307179586
  0
ELLIPSE
  5
A9
330
8C
100
AcDbEntity
  8
$DDT_AUDIT_GENERATED_(A7)
  6
Continuous
 62
     7
100
AcDbEllipse
 10
113.2099367852
 20
723.0442118225
 30
0.0
 11
15.0
 21
0.0
 31
0.0
210
0.0
220
0.0
230
1.0
 40
0.0871557427
 41
0.0
 42
3.687002327752218
  0
ELLIPSE
  5
AA
330
8C
100
AcDbEntity
  8
$DDT_AUDIT_GENERATED_(A7)
  6
Continuous
 62
     7
100
AcDbEllipse
 10
113.2099367852
 20
723.0442118225
 30
0.0
 11
14.00850000000012
 21
0.0
 31
0.0
210
0.0
220
0.0
230
1.0
 40
0.0871557427
 41
5.856063185961758
 42
6.283185307179586
  0
ELLIPSE
  5
AB
330
8C
100
AcDbEntity
  8
$DDT_AUDIT_GENERATED_(A7)
  6
Continuous
 62
     7
100
AcDbEllipse
 10
113.2099367852
 20
723.0442118225
 30
0.0
 11
14.00850000000012
 21
0.0
 31
0.0
210
0.0
220
0.0
230
1.0
 40
0.0871557427
 41
0.0
 42
3.568714774807632
  0
ELLIPSE
  5
AC
330
8C
100
AcDbEntity
  8
$DDT_AUDIT_GENERATED_(A7)
  6
Continuous
 62
     7
100
AcDbEllipse
 10
113.2099367852
 20
723.5921189065
 30
0.0
 11
-13.45850000000002
 21
0.0
 31
0.0
210
0.0
220
0.0
230
1.0
 40
0.0871557427
 41
0.1447812992355324
 42
0.3259196009943799
  0
ELLIPSE
  5
AD
330
8C
100
AcDbEntity
  8
$DDT_AUDIT_GENERATED_(A7)
  6
Continuous
 62
     7
100
AcDbEllipse
 10
113.2099367852
 20
723.5921189065
 30
0.0
 11
-13.45850000000002
 21
0.0
 31
0.0
210
0.0
220
0.0
230
1.0
 40
0.0871557427
 41
-3.467512254584163
 42
-3.286373952825318
  0
LINE
  5
AE
330
8C
100
AcDbEntity
  8
$DDT_AUDIT_GENERATED_(A7)
  6
Continuous
 62
     7
100
AcDbLine
 10
98.2099367852
 20
749.443371322
 30
0.0
 11
98.2099367852
 21
723.0442118225
 31
0.0
  0
LINE
  5
AF
330
8C
100
AcDbEntity
  8
$DDT_AUDIT_GENERATED_(A7)
  6
Continuous
 62
     7
100
AcDbLine
 10
128.2099367852
 20
723.0442118225
 30
0.0
 11
128.2099367852
 21
749.443371322
 31
0.0
  0
ARC
  5
B0
330
8C
100
AcDbEntity
  8
$DDT_AUDIT_GENERATED_(A7)
  6
Continuous
 62
     7
100
AcDbCircle
 10
113.2099367852
 20
851.2255060056
 30
0.0
 40
15.0
100
AcDbArc
 50
0.0
 51
180.0
  0
LINE
  5
B1
330
8C
100
AcDbEntity
  8
$DDT_AUDIT_GENERATED_(A7)
  6
Continuous
 62
     7
100
AcDbLine
 10
128.2099367852
 20
749.443371322
 30
0.0
 11
128.2099367852
 21
851.2255060056
 31
0.0
  0
LINE
  5
B2
330
8C
100
AcDbEntity
  8
$DDT_AUDIT_GENERATED_(A7)
  6
Continuous
 62
     7
100
AcDbLine
 10
98.2099367852
 20
851.2255060056
 30
0.0
 11
98.2099367852
 21
749.443371322
 31
0.0
  0
LINE
  5
B3
330
8C
100
AcDbEntity
  8
$DDT_AUDIT_GENERATED_(A7)
  6
Continuous
 62
     7
100
AcDbLine
 10
128.2099367852
 20
609.0255060056
 30
0.0
 11
128.2099367852
 21
723.0442118225
 31
0.0
  0
LINE
  5
B4
330
8C
100
AcDbEntity
  8
$DDT_AUDIT_GENERATED_(A7)
  6
Continuous
 62
     7
100
AcDbLine
 10
98.2099367852
 20
723.0442118225
 30
0.0
 11
98.2099367852
 21
609.0255060056
 31
0.0
  0
LINE
  5
B6
330
8C
100
AcDbEntity
  8
$DDT_AUDIT_GENERATED_(B5)
  6
Continuous
 62
     7
100
AcDbLine
 10
92.4099367852
 20
609.0255060056
 30
0.0
 11
134.0099367852
 21
609.0255060056
 31
0.0
  0
LINE
  5
B7
330
8C
100
AcDbEntity
  8
$DDT_AUDIT_GENERATED_(B5)
  6
Continuous
 62
     7
100
AcDbLine
 10
134.0099367852
 20
606.2755060056
 30
0.0
 11
92.4099367852
 21
606.2755060056
 31
0.0
  0
LINE
  5
B8
330
8C
100
AcDbEntity
  8
$DDT_AUDIT_GENERATED_(B5)
  6
Continuous
 62
     7
100
AcDbLine
 10
134.2099367852
 20
606.4755060056
 30
0.0
 11
134.2099367852
 21
608.8255060056
 31
0.0
  0
LINE
  5
B9
330
8C
100
AcDbEntity
  8
$DDT_AUDIT_GENERATED_(B5)
  6
Continuous
 62
     7
100
AcDbLine
 10
92.2099367852
 20
608.8255060056
 30
0.0
 11
92.2099367852
 21
606.4755060056
 31
0.0
  0
ARC
  5
BA
330
8C
100
AcDbEntity
  8
$DDT_AUDIT_GENERATED_(B5)
  6
Continuous
 62
     7
100
AcDbCircle
 10
134.0099367852
 20
608.8255060056
 30
0.0
 40
0.1999999999999988
100
AcDbArc
 50
0.0
 51
90.0
  0
ARC
  5
BB
330
8C
100
AcDbEntity
  8
$DDT_AUDIT_GENERATED_(B5)
  6
Continuous
 62
     7
100
AcDbCircle
 10
92.4099367852
 20
608.8255060056
 30
0.0
 40
0.1999999999999919
100
AcDbArc
 50
90.0
 51
180.0
  0
ARC
  5
BC
330
8C
100
AcDbEntity
  8
$DDT_AUDIT_GENERATED_(B5)
  6
Continuous
 62
     7
100
AcDbCircle
 10
134.0099367852
 20
606.4755060056
 30
0.0
 40
0.2000000000000057
100
AcDbArc
 50
270.0
 51
0.0
  0
ARC
  5
BD
330
8C
100
AcDbEntity
  8
$DDT_AUDIT_GENERATED_(B5)
  6
Continuous
 62
     7
100
AcDbCircle
 10
92.4099367852
 20
606.4755060056
 30
0.0
 40
0.1999999999999988
100
AcDbArc
 50
180.0
 51
270.0
  0
SPLINE
  5
BF
330
8C
100
AcDbEntity
  8
$DDT_AUDIT_GENERATED_(BE)
  6
Continuous
 62
     7
100
AcDbSpline
210
0.0
220
0.0
230
1.0
 70
     8
 71
     3
 72
    26
 73
    22
 74
     0
 42
0.0000000011805095
 43
0.0000000001
 40
0.0
 40
0.0
 40
0.0
 40
0.0
 40
0.0000945478691975
 40
0.0286402564880278
 40
0.0571859651068582
 40
0.0857316737256885
 40
0.1142773823453463
 40
0.1428230909641766
 40
0.171368799583007
 40
0.199914508201837
 40
0.2284602168214951
 40
0.2570059254403254
 40
0.2855516340591555
 40
0.3140973426779862
 40
0.3426430512976435
 40
0.3711887599164739
 40
0.3997344685353046
 40
0.4282801771541346
 40
0.456825885772965
 40
0.4853715943926227
 40
0.5014646933345173
 40
0.5014646933345173
 40
0.5014646933345173
 40
0.5014646933345173
 10
200.8266162394906
 20
631.1015190162781
 30
0.0
 10
200.8270071724298
 20
631.1014965331807
 30
0.0
 10
200.944747258912
 20
631.1049520607389
 30
0.0
 10
201.1864491940291
 20
631.1139220557268
 30
0.0
 10
201.5416269216217
 20
631.1380659524624
 30
0.0
 10
201.8921662741856
 20
631.1709805480604
 30
0.0
 10
202.2331943617203
 20
631.2129147351799
 30
0.0
 10
202.5629745620767
 20
631.262760611254
 30
0.0
 10
202.8784008187911
 20
631.3199286419788
 30
0.0
 10
203.1772392592716
 20
631.3833492352467
 30
0.0
 10
203.4570375181209
 20
631.4520717186862
 30
0.0
 10
203.7156897524949
 20
631.5249626599209
 30
0.0
 10
203.9512347764618
 20
631.6009487402285
 30
0.0
 10
204.1616470996939
 20
631.6788035505588
 30
0.0
 10
204.3454103411628
 20
631.7574508234886
 30
0.0
 10
204.5009687403459
 20
631.8357432930746
 30
0.0
 10
204.6271521057763
 20
631.9126850887703
 30
0.0
 10
204.7227761801792
 20
631.9872191306424
 30
0.0
 10
204.7870931503378
 20
632.0584796687343
 30
0.0
 10
204.8148277914285
 20
632.1159201513597
 30
0.0
 10
204.8186440829288
 20
632.1490375023301
 30
0.0
 10
204.8183170852009
 20
632.16071228955
 30
0.0
  0
SPLINE
  5
C0
330
8C
100
AcDbEntity
  8
$DDT_AUDIT_GENERATED_(BE)
  6
Continuous
 62
     7
100
AcDbSpline
210
0.0
220
0.0
230
1.0
 70
     8
 71
     3
 72
     8
 73
     4
 74
     0
 42
0.000000000809405
 43
0.0000000001
 40
0.5012593001425992
 40
0.5012593001425992
 40
0.5012593001425992
 40
0.5012593001425992
 40
0.5013402406453917
 40
0.5013402406453917
 40
0.5013402406453917
 40
0.5013402406453917
 10
186.8246029813641
 20
631.6902795883472
 30
0.0
 10
186.8246044675945
 20
631.6902204694367
 30
0.0
 10
186.8246059971867
 20
631.6901613461328
 30
0.0
 10
186.8246075701406
 20
631.6901022184371
 30
0.0
  0
SPLINE
  5
C1
330
8C
100
AcDbEntity
  8
$DDT_AUDIT_GENERATED_(BE)
  6
Continuous
 62
     7
100
AcDbSpline
210
0.0
220
0.0
230
1.0
 70
     8
 71
     3
 72
    24
 73
    20
 74
     0
 42
0.0000000011838396
 43
0.0000000001
 40
0.5013402406453917
 40
0.5013402406453917
 40
0.5013402406453917
 40
0.5013402406453917
 40
0.5138713727768622
 40
0.5424197823753929
 40
0.570968191974751
 40
0.5995166015732817
 40
0.6280650111718123
 40
0.656613420770343
 40
0.6851618303697012
 40
0.7137102399682318
 40
0.7422586495667626
 40
0.7708070591652934
 40
0.799355468763824
 40
0.8279038783631821
 40
0.8564522879617128
 40
0.8850006975602434
 40
0.9135491071587742
 40
0.9706459263566628
 40
1.0
 40
1.0
 40
1.0
 40
1.0
 10
186.8246075701406
 20
631.6901022184371
 30
0.0
 10
186.8248510933757
 20
631.6809481244984
 30
0.0
 10
186.8290565558171
 20
631.6505941144827
 30
0.0
 10
186.8551170310805
 20
631.5973586892018
 30
0.0
 10
186.919254222985
 20
631.5294660102251
 30
0.0
 10
187.0149145676626
 20
631.4599044436886
 30
0.0
 10
187.1413222145915
 20
631.3894992228013
 30
0.0
 10
187.2973002163019
 20
631.319240677683
 30
0.0
 10
187.4815926461957
 20
631.2500720959138
 30
0.0
 10
187.6927249042124
 20
631.1830411417898
 30
0.0
 10
187.9289358482377
 20
631.1191772280305
 30
0.0
 10
188.1885633472267
 20
631.0595420942122
 30
0.0
 10
188.468868960975
 20
631.0052135927305
 30
0.0
 10
188.7690713558358
 20
630.9570305091831
 30
0.0
 10
189.0842064114838
 20
630.916144593667
 30
0.0
 10
189.416436179991
 20
630.8829406899501
 30
0.0
 10
189.8682663462141
 20
630.8507636314927
 30
0.0
 10
190.3508100183013
 20
630.8358925415902
 30
0.0
 10
190.7092003254462
 20
630.8411195016835
 30
0.0
 10
190.8300374201504
 20
630.843752158395
 30
0.0
  0
LINE
  5
C2
330
8C
100
AcDbEntity
  8
$DDT_AUDIT_GENERATED_(BE)
  6
Continuous
 62
     7
100
AcDbLine
 10
190.8300374134
 20
630.843776862
 30
0.0
 11
200.8266162327
 21
631.1015534614
 31
0.0
  0
SPLINE
  5
C3
330
8C
100
AcDbEntity
  8
$DDT_AUDIT_GENERATED_(BE)
  6
Continuous
 62
     7
100
AcDbSpline
210
0.0
220
0.0
230
1.0
 70
     8
 71
     3
 72
    31
 73
    27
 74
     0
 42
0.0000000011677146
 43
0.0000000001
 40
0.0
 40
0.0
 40
0.0
 40
0.0
 40
0.0624999999999999
 40
0.0624999999999999
 40
0.0937500000000002
 40
0.0937500000000002
 40
0.1250000000000006
 40
0.1250000000000006
 40
0.1875000000000014
 40
0.1875000000000014
 40
0.2187500000000015
 40
0.2187500000000015
 40
0.2500000000000016
 40
0.2500000000000016
 40
0.3125000000000016
 40
0.3125000000000016
 40
0.3437500000000014
 40
0.3437500000000014
 40
0.3750000000000012
 40
0.4062500000000011
 40
0.4062500000000011
 40
0.4375000000000009
 40
0.4375000000000009
 40
0.5000000000000004
 40
0.5000000000000004
 40
0.501730901622703
 40
0.501730901622703
 40
0.501730901622703
 40
0.501730901622703
 10
202.5296066548613
 20
567.0548865219815
 30
0.0
 10
202.7945013952678
 20
567.0617145027642
 30
0.0
 10
203.0546796563828
 20
567.0784018665706
 30
0.0
 10
203.4382090547142
 20
567.1171067416623
 30
0.0
 10
203.5649212643526
 20
567.1322957930049
 30
0.0
 10
203.8160462217748
 20
567.1671565843143
 30
0.0
 10
203.9406392411487
 20
567.1868905693768
 30
0.0
 10
204.3027368614595
 20
567.2511518904288
 30
0.0
 10
204.5314904375734
 20
567.301057245345
 30
0.0
 10
204.8560502890882
 20
567.3844859626249
 30
0.0
 10
204.9616157989004
 20
567.4138840806597
 30
0.0
 10
205.1637937863691
 20
567.4745215486544
 30
0.0
 10
205.2600461494503
 20
567.5056246287998
 30
0.0
 10
205.5347627245494
 20
567.600664986664
 30
0.0
 10
205.6993255896005
 20
567.6663209278214
 30
0.0
 10
205.9176070478695
 20
567.7661463942994
 30
0.0
 10
205.9851325702817
 20
567.7994722762928
 30
0.0
 10
206.1077725067253
 20
567.8648319238879
 30
0.0
 10
206.2187084341958
 20
567.9292185613265
 30
0.0
 10
206.3064942291862
 20
567.9911147285839
 30
0.0
 10
206.3824889528532
 20
568.0515072017433
 30
0.0
 10
206.4147183611621
 20
568.0811130730226
 30
0.0
 10
206.4916309600501
 20
568.1658233827384
 30
0.0
 10
206.5171122442425
 20
568.2168886348007
 30
0.0
 10
206.5173315729778
 20
568.2636248992853
 30
0.0
 10
206.5173174398506
 20
568.2648802568788
 30
0.0
 10
206.5172832892595
 20
568.266131481165
 30
0.0
  0
LINE
  5
C4
330
8C
100
AcDbEntity
  8
$DDT_AUDIT_GENERATED_(BE)
  6
Continuous
 62
     7
100
AcDbLine
 10
192.533033405
 20
566.7970951886
 30
0.0
 11
202.5296066548
 21
567.0548878051
 31
0.0
  0
SPLINE
  5
C5
330
8C
100
AcDbEntity
  8
$DDT_AUDIT_GENERATED_(BE)
  6
Continuous
 62
     7
100
AcDbSpline
210
0.0
220
0.0
230
1.0
 70
     8
 71
     3
 72
    27
 73
    23
 74
     0
 42
0.0000000011689882
 43
0.0000000001
 40
0.5017309396918094
 40
0.5017309396918094
 40
0.5017309396918094
 40
0.5017309396918094
 40
0.5625000000000032
 40
0.5625000000000032
 40
0.6250000000000034
 40
0.6250000000000034
 40
0.6562500000000036
 40
0.6562500000000036
 40
0.6875000000000037
 40
0.7187500000000037
 40
0.7187500000000037
 40
0.7500000000000037
 40
0.7500000000000037
 40
0.8125000000000033
 40
0.8125000000000033
 40
0.8437500000000029
 40
0.8437500000000029
 40
0.8750000000000024
 40
0.8750000000000024
 40
0.9375000000000013
 40
0.9375000000000013
 40
1.0
 40
1.0
 40
1.0
 40
1.0
 10
188.5235357656287
 20
567.7956876357313
 30
0.0
 10
188.5247479211276
 20
567.7512633885157
 30
0.0
 10
188.5509039715892
 20
567.7017616349194
 30
0.0
 10
188.6522093267844
 20
567.5962979478419
 30
0.0
 10
188.728233167295
 20
567.5399355557958
 30
0.0
 10
188.8795589224265
 20
567.4522533927502
 30
0.0
 10
188.9365132294545
 20
567.4224124503615
 30
0.0
 10
189.0606009151691
 20
567.3632443680812
 30
0.0
 10
189.1953002932516
 20
567.3042990555193
 30
0.0
 10
189.3508009857057
 20
567.2464319530209
 30
0.0
 10
189.5168045455311
 20
567.1894615155088
 30
0.0
 10
189.6054563461352
 20
567.1613094343024
 30
0.0
 10
189.8849908161927
 20
567.0796385263658
 30
0.0
 10
190.0867206279933
 20
567.0295687063589
 30
0.0
 10
190.4118216708069
 20
566.9630383729625
 30
0.0
 10
190.5239675641125
 20
566.9422967890931
 30
0.0
 10
190.756067042503
 20
566.9041185581232
 30
0.0
 10
190.8758146275511
 20
566.8867491120426
 30
0.0
 10
191.2388502389023
 20
566.8412286246233
 30
0.0
 10
191.4884188447041
 20
566.8191906646357
 30
0.0
 10
192.0027823592238
 20
566.7936015380016
 30
0.0
 10
192.2681367816819
 20
566.7902446863385
 30
0.0
 10
192.5330335427296
 20
566.797085104924
 30
0.0
  0
ELLIPSE
  5
C6
330
8C
100
AcDbEntity
  8
$DDT_AUDIT_GENERATED_(BE)
  6
Continuous
 62
     7
100
AcDbEllipse
 10
183.7603600084
 20
543.5400028872
 30
0.0
 11
-15.37543668698454
 21
23.58130615690117
 31
0.0
210
0.0
220
0.0
230
0.9999999999999998
 40
0.0814863754
 41
-3.191874745199319
 42
-3.191735960042016
  0
ELLIPSE
  5
C7
330
8C
100
AcDbEntity
  8
$DDT_AUDIT_GENERATED_(BE)
  6
Continuous
 62
     7
100
AcDbEllipse
 10
182.1672274872
 20
543.4989190287
 30
0.0
 11
0.613552930213826
 21
-23.79209650856562
 31
0.0
210
0.0
220
0.0
230
1.0
 40
0.0045455794
 41
4.213402284811074
 42
4.771206765557825
  0
ELLIPSE
  5
C8
330
8C
100
AcDbEntity
  8
$DDT_AUDIT_GENERATED_(BE)
  6
Continuous
 62
     7
100
AcDbEllipse
 10
182.1672274872
 20
543.4989190287
 30
0.0
 11
0.613552930213826
 21
-23.79209650856562
 31
0.0
210
0.0
220
0.0
230
1.0
 40
0.0045455794
 41
4.109930628122937
 42
4.136130765258345
  0
SPLINE
  5
C9
330
8C
100
AcDbEntity
  8
$DDT_AUDIT_GENERATED_(BE)
  6
Continuous
 62
     7
100
AcDbSpline
210
0.0
220
0.0
230
1.0
 70
     8
 71
     3
 72
    69
 73
    65
 74
     0
 42
0.0000000002008605
 43
0.0000000001
 40
0.0
 40
0.0
 40
0.0
 40
0.0
 40
0.0087163031152595
 40
0.0133780368386721
 40
0.0213853530093466
 40
0.0290887562920315
 40
0.0339847244253096
 40
0.0391419106523154
 40
0.0464563258899088
 40
0.0543661780196542
 40
0.0622693914839
 40
0.0711900680192911
 40
0.0834315609110486
 40
0.0960473783455313
 40
0.1104040978374701
 40
0.1234487829962772
 40
0.1326406058729192
 40
0.1488401825444791
 40
0.1728399716945132
 40
0.1938806950844688
 40
0.2219977893950531
 40
0.2481088971460695
 40
0.2659536563324844
 40
0.2785917915739877
 40
0.2980679831974922
 40
0.3245638574521057
 40
0.3470176433830305
 40
0.3763237521945321
 40
0.4042959615213128
 40
0.4263073122256361
 40
0.443504054613298
 40
0.4659519932363981
 40
0.4923363635082387
 40
0.5174726601541263
 40
0.5361724049740403
 40
0.5608711375318098
 40
0.6034432936114621
 40
0.6371536912917151
 40
0.6625885340452631
 40
0.6802979897277588
 40
0.702993264383668
 40
0.7258236535399942
 40
0.7416961764362736
 40
0.7528704085423049
 40
0.7728039190830982
 40
0.7991779424316592
 40
0.8241711739575677
 40
0.8484440915639364
 40
0.8668636113273653
 40
0.884929597838273
 40
0.9002681217021677
 40
0.9089122585701683
 40
0.9209022400315008
 40
0.9321108521586631
 40
0.938984085330879
 40
0.943460005579561
 40
0.948897337043825
 40
0.9571118252799677
 40
0.9625033570146152
 40
0.9677376960270365
 40
0.9731989375046496
 40
0.9802107274813023
 40
0.989827362962351
 40
1.0
 40
1.0
 40
1.0
 40
1.0
 10
213.2754840966868
 20
520.2931864326233
 30
0.0
 10
213.509927312318
 20
520.3014049259589
 30
0.0
 10
213.80738151813
 20
520.3752011049266
 30
0.0
 10
214.2689976799796
 20
520.6692405427327
 30
0.0
 10
214.5841500112444
 20
521.0482637523752
 30
0.0
 10
214.7257872382251
 20
521.5259092288853
 30
0.0
 10
214.7323108732336
 20
521.6755792359835
 30
0.0
 10
214.7412601293607
 20
521.7449022532355
 30
0.0
 10
214.7417369799597
 20
521.8136825165772
 30
0.0
 10
214.744558070728
 20
521.8837233129243
 30
0.0
 10
214.7450488369989
 20
521.9689084013197
 30
0.0
 10
214.7459647343584
 20
522.0818541385484
 30
0.0
 10
214.7456811771644
 20
522.2384819956087
 30
0.0
 10
214.7445830195797
 20
522.4557753524159
 30
0.0
 10
214.7421716788132
 20
522.718400905578
 30
0.0
 10
214.7389765783498
 20
522.9967083915307
 30
0.0
 10
214.7346888634357
 20
523.3212308067441
 30
0.0
 10
214.7278981833526
 20
523.7849492049836
 30
0.0
 10
214.7169130832945
 20
524.4516684921872
 30
0.0
 10
214.7004677012496
 20
525.3656279413925
 30
0.0
 10
214.6799059831077
 20
526.432544613304
 30
0.0
 10
214.6565356070617
 20
527.5797173174354
 30
0.0
 10
214.6359423973796
 20
528.5553653223761
 30
0.0
 10
214.6164625018566
 20
529.4591340744836
 30
0.0
 10
214.5920599092513
 20
530.569128652633
 30
0.0
 10
214.5610580381129
 20
531.944561138213
 30
0.0
 10
214.5227810960666
 20
533.6046340798795
 30
0.0
 10
214.481028111467
 20
535.3767915191165
 30
0.0
 10
214.4368460759566
 20
537.2121669351903
 30
0.0
 10
214.3977431153305
 20
538.8088458657423
 30
0.0
 10
214.3607910336599
 20
540.2970073417215
 30
0.0
 10
214.320233237901
 20
541.9117895213144
 30
0.0
 10
214.2737291169691
 20
543.7371796165779
 30
0.0
 10
214.2288040872628
 20
545.4736352619248
 30
0.0
 10
214.1845232240067
 20
547.161866672605
 30
0.0
 10
214.1289631035379
 20
549.2600072866976
 30
0.0
 10
214.0638857415122
 20
551.6676218235974
 30
0.0
 10
213.9995788103676
 20
553.9894932146212
 30
0.0
 10
213.9523289397757
 20
555.6629339477984
 30
0.0
 10
213.9129687244964
 20
557.0358549236142
 30
0.0
 10
213.8762341437259
 20
558.2975052570603
 30
0.0
 10
213.8419646701189
 20
559.4524689723432
 30
0.0
 10
213.8152375695987
 20
560.3373914542078
 30
0.0
 10
213.7908473760195
 20
561.1340899648467
 30
0.0
 10
213.7621649381147
 20
562.0552056783769
 30
0.0
 10
213.7289186346818
 20
563.0925665713949
 30
0.0
 10
213.6966263190533
 20
564.0619106335967
 30
0.0
 10
213.6704695991287
 20
564.8111712178123
 30
0.0
 10
213.6492608733426
 20
565.3876826354214
 30
0.0
 10
213.6328518462436
 20
565.8087945388634
 30
0.0
 10
213.6207984872196
 20
566.0971582706941
 30
0.0
 10
213.6112986099706
 20
566.3105523837282
 30
0.0
 10
213.6033742395373
 20
566.475910090326
 30
0.0
 10
213.5965536129053
 20
566.6053936068079
 30
0.0
 10
213.5914668304367
 20
566.6907048253547
 30
0.0
 10
213.5879219129382
 20
566.7470089206845
 30
0.0
 10
213.5835001870146
 20
566.8071977264757
 30
0.0
 10
213.5794161370284
 20
566.8610751996179
 30
0.0
 10
213.5714321509636
 20
566.934645749246
 30
0.0
 10
213.5619835861139
 20
567.0075403836466
 30
0.0
 10
213.5218534490582
 20
567.2263186306795
 30
0.0
 10
213.2996087754746
 20
567.737046832249
 30
0.0
 10
212.763617898839
 20
568.1677074938764
 30
0.0
 10
212.3111632076378
 20
568.2816237960087
 30
0.0
 10
212.0380667232502
 20
568.2772280268451
 30
0.0
  0
LINE
  5
CA
330
8C
100
AcDbEntity
  8
$DDT_AUDIT_GENERATED_(BE)
  6
Continuous
 62
     7
100
AcDbLine
 10
206.5172869244
 20
568.2660458795
 30
0.0
 11
204.8183407191
 21
632.1605088096
 31
0.0
  0
LINE
  5
CB
330
8C
100
AcDbEntity
  8
$DDT_AUDIT_GENERATED_(BE)
  6
Continuous
 62
     7
100
AcDbLine
 10
186.8245904497
 20
631.6900660026
 30
0.0
 11
188.523536683
 21
567.7956020229
 31
0.0
  0
SPLINE
  5
CC
330
8C
100
AcDbEntity
  8
$DDT_AUDIT_GENERATED_(BE)
  6
Continuous
 62
     7
100
AcDbSpline
210
0.0
220
0.0
230
1.0
 70
     8
 71
     3
 72
    52
 73
    48
 74
     0
 42
0.0000000005328932
 43
0.0000000001
 40
0.0
 40
0.0
 40
0.0
 40
0.0
 40
0.006488413223628
 40
0.0132361598271144
 40
0.0209942854267473
 40
0.0283832592380869
 40
0.0378468153174451
 40
0.0524734641858201
 40
0.0621969249350369
 40
0.0712992258450799
 40
0.0864075469919616
 40
0.100064323236586
 40
0.1134143560132192
 40
0.1241138462002684
 40
0.1315432978041868
 40
0.1438404293138773
 40
0.1590484753731969
 40
0.1724264193009847
 40
0.1928044194370374
 40
0.2024183828120347
 40
0.2365293217354512
 40
0.3022525369109277
 40
0.3953863438271241
 40
0.4957948584231286
 40
0.63378330641287
 40
0.6682275573746055
 40
0.6776610343200724
 40
0.703651165144519
 40
0.7462873895084212
 40
0.7864212310546952
 40
0.8058399748569491
 40
0.8231706362772608
 40
0.836409055288525
 40
0.855681738096176
 40
0.8667958492671434
 40
0.8833007986949827
 40
0.9036052331842438
 40
0.9172178155203226
 40
0.9346425070466144
 40
0.9415275952738495
 40
0.9515034289952987
 40
0.9647496087553709
 40
0.9733144046967575
 40
0.9799624601299906
 40
0.9863551040573377
 40
0.9925919818504845
 40
1.0
 40
1.0
 40
1.0
 40
1.0
 10
204.8183217148628
 20
632.1605427032126
 30
0.0
 10
204.8171571128639
 20
632.197825338494
 30
0.0
 10
204.8100252468093
 20
632.2609195511959
 30
0.0
 10
204.7792371934215
 20
632.3696142128015
 30
0.0
 10
204.7290680932749
 20
632.4668037998645
 30
0.0
 10
204.6569084810316
 20
632.5626337041002
 30
0.0
 10
204.5528119414946
 20
632.6571179535828
 30
0.0
 10
204.437523707811
 20
632.7253719174385
 30
0.0
 10
204.3239769066068
 20
632.7729535875093
 30
0.0
 10
204.2067118466495
 20
632.8111266437426
 30
0.0
 10
204.0700545438314
 20
632.8434226204442
 30
0.0
 10
203.904934541949
 20
632.8709090424198
 30
0.0
 10
203.7441901466567
 20
632.8899305517592
 30
0.0
 10
203.5996866935723
 20
632.902481907074
 30
0.0
 10
203.4521460670257
 20
632.9123856604532
 30
0.0
 10
203.2737734137395
 20
632.9213006254047
 30
0.0
 10
203.0486315459212
 20
632.9280561959798
 30
0.0
 10
202.7633418251008
 20
632.9324299818234
 30
0.0
 10
202.4901594140321
 20
632.9327350710827
 30
0.0
 10
202.074449972302
 20
632.93002844515
 30
0.0
 10
201.3094689125838
 20
632.9174332122719
 30
0.0
 10
199.9015476386171
 20
632.8797207994969
 30
0.0
 10
198.0238037233863
 20
632.8317906827134
 30
0.0
 10
195.616112922834
 20
632.7670625668752
 30
0.0
 10
193.6374136258402
 20
632.7163016760977
 30
0.0
 10
192.317226230338
 20
632.6833774559069
 30
0.0
 10
191.8101967972923
 20
632.6711781772524
 30
0.0
 10
191.2447539491401
 20
632.6565034884939
 30
0.0
 10
190.4518868105162
 20
632.6369696533668
 30
0.0
 10
189.7244134479375
 20
632.6138397577446
 30
0.0
 10
189.2156857403867
 20
632.5923926144059
 30
0.0
 10
188.8995621489795
 20
632.5758906575728
 30
0.0
 10
188.6036144307675
 20
632.557011910355
 30
0.0
 10
188.3615450696611
 20
632.5376009335359
 30
0.0
 10
188.1211961815999
 20
632.5131840005836
 30
0.0
 10
187.8939135790158
 20
632.4843114399495
 30
0.0
 10
187.6809361790127
 20
632.4474017466462
 30
0.0
 10
187.4859352246572
 20
632.4007080723211
 30
0.0
 10
187.3541356029402
 20
632.3578402175369
 30
0.0
 10
187.2392080462801
 20
632.3076681234766
 30
0.0
 10
187.1397634977545
 20
632.2542189903995
 30
0.0
 10
187.0353112858294
 20
632.176199942091
 30
0.0
 10
186.9483923498369
 20
632.0796901816044
 30
0.0
 10
186.8922546619169
 20
631.9896790883992
 30
0.0
 10
186.8536458414474
 20
631.9017288068907
 30
0.0
 10
186.8283874183192
 20
631.7973845263002
 30
0.0
 10
186.8236639147181
 20
631.7326027102374
 30
0.0
 10
186.824607522414
 20
631.6901040129908
 30
0.0
  0
SPLINE
  5
CD
330
8C
100
AcDbEntity
  8
$DDT_AUDIT_GENERATED_(BE)
  6
Continuous
 62
     7
100
AcDbSpline
210
0.0
220
0.0
230
1.0
 70
     8
 71
     3
 72
    10
 73
     6
 74
     0
 42
0.0000000062535397
 43
0.0000000001
 40
0.0
 40
0.0
 40
0.0
 40
0.0
 40
0.086000552855411
 40
0.165220515176353
 40
0.2050736676853585
 40
0.2050736676853585
 40
0.2050736676853585
 40
0.2050736676853585
 10
188.5234730020993
 20
567.7956051825049
 30
0.0
 10
188.5251054317706
 20
567.7236779925865
 30
0.0
 10
188.4848988998508
 20
567.592944458081
 30
0.0
 10
188.406690531287
 20
567.5208629347574
 30
0.0
 10
188.3959498746578
 20
567.5141339852132
 30
0.0
 10
188.395992100872
 20
567.5143050663371
 30
0.0
  0
SPLINE
  5
CE
330
8C
100
AcDbEntity
  8
$DDT_AUDIT_GENERATED_(BE)
  6
Continuous
 62
     7
100
AcDbSpline
210
0.0
220
0.0
230
1.0
 70
     8
 71
     3
 72
    10
 73
     6
 74
     0
 42
0.0000000061748147
 43
0.0000000001
 40
0.795320398960099
 40
0.795320398960099
 40
0.795320398960099
 40
0.795320398960099
 40
0.8360492445837076
 40
0.9158630461521278
 40
1.0
 40
1.0
 40
1.0
 40
1.0
 10
206.6616968013104
 20
567.989146660816
 30
0.0
 10
206.6616068187042
 20
567.9890272833392
 30
0.0
 10
206.6497313097515
 20
567.9955809835171
 30
0.0
 10
206.5659066736446
 20
568.0656868318965
 30
0.0
 10
206.5195376712405
 20
568.1949536288766
 30
0.0
 10
206.5173480929504
 20
568.2660730666399
 30
0.0
  0
LINE
  5
CF
330
8C
100
AcDbEntity
  8
$DDT_AUDIT_GENERATED_(BE)
  6
Continuous
 62
     7
100
AcDbLine
 10
181.7725669156
 20
555.1434879293
 30
0.0
 11
181.7786451747
 21
554.8823090388
 31
0.0
  0
LINE
  5
D0
330
8C
100
AcDbEntity
  8
$DDT_AUDIT_GENERATED_(BE)
  6
Continuous
 62
     7
100
AcDbLine
 10
181.7480615618
 20
556.2053827378
 30
0.0
 11
181.7725669156
 21
555.1434879293
 31
0.0
  0
LINE
  5
D1
330
8C
100
AcDbEntity
  8
$DDT_AUDIT_GENERATED_(BE)
  6
Continuous
 62
     7
100
AcDbLine
 10
181.7422103327
 20
556.4611929188
 30
0.0
 11
181.7480615618
 21
556.2053827378
 31
0.0
  0
SPLINE
  5
D2
330
8C
100
AcDbEntity
  8
$DDT_AUDIT_GENERATED_(BE)
  6
Continuous
 62
     7
100
AcDbSpline
210
0.0
220
0.0
230
1.0
 70
     8
 71
     3
 72
    22
 73
    18
 74
     0
 42
0.0000000009400698
 43
0.0000000001
 40
0.0
 40
0.0
 40
0.0
 40
0.0
 40
0.0076890807835677
 40
0.0166379700990653
 40
0.0476136632733796
 40
0.1344963212916548
 40
0.2142442671112697
 40
0.2933825828843136
 40
0.3723804939820867
 40
0.4513286346595646
 40
0.5302546066714047
 40
0.6091691727969757
 40
0.6880772611416716
 40
0.766981382037693
 40
0.8458829413893687
 40
0.9247827675557652
 40
1.0
 40
1.0
 40
1.0
 40
1.0
 10
181.7484517285323
 20
567.4959971866023
 30
0.0
 10
181.692092126349
 20
567.4948365780599
 30
0.0
 10
181.5853711032338
 20
567.4234494832799
 30
0.0
 10
181.5472629878532
 20
567.3107971534865
 30
0.0
 10
181.5516600642969
 20
567.2803633396346
 30
0.0
 10
181.542265197946
 20
567.1372159229522
 30
0.0
 10
181.5447458878774
 20
566.8282393752684
 30
0.0
 10
181.546561893723
 20
566.3833172396437
 30
0.0
 10
181.5542449002926
 20
565.8098032080806
 30
0.0
 10
181.5643901771016
 20
565.1017077874845
 30
0.0
 10
181.5786482657694
 20
564.2707445331018
 30
0.0
 10
181.5961612408547
 20
563.3113653804916
 30
0.0
 10
181.6169788113336
 20
562.2462165926289
 30
0.0
 10
181.6413878985488
 20
561.0508186353646
 30
0.0
 10
181.6680943917669
 20
559.7896146686282
 30
0.0
 10
181.6989270510201
 20
558.3798658337026
 30
0.0
 10
181.7184850961084
 20
557.5059944009244
 30
0.0
 10
181.7304215839196
 20
556.9794500844547
 30
0.0
  0
ARC
  5
D3
330
8C
100
AcDbEntity
  8
$DDT_AUDIT_GENERATED_(BE)
  6
Continuous
 62
     7
100
AcDbCircle
 10
184.0929712884
 20
542.1475735338
 30
0.0
 40
1.998160074292121
100
AcDbArc
 50
181.5026730247
 51
213.5133357309
  0
LINE
  5
D4
330
8C
100
AcDbEntity
  8
$DDT_AUDIT_GENERATED_(BE)
  6
Continuous
 62
     7
100
AcDbLine
 10
182.0954437834
 20
542.0974926368
 30
0.0
 11
182.0954983761
 21
542.0951746125
 31
0.0
  0
SPLINE
  5
D5
330
8C
100
AcDbEntity
  8
$DDT_AUDIT_GENERATED_(BE)
  6
Continuous
 62
     7
100
AcDbSpline
210
0.0
220
0.0
230
1.0
 70
     8
 71
     3
 72
    26
 73
    22
 74
     0
 42
0.0000000003699155
 43
0.0000000001
 40
0.0
 40
0.0
 40
0.0
 40
0.0
 40
0.0555442404087023
 40
0.1131981422610659
 40
0.1706999527283763
 40
0.2279012823150214
 40
0.2846618238238159
 40
0.3408530506142116
 40
0.3963615928610293
 40
0.4510922179507121
 40
0.5049703978899724
 40
0.5579445211800642
 40
0.6099879368167336
 40
0.6611012781989583
 40
0.7113161084752264
 40
0.7607024612306198
 40
0.8093873051544258
 40
0.8576055274249198
 40
0.9058436371882569
 40
0.9551379199503557
 40
1.0
 40
1.0
 40
1.0
 40
1.0
 10
182.4269699880002
 20
541.0443081861231
 30
0.0
 10
182.8623480740679
 20
540.3878370756241
 30
0.0
 10
183.6037848114921
 20
539.2778797394781
 30
0.0
 10
184.8635779704689
 20
537.4161492229773
 30
0.0
 10
186.0684410130217
 20
535.6635084075392
 30
0.0
 10
187.2865687552999
 20
533.916319614006
 30
0.0
 10
188.4623159798783
 20
532.257584886448
 30
0.0
 10
189.6126588316815
 20
530.6607797029557
 30
0.0
 10
190.7166947724825
 20
529.1561631162378
 30
0.0
 10
191.7746917139798
 20
527.7420672715652
 30
0.0
 10
192.7764993599542
 20
526.4321846258438
 30
0.0
 10
193.718791845345
 20
525.2302236964791
 30
0.0
 10
194.5954534786873
 20
524.1433533610469
 30
0.0
 10
195.4036073190762
 20
523.1751950451819
 30
0.0
 10
196.1388779747984
 20
522.3292822965591
 30
0.0
 10
196.800942646663
 20
521.6078669326622
 30
0.0
 10
197.3853976867108
 20
521.0113917151941
 30
0.0
 10
197.8990827076281
 20
520.5408211969067
 30
0.0
 10
198.3344468988428
 20
520.1925607658677
 30
0.0
 10
198.7059029916318
 20
519.9827155879309
 30
0.0
 10
198.9019287908309
 20
519.9221714918133
 30
0.0
 10
199.0195453483965
 20
519.9256397322889
 30
0.0
  0
LINE
  5
D6
330
8C
100
AcDbEntity
  8
$DDT_AUDIT_GENERATED_(BE)
  6
Continuous
 62
     7
100
AcDbLine
 10
199.0201583645
 20
519.925538708
 30
0.0
 11
213.2754846752
 21
520.2931564682
 31
0.0
  0
LINE
  5
D7
330
8C
100
AcDbEntity
  8
$DDT_AUDIT_GENERATED_(BE)
  6
Continuous
 62
     7
100
AcDbLine
 10
188.5049282232
 20
567.6703416436
 30
0.0
 11
181.7484501164
 21
567.4961049201
 31
0.0
  0
LINE
  5
D8
330
8C
100
AcDbEntity
  8
$DDT_AUDIT_GENERATED_(BE)
  6
Continuous
 62
     7
100
AcDbLine
 10
212.0380670035
 20
568.2772165464
 30
0.0
 11
206.5449248209
 21
568.1355588543
 31
0.0
  0
ELLIPSE
  5
DA
330
8C
100
AcDbEntity
  8
$DDT_AUDIT_GENERATED_(D9)
  6
Continuous
 62
     7
100
AcDbEllipse
 10
208.3158771196
 20
520.7248526505
 30
0.0
 11
-3.336858224584863
 21
-0.296440869348949
 31
0.0
210
0.0
220
0.0
230
1.0
 40
0.1729873939
 41
0.7920744974011192
 42
1.651959855489697
  0
ARC
  5
DC
330
8C
100
AcDbEntity
  8
$DDT_AUDIT_GENERATED_(DB)
  6
Continuous
 62
     7
100
AcDbCircle
 10
174.7599367852
 20
543.2755060056
 30
0.0
 40
21.6
100
AcDbArc
 50
71.5719860331
 51
75.3854666145
  0
ARC
  5
DD
330
8C
100
AcDbEntity
  8
$DDT_AUDIT_GENERATED_(DB)
  6
Continuous
 62
     7
100
AcDbCircle
 10
174.7599367852
 20
543.2755060056
 30
0.0
 40
21.6
100
AcDbArc
 50
284.6145333855
 51
318.3394200956
  0
LINE
  5
DF
330
8C
100
AcDbEntity
  8
$DDT_AUDIT_GENERATED_(DE)
  6
Continuous
 62
     7
100
AcDbLine
 10
86.2099367852
 20
459.3255861696
 30
0.0
 11
140.2099367852
 21
459.3255861696
 31
0.0
  0
LINE
  5
E0
330
8C
100
AcDbEntity
  8
$DDT_AUDIT_GENERATED_(DE)
  6
Continuous
 62
     7
100
AcDbLine
 10
140.2099367852
 20
462.4290644794
 30
0.0
 11
86.2099367852
 21
462.4290644794
 31
0.0
  0
LINE
  5
E1
330
8C
100
AcDbEntity
  8
$DDT_AUDIT_GENERATED_(DE)
  6
Continuous
 62
     7
100
AcDbLine
 10
134.7099367852
 20
463.5755060056
 30
0.0
 11
91.7099367852
 21
463.5755060056
 31
0.0
  0
LINE
  5
E2
330
8C
100
AcDbEntity
  8
$DDT_AUDIT_GENERATED_(DE)
  6
Continuous
 62
     7
100
AcDbLine
 10
140.2099367852
 20
459.3255861696
 30
0.0
 11
140.2099367852
 21
462.4290644794
 31
0.0
  0
LINE
  5
E3
330
8C
100
AcDbEntity
  8
$DDT_AUDIT_GENERATED_(DE)
  6
Continuous
 62
     7
100
AcDbLine
 10
86.2099367852
 20
462.4290644794
 30
0.0
 11
86.2099367852
 21
459.3255861696
 31
0.0
  0
ARC
  5
E4
330
8C
100
AcDbEntity
  8
$DDT_AUDIT_GENERATED_(DE)
  6
Continuous
 62
     7
100
AcDbCircle
 10
139.7099367852
 20
462.4290644794
 30
0.0
 40
0.4999999999999866
100
AcDbArc
 50
0.0
 51
81.2112722024
  0
ARC
  5
E5
330
8C
100
AcDbEntity
  8
$DDT_AUDIT_GENERATED_(DE)
  6
Continuous
 62
     7
100
AcDbCircle
 10
86.7099367852
 20
462.4290644794
 30
0.0
 40
0.4999999999999853
100
AcDbArc
 50
98.7887277976
 51
180.0
  0
ARC
  5
E6
330
8C
100
AcDbEntity
  8
$DDT_AUDIT_GENERATED_(DE)
  6
Continuous
 62
     7
100
AcDbCircle
 10
124.5071912721
 20
364.0973476793
 30
0.0
 40
99.99999999998818
100
AcDbArc
 50
81.2112722024
 51
84.1440676466
  0
ARC
  5
E7
330
8C
100
AcDbEntity
  8
$DDT_AUDIT_GENERATED_(DE)
  6
Continuous
 62
     7
100
AcDbCircle
 10
101.9126822983
 20
364.0973476793
 30
0.0
 40
99.99999999998819
100
AcDbArc
 50
95.8559323534
 51
98.7887277976
  0
LINE
  5
E9
330
8C
100
AcDbEntity
  8
$DDT_AUDIT_GENERATED_(E8)
  6
Continuous
 62
     7
100
AcDbLine
 10
76.2099367852
 20
519.7798884788
 30
0.0
 11
76.2099367852
 21
566.7711235324
 31
0.0
  0
LINE
  5
EA
330
8C
100
AcDbEntity
  8
$DDT_AUDIT_GENERATED_(E8)
  6
Continuous
 62
     7
100
AcDbLine
 10
76.2099366385
 20
563.5380490377
 30
0.0
 11
76.2099366384
 21
563.5325248305
 31
0.0
  0
LINE
  5
EB
330
8C
100
AcDbEntity
  8
$DDT_AUDIT_GENERATED_(E8)
  6
Continuous
 62
     7
100
AcDbLine
 10
76.2099366377
 20
563.4877674844
 30
0.0
 11
76.2099366371
 21
563.4490298078
 31
0.0
  0
LINE
  5
EC
330
8C
100
AcDbEntity
  8
$DDT_AUDIT_GENERATED_(E8)
  6
Continuous
 62
     7
100
AcDbLine
 10
76.2099366364
 20
563.3998280652
 30
0.0
 11
76.2099366355
 21
563.3410243801
 31
0.0
  0
LINE
  5
ED
330
8C
100
AcDbEntity
  8
$DDT_AUDIT_GENERATED_(E8)
  6
Continuous
 62
     7
100
AcDbLine
 10
76.2099366247
 20
562.6476433431
 30
0.0
 11
76.209936623
 21
562.5380871146
 31
0.0
  0
ARC
  5
EE
330
8C
100
AcDbEntity
  8
$DDT_AUDIT_GENERATED_(E8)
  6
Continuous
 62
     7
100
AcDbCircle
 10
67.414333818
 20
519.8522865222
 30
0.0
 40
0.5000034085914212
100
AcDbArc
 50
244.3562921391
 51
269.4998482657
  0
ARC
  5
EF
330
8C
100
AcDbEntity
  8
$DDT_AUDIT_GENERATED_(E8)
  6
Continuous
 62
     7
100
AcDbCircle
 10
29.0142663485
 20
520.1873988313
 30
0.0
 40
0.5000034057154289
100
AcDbArc
 50
269.5001516207
 51
297.7773911118
  0
ARC
  5
F0
330
8C
100
AcDbEntity
  8
$DDT_AUDIT_GENERATED_(E8)
  6
Continuous
 62
     7
100
AcDbCircle
 10
769.2099367852
 20
543.2755060056
 30
0.0
 40
750.0000000000008
100
AcDbArc
 50
178.3143018739
 51
181.6856981261
  0
ARC
  5
F1
330
8C
100
AcDbEntity
  8
$DDT_AUDIT_GENERATED_(E8)
  6
Continuous
 62
     7
100
AcDbCircle
 10
21.033862052
 20
565.2939345786
 30
0.0
 40
1.500000000000453
100
AcDbArc
 50
90.5000000001
 51
178.3143018761
  0
ARC
  5
F2
330
8C
100
AcDbEntity
  8
$DDT_AUDIT_GENERATED_(E8)
  6
Continuous
 62
     7
100
AcDbCircle
 10
21.033862052
 20
521.2570774326
 30
0.0
 40
1.499999999999558
100
AcDbArc
 50
181.6856981239
 51
269.4999999999
  0
LINE
  5
F3
330
8C
100
AcDbEntity
  8
$DDT_AUDIT_GENERATED_(E8)
  6
Continuous
 62
     7
100
AcDbLine
 10
75.7055735177
 20
567.271104494
 30
0.0
 11
21.0207722486
 21
566.7938774632
 31
0.0
  0
LINE
  5
F4
330
8C
100
AcDbEntity
  8
$DDT_AUDIT_GENERATED_(E8)
  6
Continuous
 62
     7
100
AcDbLine
 10
67.4099691963
 20
519.3523021593
 30
0.0
 11
75.7055735177
 21
519.2799075171
 31
0.0
  0
LINE
  5
F5
330
8C
100
AcDbEntity
  8
$DDT_AUDIT_GENERATED_(E8)
  6
Continuous
 62
     7
100
AcDbLine
 10
21.0207722486
 20
519.757134548
 30
0.0
 11
29.0099043741
 21
519.6874144482
 31
0.0
  0
ARC
  5
F6
330
8C
100
AcDbEntity
  8
$DDT_AUDIT_GENERATED_(E8)
  6
Continuous
 62
     7
100
AcDbCircle
 10
75.7099367852
 20
566.7711235325
 30
0.0
 40
0.5000000000000004
100
AcDbArc
 50
0.0
 51
90.5000000002
  0
ARC
  5
F7
330
8C
100
AcDbEntity
  8
$DDT_AUDIT_GENERATED_(E8)
  6
Continuous
 62
     7
100
AcDbCircle
 10
75.7099367852
 20
519.7798884787
 30
0.0
 40
0.4999999999958177
100
AcDbArc
 50
269.4999999998
 51
0.0
  0
ARC
  5
F8
330
8C
100
AcDbEntity
  8
$DDT_AUDIT_GENERATED_(E8)
  6
Continuous
 62
     7
100
AcDbCircle
 10
62.2554949497
 20
497.7971942435
 30
0.0
 40
22.1501912802592
100
AcDbArc
 50
76.8712682835
 51
89.8438274802
  0
ARC
  5
F9
330
8C
100
AcDbEntity
  8
$DDT_AUDIT_GENERATED_(E8)
  6
Continuous
 62
     7
100
AcDbCircle
 10
62.2802886531
 20
498.0030124839
 30
0.0
 40
21.94431960335944
100
AcDbArc
 50
89.616655076
 51
89.9070979063
  0
ARC
  5
FA
330
8C
100
AcDbEntity
  8
$DDT_AUDIT_GENERATED_(E8)
  6
Continuous
 62
     7
100
AcDbCircle
 10
62.2802886531
 20
498.0030124839
 30
0.0
 40
21.94431960335944
100
AcDbArc
 50
76.7877139003
 51
76.8483644062
  0
LINE
  5
FB
330
8C
100
AcDbEntity
  8
$DDT_AUDIT_GENERATED_(E8)
  6
Continuous
 62
     7
100
AcDbLine
 10
34.1134933025
 20
520.1978256769
 30
0.0
 11
48.2000646173
 21
520.0726930667
 31
0.0
  0
ARC
  5
FC
330
8C
100
AcDbEntity
  8
$DDT_AUDIT_GENERATED_(E8)
  6
Continuous
 62
     7
100
AcDbCircle
 10
33.7679785954
 20
498.42779783
 30
0.0
 40
21.77278892203908
100
AcDbArc
 50
89.0907285915
 51
102.2901924476
  0
LINE
  5
FD
330
8C
100
AcDbEntity
  8
$DDT_AUDIT_GENERATED_(E8)
  6
Continuous
 62
     7
100
AcDbLine
 10
34.113493468
 20
520.1978425496
 30
0.0
 11
62.3158699927
 21
519.947283858
 31
0.0
  0
ARC
  5
FF
330
8C
100
AcDbEntity
  8
$DDT_AUDIT_GENERATED_(FE)
  6
Continuous
 62
     7
100
AcDbCircle
 10
107.0099367503
 20
860.3729863817
 30
0.0
 40
3.999847812408752
100
AcDbArc
 50
113.453947911
 51
134.7632286187
  0
LINE
  5
101
330
8C
100
AcDbEntity
  8
$DDT_AUDIT_GENERATED_(100)
  6
Continuous
 62
     7
100
AcDbLine
 10
92.4599367852
 20
606.2755060056
 30
0.0
 11
92.4599367852
 21
605.7755060056
 31
0.0
  0
LINE
  5
102
330
8C
100
AcDbEntity
  8
$DDT_AUDIT_GENERATED_(100)
  6
Continuous
 62
     7
100
AcDbLine
 10
133.9599367852
 20
605.7755060056
 30
0.0
 11
133.9599367852
 21
606.2755060056
 31
0.0
  0
LINE
  5
104
330
8C
100
AcDbEntity
  8
$DDT_AUDIT_GENERATED_(103)
  6
Continuous
 62
     7
100
AcDbLine
 10
76.2099367852
 20
521.9755060056
 30
0.0
 11
76.7099367852
 21
521.9755060056
 31
0.0
  0
LINE
  5
105
330
8C
100
AcDbEntity
  8
$DDT_AUDIT_GENERATED_(103)
  6
Continuous
 62
     7
100
AcDbLine
 10
76.7099367852
 20
564.5755060056
 30
0.0
 11
76.2099367852
 21
564.5755060056
 31
0.0
  0
ARC
  5
106
330
8C
100
AcDbEntity
  8
$DDT_AUDIT_GENERATED_(103)
  6
Continuous
 62
     7
100
AcDbCircle
 10
76.7099367852
 20
522.4755060056
 30
0.0
 40
0.5000000000000004
100
AcDbArc
 50
270.0
 51
0.0
  0
ARC
  5
107
330
8C
100
AcDbEntity
  8
$DDT_AUDIT_GENERATED_(103)
  6
Continuous
 62
     7
100
AcDbCircle
 10
76.7099367852
 20
564.0755060056
 30
0.0
 40
0.5000000000000004
100
AcDbArc
 50
0.0
 51
90.0
  0
SPLINE
  5
108
330
8C
100
AcDbEntity
  8
$DDT_AUDIT_GENERATED_(103)
  6
Continuous
 62
     7
100
AcDbSpline
210
0.0
220
0.0
230
1.0
 70
     8
 71
     3
 72
    46
 73
    42
 74
     0
 42
0.0000000153869219
 43
0.0000000001
 40
0.0012740921883892
 40
0.0012740921883892
 40
0.0012740921883892
 40
0.0012740921883892
 40
0.016663652837212
 40
0.0386101900928975
 40
0.0604763208974266
 40
0.0822878645540353
 40
0.1040718186517935
 40
0.1258570086032581
 40
0.1476748550049861
 40
0.1695602998487618
 40
0.1915529336258423
 40
0.2137021593860816
 40
0.2363541198625384
 40
0.2583934795338193
 40
0.2808529070827676
 40
0.3038095875501999
 40
0.327389812882007
 40
0.3517395017068304
 40
0.377021969122374
 40
0.4034070123452899
 40
0.4310453527788126
 40
0.4600192088524232
 40
0.4902668520533571
 40
0.5215111004685845
 40
0.5532692364730066
 40
0.5848433751910621
 40
0.6158354230978905
 40
0.6475073464325123
 40
0.6786190528507958
 40
0.7091489926632657
 40
0.7391368180460431
 40
0.7686450357219449
 40
0.7977395907931104
 40
0.8264824937126354
 40
0.8549300300662701
 40
0.8831327850976347
 40
0.9110430439190521
 40
0.9388586231595942
 40
0.9666091203654399
 40
0.994329572415244
 40
1.0
 40
1.0
 40
1.0
 40
1.0
 10
77.2098201129488
 20
548.5267396581015
 30
0.0
 10
77.20980856869178
 20
548.5303935255965
 30
0.0
 10
77.20974098523124
 20
548.5380879107129
 30
0.0
 10
77.2086525838347
 20
548.5514102200196
 30
0.0
 10
77.20666689974281
 20
548.5656606692804
 30
0.0
 10
77.20379641979038
 20
548.5798098463208
 30
0.0
 10
77.20009948431789
 20
548.593679861076
 30
0.0
 10
77.195591757999
 20
548.6072698429041
 30
0.0
 10
77.19030126896891
 20
548.6205370710761
 30
0.0
 10
77.18425462936668
 20
548.6334535867418
 30
0.0
 10
77.17747201638977
 20
548.6460017248099
 30
0.0
 10
77.1699608821438
 20
548.6581936047907
 30
0.0
 10
77.16176801048996
 20
548.6699470450698
 30
0.0
 10
77.15300227432456
 20
548.6811531811686
 30
0.0
 10
77.14370156764632
 20
548.6918350008843
 30
0.0
 10
77.13373853039046
 20
548.7021507442082
 30
0.0
 10
77.1230863497185
 20
548.7121208206786
 30
0.0
 10
77.1116972909616
 20
548.7217713435371
 30
0.0
 10
77.09950364119769
 20
548.7311303798998
 30
0.0
 10
77.08642208483543
 20
548.7402210486239
 30
0.0
 10
77.07236589134196
 20
548.7490528545779
 30
0.0
 10
77.05727041923622
 20
548.7576098480987
 30
0.0
 10
77.04113272237329
 20
548.7658400666304
 30
0.0
 10
77.02404396104939
 20
548.7736573202568
 30
0.0
 10
77.00623488644086
 20
548.7809459822253
 30
0.0
 10
76.98794759615613
 20
548.7876243974192
 30
0.0
 10
76.96927216318097
 20
548.7937099302031
 30
0.0
 10
76.95022043666228
 20
548.7992460820867
 30
0.0
 10
76.93081368849604
 20
548.8042551123705
 30
0.0
 10
76.91132896796593
 20
548.8087108390102
 30
0.0
 10
76.8917883588329
 20
548.8126517540961
 30
0.0
 10
76.872195607832
 20
548.8161128243659
 30
0.0
 10
76.85255034302875
 20
548.8191224030364
 30
0.0
 10
76.83285254343542
 20
548.8217026300033
 30
0.0
 10
76.81310742535737
 20
548.8238702128623
 30
0.0
 10
76.79333737336813
 20
548.8256359391826
 30
0.0
 10
76.77356156189397
 20
548.8270105332142
 30
0.0
 10
76.75370542122089
 20
548.828016106699
 30
0.0
 10
76.73401571310139
 20
548.8286202144784
 30
0.0
 10
76.71894769536397
 20
548.8288757336176
 30
0.0
 10
76.7114255828004
 20
548.8288248673393
 30
0.0
 10
76.7099348214357
 20
548.8288143451407
 30
0.0
  0
LINE
  5
109
330
8C
100
AcDbEntity
  8
$DDT_AUDIT_GENERATED_(103)
  6
Continuous
 62
     7
100
AcDbLine
 10
76.7099367852
 20
548.8288460484
 30
0.0
 11
76.2099367852
 21
548.8288460484
 31
0.0
  0
ARC
  5
10B
330
8C
100
AcDbEntity
  8
$DDT_AUDIT_GENERATED_(10A)
  6
Continuous
 62
     7
100
AcDbCircle
 10
76.1751102817
 20
543.6573652845
 30
0.0
 40
6.380064044772825
100
AcDbArc
 50
80.6426145432
 51
89.6871403934
  0
ELLIPSE
  5
10D
330
8C
100
AcDbEntity
  8
$DDT_AUDIT_GENERATED_(10C)
  6
Continuous
 62
     7
100
AcDbEllipse
 10
113.2099367852
 20
715.6127910216
 30
0.0
 11
8.024999999999999
 21
0.0
 31
0.0
210
0.0
220
0.0
230
1.0
 40
0.0871557427
 41
5.163690451893675
 42
6.14732167647954
  0
ELLIPSE
  5
10E
330
8C
100
AcDbEntity
  8
$DDT_AUDIT_GENERATED_(10C)
  6
Continuous
 62
     7
100
AcDbEllipse
 10
113.2099367852
 20
715.6127910216
 30
0.0
 11
8.024999999999999
 21
0.0
 31
0.0
210
0.0
220
0.0
230
1.0
 40
0.0871557427
 41
3.277456284313373
 42
4.261087508875702
  0
ELLIPSE
  5
10F
330
8C
100
AcDbEntity
  8
$DDT_AUDIT_GENERATED_(10C)
  6
Continuous
 62
     7
100
AcDbEllipse
 10
113.2099367852
 20
715.4233223821
 30
0.0
 11
8.024999999999997
 21
0.0
 31
0.0
210
0.0
220
0.0
230
1.0
 40
0.0871557427
 41
5.163690451893675
 42
6.283185307179586
  0
ELLIPSE
  5
110
330
8C
100
AcDbEntity
  8
$DDT_AUDIT_GENERATED_(10C)
  6
Continuous
 62
     7
100
AcDbEllipse
 10
113.2099367852
 20
715.4233223821
 30
0.0
 11
8.024999999999997
 21
0.0
 31
0.0
210
0.0
220
0.0
230
1.0
 40
0.0871557427
 41
2.799838629130125
 42
4.261087508875702
  0
ELLIPSE
  5
111
330
8C
100
AcDbEntity
  8
$DDT_AUDIT_GENERATED_(10C)
  6
Continuous
 62
     7
100
AcDbEllipse
 10
113.2099367852
 20
715.4233223821
 30
0.0
 11
8.024999999999997
 21
0.0
 31
0.0
210
0.0
220
0.0
230
1.0
 40
0.0871557427
 41
0.0
 42
0.3417540244596741
  0
ELLIPSE
  5
112
330
8C
100
AcDbEntity
  8
$DDT_AUDIT_GENERATED_(10C)
  6
Continuous
 62
     7
100
AcDbEllipse
 10
113.2099367852
 20
715.2738931774
 30
0.0
 11
8.750000000000004
 21
0.0
 31
0.0
210
0.0
220
0.0
230
1.0
 40
0.0871557427
 41
5.123905826452179
 42
6.283185307179586
  0
ELLIPSE
  5
113
330
8C
100
AcDbEntity
  8
$DDT_AUDIT_GENERATED_(10C)
  6
Continuous
 62
     7
100
AcDbEllipse
 10
113.2099367852
 20
715.2738931774
 30
0.0
 11
8.750000000000004
 21
0.0
 31
0.0
210
0.0
220
0.0
230
1.0
 40
0.0871557427
 41
2.456029891277808
 42
4.300872134317204
  0
ELLIPSE
  5
114
330
8C
100
AcDbEntity
  8
$DDT_AUDIT_GENERATED_(10C)
  6
Continuous
 62
     7
100
AcDbEllipse
 10
113.2099367852
 20
715.2738931774
 30
0.0
 11
8.750000000000004
 21
0.0
 31
0.0
210
0.0
220
0.0
230
1.0
 40
0.0871557427
 41
0.0
 42
0.685562762311965
  0
SPLINE
  5
115
330
8C
100
AcDbEntity
  8
$DDT_AUDIT_GENERATED_(10C)
  6
Continuous
 62
     7
100
AcDbSpline
210
0.0
220
0.0
230
1.0
 70
     8
 71
     3
 72
    12
 73
     8
 74
     0
 42
0.0000000308396241
 43
0.0000000001
 40
0.4571491466647118
 40
0.4571491466647118
 40
0.4571491466647118
 40
0.4571491466647118
 40
0.5
 40
0.5
 40
0.75
 40
0.75
 40
0.9682027326306392
 40
0.9682027326306392
 40
0.9682027326306392
 40
0.9682027326306392
 10
120.4973498054209
 20
715.5539970498437
 30
0.0
 10
120.4998939704285
 20
715.5536279679973
 30
0.0
 10
120.5025252401559
 20
715.55355636567
 30
0.0
 10
120.5210818161423
 20
715.5551143342827
 30
0.0
 10
120.5400950200174
 20
715.5673082385401
 30
0.0
 10
120.571054062712
 20
715.6130774350029
 30
0.0
 10
120.5821528401535
 20
715.6434412787867
 30
0.0
 10
120.5850076854185
 20
715.6750282447155
 30
0.0
  0
SPLINE
  5
116
330
8C
100
AcDbEntity
  8
$DDT_AUDIT_GENERATED_(10C)
  6
Continuous
 62
     7
100
AcDbSpline
210
0.0
220
0.0
230
1.0
 70
     8
 71
     3
 72
    12
 73
     8
 74
     0
 42
0.0000000286207119
 43
0.0000000001
 40
0.4524230988487683
 40
0.4524230988487683
 40
0.4524230988487683
 40
0.4524230988487683
 40
0.5
 40
0.5
 40
0.75
 40
0.75
 40
0.9881790804860399
 40
0.9881790804860399
 40
0.9881790804860399
 40
0.9881790804860399
 10
120.0060451327777
 20
715.478968279261
 30
0.0
 10
120.0097254273555
 20
715.4789536960704
 30
0.0
 10
120.0135108556505
 20
715.4793509650384
 30
0.0
 10
120.0376567395341
 20
715.4843040678951
 30
0.0
 10
120.0598554634112
 20
715.4983834308814
 30
0.0
 10
120.0975401638371
 20
715.5431614253998
 30
0.0
 10
120.1132993840238
 20
715.5751183896205
 30
0.0
 10
120.1154221508852
 20
715.6096659143593
 30
0.0
  0
SPLINE
  5
117
330
8C
100
AcDbEntity
  8
$DDT_AUDIT_GENERATED_(10C)
  6
Continuous
 62
     7
100
AcDbSpline
210
0.0
220
0.0
230
1.0
 70
     8
 71
     3
 72
    12
 73
     8
 74
     0
 42
0.0000000288831663
 43
0.0000000001
 40
0.4518341284810765
 40
0.4518341284810765
 40
0.4518341284810765
 40
0.4518341284810765
 40
0.5
 40
0.5
 40
0.75
 40
0.75
 40
0.8805301055273367
 40
0.8805301055273367
 40
0.8805301055273367
 40
0.8805301055273367
 10
119.0633194481983
 20
715.378309010901
 30
0.0
 10
119.0675444932808
 20
715.3776678968749
 30
0.0
 10
119.0719074947854
 20
715.3774648914797
 30
0.0
 10
119.0996398555768
 20
715.3790485048709
 30
0.0
 10
119.1256600404498
 20
715.3934323944915
 30
0.0
 10
119.1555987609559
 20
715.4303473583784
 30
0.0
 10
119.1639389326514
 20
715.4455642883244
 30
0.0
 10
119.169610030122
 20
715.4620059859919
 30
0.0
  0
SPLINE
  5
118
330
8C
100
AcDbEntity
  8
$DDT_AUDIT_GENERATED_(10C)
  6
Continuous
 62
     7
100
AcDbSpline
210
0.0
220
0.0
230
1.0
 70
     8
 71
     3
 72
    12
 73
     8
 74
     0
 42
0.0000000266187681
 43
0.0000000001
 40
0.4476946509889028
 40
0.4476946509889028
 40
0.4476946509889028
 40
0.4476946509889028
 40
0.5
 40
0.5
 40
0.75
 40
0.75
 40
0.9817921287091208
 40
0.9817921287091208
 40
0.9817921287091208
 40
0.9817921287091208
 10
117.9031382577412
 20
715.2920070755566
 30
0.0
 10
117.908499088102
 20
715.2911810555952
 30
0.0
 10
117.9140322935572
 20
715.2908980818745
 30
0.0
 10
117.9467608448043
 20
715.2925977282415
 30
0.0
 10
117.9755710622704
 20
715.3073755940629
 30
0.0
 10
118.0164942245131
 20
715.35325171459
 30
0.0
 10
118.0294015123565
 20
715.3829972164361
 30
0.0
 10
118.0314162856961
 20
715.4135600331281
 30
0.0
  0
SPLINE
  5
119
330
8C
100
AcDbEntity
  8
$DDT_AUDIT_GENERATED_(10C)
  6
Continuous
 62
     7
100
AcDbSpline
210
0.0
220
0.0
230
1.0
 70
     8
 71
     3
 72
     8
 73
     4
 74
     0
 42
0.0000000248655403
 43
0.0000000001
 40
0.7632393675909965
 40
0.7632393675909965
 40
0.7632393675909965
 40
0.7632393675909965
 40
0.9861841700261704
 40
0.9861841700261704
 40
0.9861841700261704
 40
0.9861841700261704
 10
116.7099834176096
 20
715.2688916511552
 30
0.0
 10
116.7295698782877
 20
715.2904281805545
 30
0.0
 10
116.7423287105949
 20
715.3187997691401
 30
0.0
 10
116.7439877525382
 20
715.3481936770798
 30
0.0
  0
ELLIPSE
  5
11A
330
8C
100
AcDbEntity
  8
$DDT_AUDIT_GENERATED_(10C)
  6
Continuous
 62
     7
100
AcDbEllipse
 10
113.2099367852
 20
712.2354993482
 30
0.0
 11
3.050000000000002
 21
0.0
 31
0.0
210
0.0
220
0.0
230
1.0
 40
0.0871557427
 41
0.0
 42
6.283185307179586
  0
ELLIPSE
  5
11B
330
8C
100
AcDbEntity
  8
$DDT_AUDIT_GENERATED_(10C)
  6
Continuous
 62
     7
100
AcDbEllipse
 10
113.2099367852
 20
715.8716099963
 30
0.0
 11
3.500000000000002
 21
0.0
 31
0.0
210
0.0
220
0.0
230
1.0
 40
0.0871557427
 41
0.0
 42
0.0886823336478232
  0
ELLIPSE
  5
11C
330
8C
100
AcDbEntity
  8
$DDT_AUDIT_GENERATED_(10C)
  6
Continuous
 62
     7
100
AcDbEllipse
 10
113.2099367852
 20
715.8716099963
 30
0.0
 11
3.500000000000002
 21
0.0
 31
0.0
210
0.0
220
0.0
230
1.0
 40
0.0871557427
 41
3.052910319942017
 42
3.141592653589793
  0
ELLIPSE
  5
11D
330
8C
100
AcDbEntity
  8
$DDT_AUDIT_GENERATED_(10C)
  6
Continuous
 62
     7
100
AcDbEllipse
 10
113.2099367852
 20
712.2354993482
 30
0.0
 11
3.500000000000002
 21
0.0
 31
0.0
210
0.0
220
0.0
230
1.0
 40
0.0871557427
 41
0.0
 42
6.283185307179586
  0
SPLINE
  5
11E
330
8C
100
AcDbEntity
  8
$DDT_AUDIT_GENERATED_(10C)
  6
Continuous
 62
     7
100
AcDbSpline
210
0.0
220
0.0
230
1.0
 70
    12
 71
     3
 72
     8
 73
     4
 74
     0
 42
0.0000000104065679
 43
0.0000000001
 40
0.0
 40
0.0
 40
0.0
 40
0.0
 40
1.0
 40
1.0
 40
1.0
 40
1.0
 10
127.1723338424688
 20
718.390226614703
 30
0.0
 41
1.0
 10
127.3030943535049
 20
718.5454061638757
 30
0.0
 41
0.9879870040413099
 10
127.0950184663304
 20
718.6098848050017
 30
0.0
 41
0.9879870040413099
 10
126.5556050253205
 20
718.581338793115
 30
0.0
 41
1.0
  0
ELLIPSE
  5
11F
330
8C
100
AcDbEntity
  8
$DDT_AUDIT_GENERATED_(10C)
  6
Continuous
 62
     7
100
AcDbEllipse
 10
113.2099367852
 20
721.7989684499
 30
0.0
 11
14.00000000000001
 21
0.0
 31
0.0
210
0.0
220
0.0
230
1.0
 40
0.0871557427
 41
0.0
 42
3.141592653589793
  0
ELLIPSE
  5
120
330
8C
100
AcDbEntity
  8
$DDT_AUDIT_GENERATED_(10C)
  6
Continuous
 62
     7
100
AcDbEllipse
 10
113.2099367853
 20
713.0214368125
 30
0.0
 11
13.98547533969727
 21
-6.392546224474439
 31
0.0
210
0.0
220
0.0
230
0.9999999999999999
 40
0.0997345103
 41
2.733587708031217
 42
3.494090121415825
  0
LINE
  5
121
330
8C
100
AcDbEntity
  8
$DDT_AUDIT_GENERATED_(10C)
  6
Continuous
 62
     7
100
AcDbLine
 10
100.6254390619
 20
715.8624773448
 30
0.0
 11
100.6254390619
 21
719.4426868645
 31
0.0
  0
ELLIPSE
  5
122
330
8C
100
AcDbEntity
  8
$DDT_AUDIT_GENERATED_(10C)
  6
Continuous
 62
     7
100
AcDbEllipse
 10
113.2099367852
 20
715.3278323271
 30
0.0
 11
-14.00000000000004
 21
0.0
 31
0.0
210
0.0
220
0.0
230
1.0
 40
0.0871557427
 41
3.448534546973004
 42
5.829624787176929
  0
LINE
  5
123
330
8C
100
AcDbEntity
  8
$DDT_AUDIT_GENERATED_(10C)
  6
Continuous
 62
     7
100
AcDbLine
 10
126.5556050253
 20
718.5813387931
 30
0.0
 11
126.5556050253
 21
715.6965035834
 31
0.0
  0
ELLIPSE
  5
124
330
8C
100
AcDbEntity
  8
$DDT_AUDIT_GENERATED_(10C)
  6
Continuous
 62
     7
100
AcDbEllipse
 10
113.2099367852
 20
715.1244639727
 30
0.0
 11
11.5
 21
0.0
 31
0.0
210
0.0
220
0.0
230
1.0
 40
0.0871557427
 41
3.152735208659551
 42
4.403135279257169
  0
ELLIPSE
  5
125
330
8C
100
AcDbEntity
  8
$DDT_AUDIT_GENERATED_(10C)
  6
Continuous
 62
     7
100
AcDbEllipse
 10
113.2099367852
 20
715.1244639727
 30
0.0
 11
11.5
 21
0.0
 31
0.0
210
0.0
220
0.0
230
1.0
 40
0.0871557427
 41
5.021642681512208
 42
6.272042752109718
  0
ELLIPSE
  5
126
330
8C
100
AcDbEntity
  8
$DDT_AUDIT_GENERATED_(10C)
  6
Continuous
 62
     7
100
AcDbEllipse
 10
113.2099367852
 20
714.9252250331
 30
0.0
 11
11.7
 21
0.0
 31
0.0
210
0.0
220
0.0
230
1.0
 40
0.0871557427
 41
5.016185790527325
 42
6.283185307179586
  0
ELLIPSE
  5
127
330
8C
100
AcDbEntity
  8
$DDT_AUDIT_GENERATED_(10C)
  6
Continuous
 62
     7
100
AcDbEllipse
 10
113.2099367852
 20
714.9252250331
 30
0.0
 11
11.7
 21
0.0
 31
0.0
210
0.0
220
0.0
230
1.0
 40
0.0871557427
 41
0.0
 42
4.408592170242055
  0
ELLIPSE
  5
128
330
8C
100
AcDbEntity
  8
$DDT_AUDIT_GENERATED_(10C)
  6
Continuous
 62
     7
100
AcDbEllipse
 10
113.2099367852
 20
721.8985879197
 30
0.0
 11
-13.9
 21
-2.775557561562891E-14
 31
0.0
210
0.0
220
0.0
230
1.0
 40
0.0871557427
 41
3.229193313562981
 42
6.195584647206398
  0
ELLIPSE
  5
129
330
8C
100
AcDbEntity
  8
$DDT_AUDIT_GENERATED_(10C)
  6
Continuous
 62
     7
100
AcDbEllipse
 10
113.2099367852
 20
715.5229418519
 30
0.0
 11
9.950000000000001
 21
0.0
 31
0.0
210
0.0
220
0.0
230
1.0
 40
0.0871557427
 41
-0.4657801203904652
 42
-0.0670596375837853
  0
ELLIPSE
  5
12A
330
8C
100
AcDbEntity
  8
$DDT_AUDIT_GENERATED_(10C)
  6
Continuous
 62
     7
100
AcDbEllipse
 10
113.2099367852
 20
715.5229418519
 30
0.0
 11
9.950000000000001
 21
0.0
 31
0.0
210
0.0
220
0.0
230
1.0
 40
0.0871557427
 41
3.208652291173557
 42
3.607438987337073
  0
ELLIPSE
  5
12B
330
8C
100
AcDbEntity
  8
$DDT_AUDIT_GENERATED_(10C)
  6
Continuous
 62
     7
100
AcDbEllipse
 10
113.2099367852
 20
715.5229418519
 30
0.0
 11
11.325
 21
0.0
 31
0.0
210
0.0
220
0.0
230
1.0
 40
0.0871557427
 41
-1.042803136011699
 42
-0.2497865331099938
  0
ELLIPSE
  5
12C
330
8C
100
AcDbEntity
  8
$DDT_AUDIT_GENERATED_(10C)
  6
Continuous
 62
     7
100
AcDbEllipse
 10
113.2099367852
 20
715.5229418519
 30
0.0
 11
11.325
 21
0.0
 31
0.0
210
0.0
220
0.0
230
1.0
 40
0.0871557427
 41
3.391379186699812
 42
4.184569628742452
  0
ELLIPSE
  5
12D
330
8C
100
AcDbEntity
  8
$DDT_AUDIT_GENERATED_(10C)
  6
Continuous
 62
     7
100
AcDbEllipse
 10
113.2099367852
 20
714.9252250331
 30
0.0
 11
-13.19999999999998
 21
-5.551115123125783E-14
 31
0.0
210
0.0
220
0.0
230
1.0
 40
0.0871557427
 41
0.1009888903636663
 42
1.3024352681792
  0
ELLIPSE
  5
12E
330
8C
100
AcDbEntity
  8
$DDT_AUDIT_GENERATED_(10C)
  6
Continuous
 62
     7
100
AcDbEllipse
 10
113.2099367852
 20
714.9252250331
 30
0.0
 11
-13.19999999999998
 21
-5.551115123125783E-14
 31
0.0
210
0.0
220
0.0
230
1.0
 40
0.0871557427
 41
1.83915738541059
 42
2.893985136606666
  0
SPLINE
  5
12F
330
8C
100
AcDbEntity
  8
$DDT_AUDIT_GENERATED_(10C)
  6
Continuous
 62
     7
100
AcDbSpline
210
0.0
220
0.0
230
1.0
 70
     8
 71
     3
 72
     8
 73
     4
 74
     0
 42
0.0000000317254491
 43
0.0000000001
 40
0.0
 40
0.0
 40
0.0
 40
0.0
 40
1.0
 40
1.0
 40
1.0
 40
1.0
 10
99.86426854511267
 20
715.0166763984303
 30
0.0
 10
99.93463864044894
 20
714.8950926430887
 30
0.0
 10
100.0055648622401
 20
714.8217758356687
 30
0.0
 10
100.0771913860661
 20
714.8092391647548
 30
0.0
  0
ARC
  5
130
330
8C
100
AcDbEntity
  8
$DDT_AUDIT_GENERATED_(10C)
  6
Continuous
 62
     7
100
AcDbCircle
 10
94.1966405202
 20
717.3747826151
 30
0.0
 40
6.604280272638317
100
AcDbArc
 50
341.2542243295
 51
346.7624629206
  0
ELLIPSE
  5
131
330
8C
100
AcDbEntity
  8
$DDT_AUDIT_GENERATED_(10C)
  6
Continuous
 62
     7
100
AcDbEllipse
 10
113.2099367852
 20
714.9252250331
 30
0.0
 11
13.3
 21
0.0
 31
0.0
210
0.0
220
0.0
230
1.0
 40
0.0871557427
 41
0.139489668049449
 42
2.855484358920954
  0
ARC
  5
132
330
8C
100
AcDbEntity
  8
$DDT_AUDIT_GENERATED_(10C)
  6
Continuous
 62
     7
100
AcDbCircle
 10
120.1268064837
 20
717.2088088536
 30
0.0
 40
6.604280272646564
100
AcDbArc
 50
341.2542243295
 51
346.7624629206
  0
LINE
  5
133
330
8C
100
AcDbEntity
  8
$DDT_AUDIT_GENERATED_(10C)
  6
Continuous
 62
     7
100
AcDbLine
 10
99.8642685451
 20
718.5393705904
 30
0.0
 11
100.6254390619
 21
719.4426868645
 31
0.0
  0
ARC
  5
134
330
8C
100
AcDbEntity
  8
$DDT_AUDIT_GENERATED_(10C)
  6
Continuous
 62
     7
100
AcDbCircle
 10
124.3219850322
 20
722.2157776319
 30
0.0
 40
4.770673843951131
100
AcDbArc
 50
297.9725427736
 51
306.6891281265
  0
LINE
  5
135
330
8C
100
AcDbEntity
  8
$DDT_AUDIT_GENERATED_(10C)
  6
Continuous
 62
     7
100
AcDbLine
 10
99.8642685451
 20
718.5393705904
 30
0.0
 11
99.8642685451
 21
715.0166763984
 31
0.0
  0
LINE
  5
136
330
8C
100
AcDbEntity
  8
$DDT_AUDIT_GENERATED_(10C)
  6
Continuous
 62
     7
100
AcDbLine
 10
100.0771913861
 20
714.8092391648
 30
0.0
 11
100.4505889934
 21
715.2523673837
 31
0.0
  0
LINE
  5
137
330
8C
100
AcDbEntity
  8
$DDT_AUDIT_GENERATED_(10C)
  6
Continuous
 62
     7
100
AcDbLine
 10
126.0073573495
 20
714.6432654033
 30
0.0
 11
126.3807549569
 21
715.0863936223
 31
0.0
  0
SPLINE
  5
138
330
8C
100
AcDbEntity
  8
$DDT_AUDIT_GENERATED_(10C)
  6
Continuous
 62
     7
100
AcDbSpline
210
0.0
220
0.0
230
1.0
 70
     8
 71
     3
 72
     8
 73
     4
 74
     0
 42
0.0000000248819467
 43
0.0000000001
 40
0.0138322976962565
 40
0.0138322976962565
 40
0.0138322976962565
 40
0.0138322976962565
 40
0.2360214902778486
 40
0.2360214902778486
 40
0.2360214902778486
 40
0.2360214902778486
 10
109.6758859370801
 20
715.3481883122791
 30
0.0
 10
109.6775384101768
 20
715.318901884892
 30
0.0
 10
109.6901958486849
 20
715.2906550863319
 30
0.0
 10
109.709661339161
 20
715.2691434927458
 30
0.0
  0
SPLINE
  5
139
330
8C
100
AcDbEntity
  8
$DDT_AUDIT_GENERATED_(10C)
  6
Continuous
 62
     7
100
AcDbSpline
210
0.0
220
0.0
230
1.0
 70
     8
 71
     3
 72
    12
 73
     8
 74
     0
 42
0.0000000266182067
 43
0.0000000001
 40
0.0182181602865985
 40
0.0182181602865985
 40
0.0182181602865985
 40
0.0182181602865985
 40
0.25
 40
0.25
 40
0.5
 40
0.5
 40
0.5522793751707787
 40
0.5522793751707787
 40
0.5522793751707787
 40
0.5522793751707787
 10
108.3884570052775
 20
715.4135554911219
 30
0.0
 10
108.3904680496938
 20
715.3829970420156
 30
0.0
 10
108.403342753818
 20
715.353315469523
 30
0.0
 10
108.4442468331626
 20
715.3074135418967
 30
0.0
 10
108.4731258266002
 20
715.2925944206679
 30
0.0
 10
108.5058458724644
 20
715.2908983931084
 30
0.0
 10
108.5113739821419
 20
715.2911802572509
 30
0.0
 10
108.5167291931729
 20
715.2920037875175
 30
0.0
  0
SPLINE
  5
13A
330
8C
100
AcDbEntity
  8
$DDT_AUDIT_GENERATED_(10C)
  6
Continuous
 62
     7
100
AcDbSpline
210
0.0
220
0.0
230
1.0
 70
     8
 71
     3
 72
    12
 73
     8
 74
     0
 42
0.0000000288682849
 43
0.0000000001
 40
0.1196452179239723
 40
0.1196452179239723
 40
0.1196452179239723
 40
0.1196452179239723
 40
0.25
 40
0.25
 40
0.5
 40
0.5
 40
0.547921769870912
 40
0.547921769870912
 40
0.547921769870912
 40
0.547921769870912
 10
107.2502843585547
 20
715.4619419208966
 30
0.0
 10
107.2559518396037
 20
715.4455339569736
 30
0.0
 10
107.2642758796447
 20
715.4303551571675
 30
0.0
 10
107.2941496657115
 20
715.393493691977
 30
0.0
 10
107.3203140708232
 20
715.3790185007517
 30
0.0
 10
107.3480150298382
 20
715.3774670155184
 30
0.0
 10
107.3523533803027
 20
715.3776699512474
 30
0.0
 10
107.356554301655
 20
715.3783056149358
 30
0.0
  0
SPLINE
  5
13B
330
8C
100
AcDbEntity
  8
$DDT_AUDIT_GENERATED_(10C)
  6
Continuous
 62
     7
100
AcDbSpline
210
0.0
220
0.0
230
1.0
 70
     8
 71
     3
 72
    12
 73
     8
 74
     0
 42
0.0000000285955483
 43
0.0000000001
 40
0.011822086963266
 40
0.011822086963266
 40
0.011822086963266
 40
0.011822086963266
 40
0.25
 40
0.25
 40
0.5
 40
0.5
 40
0.5472876402433764
 40
0.5472876402433764
 40
0.5472876402433764
 40
0.5472876402433764
 10
106.3044506740731
 20
715.6096644074104
 30
0.0
 10
106.3065629567906
 20
715.5751204353227
 30
0.0
 10
106.3222067198327
 20
715.5433622671528
 30
0.0
 10
106.3599151982401
 20
715.4984532251798
 30
0.0
 10
106.3822942426509
 20
715.4842484310946
 30
0.0
 10
106.4064672124939
 20
715.4793371890911
 30
0.0
 10
106.4102270224025
 20
715.4789404121232
 30
0.0
 10
106.4138763378313
 20
715.4789469939078
 30
0.0
  0
SPLINE
  5
13C
330
8C
100
AcDbEntity
  8
$DDT_AUDIT_GENERATED_(10C)
  6
Continuous
 62
     7
100
AcDbSpline
210
0.0
220
0.0
230
1.0
 70
     8
 71
     3
 72
    12
 73
     8
 74
     0
 42
0.0000000308188673
 43
0.0000000001
 40
0.0318518671614072
 40
0.0318518671614072
 40
0.0318518671614072
 40
0.0318518671614072
 40
0.25
 40
0.25
 40
0.5
 40
0.5
 40
0.5425206881513448
 40
0.5425206881513448
 40
0.5425206881513448
 40
0.5425206881513448
 10
105.834867405357
 20
715.6750208767455
 30
0.0
 10
105.837723028639
 20
715.643476443663
 30
0.0
 10
105.8488073926682
 20
715.6131361782963
 30
0.0
 10
105.8796456223015
 20
715.5674581758651
 30
0.0
 10
105.8989349284837
 20
715.5550615288319
 30
0.0
 10
105.9174123535422
 20
715.5535580687454
 30
0.0
 10
105.9200140253987
 20
715.5536307958017
 30
0.0
 10
105.9225292138386
 20
715.5539934653508
 30
0.0
  0
ARC
  5
13D
330
8C
100
AcDbEntity
  8
$DDT_AUDIT_GENERATED_(10C)
  6
Continuous
 62
     7
100
AcDbCircle
 10
109.4489761168
 20
716.007927507
 30
0.0
 40
0.1370385586418916
100
AcDbArc
 50
240.3248810558
 51
264.1198430327
  0
SPLINE
  5
13E
330
8C
100
AcDbEntity
  8
$DDT_AUDIT_GENERATED_(10C)
  6
Continuous
 62
     7
100
AcDbSpline
210
0.0
220
0.0
230
1.0
 70
    12
 71
     3
 72
     8
 73
     4
 74
     0
 42
0.0000000950554126
 43
0.0000000001
 40
0.9620598292617443
 40
0.9620598292617443
 40
0.9620598292617443
 40
0.9620598292617443
 40
1.0
 40
1.0
 40
1.0
 40
1.0
 10
108.8837226525241
 20
715.8723838421388
 30
0.0
 41
0.9786183766681329
 10
108.8824147898574
 20
715.872063876284
 30
0.0
 41
0.9854645130694714
 10
108.8811101507256
 20
715.871806299925
 30
0.0
 41
0.9925917208467604
 10
108.8798097662944
 20
715.871609996265
 30
0.0
 41
1.0
  0
ARC
  5
13F
330
8C
100
AcDbEntity
  8
$DDT_AUDIT_GENERATED_(10C)
  6
Continuous
 62
     7
100
AcDbCircle
 10
109.4230605759
 20
715.982137154
 30
0.0
 40
0.1111633795531685
100
AcDbArc
 50
270.5297382727
 51
276.1329352109
  0
SPLINE
  5
140
330
8C
100
AcDbEntity
  8
$DDT_AUDIT_GENERATED_(10C)
  6
Continuous
 62
     7
100
AcDbSpline
210
0.0
220
0.0
230
1.0
 70
    12
 71
     3
 72
     8
 73
     4
 74
     0
 42
0.0000000959682004
 43
0.0000000001
 40
0.0
 40
0.0
 40
0.0
 40
0.0
 40
0.0606458571226812
 40
0.0606458571226812
 40
0.0606458571226812
 40
0.0606458571226812
 10
108.8798097662944
 20
715.871609996265
 30
0.0
 41
1.0
 10
108.8818977052922
 20
715.8712948048052
 30
0.0
 41
0.9881581597997561
 10
108.8839956774697
 20
715.8711343506782
 30
0.0
 41
0.9770344781483657
 10
108.886099353128
 20
715.8711343335278
 30
0.0
 41
0.9666289550458291
  0
SPLINE
  5
141
330
8C
100
AcDbEntity
  8
$DDT_AUDIT_GENERATED_(10C)
  6
Continuous
 62
     7
100
AcDbSpline
210
0.0
220
0.0
230
1.0
 70
    12
 71
     3
 72
     8
 73
     4
 74
     0
 42
0.0000000483247328
 43
0.0000000001
 40
0.9521460444190025
 40
0.9521460444190025
 40
0.9521460444190025
 40
0.9521460444190025
 40
1.0
 40
1.0
 40
1.0
 40
1.0
 10
108.8699144155432
 20
715.8719029770045
 30
0.0
 41
0.9733092533997346
 10
108.8732231586963
 20
715.8717068159731
 30
0.0
 41
0.9817590184111963
 10
108.8765230053232
 20
715.871609996265
 30
0.0
 41
0.990655933944618
 10
108.8798097662944
 20
715.871609996265
 30
0.0
 41
1.0
  0
SPLINE
  5
142
330
8C
100
AcDbEntity
  8
$DDT_AUDIT_GENERATED_(10C)
  6
Continuous
 62
     7
100
AcDbSpline
210
0.0
220
0.0
230
1.0
 70
    12
 71
     3
 72
     8
 73
     4
 74
     0
 42
0.0000000474173541
 43
0.0000000001
 40
0.0
 40
0.0
 40
0.0
 40
0.0
 40
0.1190490528760666
 40
0.1190490528760666
 40
0.1190490528760666
 40
0.1190490528760666
 10
108.4467970644022
 20
715.8062431892042
 30
0.0
 41
1.0
 10
108.4550901045893
 20
715.8062431892042
 30
0.0
 41
0.9767542264709577
 10
108.4634429715244
 20
715.8068583684704
 30
0.0
 41
0.9562758402639193
 10
108.4717856952006
 20
715.8081235528526
 30
0.0
 41
0.9385648413788851
  0
SPLINE
  5
143
330
8C
100
AcDbEntity
  8
$DDT_AUDIT_GENERATED_(10C)
  6
Continuous
 62
     7
100
AcDbSpline
210
0.0
220
0.0
230
1.0
 70
     8
 71
     3
 72
     8
 73
     4
 74
     0
 42
0.0000000423873275
 43
0.0000000001
 40
0.8212420279291144
 40
0.8212420279291144
 40
0.8212420279291144
 40
0.8212420279291144
 40
0.8460845458316842
 40
0.8460845458316842
 40
0.8460845458316842
 40
0.8460845458316842
 10
109.704165269757
 20
715.74622229334
 30
0.0
 10
109.7060806296705
 20
715.7458303862194
 30
0.0
 10
109.7079987911663
 20
715.7454594968766
 30
0.0
 10
109.7099192114161
 20
715.7451092211767
 30
0.0
  0
SPLINE
  5
144
330
8C
100
AcDbEntity
  8
$DDT_AUDIT_GENERATED_(10C)
  6
Continuous
 62
     7
100
AcDbSpline
210
0.0
220
0.0
230
1.0
 70
    12
 71
     3
 72
     8
 73
     4
 74
     0
 42
0.0000000678841843
 43
0.0000000001
 40
0.4750242425960599
 40
0.4750242425960599
 40
0.4750242425960599
 40
0.4750242425960599
 40
1.0
 40
1.0
 40
1.0
 40
1.0
 10
108.3936988808893
 20
715.8544486234724
 30
0.0
 41
0.8539187974118578
 10
108.407949341926
 20
715.825584996092
 30
0.0
 41
0.8487983728805709
 10
108.4268971256539
 20
715.8092472476325
 30
0.0
 41
0.8974921070766183
 10
108.4467970644022
 20
715.8062431892042
 30
0.0
 41
1.0
  0
SPLINE
  5
145
330
8C
100
AcDbEntity
  8
$DDT_AUDIT_GENERATED_(10C)
  6
Continuous
 62
     7
100
AcDbSpline
210
0.0
220
0.0
230
1.0
 70
    12
 71
     3
 72
     8
 73
     4
 74
     0
 42
0.000000056104638
 43
0.0000000001
 40
0.0
 40
0.0
 40
0.0
 40
0.0
 40
0.9710233551088254
 40
0.9710233551088254
 40
0.9710233551088254
 40
0.9710233551088254
 10
108.8798097662945
 20
715.7408763821435
 30
0.0
 41
1.0
 10
108.9205736516464
 20
715.7470300238662
 30
0.0
 41
0.8103958959860958
 10
108.9502213937155
 20
715.8001294531164
 30
0.0
 41
0.8049018051941756
 10
108.951916938215
 20
715.8711415006842
 30
0.0
 41
0.9835177276242393
  0
SPLINE
  5
146
330
8C
100
AcDbEntity
  8
$DDT_AUDIT_GENERATED_(10C)
  6
Continuous
 62
     7
100
AcDbSpline
210
0.0
220
0.0
230
1.0
 70
    12
 71
     3
 72
     8
 73
     4
 74
     0
 42
0.0000000817751814
 43
0.0000000001
 40
0.7338934833121623
 40
0.7338934833121623
 40
0.7338934833121623
 40
0.7338934833121623
 40
1.0
 40
1.0
 40
1.0
 40
1.0
 10
107.6090491814
 20
715.8204688979235
 30
0.0
 41
0.8855995180756304
 10
107.599895226771
 20
715.8123603822776
 30
0.0
 41
0.9099059765452533
 10
107.590320975625
 20
715.8076847363665
 30
0.0
 41
0.9480394705200431
 10
107.5807716606178
 20
715.8062431892042
 30
0.0
 41
1.0
  0
SPLINE
  5
147
330
8C
100
AcDbEntity
  8
$DDT_AUDIT_GENERATED_(10C)
  6
Continuous
 62
     7
100
AcDbSpline
210
0.0
220
0.0
230
1.0
 70
    12
 71
     3
 72
     8
 73
     4
 74
     0
 42
0.0000000474172164
 43
0.0000000001
 40
0.8809395038976755
 40
0.8809395038976755
 40
0.8809395038976755
 40
0.8809395038976755
 40
1.0
 40
1.0
 40
1.0
 40
1.0
 10
108.8548186843394
 20
715.7427571175317
 30
0.0
 41
0.9385597342087258
 10
108.8631622189936
 20
715.7414916822129
 30
0.0
 41
0.9562719034449522
 10
108.8715159099912
 20
715.7408763821434
 30
0.0
 41
0.9767519920420435
 10
108.8798097662945
 20
715.7408763821435
 30
0.0
 41
1.0
  0
SPLINE
  5
148
330
8C
100
AcDbEntity
  8
$DDT_AUDIT_GENERATED_(10C)
  6
Continuous
 62
     7
100
AcDbSpline
210
0.0
220
0.0
230
1.0
 70
    12
 71
     3
 72
     8
 73
     4
 74
     0
 42
0.0000000959682004
 43
0.0000000001
 40
0.0
 40
0.0
 40
0.0
 40
0.0
 40
0.0606458571224566
 40
0.0606458571224566
 40
0.0606458571224566
 40
0.0606458571224566
 10
108.4467970644022
 20
715.8062431892042
 30
0.0
 41
1.0
 10
108.4447091254044
 20
715.8059279977443
 30
0.0
 41
0.9881581597998048
 10
108.442611153227
 20
715.8057675436173
 30
0.0
 41
0.9770344781484576
 10
108.4405074775687
 20
715.8057675264671
 30
0.0
 41
0.9666289550459584
  0
SPLINE
  5
149
330
8C
100
AcDbEntity
  8
$DDT_AUDIT_GENERATED_(10C)
  6
Continuous
 62
     7
100
AcDbSpline
210
0.0
220
0.0
230
1.0
 70
    12
 71
     3
 72
     8
 73
     4
 74
     0
 42
0.0000000959682004
 43
0.0000000001
 40
0.0
 40
0.0
 40
0.0
 40
0.0
 40
0.0606458571225178
 40
0.0606458571225178
 40
0.0606458571225178
 40
0.0606458571225178
 10
108.8798097662945
 20
715.7408763821435
 30
0.0
 41
1.0
 10
108.8818977052923
 20
715.7405611906836
 30
0.0
 41
0.988158159799791
 10
108.8839956774697
 20
715.7404007365566
 30
0.0
 41
0.9770344781484317
 10
108.886099353128
 20
715.7404007194064
 30
0.0
 41
0.9666289550459218
  0
SPLINE
  5
14A
330
8C
100
AcDbEntity
  8
$DDT_AUDIT_GENERATED_(10C)
  6
Continuous
 62
     7
100
AcDbSpline
210
0.0
220
0.0
230
1.0
 70
    12
 71
     3
 72
     8
 73
     4
 74
     0
 42
0.0000000959682004
 43
0.0000000001
 40
0.0
 40
0.0
 40
0.0
 40
0.0
 40
0.0606458571226318
 40
0.0606458571226318
 40
0.0606458571226318
 40
0.0606458571226318
 10
107.5807716606178
 20
715.8062431892042
 30
0.0
 41
1.0
 10
107.5828595996156
 20
715.8059279977444
 30
0.0
 41
0.988158159799768
 10
107.584957571793
 20
715.8057675436173
 30
0.0
 41
0.9770344781483883
 10
107.5870612474513
 20
715.8057675264671
 30
0.0
 41
0.9666289550458609
  0
SPLINE
  5
14B
330
8C
100
AcDbEntity
  8
$DDT_AUDIT_GENERATED_(10C)
  6
Continuous
 62
     7
100
AcDbSpline
210
0.0
220
0.0
230
1.0
 70
    12
 71
     3
 72
     8
 73
     4
 74
     0
 42
0.0000000561045948
 43
0.0000000001
 40
0.0289729711927825
 40
0.0289729711927825
 40
0.0289729711927825
 40
0.0289729711927825
 40
1.0
 40
1.0
 40
1.0
 40
1.0
 10
108.3746898767333
 20
715.8057753532336
 30
0.0
 41
0.9835197549192035
 10
108.3763852111161
 20
715.7347630505836
 30
0.0
 41
0.8049017636249333
 10
108.4060329887443
 20
715.6816632455337
 30
0.0
 41
0.8103951786518655
 10
108.4467970644023
 20
715.6755095750827
 30
0.0
 41
1.0
  0
SPLINE
  5
14C
330
8C
100
AcDbEntity
  8
$DDT_AUDIT_GENERATED_(10C)
  6
Continuous
 62
     7
100
AcDbSpline
210
0.0
220
0.0
230
1.0
 70
    12
 71
     3
 72
     8
 73
     4
 74
     0
 42
0.0000000474173541
 43
0.0000000001
 40
0.0
 40
0.0
 40
0.0
 40
0.0
 40
0.119049052876031
 40
0.119049052876031
 40
0.119049052876031
 40
0.119049052876031
 10
108.4467970644023
 20
715.6755095750827
 30
0.0
 41
1.0
 10
108.4550901045893
 20
715.6755095750827
 30
0.0
 41
0.9767542264709681
 10
108.4634429715244
 20
715.6761247543491
 30
0.0
 41
0.9562758402639381
 10
108.4717856952006
 20
715.6773899387312
 30
0.0
 41
0.93856484137891
  0
SPLINE
  5
14D
330
8C
100
AcDbEntity
  8
$DDT_AUDIT_GENERATED_(10C)
  6
Continuous
 62
     7
100
AcDbSpline
210
0.0
220
0.0
230
1.0
 70
    12
 71
     3
 72
     8
 73
     4
 74
     0
 42
0.0000000474172164
 43
0.0000000001
 40
0.880939503897689
 40
0.880939503897689
 40
0.880939503897689
 40
0.880939503897689
 40
1.0
 40
1.0
 40
1.0
 40
1.0
 10
107.5557805786627
 20
715.8081239245923
 30
0.0
 41
0.9385597342087382
 10
107.564124113317
 20
715.8068584892737
 30
0.0
 41
0.9562719034449613
 10
107.5724778043145
 20
715.8062431892042
 30
0.0
 41
0.9767519920420485
 10
107.5807716606178
 20
715.8062431892042
 30
0.0
 41
1.0
  0
SPLINE
  5
14E
330
8C
100
AcDbEntity
  8
$DDT_AUDIT_GENERATED_(10C)
  6
Continuous
 62
     7
100
AcDbSpline
210
0.0
220
0.0
230
1.0
 70
    12
 71
     3
 72
     8
 73
     4
 74
     0
 42
0.0000000474173541
 43
0.0000000001
 40
0.0
 40
0.0
 40
0.0
 40
0.0
 40
0.1190490528761274
 40
0.1190490528761274
 40
0.1190490528761274
 40
0.1190490528761274
 10
107.1477589587256
 20
715.7408763821435
 30
0.0
 41
1.0
 10
107.1560519989126
 20
715.7408763821434
 30
0.0
 41
0.9767542264709455
 10
107.1644048658477
 20
715.7414915614097
 30
0.0
 41
0.9562758402638978
 10
107.172747589524
 20
715.7427567457919
 30
0.0
 41
0.938564841378857
  0
SPLINE
  5
14F
330
8C
100
AcDbEntity
  8
$DDT_AUDIT_GENERATED_(10C)
  6
Continuous
 62
     7
100
AcDbSpline
210
0.0
220
0.0
230
1.0
 70
    12
 71
     3
 72
     8
 73
     4
 74
     0
 42
0.0000000561045948
 43
0.0000000001
 40
0.0289729711929287
 40
0.0289729711929287
 40
0.0289729711929287
 40
0.0289729711929287
 40
1.0
 40
1.0
 40
1.0
 40
1.0
 10
107.6528788482868
 20
715.8057753532336
 30
0.0
 41
0.9835197549191227
 10
107.6511835139039
 20
715.7347630505836
 30
0.0
 41
0.8049017636249329
 10
107.6215357362757
 20
715.6816632455337
 30
0.0
 41
0.810395178651892
 10
107.5807716606178
 20
715.6755095750827
 30
0.0
 41
1.0
  0
SPLINE
  5
150
330
8C
100
AcDbEntity
  8
$DDT_AUDIT_GENERATED_(10C)
  6
Continuous
 62
     7
100
AcDbSpline
210
0.0
220
0.0
230
1.0
 70
    12
 71
     3
 72
     8
 73
     4
 74
     0
 42
0.000000056104638
 43
0.0000000001
 40
0.0
 40
0.0
 40
0.0
 40
0.0
 40
0.9710233551087173
 40
0.9710233551087173
 40
0.9710233551087173
 40
0.9710233551087173
 10
108.8798097662945
 20
715.6101427680219
 30
0.0
 41
1.0
 10
108.9205736516464
 20
715.6162964097448
 30
0.0
 41
0.8103958959861159
 10
108.9502213937156
 20
715.6693958389948
 30
0.0
 41
0.8049018051941759
 10
108.9519169382151
 20
715.7404078865626
 30
0.0
 41
0.9835177276241795
  0
SPLINE
  5
151
330
8C
100
AcDbEntity
  8
$DDT_AUDIT_GENERATED_(10C)
  6
Continuous
 62
     7
100
AcDbSpline
210
0.0
220
0.0
230
1.0
 70
    12
 71
     3
 72
     8
 73
     4
 74
     0
 42
0.0000000531767902
 43
0.0000000001
 40
0.0289729711928846
 40
0.0289729711928846
 40
0.0289729711928846
 40
0.0289729711928846
 40
0.6603991510106071
 40
0.6603991510106071
 40
0.6603991510106071
 40
0.6603991510106071
 10
109.6737279824099
 20
715.7404085461727
 30
0.0
 41
0.9835197549191469
 10
109.6747510041722
 20
715.6975573353815
 30
0.0
 41
0.8673704897146822
 10
109.6874313634972
 20
715.6577528422355
 30
0.0
 41
0.8290720508231202
 10
109.7099015607015
 20
715.6321005470908
 30
0.0
 41
0.8686244382444608
  0
SPLINE
  5
152
330
8C
100
AcDbEntity
  8
$DDT_AUDIT_GENERATED_(10C)
  6
Continuous
 62
     7
100
AcDbSpline
210
0.0
220
0.0
230
1.0
 70
    12
 71
     3
 72
     8
 73
     4
 74
     0
 42
0.0000000665681496
 43
0.0000000001
 40
0.4441588077924303
 40
0.4441588077924303
 40
0.4441588077924303
 40
0.4441588077924303
 40
1.0
 40
1.0
 40
1.0
 40
1.0
 10
107.0922345252856
 20
715.7942358823785
 30
0.0
 41
0.855380012560654
 10
107.1065597364503
 20
715.7623037962054
 30
0.0
 41
0.8432585935637038
 10
107.126546576924
 20
715.7440785645795
 30
0.0
 41
0.8914652560434858
 10
107.1477589587256
 20
715.7408763821435
 30
0.0
 41
1.0
  0
SPLINE
  5
153
330
8C
100
AcDbEntity
  8
$DDT_AUDIT_GENERATED_(10C)
  6
Continuous
 62
     7
100
AcDbSpline
210
0.0
220
0.0
230
1.0
 70
    12
 71
     3
 72
     8
 73
     4
 74
     0
 42
0.0000000959680973
 43
0.0000000001
 40
0.9393488469401411
 40
0.9393488469401411
 40
0.9393488469401411
 40
0.9393488469401411
 40
1.0
 40
1.0
 40
1.0
 40
1.0
 10
108.4405069205212
 20
715.6750339123448
 30
0.0
 41
0.9666262290559402
 10
108.4426107826415
 20
715.6750339011545
 30
0.0
 41
0.9770325353890132
 10
108.4447089408887
 20
715.6751943557688
 30
0.0
 41
0.9881571257036998
 10
108.4467970644023
 20
715.6755095750827
 30
0.0
 41
1.0
  0
SPLINE
  5
154
330
8C
100
AcDbEntity
  8
$DDT_AUDIT_GENERATED_(10C)
  6
Continuous
 62
     7
100
AcDbSpline
210
0.0
220
0.0
230
1.0
 70
    12
 71
     3
 72
     8
 73
     4
 74
     0
 42
0.0000000959682004
 43
0.0000000001
 40
0.0
 40
0.0
 40
0.0
 40
0.0
 40
0.0606458571226006
 40
0.0606458571226006
 40
0.0606458571226006
 40
0.0606458571226006
 10
107.5807716606178
 20
715.6755095750827
 30
0.0
 41
1.0
 10
107.5828595996156
 20
715.675194383623
 30
0.0
 41
0.9881581597997743
 10
107.5849575717931
 20
715.675033929496
 30
0.0
 41
0.9770344781484
 10
107.5870612474513
 20
715.6750339123456
 30
0.0
 41
0.9666289550458774
  0
SPLINE
  5
155
330
8C
100
AcDbEntity
  8
$DDT_AUDIT_GENERATED_(10C)
  6
Continuous
 62
     7
100
AcDbSpline
210
0.0
220
0.0
230
1.0
 70
    12
 71
     3
 72
     8
 73
     4
 74
     0
 42
0.0000000474172164
 43
0.0000000001
 40
0.8809395038976832
 40
0.8809395038976832
 40
0.8809395038976832
 40
0.8809395038976832
 40
1.0
 40
1.0
 40
1.0
 40
1.0
 10
108.8548186843394
 20
715.6120235034102
 30
0.0
 41
0.9385597342087307
 10
108.8631622189937
 20
715.6107580680916
 30
0.0
 41
0.9562719034449558
 10
108.8715159099912
 20
715.6101427680219
 30
0.0
 41
0.9767519920420455
 10
108.8798097662945
 20
715.6101427680219
 30
0.0
 41
1.0
  0
SPLINE
  5
156
330
8C
100
AcDbEntity
  8
$DDT_AUDIT_GENERATED_(10C)
  6
Continuous
 62
     7
100
AcDbSpline
210
0.0
220
0.0
230
1.0
 70
    12
 71
     3
 72
     8
 73
     4
 74
     0
 42
0.0000000474172164
 43
0.0000000001
 40
0.8809395038976596
 40
0.8809395038976596
 40
0.8809395038976596
 40
0.8809395038976596
 40
1.0
 40
1.0
 40
1.0
 40
1.0
 10
107.5557805786627
 20
715.677390310471
 30
0.0
 41
0.9385597342087177
 10
107.564124113317
 20
715.6761248751523
 30
0.0
 41
0.956271903444946
 10
107.5724778043146
 20
715.6755095750829
 30
0.0
 41
0.97675199204204
 10
107.5807716606178
 20
715.6755095750827
 30
0.0
 41
1.0
  0
SPLINE
  5
157
330
8C
100
AcDbEntity
  8
$DDT_AUDIT_GENERATED_(10C)
  6
Continuous
 62
     7
100
AcDbSpline
210
0.0
220
0.0
230
1.0
 70
    12
 71
     3
 72
     8
 73
     4
 74
     0
 42
0.0000000959682004
 43
0.0000000001
 40
0.0
 40
0.0
 40
0.0
 40
0.0
 40
0.0606458571226259
 40
0.0606458571226259
 40
0.0606458571226259
 40
0.0606458571226259
 10
107.1477589587256
 20
715.7408763821435
 30
0.0
 41
1.0
 10
107.1456710197278
 20
715.7405611906836
 30
0.0
 41
0.9881581597997692
 10
107.1435730475503
 20
715.7404007365565
 30
0.0
 41
0.9770344781483905
 10
107.1414693718921
 20
715.7404007194062
 30
0.0
 41
0.966628955045864
  0
SPLINE
  5
158
330
8C
100
AcDbEntity
  8
$DDT_AUDIT_GENERATED_(10C)
  6
Continuous
 62
     7
100
AcDbSpline
210
0.0
220
0.0
230
1.0
 70
    12
 71
     3
 72
     8
 73
     4
 74
     0
 42
0.0000000474173541
 43
0.0000000001
 40
0.0
 40
0.0
 40
0.0
 40
0.0
 40
0.119049052876084
 40
0.119049052876084
 40
0.119049052876084
 40
0.119049052876084
 10
107.1477589587256
 20
715.6101427680219
 30
0.0
 41
1.0
 10
107.1560519989127
 20
715.6101427680219
 30
0.0
 41
0.9767542264709542
 10
107.1644048658478
 20
715.6107579472883
 30
0.0
 41
0.9562758402639133
 10
107.172747589524
 20
715.6120231316705
 30
0.0
 41
0.9385648413788773
  0
SPLINE
  5
159
330
8C
100
AcDbEntity
  8
$DDT_AUDIT_GENERATED_(10C)
  6
Continuous
 62
     7
100
AcDbSpline
210
0.0
220
0.0
230
1.0
 70
    12
 71
     3
 72
     8
 73
     4
 74
     0
 42
0.0000000561045948
 43
0.0000000001
 40
0.0289729711929198
 40
0.0289729711929198
 40
0.0289729711929198
 40
0.0289729711929198
 40
1.0
 40
1.0
 40
1.0
 40
1.0
 10
108.3746898767333
 20
715.675041739112
 30
0.0
 41
0.9835197549191277
 10
108.3763852111162
 20
715.604029436462
 30
0.0
 41
0.8049017636249358
 10
108.4060329887443
 20
715.5509296314121
 30
0.0
 41
0.8103951786518933
 10
108.4467970644023
 20
715.5447759609613
 30
0.0
 41
1.0
  0
SPLINE
  5
15A
330
8C
100
AcDbEntity
  8
$DDT_AUDIT_GENERATED_(10C)
  6
Continuous
 62
     7
100
AcDbSpline
210
0.0
220
0.0
230
1.0
 70
    12
 71
     3
 72
     8
 73
     4
 74
     0
 42
0.0000000959682004
 43
0.0000000001
 40
0.0
 40
0.0
 40
0.0
 40
0.0
 40
0.0606458571224515
 40
0.0606458571224515
 40
0.0606458571224515
 40
0.0606458571224515
 10
108.8798097662945
 20
715.6101427680219
 30
0.0
 41
1.0
 10
108.8818977052923
 20
715.6098275765622
 30
0.0
 41
0.9881581597998036
 10
108.8839956774697
 20
715.6096671224351
 30
0.0
 41
0.9770344781484552
 10
108.886099353128
 20
715.6096671052849
 30
0.0
 41
0.9666289550459549
  0
SPLINE
  5
15B
330
8C
100
AcDbEntity
  8
$DDT_AUDIT_GENERATED_(10C)
  6
Continuous
 62
     7
100
AcDbSpline
210
0.0
220
0.0
230
1.0
 70
    12
 71
     3
 72
     8
 73
     4
 74
     0
 42
0.0000000561045948
 43
0.0000000001
 40
0.028972971192901
 40
0.028972971192901
 40
0.028972971192901
 40
0.028972971192901
 40
1.0
 40
1.0
 40
1.0
 40
1.0
 10
107.0756517710566
 20
715.7404085461728
 30
0.0
 41
0.9835197549191387
 10
107.0773471054395
 20
715.669396243523
 30
0.0
 41
0.8049017636249416
 10
107.1069948830677
 20
715.616296438473
 30
0.0
 41
0.8103951786518954
 10
107.1477589587256
 20
715.6101427680219
 30
0.0
 41
1.0
  0
SPLINE
  5
15C
330
8C
100
AcDbEntity
  8
$DDT_AUDIT_GENERATED_(10C)
  6
Continuous
 62
     7
100
AcDbSpline
210
0.0
220
0.0
230
1.0
 70
    12
 71
     3
 72
     8
 73
     4
 74
     0
 42
0.000000056104638
 43
0.0000000001
 40
0.0
 40
0.0
 40
0.0
 40
0.0
 40
0.9710233551085576
 40
0.9710233551085576
 40
0.9710233551085576
 40
0.9710233551085576
 10
107.5807716606178
 20
715.5447759609613
 30
0.0
 41
1.0
 10
107.6215355459697
 20
715.550929602684
 30
0.0
 41
0.8103958959861481
 10
107.6511832880389
 20
715.6040290319341
 30
0.0
 41
0.8049018051941786
 10
107.6528788325384
 20
715.6750410795019
 30
0.0
 41
0.9835177276240915
  0
SPLINE
  5
15D
330
8C
100
AcDbEntity
  8
$DDT_AUDIT_GENERATED_(10C)
  6
Continuous
 62
     7
100
AcDbSpline
210
0.0
220
0.0
230
1.0
 70
    12
 71
     3
 72
     8
 73
     4
 74
     0
 42
0.0000000474173541
 43
0.0000000001
 40
0.0
 40
0.0
 40
0.0
 40
0.0
 40
0.1190490528760982
 40
0.1190490528760982
 40
0.1190490528760982
 40
0.1190490528760982
 10
108.4467970644023
 20
715.5447759609613
 30
0.0
 41
1.0
 10
108.4550901045893
 20
715.5447759609613
 30
0.0
 41
0.976754226470955
 10
108.4634429715244
 20
715.5453911402276
 30
0.0
 41
0.956275840263915
 10
108.4717856952007
 20
715.5466563246098
 30
0.0
 41
0.9385648413788801
  0
SPLINE
  5
15E
330
8C
100
AcDbEntity
  8
$DDT_AUDIT_GENERATED_(10C)
  6
Continuous
 62
     7
100
AcDbSpline
210
0.0
220
0.0
230
1.0
 70
    12
 71
     3
 72
     8
 73
     4
 74
     0
 42
0.0000000474173541
 43
0.0000000001
 40
0.0
 40
0.0
 40
0.0
 40
0.0
 40
0.1190490528760826
 40
0.1190490528760826
 40
0.1190490528760826
 40
0.1190490528760826
 10
105.8487208530489
 20
715.6755095750827
 30
0.0
 41
1.0
 10
105.857013893236
 20
715.6755095750829
 30
0.0
 41
0.9767542264709541
 10
105.8653667601711
 20
715.6761247543491
 30
0.0
 41
0.9562758402639131
 10
105.8737094838473
 20
715.6773899387312
 30
0.0
 41
0.938564841378877
  0
SPLINE
  5
15F
330
8C
100
AcDbEntity
  8
$DDT_AUDIT_GENERATED_(10C)
  6
Continuous
 62
     7
100
AcDbSpline
210
0.0
220
0.0
230
1.0
 70
    12
 71
     3
 72
     8
 73
     4
 74
     0
 42
0.0000000561045948
 43
0.0000000001
 40
0.0289729711928938
 40
0.0289729711928938
 40
0.0289729711928938
 40
0.0289729711928938
 40
1.0
 40
1.0
 40
1.0
 40
1.0
 10
106.3538407426102
 20
715.7404085461727
 30
0.0
 41
0.9835197549191419
 10
106.3521454082273
 20
715.6693962435228
 30
0.0
 41
0.8049017636249326
 10
106.3224976305991
 20
715.6162964384729
 30
0.0
 41
0.8103951786518853
 10
106.2817335549412
 20
715.6101427680219
 30
0.0
 41
1.0
  0
SPLINE
  5
160
330
8C
100
AcDbEntity
  8
$DDT_AUDIT_GENERATED_(10C)
  6
Continuous
 62
     7
100
AcDbSpline
210
0.0
220
0.0
230
1.0
 70
    12
 71
     3
 72
     8
 73
     4
 74
     0
 42
0.0000000474172164
 43
0.0000000001
 40
0.880939503897691
 40
0.880939503897691
 40
0.880939503897691
 40
0.880939503897691
 40
1.0
 40
1.0
 40
1.0
 40
1.0
 10
107.5557805786627
 20
715.5466566963494
 30
0.0
 41
0.9385597342087308
 10
107.564124113317
 20
715.5453912610308
 30
0.0
 41
0.956271903444956
 10
107.5724778043146
 20
715.5447759609613
 30
0.0
 41
0.9767519920420458
 10
107.5807716606178
 20
715.5447759609613
 30
0.0
 41
1.0
  0
SPLINE
  5
161
330
8C
100
AcDbEntity
  8
$DDT_AUDIT_GENERATED_(10C)
  6
Continuous
 62
     7
100
AcDbSpline
210
0.0
220
0.0
230
1.0
 70
    12
 71
     3
 72
     8
 73
     4
 74
     0
 42
0.0000000959682004
 43
0.0000000001
 40
0.0
 40
0.0
 40
0.0
 40
0.0
 40
0.0606458571226262
 40
0.0606458571226262
 40
0.0606458571226262
 40
0.0606458571226262
 10
107.1477589587256
 20
715.6101427680219
 30
0.0
 41
1.0
 10
107.1456710197278
 20
715.6098275765621
 30
0.0
 41
0.9881581597997692
 10
107.1435730475504
 20
715.609667122435
 30
0.0
 41
0.9770344781483905
 10
107.1414693718921
 20
715.6096671052848
 30
0.0
 41
0.966628955045864
  0
SPLINE
  5
162
330
8C
100
AcDbEntity
  8
$DDT_AUDIT_GENERATED_(10C)
  6
Continuous
 62
     7
100
AcDbSpline
210
0.0
220
0.0
230
1.0
 70
    12
 71
     3
 72
     8
 73
     4
 74
     0
 42
0.0000000959680973
 43
0.0000000001
 40
0.9393488469399944
 40
0.9393488469399944
 40
0.9393488469399944
 40
0.9393488469399944
 40
1.0
 40
1.0
 40
1.0
 40
1.0
 10
108.4405069205212
 20
715.5443002982233
 30
0.0
 41
0.9666262290558648
 10
108.4426107826415
 20
715.544300287033
 30
0.0
 41
0.9770325353889595
 10
108.4447089408887
 20
715.5444607416472
 30
0.0
 41
0.9881571257036712
 10
108.4467970644023
 20
715.5447759609613
 30
0.0
 41
1.0
  0
SPLINE
  5
163
330
8C
100
AcDbEntity
  8
$DDT_AUDIT_GENERATED_(10C)
  6
Continuous
 62
     7
100
AcDbSpline
210
0.0
220
0.0
230
1.0
 70
    12
 71
     3
 72
     8
 73
     4
 74
     0
 42
0.0000000959682004
 43
0.0000000001
 40
0.0
 40
0.0
 40
0.0
 40
0.0
 40
0.0606458571224317
 40
0.0606458571224317
 40
0.0606458571224317
 40
0.0606458571224317
 10
107.5807716606178
 20
715.5447759609613
 30
0.0
 41
1.0
 10
107.5828595996156
 20
715.5444607695014
 30
0.0
 41
0.9881581597998075
 10
107.5849575717931
 20
715.5443003153744
 30
0.0
 41
0.9770344781484626
 10
107.5870612474513
 20
715.544300298224
 30
0.0
 41
0.9666289550459651
  0
SPLINE
  5
164
330
8C
100
AcDbEntity
  8
$DDT_AUDIT_GENERATED_(10C)
  6
Continuous
 62
     7
100
AcDbSpline
210
0.0
220
0.0
230
1.0
 70
    12
 71
     3
 72
     8
 73
     4
 74
     0
 42
0.000000056104638
 43
0.0000000001
 40
0.0
 40
0.0
 40
0.0
 40
0.0
 40
0.9710233551086215
 40
0.9710233551086215
 40
0.9710233551086215
 40
0.9710233551086215
 10
108.8798097662945
 20
715.4794091539005
 30
0.0
 41
1.0
 10
108.9205736516464
 20
715.4855627956232
 30
0.0
 41
0.8103958959861347
 10
108.9502213937156
 20
715.5386622248734
 30
0.0
 41
0.8049018051941769
 10
108.9519169382151
 20
715.6096742724411
 30
0.0
 41
0.9835177276241267
  0
SPLINE
  5
165
330
8C
100
AcDbEntity
  8
$DDT_AUDIT_GENERATED_(10C)
  6
Continuous
 62
     7
100
AcDbSpline
210
0.0
220
0.0
230
1.0
 70
    12
 71
     3
 72
     8
 73
     4
 74
     0
 42
0.0000000531767902
 43
0.0000000001
 40
0.0289729711928683
 40
0.0289729711928683
 40
0.0289729711928683
 40
0.0289729711928683
 40
0.6603991510106298
 40
0.6603991510106298
 40
0.6603991510106298
 40
0.6603991510106298
 10
109.67372798241
 20
715.6096749320513
 30
0.0
 41
0.9835197549191569
 10
109.6747510041723
 20
715.56682372126
 30
0.0
 41
0.8673704897146874
 10
109.6874313634972
 20
715.527019228114
 30
0.0
 41
0.829072050823126
 10
109.7099015607015
 20
715.5013669329694
 30
0.0
 41
0.8686244382444723
  0
SPLINE
  5
166
330
8C
100
AcDbEntity
  8
$DDT_AUDIT_GENERATED_(10C)
  6
Continuous
 62
     7
100
AcDbSpline
210
0.0
220
0.0
230
1.0
 70
    12
 71
     3
 72
     8
 73
     4
 74
     0
 42
0.0000000865689833
 43
0.0000000001
 40
0.8124265759573698
 40
0.8124265759573698
 40
0.8124265759573698
 40
0.8124265759573698
 40
1.0
 40
1.0
 40
1.0
 40
1.0
 10
105.8288551089055
 20
715.6833191480291
 30
0.0
 41
0.9107322187955632
 10
105.8354261570987
 20
715.6790807687568
 30
0.0
 41
0.9336180836440459
 10
105.8420968654759
 20
715.6765095201554
 30
0.0
 41
0.9633740107121914
 10
105.8487208530489
 20
715.6755095750827
 30
0.0
 41
1.0
  0
SPLINE
  5
167
330
8C
100
AcDbEntity
  8
$DDT_AUDIT_GENERATED_(10C)
  6
Continuous
 62
     7
100
AcDbSpline
210
0.0
220
0.0
230
1.0
 70
    12
 71
     3
 72
     8
 73
     4
 74
     0
 42
0.0000000959682004
 43
0.0000000001
 40
0.0
 40
0.0
 40
0.0
 40
0.0
 40
0.0606458571224625
 40
0.0606458571224625
 40
0.0606458571224625
 40
0.0606458571224625
 10
106.2817335549412
 20
715.6101427680219
 30
0.0
 41
1.0
 10
106.283821493939
 20
715.6098275765622
 30
0.0
 41
0.9881581597998013
 10
106.2859194661164
 20
715.6096671224352
 30
0.0
 41
0.9770344781484508
 10
106.2880231417747
 20
715.6096671052849
 30
0.0
 41
0.9666289550459487
  0
SPLINE
  5
168
330
8C
100
AcDbEntity
  8
$DDT_AUDIT_GENERATED_(10C)
  6
Continuous
 62
     7
100
AcDbSpline
210
0.0
220
0.0
230
1.0
 70
    12
 71
     3
 72
     8
 73
     4
 74
     0
 42
0.0000000561045948
 43
0.0000000001
 40
0.0289729711928747
 40
0.0289729711928747
 40
0.0289729711928747
 40
0.0289729711928747
 40
1.0
 40
1.0
 40
1.0
 40
1.0
 10
107.0756517710567
 20
715.6096749320513
 30
0.0
 41
0.9835197549191528
 10
107.0773471054395
 20
715.5386626294013
 30
0.0
 41
0.8049017636249364
 10
107.1069948830677
 20
715.4855628243515
 30
0.0
 41
0.8103951786518854
 10
107.1477589587256
 20
715.4794091539005
 30
0.0
 41
1.0
  0
SPLINE
  5
169
330
8C
100
AcDbEntity
  8
$DDT_AUDIT_GENERATED_(10C)
  6
Continuous
 62
     7
100
AcDbSpline
210
0.0
220
0.0
230
1.0
 70
    12
 71
     3
 72
     8
 73
     4
 74
     0
 42
0.0000000474173541
 43
0.0000000001
 40
0.0
 40
0.0
 40
0.0
 40
0.0
 40
0.1190490528760943
 40
0.1190490528760943
 40
0.1190490528760943
 40
0.1190490528760943
 10
107.1477589587256
 20
715.4794091539005
 30
0.0
 41
1.0
 10
107.1560519989127
 20
715.4794091539005
 30
0.0
 41
0.9767542264709542
 10
107.1644048658478
 20
715.480024333167
 30
0.0
 41
0.9562758402639135
 10
107.172747589524
 20
715.481289517549
 30
0.0
 41
0.938564841378878
  0
SPLINE
  5
16A
330
8C
100
AcDbEntity
  8
$DDT_AUDIT_GENERATED_(10C)
  6
Continuous
 62
     7
100
AcDbSpline
210
0.0
220
0.0
230
1.0
 70
    12
 71
     3
 72
     8
 73
     4
 74
     0
 42
0.0000000474172164
 43
0.0000000001
 40
0.880939503897585
 40
0.880939503897585
 40
0.880939503897585
 40
0.880939503897585
 40
1.0
 40
1.0
 40
1.0
 40
1.0
 10
108.8548186843394
 20
715.4812898892889
 30
0.0
 41
0.938559734208687
 10
108.8631622189937
 20
715.48002445397
 30
0.0
 41
0.9562719034449221
 10
108.8715159099912
 20
715.4794091539005
 30
0.0
 41
0.9767519920420265
 10
108.8798097662945
 20
715.4794091539005
 30
0.0
 41
1.0
  0
SPLINE
  5
16B
330
8C
100
AcDbEntity
  8
$DDT_AUDIT_GENERATED_(10C)
  6
Continuous
 62
     7
100
AcDbSpline
210
0.0
220
0.0
230
1.0
 70
    12
 71
     3
 72
     8
 73
     4
 74
     0
 42
0.0000000474172164
 43
0.0000000001
 40
0.880939503897647
 40
0.880939503897647
 40
0.880939503897647
 40
0.880939503897647
 40
1.0
 40
1.0
 40
1.0
 40
1.0
 10
106.2567424729861
 20
715.6120235034102
 30
0.0
 41
0.9385597342087155
 10
106.2650860076403
 20
715.6107580680915
 30
0.0
 41
0.9562719034449441
 10
106.2734396986379
 20
715.6101427680219
 30
0.0
 41
0.9767519920420389
 10
106.2817335549412
 20
715.6101427680219
 30
0.0
 41
1.0
  0
SPLINE
  5
16C
330
8C
100
AcDbEntity
  8
$DDT_AUDIT_GENERATED_(10C)
  6
Continuous
 62
     7
100
AcDbSpline
210
0.0
220
0.0
230
1.0
 70
    12
 71
     3
 72
     8
 73
     4
 74
     0
 42
0.0000000959682004
 43
0.0000000001
 40
0.0
 40
0.0
 40
0.0
 40
0.0
 40
0.0606458571223166
 40
0.0606458571223166
 40
0.0606458571223166
 40
0.0606458571223166
 10
105.8487208530489
 20
715.6755095750827
 30
0.0
 41
1.0
 10
105.8466329140512
 20
715.675194383623
 30
0.0
 41
0.9881581597998322
 10
105.8445349418737
 20
715.6750339294958
 30
0.0
 41
0.9770344781485092
 10
105.8424312662155
 20
715.6750339123455
 30
0.0
 41
0.9666289550460309
  0
SPLINE
  5
16D
330
8C
100
AcDbEntity
  8
$DDT_AUDIT_GENERATED_(10C)
  6
Continuous
 62
     7
100
AcDbSpline
210
0.0
220
0.0
230
1.0
 70
    12
 71
     3
 72
     8
 73
     4
 74
     0
 42
0.000000056104638
 43
0.0000000001
 40
0.0
 40
0.0
 40
0.0
 40
0.0
 40
0.971023355109069
 40
0.971023355109069
 40
0.971023355109069
 40
0.971023355109069
 10
107.5807716606179
 20
715.4140423468398
 30
0.0
 41
1.0
 10
107.6215355459698
 20
715.4201959885626
 30
0.0
 41
0.8103958959860482
 10
107.651183288039
 20
715.4732954178127
 30
0.0
 41
0.8049018051941729
 10
107.6528788325384
 20
715.5443074653805
 30
0.0
 41
0.9835177276243737
  0
SPLINE
  5
16E
330
8C
100
AcDbEntity
  8
$DDT_AUDIT_GENERATED_(10C)
  6
Continuous
 62
     7
100
AcDbSpline
210
0.0
220
0.0
230
1.0
 70
    12
 71
     3
 72
     8
 73
     4
 74
     0
 42
0.0000000561045948
 43
0.0000000001
 40
0.028972971192699
 40
0.028972971192699
 40
0.028972971192699
 40
0.028972971192699
 40
1.0
 40
1.0
 40
1.0
 40
1.0
 10
108.3746898767333
 20
715.5443081249906
 30
0.0
 41
0.9835197549192494
 10
108.3763852111162
 20
715.4732958223407
 30
0.0
 41
0.8049017636249304
 10
108.4060329887443
 20
715.4201960172908
 30
0.0
 41
0.8103951786518472
 10
108.4467970644023
 20
715.4140423468398
 30
0.0
 41
1.0
  0
SPLINE
  5
16F
330
8C
100
AcDbEntity
  8
$DDT_AUDIT_GENERATED_(10C)
  6
Continuous
 62
     7
100
AcDbSpline
210
0.0
220
0.0
230
1.0
 70
    12
 71
     3
 72
     8
 73
     4
 74
     0
 42
0.0000000959682004
 43
0.0000000001
 40
0.0
 40
0.0
 40
0.0
 40
0.0
 40
0.0606458571229745
 40
0.0606458571229745
 40
0.0606458571229745
 40
0.0606458571229745
 10
108.8798097662945
 20
715.4794091539005
 30
0.0
 41
1.0
 10
108.8818977052923
 20
715.4790939624407
 30
0.0
 41
0.9881581597997013
 10
108.8839956774698
 20
715.4789335083136
 30
0.0
 41
0.977034478148263
 10
108.8860993531281
 20
715.4789334911633
 30
0.0
 41
0.9666289550456851
  0
SPLINE
  5
170
330
8C
100
AcDbEntity
  8
$DDT_AUDIT_GENERATED_(10C)
  6
Continuous
 62
     7
100
AcDbSpline
210
0.0
220
0.0
230
1.0
 70
    12
 71
     3
 72
     8
 73
     4
 74
     0
 42
0.0000000959680973
 43
0.0000000001
 40
0.9393488469400108
 40
0.9393488469400108
 40
0.9393488469400108
 40
0.9393488469400108
 40
1.0
 40
1.0
 40
1.0
 40
1.0
 10
107.1414688148445
 20
715.4789334911626
 30
0.0
 41
0.9666262290558738
 10
107.1435726769648
 20
715.4789334799722
 30
0.0
 41
0.977032535388966
 10
107.1456708352121
 20
715.4790939345866
 30
0.0
 41
0.9881571257036746
 10
107.1477589587256
 20
715.4794091539005
 30
0.0
 41
1.0
  0
SPLINE
  5
171
330
8C
100
AcDbEntity
  8
$DDT_AUDIT_GENERATED_(10C)
  6
Continuous
 62
     7
100
AcDbSpline
210
0.0
220
0.0
230
1.0
 70
    12
 71
     3
 72
     8
 73
     4
 74
     0
 42
0.0000000474172164
 43
0.0000000001
 40
0.8809395038976174
 40
0.8809395038976174
 40
0.8809395038976174
 40
0.8809395038976174
 40
1.0
 40
1.0
 40
1.0
 40
1.0
 10
107.5557805786628
 20
715.4159230822279
 30
0.0
 41
0.9385597342086989
 10
107.564124113317
 20
715.4146576469094
 30
0.0
 41
0.9562719034449314
 10
107.5724778043146
 20
715.4140423468398
 30
0.0
 41
0.9767519920420318
 10
107.5807716606179
 20
715.4140423468398
 30
0.0
 41
1.0
  0
SPLINE
  5
172
330
8C
100
AcDbEntity
  8
$DDT_AUDIT_GENERATED_(10C)
  6
Continuous
 62
     7
100
AcDbSpline
210
0.0
220
0.0
230
1.0
 70
    12
 71
     3
 72
     8
 73
     4
 74
     0
 42
0.0000000474173541
 43
0.0000000001
 40
0.0
 40
0.0
 40
0.0
 40
0.0
 40
0.1190490528760715
 40
0.1190490528760715
 40
0.1190490528760715
 40
0.1190490528760715
 10
108.4467970644023
 20
715.4140423468398
 30
0.0
 41
1.0
 10
108.4550901045894
 20
715.4140423468398
 30
0.0
 41
0.9767542264709598
 10
108.4634429715245
 20
715.4146575261061
 30
0.0
 41
0.9562758402639234
 10
108.4717856952007
 20
715.4159227104884
 30
0.0
 41
0.938564841378891
  0
SPLINE
  5
173
330
8C
100
AcDbEntity
  8
$DDT_AUDIT_GENERATED_(10C)
  6
Continuous
 62
     7
100
AcDbSpline
210
0.0
220
0.0
230
1.0
 70
    12
 71
     3
 72
     8
 73
     4
 74
     0
 42
0.0000000959680973
 43
0.0000000001
 40
0.9393488469400503
 40
0.9393488469400503
 40
0.9393488469400503
 40
0.9393488469400503
 40
1.0
 40
1.0
 40
1.0
 40
1.0
 10
108.4405069205212
 20
715.4135666841017
 30
0.0
 41
0.9666262290558938
 10
108.4426107826415
 20
715.4135666729114
 30
0.0
 41
0.9770325353889802
 10
108.4447089408887
 20
715.4137271275258
 30
0.0
 41
0.9881571257036822
 10
108.4467970644023
 20
715.4140423468398
 30
0.0
 41
1.0
  0
SPLINE
  5
174
330
8C
100
AcDbEntity
  8
$DDT_AUDIT_GENERATED_(10C)
  6
Continuous
 62
     7
100
AcDbSpline
210
0.0
220
0.0
230
1.0
 70
    12
 71
     3
 72
     8
 73
     4
 74
     0
 42
0.0000000959682004
 43
0.0000000001
 40
0.0
 40
0.0
 40
0.0
 40
0.0
 40
0.06064585712252
 40
0.06064585712252
 40
0.06064585712252
 40
0.06064585712252
 10
107.5807716606179
 20
715.4140423468398
 30
0.0
 41
1.0
 10
107.5828595996157
 20
715.41372715538
 30
0.0
 41
0.9881581597997902
 10
107.5849575717931
 20
715.4135667012529
 30
0.0
 41
0.97703447814843
 10
107.5870612474514
 20
715.4135666841026
 30
0.0
 41
0.9666289550459195
  0
SPLINE
  5
175
330
8C
100
AcDbEntity
  8
$DDT_AUDIT_GENERATED_(10C)
  6
Continuous
 62
     7
100
AcDbSpline
210
0.0
220
0.0
230
1.0
 70
    12
 71
     3
 72
     8
 73
     4
 74
     0
 42
0.000000056104638
 43
0.0000000001
 40
0.0
 40
0.0
 40
0.0
 40
0.0
 40
0.9710233551085624
 40
0.9710233551085624
 40
0.9710233551085624
 40
0.9710233551085624
 10
108.8798097662945
 20
715.348675539779
 30
0.0
 41
1.0
 10
108.9205736516464
 20
715.3548291815017
 30
0.0
 41
0.8103958959861443
 10
108.9502213937156
 20
715.4079286107519
 30
0.0
 41
0.8049018051941755
 10
108.9519169382151
 20
715.4789406583197
 30
0.0
 41
0.9835177276240938
  0
SPLINE
  5
176
330
8C
100
AcDbEntity
  8
$DDT_AUDIT_GENERATED_(10C)
  6
Continuous
 62
     7
100
AcDbSpline
210
0.0
220
0.0
230
1.0
 70
    12
 71
     3
 72
     8
 73
     4
 74
     0
 42
0.0000000531767902
 43
0.0000000001
 40
0.028972971193068
 40
0.028972971193068
 40
0.028972971193068
 40
0.028972971193068
 40
0.660399151010084
 40
0.660399151010084
 40
0.660399151010084
 40
0.660399151010084
 10
109.67372798241
 20
715.4789413179298
 30
0.0
 41
0.9835197549190458
 10
109.6747510041723
 20
715.4360901071386
 30
0.0
 41
0.8673704897147562
 10
109.6874313634972
 20
715.3962856139926
 30
0.0
 41
0.829072050823195
 10
109.7099015607015
 20
715.3706333188479
 30
0.0
 41
0.8686244382443624
  0
SPLINE
  5
177
330
8C
100
AcDbEntity
  8
$DDT_AUDIT_GENERATED_(10C)
  6
Continuous
 62
     7
100
AcDbSpline
210
0.0
220
0.0
230
1.0
 70
    12
 71
     3
 72
     8
 73
     4
 74
     0
 42
0.0000000474172164
 43
0.0000000001
 40
0.8809395038975755
 40
0.8809395038975755
 40
0.8809395038975755
 40
0.8809395038975755
 40
1.0
 40
1.0
 40
1.0
 40
1.0
 10
108.8548186843394
 20
715.3505562751672
 30
0.0
 41
0.938559734208682
 10
108.8631622189937
 20
715.3492908398487
 30
0.0
 41
0.9562719034449183
 10
108.8715159099912
 20
715.348675539779
 30
0.0
 41
0.9767519920420243
 10
108.8798097662945
 20
715.348675539779
 30
0.0
 41
1.0
  0
SPLINE
  5
178
330
8C
100
AcDbEntity
  8
$DDT_AUDIT_GENERATED_(10C)
  6
Continuous
 62
     7
100
AcDbSpline
210
0.0
220
0.0
230
1.0
 70
    12
 71
     3
 72
     8
 73
     4
 74
     0
 42
0.0000000959682004
 43
0.0000000001
 40
0.0
 40
0.0
 40
0.0
 40
0.0
 40
0.0606458571231316
 40
0.0606458571231316
 40
0.0606458571231316
 40
0.0606458571231316
 10
108.8798097662945
 20
715.348675539779
 30
0.0
 41
1.0
 10
108.8818977052923
 20
715.3483603483193
 30
0.0
 41
0.9881581597996706
 10
108.8839956774698
 20
715.3481998941921
 30
0.0
 41
0.9770344781482053
 10
108.8860993531281
 20
715.3481998770419
 30
0.0
 41
0.9666289550456042
  0
SPLINE
  5
179
330
8C
100
AcDbEntity
  8
$DDT_AUDIT_GENERATED_(10C)
  6
Continuous
 62
     7
100
AcDbSpline
210
0.0
220
0.0
230
1.0
 70
    12
 71
     3
 72
     8
 73
     4
 74
     0
 42
0.0000000531734467
 43
0.0000000001
 40
0.3399987747081691
 40
0.3399987747081691
 40
0.3399987747081691
 40
0.3399987747081691
 40
0.9710233551089817
 40
0.9710233551089817
 40
0.9710233551089817
 40
0.9710233551089817
 10
116.7100125517776
 20
715.5014132464796
 30
0.0
 41
0.8685497530803964
 10
116.7324587856464
 20
715.5270715616975
 30
0.0
 41
0.8291205827570217
 10
116.7451231562981
 20
715.5668538970432
 30
0.0
 41
0.8674432409383316
 10
116.7461455722748
 20
715.6096742724411
 30
0.0
 41
0.9835177276243261
  0
SPLINE
  5
17A
330
8C
100
AcDbEntity
  8
$DDT_AUDIT_GENERATED_(10C)
  6
Continuous
 62
     7
100
AcDbSpline
210
0.0
220
0.0
230
1.0
 70
    12
 71
     3
 72
     8
 73
     4
 74
     0
 42
0.0000000531734467
 43
0.0000000001
 40
0.3399987747080793
 40
0.3399987747080793
 40
0.3399987747080793
 40
0.3399987747080793
 40
0.9710233551090461
 40
0.9710233551090461
 40
0.9710233551090461
 40
0.9710233551090461
 10
116.7100125517776
 20
715.6321468606011
 30
0.0
 41
0.8685497530804113
 10
116.7324587856465
 20
715.657805175819
 30
0.0
 41
0.8291205827570042
 10
116.7451231562982
 20
715.6975875111648
 30
0.0
 41
0.8674432409383208
 10
116.7461455722749
 20
715.7404078865628
 30
0.0
 41
0.9835177276243613
  0
SPLINE
  5
17B
330
8C
100
AcDbEntity
  8
$DDT_AUDIT_GENERATED_(10C)
  6
Continuous
 62
     7
100
AcDbSpline
210
0.0
220
0.0
230
1.0
 70
    12
 71
     3
 72
     8
 73
     4
 74
     0
 42
0.000000056104638
 43
0.0000000001
 40
0.0
 40
0.0
 40
0.0
 40
0.0
 40
0.9710233551090497
 40
0.9710233551090497
 40
0.9710233551090497
 40
0.9710233551090497
 10
117.5400638041387
 20
715.4794091539005
 30
0.0
 41
1.0
 10
117.4992999187868
 20
715.4855627956232
 30
0.0
 41
0.8103958959860511
 10
117.4696521767176
 20
715.5386622248734
 30
0.0
 41
0.8049018051941721
 10
117.4679566322181
 20
715.6096742724411
 30
0.0
 41
0.983517727624363
  0
SPLINE
  5
17C
330
8C
100
AcDbEntity
  8
$DDT_AUDIT_GENERATED_(10C)
  6
Continuous
 62
     7
100
AcDbSpline
210
0.0
220
0.0
230
1.0
 70
    12
 71
     3
 72
     8
 73
     4
 74
     0
 42
0.0000000959680973
 43
0.0000000001
 40
0.93934884694023
 40
0.93934884694023
 40
0.93934884694023
 40
0.93934884694023
 40
1.0
 40
1.0
 40
1.0
 40
1.0
 10
117.5337736602577
 20
715.6096671052841
 30
0.0
 41
0.9666262290559879
 10
117.5358775223779
 20
715.6096670940937
 30
0.0
 41
0.9770325353890472
 10
117.5379756806252
 20
715.6098275487079
 30
0.0
 41
0.9881571257037179
 10
117.5400638041387
 20
715.6101427680219
 30
0.0
 41
1.0
  0
SPLINE
  5
17D
330
8C
100
AcDbEntity
  8
$DDT_AUDIT_GENERATED_(10C)
  6
Continuous
 62
     7
100
AcDbSpline
210
0.0
220
0.0
230
1.0
 70
    12
 71
     3
 72
     8
 73
     4
 74
     0
 42
0.000000056104638
 43
0.0000000001
 40
0.0
 40
0.0
 40
0.0
 40
0.0
 40
0.9710233551090919
 40
0.9710233551090919
 40
0.9710233551090919
 40
0.9710233551090919
 10
117.5400638041387
 20
715.6101427680219
 30
0.0
 41
1.0
 10
117.4992999187868
 20
715.6162964097448
 30
0.0
 41
0.810395895986036
 10
117.4696521767176
 20
715.669395838995
 30
0.0
 41
0.8049018051941645
 10
117.4679566322181
 20
715.7404078865627
 30
0.0
 41
0.9835177276243857
  0
ARC
  5
17E
330
8C
100
AcDbEntity
  8
$DDT_AUDIT_GENERATED_(10C)
  6
Continuous
 62
     7
100
AcDbCircle
 10
116.9708978326
 20
716.0079271628
 30
0.0
 40
0.1370381774540681
100
AcDbArc
 50
275.8800141085
 51
299.7106976061
  0
SPLINE
  5
17F
330
8C
100
AcDbEntity
  8
$DDT_AUDIT_GENERATED_(10C)
  6
Continuous
 62
     7
100
AcDbSpline
210
0.0
220
0.0
230
1.0
 70
    12
 71
     3
 72
     8
 73
     4
 74
     0
 42
0.0000000531734467
 43
0.0000000001
 40
0.3399987747087014
 40
0.3399987747087014
 40
0.3399987747087014
 40
0.3399987747087014
 40
0.9710233551087766
 40
0.9710233551087766
 40
0.9710233551087766
 40
0.9710233551087766
 10
116.7100125517776
 20
715.3706796323582
 30
0.0
 41
0.8685497530802986
 10
116.7324587856464
 20
715.3963379475761
 30
0.0
 41
0.8291205827571019
 10
116.7451231562981
 20
715.4361202829218
 30
0.0
 41
0.8674432409384066
 10
116.7461455722748
 20
715.4789406583196
 30
0.0
 41
0.9835177276242131
  0
SPLINE
  5
180
330
8C
100
AcDbEntity
  8
$DDT_AUDIT_GENERATED_(10C)
  6
Continuous
 62
     7
100
AcDbSpline
210
0.0
220
0.0
230
1.0
 70
    12
 71
     3
 72
     8
 73
     4
 74
     0
 42
0.0000000959680973
 43
0.0000000001
 40
0.9393488469399118
 40
0.9393488469399118
 40
0.9393488469399118
 40
0.9393488469399118
 40
1.0
 40
1.0
 40
1.0
 40
1.0
 10
117.5337736602576
 20
715.4789334911627
 30
0.0
 41
0.9666262290558252
 10
117.5358775223779
 20
715.4789334799723
 30
0.0
 41
0.9770325353889312
 10
117.5379756806251
 20
715.4790939345866
 30
0.0
 41
0.9881571257036561
 10
117.5400638041387
 20
715.4794091539005
 30
0.0
 41
1.0
  0
SPLINE
  5
181
330
8C
100
AcDbEntity
  8
$DDT_AUDIT_GENERATED_(10C)
  6
Continuous
 62
     7
100
AcDbSpline
210
0.0
220
0.0
230
1.0
 70
    12
 71
     3
 72
     8
 73
     4
 74
     0
 42
0.0000000474173541
 43
0.0000000001
 40
0.0
 40
0.0
 40
0.0
 40
0.0
 40
0.1190490528760713
 40
0.1190490528760713
 40
0.1190490528760713
 40
0.1190490528760713
 10
117.9730765060309
 20
715.5447759609613
 30
0.0
 41
1.0
 10
117.9647834658439
 20
715.5447759609613
 30
0.0
 41
0.9767542264709568
 10
117.9564305989088
 20
715.5453911402274
 30
0.0
 41
0.9562758402639178
 10
117.9480878752326
 20
715.5466563246097
 30
0.0
 41
0.938564841378883
  0
SPLINE
  5
182
330
8C
100
AcDbEntity
  8
$DDT_AUDIT_GENERATED_(10C)
  6
Continuous
 62
     7
100
AcDbSpline
210
0.0
220
0.0
230
1.0
 70
    12
 71
     3
 72
     8
 73
     4
 74
     0
 42
0.0000000474173541
 43
0.0000000001
 40
0.0
 40
0.0
 40
0.0
 40
0.0
 40
0.11904905287608
 40
0.11904905287608
 40
0.11904905287608
 40
0.11904905287608
 10
117.973076506031
 20
715.6755095750827
 30
0.0
 41
1.0
 10
117.9647834658439
 20
715.6755095750829
 30
0.0
 41
0.976754226470955
 10
117.9564305989088
 20
715.6761247543491
 30
0.0
 41
0.9562758402639147
 10
117.9480878752326
 20
715.6773899387312
 30
0.0
 41
0.938564841378879
  0
SPLINE
  5
183
330
8C
100
AcDbEntity
  8
$DDT_AUDIT_GENERATED_(10C)
  6
Continuous
 62
     7
100
AcDbSpline
210
0.0
220
0.0
230
1.0
 70
    12
 71
     3
 72
     8
 73
     4
 74
     0
 42
0.0000000959680973
 43
0.0000000001
 40
0.9393488469399512
 40
0.9393488469399512
 40
0.9393488469399512
 40
0.9393488469399512
 40
1.0
 40
1.0
 40
1.0
 40
1.0
 10
117.5337736602577
 20
715.7404007194054
 30
0.0
 41
0.9666262290558445
 10
117.5358775223779
 20
715.7404007082151
 30
0.0
 41
0.977032535388945
 10
117.5379756806252
 20
715.7405611628295
 30
0.0
 41
0.9881571257036634
 10
117.5400638041388
 20
715.7408763821435
 30
0.0
 41
1.0
  0
SPLINE
  5
184
330
8C
100
AcDbEntity
  8
$DDT_AUDIT_GENERATED_(10C)
  6
Continuous
 62
     7
100
AcDbSpline
210
0.0
220
0.0
230
1.0
 70
    12
 71
     3
 72
     8
 73
     4
 74
     0
 42
0.0000000951084088
 43
0.0000000001
 40
0.0
 40
0.0
 40
0.0
 40
0.0
 40
0.0368867887950204
 40
0.0368867887950204
 40
0.0368867887950204
 40
0.0368867887950204
 10
117.5400638041388
 20
715.871609996265
 30
0.0
 41
1.0
 10
117.5387997858903
 20
715.8718008101524
 30
0.0
 41
0.9927974064654213
 10
117.5375317317608
 20
715.8720495207033
 30
0.0
 41
0.9858604934773288
 10
117.5362605881479
 20
715.8723571559512
 30
0.0
 41
0.9791892610357229
  0
SPLINE
  5
185
330
8C
100
AcDbEntity
  8
$DDT_AUDIT_GENERATED_(10C)
  6
Continuous
 62
     7
100
AcDbSpline
210
0.0
220
0.0
230
1.0
 70
    12
 71
     3
 72
     8
 73
     4
 74
     0
 42
0.000000056104638
 43
0.0000000001
 40
0.0
 40
0.0
 40
0.0
 40
0.0
 40
0.9710233551084813
 40
0.9710233551084813
 40
0.9710233551084813
 40
0.9710233551084813
 10
117.5400638041387
 20
715.348675539779
 30
0.0
 41
1.0
 10
117.4992999187868
 20
715.3548291815018
 30
0.0
 41
0.810395895986162
 10
117.4696521767176
 20
715.4079286107519
 30
0.0
 41
0.8049018051941785
 10
117.4679566322181
 20
715.4789406583196
 30
0.0
 41
0.9835177276240493
  0
SPLINE
  5
186
330
8C
100
AcDbEntity
  8
$DDT_AUDIT_GENERATED_(10C)
  6
Continuous
 62
     7
100
AcDbSpline
210
0.0
220
0.0
230
1.0
 70
    12
 71
     3
 72
     8
 73
     4
 74
     0
 42
0.0000000474172164
 43
0.0000000001
 40
0.8809395038977014
 40
0.8809395038977014
 40
0.8809395038977014
 40
0.8809395038977014
 40
1.0
 40
1.0
 40
1.0
 40
1.0
 10
117.9480854240758
 20
715.4159230822279
 30
0.0
 41
0.9385597342087355
 10
117.9564289587301
 20
715.4146576469093
 30
0.0
 41
0.9562719034449597
 10
117.9647826497277
 20
715.4140423468397
 30
0.0
 41
0.9767519920420479
 10
117.9730765060309
 20
715.4140423468398
 30
0.0
 41
1.0
  0
SPLINE
  5
187
330
8C
100
AcDbEntity
  8
$DDT_AUDIT_GENERATED_(10C)
  6
Continuous
 62
     7
100
AcDbSpline
210
0.0
220
0.0
230
1.0
 70
    12
 71
     3
 72
     8
 73
     4
 74
     0
 42
0.0000000959680973
 43
0.0000000001
 40
0.9393488469401036
 40
0.9393488469401036
 40
0.9393488469401036
 40
0.9393488469401036
 40
1.0
 40
1.0
 40
1.0
 40
1.0
 10
117.979366649912
 20
715.5443002982232
 30
0.0
 41
0.9666262290559307
 10
117.9772627877917
 20
715.544300287033
 30
0.0
 41
0.9770325353890061
 10
117.9751646295445
 20
715.5444607416472
 30
0.0
 41
0.988157125703696
 10
117.9730765060309
 20
715.5447759609613
 30
0.0
 41
1.0
  0
SPLINE
  5
188
330
8C
100
AcDbEntity
  8
$DDT_AUDIT_GENERATED_(10C)
  6
Continuous
 62
     7
100
AcDbSpline
210
0.0
220
0.0
230
1.0
 70
    12
 71
     3
 72
     8
 73
     4
 74
     0
 42
0.0000000474173541
 43
0.0000000001
 40
0.0
 40
0.0
 40
0.0
 40
0.0
 40
0.1190490528761489
 40
0.1190490528761489
 40
0.1190490528761489
 40
0.1190490528761489
 10
117.5400638041387
 20
715.4794091539005
 30
0.0
 41
1.0
 10
117.5483568443258
 20
715.4794091539005
 30
0.0
 41
0.9767542264709427
 10
117.5567097112609
 20
715.480024333167
 30
0.0
 41
0.956275840263893
 10
117.5650524349371
 20
715.481289517549
 30
0.0
 41
0.9385648413788511
  0
SPLINE
  5
189
330
8C
100
AcDbEntity
  8
$DDT_AUDIT_GENERATED_(10C)
  6
Continuous
 62
     7
100
AcDbSpline
210
0.0
220
0.0
230
1.0
 70
    12
 71
     3
 72
     8
 73
     4
 74
     0
 42
0.0000000474172164
 43
0.0000000001
 40
0.8809395038976983
 40
0.8809395038976983
 40
0.8809395038976983
 40
0.8809395038976983
 40
1.0
 40
1.0
 40
1.0
 40
1.0
 10
117.5650548860938
 20
715.6120235034102
 30
0.0
 41
0.9385597342087422
 10
117.5567113514396
 20
715.6107580680915
 30
0.0
 41
0.9562719034449644
 10
117.548357660442
 20
715.6101427680219
 30
0.0
 41
0.9767519920420503
 10
117.5400638041387
 20
715.6101427680219
 30
0.0
 41
1.0
  0
SPLINE
  5
18A
330
8C
100
AcDbEntity
  8
$DDT_AUDIT_GENERATED_(10C)
  6
Continuous
 62
     7
100
AcDbSpline
210
0.0
220
0.0
230
1.0
 70
    12
 71
     3
 72
     8
 73
     4
 74
     0
 42
0.000000056104638
 43
0.0000000001
 40
0.0
 40
0.0
 40
0.0
 40
0.0
 40
0.97102335510864
 40
0.97102335510864
 40
0.97102335510864
 40
0.97102335510864
 10
117.9730765060309
 20
715.5447759609613
 30
0.0
 41
1.0
 10
118.0138403913828
 20
715.5509296026839
 30
0.0
 41
0.8103958959861087
 10
118.043488133452
 20
715.6040290319341
 30
0.0
 41
0.8049018051941538
 10
118.0451836779515
 20
715.6750410795019
 30
0.0
 41
0.983517727624135
  0
SPLINE
  5
18B
330
8C
100
AcDbEntity
  8
$DDT_AUDIT_GENERATED_(10C)
  6
Continuous
 62
     7
100
AcDbSpline
210
0.0
220
0.0
230
1.0
 70
    12
 71
     3
 72
     8
 73
     4
 74
     0
 42
0.0000000959680973
 43
0.0000000001
 40
0.939348846940205
 40
0.939348846940205
 40
0.939348846940205
 40
0.939348846940205
 40
1.0
 40
1.0
 40
1.0
 40
1.0
 10
117.9793666499121
 20
715.6750339123448
 30
0.0
 41
0.9666262290559823
 10
117.9772627877918
 20
715.6750339011545
 30
0.0
 41
0.977032535389043
 10
117.9751646295445
 20
715.6751943557688
 30
0.0
 41
0.9881571257037156
 10
117.973076506031
 20
715.6755095750827
 30
0.0
 41
1.0
  0
SPLINE
  5
18C
330
8C
100
AcDbEntity
  8
$DDT_AUDIT_GENERATED_(10C)
  6
Continuous
 62
     7
100
AcDbSpline
210
0.0
220
0.0
230
1.0
 70
     8
 71
     3
 72
     8
 73
     4
 74
     0
 42
0.0000000423874905
 43
0.0000000001
 40
0.8213628312958512
 40
0.8213628312958512
 40
0.8213628312958512
 40
0.8213628312958512
 40
0.8460845458315733
 40
0.8460845458315733
 40
0.8460845458315733
 40
0.8460845458315733
 10
116.7156803586328
 20
715.7462165775723
 30
0.0
 10
116.7137742855659
 20
715.7458267796102
 30
0.0
 10
116.7118654407114
 20
715.7454577935675
 30
0.0
 10
116.7099543590171
 20
715.7451092211767
 30
0.0
  0
SPLINE
  5
18D
330
8C
100
AcDbEntity
  8
$DDT_AUDIT_GENERATED_(10C)
  6
Continuous
 62
     7
100
AcDbSpline
210
0.0
220
0.0
230
1.0
 70
    12
 71
     3
 72
     8
 73
     4
 74
     0
 42
0.000000056104638
 43
0.0000000001
 40
0.0
 40
0.0
 40
0.0
 40
0.0
 40
0.9710233551091503
 40
0.9710233551091503
 40
0.9710233551091503
 40
0.9710233551091503
 10
117.5400638041388
 20
715.7408763821435
 30
0.0
 41
1.0
 10
117.4992999187868
 20
715.7470300238662
 30
0.0
 41
0.8103958959860198
 10
117.4696521767177
 20
715.8001294531165
 30
0.0
 41
0.804901805194159
 10
117.4679566322182
 20
715.8711415006842
 30
0.0
 41
0.9835177276244175
  0
SPLINE
  5
18E
330
8C
100
AcDbEntity
  8
$DDT_AUDIT_GENERATED_(10C)
  6
Continuous
 62
     7
100
AcDbSpline
210
0.0
220
0.0
230
1.0
 70
    12
 71
     3
 72
     8
 73
     4
 74
     0
 42
0.0000000959680973
 43
0.0000000001
 40
0.9393488469403609
 40
0.9393488469403609
 40
0.9393488469403609
 40
0.9393488469403609
 40
1.0
 40
1.0
 40
1.0
 40
1.0
 10
117.5337736602577
 20
715.871134333527
 30
0.0
 41
0.9666262290560554
 10
117.535877522378
 20
715.8711343223367
 30
0.0
 41
0.9770325353890953
 10
117.5379756806252
 20
715.871294776951
 30
0.0
 41
0.9881571257037435
 10
117.5400638041388
 20
715.871609996265
 30
0.0
 41
1.0
  0
ARC
  5
18F
330
8C
100
AcDbEntity
  8
$DDT_AUDIT_GENERATED_(10C)
  6
Continuous
 62
     7
100
AcDbCircle
 10
116.9968134477
 20
715.9821366636
 30
0.0
 40
0.1111629403191122
100
AcDbArc
 50
263.8668055811
 51
269.481458293
  0
SPLINE
  5
190
330
8C
100
AcDbEntity
  8
$DDT_AUDIT_GENERATED_(10C)
  6
Continuous
 62
     7
100
AcDbSpline
210
0.0
220
0.0
230
1.0
 70
    12
 71
     3
 72
     8
 73
     4
 74
     0
 42
0.0000000959680973
 43
0.0000000001
 40
0.9393488469396869
 40
0.9393488469396869
 40
0.9393488469396869
 40
0.9393488469396869
 40
1.0
 40
1.0
 40
1.0
 40
1.0
 10
117.5337736602575
 20
715.348199877041
 30
0.0
 41
0.9666262290557097
 10
117.5358775223778
 20
715.3481998658507
 30
0.0
 41
0.9770325353888489
 10
117.5379756806251
 20
715.348360320465
 30
0.0
 41
0.9881571257036124
 10
117.5400638041387
 20
715.348675539779
 30
0.0
 41
1.0
  0
SPLINE
  5
191
330
8C
100
AcDbEntity
  8
$DDT_AUDIT_GENERATED_(10C)
  6
Continuous
 62
     7
100
AcDbSpline
210
0.0
220
0.0
230
1.0
 70
    12
 71
     3
 72
     8
 73
     4
 74
     0
 42
0.000000056104638
 43
0.0000000001
 40
0.0
 40
0.0
 40
0.0
 40
0.0
 40
0.9710233551089713
 40
0.9710233551089713
 40
0.9710233551089713
 40
0.9710233551089713
 10
117.9730765060309
 20
715.4140423468398
 30
0.0
 41
1.0
 10
118.0138403913828
 20
715.4201959885625
 30
0.0
 41
0.8103958959860431
 10
118.043488133452
 20
715.4732954178127
 30
0.0
 41
0.804901805194149
 10
118.0451836779515
 20
715.5443074653805
 30
0.0
 41
0.9835177276243177
  0
SPLINE
  5
192
330
8C
100
AcDbEntity
  8
$DDT_AUDIT_GENERATED_(10C)
  6
Continuous
 62
     7
100
AcDbSpline
210
0.0
220
0.0
230
1.0
 70
    12
 71
     3
 72
     8
 73
     4
 74
     0
 42
0.0000000959680973
 43
0.0000000001
 40
0.9393488469400824
 40
0.9393488469400824
 40
0.9393488469400824
 40
0.9393488469400824
 40
1.0
 40
1.0
 40
1.0
 40
1.0
 10
118.8328117659343
 20
715.5443002982233
 30
0.0
 41
0.9666262290559122
 10
118.8349156280546
 20
715.544300287033
 30
0.0
 41
0.9770325353889933
 10
118.8370137863018
 20
715.5444607416472
 30
0.0
 41
0.9881571257036892
 10
118.8391019098154
 20
715.5447759609613
 30
0.0
 41
1.0
  0
SPLINE
  5
193
330
8C
100
AcDbEntity
  8
$DDT_AUDIT_GENERATED_(10C)
  6
Continuous
 62
     7
100
AcDbSpline
210
0.0
220
0.0
230
1.0
 70
    12
 71
     3
 72
     8
 73
     4
 74
     0
 42
0.000000056104638
 43
0.0000000001
 40
0.0
 40
0.0
 40
0.0
 40
0.0
 40
0.971023355108683
 40
0.971023355108683
 40
0.971023355108683
 40
0.971023355108683
 10
118.8391019098154
 20
715.5447759609613
 30
0.0
 41
1.0
 10
118.7983380244635
 20
715.550929602684
 30
0.0
 41
0.8103958959861159
 10
118.7686902823943
 20
715.6040290319341
 30
0.0
 41
0.8049018051941692
 10
118.7669947378948
 20
715.6750410795019
 30
0.0
 41
0.9835177276241601
  0
SPLINE
  5
194
330
8C
100
AcDbEntity
  8
$DDT_AUDIT_GENERATED_(10C)
  6
Continuous
 62
     7
100
AcDbSpline
210
0.0
220
0.0
230
1.0
 70
    12
 71
     3
 72
     8
 73
     4
 74
     0
 42
0.0000000959680973
 43
0.0000000001
 40
0.9393488469401513
 40
0.9393488469401513
 40
0.9393488469401513
 40
0.9393488469401513
 40
1.0
 40
1.0
 40
1.0
 40
1.0
 10
118.8328117659343
 20
715.6750339123448
 30
0.0
 41
0.9666262290559475
 10
118.8349156280546
 20
715.6750339011544
 30
0.0
 41
0.9770325353890184
 10
118.8370137863018
 20
715.6751943557688
 30
0.0
 41
0.9881571257037025
 10
118.8391019098154
 20
715.6755095750827
 30
0.0
 41
1.0
  0
SPLINE
  5
195
330
8C
100
AcDbEntity
  8
$DDT_AUDIT_GENERATED_(10C)
  6
Continuous
 62
     7
100
AcDbSpline
210
0.0
220
0.0
230
1.0
 70
    12
 71
     3
 72
     8
 73
     4
 74
     0
 42
0.0000000474172164
 43
0.0000000001
 40
0.880939503897725
 40
0.880939503897725
 40
0.880939503897725
 40
0.880939503897725
 40
1.0
 40
1.0
 40
1.0
 40
1.0
 10
117.5650548860938
 20
715.7427571175317
 30
0.0
 41
0.9385597342087554
 10
117.5567113514396
 20
715.7414916822129
 30
0.0
 41
0.9562719034449745
 10
117.548357660442
 20
715.7408763821435
 30
0.0
 41
0.976751992042056
 10
117.5400638041388
 20
715.7408763821435
 30
0.0
 41
1.0
  0
SPLINE
  5
196
330
8C
100
AcDbEntity
  8
$DDT_AUDIT_GENERATED_(10C)
  6
Continuous
 62
     7
100
AcDbSpline
210
0.0
220
0.0
230
1.0
 70
    12
 71
     3
 72
     8
 73
     4
 74
     0
 42
0.000000056104638
 43
0.0000000001
 40
0.0
 40
0.0
 40
0.0
 40
0.0
 40
0.971023355108887
 40
0.971023355108887
 40
0.971023355108887
 40
0.971023355108887
 10
117.973076506031
 20
715.6755095750827
 30
0.0
 41
1.0
 10
118.0138403913829
 20
715.6816632168054
 30
0.0
 41
0.8103958959860605
 10
118.043488133452
 20
715.7347626460557
 30
0.0
 41
0.8049018051941509
 10
118.0451836779515
 20
715.8057746936234
 30
0.0
 41
0.9835177276242713
  0
SPLINE
  5
197
330
8C
100
AcDbEntity
  8
$DDT_AUDIT_GENERATED_(10C)
  6
Continuous
 62
     7
100
AcDbSpline
210
0.0
220
0.0
230
1.0
 70
    12
 71
     3
 72
     8
 73
     4
 74
     0
 42
0.0000000474173541
 43
0.0000000001
 40
0.0
 40
0.0
 40
0.0
 40
0.0
 40
0.11904905287613
 40
0.11904905287613
 40
0.11904905287613
 40
0.11904905287613
 10
117.973076506031
 20
715.8062431892042
 30
0.0
 41
1.0
 10
117.9647834658439
 20
715.8062431892042
 30
0.0
 41
0.9767542264709463
 10
117.9564305989088
 20
715.8068583684704
 30
0.0
 41
0.9562758402638996
 10
117.9480878752326
 20
715.8081235528526
 30
0.0
 41
0.9385648413788596
  0
SPLINE
  5
198
330
8C
100
AcDbEntity
  8
$DDT_AUDIT_GENERATED_(10C)
  6
Continuous
 62
     7
100
AcDbSpline
210
0.0
220
0.0
230
1.0
 70
    12
 71
     3
 72
     8
 73
     4
 74
     0
 42
0.0000000959680973
 43
0.0000000001
 40
0.9393488469402203
 40
0.9393488469402203
 40
0.9393488469402203
 40
0.9393488469402203
 40
1.0
 40
1.0
 40
1.0
 40
1.0
 10
117.979366649912
 20
715.4135666841017
 30
0.0
 41
0.9666262290559904
 10
117.9772627877917
 20
715.4135666729114
 30
0.0
 41
0.9770325353890488
 10
117.9751646295445
 20
715.4137271275258
 30
0.0
 41
0.9881571257037186
 10
117.9730765060309
 20
715.4140423468398
 30
0.0
 41
1.0
  0
SPLINE
  5
199
330
8C
100
AcDbEntity
  8
$DDT_AUDIT_GENERATED_(10C)
  6
Continuous
 62
     7
100
AcDbSpline
210
0.0
220
0.0
230
1.0
 70
    12
 71
     3
 72
     8
 73
     4
 74
     0
 42
0.0000000474173541
 43
0.0000000001
 40
0.0
 40
0.0
 40
0.0
 40
0.0
 40
0.119049052876119
 40
0.119049052876119
 40
0.119049052876119
 40
0.119049052876119
 10
117.5400638041387
 20
715.348675539779
 30
0.0
 41
1.0
 10
117.5483568443257
 20
715.348675539779
 30
0.0
 41
0.9767542264709482
 10
117.5567097112608
 20
715.3492907190453
 30
0.0
 41
0.9562758402639029
 10
117.5650524349371
 20
715.3505559034274
 30
0.0
 41
0.9385648413788639
  0
SPLINE
  5
19A
330
8C
100
AcDbEntity
  8
$DDT_AUDIT_GENERATED_(10C)
  6
Continuous
 62
     7
100
AcDbSpline
210
0.0
220
0.0
230
1.0
 70
    12
 71
     3
 72
     8
 73
     4
 74
     0
 42
0.000000056104638
 43
0.0000000001
 40
0.0
 40
0.0
 40
0.0
 40
0.0
 40
0.9710233551087777
 40
0.9710233551087777
 40
0.9710233551087777
 40
0.9710233551087777
 10
118.8391019098153
 20
715.4140423468398
 30
0.0
 41
1.0
 10
118.7983380244634
 20
715.4201959885625
 30
0.0
 41
0.8103958959861013
 10
118.7686902823943
 20
715.4732954178127
 30
0.0
 41
0.8049018051941721
 10
118.7669947378948
 20
715.5443074653805
 30
0.0
 41
0.9835177276242126
  0
SPLINE
  5
19B
330
8C
100
AcDbEntity
  8
$DDT_AUDIT_GENERATED_(10C)
  6
Continuous
 62
     7
100
AcDbSpline
210
0.0
220
0.0
230
1.0
 70
    12
 71
     3
 72
     8
 73
     4
 74
     0
 42
0.0000000474172164
 43
0.0000000001
 40
0.8809395038976692
 40
0.8809395038976692
 40
0.8809395038976692
 40
0.8809395038976692
 40
1.0
 40
1.0
 40
1.0
 40
1.0
 10
119.2471235297525
 20
715.4812898892889
 30
0.0
 41
0.9385597342087211
 10
119.2554670644067
 20
715.48002445397
 30
0.0
 41
0.9562719034449486
 10
119.2638207554043
 20
715.4794091539005
 30
0.0
 41
0.9767519920420416
 10
119.2721146117076
 20
715.4794091539005
 30
0.0
 41
1.0
  0
SPLINE
  5
19C
330
8C
100
AcDbEntity
  8
$DDT_AUDIT_GENERATED_(10C)
  6
Continuous
 62
     7
100
AcDbSpline
210
0.0
220
0.0
230
1.0
 70
    12
 71
     3
 72
     8
 73
     4
 74
     0
 42
0.0000000474173541
 43
0.0000000001
 40
0.0
 40
0.0
 40
0.0
 40
0.0
 40
0.1190490528760552
 40
0.1190490528760552
 40
0.1190490528760552
 40
0.1190490528760552
 10
119.2721146117076
 20
715.6101427680219
 30
0.0
 41
1.0
 10
119.2638215715206
 20
715.6101427680219
 30
0.0
 41
0.9767542264709599
 10
119.2554687045855
 20
715.6107579472883
 30
0.0
 41
0.9562758402639233
 10
119.2471259809092
 20
715.6120231316705
 30
0.0
 41
0.9385648413788902
  0
SPLINE
  5
19D
330
8C
100
AcDbEntity
  8
$DDT_AUDIT_GENERATED_(10C)
  6
Continuous
 62
     7
100
AcDbSpline
210
0.0
220
0.0
230
1.0
 70
    12
 71
     3
 72
     8
 73
     4
 74
     0
 42
0.000000056104638
 43
0.0000000001
 40
0.0
 40
0.0
 40
0.0
 40
0.0
 40
0.9710233551086848
 40
0.9710233551086848
 40
0.9710233551086848
 40
0.9710233551086848
 10
118.8391019098154
 20
715.6755095750827
 30
0.0
 41
1.0
 10
118.7983380244635
 20
715.6816632168055
 30
0.0
 41
0.8103958959861146
 10
118.7686902823943
 20
715.7347626460556
 30
0.0
 41
0.8049018051941682
 10
118.7669947378948
 20
715.8057746936234
 30
0.0
 41
0.9835177276241609
  0
SPLINE
  5
19E
330
8C
100
AcDbEntity
  8
$DDT_AUDIT_GENERATED_(10C)
  6
Continuous
 62
     7
100
AcDbSpline
210
0.0
220
0.0
230
1.0
 70
    12
 71
     3
 72
     8
 73
     4
 74
     0
 42
0.0000000959680973
 43
0.0000000001
 40
0.9393488469400725
 40
0.9393488469400725
 40
0.9393488469400725
 40
0.9393488469400725
 40
1.0
 40
1.0
 40
1.0
 40
1.0
 10
117.9793666499121
 20
715.8057675264662
 30
0.0
 41
0.9666262290559069
 10
117.9772627877918
 20
715.8057675152759
 30
0.0
 41
0.9770325353889895
 10
117.9751646295446
 20
715.8059279698903
 30
0.0
 41
0.9881571257036872
 10
117.973076506031
 20
715.8062431892042
 30
0.0
 41
1.0
  0
SPLINE
  5
19F
330
8C
100
AcDbEntity
  8
$DDT_AUDIT_GENERATED_(10C)
  6
Continuous
 62
     7
100
AcDbSpline
210
0.0
220
0.0
230
1.0
 70
    12
 71
     3
 72
     8
 73
     4
 74
     0
 42
0.0000000959680973
 43
0.0000000001
 40
0.9393488469398517
 40
0.9393488469398517
 40
0.9393488469398517
 40
0.9393488469398517
 40
1.0
 40
1.0
 40
1.0
 40
1.0
 10
118.8328117659342
 20
715.413566684102
 30
0.0
 41
0.9666262290557943
 10
118.8349156280545
 20
715.4135666729115
 30
0.0
 41
0.9770325353889092
 10
118.8370137863018
 20
715.4137271275258
 30
0.0
 41
0.9881571257036444
 10
118.8391019098153
 20
715.4140423468398
 30
0.0
 41
1.0
  0
SPLINE
  5
1A0
330
8C
100
AcDbEntity
  8
$DDT_AUDIT_GENERATED_(10C)
  6
Continuous
 62
     7
100
AcDbSpline
210
0.0
220
0.0
230
1.0
 70
    12
 71
     3
 72
     8
 73
     4
 74
     0
 42
0.0000000474172164
 43
0.0000000001
 40
0.8809395038977402
 40
0.8809395038977402
 40
0.8809395038977402
 40
0.8809395038977402
 40
1.0
 40
1.0
 40
1.0
 40
1.0
 10
118.8640929917705
 20
715.5466566963494
 30
0.0
 41
0.9385597342087582
 10
118.8557494571162
 20
715.5453912610308
 30
0.0
 41
0.9562719034449768
 10
118.8473957661186
 20
715.5447759609613
 30
0.0
 41
0.9767519920420574
 10
118.8391019098154
 20
715.5447759609613
 30
0.0
 41
1.0
  0
SPLINE
  5
1A1
330
8C
100
AcDbEntity
  8
$DDT_AUDIT_GENERATED_(10C)
  6
Continuous
 62
     7
100
AcDbSpline
210
0.0
220
0.0
230
1.0
 70
    12
 71
     3
 72
     8
 73
     4
 74
     0
 42
0.000000056104638
 43
0.0000000001
 40
0.0
 40
0.0
 40
0.0
 40
0.0
 40
0.9710233551088697
 40
0.9710233551088697
 40
0.9710233551088697
 40
0.9710233551088697
 10
119.2721146117076
 20
715.4794091539005
 30
0.0
 41
1.0
 10
119.3128784970595
 20
715.4855627956232
 30
0.0
 41
0.810395895986096
 10
119.3425262391286
 20
715.5386622248734
 30
0.0
 41
0.8049018051941841
 10
119.3442217836281
 20
715.6096742724413
 30
0.0
 41
0.9835177276242644
  0
SPLINE
  5
1A2
330
8C
100
AcDbEntity
  8
$DDT_AUDIT_GENERATED_(10C)
  6
Continuous
 62
     7
100
AcDbSpline
210
0.0
220
0.0
230
1.0
 70
    12
 71
     3
 72
     8
 73
     4
 74
     0
 42
0.0000000959680973
 43
0.0000000001
 40
0.939348846940009
 40
0.939348846940009
 40
0.939348846940009
 40
0.939348846940009
 40
1.0
 40
1.0
 40
1.0
 40
1.0
 10
119.2784047555887
 20
715.6096671052841
 30
0.0
 41
0.9666262290558747
 10
119.2763008934684
 20
715.6096670940937
 30
0.0
 41
0.9770325353889665
 10
119.2742027352212
 20
715.6098275487079
 30
0.0
 41
0.988157125703675
 10
119.2721146117076
 20
715.6101427680219
 30
0.0
 41
1.0
  0
SPLINE
  5
1A3
330
8C
100
AcDbEntity
  8
$DDT_AUDIT_GENERATED_(10C)
  6
Continuous
 62
     7
100
AcDbSpline
210
0.0
220
0.0
230
1.0
 70
    12
 71
     3
 72
     8
 73
     4
 74
     0
 42
0.0000000474172164
 43
0.0000000001
 40
0.8809395038976985
 40
0.8809395038976985
 40
0.8809395038976985
 40
0.8809395038976985
 40
1.0
 40
1.0
 40
1.0
 40
1.0
 10
118.8640929917705
 20
715.677390310471
 30
0.0
 41
0.9385597342087395
 10
118.8557494571162
 20
715.6761248751523
 30
0.0
 41
0.9562719034449625
 10
118.8473957661187
 20
715.6755095750827
 30
0.0
 41
0.9767519920420493
 10
118.8391019098154
 20
715.6755095750827
 30
0.0
 41
1.0
  0
SPLINE
  5
1A4
330
8C
100
AcDbEntity
  8
$DDT_AUDIT_GENERATED_(10C)
  6
Continuous
 62
     7
100
AcDbSpline
210
0.0
220
0.0
230
1.0
 70
    12
 71
     3
 72
     8
 73
     4
 74
     0
 42
0.000000056104638
 43
0.0000000001
 40
0.0
 40
0.0
 40
0.0
 40
0.0
 40
0.9710233551089253
 40
0.9710233551089253
 40
0.9710233551089253
 40
0.9710233551089253
 10
119.2721146117076
 20
715.6101427680219
 30
0.0
 41
1.0
 10
119.3128784970595
 20
715.6162964097448
 30
0.0
 41
0.8103958959860841
 10
119.3425262391287
 20
715.669395838995
 30
0.0
 41
0.8049018051941824
 10
119.3442217836282
 20
715.7404078865627
 30
0.0
 41
0.9835177276242951
  0
SPLINE
  5
1A5
330
8C
100
AcDbEntity
  8
$DDT_AUDIT_GENERATED_(10C)
  6
Continuous
 62
     7
100
AcDbSpline
210
0.0
220
0.0
230
1.0
 70
    12
 71
     3
 72
     8
 73
     4
 74
     0
 42
0.0000000474173541
 43
0.0000000001
 40
0.0
 40
0.0
 40
0.0
 40
0.0
 40
0.1190490528761113
 40
0.1190490528761113
 40
0.1190490528761113
 40
0.1190490528761113
 10
119.2721146117076
 20
715.7408763821435
 30
0.0
 41
1.0
 10
119.2638215715206
 20
715.7408763821436
 30
0.0
 41
0.9767542264709491
 10
119.2554687045855
 20
715.7414915614097
 30
0.0
 41
0.9562758402639043
 10
119.2471259809092
 20
715.742756745792
 30
0.0
 41
0.9385648413788656
  0
SPLINE
  5
1A6
330
8C
100
AcDbEntity
  8
$DDT_AUDIT_GENERATED_(10C)
  6
Continuous
 62
     7
100
AcDbSpline
210
0.0
220
0.0
230
1.0
 70
    12
 71
     3
 72
     8
 73
     4
 74
     0
 42
0.0000000959680973
 43
0.0000000001
 40
0.9393488469400779
 40
0.9393488469400779
 40
0.9393488469400779
 40
0.9393488469400779
 40
1.0
 40
1.0
 40
1.0
 40
1.0
 10
118.8328117659343
 20
715.8057675264662
 30
0.0
 41
0.9666262290559098
 10
118.8349156280546
 20
715.8057675152759
 30
0.0
 41
0.9770325353889915
 10
118.8370137863019
 20
715.8059279698903
 30
0.0
 41
0.9881571257036882
 10
118.8391019098154
 20
715.8062431892042
 30
0.0
 41
1.0
  0
SPLINE
  5
1A7
330
8C
100
AcDbEntity
  8
$DDT_AUDIT_GENERATED_(10C)
  6
Continuous
 62
     7
100
AcDbSpline
210
0.0
220
0.0
230
1.0
 70
    12
 71
     3
 72
     8
 73
     4
 74
     0
 42
0.0000000959680973
 43
0.0000000001
 40
0.9393488469402188
 40
0.9393488469402188
 40
0.9393488469402188
 40
0.9393488469402188
 40
1.0
 40
1.0
 40
1.0
 40
1.0
 10
119.2784047555887
 20
715.4789334911627
 30
0.0
 41
0.9666262290559822
 10
119.2763008934684
 20
715.4789334799723
 30
0.0
 41
0.9770325353890431
 10
119.2742027352211
 20
715.4790939345866
 30
0.0
 41
0.9881571257037157
 10
119.2721146117076
 20
715.4794091539005
 30
0.0
 41
1.0
  0
SPLINE
  5
1A8
330
8C
100
AcDbEntity
  8
$DDT_AUDIT_GENERATED_(10C)
  6
Continuous
 62
     7
100
AcDbSpline
210
0.0
220
0.0
230
1.0
 70
    12
 71
     3
 72
     8
 73
     4
 74
     0
 42
0.0000000474173541
 43
0.0000000001
 40
0.0
 40
0.0
 40
0.0
 40
0.0
 40
0.1190490528761288
 40
0.1190490528761288
 40
0.1190490528761288
 40
0.1190490528761288
 10
118.8391019098153
 20
715.4140423468398
 30
0.0
 41
1.0
 10
118.8473949500024
 20
715.4140423468398
 30
0.0
 41
0.9767542264709455
 10
118.8557478169375
 20
715.4146575261061
 30
0.0
 41
0.9562758402638979
 10
118.8640905406137
 20
715.4159227104884
 30
0.0
 41
0.9385648413788572
  0
SPLINE
  5
1A9
330
8C
100
AcDbEntity
  8
$DDT_AUDIT_GENERATED_(10C)
  6
Continuous
 62
     7
100
AcDbSpline
210
0.0
220
0.0
230
1.0
 70
    12
 71
     3
 72
     8
 73
     4
 74
     0
 42
0.0000000959680973
 43
0.0000000001
 40
0.939348846940248
 40
0.939348846940248
 40
0.939348846940248
 40
0.939348846940248
 40
1.0
 40
1.0
 40
1.0
 40
1.0
 10
120.131849871611
 20
715.6096671052841
 30
0.0
 41
0.9666262290559975
 10
120.1339537337312
 20
715.6096670940937
 30
0.0
 41
0.977032535389054
 10
120.1360518919785
 20
715.6098275487079
 30
0.0
 41
0.9881571257037215
 10
120.138140015492
 20
715.6101427680219
 30
0.0
 41
1.0
  0
SPLINE
  5
1AA
330
8C
100
AcDbEntity
  8
$DDT_AUDIT_GENERATED_(10C)
  6
Continuous
 62
     7
100
AcDbSpline
210
0.0
220
0.0
230
1.0
 70
    12
 71
     3
 72
     8
 73
     4
 74
     0
 42
0.000000056104638
 43
0.0000000001
 40
0.0
 40
0.0
 40
0.0
 40
0.0
 40
0.9710233551088329
 40
0.9710233551088329
 40
0.9710233551088329
 40
0.9710233551088329
 10
120.138140015492
 20
715.6101427680219
 30
0.0
 41
1.0
 10
120.0973761301401
 20
715.6162964097448
 30
0.0
 41
0.8103958959860885
 10
120.0677283880709
 20
715.669395838995
 30
0.0
 41
0.8049018051941695
 10
120.0660328435714
 20
715.7404078865626
 30
0.0
 41
0.983517727624243
  0
SPLINE
  5
1AB
330
8C
100
AcDbEntity
  8
$DDT_AUDIT_GENERATED_(10C)
  6
Continuous
 62
     7
100
AcDbSpline
210
0.0
220
0.0
230
1.0
 70
    12
 71
     3
 72
     8
 73
     4
 74
     0
 42
0.0000000959680973
 43
0.0000000001
 40
0.9393488469401805
 40
0.9393488469401805
 40
0.9393488469401805
 40
0.9393488469401805
 40
1.0
 40
1.0
 40
1.0
 40
1.0
 10
119.2784047555887
 20
715.7404007194054
 30
0.0
 41
0.9666262290559628
 10
119.2763008934684
 20
715.7404007082152
 30
0.0
 41
0.9770325353890293
 10
119.2742027352212
 20
715.7405611628295
 30
0.0
 41
0.9881571257037084
 10
119.2721146117076
 20
715.7408763821435
 30
0.0
 41
1.0
  0
SPLINE
  5
1AC
330
8C
100
AcDbEntity
  8
$DDT_AUDIT_GENERATED_(10C)
  6
Continuous
 62
     7
100
AcDbSpline
210
0.0
220
0.0
230
1.0
 70
    12
 71
     3
 72
     8
 73
     4
 74
     0
 42
0.0000000474173541
 43
0.0000000001
 40
0.0
 40
0.0
 40
0.0
 40
0.0
 40
0.1190490528760881
 40
0.1190490528760881
 40
0.1190490528760881
 40
0.1190490528760881
 10
120.5711527173843
 20
715.6755095750827
 30
0.0
 41
1.0
 10
120.5628596771972
 20
715.6755095750827
 30
0.0
 41
0.9767542264709533
 10
120.5545068102621
 20
715.6761247543491
 30
0.0
 41
0.9562758402639118
 10
120.5461640865859
 20
715.6773899387312
 30
0.0
 41
0.9385648413788752
  0
SPLINE
  5
1AD
330
8C
100
AcDbEntity
  8
$DDT_AUDIT_GENERATED_(10C)
  6
Continuous
 62
     7
100
AcDbSpline
210
0.0
220
0.0
230
1.0
 70
    12
 71
     3
 72
     8
 73
     4
 74
     0
 42
0.0000000474172164
 43
0.0000000001
 40
0.880939503897724
 40
0.880939503897724
 40
0.880939503897724
 40
0.880939503897724
 40
1.0
 40
1.0
 40
1.0
 40
1.0
 10
118.8640929917705
 20
715.8081239245923
 30
0.0
 41
0.9385597342087508
 10
118.8557494571162
 20
715.8068584892738
 30
0.0
 41
0.9562719034449713
 10
118.8473957661187
 20
715.8062431892042
 30
0.0
 41
0.9767519920420543
 10
118.8391019098154
 20
715.8062431892042
 30
0.0
 41
1.0
  0
SPLINE
  5
1AE
330
8C
100
AcDbEntity
  8
$DDT_AUDIT_GENERATED_(10C)
  6
Continuous
 62
     7
100
AcDbSpline
210
0.0
220
0.0
230
1.0
 70
    12
 71
     3
 72
     8
 73
     4
 74
     0
 42
0.0000000665384262
 43
0.0000000001
 40
0.0
 40
0.0
 40
0.0
 40
0.0
 40
0.5565612256742057
 40
0.5565612256742057
 40
0.5565612256742057
 40
0.5565612256742057
 10
119.2721146117076
 20
715.7408763821435
 30
0.0
 41
1.0
 10
119.2933578222273
 20
715.7440832184263
 30
0.0
 41
0.8913246607636871
 10
119.3133685728956
 20
715.7623537426397
 30
0.0
 41
0.8431338015332966
 10
119.3276938857691
 20
715.794358264799
 30
0.0
 41
0.8554274223088286
  0
SPLINE
  5
1AF
330
8C
100
AcDbEntity
  8
$DDT_AUDIT_GENERATED_(10C)
  6
Continuous
 62
     7
100
AcDbSpline
210
0.0
220
0.0
230
1.0
 70
    12
 71
     3
 72
     8
 73
     4
 74
     0
 42
0.0000000474172164
 43
0.0000000001
 40
0.8809395038976895
 40
0.8809395038976895
 40
0.8809395038976895
 40
0.8809395038976895
 40
1.0
 40
1.0
 40
1.0
 40
1.0
 10
120.1631310974471
 20
715.6120235034102
 30
0.0
 41
0.9385597342087383
 10
120.1547875627928
 20
715.6107580680915
 30
0.0
 41
0.9562719034449614
 10
120.1464338717953
 20
715.6101427680219
 30
0.0
 41
0.9767519920420487
 10
120.138140015492
 20
715.6101427680219
 30
0.0
 41
1.0
  0
SPLINE
  5
1B0
330
8C
100
AcDbEntity
  8
$DDT_AUDIT_GENERATED_(10C)
  6
Continuous
 62
     7
100
AcDbSpline
210
0.0
220
0.0
230
1.0
 70
    12
 71
     3
 72
     8
 73
     4
 74
     0
 42
0.0000000959680973
 43
0.0000000001
 40
0.9393488469403619
 40
0.9393488469403619
 40
0.9393488469403619
 40
0.9393488469403619
 40
1.0
 40
1.0
 40
1.0
 40
1.0
 10
120.5774428612653
 20
715.6750339123448
 30
0.0
 41
0.9666262290560638
 10
120.5753389991451
 20
715.6750339011544
 30
0.0
 41
0.9770325353891011
 10
120.5732408408978
 20
715.6751943557688
 30
0.0
 41
0.9881571257037465
 10
120.5711527173843
 20
715.6755095750827
 30
0.0
 41
1.0
  0
SPLINE
  5
1B1
330
8C
100
AcDbEntity
  8
$DDT_AUDIT_GENERATED_(10C)
  6
Continuous
 62
     7
100
AcDbSpline
210
0.0
220
0.0
230
1.0
 70
    12
 71
     3
 72
     8
 73
     4
 74
     0
 42
0.0000000865138
 43
0.0000000001
 40
0.0
 40
0.0
 40
0.0
 40
0.0
 40
0.188481170070262
 40
0.188481170070262
 40
0.188481170070262
 40
0.188481170070262
 10
120.5711527173843
 20
715.6755095750827
 30
0.0
 41
1.0
 10
120.5778099860476
 20
715.6765145442081
 30
0.0
 41
0.9631967622749258
 10
120.5845140452532
 20
715.6791064912467
 30
0.0
 41
0.9333302418586475
 10
120.591116257025
 20
715.6833823556435
 30
0.0
 41
0.9104004387511653
  0
SPLINE
  5
1B2
330
8C
100
AcDbEntity
  8
$DDT_AUDIT_GENERATED_(10C)
  6
Continuous
 62
     7
100
AcDbSpline
210
0.0
220
0.0
230
1.0
 70
     8
 71
     3
 72
    38
 73
    34
 74
     0
 42
0.0000000081429182
 43
0.0000000001
 40
0.2187472036881666
 40
0.2187472036881666
 40
0.2187472036881666
 40
0.2187472036881666
 40
0.2258365253210473
 40
0.2395010941930208
 40
0.2535609269573176
 40
0.2680652348543479
 40
0.2830693792118252
 40
0.2986360391952749
 40
0.3148367001419907
 40
0.331753558837294
 40
0.3494819706122704
 40
0.3681335934648495
 40
0.3878404027086993
 40
0.4087597134639954
 40
0.4310801373764792
 40
0.4550276864588217
 40
0.4808691576578416
 40
0.5089043753738083
 40
0.539425716231117
 40
0.5726007848531737
 40
0.6082354370428822
 40
0.6455325575309945
 40
0.68313908238372
 40
0.7199200224485364
 40
0.7555801929504729
 40
0.7901457270601111
 40
0.8237492940367411
 40
0.8565363635475383
 40
0.8886360235564889
 40
0.9201556677750274
 40
0.9511828999623654
 40
0.9817889905997658
 40
0.9864982360008259
 40
0.9864982360008259
 40
0.9864982360008259
 40
0.9864982360008259
 10
104.91800024135
 20
715.5171845320316
 30
0.0
 10
104.920735878637
 20
715.514617989344
 30
0.0
 10
104.9287390847786
 20
715.5072110294564
 30
0.0
 10
104.9421266976652
 20
715.4952944187899
 30
0.0
 10
104.9582775492462
 20
715.4816149782939
 30
0.0
 10
104.9748244645511
 20
715.4682726128286
 30
0.0
 10
104.9918022799126
 20
715.4552349647435
 30
0.0
 10
105.0092557224102
 20
715.4424676722341
 30
0.0
 10
105.0272411135293
 20
715.4299340726363
 30
0.0
 10
105.0458286016063
 20
715.4175947722392
 30
0.0
 10
105.0651050928133
 20
715.4054070602396
 30
0.0
 10
105.0851780970549
 20
715.3933241450652
 30
0.0
 10
105.1061807429533
 20
715.3812942052239
 30
0.0
 10
105.1282781937168
 20
715.3692592985137
 30
0.0
 10
105.1516754595719
 20
715.3571543246908
 30
0.0
 10
105.1766257221509
 20
715.3449066414668
 30
0.0
 10
105.2034356339933
 20
715.3324379501362
 30
0.0
 10
105.2324570898536
 20
715.3196723682432
 30
0.0
 10
105.2640403315727
 20
715.3065585391867
 30
0.0
 10
105.2984084033146
 20
715.2931145833614
 30
0.0
 10
105.3354518227124
 20
715.2794836927849
 30
0.0
 10
105.3745505588795
 20
715.2659544820642
 30
0.0
 10
105.414716414901
 20
715.2528649517988
 30
0.0
 10
105.4550546653573
 20
715.2404441168966
 30
0.0
 10
105.49508871515
 20
715.2287511980935
 30
0.0
 10
105.5347673125155
 20
715.217718016302
 30
0.0
 10
105.5741874649094
 20
715.2072490480094
 30
0.0
 10
105.6134945097354
 20
715.1972519065378
 30
0.0
 10
105.6527889686661
 20
715.1876587895831
 30
0.0
 10
105.6922898698673
 20
715.1783824965356
 30
0.0
 10
105.7316971236944
 20
715.1694730775052
 30
0.0
 10
105.7611728953166
 20
715.1630186687635
 30
0.0
 10
105.7761227428777
 20
715.1598410724569
 30
0.0
 10
105.7781300674698
 20
715.1594158585992
 30
0.0
  0
SPLINE
  5
1B3
330
8C
100
AcDbEntity
  8
$DDT_AUDIT_GENERATED_(10C)
  6
Continuous
 62
     7
100
AcDbSpline
210
0.0
220
0.0
230
1.0
 70
     8
 71
     3
 72
    37
 73
    33
 74
     0
 42
0.0000000081553447
 43
0.0000000001
 40
0.0358106408374009
 40
0.0358106408374009
 40
0.0358106408374009
 40
0.0358106408374009
 40
0.0543673533728085
 40
0.0846877243341258
 40
0.1153753628003035
 40
0.1464869500471013
 40
0.178090935588376
 40
0.2102700999561707
 40
0.2431240101022536
 40
0.2767699635271033
 40
0.3113383975035598
 40
0.3469519883382693
 40
0.3836620813990173
 40
0.421291984731225
 40
0.4589628978394817
 40
0.4903113518930155
 40
0.5190651404927079
 40
0.5454375828391625
 40
0.5697409122800317
 40
0.5922739989400885
 40
0.6132944019881073
 40
0.6330167575896036
 40
0.6516185365459791
 40
0.6692469126556203
 40
0.6860248665818862
 40
0.7020561367036482
 40
0.7174290975640901
 40
0.7338355432853649
 40
0.7495862913628408
 40
0.7647367921760748
 40
0.7793628557898459
 40
0.7814619969293255
 40
0.7814619969293255
 40
0.7814619969293255
 40
0.7814619969293255
 10
120.6697211481934
 20
715.1654479963731
 30
0.0
 10
120.6777851971279
 20
715.1672116786851
 30
0.0
 10
120.6992173141036
 20
715.1719549157635
 30
0.0
 10
120.7328129532495
 20
715.179593918793
 30
0.0
 10
120.77118288031
 20
715.1886451278548
 30
0.0
 10
120.8092081889716
 20
715.1979621797238
 30
0.0
 10
120.847061419018
 20
715.2076122661583
 30
0.0
 10
120.8848093018447
 20
715.2176446193772
 30
0.0
 10
120.9225706150202
 20
715.2281306028929
 30
0.0
 10
120.9604740416757
 20
715.2391569629051
 30
0.0
 10
120.998663087254
 20
715.2508308521029
 30
0.0
 10
121.0372656056777
 20
715.2632754029535
 30
0.0
 10
121.0763190538859
 20
715.276608140193
 30
0.0
 10
121.1155450572414
 20
715.2908553431124
 30
0.0
 10
121.1525010309282
 20
715.3051971645452
 30
0.0
 10
121.1861931440935
 20
715.3191438817512
 30
0.0
 10
121.2159491708988
 20
715.3322115271504
 30
0.0
 10
121.2433308530374
 20
715.3449420849516
 30
0.0
 10
121.2686813113794
 20
715.3573949362666
 30
0.0
 10
121.2923333918211
 20
715.3696493867179
 30
0.0
 10
121.3145697068851
 20
715.3817833498737
 30
0.0
 10
121.3356201288481
 20
715.3938673222258
 30
0.0
 10
121.3556690927655
 20
715.4059635690862
 30
0.0
 10
121.3748642100946
 20
715.4181269534745
 30
0.0
 10
121.3933237827294
 20
715.4304061332002
 30
0.0
 10
121.4111428242784
 20
715.442844702316
 30
0.0
 10
121.4290011210438
 20
715.4559241385225
 30
0.0
 10
121.4469273898718
 20
715.4697332495494
 30
0.0
 10
121.4649299436586
 20
715.4843629764785
 30
0.0
 10
121.4823820478085
 20
715.4993276494787
 30
0.0
 10
121.4946666742241
 20
715.5104462568512
 30
0.0
 10
121.5011240706053
 20
715.5164814500871
 30
0.0
 10
121.5019346845329
 20
715.5172421099231
 30
0.0
  0
SPLINE
  5
1B4
330
8C
100
AcDbEntity
  8
$DDT_AUDIT_GENERATED_(10C)
  6
Continuous
 62
     7
100
AcDbSpline
210
0.0
220
0.0
230
1.0
 70
     8
 71
     3
 72
    18
 73
    14
 74
     0
 42
0.0000000012032091
 43
0.0000000001
 40
0.0180151214476357
 40
0.0180151214476357
 40
0.0180151214476357
 40
0.0180151214476357
 40
0.0311793881710883
 40
0.0716624708541742
 40
0.1450724956225041
 40
0.2340401633446164
 40
0.3141190122989765
 40
0.3918692653503928
 40
0.4687235334406464
 40
0.5451518328138957
 40
0.6213507112032857
 40
0.6974159622352888
 40
0.7479465641503318
 40
0.7479465641503318
 40
0.7479465641503318
 40
0.7479465641503318
 10
103.8780745185321
 20
715.5399272830089
 30
0.0
 10
103.886838192668
 20
715.5108084296306
 30
0.0
 10
103.9330702414526
 20
715.4014511674665
 30
0.0
 10
104.0925890043464
 20
715.2312373861487
 30
0.0
 10
104.3285468079707
 20
715.1224262401851
 30
0.0
 10
104.6938898205385
 20
715.0107579984543
 30
0.0
 10
105.1934413411678
 20
714.915978660989
 30
0.0
 10
105.7828556466523
 20
714.8298529088636
 30
0.0
 10
106.4708852064469
 20
714.7544583762949
 30
0.0
 10
107.2486840866338
 20
714.6865767978636
 30
0.0
 10
108.1135462354405
 20
714.6282706458875
 30
0.0
 10
108.9386587017976
 20
714.584774886694
 30
0.0
 10
109.4881381357219
 20
714.5623836420214
 30
0.0
 10
109.7101854774981
 20
714.5542232138778
 30
0.0
  0
SPLINE
  5
1B5
330
8C
100
AcDbEntity
  8
$DDT_AUDIT_GENERATED_(10C)
  6
Continuous
 62
     7
100
AcDbSpline
210
0.0
220
0.0
230
1.0
 70
     8
 71
     3
 72
    18
 73
    14
 74
     0
 42
0.0000000012033107
 43
0.0000000001
 40
0.2520446031459424
 40
0.2520446031459424
 40
0.2520446031459424
 40
0.2520446031459424
 40
0.2988925438958543
 40
0.3744879958934852
 40
0.4502030300175007
 40
0.5261196818977181
 40
0.6024006231562874
 40
0.6794160309171589
 40
0.7582008737389162
 40
0.8428918566554249
 40
0.9221771927510323
 40
0.9660299510211001
 40
0.9820589062188259
 40
0.9820589062188259
 40
0.9820589062188259
 40
0.9820589062188259
 10
116.709745619924
 20
714.5542185589366
 30
0.0
 10
116.9157054059208
 20
714.5617829858992
 30
0.0
 10
117.4475437169565
 20
714.5832990189554
 30
0.0
 10
118.256908384981
 20
714.625370804329
 30
0.0
 10
119.1206109266397
 20
714.6827479183513
 30
0.0
 10
119.8990712715575
 20
714.7496713914413
 30
0.0
 10
120.5885214474198
 20
714.8238404658186
 30
0.0
 10
121.1806010323136
 20
714.9086004641355
 30
0.0
 10
121.6770533324998
 20
714.9998907769286
 30
0.0
 10
122.0589911261607
 20
715.110667244077
 30
0.0
 10
122.3011163109506
 20
715.2142017992027
 30
0.0
 10
122.4778629370492
 20
715.3844169814989
 30
0.0
 10
122.5302795928519
 20
715.5046499746027
 30
0.0
 10
122.5407451095929
 20
715.5402146404042
 30
0.0
  0
LINE
  5
1B6
330
8C
100
AcDbEntity
  8
$DDT_AUDIT_GENERATED_(10C)
  6
Continuous
 62
     7
100
AcDbLine
 10
116.7099367852
 20
712.2354993482
 30
0.0
 11
116.7099367852
 21
715.8716099963
 31
0.0
  0
LINE
  5
1B7
330
8C
100
AcDbEntity
  8
$DDT_AUDIT_GENERATED_(10C)
  6
Continuous
 62
     7
100
AcDbLine
 10
109.7099367852
 20
715.8716099963
 30
0.0
 11
109.7099367852
 21
712.2354993482
 31
0.0
  0
LINE
  5
1B8
330
8C
100
AcDbEntity
  8
$DDT_AUDIT_GENERATED_(10C)
  6
Continuous
 62
     7
100
AcDbLine
 10
99.2099367852
 20
721.7989684499
 30
0.0
 11
99.2099367852
 21
719.343830413
 31
0.0
  0
LINE
  5
1B9
330
8C
100
AcDbEntity
  8
$DDT_AUDIT_GENERATED_(10C)
  6
Continuous
 62
     7
100
AcDbLine
 10
127.2099367852
 20
718.4695338596
 30
0.0
 11
127.2099367852
 21
721.7989684499
 31
0.0
  0
LINE
  5
1BA
330
8C
100
AcDbEntity
  8
$DDT_AUDIT_GENERATED_(10C)
  6
Continuous
 62
     7
100
AcDbLine
 10
100.4599367852
 20
723.5499823293
 30
0.0
 11
100.4599367852
 21
722.3810837174
 31
0.0
  0
LINE
  5
1BB
330
8C
100
AcDbEntity
  8
$DDT_AUDIT_GENERATED_(10C)
  6
Continuous
 62
     7
100
AcDbLine
 10
125.9599367852
 20
722.3810837174
 30
0.0
 11
125.9599367852
 21
723.5499823293
 31
0.0
  0
LINE
  5
1BC
330
8C
100
AcDbEntity
  8
$DDT_AUDIT_GENERATED_(10C)
  6
Continuous
 62
     7
100
AcDbLine
 10
127.1562539986
 20
721.9057204022
 30
0.0
 11
127.0566374471
 21
722.0045773581
 31
0.0
  0
LINE
  5
1BD
330
8C
100
AcDbEntity
  8
$DDT_AUDIT_GENERATED_(10C)
  6
Continuous
 62
     7
100
AcDbLine
 10
99.3632361234
 20
722.0045773581
 30
0.0
 11
99.2636195718
 21
721.9057204022
 31
0.0
  0
LINE
  5
1BE
330
8C
100
AcDbEntity
  8
$DDT_AUDIT_GENERATED_(10C)
  6
Continuous
 62
     7
100
AcDbLine
 10
100.0263177036
 20
714.8282390148
 30
0.0
 11
100.1623714204
 21
714.750890931
 31
0.0
  0
LINE
  5
1BF
330
8C
100
AcDbEntity
  8
$DDT_AUDIT_GENERATED_(10C)
  6
Continuous
 62
     7
100
AcDbLine
 10
108.8860894135
 20
715.8711343335
 30
0.0
 11
109.4241106719
 21
715.8711343335
 31
0.0
  0
LINE
  5
1C0
330
8C
100
AcDbEntity
  8
$DDT_AUDIT_GENERATED_(10C)
  6
Continuous
 62
     7
100
AcDbLine
 10
108.4716748943
 20
715.8081067882
 30
0.0
 11
108.8891915047
 21
715.8711343335
 31
0.0
  0
SPLINE
  5
1C1
330
8C
100
AcDbEntity
  8
$DDT_AUDIT_GENERATED_(10C)
  6
Continuous
 62
     7
100
AcDbSpline
210
0.0
220
0.0
230
1.0
 70
     8
 71
     3
 72
    26
 73
    22
 74
     0
 42
0.0000000225013563
 43
0.0000000001
 40
0.1881809841796296
 40
0.1881809841796296
 40
0.1881809841796296
 40
0.1881809841796296
 40
0.2108691327363843
 40
0.2419707809027368
 40
0.2761319611785401
 40
0.3139939876951063
 40
0.3561519780012727
 40
0.4027615703228349
 40
0.4528724934010662
 40
0.5043630470430144
 40
0.5549423553919711
 40
0.6041423266144673
 40
0.6520488219140694
 40
0.698880008499979
 40
0.7448447556637949
 40
0.790113256873828
 40
0.8348184706683455
 40
0.8790635361811786
 40
0.9229288714642025
 40
0.9664777705680346
 40
1.0
 40
1.0
 40
1.0
 40
1.0
 10
109.3693783106563
 20
715.8710743286896
 30
0.0
 10
109.3716970068976
 20
715.8689998167706
 30
0.0
 10
109.3772181992833
 20
715.8642696728565
 30
0.0
 10
109.3863226988348
 20
715.8571676727502
 30
0.0
 10
109.3971085815622
 20
715.8495760705543
 30
0.0
 10
109.4092151793182
 20
715.8418888017982
 30
0.0
 10
109.422903763171
 20
715.8340542249617
 30
0.0
 10
109.4383245245347
 20
715.8261036470857
 30
0.0
 10
109.4553657886895
 20
715.8181796818981
 30
0.0
 10
109.4736049870956
 20
715.8104966593352
 30
0.0
 10
109.4925701367983
 20
715.8032034282664
 30
0.0
 10
109.5119547261681
 20
715.7963392122673
 30
0.0
 10
109.5317243384148
 20
715.7898444939034
 30
0.0
 10
109.5519255971148
 20
715.7836494097329
 30
0.0
 10
109.5726183815794
 20
715.7776956928486
 30
0.0
 10
109.5938613231748
 20
715.7719375289705
 30
0.0
 10
109.6156831470429
 20
715.766345253972
 30
0.0
 10
109.6381743713433
 20
715.760879693941
 30
0.0
 10
109.6611553877248
 20
715.7555736150508
 30
0.0
 10
109.6835966822568
 20
715.7506212535972
 30
0.0
 10
109.6971738334449
 20
715.7477892674198
 30
0.0
 10
109.7041721169936
 20
715.746333500026
 30
0.0
  0
LINE
  5
1C2
330
8C
100
AcDbEntity
  8
$DDT_AUDIT_GENERATED_(10C)
  6
Continuous
 62
     7
100
AcDbLine
 10
108.437415326
 20
715.8057675265
 30
0.0
 11
108.8549319364
 21
715.7427399811
 31
0.0
  0
LINE
  5
1C3
330
8C
100
AcDbEntity
  8
$DDT_AUDIT_GENERATED_(10C)
  6
Continuous
 62
     7
100
AcDbLine
 10
108.8860894135
 20
715.7404007194
 30
0.0
 11
109.7099367852
 21
715.7404007194
 31
0.0
  0
LINE
  5
1C4
330
8C
100
AcDbEntity
  8
$DDT_AUDIT_GENERATED_(10C)
  6
Continuous
 62
     7
100
AcDbLine
 10
107.5870513078
 20
715.8057675265
 30
0.0
 11
108.4405174172
 21
715.8057675265
 31
0.0
  0
LINE
  5
1C5
330
8C
100
AcDbEntity
  8
$DDT_AUDIT_GENERATED_(10C)
  6
Continuous
 62
     7
100
AcDbLine
 10
107.5063999688
 20
715.8155782912
 30
0.0
 11
107.5558938307
 21
715.8081067882
 31
0.0
  0
LINE
  5
1C6
330
8C
100
AcDbEntity
  8
$DDT_AUDIT_GENERATED_(10C)
  6
Continuous
 62
     7
100
AcDbLine
 10
108.4716748943
 20
715.677373174
 30
0.0
 11
108.8891915047
 21
715.7404007194
 31
0.0
  0
LINE
  5
1C7
330
8C
100
AcDbEntity
  8
$DDT_AUDIT_GENERATED_(10C)
  6
Continuous
 62
     7
100
AcDbLine
 10
107.1726367887
 20
715.7427399811
 30
0.0
 11
107.590153399
 21
715.8057675265
 31
0.0
  0
LINE
  5
1C8
330
8C
100
AcDbEntity
  8
$DDT_AUDIT_GENERATED_(10C)
  6
Continuous
 62
     7
100
AcDbLine
 10
107.5870513078
 20
715.6750339123
 30
0.0
 11
108.4405152271
 21
715.6750339123
 31
0.0
  0
LINE
  5
1C9
330
8C
100
AcDbEntity
  8
$DDT_AUDIT_GENERATED_(10C)
  6
Continuous
 62
     7
100
AcDbLine
 10
108.437415326
 20
715.6750339123
 30
0.0
 11
108.8549319364
 21
715.612006367
 31
0.0
  0
LINE
  5
1CA
330
8C
100
AcDbEntity
  8
$DDT_AUDIT_GENERATED_(10C)
  6
Continuous
 62
     7
100
AcDbLine
 10
107.1383772204
 20
715.7404007194
 30
0.0
 11
107.5558938307
 21
715.677373174
 31
0.0
  0
LINE
  5
1CB
330
8C
100
AcDbEntity
  8
$DDT_AUDIT_GENERATED_(10C)
  6
Continuous
 62
     7
100
AcDbLine
 10
108.8860894135
 20
715.6096671053
 30
0.0
 11
109.7099367852
 21
715.6096671053
 31
0.0
  0
LINE
  5
1CC
330
8C
100
AcDbEntity
  8
$DDT_AUDIT_GENERATED_(10C)
  6
Continuous
 62
     7
100
AcDbLine
 10
106.2880545193
 20
715.7404007194
 30
0.0
 11
107.1414793115
 21
715.7404007194
 31
0.0
  0
LINE
  5
1CD
330
8C
100
AcDbEntity
  8
$DDT_AUDIT_GENERATED_(10C)
  6
Continuous
 62
     7
100
AcDbLine
 10
107.1726367887
 20
715.612006367
 30
0.0
 11
107.590153399
 21
715.6750339123
 31
0.0
  0
LINE
  5
1CE
330
8C
100
AcDbEntity
  8
$DDT_AUDIT_GENERATED_(10C)
  6
Continuous
 62
     7
100
AcDbLine
 10
108.4716748943
 20
715.5466395599
 30
0.0
 11
108.8891915047
 21
715.6096671053
 31
0.0
  0
LINE
  5
1CF
330
8C
100
AcDbEntity
  8
$DDT_AUDIT_GENERATED_(10C)
  6
Continuous
 62
     7
100
AcDbLine
 10
107.1383772204
 20
715.6096671053
 30
0.0
 11
107.5558938307
 21
715.5466395599
 31
0.0
  0
LINE
  5
1D0
330
8C
100
AcDbEntity
  8
$DDT_AUDIT_GENERATED_(10C)
  6
Continuous
 62
     7
100
AcDbLine
 10
107.5870513078
 20
715.5443002982
 30
0.0
 11
108.4405152271
 21
715.5443002982
 31
0.0
  0
LINE
  5
1D1
330
8C
100
AcDbEntity
  8
$DDT_AUDIT_GENERATED_(10C)
  6
Continuous
 62
     7
100
AcDbLine
 10
105.873598683
 20
715.677373174
 30
0.0
 11
106.2911152933
 21
715.7404007194
 31
0.0
  0
LINE
  5
1D2
330
8C
100
AcDbEntity
  8
$DDT_AUDIT_GENERATED_(10C)
  6
Continuous
 62
     7
100
AcDbLine
 10
106.2880132021
 20
715.6096671053
 30
0.0
 11
107.1414793115
 21
715.6096671053
 31
0.0
  0
LINE
  5
1D3
330
8C
100
AcDbEntity
  8
$DDT_AUDIT_GENERATED_(10C)
  6
Continuous
 62
     7
100
AcDbLine
 10
108.437415326
 20
715.5443002982
 30
0.0
 11
108.8549319364
 21
715.4812727529
 31
0.0
  0
LINE
  5
1D4
330
8C
100
AcDbEntity
  8
$DDT_AUDIT_GENERATED_(10C)
  6
Continuous
 62
     7
100
AcDbLine
 10
105.8393391147
 20
715.6750339123
 30
0.0
 11
106.256855725
 21
715.612006367
 31
0.0
  0
LINE
  5
1D5
330
8C
100
AcDbEntity
  8
$DDT_AUDIT_GENERATED_(10C)
  6
Continuous
 62
     7
100
AcDbLine
 10
107.1726367887
 20
715.4812727529
 30
0.0
 11
107.590153399
 21
715.5443002982
 31
0.0
  0
LINE
  5
1D6
330
8C
100
AcDbEntity
  8
$DDT_AUDIT_GENERATED_(10C)
  6
Continuous
 62
     7
100
AcDbLine
 10
108.8860894135
 20
715.4789334912
 30
0.0
 11
109.7099367852
 21
715.4789334912
 31
0.0
  0
LINE
  5
1D7
330
8C
100
AcDbEntity
  8
$DDT_AUDIT_GENERATED_(10C)
  6
Continuous
 62
     7
100
AcDbLine
 10
107.1383772204
 20
715.4789334912
 30
0.0
 11
107.5558938307
 21
715.4159059458
 31
0.0
  0
LINE
  5
1D8
330
8C
100
AcDbEntity
  8
$DDT_AUDIT_GENERATED_(10C)
  6
Continuous
 62
     7
100
AcDbLine
 10
108.4716748943
 20
715.4159059458
 30
0.0
 11
108.8891915047
 21
715.4789334912
 31
0.0
  0
LINE
  5
1D9
330
8C
100
AcDbEntity
  8
$DDT_AUDIT_GENERATED_(10C)
  6
Continuous
 62
     7
100
AcDbLine
 10
107.5870513078
 20
715.4135666841
 30
0.0
 11
108.4405152271
 21
715.4135666841
 31
0.0
  0
LINE
  5
1DA
330
8C
100
AcDbEntity
  8
$DDT_AUDIT_GENERATED_(10C)
  6
Continuous
 62
     7
100
AcDbLine
 10
108.437415326
 20
715.4135666841
 30
0.0
 11
108.8549319364
 21
715.3505391387
 31
0.0
  0
LINE
  5
1DB
330
8C
100
AcDbEntity
  8
$DDT_AUDIT_GENERATED_(10C)
  6
Continuous
 62
     7
100
AcDbLine
 10
108.8860894135
 20
715.348199877
 30
0.0
 11
109.7099367852
 21
715.348199877
 31
0.0
  0
LINE
  5
1DC
330
8C
100
AcDbEntity
  8
$DDT_AUDIT_GENERATED_(10C)
  6
Continuous
 62
     7
100
AcDbLine
 10
116.7099367852
 20
715.4789334912
 30
0.0
 11
117.5337819668
 21
715.4789334912
 31
0.0
  0
LINE
  5
1DD
330
8C
100
AcDbEntity
  8
$DDT_AUDIT_GENERATED_(10C)
  6
Continuous
 62
     7
100
AcDbLine
 10
116.7099367852
 20
715.6096671053
 30
0.0
 11
117.5337819668
 21
715.6096671053
 31
0.0
  0
LINE
  5
1DE
330
8C
100
AcDbEntity
  8
$DDT_AUDIT_GENERATED_(10C)
  6
Continuous
 62
     7
100
AcDbLine
 10
117.5649416341
 20
715.4812727529
 30
0.0
 11
117.9824582444
 21
715.5443002982
 31
0.0
  0
LINE
  5
1DF
330
8C
100
AcDbEntity
  8
$DDT_AUDIT_GENERATED_(10C)
  6
Continuous
 62
     7
100
AcDbLine
 10
117.5306820658
 20
715.6096671053
 30
0.0
 11
117.9481986761
 21
715.5466395599
 31
0.0
  0
LINE
  5
1E0
330
8C
100
AcDbEntity
  8
$DDT_AUDIT_GENERATED_(10C)
  6
Continuous
 62
     7
100
AcDbLine
 10
117.5649416341
 20
715.612006367
 30
0.0
 11
117.9824582444
 21
715.6750339123
 31
0.0
  0
LINE
  5
1E1
330
8C
100
AcDbEntity
  8
$DDT_AUDIT_GENERATED_(10C)
  6
Continuous
 62
     7
100
AcDbLine
 10
116.7099367852
 20
715.7404007194
 30
0.0
 11
117.5337819668
 21
715.7404007194
 31
0.0
  0
LINE
  5
1E2
330
8C
100
AcDbEntity
  8
$DDT_AUDIT_GENERATED_(10C)
  6
Continuous
 62
     7
100
AcDbLine
 10
116.9958005873
 20
715.8711343335
 30
0.0
 11
117.5337819668
 21
715.8711343335
 31
0.0
  0
LINE
  5
1E3
330
8C
100
AcDbEntity
  8
$DDT_AUDIT_GENERATED_(10C)
  6
Continuous
 62
     7
100
AcDbLine
 10
116.7099367852
 20
715.348199877
 30
0.0
 11
117.5337819668
 21
715.348199877
 31
0.0
  0
LINE
  5
1E4
330
8C
100
AcDbEntity
  8
$DDT_AUDIT_GENERATED_(10C)
  6
Continuous
 62
     7
100
AcDbLine
 10
117.5306820658
 20
715.4789334912
 30
0.0
 11
117.9481986761
 21
715.4159059458
 31
0.0
  0
LINE
  5
1E5
330
8C
100
AcDbEntity
  8
$DDT_AUDIT_GENERATED_(10C)
  6
Continuous
 62
     7
100
AcDbLine
 10
117.5306820658
 20
715.7404007194
 30
0.0
 11
117.9481986761
 21
715.677373174
 31
0.0
  0
LINE
  5
1E6
330
8C
100
AcDbEntity
  8
$DDT_AUDIT_GENERATED_(10C)
  6
Continuous
 62
     7
100
AcDbLine
 10
117.5649416341
 20
715.3505391387
 30
0.0
 11
117.9824582444
 21
715.4135666841
 31
0.0
  0
LINE
  5
1E7
330
8C
100
AcDbEntity
  8
$DDT_AUDIT_GENERATED_(10C)
  6
Continuous
 62
     7
100
AcDbLine
 10
117.9793583433
 20
715.5443002982
 30
0.0
 11
118.8328200725
 21
715.5443002982
 31
0.0
  0
LINE
  5
1E8
330
8C
100
AcDbEntity
  8
$DDT_AUDIT_GENERATED_(10C)
  6
Continuous
 62
     7
100
AcDbLine
 10
117.9793583433
 20
715.6750339123
 30
0.0
 11
118.8328200725
 21
715.6750339123
 31
0.0
  0
LINE
  5
1E9
330
8C
100
AcDbEntity
  8
$DDT_AUDIT_GENERATED_(10C)
  6
Continuous
 62
     7
100
AcDbLine
 10
117.5649416341
 20
715.7427399811
 30
0.0
 11
117.9824582444
 21
715.8057675265
 31
0.0
  0
SPLINE
  5
1EA
330
8C
100
AcDbEntity
  8
$DDT_AUDIT_GENERATED_(10C)
  6
Continuous
 62
     7
100
AcDbSpline
210
0.0
220
0.0
230
1.0
 70
     8
 71
     3
 72
    26
 73
    22
 74
     0
 42
0.0000000225029746
 43
0.0000000001
 40
0.0
 40
0.0
 40
0.0
 40
0.0
 40
0.0287699190188733
 40
0.0718353191332987
 40
0.1151231049032728
 40
0.1586718846908059
 40
0.2025294702659966
 40
0.2467553378133618
 40
0.2914241002509185
 40
0.3366300160793582
 40
0.3824925366380983
 40
0.4291620880042266
 40
0.4768224865185632
 40
0.5256772717761198
 40
0.5758791726603157
 40
0.627289748840043
 40
0.6725111933660828
 40
0.7132901677790918
 40
0.7497291688628768
 40
0.782499398952758
 40
0.8121420649616924
 40
0.8121420649616924
 40
0.8121420649616924
 40
0.8121420649616924
 10
116.7156722335096
 20
715.7463323789729
 30
0.0
 10
116.7216954539485
 20
715.7475804080708
 30
0.0
 10
116.7344121611436
 20
715.7502215956705
 30
0.0
 10
116.7558712574061
 20
715.7549355490502
 30
0.0
 10
116.7786449976389
 20
715.7601597942227
 30
0.0
 10
116.8008933770045
 20
715.765527684902
 30
0.0
 10
116.8224239387938
 20
715.7709986383029
 30
0.0
 10
116.8433154321455
 20
715.776604853825
 30
0.0
 10
116.8635806676591
 20
715.7823653403492
 30
0.0
 10
116.8832597551516
 20
715.7883115958175
 30
0.0
 10
116.9023971747979
 20
715.7944840772989
 30
0.0
 10
116.9210503319729
 20
715.8009379787297
 30
0.0
 10
116.9392876989127
 20
715.8077479301486
 30
0.0
 10
116.9571818601788
 20
715.8150127421056
 30
0.0
 10
116.9747784100924
 20
715.8228518186932
 30
0.0
 10
116.9912938988523
 20
715.8310157623533
 30
0.0
 10
117.0062725566259
 20
715.8392782754302
 30
0.0
 10
117.0193225977763
 20
715.8472976129276
 30
0.0
 10
117.0308629938361
 20
715.8551924816309
 30
0.0
 10
117.0411183289519
 20
715.8629954473771
 30
0.0
 10
117.0475313089461
 20
715.868420516718
 30
0.0
 10
117.0505602363061
 20
715.8711325294981
 30
0.0
  0
LINE
  5
1EB
330
8C
100
AcDbEntity
  8
$DDT_AUDIT_GENERATED_(10C)
  6
Continuous
 62
     7
100
AcDbLine
 10
117.5306820658
 20
715.8711343335
 30
0.0
 11
117.9481986761
 21
715.8081067882
 31
0.0
  0
LINE
  5
1EC
330
8C
100
AcDbEntity
  8
$DDT_AUDIT_GENERATED_(10C)
  6
Continuous
 62
     7
100
AcDbLine
 10
117.9793583433
 20
715.4135666841
 30
0.0
 11
118.8328200725
 21
715.4135666841
 31
0.0
  0
LINE
  5
1ED
330
8C
100
AcDbEntity
  8
$DDT_AUDIT_GENERATED_(10C)
  6
Continuous
 62
     7
100
AcDbLine
 10
118.8297201715
 20
715.5443002982
 30
0.0
 11
119.2472367818
 21
715.4812727529
 31
0.0
  0
LINE
  5
1EE
330
8C
100
AcDbEntity
  8
$DDT_AUDIT_GENERATED_(10C)
  6
Continuous
 62
     7
100
AcDbLine
 10
118.8639797398
 20
715.5466395599
 30
0.0
 11
119.2814963501
 21
715.6096671053
 31
0.0
  0
LINE
  5
1EF
330
8C
100
AcDbEntity
  8
$DDT_AUDIT_GENERATED_(10C)
  6
Continuous
 62
     7
100
AcDbLine
 10
118.8297201715
 20
715.6750339123
 30
0.0
 11
119.2472367818
 21
715.612006367
 31
0.0
  0
LINE
  5
1F0
330
8C
100
AcDbEntity
  8
$DDT_AUDIT_GENERATED_(10C)
  6
Continuous
 62
     7
100
AcDbLine
 10
118.8639797398
 20
715.4159059458
 30
0.0
 11
119.2814963501
 21
715.4789334912
 31
0.0
  0
LINE
  5
1F1
330
8C
100
AcDbEntity
  8
$DDT_AUDIT_GENERATED_(10C)
  6
Continuous
 62
     7
100
AcDbLine
 10
118.8639797398
 20
715.677373174
 30
0.0
 11
119.2814963501
 21
715.7404007194
 31
0.0
  0
LINE
  5
1F2
330
8C
100
AcDbEntity
  8
$DDT_AUDIT_GENERATED_(10C)
  6
Continuous
 62
     7
100
AcDbLine
 10
117.9793583433
 20
715.8057675265
 30
0.0
 11
118.8328200725
 21
715.8057675265
 31
0.0
  0
LINE
  5
1F3
330
8C
100
AcDbEntity
  8
$DDT_AUDIT_GENERATED_(10C)
  6
Continuous
 62
     7
100
AcDbLine
 10
119.278396449
 20
715.6096671053
 30
0.0
 11
120.1318581782
 21
715.6096671053
 31
0.0
  0
LINE
  5
1F4
330
8C
100
AcDbEntity
  8
$DDT_AUDIT_GENERATED_(10C)
  6
Continuous
 62
     7
100
AcDbLine
 10
118.8297201715
 20
715.8057675265
 30
0.0
 11
119.2472367818
 21
715.7427399811
 31
0.0
  0
LINE
  5
1F5
330
8C
100
AcDbEntity
  8
$DDT_AUDIT_GENERATED_(10C)
  6
Continuous
 62
     7
100
AcDbLine
 10
120.1630178454
 20
715.612006367
 30
0.0
 11
120.5805344557
 21
715.6750339123
 31
0.0
  0
LINE
  5
1F6
330
8C
100
AcDbEntity
  8
$DDT_AUDIT_GENERATED_(10C)
  6
Continuous
 62
     7
100
AcDbLine
 10
119.278396449
 20
715.7404007194
 30
0.0
 11
120.1318190511
 21
715.7404007194
 31
0.0
  0
LINE
  5
1F7
330
8C
100
AcDbEntity
  8
$DDT_AUDIT_GENERATED_(10C)
  6
Continuous
 62
     7
100
AcDbLine
 10
120.1287582771
 20
715.7404007194
 30
0.0
 11
120.5462748874
 21
715.677373174
 31
0.0
  0
LINE
  5
1F8
330
8C
100
AcDbEntity
  8
$DDT_AUDIT_GENERATED_(10C)
  6
Continuous
 62
     7
100
AcDbLine
 10
118.8639797398
 20
715.8081067882
 30
0.0
 11
118.9134736016
 21
715.8155782912
 31
0.0
  0
LINE
  5
1F9
330
8C
100
AcDbEntity
  8
$DDT_AUDIT_GENERATED_(10C)
  6
Continuous
 62
     7
100
AcDbLine
 10
105.7682424386
 20
715.6750339123
 30
0.0
 11
105.8424412058
 21
715.6750339123
 31
0.0
  0
LINE
  5
1FA
330
8C
100
AcDbEntity
  8
$DDT_AUDIT_GENERATED_(10C)
  6
Continuous
 62
     7
100
AcDbLine
 10
105.9225124187
 20
715.5540234882
 30
0.0
 11
106.2911152933
 21
715.6096671053
 31
0.0
  0
LINE
  5
1FB
330
8C
100
AcDbEntity
  8
$DDT_AUDIT_GENERATED_(10C)
  6
Continuous
 62
     7
100
AcDbLine
 10
106.4139070061
 20
715.4789334912
 30
0.0
 11
107.1414771214
 21
715.4789334912
 31
0.0
  0
LINE
  5
1FC
330
8C
100
AcDbEntity
  8
$DDT_AUDIT_GENERATED_(10C)
  6
Continuous
 62
     7
100
AcDbLine
 10
107.3565682559
 20
715.3783050973
 30
0.0
 11
107.590153399
 21
715.4135666841
 31
0.0
  0
LINE
  5
1FD
330
8C
100
AcDbEntity
  8
$DDT_AUDIT_GENERATED_(10C)
  6
Continuous
 62
     7
100
AcDbLine
 10
108.5167472402
 20
715.2919763707
 30
0.0
 11
108.8891915047
 21
715.348199877
 31
0.0
  0
LINE
  5
1FE
330
8C
100
AcDbEntity
  8
$DDT_AUDIT_GENERATED_(10C)
  6
Continuous
 62
     7
100
AcDbLine
 10
117.5306820658
 20
715.348199877
 30
0.0
 11
117.9031436227
 21
715.2919737603
 31
0.0
  0
LINE
  5
1FF
330
8C
100
AcDbEntity
  8
$DDT_AUDIT_GENERATED_(10C)
  6
Continuous
 62
     7
100
AcDbLine
 10
118.8297201715
 20
715.4135666841
 30
0.0
 11
119.0633209753
 21
715.3783027332
 31
0.0
  0
LINE
  5
200
330
8C
100
AcDbEntity
  8
$DDT_AUDIT_GENERATED_(10C)
  6
Continuous
 62
     7
100
AcDbLine
 10
119.278396449
 20
715.4789334912
 30
0.0
 11
120.0061200438
 21
715.4789334912
 31
0.0
  0
LINE
  5
201
330
8C
100
AcDbEntity
  8
$DDT_AUDIT_GENERATED_(10C)
  6
Continuous
 62
     7
100
AcDbLine
 10
120.1287582771
 20
715.6096671053
 30
0.0
 11
120.4973605073
 21
715.5540235855
 31
0.0
  0
LINE
  5
202
330
8C
100
AcDbEntity
  8
$DDT_AUDIT_GENERATED_(10C)
  6
Continuous
 62
     7
100
AcDbLine
 10
120.5774345547
 20
715.6750339123
 30
0.0
 11
120.6516311319
 21
715.6750339123
 31
0.0
  0
ENDBLK
  5
204
330
8C
100
AcDbEntity
  8
0
100
AcDbBlockEnd
  0
BLOCK
  5
264
330
205
100
AcDbEntity
  8
0
100
AcDbBlockBegin
  2
SE1
 70
     0
 10
0.0
 20
0.0
 30
0.0
  3
SE1
  1

  0
LINE
  5
207
330
205
100
AcDbEntity
  8
$DDT_AUDIT_GENERATED_(8E)
  6
Continuous
 62
     7
100
AcDbLine
 10
308.2816499691
 20
599.2255060056
 30
0.0
 11
292.1816499691
 21
599.2255060056
 31
0.0
  0
LINE
  5
208
330
205
100
AcDbEntity
  8
$DDT_AUDIT_GENERATED_(8E)
  6
Continuous
 62
     7
100
AcDbLine
 10
308.2816499691
 20
599.2255060056
 30
0.0
 11
308.2816499691
 21
600.7755060056
 31
0.0
  0
LINE
  5
209
330
205
100
AcDbEntity
  8
$DDT_AUDIT_GENERATED_(8E)
  6
Continuous
 62
     7
100
AcDbLine
 10
308.2816499691
 20
600.7755060056
 30
0.0
 11
292.1816499691
 21
600.7755060056
 31
0.0
  0
CIRCLE
  5
20A
330
205
100
AcDbEntity
  8
$DDT_AUDIT_GENERATED_(8E)
  6
Continuous
 62
     7
100
AcDbCircle
 10
313.1816499691
 20
543.2755060056
 30
0.0
 40
24.00000000000001
  0
LINE
  5
20B
330
205
100
AcDbEntity
  8
$DDT_AUDIT_GENERATED_(8E)
  6
Continuous
 62
     7
100
AcDbLine
 10
333.9816499691
 20
605.7755060056
 30
0.0
 11
292.3816499691
 21
605.7755060056
 31
0.0
  0
LINE
  5
20C
330
205
100
AcDbEntity
  8
$DDT_AUDIT_GENERATED_(8E)
  6
Continuous
 62
     7
100
AcDbLine
 10
334.1816499691
 20
556.5382053036
 30
0.0
 11
334.1816499691
 21
605.5755060056
 31
0.0
  0
LINE
  5
20D
330
205
100
AcDbEntity
  8
$DDT_AUDIT_GENERATED_(8E)
  6
Continuous
 62
     7
100
AcDbLine
 10
292.1816499691
 20
599.2255060056
 30
0.0
 11
292.1816499691
 21
556.5384312257
 31
0.0
  0
LINE
  5
20E
330
205
100
AcDbEntity
  8
$DDT_AUDIT_GENERATED_(8E)
  6
Continuous
 62
     7
100
AcDbLine
 10
292.1816499691
 20
605.5755060056
 30
0.0
 11
292.1816499691
 21
600.7755060056
 31
0.0
  0
LINE
  5
20F
330
205
100
AcDbEntity
  8
$DDT_AUDIT_GENERATED_(8E)
  6
Continuous
 62
     7
100
AcDbLine
 10
334.1816499691
 20
463.5755060056
 30
0.0
 11
334.1816499691
 21
530.0089765669
 31
0.0
  0
LINE
  5
210
330
205
100
AcDbEntity
  8
$DDT_AUDIT_GENERATED_(8E)
  6
Continuous
 62
     7
100
AcDbLine
 10
292.1816499691
 20
530.009190565
 30
0.0
 11
292.1816499691
 21
463.5755060056
 31
0.0
  0
ARC
  5
211
330
205
100
AcDbEntity
  8
$DDT_AUDIT_GENERATED_(8E)
  6
Continuous
 62
     7
100
AcDbCircle
 10
285.3882863774
 20
556.5336057845
 30
0.0
 40
6.793516081185832
100
AcDbArc
 50
334.5032271608
 51
0.0048731578
  0
ARC
  5
212
330
205
100
AcDbEntity
  8
$DDT_AUDIT_GENERATED_(8E)
  6
Continuous
 62
     7
100
AcDbCircle
 10
340.9765339637
 20
556.5334053694
 30
0.0
 40
6.794803137207005
100
AcDbArc
 50
179.9974051663
 51
205.496548173
  0
ARC
  5
213
330
205
100
AcDbEntity
  8
$DDT_AUDIT_GENERATED_(8E)
  6
Continuous
 62
     7
100
AcDbCircle
 10
340.9760652599
 20
530.0172117831
 30
0.0
 40
6.794550137462068
100
AcDbArc
 50
154.5228603113
 51
180.002861315
  0
ARC
  5
214
330
205
100
AcDbEntity
  8
$DDT_AUDIT_GENERATED_(8E)
  6
Continuous
 62
     7
100
AcDbCircle
 10
285.3866477853
 20
530.0175710353
 30
0.0
 40
6.794924879002125
100
AcDbArc
 50
359.9976998877
 51
25.4793103369
  0
ARC
  5
215
330
205
100
AcDbEntity
  8
$DDT_AUDIT_GENERATED_(8E)
  6
Continuous
 62
     7
100
AcDbCircle
 10
333.9816499691
 20
605.5755060056
 30
0.0
 40
0.1999999999999953
100
AcDbArc
 50
0.0
 51
90.0
  0
ARC
  5
216
330
205
100
AcDbEntity
  8
$DDT_AUDIT_GENERATED_(8E)
  6
Continuous
 62
     7
100
AcDbCircle
 10
292.3816499691
 20
605.5755060056
 30
0.0
 40
0.1999999999999988
100
AcDbArc
 50
90.0
 51
180.0
  0
LINE
  5
217
330
205
100
AcDbEntity
  8
$DDT_AUDIT_GENERATED_(A7)
  6
Continuous
 62
     7
100
AcDbLine
 10
553.0099064605
 20
724.3515479637
 30
0.0
 11
523.1240655178
 21
721.7368756813
 31
0.0
  0
LINE
  5
218
330
205
100
AcDbEntity
  8
$DDT_AUDIT_GENERATED_(A7)
  6
Continuous
 62
     7
100
AcDbLine
 10
520.814438335
 20
748.1360351807
 30
0.0
 11
523.1240655178
 21
721.7368756813
 31
0.0
  0
LINE
  5
219
330
205
100
AcDbEntity
  8
$DDT_AUDIT_GENERATED_(A7)
  6
Continuous
 62
     7
100
AcDbLine
 10
553.0099064605
 20
724.3515479637
 30
0.0
 11
550.7002792777
 21
750.7507074632
 31
0.0
  0
ARC
  5
21A
330
205
100
AcDbEntity
  8
$DDT_AUDIT_GENERATED_(A7)
  6
Continuous
 62
     7
100
AcDbCircle
 10
424.6816499691
 20
739.7255060056
 30
0.0
 40
96.49999999999999
100
AcDbArc
 50
90.0
 51
180.0
  0
ARC
  5
21B
330
205
100
AcDbEntity
  8
$DDT_AUDIT_GENERATED_(A7)
  6
Continuous
 62
     7
100
AcDbCircle
 10
424.6816499691
 20
739.7255060056
 30
0.0
 40
96.49999999999997
100
AcDbArc
 50
5.0
 51
90.0
  0
ARC
  5
21C
330
205
100
AcDbEntity
  8
$DDT_AUDIT_GENERATED_(A7)
  6
Continuous
 62
     7
100
AcDbCircle
 10
424.6816499691
 20
739.7255060056
 30
0.0
 40
126.5
100
AcDbArc
 50
5.0
 51
180.0
  0
LINE
  5
21D
330
205
100
AcDbEntity
  8
$DDT_AUDIT_GENERATED_(A7)
  6
Continuous
 62
     7
100
AcDbLine
 10
328.1816499691
 20
609.0255060056
 30
0.0
 11
328.1816499691
 21
739.7255060056
 31
0.0
  0
LINE
  5
21E
330
205
100
AcDbEntity
  8
$DDT_AUDIT_GENERATED_(A7)
  6
Continuous
 62
     7
100
AcDbLine
 10
298.1816499691
 20
739.7255060056
 30
0.0
 11
298.1816499691
 21
609.0255060056
 31
0.0
  0
LINE
  5
21F
330
205
100
AcDbEntity
  8
$DDT_AUDIT_GENERATED_(B5)
  6
Continuous
 62
     7
100
AcDbLine
 10
333.9816499691
 20
609.0255060056
 30
0.0
 11
292.3816499691
 21
609.0255060056
 31
0.0
  0
LINE
  5
220
330
205
100
AcDbEntity
  8
$DDT_AUDIT_GENERATED_(B5)
  6
Continuous
 62
     7
100
AcDbLine
 10
333.9816499691
 20
606.2755060056
 30
0.0
 11
292.3816499691
 21
606.2755060056
 31
0.0
  0
LINE
  5
221
330
205
100
AcDbEntity
  8
$DDT_AUDIT_GENERATED_(B5)
  6
Continuous
 62
     7
100
AcDbLine
 10
334.1816499691
 20
606.4755060056
 30
0.0
 11
334.1816499691
 21
608.8255060056
 31
0.0
  0
LINE
  5
222
330
205
100
AcDbEntity
  8
$DDT_AUDIT_GENERATED_(B5)
  6
Continuous
 62
     7
100
AcDbLine
 10
292.1816499691
 20
608.8255060056
 30
0.0
 11
292.1816499691
 21
606.4755060056
 31
0.0
  0
ARC
  5
223
330
205
100
AcDbEntity
  8
$DDT_AUDIT_GENERATED_(B5)
  6
Continuous
 62
     7
100
AcDbCircle
 10
333.9816499691
 20
608.8255060056
 30
0.0
 40
0.1999999999999988
100
AcDbArc
 50
0.0
 51
90.0
  0
ARC
  5
224
330
205
100
AcDbEntity
  8
$DDT_AUDIT_GENERATED_(B5)
  6
Continuous
 62
     7
100
AcDbCircle
 10
292.3816499691
 20
608.8255060056
 30
0.0
 40
0.2000000000000057
100
AcDbArc
 50
90.0
 51
180.0
  0
ARC
  5
225
330
205
100
AcDbEntity
  8
$DDT_AUDIT_GENERATED_(B5)
  6
Continuous
 62
     7
100
AcDbCircle
 10
333.9816499691
 20
606.4755060056
 30
0.0
 40
0.2000000000000057
100
AcDbArc
 50
270.0
 51
0.0
  0
ARC
  5
226
330
205
100
AcDbEntity
  8
$DDT_AUDIT_GENERATED_(B5)
  6
Continuous
 62
     7
100
AcDbCircle
 10
292.3816499691
 20
606.4755060056
 30
0.0
 40
0.1999999999999988
100
AcDbArc
 50
180.0
 51
270.0
  0
ARC
  5
227
330
205
100
AcDbEntity
  8
$DDT_AUDIT_GENERATED_(BE)
  6
Continuous
 62
     7
100
AcDbCircle
 10
313.3597065693
 20
544.2854101156
 30
0.0
 40
23.99578282231034
100
AcDbArc
 50
152.4358432277
 51
167.9248644821
  0
ARC
  5
228
330
205
100
AcDbEntity
  8
$DDT_AUDIT_GENERATED_(BE)
  6
Continuous
 62
     7
100
AcDbCircle
 10
313.3597065693
 20
544.2854101156
 30
0.0
 40
23.99578282231034
100
AcDbArc
 50
167.9248644821
 51
170.0005274266
  0
ARC
  5
229
330
205
100
AcDbEntity
  8
$DDT_AUDIT_GENERATED_(BE)
  6
Continuous
 62
     7
100
AcDbCircle
 10
313.3597065693
 20
544.2854101156
 30
0.0
 40
23.99578282231034
100
AcDbArc
 50
349.9994725798
 51
352.1597045248
  0
ARC
  5
22A
330
205
100
AcDbEntity
  8
$DDT_AUDIT_GENERATED_(BE)
  6
Continuous
 62
     7
100
AcDbCircle
 10
313.3597065693
 20
544.2854101156
 30
0.0
 40
23.99578282231034
100
AcDbArc
 50
352.1597045248
 51
0.0
  0
LINE
  5
22B
330
205
100
AcDbEntity
  8
$DDT_AUDIT_GENERATED_(BE)
  6
Continuous
 62
     7
100
AcDbLine
 10
332.6840051886
 20
630.843776668
 30
0.0
 11
328.8368553984
 21
609.0255060056
 31
0.0
  0
LINE
  5
22C
330
205
100
AcDbEntity
  8
$DDT_AUDIT_GENERATED_(BE)
  6
Continuous
 62
     7
100
AcDbLine
 10
332.6840052229
 20
630.843776862
 30
0.0
 11
332.6850546251
 21
630.8497283177
 31
0.0
  0
LINE
  5
22D
330
205
100
AcDbEntity
  8
$DDT_AUDIT_GENERATED_(BE)
  6
Continuous
 62
     7
100
AcDbLine
 10
332.6926689933
 20
630.8929115459
 30
0.0
 11
332.7283950665
 21
631.095524175
 31
0.0
  0
SPLINE
  5
22E
330
205
100
AcDbEntity
  8
$DDT_AUDIT_GENERATED_(BE)
  6
Continuous
 62
     7
100
AcDbSpline
210
0.0
220
0.0
230
1.0
 70
     8
 71
     3
 72
    23
 73
    19
 74
     0
 42
0.000000138348118
 43
0.0000000001
 40
0.0
 40
0.0
 40
0.0
 40
0.0
 40
0.017165491216954
 40
0.0366799039174846
 40
0.0596975089841665
 40
0.0869232716966672
 40
0.1229205198881469
 40
0.1650695879178966
 40
0.2135758984684548
 40
0.2685625026113485
 40
0.3260362558037532
 40
0.3796853115746787
 40
0.4379349958325407
 40
0.4908230993773911
 40
0.5383741380222872
 40
0.5806106779391991
 40
0.6129037165543108
 40
0.6281806817800893
 40
0.6281806817800893
 40
0.6281806817800893
 40
0.6281806817800893
 10
332.6859580943665
 20
630.8494798887705
 30
0.0
 10
332.6863716083483
 20
630.8519172139124
 30
0.0
 10
332.6871219613335
 20
630.8563475429049
 30
0.0
 10
332.6880202330932
 20
630.862329503961
 30
0.0
 10
332.6887417227313
 20
630.8675384512205
 30
0.0
 10
332.6893570746748
 20
630.8724272156581
 30
0.0
 10
332.6898546168232
 20
630.8768140668126
 30
0.0
 10
332.690240094364
 20
630.8806346654013
 30
0.0
 10
332.6905181580706
 20
630.88377375965
 30
0.0
 10
332.6906935387901
 20
630.886098009495
 30
0.0
 10
332.6908165287433
 20
630.8878743352635
 30
0.0
 10
332.690952358336
 20
630.8896936523798
 30
0.0
 10
332.6910741284645
 20
630.8912759915279
 30
0.0
 10
332.6911818473075
 20
630.8926167439548
 30
0.0
 10
332.6912648548934
 20
630.8936095161152
 30
0.0
 10
332.6913195491318
 20
630.8942357886614
 30
0.0
 10
332.6913436260287
 20
630.894497518759
 30
0.0
 10
332.6913479573548
 20
630.8945396746599
 30
0.0
 10
332.69134818561
 20
630.8945404491868
 30
0.0
  0
SPLINE
  5
22F
330
205
100
AcDbEntity
  8
$DDT_AUDIT_GENERATED_(BE)
  6
Continuous
 62
     7
100
AcDbSpline
210
0.0
220
0.0
230
1.0
 70
     8
 71
     3
 72
    21
 73
    17
 74
     0
 42
0.000000001104131
 43
0.0000000001
 40
0.0
 40
0.0
 40
0.0
 40
0.0
 40
0.0075858178633563
 40
0.0262274809633678
 40
0.0502049374142407
 40
0.0641887437315949
 40
0.0772254319347592
 40
0.0977413511478779
 40
0.134846106170819
 40
0.1538809882343743
 40
0.1882650081751914
 40
0.2119237342885435
 40
0.2703429541810949
 40
0.3558895047770085
 40
0.4603222813190422
 40
0.5630180679593167
 40
0.5630180679593167
 40
0.5630180679593167
 40
0.5630180679593167
 10
332.7286688410156
 20
631.0954738820259
 30
0.0
 10
332.7331922752722
 20
631.1210099854856
 30
0.0
 10
332.7393162684824
 20
631.1856715075654
 30
0.0
 10
332.7384770406331
 20
631.3127443089737
 30
0.0
 10
332.6267023331372
 20
631.5293822164932
 30
0.0
 10
332.5241312540436
 20
631.6011109298533
 30
0.0
 10
332.4509595496966
 20
631.6514790473349
 30
0.0
 10
332.3846063217014
 20
631.680975645863
 30
0.0
 10
332.2936862223276
 20
631.7240307490421
 30
0.0
 10
332.1636055574218
 20
631.7752313667779
 30
0.0
 10
332.0283392227864
 20
631.8274644691315
 30
0.0
 10
331.7863142306288
 20
631.914076501466
 30
0.0
 10
331.3621468562844
 20
632.0564674572255
 30
0.0
 10
330.5624428267938
 20
632.2911450305218
 30
0.0
 10
329.4348675535909
 20
632.5568736811903
 30
0.0
 10
328.5882096119104
 20
632.6996009625655
 30
0.0
 10
328.1815935045082
 20
632.7557861560122
 30
0.0
  0
LINE
  5
230
330
205
100
AcDbEntity
  8
$DDT_AUDIT_GENERATED_(BE)
  6
Continuous
 62
     7
100
AcDbLine
 10
336.8636988219
 20
539.3724455161
 30
0.0
 11
336.9950947997
 21
540.1176291362
 31
0.0
  0
LINE
  5
231
330
205
100
AcDbEntity
  8
$DDT_AUDIT_GENERATED_(BE)
  6
Continuous
 62
     7
100
AcDbLine
 10
289.724310098
 20
548.4527438784
 30
0.0
 11
289.5929141202
 21
547.7075602584
 31
0.0
  0
LINE
  5
232
330
205
100
AcDbEntity
  8
$DDT_AUDIT_GENERATED_(DE)
  6
Continuous
 62
     7
100
AcDbLine
 10
340.1816499691
 20
459.3255861696
 30
0.0
 11
286.1816499691
 21
459.3255861696
 31
0.0
  0
LINE
  5
233
330
205
100
AcDbEntity
  8
$DDT_AUDIT_GENERATED_(DE)
  6
Continuous
 62
     7
100
AcDbLine
 10
286.1816499691
 20
462.4290644794
 30
0.0
 11
340.1816499691
 21
462.4290644794
 31
0.0
  0
LINE
  5
234
330
205
100
AcDbEntity
  8
$DDT_AUDIT_GENERATED_(DE)
  6
Continuous
 62
     7
100
AcDbLine
 10
291.6816499691
 20
463.5755060056
 30
0.0
 11
334.6816499691
 21
463.5755060056
 31
0.0
  0
LINE
  5
235
330
205
100
AcDbEntity
  8
$DDT_AUDIT_GENERATED_(DE)
  6
Continuous
 62
     7
100
AcDbLine
 10
340.1816499691
 20
459.3255861696
 30
0.0
 11
340.1816499691
 21
462.4290644794
 31
0.0
  0
LINE
  5
236
330
205
100
AcDbEntity
  8
$DDT_AUDIT_GENERATED_(DE)
  6
Continuous
 62
     7
100
AcDbLine
 10
286.1816499691
 20
462.4290644794
 30
0.0
 11
286.1816499691
 21
459.3255861696
 31
0.0
  0
ARC
  5
237
330
205
100
AcDbEntity
  8
$DDT_AUDIT_GENERATED_(DE)
  6
Continuous
 62
     7
100
AcDbCircle
 10
339.6816499691
 20
462.4290644794
 30
0.0
 40
0.4999999999999866
100
AcDbArc
 50
0.0
 51
81.2112722024
  0
ARC
  5
238
330
205
100
AcDbEntity
  8
$DDT_AUDIT_GENERATED_(DE)
  6
Continuous
 62
     7
100
AcDbCircle
 10
286.6816499691
 20
462.4290644794
 30
0.0
 40
0.4999999999999853
100
AcDbArc
 50
98.7887277976
 51
180.0
  0
ARC
  5
239
330
205
100
AcDbEntity
  8
$DDT_AUDIT_GENERATED_(DE)
  6
Continuous
 62
     7
100
AcDbCircle
 10
324.4789044561
 20
364.0973476793
 30
0.0
 40
99.99999999998818
100
AcDbArc
 50
81.2112722024
 51
84.1440676466
  0
ARC
  5
23A
330
205
100
AcDbEntity
  8
$DDT_AUDIT_GENERATED_(DE)
  6
Continuous
 62
     7
100
AcDbCircle
 10
301.8843954822
 20
364.0973476793
 30
0.0
 40
99.99999999998819
100
AcDbArc
 50
95.8559323534
 51
98.7887277976
  0
CIRCLE
  5
23B
330
205
100
AcDbEntity
  8
$DDT_AUDIT_GENERATED_(E8)
  6
Continuous
 62
     7
100
AcDbCircle
 10
313.1816499691
 20
543.2755060056
 30
0.0
 40
22.0625536803
  0
ARC
  5
23C
330
205
100
AcDbEntity
  8
$DDT_AUDIT_GENERATED_(E8)
  6
Continuous
 62
     7
100
AcDbCircle
 10
313.1421624158
 20
541.1891666208
 30
0.0
 40
21.83690015958133
100
AcDbArc
 50
263.5766451853
 51
265.9629295175
  0
ARC
  5
23D
330
205
100
AcDbEntity
  8
$DDT_AUDIT_GENERATED_(E8)
  6
Continuous
 62
     7
100
AcDbCircle
 10
313.2211385992
 20
541.1891574791
 30
0.0
 40
21.83689101989441
100
AcDbArc
 50
273.7719915149
 51
276.4264280946
  0
ARC
  5
23E
330
205
100
AcDbEntity
  8
$DDT_AUDIT_GENERATED_(E8)
  6
Continuous
 62
     7
100
AcDbCircle
 10
313.1820843528
 20
542.3549208272
 30
0.0
 40
23.00260119206456
100
AcDbArc
 50
269.9989180202
 51
273.6770693113
  0
ARC
  5
23F
330
205
100
AcDbEntity
  8
$DDT_AUDIT_GENERATED_(E8)
  6
Continuous
 62
     7
100
AcDbCircle
 10
313.1813274561
 20
542.3515601038
 30
0.0
 40
22.99924046743055
100
AcDbArc
 50
266.0704598857
 51
270.0008034454
  0
LINE
  5
241
330
205
100
AcDbEntity
  8
$DDT_AUDIT_GENERATED_(240)
  6
Continuous
 62
     7
100
AcDbLine
 10
292.1816499691
 20
599.2255060056
 30
0.0
 11
307.7816499691
 21
599.2255060056
 31
0.0
  0
LINE
  5
242
330
205
100
AcDbEntity
  8
$DDT_AUDIT_GENERATED_(240)
  6
Continuous
 62
     7
100
AcDbLine
 10
292.1816499691
 20
600.7255060056
 30
0.0
 11
307.7816499691
 21
600.7255060056
 31
0.0
  0
LINE
  5
243
330
205
100
AcDbEntity
  8
$DDT_AUDIT_GENERATED_(240)
  6
Continuous
 62
     7
100
AcDbLine
 10
308.2816499691
 20
600.7255060056
 30
0.0
 11
308.2774182239
 21
600.7255060056
 31
0.0
  0
LINE
  5
244
330
205
100
AcDbEntity
  8
$DDT_AUDIT_GENERATED_(240)
  6
Continuous
 62
     7
100
AcDbLine
 10
307.7816499691
 20
600.7255060056
 30
0.0
 11
308.2774182239
 21
600.7255060056
 31
0.0
  0
LINE
  5
245
330
205
100
AcDbEntity
  8
$DDT_AUDIT_GENERATED_(240)
  6
Continuous
 62
     7
100
AcDbLine
 10
307.7816499691
 20
600.7255060056
 30
0.0
 11
307.7816499691
 21
599.2255060056
 31
0.0
  0
LINE
  5
246
330
205
100
AcDbEntity
  8
$DDT_AUDIT_GENERATED_(240)
  6
Continuous
 62
     7
100
AcDbLine
 10
308.2774182239
 20
599.2255060056
 30
0.0
 11
308.2774182239
 21
600.7255060056
 31
0.0
  0
LINE
  5
247
330
205
100
AcDbEntity
  8
$DDT_AUDIT_GENERATED_(240)
  6
Continuous
 62
     7
100
AcDbLine
 10
292.1816499691
 20
600.7255060056
 30
0.0
 11
292.1816499691
 21
599.2255060056
 31
0.0
  0
LINE
  5
249
330
205
100
AcDbEntity
  8
$DDT_AUDIT_GENERATED_(248)
  6
Continuous
 62
     7
100
AcDbLine
 10
296.9816499691
 20
600.7755060056
 30
0.0
 11
296.9816499691
 21
600.7255060056
 31
0.0
  0
LINE
  5
24A
330
205
100
AcDbEntity
  8
$DDT_AUDIT_GENERATED_(100)
  6
Continuous
 62
     7
100
AcDbLine
 10
292.4316499691
 20
606.2755060056
 30
0.0
 11
292.4316499691
 21
605.7755060056
 31
0.0
  0
LINE
  5
24B
330
205
100
AcDbEntity
  8
$DDT_AUDIT_GENERATED_(100)
  6
Continuous
 62
     7
100
AcDbLine
 10
333.9316499691
 20
605.7755060056
 30
0.0
 11
333.9316499691
 21
606.2755060056
 31
0.0
  0
LINE
  5
24C
330
205
100
AcDbEntity
  8
$DDT_AUDIT_GENERATED_(10C)
  6
Continuous
 62
     7
100
AcDbLine
 10
535.5259443547
 20
711.9304542486
 30
0.0
 11
542.4993072413
 21
712.5405444478
 31
0.0
  0
LINE
  5
24D
330
205
100
AcDbEntity
  8
$DDT_AUDIT_GENERATED_(10C)
  6
Continuous
 62
     7
100
AcDbLine
 10
524.2292048943
 20
720.5787880514
 30
0.0
 11
552.1226564409
 21
723.0191488484
 31
0.0
  0
ELLIPSE
  5
24E
330
205
100
AcDbEntity
  8
$DDT_AUDIT_GENERATED_(10C)
  6
Continuous
 62
     7
100
AcDbEllipse
 10
538.9438651796
 20
713.0214368125
 30
0.0
 11
13.89311609731897
 21
1.804068884764781
 31
0.0
210
0.0
220
0.0
230
1.0
 40
0.4526932588
 41
1.098275262530291
 42
1.858777675914872
  0
LINE
  5
24F
330
205
100
AcDbEntity
  8
$DDT_AUDIT_GENERATED_(10C)
  6
Continuous
 62
     7
100
AcDbLine
 10
544.8531022352
 20
715.8624773448
 30
0.0
 11
544.5398744892
 21
719.4426868645
 31
0.0
  0
LINE
  5
250
330
205
100
AcDbEntity
  8
$DDT_AUDIT_GENERATED_(10C)
  6
Continuous
 62
     7
100
AcDbLine
 10
552.6888074918
 20
716.5480127255
 30
0.0
 11
544.8531022352
 21
715.8624773448
 31
0.0
  0
LINE
  5
251
330
205
100
AcDbEntity
  8
$DDT_AUDIT_GENERATED_(10C)
  6
Continuous
 62
     7
100
AcDbLine
 10
552.0143213968
 20
723.1100527439
 30
0.0
 11
524.3201087898
 21
720.6871230955
 31
0.0
  0
LINE
  5
252
330
205
100
AcDbEntity
  8
$DDT_AUDIT_GENERATED_(10C)
  6
Continuous
 62
     7
100
AcDbLine
 10
537.4515807512
 20
714.8092391648
 30
0.0
 11
525.6275352777
 21
713.7747692288
 31
0.0
  0
ARC
  5
253
330
205
100
AcDbEntity
  8
$DDT_AUDIT_GENERATED_(10C)
  6
Continuous
 62
     7
100
AcDbCircle
 10
537.8422821092
 20
741.0996803753
 30
0.0
 40
26.29334415009117
100
AcDbArc
 50
262.747866718
 51
269.1485920315
  0
LINE
  5
254
330
205
100
AcDbEntity
  8
$DDT_AUDIT_GENERATED_(10C)
  6
Continuous
 62
     7
100
AcDbLine
 10
524.790324006
 20
714.1651672563
 30
0.0
 11
534.5231180369
 21
715.0166763984
 31
0.0
  0
ARC
  5
255
330
205
100
AcDbEntity
  8
$DDT_AUDIT_GENERATED_(10C)
  6
Continuous
 62
     7
100
AcDbCircle
 10
536.9146373661
 20
741.4852839191
 30
0.0
 40
26.82438146943495
100
AcDbArc
 50
282.0542034588
 51
287.2140408317
  0
LINE
  5
256
330
205
100
AcDbEntity
  8
$DDT_AUDIT_GENERATED_(10C)
  6
Continuous
 62
     7
100
AcDbLine
 10
542.5165594708
 20
715.2523673837
 30
0.0
 11
552.0266947772
 21
716.0843964116
 31
0.0
  0
LINE
  5
257
330
205
100
AcDbEntity
  8
$DDT_AUDIT_GENERATED_(10C)
  6
Continuous
 62
     7
100
AcDbLine
 10
534.21492223
 20
718.5393705904
 30
0.0
 11
544.5398744892
 21
719.4426868645
 31
0.0
  0
LINE
  5
258
330
205
100
AcDbEntity
  8
$DDT_AUDIT_GENERATED_(10C)
  6
Continuous
 62
     7
100
AcDbLine
 10
534.21492223
 20
718.5393705904
 30
0.0
 11
534.5231180369
 21
715.0166763984
 31
0.0
  0
LINE
  5
259
330
205
100
AcDbEntity
  8
$DDT_AUDIT_GENERATED_(10C)
  6
Continuous
 62
     7
100
AcDbLine
 10
537.4515807512
 20
714.8092391648
 30
0.0
 11
542.5165594708
 21
715.2523673837
 31
0.0
  0
LINE
  5
25A
330
205
100
AcDbEntity
  8
$DDT_AUDIT_GENERATED_(10C)
  6
Continuous
 62
     7
100
AcDbLine
 10
542.4993072413
 20
712.5405444478
 30
0.0
 11
542.2639867359
 21
715.2302701327
 31
0.0
  0
LINE
  5
25B
330
205
100
AcDbEntity
  8
$DDT_AUDIT_GENERATED_(10C)
  6
Continuous
 62
     7
100
AcDbLine
 10
535.2906238492
 20
714.6201799335
 30
0.0
 11
535.5259443547
 21
711.9304542486
 31
0.0
  0
LINE
  5
25C
330
205
100
AcDbEntity
  8
$DDT_AUDIT_GENERATED_(10C)
  6
Continuous
 62
     7
100
AcDbLine
 10
524.2292048943
 20
720.5787880514
 30
0.0
 11
524.790324006
 21
714.1651672563
 31
0.0
  0
LINE
  5
25D
330
205
100
AcDbEntity
  8
$DDT_AUDIT_GENERATED_(10C)
  6
Continuous
 62
     7
100
AcDbLine
 10
552.6888074918
 20
716.5480127255
 30
0.0
 11
552.1226564409
 21
723.0191488484
 31
0.0
  0
LINE
  5
25E
330
205
100
AcDbEntity
  8
$DDT_AUDIT_GENERATED_(10C)
  6
Continuous
 62
     7
100
AcDbLine
 10
525.3655035885
 20
721.9329761025
 30
0.0
 11
525.4657326927
 21
720.7873521997
 31
0.0
  0
LINE
  5
25F
330
205
100
AcDbEntity
  8
$DDT_AUDIT_GENERATED_(10C)
  6
Continuous
 62
     7
100
AcDbLine
 10
550.868697494
 20
723.0098236398
 30
0.0
 11
550.7684683898
 21
724.1554475426
 31
0.0
  0
LINE
  5
260
330
205
100
AcDbEntity
  8
$DDT_AUDIT_GENERATED_(10C)
  6
Continuous
 62
     7
100
AcDbLine
 10
552.1226564409
 20
723.0191488484
 30
0.0
 11
552.0143213968
 21
723.1100527439
 31
0.0
  0
LINE
  5
261
330
205
100
AcDbEntity
  8
$DDT_AUDIT_GENERATED_(10C)
  6
Continuous
 62
     7
100
AcDbLine
 10
524.3201087898
 20
720.6871230955
 30
0.0
 11
524.2292048943
 21
720.5787880514
 31
0.0
  0
LINE
  5
262
330
205
100
AcDbEntity
  8
$DDT_AUDIT_GENERATED_(10C)
  6
Continuous
 62
     7
100
AcDbLine
 10
524.790324006
 20
714.1651672563
 30
0.0
 11
525.6275352777
 21
713.7747692288
 31
0.0
  0
LINE
  5
263
330
205
100
AcDbEntity
  8
$DDT_AUDIT_GENERATED_(10C)
  6
Continuous
 62
     7
100
AcDbLine
 10
552.0266947772
 20
716.0843964116
 30
0.0
 11
552.6888074918
 21
716.5480127255
 31
0.0
  0
ENDBLK
  5
265
330
205
100
AcDbEntity
  8
0
100
AcDbBlockEnd
  0
BLOCK
  5
29E
330
266
100
AcDbEntity
  8
0
100
AcDbBlockBegin
  2
SE2
 70
     0
 10
0.0
 20
0.0
 30
0.0
  3
SE2
  1

  0
LINE
  5
268
330
266
100
AcDbEntity
  8
$DDT_AUDIT_GENERATED_(8E)
  6
Continuous
 62
     7
100
AcDbLine
 10
77.2099367852
 20
369.9782564914
 30
0.0
 11
77.2099367852
 21
322.3782564914
 31
0.0
  0
LINE
  5
269
330
266
100
AcDbEntity
  8
$DDT_AUDIT_GENERATED_(8E)
  6
Continuous
 62
     7
100
AcDbLine
 10
180.2099367852
 20
322.3782564914
 30
0.0
 11
180.2099367852
 21
369.9782564914
 31
0.0
  0
LINE
  5
26A
330
266
100
AcDbEntity
  8
$DDT_AUDIT_GENERATED_(8E)
  6
Continuous
 62
     7
100
AcDbLine
 10
180.0099367852
 20
370.1782564914
 30
0.0
 11
77.4099367852
 21
370.1782564914
 31
0.0
  0
LINE
  5
26B
330
266
100
AcDbEntity
  8
$DDT_AUDIT_GENERATED_(8E)
  6
Continuous
 62
     7
100
AcDbLine
 10
77.4099367852
 20
322.1782564914
 30
0.0
 11
98.2099367852
 21
322.1782564914
 31
0.0
  0
LINE
  5
26C
330
266
100
AcDbEntity
  8
$DDT_AUDIT_GENERATED_(8E)
  6
Continuous
 62
     7
100
AcDbLine
 10
128.2099367852
 20
322.1782564914
 30
0.0
 11
180.0099367852
 21
322.1782564914
 31
0.0
  0
ARC
  5
26D
330
266
100
AcDbEntity
  8
$DDT_AUDIT_GENERATED_(8E)
  6
Continuous
 62
     7
100
AcDbCircle
 10
77.4099367852
 20
369.9782564914
 30
0.0
 40
0.1999999999999988
100
AcDbArc
 50
90.0
 51
180.0
  0
ARC
  5
26E
330
266
100
AcDbEntity
  8
$DDT_AUDIT_GENERATED_(8E)
  6
Continuous
 62
     7
100
AcDbCircle
 10
77.4099367852
 20
322.3782564914
 30
0.0
 40
0.2000000000000057
100
AcDbArc
 50
180.0
 51
270.0
  0
ARC
  5
26F
330
266
100
AcDbEntity
  8
$DDT_AUDIT_GENERATED_(8E)
  6
Continuous
 62
     7
100
AcDbCircle
 10
180.0099367852
 20
322.3782564914
 30
0.0
 40
0.1999999999999988
100
AcDbArc
 50
270.0
 51
0.0
  0
ARC
  5
270
330
266
100
AcDbEntity
  8
$DDT_AUDIT_GENERATED_(8E)
  6
Continuous
 62
     7
100
AcDbCircle
 10
180.0099367852
 20
369.9782564914
 30
0.0
 40
0.2000000000000057
100
AcDbArc
 50
0.0
 51
90.0
  0
ELLIPSE
  5
271
330
266
100
AcDbEntity
  8
$DDT_AUDIT_GENERATED_(A7)
  6
Continuous
 62
     7
100
AcDbEllipse
 10
113.2099367852
 20
121.2929204714
 30
0.0
 11
14.99999999999999
 21
2.664535259100376E-12
 31
0.0
210
0.0
220
0.0
230
1.0
 40
0.9961946981
 41
3.141592653589793
 42
6.283185307179586
  0
ARC
  5
272
330
266
100
AcDbEntity
  8
$DDT_AUDIT_GENERATED_(A7)
  6
Continuous
 62
     7
100
AcDbCircle
 10
113.2099367852
 20
346.1782564914
 30
0.0
 40
15.0
100
AcDbArc
 50
0.0
 51
180.0
  0
LINE
  5
273
330
266
100
AcDbEntity
  8
$DDT_AUDIT_GENERATED_(A7)
  6
Continuous
 62
     7
100
AcDbLine
 10
98.2099367852
 20
123.6025476542
 30
0.0
 11
98.2099367852
 21
121.2929204714
 31
0.0
  0
LINE
  5
274
330
266
100
AcDbEntity
  8
$DDT_AUDIT_GENERATED_(A7)
  6
Continuous
 62
     7
100
AcDbLine
 10
128.2099367852
 20
121.2929204714
 30
0.0
 11
128.2099367852
 21
123.6025476542
 31
0.0
  0
LINE
  5
275
330
266
100
AcDbEntity
  8
$DDT_AUDIT_GENERATED_(A7)
  6
Continuous
 62
     7
100
AcDbLine
 10
128.2099367852
 20
123.6025476542
 30
0.0
 11
128.2099367852
 21
346.1782564914
 31
0.0
  0
LINE
  5
276
330
266
100
AcDbEntity
  8
$DDT_AUDIT_GENERATED_(A7)
  6
Continuous
 62
     7
100
AcDbLine
 10
98.2099367852
 20
346.1782564914
 30
0.0
 11
98.2099367852
 21
123.6025476542
 31
0.0
  0
ARC
  5
277
330
266
100
AcDbEntity
  8
$DDT_AUDIT_GENERATED_(B5)
  6
Continuous
 62
     7
100
AcDbCircle
 10
113.2099367852
 20
346.1782564914
 30
0.0
 40
21.0
100
AcDbArc
 50
315.5846914028
 51
0.0
  0
ARC
  5
278
330
266
100
AcDbEntity
  8
$DDT_AUDIT_GENERATED_(B5)
  6
Continuous
 62
     7
100
AcDbCircle
 10
113.2099367852
 20
346.1782564914
 30
0.0
 40
21.0
100
AcDbArc
 50
0.0
 51
224.4153085972
  0
SPLINE
  5
279
330
266
100
AcDbEntity
  8
$DDT_AUDIT_GENERATED_(BE)
  6
Continuous
 62
     7
100
AcDbSpline
210
0.0
220
0.0
230
1.0
 70
     8
 71
     3
 72
    40
 73
    36
 74
     0
 42
0.0000000001039448
 43
0.0000000001
 40
0.2529347064188864
 40
0.2529347064188864
 40
0.2529347064188864
 40
0.2529347064188864
 40
0.2812500000000001
 40
0.2812500000000001
 40
0.3125000000000001
 40
0.3125000000000001
 40
0.3437500000000001
 40
0.3437500000000001
 40
0.3750000000000001
 40
0.3750000000000001
 40
0.4062500000000001
 40
0.4062500000000001
 40
0.4375000000000001
 40
0.4375000000000001
 40
0.4687500000000001
 40
0.4687500000000001
 40
0.5000000000000001
 40
0.5000000000000001
 40
0.5312500000000001
 40
0.5312500000000001
 40
0.5625000000000001
 40
0.5625000000000001
 40
0.5937500000000001
 40
0.5937500000000001
 40
0.6250000000000001
 40
0.6250000000000001
 40
0.6562500000000001
 40
0.6562500000000001
 40
0.6875000000000001
 40
0.6875000000000001
 40
0.7187500000000001
 40
0.7187500000000001
 40
0.7500000000000001
 40
0.7500000000000001
 40
0.7529344597801596
 40
0.7529344597801596
 40
0.7529344597801596
 40
0.7529344597801596
 10
212.5476406622835
 20
322.0004565057933
 30
0.0
 10
212.5109503147986
 20
322.0006968111585
 30
0.0
 10
212.4748369790384
 20
322.1277424663844
 30
0.0
 10
212.4012805286803
 20
322.6579781220885
 30
0.0
 10
212.364089430379
 20
323.0884103014305
 30
0.0
 10
212.2939311102972
 20
324.2372802231736
 30
0.0
 10
212.2609656233194
 20
324.9556895575017
 30
0.0
 10
212.2005256113661
 20
326.6529192806641
 30
0.0
 10
212.173052580889
 20
327.6316977021487
 30
0.0
 10
212.1246535528284
 20
329.8120636402867
 30
0.0
 10
212.1037287520063
 20
331.0135972430954
 30
0.0
 10
212.0692306553444
 20
333.5933091559696
 30
0.0
 10
212.055658212538
 20
334.9714236775744
 30
0.0
 10
212.0363867897827
 20
337.8513446830921
 30
0.0
 10
212.0306882863577
 20
339.3530799552831
 30
0.0
 10
212.0273841274779
 20
342.4225363042807
 30
0.0
 10
212.029778553725
 20
343.9901814827303
 30
0.0
 10
212.0425686356935
 20
347.1312156890868
 30
0.0
 10
212.052963975155
 20
348.704527048733
 30
0.0
 10
212.0813567822945
 20
351.7964309294103
 30
0.0
 10
212.0993535479045
 20
353.314946997025
 30
0.0
 10
212.1422579605595
 20
356.2389004198483
 30
0.0
 10
212.1671645467084
 20
357.6442654745466
 30
0.0
 10
212.2229317723617
 20
360.287902549249
 30
0.0
 10
212.2537910329115
 20
361.5261092001167
 30
0.0
 10
212.3202779683558
 20
363.7878364364859
 30
0.0
 10
212.3559039992298
 20
364.8113010963244
 30
0.0
 10
212.4305555888223
 20
366.6042015850581
 30
0.0
 10
212.4695793016331
 20
367.3735930809555
 30
0.0
 10
212.5495267266509
 20
368.6287666617418
 30
0.0
 10
212.5904484620001
 20
369.1145177099904
 30
0.0
 10
212.6726193877347
 20
369.7837287660291
 30
0.0
 10
212.7138665462819
 20
369.9671722262571
 30
0.0
 10
212.7582990388359
 20
369.9986389535017
 30
0.0
 10
212.7621076468437
 20
369.9999761990375
 30
0.0
 10
212.7659100576575
 20
369.9999515238906
 30
0.0
  0
ARC
  5
27A
330
266
100
AcDbEntity
  8
$DDT_AUDIT_GENERATED_(BE)
  6
Continuous
 62
     7
100
AcDbCircle
 10
200.8817633721
 20
330.5696503063
 30
0.0
 40
3.939781883723818
100
AcDbArc
 50
350.6473882364
 51
90.8020382876
  0
LINE
  5
27B
330
266
100
AcDbEntity
  8
$DDT_AUDIT_GENERATED_(BE)
  6
Continuous
 62
     7
100
AcDbLine
 10
190.8300387837
 20
334.5543570442
 30
0.0
 11
200.8266152768
 21
334.5089074489
 31
0.0
  0
ARC
  5
27C
330
266
100
AcDbEntity
  8
$DDT_AUDIT_GENERATED_(BE)
  6
Continuous
 62
     7
100
AcDbCircle
 10
190.7608996372
 20
330.6150634444
 30
0.0
 40
3.939907489582012
100
AcDbArc
 50
88.9944979603
 51
171.9383635807
  0
SPLINE
  5
27D
330
266
100
AcDbEntity
  8
$DDT_AUDIT_GENERATED_(BE)
  6
Continuous
 62
     7
100
AcDbSpline
210
0.0
220
0.0
230
1.0
 70
     8
 71
     3
 72
     8
 73
     4
 74
     0
 42
0.0000000008123059
 43
0.0000000001
 40
0.4532628032250746
 40
0.4532628032250746
 40
0.4532628032250746
 40
0.4532628032250746
 40
0.4565277956596225
 40
0.4565277956596225
 40
0.4565277956596225
 40
0.4565277956596225
 10
206.4742377746325
 20
341.1955884049073
 30
0.0
 10
206.476238451468
 20
341.2088392373921
 30
0.0
 10
206.4781690989164
 20
341.222097318493
 30
0.0
 10
206.480029791954
 20
341.2353626484013
 30
0.0
  0
SPLINE
  5
27E
330
266
100
AcDbEntity
  8
$DDT_AUDIT_GENERATED_(BE)
  6
Continuous
 62
     7
100
AcDbSpline
210
0.0
220
0.0
230
1.0
 70
     8
 71
     3
 72
    29
 73
    25
 74
     0
 42
0.0000000007955695
 43
0.0000000001
 40
0.4565277956596225
 40
0.4565277956596225
 40
0.4565277956596225
 40
0.4565277956596225
 40
0.5000000000000004
 40
0.5000000000000004
 40
0.5625
 40
0.5625
 40
0.6249999999999996
 40
0.6249999999999996
 40
0.6562499999999993
 40
0.6562499999999993
 40
0.6874999999999993
 40
0.7187499999999992
 40
0.7187499999999992
 40
0.7499999999999992
 40
0.7499999999999992
 40
0.8124999999999994
 40
0.8124999999999994
 40
0.8437499999999994
 40
0.8437499999999994
 40
0.8749999999999996
 40
0.8749999999999996
 40
0.9374999999999998
 40
0.9374999999999998
 40
1.0
 40
1.0
 40
1.0
 40
1.0
 10
206.480029791954
 20
341.2353626484013
 30
0.0
 10
206.5048042530185
 20
341.4119857628423
 30
0.0
 10
206.517177218301
 20
341.5898939435625
 30
0.0
 10
206.5175390807218
 20
342.0267144711573
 30
0.0
 10
206.4916193655704
 20
342.2895604725682
 30
0.0
 10
206.3899767071757
 20
342.7993461476843
 30
0.0
 10
206.3147482431306
 20
343.0482119216208
 30
0.0
 10
206.1649317707338
 20
343.4122367534123
 30
0.0
 10
206.1085355472211
 20
343.5323542783254
 30
0.0
 10
205.9856307963279
 20
343.764306802291
 30
0.0
 10
205.8521856035151
 20
343.9892289697532
 30
0.0
 10
205.6980440699984
 20
344.2003191010775
 30
0.0
 10
205.5334336217223
 20
344.4043972726683
 30
0.0
 10
205.4454984143045
 20
344.5033272942957
 30
0.0
 10
205.1681140965206
 20
344.7863301704667
 30
0.0
 10
204.9677986875785
 20
344.9544594972985
 30
0.0
 10
204.6446735724158
 20
345.176483036596
 30
0.0
 10
204.5331621054078
 20
345.2454253842682
 30
0.0
 10
204.3022629717355
 20
345.3728281181697
 30
0.0
 10
204.1830793823752
 20
345.4310745116418
 30
0.0
 10
203.8215705125365
 20
345.5861112672567
 30
0.0
 10
203.5728132006894
 20
345.6648401862628
 30
0.0
 10
203.0595623133007
 20
345.7724816579693
 30
0.0
 10
202.794503985312
 20
345.8009172179892
 30
0.0
 10
202.5296069718178
 20
345.8020953426637
 30
0.0
  0
LINE
  5
27F
330
266
100
AcDbEntity
  8
$DDT_AUDIT_GENERATED_(BE)
  6
Continuous
 62
     7
100
AcDbLine
 10
202.5296068337
 20
345.8020666581
 30
0.0
 11
192.5330335839
 21
345.8475224518
 31
0.0
  0
ARC
  5
280
330
266
100
AcDbEntity
  8
$DDT_AUDIT_GENERATED_(BE)
  6
Continuous
 62
     7
100
AcDbCircle
 10
192.4599755113
 20
341.9082812982
 30
0.0
 40
3.939926327328489
100
AcDbArc
 50
88.9375021439
 51
171.7378104654
  0
ARC
  5
281
330
266
100
AcDbEntity
  8
$DDT_AUDIT_GENERATED_(BE)
  6
Continuous
 62
     7
100
AcDbCircle
 10
192.4599755113
 20
341.9082812982
 30
0.0
 40
3.939926327328489
100
AcDbArc
 50
171.7378104654
 51
172.3101354383
  0
ELLIPSE
  5
282
330
266
100
AcDbEntity
  8
$DDT_AUDIT_GENERATED_(BE)
  6
Continuous
 62
     7
100
AcDbEllipse
 10
183.7603600084
 20
346.1315999895
 30
0.0
 11
-4.362420043468416
 21
-23.83323833873581
 31
0.0
210
0.0
220
0.0
230
1.0
 40
0.6238463585
 41
3.252396060982785
 42
3.255163641799336
  0
SPLINE
  5
283
330
266
100
AcDbEntity
  8
$DDT_AUDIT_GENERATED_(BE)
  6
Continuous
 62
     7
100
AcDbSpline
210
0.0
220
0.0
230
1.0
 70
     8
 71
     3
 72
    98
 73
    94
 74
     0
 42
0.0000000002008202
 43
0.0000000001
 40
0.0
 40
0.0
 40
0.0
 40
0.0
 40
0.0030347657662589
 40
0.0070516046325417
 40
0.0117662212387354
 40
0.0174059364928758
 40
0.0201127470948716
 40
0.0239876798007141
 40
0.0279158554124227
 40
0.0332876264939606
 40
0.0366029827709594
 40
0.0391351519037103
 40
0.0425328230780005
 40
0.0506760900033608
 40
0.0572004714444559
 40
0.0618053109783465
 40
0.0665663801277295
 40
0.0702941124076733
 40
0.0756463220371445
 40
0.0817349009888679
 40
0.087788088841506
 40
0.093813557602475
 40
0.1036149240649323
 40
0.112252019551187
 40
0.1208193783532109
 40
0.1308402984886015
 40
0.1344443168783095
 40
0.1427281983300415
 40
0.1518966883470283
 40
0.1613741733576461
 40
0.1715069818871321
 40
0.180218079621032
 40
0.1946933381310305
 40
0.2049950891883843
 40
0.2091026977179288
 40
0.2240769054243393
 40
0.2406986834198091
 40
0.2452334528923749
 40
0.2515324055509153
 40
0.2752216150097211
 40
0.3044608487461251
 40
0.309472306375643
 40
0.3276795470324284
 40
0.3582673875181581
 40
0.3981473162010865
 40
0.4465009128137382
 40
0.4995150626102744
 40
0.5525072582889594
 40
0.598626347764619
 40
0.640471903400493
 40
0.6687687588866646
 40
0.6907518819361074
 40
0.6971137785921901
 40
0.7120425164396371
 40
0.7461704644367947
 40
0.7552335446906017
 40
0.7592459524468216
 40
0.7720507899070782
 40
0.78851134282624
 40
0.7944051101867835
 40
0.8025370963536078
 40
0.8156091532263581
 40
0.82599250743739
 40
0.8362563557649809
 40
0.8404608799222437
 40
0.850376865139531
 40
0.8561865629552307
 40
0.861703421980384
 40
0.8681720736565739
 40
0.8751365276196535
 40
0.8806712130834151
 40
0.8890356020337553
 40
0.8987229555353686
 40
0.9034487254688331
 40
0.9080273196525683
 40
0.9138857143735821
 40
0.9203227017923368
 40
0.9285524325153999
 40
0.933416002460284
 40
0.9378405892576512
 40
0.9430739348655376
 40
0.9496265677446113
 40
0.956152524857373
 40
0.9597700718299855
 40
0.9632173241966264
 40
0.9660629980953546
 40
0.970098130206637
 40
0.9743645367662077
 40
0.9780498687513288
 40
0.9837616786466453
 40
0.9892698194617389
 40
0.9928073418971108
 40
1.0
 40
1.0
 40
1.0
 40
1.0
 10
212.5476406050504
 20
322.00046982637
 30
0.0
 10
212.6236167542695
 20
322.0005158281172
 30
0.0
 10
212.7726011680974
 20
322.0100499067429
 30
0.0
 10
213.0386884343793
 20
322.068621913011
 30
0.0
 10
213.3290785533997
 20
322.1987849041817
 30
0.0
 10
213.5518253829211
 20
322.3645633119295
 30
0.0
 10
213.7162680759366
 20
322.5352149405716
 30
0.0
 10
213.8261597866446
 20
322.6799074613745
 30
0.0
 10
213.9219688637688
 20
322.8432925621111
 30
0.0
 10
213.9775705647026
 20
322.9678799845695
 30
0.0
 10
214.0122896753764
 20
323.060407233215
 30
0.0
 10
214.0346322971506
 20
323.1278412143105
 30
0.0
 10
214.0623212623973
 20
323.2210692068926
 30
0.0
 10
214.0873568317097
 20
323.3245033877305
 30
0.0
 10
214.108364767434
 20
323.4279714052942
 30
0.0
 10
214.1234857777761
 20
323.5127096602882
 30
0.0
 10
214.1349519628834
 20
323.5831560135338
 30
0.0
 10
214.1463835344122
 20
323.6593386334394
 30
0.0
 10
214.1583065842722
 20
323.7452864491802
 30
0.0
 10
214.1714180955711
 20
323.8489195180767
 30
0.0
 10
214.1845463251106
 20
323.9622813422947
 30
0.0
 10
214.1999309747559
 20
324.1064195043558
 30
0.0
 10
214.2166563404853
 20
324.2793380191954
 30
0.0
 10
214.2346978105645
 20
324.4862220819406
 30
0.0
 10
214.2525847374737
 20
324.7103611373081
 30
0.0
 10
214.2669519419833
 20
324.9070798492106
 30
0.0
 10
214.2809869969965
 20
325.1113055740432
 30
0.0
 10
214.2943731866251
 20
325.3162277578413
 30
0.0
 10
214.3112939986592
 20
325.5942842703017
 30
0.0
 10
214.3291636322951
 20
325.909724419436
 30
0.0
 10
214.3465143124468
 20
326.2386864827292
 30
0.0
 10
214.3666868624385
 20
326.6469891786838
 30
0.0
 10
214.3866135324405
 20
327.0825531988979
 30
0.0
 10
214.4034906636529
 20
327.4815533808455
 30
0.0
 10
214.4204558514552
 20
327.9007279552241
 30
0.0
 10
214.4407367146875
 20
328.4312704531396
 30
0.0
 10
214.4606697016087
 20
329.0027197241753
 30
0.0
 10
214.4754954629042
 20
329.4539235669945
 30
0.0
 10
214.493912377714
 20
330.0315876442158
 30
0.0
 10
214.5244847677472
 20
331.0732547834536
 30
0.0
 10
214.5523852018657
 20
332.1710692221779
 30
0.0
 10
214.5763842478235
 20
333.2078390753082
 30
0.0
 10
214.6001020844663
 20
334.3004768135959
 30
0.0
 10
214.6357711299104
 20
336.1862721079391
 30
0.0
 10
214.6766451444911
 20
338.8617749102357
 30
0.0
 10
214.7139372161347
 20
342.2000722877534
 30
0.0
 10
214.7394952336117
 20
345.954936639659
 30
0.0
 10
214.7482662268465
 20
349.6562571444534
 30
0.0
 10
214.7419597057805
 20
352.9930236783214
 30
0.0
 10
214.7263026731348
 20
355.6190185980773
 30
0.0
 10
214.7074798998498
 20
357.5884682578548
 30
0.0
 10
214.6931628006296
 20
358.741576196205
 30
0.0
 10
214.6810790174033
 20
359.5946139137223
 30
0.0
 10
214.6645107306265
 20
360.6597019407347
 30
0.0
 10
214.6445590595637
 20
361.7058475409983
 30
0.0
 10
214.6266290660067
 20
362.4985455703678
 30
0.0
 10
214.6165149788853
 20
362.9236108074538
 30
0.0
 10
214.6030479587332
 20
363.4539667488244
 30
0.0
 10
214.5880004865534
 20
363.983306591502
 30
0.0
 10
214.574426041602
 20
364.421162759863
 30
0.0
 10
214.5620660735702
 20
364.7985050100177
 30
0.0
 10
214.5471648418969
 20
365.2166972973561
 30
0.0
 10
214.5306792006714
 20
365.6373321951467
 30
0.0
 10
214.5181557336454
 20
365.9303835301807
 30
0.0
 10
214.505627642305
 20
366.2058305146678
 30
0.0
 10
214.4951809743648
 20
366.4216256662311
 30
0.0
 10
214.4838100106817
 20
366.6402134796033
 30
0.0
 10
214.4741354298491
 20
366.8165079402268
 30
0.0
 10
214.4636703926271
 20
366.9963882384477
 30
0.0
 10
214.4529987457475
 20
367.1678197193512
 30
0.0
 10
214.4410485027157
 20
367.3475407215147
 30
0.0
 10
214.4272764392928
 20
367.5394514502827
 30
0.0
 10
214.4135418599236
 20
367.7116372899945
 30
0.0
 10
214.4017792451301
 20
367.8462344708155
 30
0.0
 10
214.3921898744216
 20
367.9493745075476
 30
0.0
 10
214.3812316522593
 20
368.0589105920507
 30
0.0
 10
214.36738576717
 20
368.1851402609116
 30
0.0
 10
214.3534667012409
 20
368.2977918738521
 30
0.0
 10
214.3399786070919
 20
368.3947204824534
 30
0.0
 10
214.3280028002093
 20
368.4731014069954
 30
0.0
 10
214.3134000416161
 20
368.5594911728276
 30
0.0
 10
214.294210669841
 20
368.6581301802219
 30
0.0
 10
214.2720904227739
 20
368.7538628635706
 30
0.0
 10
214.2480333251317
 20
368.841134651627
 30
0.0
 10
214.2259281130804
 20
368.9120810511138
 30
0.0
 10
214.1957705398962
 20
368.9957228697798
 30
0.0
 10
214.1529104766821
 20
369.1002268688673
 30
0.0
 10
214.0813206966945
 20
369.2375425816297
 30
0.0
 10
213.9626032921257
 20
369.4199255813772
 30
0.0
 10
213.7641884802547
 20
369.6348374704618
 30
0.0
 10
213.5092731060061
 20
369.8149991030443
 30
0.0
 10
213.1651122545238
 20
369.959143683768
 30
0.0
 10
212.9450968975132
 20
369.9976795972332
 30
0.0
 10
212.7659101193532
 20
369.9999679962207
 30
0.0
  0
LINE
  5
284
330
266
100
AcDbEntity
  8
$DDT_AUDIT_GENERATED_(BE)
  6
Continuous
 62
     7
100
AcDbLine
 10
204.7751868148
 20
329.9287552682
 30
0.0
 11
206.4742114477
 21
341.1955930812
 31
0.0
  0
LINE
  5
285
330
266
100
AcDbEntity
  8
$DDT_AUDIT_GENERATED_(BE)
  6
Continuous
 62
     7
100
AcDbLine
 10
188.5670738895
 20
342.4339208567
 30
0.0
 11
186.8680492282
 21
331.1670828544
 31
0.0
  0
SPLINE
  5
286
330
266
100
AcDbEntity
  8
$DDT_AUDIT_GENERATED_(BE)
  6
Continuous
 62
     7
100
AcDbSpline
210
0.0
220
0.0
230
1.0
 70
     8
 71
     3
 72
    55
 73
    51
 74
     0
 42
0.000000000445674
 43
0.0000000001
 40
0.0
 40
0.0
 40
0.0
 40
0.0
 40
0.0245499015304885
 40
0.0499168694696612
 40
0.0733463077298556
 40
0.0851656077430626
 40
0.0948504215196528
 40
0.1012799639161769
 40
0.1042386818016018
 40
0.1073019562028631
 40
0.1135455423705166
 40
0.1292180127317829
 40
0.1472960578702513
 40
0.1669058047355262
 40
0.187593346876579
 40
0.208380564400164
 40
0.2324043943725301
 40
0.2585294723069805
 40
0.2815713099815931
 40
0.3022116180800545
 40
0.3294985938106778
 40
0.3594686483910928
 40
0.4000181314878965
 40
0.4455436743073699
 40
0.4983296076747816
 40
0.5518905596535812
 40
0.5972879327761016
 40
0.6376338900752719
 40
0.6737646556397783
 40
0.7067079892804508
 40
0.7354938185727278
 40
0.7590797112619644
 40
0.7826461334876742
 40
0.805680889412798
 40
0.8263788378032122
 40
0.8466749095687449
 40
0.868518744693817
 40
0.8826225173035525
 40
0.8919774589525534
 40
0.8977348303524157
 40
0.9008085832503105
 40
0.9068895661509399
 40
0.9220384330526874
 40
0.9391391180560762
 40
0.9547158029179735
 40
0.9715106987981162
 40
0.9852146385096527
 40
0.9940984176520693
 40
0.9983529317127048
 40
1.0
 40
1.0
 40
1.0
 40
1.0
 10
186.8680533944391
 20
331.1670121340183
 30
0.0
 10
186.8393471768788
 20
330.967437949828
 30
0.0
 10
186.812216875996
 20
330.6271771333782
 30
0.0
 10
186.845778334683
 20
330.0602779992053
 30
0.0
 10
186.9381591196211
 20
329.630974836118
 30
0.0
 10
187.0380833144493
 20
329.3088275705019
 30
0.0
 10
187.112733266402
 20
329.1187937148935
 30
0.0
 10
187.1694973164959
 20
328.9883577179799
 30
0.0
 10
187.2089363467412
 20
328.9056890720072
 30
0.0
 10
187.2491602167649
 20
328.8241800579298
 30
0.0
 10
187.3355378439274
 20
328.660879716245
 30
0.0
 10
187.4902834561857
 20
328.4080724148729
 30
0.0
 10
187.7287176697336
 20
328.0917203631979
 30
0.0
 10
188.0259350899106
 20
327.7749694137277
 30
0.0
 10
188.3736152803878
 20
327.479759736079
 30
0.0
 10
188.7819273457922
 20
327.2087231386105
 30
0.0
 10
189.2588143152383
 20
326.969991421722
 30
0.0
 10
189.7815141607745
 20
326.7965383659927
 30
0.0
 10
190.298146559318
 20
326.6935695082619
 30
0.0
 10
190.8317298001483
 20
326.6636577528573
 30
0.0
 10
191.4173951698572
 20
326.6704230674156
 30
0.0
 10
192.153008399261
 20
326.6628353978478
 30
0.0
 10
193.0257322050033
 20
326.6609154516644
 30
0.0
 10
194.0700639534961
 20
326.6548742474828
 30
0.0
 10
195.2122131881041
 20
326.6503064860063
 30
0.0
 10
196.3534187700431
 20
326.6446611646219
 30
0.0
 10
197.4010132800665
 20
326.6401981487274
 30
0.0
 10
198.3176517868103
 20
326.6355938631556
 30
0.0
 10
199.1405739793136
 20
326.6318107550866
 30
0.0
 10
199.8768117908395
 20
326.6274172965225
 30
0.0
 10
200.5183262931643
 20
326.6253353826817
 30
0.0
 10
201.0901905186239
 20
326.6177964135321
 30
0.0
 10
201.6150660483123
 20
326.6843937873286
 30
0.0
 10
202.104369784574
 20
326.8095648048996
 30
0.0
 10
202.5504087210211
 20
326.9840244337992
 30
0.0
 10
202.9642668640216
 20
327.2027198559918
 30
0.0
 10
203.3079041600215
 20
327.4403735611231
 30
0.0
 10
203.5628109347914
 20
327.6580512897386
 30
0.0
 10
203.7171804631556
 20
327.8088746078894
 30
0.0
 10
203.8090075171064
 20
327.9066913030989
 30
0.0
 10
203.8821859017701
 20
327.9887347146545
 30
0.0
 10
203.997860861313
 20
328.125409065261
 30
0.0
 10
204.1667939425246
 20
328.3518596981156
 30
0.0
 10
204.350379752526
 20
328.6523690258803
 30
0.0
 10
204.5101159241104
 20
328.9802358144382
 30
0.0
 10
204.6298457753371
 20
329.2976419158832
 30
0.0
 10
204.7079430467161
 20
329.5786622807383
 30
0.0
 10
204.7486599432555
 20
329.7708876895483
 30
0.0
 10
204.7670241048472
 20
329.8818255087153
 30
0.0
 10
204.773799517193
 20
329.9200006640308
 30
0.0
 10
204.7751652166872
 20
329.9287102115069
 30
0.0
  0
SPLINE
  5
287
330
266
100
AcDbEntity
  8
$DDT_AUDIT_GENERATED_(BE)
  6
Continuous
 62
     7
100
AcDbSpline
210
0.0
220
0.0
230
1.0
 70
     8
 71
     3
 72
    43
 73
    39
 74
     0
 42
0.0000000002127938
 43
0.0000000001
 40
0.0
 40
0.0
 40
0.0
 40
0.0
 40
0.0276243778803463
 40
0.0561964358717782
 40
0.0847272343743765
 40
0.1132370535009115
 40
0.1417350392489288
 40
0.1702258240490753
 40
0.198711979871917
 40
0.2271950258453098
 40
0.2556759137126845
 40
0.2841552695974642
 40
0.3126335230781017
 40
0.341110983165449
 40
0.369587880508917
 40
0.398064395637048
 40
0.4265406778167348
 40
0.4550168582410711
 40
0.4834930586955498
 40
0.5119694029430679
 40
0.5404460264901036
 40
0.5689230864827143
 40
0.5974007765767129
 40
0.6258793474776205
 40
0.6543591376839324
 40
0.6828406258177494
 40
0.7113245166720241
 40
0.73981189678653
 40
0.7683045281437095
 40
0.7968054275295418
 40
0.8253201727319517
 40
0.8538600840142375
 40
0.882451294989529
 40
0.9111669206876774
 40
0.9402881644278112
 40
0.9722698101680001
 40
0.9912261972753961
 40
1.0
 40
1.0
 40
1.0
 40
1.0
 10
182.096085189946
 20
368.9611228954004
 30
0.0
 10
182.0780538635082
 20
368.7621849565042
 30
0.0
 10
182.0477171674619
 20
368.3792918590278
 30
0.0
 10
181.9970304895795
 20
367.5934166850161
 30
0.0
 10
181.9495333783396
 20
366.686573585651
 30
0.0
 10
181.9022804437608
 20
365.630664889616
 30
0.0
 10
181.8574872461504
 20
364.4543222434247
 30
0.0
 10
181.8144062740072
 20
363.1534969366777
 30
0.0
 10
181.7738599852225
 20
361.7428700226769
 30
0.0
 10
181.7358174011945
 20
360.2283526315188
 30
0.0
 10
181.7006828963185
 20
358.6216631815885
 30
0.0
 10
181.6686021514761
 20
356.9324123697958
 30
0.0
 10
181.6398302689634
 20
355.17222547754
 30
0.0
 10
181.6145320486807
 20
353.3524196557087
 30
0.0
 10
181.5928865376011
 20
351.4851279868087
 30
0.0
 10
181.5750292563654
 20
349.5825755231522
 30
0.0
 10
181.5610812447508
 20
347.6573416104819
 30
0.0
 10
181.551132629178
 20
345.722092237507
 30
0.0
 10
181.5452495051219
 20
343.7895941032988
 30
0.0
 10
181.543471078326
 20
341.8725776698026
 30
0.0
 10
181.5458077232337
 20
339.9836796699703
 30
0.0
 10
181.5522474068816
 20
338.1353461480821
 30
0.0
 10
181.5627419310154
 20
336.3397536665071
 30
0.0
 10
181.5772341760214
 20
334.6087311281823
 30
0.0
 10
181.595607876205
 20
332.9536685661845
 30
0.0
 10
181.6177835467807
 20
331.3854647658196
 30
0.0
 10
181.643541696801
 20
329.9144036157564
 30
0.0
 10
181.6728566969966
 20
328.5501716035491
 30
0.0
 10
181.7052779339539
 20
327.3016134874155
 30
0.0
 10
181.7410933237969
 20
326.1769742033255
 30
0.0
 10
181.7791682418541
 20
325.1832101333528
 30
0.0
 10
181.8210083626306
 20
324.3269678599049
 30
0.0
 10
181.8632347749614
 20
323.6122086033487
 30
0.0
 10
181.9118955979273
 20
323.0431385880037
 30
0.0
 10
181.957127038597
 20
322.608001402241
 30
0.0
 10
182.0153216191617
 20
322.3694779696951
 30
0.0
 10
182.048103212306
 20
322.242127417285
 30
0.0
 10
182.1856328334832
 20
322.1387800476493
 30
0.0
 10
182.2580282872088
 20
322.1382609399424
 30
0.0
  0
SPLINE
  5
288
330
266
100
AcDbEntity
  8
$DDT_AUDIT_GENERATED_(BE)
  6
Continuous
 62
     7
100
AcDbSpline
210
0.0
220
0.0
230
1.0
 70
     8
 71
     3
 72
    36
 73
    32
 74
     0
 42
0.0000000157500515
 43
0.0000000001
 40
0.0
 40
0.0
 40
0.0
 40
0.0
 40
0.0263569027960937
 40
0.0665479487077021
 40
0.1071516349146438
 40
0.1481313619369586
 40
0.1894369266242606
 40
0.2309790463321045
 40
0.2713983877421344
 40
0.3129588934402782
 40
0.3541722584129358
 40
0.3948958107316857
 40
0.4349898942252336
 40
0.4743297539523463
 40
0.5128731551193153
 40
0.5501446419367209
 40
0.5862507697933413
 40
0.6214354426384453
 40
0.6556902170422154
 40
0.689037178032529
 40
0.721522933658971
 40
0.753210113789261
 40
0.7841704746441943
 40
0.8144798540250159
 40
0.8442147730312576
 40
0.8734503372065433
 40
0.9022590924118187
 40
0.9307105496350545
 40
0.9588711618743115
 40
0.9868045960736542
 40
1.0
 40
1.0
 40
1.0
 40
1.0
 10
182.5232322374622
 20
369.3844830492851
 30
0.0
 10
182.5167489416575
 20
369.382047156768
 30
0.0
 10
182.5028978816029
 20
369.3768273897946
 30
0.0
 10
182.47920345962
 20
369.367242647308
 30
0.0
 10
182.4536850211428
 20
369.3563552893012
 30
0.0
 10
182.4284526786799
 20
369.3449036337954
 30
0.0
 10
182.4037891185206
 20
369.3329856729688
 30
0.0
 10
182.3799302833541
 20
369.3206744261799
 30
0.0
 10
182.3567717565235
 20
369.3079042286833
 30
0.0
 10
182.3343558436411
 20
369.2946658844228
 30
0.0
 10
182.3125974933118
 20
369.2808549998401
 30
0.0
 10
182.291801213152
 20
369.2666373561248
 30
0.0
 10
182.2720127377855
 20
369.2520328242882
 30
0.0
 10
182.2533007070261
 20
369.2370961192074
 30
0.0
 10
182.2356237112457
 20
369.2217986551374
 30
0.0
 10
182.2191090037128
 20
369.2062448043891
 30
0.0
 10
182.2037842482943
 20
369.1905170160263
 30
0.0
 10
182.1895659674095
 20
369.174577121507
 30
0.0
 10
182.1764091742228
 20
369.1584133614923
 30
0.0
 10
182.1642977938277
 20
369.1420455553779
 30
0.0
 10
182.153212190843
 20
369.1254889385303
 30
0.0
 10
182.1431312306237
 20
369.1087545900554
 30
0.0
 10
182.1340351228756
 20
369.0918519581805
 30
0.0
 10
182.1259065349995
 20
369.0747900367231
 30
0.0
 10
182.1187318574665
 20
369.0575804765884
 30
0.0
 10
182.1124984932474
 20
369.040231925562
 30
0.0
 10
182.1072039625265
 20
369.0227741278906
 30
0.0
 10
182.1028203536829
 20
369.0051715382706
 30
0.0
 10
182.0994216074688
 20
368.9876400749642
 30
0.0
 10
182.097183020712
 20
368.9726363864998
 30
0.0
 10
182.096489720892
 20
368.9644414082168
 30
0.0
 10
182.0962339256425
 20
368.9613488241017
 30
0.0
  0
ARC
  5
289
330
266
100
AcDbEntity
  8
$DDT_AUDIT_GENERATED_(BE)
  6
Continuous
 62
     7
100
AcDbCircle
 10
186.4757793038
 20
359.1286687091
 30
0.0
 40
10.99116888922096
100
AcDbArc
 50
90.3489804257
 51
111.0767364825
  0
LINE
  5
28A
330
266
100
AcDbEntity
  8
$DDT_AUDIT_GENERATED_(BE)
  6
Continuous
 62
     7
100
AcDbLine
 10
182.2580287499
 20
322.1381768047
 30
0.0
 11
212.5476456371
 21
322.00044575
 31
0.0
  0
LINE
  5
28B
330
266
100
AcDbEntity
  8
$DDT_AUDIT_GENERATED_(BE)
  6
Continuous
 62
     7
100
AcDbLine
 10
212.7659060416
 20
369.9999622734
 30
0.0
 11
186.4519409016
 21
370.1196154927
 31
0.0
  0
ARC
  5
28C
330
266
100
AcDbEntity
  8
$DDT_AUDIT_GENERATED_(DB)
  6
Continuous
 62
     7
100
AcDbCircle
 10
174.7599367852
 20
346.1782564914
 30
0.0
 40
21.6
100
AcDbArc
 50
70.57319113
 51
75.3854666145
  0
ARC
  5
28D
330
266
100
AcDbEntity
  8
$DDT_AUDIT_GENERATED_(DB)
  6
Continuous
 62
     7
100
AcDbCircle
 10
174.7599367852
 20
346.1782564914
 30
0.0
 40
21.6
100
AcDbArc
 50
284.6145333855
 51
288.9046087799
  0
ARC
  5
28E
330
266
100
AcDbEntity
  8
$DDT_AUDIT_GENERATED_(DE)
  6
Continuous
 62
     7
100
AcDbCircle
 10
113.2099367852
 20
346.1782564914
 30
0.0
 40
27.0
100
AcDbArc
 50
62.7339555493
 51
117.2660444507
  0
LINE
  5
28F
330
266
100
AcDbEntity
  8
$DDT_AUDIT_GENERATED_(E8)
  6
Continuous
 62
     7
100
AcDbLine
 10
76.2099367852
 20
322.6826389646
 30
0.0
 11
76.2099367852
 21
369.6738740183
 31
0.0
  0
ARC
  5
290
330
266
100
AcDbEntity
  8
$DDT_AUDIT_GENERATED_(E8)
  6
Continuous
 62
     7
100
AcDbCircle
 10
769.2099367852
 20
346.1782564914
 30
0.0
 40
750.0000000000008
100
AcDbArc
 50
178.3143018739
 51
180.0
  0
ARC
  5
291
330
266
100
AcDbEntity
  8
$DDT_AUDIT_GENERATED_(E8)
  6
Continuous
 62
     7
100
AcDbCircle
 10
769.2099367852
 20
346.1782564914
 30
0.0
 40
750.0
100
AcDbArc
 50
180.0
 51
181.6856981261
  0
ARC
  5
292
330
266
100
AcDbEntity
  8
$DDT_AUDIT_GENERATED_(E8)
  6
Continuous
 62
     7
100
AcDbCircle
 10
21.033862052
 20
368.1966850644
 30
0.0
 40
1.500000000000463
100
AcDbArc
 50
90.5000000001
 51
178.3143018761
  0
ARC
  5
293
330
266
100
AcDbEntity
  8
$DDT_AUDIT_GENERATED_(E8)
  6
Continuous
 62
     7
100
AcDbCircle
 10
21.033862052
 20
324.1598279184
 30
0.0
 40
1.499999999999561
100
AcDbArc
 50
181.6856981239
 51
269.4999999999
  0
LINE
  5
294
330
266
100
AcDbEntity
  8
$DDT_AUDIT_GENERATED_(E8)
  6
Continuous
 62
     7
100
AcDbLine
 10
75.7055735177
 20
370.1738549799
 30
0.0
 11
21.0207722486
 21
369.696627949
 31
0.0
  0
LINE
  5
295
330
266
100
AcDbEntity
  8
$DDT_AUDIT_GENERATED_(E8)
  6
Continuous
 62
     7
100
AcDbLine
 10
21.0207722486
 20
322.6598850338
 30
0.0
 11
75.7055735177
 21
322.182658003
 31
0.0
  0
ARC
  5
296
330
266
100
AcDbEntity
  8
$DDT_AUDIT_GENERATED_(E8)
  6
Continuous
 62
     7
100
AcDbCircle
 10
75.7099367852
 20
369.6738740183
 30
0.0
 40
0.5000000000000004
100
AcDbArc
 50
0.0
 51
90.5000000002
  0
ARC
  5
297
330
266
100
AcDbEntity
  8
$DDT_AUDIT_GENERATED_(E8)
  6
Continuous
 62
     7
100
AcDbCircle
 10
75.7099367852
 20
322.6826389645
 30
0.0
 40
0.4999999999958107
100
AcDbArc
 50
269.4999999998
 51
0.0
  0
LINE
  5
298
330
266
100
AcDbEntity
  8
$DDT_AUDIT_GENERATED_(103)
  6
Continuous
 62
     7
100
AcDbLine
 10
76.2099367852
 20
324.8782564914
 30
0.0
 11
76.7099367852
 21
324.8782564914
 31
0.0
  0
LINE
  5
299
330
266
100
AcDbEntity
  8
$DDT_AUDIT_GENERATED_(103)
  6
Continuous
 62
     7
100
AcDbLine
 10
76.7099367852
 20
367.4782564914
 30
0.0
 11
76.2099367852
 21
367.4782564914
 31
0.0
  0
ARC
  5
29A
330
266
100
AcDbEntity
  8
$DDT_AUDIT_GENERATED_(103)
  6
Continuous
 62
     7
100
AcDbCircle
 10
76.7099367852
 20
325.3782564914
 30
0.0
 40
0.5000000000000004
100
AcDbArc
 50
270.0
 51
0.0
  0
ARC
  5
29B
330
266
100
AcDbEntity
  8
$DDT_AUDIT_GENERATED_(103)
  6
Continuous
 62
     7
100
AcDbCircle
 10
76.7099367852
 20
366.9782564914
 30
0.0
 40
0.5000000000000004
100
AcDbArc
 50
0.0
 51
90.0
  0
LINE
  5
29C
330
266
100
AcDbEntity
  8
$DDT_AUDIT_GENERATED_(103)
  6
Continuous
 62
     7
100
AcDbLine
 10
76.2099367852
 20
326.9025355838
 30
0.0
 11
76.7099367852
 21
326.9025355838
 31
0.0
  0
ARC
  5
29D
330
266
100
AcDbEntity
  8
$DDT_AUDIT_GENERATED_(103)
  6
Continuous
 62
     7
100
AcDbCircle
 10
76.7183251527
 20
327.3941690686
 30
0.0
 40
0.4915827051122103
100
AcDbArc
 50
269.022160718
 51
359.0093816705
  0
ENDBLK
  5
29F
330
266
100
AcDbEntity
  8
0
100
AcDbBlockEnd
  0
ENDSEC
  0
SECTION
  2
ENTITIES
  0
INSERT
  5
5F
330
1F
100
AcDbEntity
  8
Default
100
AcDbBlockReference
  2
SEANNOT_GROUP
 10
0.0
 20
0.0
 30
0.0
  0
INSERT
  5
66
330
1F
100
AcDbEntity
  8
Default
100
AcDbBlockReference
  2
SEANNOT_GROUP1
 10
0.0
 20
0.0
 30
0.0
  0
INSERT
  5
6C
330
1F
100
AcDbEntity
  8
Default
100
AcDbBlockReference
  2
SEANNOT_GROUP2
 10
0.0
 20
0.0
 30
0.0
  0
INSERT
  5
76
330
1F
100
AcDbEntity
  8
Default
100
AcDbBlockReference
  2
SEANNOT_GROUP3
 10
0.0
 20
0.0
 30
0.0
  0
INSERT
  5
80
330
1F
100
AcDbEntity
  8
Default
100
AcDbBlockReference
  2
SEANNOT_GROUP4
 10
0.0
 20
0.0
 30
0.0
  0
LINE
  5
85
330
1F
100
AcDbEntity
  8
Default
  6
Continuous
 62
     7
100
AcDbLine
 10
111.8205043118
 20
120.3472806626
 30
0.0
 11
114.5993692587
 21
120.3472806626
 31
0.0
  0
INSERT
  5
87
330
1F
100
AcDbEntity
  8
Default
100
AcDbBlockReference
  2
SEANNOT_GROUP5
 10
0.0
 20
0.0
 30
0.0
  0
INSERT
  5
8D
330
1F
100
AcDbEntity
  8
Default
100
AcDbBlockReference
  2
SE
 10
0.0
 20
0.0
 30
0.0
  0
INSERT
  5
206
330
1F
100
AcDbEntity
  8
Default
100
AcDbBlockReference
  2
SE1
 10
0.0
 20
0.0
 30
0.0
  0
INSERT
  5
267
330
1F
100
AcDbEntity
  8
Default
100
AcDbBlockReference
  2
SE2
 10
0.0
 20
0.0
 30
0.0
  0
TEXT
  5
2A1
330
1F
100
AcDbEntity
  8
Default
  6
Continuous
 62
     7
100
AcDbText
 10
5.9362635081
 20
53.4225120485
 30
0.0
 40
10.0
  1
Grohe AG^J
  7
SEACAD_seiso_ttf
 11
5.9362635081
 21
63.4225120485
 31
0.0
100
AcDbText
 73
     3
  0
TEXT
  5
2A2
330
1F
100
AcDbEntity
  8
Default
  6
Continuous
 62
     7
100
AcDbText
 10
5.9362635081
 20
37.0588756849
 30
0.0
 40
10.0
  1
 
  7
SEACAD_seiso_ttf
 11
5.9362635081
 21
47.0588756849
 31
0.0
100
AcDbText
 73
     3
  0
TEXT
  5
2A3
330
1F
100
AcDbEntity
  8
Default
  6
Continuous
 62
     7
100
AcDbText
 10
5.9362635081
 20
20.6952393213
 30
0.0
 40
10.0
  1
ecn:
  7
SEACAD_seiso_ttf
 11
5.9362635081
 21
30.6952393213
 31
0.0
100
AcDbText
 73
     3
  0
TEXT
  5
2A4
330
1F
100
AcDbEntity
  8
Default
  6
Continuous
 62
     7
100
AcDbText
 10
5.9362635081
 20
4.3316029576
 30
0.0
 40
10.0
  1
unit: mm
  7
SEACAD_seiso_ttf
 11
5.9362635081
 21
14.3316029576
 31
0.0
100
AcDbText
 73
     3
  0
LINE
  5
2A5
330
1F
100
AcDbEntity
  8
Default
  6
Continuous
 62
     7
100
AcDbLine
 10
0.0
 20
0.0
 30
0.0
 11
100.0
 21
0.0
 31
0.0
  0
LINE
  5
2A6
330
1F
100
AcDbEntity
  8
Default
  6
Continuous
 62
     7
100
AcDbLine
 10
0.0
 20
0.0
 30
0.0
 11
0.0
 21
100.0
 31
0.0
  0
TEXT
  5
2A7
330
1F
100
AcDbEntity
  8
Default
  6
Continuous
 62
     7
100
AcDbText
 10
24.3923665681
 20
-18.2375342018
 30
0.0
 40
10.0
  1
100 mm
  7
SEACAD_seiso_ttf
 11
24.3923665681
 21
-8.2375342018
 31
0.0
100
AcDbText
 73
     3
  0
TEXT
  5
2A8
330
1F
100
AcDbEntity
  8
Default
  6
Continuous
 62
     7
100
AcDbText
 10
-7.6150308803
 20
24.6231930421
 30
0.0
 40
10.0
  1
100 mm
 50
90.0
  7
SEACAD_seiso_ttf
 11
-17.6150308803
 21
24.6231930421
 31
0.0
100
AcDbText
 73
     3
  0
TEXT
  5
2A9
330
1F
100
AcDbEntity
  8
Default
  6
Continuous
 62
     7
100
AcDbText
 10
28.4878128572
 20
20.0907663715
 30
0.0
 40
10.0
  1
222192
  7
SEACAD_seiso_ttf
 11
28.4878128572
 21
30.0907663715
 31
0.0
100
AcDbText
 73
     3
  0
TEXT
  5
2AA
330
1F
100
AcDbEntity
  8
Default
  6
Continuous
 62
     7
100
AcDbText
 10
5.9012241913
 20
36.7242780188
 30
0.0
 40
10.0
  1
31323000
  7
SEACAD_seiso_ttf
 11
5.9012241913
 21
46.7242780188
 31
0.0
100
AcDbText
 73
     3
  0
ENDSEC
  0
SECTION
  2
OBJECTS
  0
DICTIONARY
  5
C
330
0
100
AcDbDictionary
281
     1
  3
ACAD_GROUP
350
D
  3
ACAD_LAYOUT
350
1A
  3
ACAD_MLEADERSTYLE
350
2AE
  3
ACAD_MLINESTYLE
350
17
  3
ACAD_PLOTSETTINGS
350
19
  3
ACAD_PLOTSTYLENAME
350
E
  3
ACAD_SCALELIST
350
3B
  3
ACAD_TABLESTYLE
350
2AD
  3
ACAD_VISUALSTYLE
350
2A
  3
AcDbVariableDictionary
350
2AB
  0
DICTIONARY
  5
D
102
{ACAD_REACTORS
330
C
102
}
330
C
100
AcDbDictionary
281
     1
  0
DICTIONARY
  5
1A
102
{ACAD_REACTORS
330
C
102
}
330
C
100
AcDbDictionary
281
     1
  3
Layout1
350
1E
  3
Model
350
22
  0
DICTIONARY
  5
2AE
102
{ACAD_REACTORS
330
C
102
}
330
C
100
AcDbDictionary
281
     1
  0
DICTIONARY
  5
17
102
{ACAD_REACTORS
330
C
102
}
330
C
100
AcDbDictionary
281
     1
  3
Standard
350
18
  0
DICTIONARY
  5
19
102
{ACAD_REACTORS
330
C
102
}
330
C
100
AcDbDictionary
281
     1
  0
ACDBDICTIONARYWDFLT
  5
E
102
{ACAD_REACTORS
330
C
102
}
330
C
100
AcDbDictionary
281
     1
  3
Normal
350
F
100
AcDbDictionaryWithDefault
340
F
  0
DICTIONARY
  5
3B
102
{ACAD_REACTORS
330
C
102
}
330
C
100
AcDbDictionary
281
     1
  3
A0
350
3C
  3
A1
350
3D
  3
A2
350
3E
  3
A3
350
3F
  3
A4
350
40
  3
A5
350
41
  3
A6
350
42
  3
A7
350
43
  3
A8
350
44
  3
A9
350
45
  3
B0
350
46
  3
B1
350
47
  3
B2
350
48
  3
B3
350
49
  3
B4
350
4A
  3
B5
350
4B
  3
B6
350
4C
  3
B7
350
4D
  3
B8
350
4E
  3
B9
350
4F
  3
C0
350
50
  3
C1
350
51
  3
C2
350
52
  3
C3
350
53
  3
C4
350
54
  3
C5
350
55
  3
C6
350
56
  3
C7
350
57
  3
C8
350
58
  3
C9
350
59
  3
D0
350
5A
  3
D1
350
5B
  3
D2
350
5C
  0
DICTIONARY
  5
2AD
102
{ACAD_REACTORS
330
C
102
}
330
C
100
AcDbDictionary
281
     1
  0
DICTIONARY
  5
2A
102
{ACAD_REACTORS
330
C
102
}
330
C
100
AcDbDictionary
281
     1
  3
2dWireframe
350
2F
  3
3D Hidden
350
31
  3
3dWireframe
350
30
  3
Basic
350
32
  3
Brighten
350
36
  3
ColorChange
350
3A
  3
Conceptual
350
34
  3
Dim
350
35
  3
Facepattern
350
39
  3
Flat
350
2B
  3
FlatWithEdges
350
2C
  3
Gouraud
350
2D
  3
GouraudWithEdges
350
2E
  3
Linepattern
350
38
  3
Realistic
350
33
  3
Thicken
350
37
  0
DICTIONARY
  5
2AB
102
{ACAD_REACTORS
330
C
102
}
330
C
100
AcDbDictionary
281
     1
  3
CANNOSCALE
350
2AC
  3
PSOLHEIGHT
350
2B0
  3
PSOLWIDTH
350
2AF
  0
LAYOUT
  5
1E
102
{ACAD_REACTORS
330
1A
102
}
330
1A
100
AcDbPlotSettings
  1

  2
none_device
  4

  6

 40
0.0
 41
0.0
 42
0.0
 43
0.0
 44
0.0
 45
0.0
 46
0.0
 47
0.0
 48
0.0
 49
0.0
140
0.0
141
0.0
142
1.0
143
1.0
 70
   688
 72
     0
 73
     0
 74
     5
  7

 75
    16
147
1.0
148
0.0
149
0.0
100
AcDbLayout
  1
Layout1
 70
     1
 71
     1
 10
0.0
 20
0.0
 11
3000.0
 21
4500.0
 12
0.0
 22
0.0
 32
0.0
 14
0.0
 24
0.0
 34
0.0
 15
3000.0
 25
4500.0
 35
0.0
146
0.0
 13
0.0
 23
0.0
 33
0.0
 16
1.0
 26
0.0
 36
0.0
 17
0.0
 27
1.0
 37
0.0
 76
     0
330
1B
  0
LAYOUT
  5
22
102
{ACAD_REACTORS
330
1A
102
}
330
1A
100
AcDbPlotSettings
  1

  2
none_device
  4

  6

 40
0.0
 41
0.0
 42
0.0
 43
0.0
 44
0.0
 45
0.0
 46
0.0
 47
0.0
 48
0.0
 49
0.0
140
0.0
141
0.0
142
1.0
143
1.0
 70
  1712
 72
     0
 73
     0
 74
     0
  7

 75
     0
147
1.0
148
0.0
149
0.0
100
AcDbLayout
  1
Model
 70
     1
 71
     0
 10
0.0
 20
0.0
 11
3000.0
 21
4500.0
 12
0.0
 22
0.0
 32
0.0
 14
0.0
 24
0.0
 34
0.0
 15
3000.0
 25
4500.0
 35
0.0
146
0.0
 13
0.0
 23
0.0
 33
0.0
 16
1.0
 26
0.0
 36
0.0
 17
0.0
 27
1.0
 37
0.0
 76
     0
330
1F
331
29
  0
MLINESTYLE
  5
18
102
{ACAD_REACTORS
330
17
102
}
330
17
100
AcDbMlineStyle
  2
Standard
 70
     0
  3

 62
   256
 51
90.0
 52
90.0
 71
     2
 49
0.5
 62
   256
  6
BYLAYER
 49
-0.5
 62
   256
  6
BYLAYER
  0
ACDBPLACEHOLDER
  5
F
102
{ACAD_REACTORS
330
E
102
}
330
E
  0
SCALE
  5
3C
102
{ACAD_REACTORS
330
3B
102
}
330
3B
100
AcDbScale
 70
     0
300
1:1
140
1.0
141
1.0
290
     1
  0
SCALE
  5
3D
102
{ACAD_REACTORS
330
3B
102
}
330
3B
100
AcDbScale
 70
     0
300
1:2
140
1.0
141
2.0
290
     0
  0
SCALE
  5
3E
102
{ACAD_REACTORS
330
3B
102
}
330
3B
100
AcDbScale
 70
     0
300
1:4
140
1.0
141
4.0
290
     0
  0
SCALE
  5
3F
102
{ACAD_REACTORS
330
3B
102
}
330
3B
100
AcDbScale
 70
     0
300
1:5
140
1.0
141
5.0
290
     0
  0
SCALE
  5
40
102
{ACAD_REACTORS
330
3B
102
}
330
3B
100
AcDbScale
 70
     0
300
1:8
140
1.0
141
8.0
290
     0
  0
SCALE
  5
41
102
{ACAD_REACTORS
330
3B
102
}
330
3B
100
AcDbScale
 70
     0
300
1:10
140
1.0
141
10.0
290
     0
  0
SCALE
  5
42
102
{ACAD_REACTORS
330
3B
102
}
330
3B
100
AcDbScale
 70
     0
300
1:16
140
1.0
141
16.0
290
     0
  0
SCALE
  5
43
102
{ACAD_REACTORS
330
3B
102
}
330
3B
100
AcDbScale
 70
     0
300
1:20
140
1.0
141
20.0
290
     0
  0
SCALE
  5
44
102
{ACAD_REACTORS
330
3B
102
}
330
3B
100
AcDbScale
 70
     0
300
1:30
140
1.0
141
30.0
290
     0
  0
SCALE
  5
45
102
{ACAD_REACTORS
330
3B
102
}
330
3B
100
AcDbScale
 70
     0
300
1:40
140
1.0
141
40.0
290
     0
  0
SCALE
  5
46
102
{ACAD_REACTORS
330
3B
102
}
330
3B
100
AcDbScale
 70
     0
300
1:50
140
1.0
141
50.0
290
     0
  0
SCALE
  5
47
102
{ACAD_REACTORS
330
3B
102
}
330
3B
100
AcDbScale
 70
     0
300
1:100
140
1.0
141
100.0
290
     0
  0
SCALE
  5
48
102
{ACAD_REACTORS
330
3B
102
}
330
3B
100
AcDbScale
 70
     0
300
2:1
140
2.0
141
1.0
290
     0
  0
SCALE
  5
49
102
{ACAD_REACTORS
330
3B
102
}
330
3B
100
AcDbScale
 70
     0
300
4:1
140
4.0
141
1.0
290
     0
  0
SCALE
  5
4A
102
{ACAD_REACTORS
330
3B
102
}
330
3B
100
AcDbScale
 70
     0
300
8:1
140
8.0
141
1.0
290
     0
  0
SCALE
  5
4B
102
{ACAD_REACTORS
330
3B
102
}
330
3B
100
AcDbScale
 70
     0
300
10:1
140
10.0
141
1.0
290
     0
  0
SCALE
  5
4C
102
{ACAD_REACTORS
330
3B
102
}
330
3B
100
AcDbScale
 70
     0
300
100:1
140
100.0
141
1.0
290
     0
  0
SCALE
  5
4D
102
{ACAD_REACTORS
330
3B
102
}
330
3B
100
AcDbScale
 70
     0
300
1/128" = 1'-0"
140
0.0078125
141
12.0
290
     0
  0
SCALE
  5
4E
102
{ACAD_REACTORS
330
3B
102
}
330
3B
100
AcDbScale
 70
     0
300
1/64" = 1'-0"
140
0.015625
141
12.0
290
     0
  0
SCALE
  5
4F
102
{ACAD_REACTORS
330
3B
102
}
330
3B
100
AcDbScale
 70
     0
300
1/32" = 1'-0"
140
0.03125
141
12.0
290
     0
  0
SCALE
  5
50
102
{ACAD_REACTORS
330
3B
102
}
330
3B
100
AcDbScale
 70
     0
300
1/16" = 1'-0"
140
0.0625
141
12.0
290
     0
  0
SCALE
  5
51
102
{ACAD_REACTORS
330
3B
102
}
330
3B
100
AcDbScale
 70
     0
300
3/32" = 1'-0"
140
0.09375
141
12.0
290
     0
  0
SCALE
  5
52
102
{ACAD_REACTORS
330
3B
102
}
330
3B
100
AcDbScale
 70
     0
300
1/8" = 1'-0"
140
0.125
141
12.0
290
     0
  0
SCALE
  5
53
102
{ACAD_REACTORS
330
3B
102
}
330
3B
100
AcDbScale
 70
     0
300
3/16" = 1'-0"
140
0.1875
141
12.0
290
     0
  0
SCALE
  5
54
102
{ACAD_REACTORS
330
3B
102
}
330
3B
100
AcDbScale
 70
     0
300
1/4" = 1'-0"
140
0.25
141
12.0
290
     0
  0
SCALE
  5
55
102
{ACAD_REACTORS
330
3B
102
}
330
3B
100
AcDbScale
 70
     0
300
3/8" = 1'-0"
140
0.375
141
12.0
290
     0
  0
SCALE
  5
56
102
{ACAD_REACTORS
330
3B
102
}
330
3B
100
AcDbScale
 70
     0
300
1/2" = 1'-0"
140
0.5
141
12.0
290
     0
  0
SCALE
  5
57
102
{ACAD_REACTORS
330
3B
102
}
330
3B
100
AcDbScale
 70
     0
300
3/4" = 1'-0"
140
0.75
141
12.0
290
     0
  0
SCALE
  5
58
102
{ACAD_REACTORS
330
3B
102
}
330
3B
100
AcDbScale
 70
     0
300
1" = 1'-0"
140
1.0
141
12.0
290
     0
  0
SCALE
  5
59
102
{ACAD_REACTORS
330
3B
102
}
330
3B
100
AcDbScale
 70
     0
300
1-1/2" = 1'-0"
140
1.5
141
12.0
290
     0
  0
SCALE
  5
5A
102
{ACAD_REACTORS
330
3B
102
}
330
3B
100
AcDbScale
 70
     0
300
3" = 1'-0"
140
3.0
141
12.0
290
     0
  0
SCALE
  5
5B
102
{ACAD_REACTORS
330
3B
102
}
330
3B
100
AcDbScale
 70
     0
300
6" = 1'-0"
140
6.0
141
12.0
290
     0
  0
SCALE
  5
5C
102
{ACAD_REACTORS
330
3B
102
}
330
3B
100
AcDbScale
 70
     0
300
1'-0" = 1'-0"
140
12.0
141
12.0
290
     0
  0
VISUALSTYLE
  5
2F
102
{ACAD_REACTORS
330
2A
102
}
330
2A
100
AcDbVisualStyle
  2
2dWireframe
 70
     4
 71
     0
 72
     2
 73
     0
 90
        0
 40
-0.6
 41
-30.0
 62
     5
 63
     7
 74
     1
 91
        4
 64
     7
 65
   257
 75
     1
175
     1
 42
1.0
 92
        0
 66
   257
 43
1.0
 76
     1
 77
     6
 78
     2
 67
     7
 79
     5
170
     0
171
     0
290
     0
174
     0
 93
        1
 44
0.0
173
     0
291
     0
 45
0.0
1001
ACAD
1000
AcDbSavedByObjectVersion
1070
     0
  0
VISUALSTYLE
  5
31
102
{ACAD_REACTORS
330
2A
102
}
330
2A
100
AcDbVisualStyle
  2
3D Hidden
 70
     6
 71
     1
 72
     2
 73
     2
 90
        0
 40
-0.6
 41
-30.0
 62
     5
 63
     7
 74
     2
 91
        2
 64
     7
 65
   257
 75
     2
175
     1
 42
40.0
 92
        0
 66
   257
 43
1.0
 76
     1
 77
     6
 78
     2
 67
     7
 79
     3
170
     0
171
     0
290
     0
174
     0
 93
        1
 44
0.0
173
     0
291
     0
 45
0.0
1001
ACAD
1000
AcDbSavedByObjectVersion
1070
     0
  0
VISUALSTYLE
  5
30
102
{ACAD_REACTORS
330
2A
102
}
330
2A
100
AcDbVisualStyle
  2
3dWireframe
 70
     5
 71
     0
 72
     2
 73
     0
 90
        0
 40
-0.6
 41
-30.0
 62
     5
 63
     7
 74
     1
 91
        4
 64
     7
 65
   257
 75
     1
175
     1
 42
1.0
 92
        0
 66
   257
 43
1.0
 76
     1
 77
     6
 78
     2
 67
     7
 79
     5
170
     0
171
     0
290
     0
174
     0
 93
        1
 44
0.0
173
     0
291
     0
 45
0.0
1001
ACAD
1000
AcDbSavedByObjectVersion
1070
     0
  0
VISUALSTYLE
  5
32
102
{ACAD_REACTORS
330
2A
102
}
330
2A
100
AcDbVisualStyle
  2
Basic
 70
     7
 71
     1
 72
     0
 73
     1
 90
        0
 40
-0.6
 41
-30.0
 62
     5
 63
     7
 74
     0
 91
        4
 64
     7
 65
   257
 75
     1
175
     1
 42
1.0
 92
        8
 66
     7
 43
1.0
 76
     1
 77
     6
 78
     2
 67
     7
 79
     5
170
     0
171
     0
290
     0
174
     0
 93
        1
 44
0.0
173
     0
291
     1
 45
0.0
1001
ACAD
1000
AcDbSavedByObjectVersion
1070
     0
  0
VISUALSTYLE
  5
36
102
{ACAD_REACTORS
330
2A
102
}
330
2A
100
AcDbVisualStyle
  2
Brighten
 70
    12
 71
     2
 72
     2
 73
     0
 90
        0
 40
-0.6
 41
-30.0
 62
     5
 63
     7
 74
     1
 91
        4
 64
     7
 65
   257
 75
     1
175
     1
 42
1.0
 92
        8
 66
     7
 43
1.0
 76
     1
 77
     6
 78
     2
 67
     7
 79
     5
170
     0
171
     0
290
     0
174
     0
 93
        1
 44
50.0
173
     0
291
     1
 45
0.0
1001
ACAD
1000
AcDbSavedByObjectVersion
1070
     0
  0
VISUALSTYLE
  5
3A
102
{ACAD_REACTORS
330
2A
102
}
330
2A
100
AcDbVisualStyle
  2
ColorChange
 70
    16
 71
     2
 72
     2
 73
     3
 90
        0
 40
-0.6
 41
-30.0
 62
     5
 63
     8
 74
     1
 91
        4
 64
     7
 65
   257
 75
     1
175
     1
 42
1.0
 92
        8
 66
     8
 43
1.0
 76
     1
 77
     6
 78
     2
 67
     7
 79
     5
170
     0
171
     0
290
     0
174
     0
 93
        1
 44
0.0
173
     0
291
     1
 45
0.0
1001
ACAD
1000
AcDbSavedByObjectVersion
1070
     0
  0
VISUALSTYLE
  5
34
102
{ACAD_REACTORS
330
2A
102
}
330
2A
100
AcDbVisualStyle
  2
Conceptual
 70
     9
 71
     3
 72
     2
 73
     0
 90
        0
 40
-0.6
 41
-30.0
 62
     5
 63
     7
 74
     2
 91
        2
 64
     7
 65
   257
 75
     1
175
     1
 42
40.0
 92
        8
 66
     7
 43
1.0
 76
     1
 77
     6
 78
     2
 67
     7
 79
     3
170
     0
171
     0
290
     0
174
     0
 93
        1
 44
0.0
173
     0
291
     0
 45
0.0
1001
ACAD
1000
AcDbSavedByObjectVersion
1070
     0
  0
VISUALSTYLE
  5
35
102
{ACAD_REACTORS
330
2A
102
}
330
2A
100
AcDbVisualStyle
  2
Dim
 70
    11
 71
     2
 72
     2
 73
     0
 90
        0
 40
-0.6
 41
-30.0
 62
     5
 63
     7
 74
     1
 91
        4
 64
     7
 65
   257
 75
     1
175
     1
 42
1.0
 92
        8
 66
     7
 43
1.0
 76
     1
 77
     6
 78
     2
 67
     7
 79
     5
170
     0
171
     0
290
     0
174
     0
 93
        1
 44
-50.0
173
     0
291
     1
 45
0.0
1001
ACAD
1000
AcDbSavedByObjectVersion
1070
     0
  0
VISUALSTYLE
  5
39
102
{ACAD_REACTORS
330
2A
102
}
330
2A
100
AcDbVisualStyle
  2
Facepattern
 70
    15
 71
     2
 72
     2
 73
     0
 90
        0
 40
-0.6
 41
-30.0
 62
     5
 63
     7
 74
     1
 91
        4
 64
     7
 65
   257
 75
     1
175
     1
 42
1.0
 92
        8
 66
     7
 43
1.0
 76
     1
 77
     6
 78
     2
 67
     7
 79
     5
170
     0
171
     0
290
     0
174
     0
 93
        1
 44
0.0
173
     0
291
     1
 45
0.0
1001
ACAD
1000
AcDbSavedByObjectVersion
1070
     0
  0
VISUALSTYLE
  5
2B
102
{ACAD_REACTORS
330
2A
102
}
330
2A
100
AcDbVisualStyle
  2
Flat
 70
     0
 71
     2
 72
     1
 73
     1
 90
        2
 40
-0.6
 41
30.0
 62
     5
 63
     7
 74
     0
 91
        4
 64
     7
 65
   257
 75
     1
175
     1
 42
1.0
 92
        8
 66
     7
 43
1.0
 76
     1
 77
     6
 78
     2
 67
     7
 79
     5
170
     0
171
     0
290
     0
174
     0
 93
       13
 44
0.0
173
     0
291
     1
 45
0.0
1001
ACAD
1000
AcDbSavedByObjectVersion
1070
     0
  0
VISUALSTYLE
  5
2C
102
{ACAD_REACTORS
330
2A
102
}
330
2A
100
AcDbVisualStyle
  2
FlatWithEdges
 70
     1
 71
     2
 72
     1
 73
     1
 90
        2
 40
-0.6
 41
30.0
 62
     5
 63
     7
 74
     1
 91
        4
 64
     7
 65
   257
 75
     1
175
     1
 42
1.0
 92
        0
 66
   257
 43
1.0
 76
     1
 77
     6
 78
     2
 67
     7
 79
     5
170
     0
171
     0
290
     0
174
     0
 93
       13
 44
0.0
173
     0
291
     1
 45
0.0
1001
ACAD
1000
AcDbSavedByObjectVersion
1070
     0
  0
VISUALSTYLE
  5
2D
102
{ACAD_REACTORS
330
2A
102
}
330
2A
100
AcDbVisualStyle
  2
Gouraud
 70
     2
 71
     2
 72
     2
 73
     1
 90
        2
 40
-0.6
 41
30.0
 62
     5
 63
     7
 74
     0
 91
        4
 64
     7
 65
   257
 75
     1
175
     1
 42
1.0
 92
        0
 66
     7
 43
1.0
 76
     1
 77
     6
 78
     2
 67
     7
 79
     5
170
     0
171
     0
290
     0
174
     0
 93
       13
 44
0.0
173
     0
291
     1
 45
0.0
1001
ACAD
1000
AcDbSavedByObjectVersion
1070
     0
  0
VISUALSTYLE
  5
2E
102
{ACAD_REACTORS
330
2A
102
}
330
2A
100
AcDbVisualStyle
  2
GouraudWithEdges
 70
     3
 71
     2
 72
     2
 73
     1
 90
        2
 40
-0.6
 41
30.0
 62
     5
 63
     7
 74
     1
 91
        4
 64
     7
 65
   257
 75
     1
175
     1
 42
1.0
 92
        0
 66
   257
 43
1.0
 76
     1
 77
     6
 78
     2
 67
     7
 79
     5
170
     0
171
     0
290
     0
174
     0
 93
       13
 44
0.0
173
     0
291
     1
 45
0.0
1001
ACAD
1000
AcDbSavedByObjectVersion
1070
     0
  0
VISUALSTYLE
  5
38
102
{ACAD_REACTORS
330
2A
102
}
330
2A
100
AcDbVisualStyle
  2
Linepattern
 70
    14
 71
     2
 72
     2
 73
     0
 90
        0
 40
-0.6
 41
-30.0
 62
     5
 63
     7
 74
     1
 91
        4
 64
     7
 65
   257
 75
     7
175
     7
 42
1.0
 92
        8
 66
     7
 43
1.0
 76
     1
 77
     6
 78
     2
 67
     7
 79
     5
170
     0
171
     0
290
     0
174
     0
 93
        1
 44
0.0
173
     0
291
     1
 45
0.0
1001
ACAD
1000
AcDbSavedByObjectVersion
1070
     0
  0
VISUALSTYLE
  5
33
102
{ACAD_REACTORS
330
2A
102
}
330
2A
100
AcDbVisualStyle
  2
Realistic
 70
     8
 71
     2
 72
     2
 73
     0
 90
        0
 40
-0.6
 41
-30.0
 62
     5
 63
     7
 74
     1
 91
        0
 64
     7
 65
   257
 75
     1
175
     1
 42
1.0
 92
        8
 66
     8
 43
1.0
 76
     1
 77
     6
 78
     2
 67
     7
 79
     5
170
     0
171
     0
290
     0
174
     0
 93
       13
 44
0.0
173
     0
291
     0
 45
0.0
1001
ACAD
1000
AcDbSavedByObjectVersion
1070
     0
  0
VISUALSTYLE
  5
37
102
{ACAD_REACTORS
330
2A
102
}
330
2A
100
AcDbVisualStyle
  2
Thicken
 70
    13
 71
     2
 72
     2
 73
     0
 90
        0
 40
-0.6
 41
-30.0
 62
     5
 63
     7
 74
     1
 91
        4
 64
     7
 65
   257
 75
     1
175
     1
 42
1.0
 92
       12
 66
     7
 43
1.0
 76
     1
 77
     6
 78
     2
 67
     7
 79
     5
170
     0
171
     0
290
     0
174
     0
 93
        1
 44
0.0
173
     0
291
     1
 45
0.0
1001
ACAD
1000
AcDbSavedByObjectVersion
1070
     0
  0
DICTIONARYVAR
  5
2AC
102
{ACAD_REACTORS
330
2AB
102
}
330
2AB
100
DictionaryVariables
280
     0
  1
1:1
  0
DICTIONARYVAR
  5
2B0
102
{ACAD_REACTORS
330
2AB
102
}
330
2AB
100
DictionaryVariables
280
     0
  1
80.000000
  0
DICTIONARYVAR
  5
2AF
102
{ACAD_REACTORS
330
2AB
102
}
330
2AB
100
DictionaryVariables
280
     0
  1
5.000000
  0
ENDSEC
  0
EOF
