  0
SECTION
  2
HEADER
  9
$ACADVER
  1
AC1015
  9
$ACADMAINTVER
 70
     6
  9
$DWGCODEPAGE
  3
ANSI_1252
  9
$INSBASE
 10
0.0
 20
0.0
 30
0.0
  9
$EXTMIN
 10
0.0
 20
0.0
 30
0.0
  9
$EXTMAX
 10
3000.0
 20
4500.0
 30
0.0
  9
$LIMMIN
 10
0.0
 20
0.0
  9
$LIMMAX
 10
3000.0
 20
4500.0
  9
$ORTHOMODE
 70
     0
  9
$REGENMODE
 70
     1
  9
$FILLMODE
 70
     1
  9
$QTEXTMODE
 70
     0
  9
$MIRRTEXT
 70
     1
  9
$LTSCALE
 40
1.0
  9
$ATTMODE
 70
     1
  9
$TEXTSIZE
 40
2.5
  9
$TRACEWID
 40
1.0
  9
$TEXTSTYLE
  7
Standard
  9
$CLAYER
  8
0
  9
$CELTYPE
  6
ByLayer
  9
$CECOLOR
 62
   256
  9
$CELTSCALE
 40
1.0
  9
$DISPSILH
 70
     0
  9
$DIMSCALE
 40
1.0
  9
$DIMASZ
 40
2.5
  9
$DIMEXO
 40
0.625
  9
$DIMDLI
 40
3.75
  9
$DIMRND
 40
0.0
  9
$DIMDLE
 40
0.0
  9
$DIMEXE
 40
1.25
  9
$DIMTP
 40
0.0
  9
$DIMTM
 40
0.0
  9
$DIMTXT
 40
2.5
  9
$DIMCEN
 40
2.5
  9
$DIMTSZ
 40
0.0
  9
$DIMTOL
 70
     0
  9
$DIMLIM
 70
     0
  9
$DIMTIH
 70
     0
  9
$DIMTOH
 70
     0
  9
$DIMSE1
 70
     0
  9
$DIMSE2
 70
     0
  9
$DIMTAD
 70
     1
  9
$DIMZIN
 70
     8
  9
$DIMBLK
  1

  9
$DIMASO
 70
     1
  9
$DIMSHO
 70
     1
  9
$DIMPOST
  1

  9
$DIMAPOST
  1

  9
$DIMALT
 70
     0
  9
$DIMALTD
 70
     3
  9
$DIMALTF
 40
0.0393700787
  9
$DIMLFAC
 40
1.0
  9
$DIMTOFL
 70
     1
  9
$DIMTVP
 40
0.0
  9
$DIMTIX
 70
     0
  9
$DIMSOXD
 70
     0
  9
$DIMSAH
 70
     0
  9
$DIMBLK1
  1

  9
$DIMBLK2
  1

  9
$DIMSTYLE
  2
ISO-25
  9
$DIMCLRD
 70
     0
  9
$DIMCLRE
 70
     0
  9
$DIMCLRT
 70
     0
  9
$DIMTFAC
 40
1.0
  9
$DIMGAP
 40
0.625
  9
$DIMJUST
 70
     0
  9
$DIMSD1
 70
     0
  9
$DIMSD2
 70
     0
  9
$DIMTOLJ
 70
     0
  9
$DIMTZIN
 70
     8
  9
$DIMALTZ
 70
     0
  9
$DIMALTTZ
 70
     0
  9
$DIMUPT
 70
     0
  9
$DIMDEC
 70
     2
  9
$DIMTDEC
 70
     2
  9
$DIMALTU
 70
     2
  9
$DIMALTTD
 70
     3
  9
$DIMTXSTY
  7
Standard
  9
$DIMAUNIT
 70
     0
  9
$DIMADEC
 70
     0
  9
$DIMALTRND
 40
0.0
  9
$DIMAZIN
 70
     0
  9
$DIMDSEP
 70
    44
  9
$DIMATFIT
 70
     3
  9
$DIMFRAC
 70
     0
  9
$DIMLDRBLK
  1

  9
$DIMLUNIT
 70
     2
  9
$DIMLWD
 70
    -2
  9
$DIMLWE
 70
    -2
  9
$DIMTMOVE
 70
     0
  9
$LUNITS
 70
     2
  9
$LUPREC
 70
     4
  9
$SKETCHINC
 40
1.0
  9
$FILLETRAD
 40
10.0
  9
$AUNITS
 70
     0
  9
$AUPREC
 70
     0
  9
$MENU
  1
.
  9
$ELEVATION
 40
0.0
  9
$PELEVATION
 40
0.0
  9
$THICKNESS
 40
0.0
  9
$LIMCHECK
 70
     0
  9
$CHAMFERA
 40
10.0
  9
$CHAMFERB
 40
10.0
  9
$CHAMFERC
 40
20.0
  9
$CHAMFERD
 40
0.0
  9
$SKPOLY
 70
     0
  9
$TDCREATE
 40
2456561.481870695
  9
$TDUCREATE
 40
2456561.398537361
  9
$TDUPDATE
 40
2456561.481870706
  9
$TDUUPDATE
 40
2456561.398537373
  9
$TDINDWG
 40
0.0000000116
  9
$TDUSRTIMER
 40
0.0000000116
  9
$USRTIMER
 70
     1
  9
$ANGBASE
 50
0.0
  9
$ANGDIR
 70
     0
  9
$PDMODE
 70
     0
  9
$PDSIZE
 40
0.0
  9
$PLINEWID
 40
0.0
  9
$SPLFRAME
 70
     0
  9
$SPLINETYPE
 70
     6
  9
$SPLINESEGS
 70
     8
  9
$HANDSEED
  5
2D8
  9
$SURFTAB1
 70
     6
  9
$SURFTAB2
 70
     6
  9
$SURFTYPE
 70
     6
  9
$SURFU
 70
     6
  9
$SURFV
 70
     6
  9
$UCSBASE
  2

  9
$UCSNAME
  2

  9
$UCSORG
 10
0.0
 20
0.0
 30
0.0
  9
$UCSXDIR
 10
1.0
 20
0.0
 30
0.0
  9
$UCSYDIR
 10
0.0
 20
1.0
 30
0.0
  9
$UCSORTHOREF
  2

  9
$UCSORTHOVIEW
 70
     0
  9
$UCSORGTOP
 10
0.0
 20
0.0
 30
0.0
  9
$UCSORGBOTTOM
 10
0.0
 20
0.0
 30
0.0
  9
$UCSORGLEFT
 10
0.0
 20
0.0
 30
0.0
  9
$UCSORGRIGHT
 10
0.0
 20
0.0
 30
0.0
  9
$UCSORGFRONT
 10
0.0
 20
0.0
 30
0.0
  9
$UCSORGBACK
 10
0.0
 20
0.0
 30
0.0
  9
$PUCSBASE
  2

  9
$PUCSNAME
  2

  9
$PUCSORG
 10
0.0
 20
0.0
 30
0.0
  9
$PUCSXDIR
 10
1.0
 20
0.0
 30
0.0
  9
$PUCSYDIR
 10
0.0
 20
1.0
 30
0.0
  9
$PUCSORTHOREF
  2

  9
$PUCSORTHOVIEW
 70
     0
  9
$PUCSORGTOP
 10
0.0
 20
0.0
 30
0.0
  9
$PUCSORGBOTTOM
 10
0.0
 20
0.0
 30
0.0
  9
$PUCSORGLEFT
 10
0.0
 20
0.0
 30
0.0
  9
$PUCSORGRIGHT
 10
0.0
 20
0.0
 30
0.0
  9
$PUCSORGFRONT
 10
0.0
 20
0.0
 30
0.0
  9
$PUCSORGBACK
 10
0.0
 20
0.0
 30
0.0
  9
$USERI1
 70
     0
  9
$USERI2
 70
     0
  9
$USERI3
 70
     0
  9
$USERI4
 70
     0
  9
$USERI5
 70
     0
  9
$USERR1
 40
0.0
  9
$USERR2
 40
0.0
  9
$USERR3
 40
0.0
  9
$USERR4
 40
0.0
  9
$USERR5
 40
0.0
  9
$WORLDVIEW
 70
     1
  9
$SHADEDGE
 70
     3
  9
$SHADEDIF
 70
    70
  9
$TILEMODE
 70
     1
  9
$MAXACTVP
 70
    64
  9
$PINSBASE
 10
0.0
 20
0.0
 30
0.0
  9
$PLIMCHECK
 70
     0
  9
$PEXTMIN
 10
0.0
 20
0.0
 30
0.0
  9
$PEXTMAX
 10
3000.0
 20
4500.0
 30
0.0
  9
$PLIMMIN
 10
0.0
 20
0.0
  9
$PLIMMAX
 10
3000.0
 20
4500.0
  9
$UNITMODE
 70
     0
  9
$VISRETAIN
 70
     1
  9
$PLINEGEN
 70
     0
  9
$PSLTSCALE
 70
     1
  9
$TREEDEPTH
 70
  3020
  9
$CMLSTYLE
  2
Standard
  9
$CMLJUST
 70
     0
  9
$CMLSCALE
 40
20.0
  9
$PROXYGRAPHICS
 70
     1
  9
$MEASUREMENT
 70
     1
  9
$CELWEIGHT
370
    -1
  9
$ENDCAPS
280
     0
  9
$JOINSTYLE
280
     0
  9
$LWDISPLAY
290
     0
  9
$INSUNITS
 70
     4
  9
$HYPERLINKBASE
  1

  9
$STYLESHEET
  1

  9
$XEDIT
290
     1
  9
$CEPSNTYPE
380
     0
  9
$PSTYLEMODE
290
     1
  9
$FINGERPRINTGUID
  2
{46A9C48E-6CEE-41FA-920A-FFB44B97E50D}
  9
$VERSIONGUID
  2
{FAEB1C32-E019-11D5-929B-00C0DF256EC4}
  9
$EXTNAMES
290
     1
  9
$PSVPSCALE
 40
0.0
  9
$OLESTARTUP
290
     0
  0
ENDSEC
  0
SECTION
  2
CLASSES
  0
CLASS
  1
ACDBDICTIONARYWDFLT
  2
AcDbDictionaryWithDefault
  3
ObjectDBX Classes
 90
        0
280
     0
281
     0
  0
CLASS
  1
VISUALSTYLE
  2
AcDbVisualStyle
  3
ObjectDBX Classes
 90
     4095
280
     0
281
     0
  0
CLASS
  1
SCALE
  2
AcDbScale
  3
ObjectDBX Classes
 90
     1153
280
     0
281
     0
  0
CLASS
  1
DICTIONARYVAR
  2
AcDbDictionaryVar
  3
ObjectDBX Classes
 90
        0
280
     0
281
     0
  0
CLASS
  1
ACDBPLACEHOLDER
  2
AcDbPlaceHolder
  3
ObjectDBX Classes
 90
        0
280
     0
281
     0
  0
CLASS
  1
LAYOUT
  2
AcDbLayout
  3
ObjectDBX Classes
 90
        0
280
     0
281
     0
  0
ENDSEC
  0
SECTION
  2
TABLES
  0
TABLE
  2
VPORT
  5
8
330
0
100
AcDbSymbolTable
 70
     1
  0
VPORT
  5
29
330
8
100
AcDbSymbolTableRecord
100
AcDbViewportTableRecord
  2
*Active
 70
     0
 10
0.0
 20
0.0
 11
1.0
 21
1.0
 12
344.1869158879
 22
148.5
 13
0.0
 23
0.0
 14
10.0
 24
10.0
 15
10.0
 25
10.0
 16
0.0
 26
0.0
 36
1.0
 17
0.0
 27
0.0
 37
0.0
 40
297.0
 41
1.9729729729
 42
50.0
 43
0.0
 44
0.0
 50
0.0
 51
0.0
 71
     0
 72
   100
 73
     1
 74
     3
 75
     0
 76
     0
 77
     0
 78
     0
281
     0
 65
     1
110
0.0
120
0.0
130
0.0
111
1.0
121
0.0
131
0.0
112
0.0
122
1.0
132
0.0
 79
     0
146
0.0
  0
ENDTAB
  0
TABLE
  2
LTYPE
  5
5
330
0
100
AcDbSymbolTable
 70
     2
  0
LTYPE
  5
14
330
5
100
AcDbSymbolTableRecord
100
AcDbLinetypeTableRecord
  2
ByBlock
 70
     0
  3

 72
    65
 73
     0
 40
0.0
  0
LTYPE
  5
15
330
5
100
AcDbSymbolTableRecord
100
AcDbLinetypeTableRecord
  2
ByLayer
 70
     0
  3

 72
    65
 73
     0
 40
0.0
  0
LTYPE
  5
16
330
5
100
AcDbSymbolTableRecord
100
AcDbLinetypeTableRecord
  2
Continuous
 70
     0
  3
Solid line
 72
    65
 73
     0
 40
0.0
  0
LTYPE
  5
60
330
5
100
AcDbSymbolTableRecord
100
AcDbLinetypeTableRecord
  2
CENTER2
 70
     0
  3
Center (.5x) ___ _ ___ _ ___ _ ___ _ ___ _ ___
 72
    65
 73
     4
 40
28.575
 49
19.05
 74
     4
 75
     0
340
0
 46
0.0
 50
0.0
 44
0.0
 45
0.0
 49
-3.175
 74
     4
 75
     0
340
0
 46
0.0
 50
0.0
 44
0.0
 45
0.0
 49
3.175
 74
     4
 75
     0
340
0
 46
0.0
 50
0.0
 44
0.0
 45
0.0
 49
-3.175
 74
     4
 75
     0
340
0
 46
0.0
 50
0.0
 44
0.0
 45
0.0
  0
ENDTAB
  0
TABLE
  2
LAYER
  5
2
330
0
100
AcDbSymbolTable
 70
    15
  0
LAYER
  5
10
330
2
100
AcDbSymbolTableRecord
100
AcDbLayerTableRecord
  2
0
 70
     0
 62
     7
  6
Continuous
370
    -3
390
F
  0
LAYER
  5
5D
330
2
100
AcDbSymbolTableRecord
100
AcDbLayerTableRecord
  2
Default
 70
     0
 62
     7
  6
Continuous
370
    -3
390
F
  0
LAYER
  5
95
330
2
100
AcDbSymbolTableRecord
100
AcDbLayerTableRecord
  2
$DDT_AUDIT_GENERATED_(95)
 70
     0
 62
     7
  6
Continuous
370
    -3
390
F
  0
LAYER
  5
9E
330
2
100
AcDbSymbolTableRecord
100
AcDbLayerTableRecord
  2
$DDT_AUDIT_GENERATED_(9E)
 70
     0
 62
     7
  6
Continuous
370
    -3
390
F
  0
LAYER
  5
A4
330
2
100
AcDbSymbolTableRecord
100
AcDbLayerTableRecord
  2
$DDT_AUDIT_GENERATED_(A4)
 70
     0
 62
     7
  6
Continuous
370
    -3
390
F
  0
LAYER
  5
A7
330
2
100
AcDbSymbolTableRecord
100
AcDbLayerTableRecord
  2
$DDT_AUDIT_GENERATED_(A7)
 70
     0
 62
     7
  6
Continuous
370
    -3
390
F
  0
LAYER
  5
B0
330
2
100
AcDbSymbolTableRecord
100
AcDbLayerTableRecord
  2
$DDT_AUDIT_GENERATED_(B0)
 70
     0
 62
     7
  6
Continuous
370
    -3
390
F
  0
LAYER
  5
BC
330
2
100
AcDbSymbolTableRecord
100
AcDbLayerTableRecord
  2
$DDT_AUDIT_GENERATED_(BC)
 70
     0
 62
     7
  6
Continuous
370
    -3
390
F
  0
LAYER
  5
10B
330
2
100
AcDbSymbolTableRecord
100
AcDbLayerTableRecord
  2
$DDT_AUDIT_GENERATED_(10B)
 70
     0
 62
     7
  6
Continuous
370
    -3
390
F
  0
LAYER
  5
111
330
2
100
AcDbSymbolTableRecord
100
AcDbLayerTableRecord
  2
$DDT_AUDIT_GENERATED_(111)
 70
     0
 62
     7
  6
Continuous
370
    -3
390
F
  0
LAYER
  5
11A
330
2
100
AcDbSymbolTableRecord
100
AcDbLayerTableRecord
  2
$DDT_AUDIT_GENERATED_(11A)
 70
     0
 62
     7
  6
Continuous
370
    -3
390
F
  0
LAYER
  5
13C
330
2
100
AcDbSymbolTableRecord
100
AcDbLayerTableRecord
  2
$DDT_AUDIT_GENERATED_(13C)
 70
     0
 62
     7
  6
Continuous
370
    -3
390
F
  0
LAYER
  5
13F
330
2
100
AcDbSymbolTableRecord
100
AcDbLayerTableRecord
  2
$DDT_AUDIT_GENERATED_(13F)
 70
     0
 62
     7
  6
Continuous
370
    -3
390
F
  0
LAYER
  5
225
330
2
100
AcDbSymbolTableRecord
100
AcDbLayerTableRecord
  2
$DDT_AUDIT_GENERATED_(225)
 70
     0
 62
     7
  6
Continuous
370
    -3
390
F
  0
LAYER
  5
257
330
2
100
AcDbSymbolTableRecord
100
AcDbLayerTableRecord
  2
$DDT_AUDIT_GENERATED_(257)
 70
     0
 62
     7
  6
Continuous
370
    -3
390
F
  0
ENDTAB
  0
TABLE
  2
STYLE
  5
3
330
0
100
AcDbSymbolTable
 70
     2
  0
STYLE
  5
11
330
3
100
AcDbSymbolTableRecord
100
AcDbTextStyleTableRecord
  2
Standard
 70
     0
 40
0.0
 41
1.0
 50
0.0
 71
     0
 42
2.5
  3
txt
  4

  0
STYLE
  5
2C7
330
3
100
AcDbSymbolTableRecord
100
AcDbTextStyleTableRecord
  2
SEACAD_seiso_ttf
 70
     0
 40
0.0
 41
1.0
 50
0.0
 71
     0
 42
0.2
  3
seiso.ttf
  4

  0
ENDTAB
  0
TABLE
  2
VIEW
  5
6
330
0
100
AcDbSymbolTable
 70
     0
  0
ENDTAB
  0
TABLE
  2
UCS
  5
7
330
0
100
AcDbSymbolTable
 70
     0
  0
ENDTAB
  0
TABLE
  2
APPID
  5
9
330
0
100
AcDbSymbolTable
 70
     1
  0
APPID
  5
12
330
9
100
AcDbSymbolTableRecord
100
AcDbRegAppTableRecord
  2
ACAD
 70
     0
  0
ENDTAB
  0
TABLE
  2
DIMSTYLE
  5
A
330
0
100
AcDbSymbolTable
 70
     1
100
AcDbDimStyleTable
  0
DIMSTYLE
105
27
330
A
100
AcDbSymbolTableRecord
100
AcDbDimStyleTableRecord
  2
ISO-25
 70
     0
 41
2.5
 42
0.625
 43
3.75
 44
1.25
 73
     0
 74
     0
 77
     1
 78
     8
140
2.5
141
2.5
143
0.0393700787
147
0.625
171
     3
172
     1
271
     2
272
     2
274
     3
278
    44
283
     0
284
     8
340
11
  0
ENDTAB
  0
TABLE
  2
BLOCK_RECORD
  5
1
330
0
100
AcDbSymbolTable
 70
    11
  0
BLOCK_RECORD
  5
1F
330
1
100
AcDbSymbolTableRecord
100
AcDbBlockTableRecord
  2
*Model_Space
340
22
  0
BLOCK_RECORD
  5
1B
330
1
100
AcDbSymbolTableRecord
100
AcDbBlockTableRecord
  2
*Paper_Space
340
1E
  0
BLOCK_RECORD
  5
5E
330
1
100
AcDbSymbolTableRecord
100
AcDbBlockTableRecord
  2
SEANNOT_GROUP
340
0
102
{BLKREFS
331
5F
102
}
  0
BLOCK_RECORD
  5
69
330
1
100
AcDbSymbolTableRecord
100
AcDbBlockTableRecord
  2
SEANNOT_GROUP1
340
0
102
{BLKREFS
331
6A
102
}
  0
BLOCK_RECORD
  5
73
330
1
100
AcDbSymbolTableRecord
100
AcDbBlockTableRecord
  2
SEANNOT_GROUP2
340
0
102
{BLKREFS
331
74
102
}
  0
BLOCK_RECORD
  5
79
330
1
100
AcDbSymbolTableRecord
100
AcDbBlockTableRecord
  2
SEANNOT_GROUP3
340
0
102
{BLKREFS
331
7A
102
}
  0
BLOCK_RECORD
  5
7F
330
1
100
AcDbSymbolTableRecord
100
AcDbBlockTableRecord
  2
SEANNOT_GROUP4
340
0
102
{BLKREFS
331
80
102
}
  0
BLOCK_RECORD
  5
85
330
1
100
AcDbSymbolTableRecord
100
AcDbBlockTableRecord
  2
SEANNOT_GROUP5
340
0
102
{BLKREFS
331
86
102
}
  0
BLOCK_RECORD
  5
8D
330
1
100
AcDbSymbolTableRecord
100
AcDbBlockTableRecord
  2
SEANNOT_GROUP6
340
0
102
{BLKREFS
331
8E
102
}
  0
BLOCK_RECORD
  5
93
330
1
100
AcDbSymbolTableRecord
100
AcDbBlockTableRecord
  2
SE
340
0
102
{BLKREFS
331
94
102
}
  0
BLOCK_RECORD
  5
14A
330
1
100
AcDbSymbolTableRecord
100
AcDbBlockTableRecord
  2
SE1
340
0
102
{BLKREFS
331
14B
102
}
  0
BLOCK_RECORD
  5
20A
330
1
100
AcDbSymbolTableRecord
100
AcDbBlockTableRecord
  2
SE2
340
0
102
{BLKREFS
331
20B
102
}
  0
ENDTAB
  0
ENDSEC
  0
SECTION
  2
BLOCKS
  0
BLOCK
  5
20
330
1F
100
AcDbEntity
  8
0
100
AcDbBlockBegin
  2
*Model_Space
 70
     0
 10
0.0
 20
0.0
 30
0.0
  3
*Model_Space
  1

  0
ENDBLK
  5
21
330
1F
100
AcDbEntity
  8
0
100
AcDbBlockEnd
  0
BLOCK
  5
1C
330
1B
100
AcDbEntity
 67
     1
  8
0
100
AcDbBlockBegin
  2
*Paper_Space
 70
     0
 10
0.0
 20
0.0
 30
0.0
  3
*Paper_Space
  1

  0
ENDBLK
  5
1D
330
1B
100
AcDbEntity
 67
     1
  8
0
100
AcDbBlockEnd
  0
BLOCK
  5
67
330
5E
100
AcDbEntity
  8
0
100
AcDbBlockBegin
  2
SEANNOT_GROUP
 70
     0
 10
0.0
 20
0.0
 30
0.0
  3
SEANNOT_GROUP
  1

  0
LINE
  5
61
330
5E
100
AcDbEntity
  8
Default
  6
CENTER2
 62
     7
100
AcDbLine
 10
262.7461846325
 20
204.3659670967
 30
0.0
 11
222.7461855266
 21
204.3659670967
 31
0.0
  0
LINE
  5
62
330
5E
100
AcDbEntity
  8
Default
  6
CENTER2
 62
     7
100
AcDbLine
 10
242.7461850795
 20
224.3659666497
 30
0.0
 11
242.7461850795
 21
184.3659675437
 31
0.0
  0
LINE
  5
63
330
5E
100
AcDbEntity
  8
Default
  6
CENTER2
 62
     7
100
AcDbLine
 10
267.7461845207
 20
204.3659670967
 30
0.0
 11
260.2461850795
 21
204.3659670967
 31
0.0
  0
LINE
  5
64
330
5E
100
AcDbEntity
  8
Default
  6
CENTER2
 62
     7
100
AcDbLine
 10
242.7461850795
 20
229.3659665379
 30
0.0
 11
242.7461850795
 21
221.8659670967
 31
0.0
  0
LINE
  5
65
330
5E
100
AcDbEntity
  8
Default
  6
CENTER2
 62
     7
100
AcDbLine
 10
217.7461856383
 20
204.3659670967
 30
0.0
 11
225.2461850795
 21
204.3659670967
 31
0.0
  0
LINE
  5
66
330
5E
100
AcDbEntity
  8
Default
  6
CENTER2
 62
     7
100
AcDbLine
 10
242.7461850795
 20
179.3659676555
 30
0.0
 11
242.7461850795
 21
186.8659670967
 31
0.0
  0
ENDBLK
  5
68
330
5E
100
AcDbEntity
  8
0
100
AcDbBlockEnd
  0
BLOCK
  5
71
330
69
100
AcDbEntity
  8
0
100
AcDbBlockBegin
  2
SEANNOT_GROUP1
 70
     0
 10
0.0
 20
0.0
 30
0.0
  3
SEANNOT_GROUP1
  1

  0
LINE
  5
6B
330
69
100
AcDbEntity
  8
Default
  6
CENTER2
 62
     7
100
AcDbLine
 10
417.7461846325
 20
204.3659670967
 30
0.0
 11
377.7461855266
 21
204.3659670967
 31
0.0
  0
LINE
  5
6C
330
69
100
AcDbEntity
  8
Default
  6
CENTER2
 62
     7
100
AcDbLine
 10
397.7461850795
 20
224.3659666497
 30
0.0
 11
397.7461850795
 21
184.3659675437
 31
0.0
  0
LINE
  5
6D
330
69
100
AcDbEntity
  8
Default
  6
CENTER2
 62
     7
100
AcDbLine
 10
422.7461845207
 20
204.3659670967
 30
0.0
 11
425.7848602141
 21
204.3659670967
 31
0.0
  0
LINE
  5
6E
330
69
100
AcDbEntity
  8
Default
  6
CENTER2
 62
     7
100
AcDbLine
 10
397.7461850795
 20
229.3659665379
 30
0.0
 11
397.7461850795
 21
232.4046422313
 31
0.0
  0
LINE
  5
6F
330
69
100
AcDbEntity
  8
Default
  6
CENTER2
 62
     7
100
AcDbLine
 10
372.7461856383
 20
204.3659670967
 30
0.0
 11
369.7075099449
 21
204.3659670967
 31
0.0
  0
LINE
  5
70
330
69
100
AcDbEntity
  8
Default
  6
CENTER2
 62
     7
100
AcDbLine
 10
397.7461850795
 20
179.3659676555
 30
0.0
 11
397.7461850795
 21
176.3272919621
 31
0.0
  0
ENDBLK
  5
72
330
69
100
AcDbEntity
  8
0
100
AcDbBlockEnd
  0
BLOCK
  5
77
330
73
100
AcDbEntity
  8
0
100
AcDbBlockBegin
  2
SEANNOT_GROUP2
 70
     0
 10
0.0
 20
0.0
 30
0.0
  3
SEANNOT_GROUP2
  1

  0
LINE
  5
75
330
73
100
AcDbEntity
  8
Default
  6
CENTER2
 62
     7
100
AcDbLine
 10
262.7461846325
 20
420.9627684457
 30
0.0
 11
222.7461855266
 21
420.9627684457
 31
0.0
  0
LINE
  5
76
330
73
100
AcDbEntity
  8
Default
  6
CENTER2
 62
     7
100
AcDbLine
 10
242.7461850795
 20
440.9627679987
 30
0.0
 11
242.7461850795
 21
400.9627688927
 31
0.0
  0
ENDBLK
  5
78
330
73
100
AcDbEntity
  8
0
100
AcDbBlockEnd
  0
BLOCK
  5
7D
330
79
100
AcDbEntity
  8
0
100
AcDbBlockBegin
  2
SEANNOT_GROUP3
 70
     0
 10
0.0
 20
0.0
 30
0.0
  3
SEANNOT_GROUP3
  1

  0
LINE
  5
7B
330
79
100
AcDbEntity
  8
Default
  6
CENTER2
 62
     7
100
AcDbLine
 10
72.7461846325
 20
421.2627684457
 30
0.0
 11
32.7461855266
 21
421.2627684457
 31
0.0
  0
LINE
  5
7C
330
79
100
AcDbEntity
  8
Default
  6
CENTER2
 62
     7
100
AcDbLine
 10
52.7461850795
 20
441.2627679987
 30
0.0
 11
52.7461850795
 21
401.2627688927
 31
0.0
  0
ENDBLK
  5
7E
330
79
100
AcDbEntity
  8
0
100
AcDbBlockEnd
  0
BLOCK
  5
83
330
7F
100
AcDbEntity
  8
0
100
AcDbBlockBegin
  2
SEANNOT_GROUP4
 70
     0
 10
0.0
 20
0.0
 30
0.0
  3
SEANNOT_GROUP4
  1

  0
LINE
  5
81
330
7F
100
AcDbEntity
  8
Default
  6
CENTER2
 62
     7
100
AcDbLine
 10
417.7461846325
 20
420.9627684457
 30
0.0
 11
377.7461855266
 21
420.9627684457
 31
0.0
  0
LINE
  5
82
330
7F
100
AcDbEntity
  8
Default
  6
CENTER2
 62
     7
100
AcDbLine
 10
397.7461850795
 20
440.9627679987
 30
0.0
 11
397.7461850795
 21
400.9627688927
 31
0.0
  0
ENDBLK
  5
84
330
7F
100
AcDbEntity
  8
0
100
AcDbBlockEnd
  0
BLOCK
  5
89
330
85
100
AcDbEntity
  8
0
100
AcDbBlockBegin
  2
SEANNOT_GROUP5
 70
     0
 10
0.0
 20
0.0
 30
0.0
  3
SEANNOT_GROUP5
  1

  0
LINE
  5
87
330
85
100
AcDbEntity
  8
Default
  6
CENTER2
 62
     7
100
AcDbLine
 10
707.8344578892
 20
421.2627684457
 30
0.0
 11
667.8344587833
 21
421.2627684457
 31
0.0
  0
LINE
  5
88
330
85
100
AcDbEntity
  8
Default
  6
CENTER2
 62
     7
100
AcDbLine
 10
687.8344583363
 20
441.2627679987
 30
0.0
 11
687.8344583363
 21
401.2627688927
 31
0.0
  0
ENDBLK
  5
8A
330
85
100
AcDbEntity
  8
0
100
AcDbBlockEnd
  0
BLOCK
  5
91
330
8D
100
AcDbEntity
  8
0
100
AcDbBlockBegin
  2
SEANNOT_GROUP6
 70
     0
 10
0.0
 20
0.0
 30
0.0
  3
SEANNOT_GROUP6
  1

  0
LINE
  5
8F
330
8D
100
AcDbEntity
  8
Default
  6
CENTER2
 62
     7
100
AcDbLine
 10
72.6717308626
 20
204.3659670967
 30
0.0
 11
32.6717317566
 21
204.3659670967
 31
0.0
  0
LINE
  5
90
330
8D
100
AcDbEntity
  8
Default
  6
CENTER2
 62
     7
100
AcDbLine
 10
52.6717313096
 20
224.3659666497
 30
0.0
 11
52.6717313096
 21
184.3659675437
 31
0.0
  0
ENDBLK
  5
92
330
8D
100
AcDbEntity
  8
0
100
AcDbBlockEnd
  0
BLOCK
  5
148
330
93
100
AcDbEntity
  8
0
100
AcDbBlockBegin
  2
SE
 70
     0
 10
0.0
 20
0.0
 30
0.0
  3
SE
  1

  0
LINE
  5
96
330
93
100
AcDbEntity
  8
$DDT_AUDIT_GENERATED_(95)
  6
Continuous
 62
     7
100
AcDbLine
 10
21.2461850795
 20
421.2627684457
 30
0.0
 11
84.2461850795
 21
421.2627684457
 31
0.0
  0
LINE
  5
97
330
93
100
AcDbEntity
  8
$DDT_AUDIT_GENERATED_(95)
  6
Continuous
 62
     7
100
AcDbLine
 10
85.2461850795
 20
421.2627684457
 30
0.0
 11
84.2461850795
 21
421.2627684457
 31
0.0
  0
LINE
  5
98
330
93
100
AcDbEntity
  8
$DDT_AUDIT_GENERATED_(95)
  6
Continuous
 62
     7
100
AcDbLine
 10
21.2461850795
 20
421.2627684457
 30
0.0
 11
20.2461850795
 21
421.2627684457
 31
0.0
  0
LINE
  5
99
330
93
100
AcDbEntity
  8
$DDT_AUDIT_GENERATED_(95)
  6
Continuous
 62
     7
100
AcDbLine
 10
20.2461850795
 20
421.2627684457
 30
0.0
 11
20.2461850795
 21
429.9627684457
 31
0.0
  0
LINE
  5
9A
330
93
100
AcDbEntity
  8
$DDT_AUDIT_GENERATED_(95)
  6
Continuous
 62
     7
100
AcDbLine
 10
21.2461850795
 20
430.9627684457
 30
0.0
 11
84.2461850795
 21
430.9627684457
 31
0.0
  0
LINE
  5
9B
330
93
100
AcDbEntity
  8
$DDT_AUDIT_GENERATED_(95)
  6
Continuous
 62
     7
100
AcDbLine
 10
85.2461850795
 20
429.9627684457
 30
0.0
 11
85.2461850795
 21
421.2627684457
 31
0.0
  0
ARC
  5
9C
330
93
100
AcDbEntity
  8
$DDT_AUDIT_GENERATED_(95)
  6
Continuous
 62
     7
100
AcDbCircle
 10
84.2461850795
 20
429.9627684457
 30
0.0
 40
1.000000000000001
100
AcDbArc
 50
0.0
 51
90.0
  0
ARC
  5
9D
330
93
100
AcDbEntity
  8
$DDT_AUDIT_GENERATED_(95)
  6
Continuous
 62
     7
100
AcDbCircle
 10
21.2461850795
 20
429.9627684457
 30
0.0
 40
1.000000000000001
100
AcDbArc
 50
90.0
 51
180.0
  0
LINE
  5
9F
330
93
100
AcDbEntity
  8
$DDT_AUDIT_GENERATED_(9E)
  6
Continuous
 62
     7
100
AcDbLine
 10
423.7461888942
 20
477.2628564374
 30
0.0
 11
423.7461888942
 21
430.9627684457
 31
0.0
  0
LINE
  5
A0
330
93
100
AcDbEntity
  8
$DDT_AUDIT_GENERATED_(9E)
  6
Continuous
 62
     7
100
AcDbLine
 10
372.2461812648
 20
477.7628564374
 30
0.0
 11
423.2461888942
 21
477.7628564374
 31
0.0
  0
ARC
  5
A1
330
93
100
AcDbEntity
  8
$DDT_AUDIT_GENERATED_(9E)
  6
Continuous
 62
     7
100
AcDbCircle
 10
372.2461812648
 20
477.2628564374
 30
0.0
 40
0.5000000000000004
100
AcDbArc
 50
90.0
 51
180.0
  0
ARC
  5
A2
330
93
100
AcDbEntity
  8
$DDT_AUDIT_GENERATED_(9E)
  6
Continuous
 62
     7
100
AcDbCircle
 10
423.2461888942
 20
477.2628564374
 30
0.0
 40
0.5000000000000004
100
AcDbArc
 50
0.0
 51
90.0
  0
LINE
  5
A3
330
93
100
AcDbEntity
  8
$DDT_AUDIT_GENERATED_(9E)
  6
Continuous
 62
     7
100
AcDbLine
 10
371.7461812648
 20
430.9627684457
 30
0.0
 11
371.7461812648
 21
477.2628564374
 31
0.0
  0
ARC
  5
A5
330
93
100
AcDbEntity
  8
$DDT_AUDIT_GENERATED_(A4)
  6
Continuous
 62
     7
100
AcDbCircle
 10
397.7461850795
 20
469.6628564374
 30
0.0
 40
24.9999999999999
100
AcDbArc
 50
156.4402402459
 51
161.0949986971
  0
ARC
  5
A6
330
93
100
AcDbEntity
  8
$DDT_AUDIT_GENERATED_(A4)
  6
Continuous
 62
     7
100
AcDbCircle
 10
397.7461850795
 20
469.6628564374
 30
0.0
 40
25.00000000000001
100
AcDbArc
 50
18.9050013029
 51
23.5597597541
  0
LINE
  5
A8
330
93
100
AcDbEntity
  8
$DDT_AUDIT_GENERATED_(A7)
  6
Continuous
 62
     7
100
AcDbLine
 10
32.0961850795
 20
435.8627684457
 30
0.0
 11
32.0961850795
 21
454.8627684457
 31
0.0
  0
LINE
  5
A9
330
93
100
AcDbEntity
  8
$DDT_AUDIT_GENERATED_(A7)
  6
Continuous
 62
     7
100
AcDbLine
 10
72.8961850795
 20
435.3627684457
 30
0.0
 11
32.5961850795
 21
435.3627684457
 31
0.0
  0
LINE
  5
AA
330
93
100
AcDbEntity
  8
$DDT_AUDIT_GENERATED_(A7)
  6
Continuous
 62
     7
100
AcDbLine
 10
32.5961850795
 20
455.3627684457
 30
0.0
 11
72.8961850795
 21
455.3627684457
 31
0.0
  0
LINE
  5
AB
330
93
100
AcDbEntity
  8
$DDT_AUDIT_GENERATED_(A7)
  6
Continuous
 62
     7
100
AcDbLine
 10
73.3961850795
 20
454.8627684457
 30
0.0
 11
73.3961850795
 21
435.8627684457
 31
0.0
  0
ARC
  5
AC
330
93
100
AcDbEntity
  8
$DDT_AUDIT_GENERATED_(A7)
  6
Continuous
 62
     7
100
AcDbCircle
 10
72.8961850795
 20
454.8627684457
 30
0.0
 40
0.5000000000000004
100
AcDbArc
 50
0.0
 51
90.0
  0
ARC
  5
AD
330
93
100
AcDbEntity
  8
$DDT_AUDIT_GENERATED_(A7)
  6
Continuous
 62
     7
100
AcDbCircle
 10
72.8961850795
 20
435.8627684457
 30
0.0
 40
0.5000000000000004
100
AcDbArc
 50
270.0
 51
0.0
  0
ARC
  5
AE
330
93
100
AcDbEntity
  8
$DDT_AUDIT_GENERATED_(A7)
  6
Continuous
 62
     7
100
AcDbCircle
 10
32.5961850795
 20
454.8627684457
 30
0.0
 40
0.5000000000000039
100
AcDbArc
 50
90.0
 51
180.0
  0
ARC
  5
AF
330
93
100
AcDbEntity
  8
$DDT_AUDIT_GENERATED_(A7)
  6
Continuous
 62
     7
100
AcDbCircle
 10
32.5961850795
 20
435.8627684457
 30
0.0
 40
0.5000000000000004
100
AcDbArc
 50
180.0
 51
270.0
  0
LINE
  5
B1
330
93
100
AcDbEntity
  8
$DDT_AUDIT_GENERATED_(B0)
  6
Continuous
 62
     7
100
AcDbLine
 10
230.9461850795
 20
462.0127684457
 30
0.0
 11
254.5461850795
 21
462.0127684457
 31
0.0
  0
LINE
  5
B2
330
93
100
AcDbEntity
  8
$DDT_AUDIT_GENERATED_(B0)
  6
Continuous
 62
     7
100
AcDbLine
 10
231.2461850795
 20
462.3127684457
 30
0.0
 11
254.2461850795
 21
462.3127684457
 31
0.0
  0
LINE
  5
B3
330
93
100
AcDbEntity
  8
$DDT_AUDIT_GENERATED_(B0)
  6
Continuous
 62
     7
100
AcDbLine
 10
231.7461850795
 20
465.5127684457
 30
0.0
 11
253.7461850795
 21
465.5127684457
 31
0.0
  0
LINE
  5
B4
330
93
100
AcDbEntity
  8
$DDT_AUDIT_GENERATED_(B0)
  6
Continuous
 62
     7
100
AcDbLine
 10
230.9461850795
 20
462.0127684457
 30
0.0
 11
230.9985928588
 21
461.0127684457
 31
0.0
  0
LINE
  5
B5
330
93
100
AcDbEntity
  8
$DDT_AUDIT_GENERATED_(B0)
  6
Continuous
 62
     7
100
AcDbLine
 10
254.4937773002
 20
461.0127684457
 30
0.0
 11
254.5461850795
 21
462.0127684457
 31
0.0
  0
LINE
  5
B6
330
93
100
AcDbEntity
  8
$DDT_AUDIT_GENERATED_(B0)
  6
Continuous
 62
     7
100
AcDbLine
 10
254.5461850795
 20
462.0127684457
 30
0.0
 11
254.2461850795
 21
462.3127684457
 31
0.0
  0
LINE
  5
B7
330
93
100
AcDbEntity
  8
$DDT_AUDIT_GENERATED_(B0)
  6
Continuous
 62
     7
100
AcDbLine
 10
231.2461850795
 20
462.3127684457
 30
0.0
 11
230.9461850795
 21
462.0127684457
 31
0.0
  0
LINE
  5
B8
330
93
100
AcDbEntity
  8
$DDT_AUDIT_GENERATED_(B0)
  6
Continuous
 62
     7
100
AcDbLine
 10
231.2461850795
 20
465.0127684457
 30
0.0
 11
231.2461850795
 21
462.3127684457
 31
0.0
  0
LINE
  5
B9
330
93
100
AcDbEntity
  8
$DDT_AUDIT_GENERATED_(B0)
  6
Continuous
 62
     7
100
AcDbLine
 10
254.2461850795
 20
462.3127684457
 30
0.0
 11
254.2461850795
 21
465.0127684457
 31
0.0
  0
ARC
  5
BA
330
93
100
AcDbEntity
  8
$DDT_AUDIT_GENERATED_(B0)
  6
Continuous
 62
     7
100
AcDbCircle
 10
231.7461850795
 20
465.0127684457
 30
0.0
 40
0.5000000000000004
100
AcDbArc
 50
90.0
 51
180.0
  0
ARC
  5
BB
330
93
100
AcDbEntity
  8
$DDT_AUDIT_GENERATED_(B0)
  6
Continuous
 62
     7
100
AcDbCircle
 10
253.7461850795
 20
465.0127684457
 30
0.0
 40
0.5000000000000004
100
AcDbArc
 50
0.0
 51
90.0
  0
LINE
  5
BD
330
93
100
AcDbEntity
  8
$DDT_AUDIT_GENERATED_(BC)
  6
Continuous
 62
     7
100
AcDbLine
 10
232.4961850795
 20
466.5127684457
 30
0.0
 11
232.4961850795
 21
465.5127684457
 31
0.0
  0
LINE
  5
BE
330
93
100
AcDbEntity
  8
$DDT_AUDIT_GENERATED_(BC)
  6
Continuous
 62
     7
100
AcDbLine
 10
252.9961850795
 20
466.5127684457
 30
0.0
 11
252.9961850795
 21
465.5127684457
 31
0.0
  0
SPLINE
  5
BF
330
93
100
AcDbEntity
  8
$DDT_AUDIT_GENERATED_(BC)
  6
Continuous
 62
     7
100
AcDbSpline
210
0.0
220
0.0
230
1.0
 70
    12
 71
     5
 72
    12
 73
     6
 74
     0
 42
0.0000000251373102
 43
0.0000000001
 40
0.0
 40
0.0
 40
0.0
 40
0.0
 40
0.0
 40
0.0
 40
1.0
 40
1.0
 40
1.0
 40
1.0
 40
1.0
 40
1.0
 10
230.7461851737781
 20
672.0127684456891
 30
0.0
 41
1.0
 10
230.7461851746471
 20
672.0956111581621
 30
0.0
 41
1.0
 10
230.7629745098701
 20
672.1745323836321
 30
0.0
 41
1.0
 10
230.7944085624331
 20
672.24738793069
 30
0.0
 41
1.0
 10
230.8383424604341
 20
672.3120325144041
 30
0.0
 41
1.0
 10
230.8926317823161
 20
672.3663218362851
 30
0.0
 41
1.0
  0
SPLINE
  5
C0
330
93
100
AcDbEntity
  8
$DDT_AUDIT_GENERATED_(BC)
  6
Continuous
 62
     7
100
AcDbSpline
210
0.0
220
0.0
230
1.0
 70
    12
 71
     5
 72
    12
 73
     6
 74
     0
 42
0.0000000251373102
 43
0.0000000001
 40
0.0
 40
0.0
 40
0.0
 40
0.0
 40
0.0
 40
0.0
 40
1.0
 40
1.0
 40
1.0
 40
1.0
 40
1.0
 40
1.0
 10
230.8926317823161
 20
672.3663218362851
 30
0.0
 41
1.0
 10
230.9469211041971
 20
672.4206111581661
 30
0.0
 41
1.0
 10
231.0115656879061
 20
672.4645450586901
 30
0.0
 41
1.0
 10
231.0844212349771
 20
672.495979104297
 30
0.0
 41
1.0
 10
231.1633424604341
 20
672.5127684456921
 30
0.0
 41
1.0
 10
231.2461851729091
 20
672.5127684456921
 30
0.0
 41
1.0
  0
SPLINE
  5
C1
330
93
100
AcDbEntity
  8
$DDT_AUDIT_GENERATED_(BC)
  6
Continuous
 62
     7
100
AcDbSpline
210
0.0
220
0.0
230
1.0
 70
    12
 71
     5
 72
    12
 73
     6
 74
     0
 42
0.0000000251373102
 43
0.0000000001
 40
0.0
 40
0.0
 40
0.0
 40
0.0
 40
0.0
 40
0.0
 40
1.0
 40
1.0
 40
1.0
 40
1.0
 40
1.0
 40
1.0
 10
230.8926317823161
 20
466.6592150550981
 30
0.0
 41
1.0
 10
230.8383424604351
 20
466.7135043769791
 30
0.0
 41
1.0
 10
230.7944085599131
 20
466.778148960688
 30
0.0
 41
1.0
 10
230.7629745143021
 20
466.8510045077581
 30
0.0
 41
1.0
 10
230.7461851729091
 20
466.9299257332161
 30
0.0
 41
1.0
 10
230.7461853514953
 20
467.0127684456903
 30
0.0
 41
1.0
  0
SPLINE
  5
C2
330
93
100
AcDbEntity
  8
$DDT_AUDIT_GENERATED_(BC)
  6
Continuous
 62
     7
100
AcDbSpline
210
0.0
220
0.0
230
1.0
 70
    12
 71
     5
 72
    12
 73
     6
 74
     0
 42
0.0000000251373102
 43
0.0000000001
 40
0.0
 40
0.0
 40
0.0
 40
0.0
 40
0.0
 40
0.0
 40
1.0
 40
1.0
 40
1.0
 40
1.0
 40
1.0
 40
1.0
 10
254.5997385635021
 20
466.6592150550981
 30
0.0
 41
1.0
 10
254.5454492416212
 20
466.6049257332171
 30
0.0
 41
1.0
 10
254.4808046579121
 20
466.560991832695
 30
0.0
 41
1.0
 10
254.4079491108411
 20
466.529557787085
 30
0.0
 41
1.0
 10
254.3290278853841
 20
466.5127684456921
 30
0.0
 41
1.0
 10
254.2461851729091
 20
466.5127684456921
 30
0.0
 41
1.0
  0
SPLINE
  5
C3
330
93
100
AcDbEntity
  8
$DDT_AUDIT_GENERATED_(BC)
  6
Continuous
 62
     7
100
AcDbSpline
210
0.0
220
0.0
230
1.0
 70
    12
 71
     5
 72
    12
 73
     6
 74
     0
 42
0.0000000251373102
 43
0.0000000001
 40
0.0
 40
0.0
 40
0.0
 40
0.0
 40
0.0
 40
0.0
 40
1.0
 40
1.0
 40
1.0
 40
1.0
 40
1.0
 40
1.0
 10
254.7461851724746
 20
672.012768445692
 30
0.0
 41
1.0
 10
254.7461851729092
 20
672.0956111581661
 30
0.0
 41
1.0
 10
254.7293958315161
 20
672.1745323836232
 30
0.0
 41
1.0
 10
254.6979617859051
 20
672.247387930696
 30
0.0
 41
1.0
 10
254.6540278853842
 20
672.3120325144041
 30
0.0
 41
1.0
 10
254.5997385635021
 20
672.3663218362851
 30
0.0
 41
1.0
  0
SPLINE
  5
C4
330
93
100
AcDbEntity
  8
$DDT_AUDIT_GENERATED_(BC)
  6
Continuous
 62
     7
100
AcDbSpline
210
0.0
220
0.0
230
1.0
 70
    12
 71
     5
 72
    12
 73
     6
 74
     0
 42
0.0000000251373102
 43
0.0000000001
 40
0.0
 40
0.0
 40
0.0
 40
0.0
 40
0.0
 40
0.0
 40
1.0
 40
1.0
 40
1.0
 40
1.0
 40
1.0
 40
1.0
 10
254.5997385635021
 20
672.3663218362851
 30
0.0
 41
1.0
 10
254.5454492416212
 20
672.420611158167
 30
0.0
 41
1.0
 10
254.4808046579121
 20
672.4645450586901
 30
0.0
 41
1.0
 10
254.4079491108411
 20
672.495979104297
 30
0.0
 41
1.0
 10
254.3290278853841
 20
672.5127684456921
 30
0.0
 41
1.0
 10
254.2461851729091
 20
672.5127684456921
 30
0.0
 41
1.0
  0
SPLINE
  5
C5
330
93
100
AcDbEntity
  8
$DDT_AUDIT_GENERATED_(BC)
  6
Continuous
 62
     7
100
AcDbSpline
210
0.0
220
0.0
230
1.0
 70
    12
 71
     5
 72
    12
 73
     6
 74
     0
 42
0.0000000251373102
 43
0.0000000001
 40
0.0
 40
0.0
 40
0.0
 40
0.0
 40
0.0
 40
0.0
 40
1.0
 40
1.0
 40
1.0
 40
1.0
 40
1.0
 40
1.0
 10
230.8926317823161
 20
466.6592150550981
 30
0.0
 41
1.0
 10
230.9469211041981
 20
466.6049257332171
 30
0.0
 41
1.0
 10
231.0115656879061
 20
466.560991832695
 30
0.0
 41
1.0
 10
231.0844212349771
 20
466.529557787085
 30
0.0
 41
1.0
 10
231.1633424604351
 20
466.5127684456921
 30
0.0
 41
1.0
 10
231.2461851729091
 20
466.5127684456921
 30
0.0
 41
1.0
  0
SPLINE
  5
C6
330
93
100
AcDbEntity
  8
$DDT_AUDIT_GENERATED_(BC)
  6
Continuous
 62
     7
100
AcDbSpline
210
0.0
220
0.0
230
1.0
 70
    12
 71
     5
 72
    12
 73
     6
 74
     0
 42
0.0000000251373088
 43
0.0000000001
 40
0.0
 40
0.0
 40
0.0
 40
0.0
 40
0.0
 40
0.0
 40
1.0
 40
1.0
 40
1.0
 40
1.0
 40
1.0
 40
1.0
 10
254.5997385635021
 20
466.6592150550981
 30
0.0
 41
1.0
 10
254.6540278853832
 20
466.7135043769791
 30
0.0
 41
1.0
 10
254.6979607501112
 20
466.778148960688
 30
0.0
 41
1.0
 10
254.7293976530881
 20
466.8510045077551
 30
0.0
 41
1.0
 10
254.7461844585651
 20
466.929925733215
 30
0.0
 41
1.0
 10
254.7461848157371
 20
467.0127684456893
 30
0.0
 41
1.0
  0
LINE
  5
C7
330
93
100
AcDbEntity
  8
$DDT_AUDIT_GENERATED_(BC)
  6
Continuous
 62
     7
100
AcDbLine
 10
254.2461851729
 20
466.5127684457
 30
0.0
 11
231.2461851729
 21
466.5127684457
 31
0.0
  0
LINE
  5
C8
330
93
100
AcDbEntity
  8
$DDT_AUDIT_GENERATED_(BC)
  6
Continuous
 62
     7
100
AcDbLine
 10
231.2461851729
 20
672.5127684457
 30
0.0
 11
254.2461851729
 21
672.5127684457
 31
0.0
  0
LINE
  5
C9
330
93
100
AcDbEntity
  8
$DDT_AUDIT_GENERATED_(BC)
  6
Continuous
 62
     7
100
AcDbLine
 10
254.7461851729
 20
672.0127684457
 30
0.0
 11
254.7461851729
 21
467.0127684457
 31
0.0
  0
LINE
  5
CA
330
93
100
AcDbEntity
  8
$DDT_AUDIT_GENERATED_(BC)
  6
Continuous
 62
     7
100
AcDbLine
 10
230.7461851729
 20
467.0127684457
 30
0.0
 11
230.7461851729
 21
672.0127684457
 31
0.0
  0
SPLINE
  5
CB
330
93
100
AcDbEntity
  8
$DDT_AUDIT_GENERATED_(BC)
  6
Continuous
 62
     7
100
AcDbSpline
210
0.0
220
0.0
230
1.0
 70
    12
 71
     5
 72
    18
 73
    12
 74
     0
 42
0.0000000023033548
 43
0.0000000001
 40
0.2196181047021585
 40
0.2196181047021585
 40
0.2196181047021585
 40
0.2196181047021585
 40
0.2196181047021585
 40
0.2196181047021585
 40
0.2499999999994104
 40
0.3772727272729524
 40
0.4999999999988208
 40
0.6272727272723627
 40
0.7500000000005896
 40
0.8772727272717731
 40
1.0
 40
1.0
 40
1.0
 40
1.0
 40
1.0
 40
1.0
 10
239.6369680795541
 20
631.3039097720779
 30
0.0
 41
1.0
 10
239.6170989146837
 20
631.287506484409
 30
0.0
 41
1.0
 10
239.5160302468838
 20
631.1999264103001
 30
0.0
 41
1.0
 10
239.3557588068091
 20
631.0220524626471
 30
0.0
 41
1.0
 10
239.1821029963284
 20
630.7147940540272
 30
0.0
 41
1.0
 10
239.0932758250681
 20
630.258721778257
 30
0.0
 41
1.0
 10
239.2022362102961
 20
629.7203788875171
 30
0.0
 41
1.0
 10
239.5069973335741
 20
629.267863506746
 30
0.0
 41
1.0
 10
239.8719119294319
 20
629.025906575972
 30
0.0
 41
1.0
 10
240.1800459636022
 20
628.933361767431
 30
0.0
 41
1.0
 10
240.3920815464312
 20
628.9129241082271
 30
0.0
 41
1.0
 10
240.4961733202324
 20
628.9129245939201
 30
0.0
 41
1.0
  0
SPLINE
  5
CC
330
93
100
AcDbEntity
  8
$DDT_AUDIT_GENERATED_(BC)
  6
Continuous
 62
     7
100
AcDbSpline
210
0.0
220
0.0
230
1.0
 70
    12
 71
     5
 72
    19
 73
    13
 74
     0
 42
0.0000000022985083
 43
0.0000000001
 40
0.0
 40
0.0
 40
0.0
 40
0.0
 40
0.0
 40
0.0
 40
0.1272727272735419
 40
0.2499999999994106
 40
0.3727272727276371
 40
0.4999999999988207
 40
0.6227272727270475
 40
0.7500000000005895
 40
0.8727272727264579
 40
1.0
 40
1.0
 40
1.0
 40
1.0
 40
1.0
 40
1.0
 10
240.4961733202324
 20
628.9129245939201
 30
0.0
 41
1.0
 10
240.6041203449151
 20
628.9129250976031
 30
0.0
 41
1.0
 10
240.8161624781481
 20
628.9341217225441
 30
0.0
 41
1.0
 10
241.1240301816812
 20
629.0277956683311
 30
0.0
 41
1.0
 10
241.4878994026721
 20
629.2710179512841
 30
0.0
 41
1.0
 10
241.7909310031382
 20
629.724277762225
 30
0.0
 41
1.0
 10
241.8990600222351
 20
630.258727194078
 30
0.0
 41
1.0
 10
241.7948035344091
 20
630.7941917488441
 30
0.0
 41
1.0
 10
241.4908197194941
 20
631.2519206990021
 30
0.0
 41
1.0
 10
241.1281814280771
 20
631.49673574998
 30
0.0
 41
1.0
 10
240.8156633888771
 20
631.5913246688151
 30
0.0
 41
1.0
 10
240.6045625345641
 20
631.612720806457
 30
0.0
 41
1.0
 10
240.4961771729091
 20
631.612720806457
 30
0.0
 41
1.0
  0
SPLINE
  5
CD
330
93
100
AcDbEntity
  8
$DDT_AUDIT_GENERATED_(BC)
  6
Continuous
 62
     7
100
AcDbSpline
210
0.0
220
0.0
230
1.0
 70
    12
 71
     5
 72
    18
 73
    12
 74
     0
 42
0.0000000023033936
 43
0.0000000001
 40
0.2192829091147677
 40
0.2192829091147677
 40
0.2192829091147677
 40
0.2192829091147677
 40
0.2192829091147677
 40
0.2192829091147677
 40
0.2499999999994104
 40
0.3727272727278088
 40
0.4999999999988208
 40
0.6227272727272191
 40
0.749999999998231
 40
0.8727272727266294
 40
1.0
 40
1.0
 40
1.0
 40
1.0
 40
1.0
 40
1.0
 10
244.1380658932895
 20
638.8048095296004
 30
0.0
 41
1.0
 10
244.1179603262572
 20
638.7882459841809
 30
0.0
 41
1.0
 10
244.0195241648306
 20
638.7030803374575
 30
0.0
 41
1.0
 10
243.8584022791405
 20
638.5257170096144
 30
0.0
 41
1.0
 10
243.6853742592581
 20
638.2223817073931
 30
0.0
 41
1.0
 10
243.5932930668821
 20
637.766778621563
 30
0.0
 41
1.0
 10
243.6976479821221
 20
637.2314453362591
 30
0.0
 41
1.0
 10
244.0013029589231
 20
636.7735596861671
 30
0.0
 41
1.0
 10
244.3645718444126
 20
636.528949051768
 30
0.0
 41
1.0
 10
244.6761932329838
 20
636.434125739463
 30
0.0
 41
1.0
 10
244.8882353063501
 20
636.4129257603511
 30
0.0
 41
1.0
 10
244.9961823681692
 20
636.412924380591
 30
0.0
 41
1.0
  0
SPLINE
  5
CE
330
93
100
AcDbEntity
  8
$DDT_AUDIT_GENERATED_(BC)
  6
Continuous
 62
     7
100
AcDbSpline
210
0.0
220
0.0
230
1.0
 70
    12
 71
     5
 72
    19
 73
    13
 74
     0
 42
0.0000000022982483
 43
0.0000000001
 40
0.0
 40
0.0
 40
0.0
 40
0.0
 40
0.0
 40
0.0
 40
0.1227272727263293
 40
0.2500000000000001
 40
0.372727272726329
 40
0.4999999999999999
 40
0.6227272727263291
 40
0.7499999999999999
 40
0.8727272727263291
 40
1.0
 40
1.0
 40
1.0
 40
1.0
 40
1.0
 40
1.0
 10
244.9961823681692
 20
636.412924380591
 30
0.0
 41
1.0
 10
245.1002741777789
 20
636.4129230501092
 30
0.0
 41
1.0
 10
245.312309961627
 20
636.43336056342
 30
0.0
 41
1.0
 10
245.6204443842706
 20
636.525912702348
 30
0.0
 41
1.0
 10
245.9853561191421
 20
636.7678609645081
 30
0.0
 41
1.0
 10
246.2901221920431
 20
637.220379651498
 30
0.0
 41
1.0
 10
246.3990747606421
 20
637.7587256558631
 30
0.0
 41
1.0
 10
246.2947944659021
 20
638.2941937181541
 30
0.0
 41
1.0
 10
245.9908294449161
 20
638.7519193643691
 30
0.0
 41
1.0
 10
245.6281768189322
 20
638.996736793878
 30
0.0
 41
1.0
 10
245.3156674678631
 20
639.091324249631
 30
0.0
 41
1.0
 10
245.1045636864071
 20
639.1127208064571
 30
0.0
 41
1.0
 10
244.9961786729091
 20
639.1127208064571
 30
0.0
 41
1.0
  0
SPLINE
  5
CF
330
93
100
AcDbEntity
  8
$DDT_AUDIT_GENERATED_(BC)
  6
Continuous
 62
     7
100
AcDbSpline
210
0.0
220
0.0
230
1.0
 70
    12
 71
     5
 72
    18
 73
    12
 74
     0
 42
0.0000000023033936
 43
0.0000000001
 40
0.2192829090773039
 40
0.2192829090773039
 40
0.2192829090773039
 40
0.2192829090773039
 40
0.2192829090773039
 40
0.2192829090773039
 40
0.2499999999994104
 40
0.3727272727278088
 40
0.4999999999988208
 40
0.6227272727272191
 40
0.749999999998231
 40
0.8727272727266294
 40
1.0
 40
1.0
 40
1.0
 40
1.0
 40
1.0
 40
1.0
 10
244.1380658934121
 20
646.3048095297015
 30
0.0
 41
1.0
 10
244.1179603263534
 20
646.288245984264
 30
0.0
 41
1.0
 10
244.0195241648951
 20
646.2030803375287
 30
0.0
 41
1.0
 10
243.8584022791727
 20
646.0257170096709
 30
0.0
 41
1.0
 10
243.6853742592646
 20
645.7223817074254
 30
0.0
 41
1.0
 10
243.5932930668821
 20
645.2667786215632
 30
0.0
 41
1.0
 10
243.6976479821221
 20
644.7314453362591
 30
0.0
 41
1.0
 10
244.0013029589231
 20
644.2735596861671
 30
0.0
 41
1.0
 10
244.3645718444126
 20
644.0289490517681
 30
0.0
 41
1.0
 10
244.6761932329838
 20
643.9341257394631
 30
0.0
 41
1.0
 10
244.8882353063501
 20
643.9129257603511
 30
0.0
 41
1.0
 10
244.9961823681692
 20
643.9129243805911
 30
0.0
 41
1.0
  0
SPLINE
  5
D0
330
93
100
AcDbEntity
  8
$DDT_AUDIT_GENERATED_(BC)
  6
Continuous
 62
     7
100
AcDbSpline
210
0.0
220
0.0
230
1.0
 70
    12
 71
     5
 72
    19
 73
    13
 74
     0
 42
0.0000000022982483
 43
0.0000000001
 40
0.0
 40
0.0
 40
0.0
 40
0.0
 40
0.0
 40
0.0
 40
0.1227272727263293
 40
0.2500000000000001
 40
0.372727272726329
 40
0.4999999999999999
 40
0.6227272727263291
 40
0.7499999999999999
 40
0.8727272727263291
 40
1.0
 40
1.0
 40
1.0
 40
1.0
 40
1.0
 40
1.0
 10
244.9961823681692
 20
643.9129243805911
 30
0.0
 41
1.0
 10
245.1002741777789
 20
643.912923050109
 30
0.0
 41
1.0
 10
245.312309961627
 20
643.9333605634201
 30
0.0
 41
1.0
 10
245.6204443842706
 20
644.0259127023481
 30
0.0
 41
1.0
 10
245.9853561191421
 20
644.267860964508
 30
0.0
 41
1.0
 10
246.2901221920431
 20
644.7203796514981
 30
0.0
 41
1.0
 10
246.3990747606421
 20
645.258725655863
 30
0.0
 41
1.0
 10
246.2947944659021
 20
645.794193718154
 30
0.0
 41
1.0
 10
245.9908294449161
 20
646.2519193643691
 30
0.0
 41
1.0
 10
245.6281768189322
 20
646.4967367938781
 30
0.0
 41
1.0
 10
245.3156674678631
 20
646.591324249631
 30
0.0
 41
1.0
 10
245.1045636864071
 20
646.612720806457
 30
0.0
 41
1.0
 10
244.9961786729091
 20
646.612720806457
 30
0.0
 41
1.0
  0
SPLINE
  5
D1
330
93
100
AcDbEntity
  8
$DDT_AUDIT_GENERATED_(BC)
  6
Continuous
 62
     7
100
AcDbSpline
210
0.0
220
0.0
230
1.0
 70
    12
 71
     5
 72
    18
 73
    12
 74
     0
 42
0.0000000023033548
 43
0.0000000001
 40
0.2196181046994939
 40
0.2196181046994939
 40
0.2196181046994939
 40
0.2196181046994939
 40
0.2196181046994939
 40
0.2196181046994939
 40
0.2499999999994104
 40
0.3772727272729524
 40
0.4999999999988208
 40
0.6272727272723627
 40
0.7500000000005896
 40
0.8772727272717731
 40
1.0
 40
1.0
 40
1.0
 40
1.0
 40
1.0
 40
1.0
 10
239.6369680795628
 20
638.803909772085
 30
0.0
 41
1.0
 10
239.6170989146906
 20
638.787506484415
 30
0.0
 41
1.0
 10
239.5160302468883
 20
638.699926410305
 30
0.0
 41
1.0
 10
239.3557588068114
 20
638.5220524626511
 30
0.0
 41
1.0
 10
239.1821029963288
 20
638.2147940540294
 30
0.0
 41
1.0
 10
239.0932758250681
 20
637.7587217782572
 30
0.0
 41
1.0
 10
239.2022362102961
 20
637.2203788875171
 30
0.0
 41
1.0
 10
239.5069973335741
 20
636.767863506746
 30
0.0
 41
1.0
 10
239.8719119294319
 20
636.525906575972
 30
0.0
 41
1.0
 10
240.1800459636022
 20
636.433361767431
 30
0.0
 41
1.0
 10
240.3920815464312
 20
636.412924108227
 30
0.0
 41
1.0
 10
240.4961733202324
 20
636.41292459392
 30
0.0
 41
1.0
  0
SPLINE
  5
D2
330
93
100
AcDbEntity
  8
$DDT_AUDIT_GENERATED_(BC)
  6
Continuous
 62
     7
100
AcDbSpline
210
0.0
220
0.0
230
1.0
 70
    12
 71
     5
 72
    19
 73
    13
 74
     0
 42
0.0000000022985083
 43
0.0000000001
 40
0.0
 40
0.0
 40
0.0
 40
0.0
 40
0.0
 40
0.0
 40
0.1272727272735419
 40
0.2499999999994106
 40
0.3727272727276371
 40
0.4999999999988207
 40
0.6227272727270475
 40
0.7500000000005895
 40
0.8727272727264579
 40
1.0
 40
1.0
 40
1.0
 40
1.0
 40
1.0
 40
1.0
 10
240.4961733202324
 20
636.41292459392
 30
0.0
 41
1.0
 10
240.6041203449151
 20
636.4129250976031
 30
0.0
 41
1.0
 10
240.8161624781481
 20
636.4341217225441
 30
0.0
 41
1.0
 10
241.1240301816812
 20
636.527795668331
 30
0.0
 41
1.0
 10
241.4878994026721
 20
636.7710179512841
 30
0.0
 41
1.0
 10
241.7909310031382
 20
637.224277762225
 30
0.0
 41
1.0
 10
241.8990600222351
 20
637.758727194078
 30
0.0
 41
1.0
 10
241.7948035344091
 20
638.294191748844
 30
0.0
 41
1.0
 10
241.4908197194941
 20
638.7519206990021
 30
0.0
 41
1.0
 10
241.1281814280771
 20
638.9967357499801
 30
0.0
 41
1.0
 10
240.8156633888771
 20
639.091324668815
 30
0.0
 41
1.0
 10
240.6045625345641
 20
639.1127208064571
 30
0.0
 41
1.0
 10
240.4961771729091
 20
639.1127208064571
 30
0.0
 41
1.0
  0
SPLINE
  5
D3
330
93
100
AcDbEntity
  8
$DDT_AUDIT_GENERATED_(BC)
  6
Continuous
 62
     7
100
AcDbSpline
210
0.0
220
0.0
230
1.0
 70
    12
 71
     5
 72
    18
 73
    12
 74
     0
 42
0.000000002303372
 43
0.0000000001
 40
0.2201319522616628
 40
0.2201319522616628
 40
0.2201319522616628
 40
0.2201319522616628
 40
0.2201319522616628
 40
0.2201319522616628
 40
0.2499999999994104
 40
0.3727272727276372
 40
0.4999999999988208
 40
0.6272727272723627
 40
0.7500000000005896
 40
0.8727272727264579
 40
1.0
 40
1.0
 40
1.0
 40
1.0
 40
1.0
 40
1.0
 10
248.8852929170614
 20
638.8025193116351
 30
0.0
 41
1.0
 10
248.8657863951702
 20
638.7863620029949
 30
0.0
 41
1.0
 10
248.7680671964316
 20
638.7014755288742
 30
0.0
 41
1.0
 10
248.6076794268399
 20
638.5244454722539
 30
0.0
 41
1.0
 10
248.4332821095661
 20
638.2182177863596
 30
0.0
 41
1.0
 10
248.3428630049831
 20
637.7627545476001
 30
0.0
 41
1.0
 10
248.4492212058321
 20
637.227603892899
 30
0.0
 41
1.0
 10
248.7544549585911
 20
636.771007628505
 30
0.0
 41
1.0
 10
249.1183282612134
 20
636.52780146315
 30
0.0
 41
1.0
 10
249.4261959606343
 20
636.4341229211881
 30
0.0
 41
1.0
 10
249.6382376856477
 20
636.4129252879051
 30
0.0
 41
1.0
 10
249.7461845103136
 20
636.4129247970822
 30
0.0
 41
1.0
  0
SPLINE
  5
D4
330
93
100
AcDbEntity
  8
$DDT_AUDIT_GENERATED_(BC)
  6
Continuous
 62
     7
100
AcDbSpline
210
0.0
220
0.0
230
1.0
 70
    12
 71
     5
 72
    19
 73
    13
 74
     0
 42
0.0000000022979082
 43
0.0000000001
 40
0.0
 40
0.0
 40
0.0
 40
0.0
 40
0.0
 40
0.0
 40
0.1227272727282268
 40
0.2499999999994106
 40
0.3727272727276371
 40
0.4999999999988207
 40
0.6272727272723628
 40
0.7500000000005895
 40
0.8772727272717732
 40
1.0
 40
1.0
 40
1.0
 40
1.0
 40
1.0
 40
1.0
 10
249.7461845103136
 20
636.4129247970822
 30
0.0
 41
1.0
 10
249.8502760912416
 20
636.412924323787
 30
0.0
 41
1.0
 10
250.0623112959626
 20
636.433363004935
 30
0.0
 41
1.0
 10
250.3704454375086
 20
636.5259123005621
 30
0.0
 41
1.0
 10
250.7353637555732
 20
636.7678532171672
 30
0.0
 41
1.0
 10
251.0423402094351
 20
637.2236995968522
 30
0.0
 41
1.0
 10
251.1495167200181
 20
637.7627493999911
 30
0.0
 41
1.0
 10
251.0424396578491
 20
638.3019541132621
 30
0.0
 41
1.0
 10
250.7351169437042
 20
638.757603795779
 30
0.0
 41
1.0
 10
250.3708634497901
 20
638.9998018662241
 30
0.0
 41
1.0
 10
250.0617823448751
 20
639.0920691482871
 30
0.0
 41
1.0
 10
249.8507333888801
 20
639.1127218064571
 30
0.0
 41
1.0
 10
249.7461806729092
 20
639.1127218064571
 30
0.0
 41
1.0
  0
SPLINE
  5
D5
330
93
100
AcDbEntity
  8
$DDT_AUDIT_GENERATED_(BC)
  6
Continuous
 62
     7
100
AcDbSpline
210
0.0
220
0.0
230
1.0
 70
    12
 71
     5
 72
    19
 73
    13
 74
     0
 42
0.0000000022983432
 43
0.0000000001
 40
0.0
 40
0.0
 40
0.0
 40
0.0
 40
0.0
 40
0.0
 40
0.1261261261261259
 40
0.2477477477469935
 40
0.373873873872907
 40
0.4999999999988208
 40
0.6261261261270928
 40
0.7477477477481727
 40
0.8738738738740862
 40
1.0
 40
1.0
 40
1.0
 40
1.0
 40
1.0
 40
1.0
 10
235.7461756729091
 20
654.112719306457
 30
0.0
 41
1.0
 10
235.6387536869351
 20
654.112719306457
 30
0.0
 41
1.0
 10
235.4295788516181
 20
654.0916987837561
 30
0.0
 41
1.0
 10
235.1197129044131
 20
653.998823997964
 30
0.0
 41
1.0
 10
234.7559837062671
 20
653.7560691641561
 30
0.0
 41
1.0
 10
234.4500527056811
 20
653.3008146734501
 30
0.0
 41
1.0
 10
234.3430731854882
 20
652.76663115512
 30
0.0
 41
1.0
 10
234.4490095958391
 20
652.2286721411591
 30
0.0
 41
1.0
 10
234.7528408861421
 20
651.7723060468771
 30
0.0
 41
1.0
 10
235.1164544078615
 20
651.528360284144
 30
0.0
 41
1.0
 10
235.4252511032604
 20
651.4341147017441
 30
0.0
 41
1.0
 10
235.6392002672015
 20
651.412920693586
 30
0.0
 41
1.0
 10
235.7461753606171
 20
651.4129215996921
 30
0.0
 41
1.0
  0
SPLINE
  5
D6
330
93
100
AcDbEntity
  8
$DDT_AUDIT_GENERATED_(BC)
  6
Continuous
 62
     7
100
AcDbSpline
210
0.0
220
0.0
230
1.0
 70
    12
 71
     5
 72
    19
 73
    13
 74
     0
 42
0.0000000022983437
 43
0.0000000001
 40
0.0
 40
0.0
 40
0.0
 40
0.0
 40
0.0
 40
0.0
 40
0.1261261261259136
 40
0.2477477477469933
 40
0.3738738738729072
 40
0.4999999999988207
 40
0.6261261261270927
 40
0.7477477477481725
 40
0.8738738738740864
 40
1.0
 40
1.0
 40
1.0
 40
1.0
 40
1.0
 40
1.0
 10
235.7461753606171
 20
651.4129215996921
 30
0.0
 41
1.0
 10
235.8531504540328
 20
651.4129225057991
 30
0.0
 41
1.0
 10
236.0632811064376
 20
651.4337416092291
 30
0.0
 41
1.0
 10
236.3722351208509
 20
651.526865502621
 30
0.0
 41
1.0
 10
236.7366061147511
 20
651.7693995368052
 30
0.0
 41
1.0
 10
237.0422026982471
 20
652.2248234130531
 30
0.0
 41
1.0
 10
237.1492776840631
 20
652.7588691172631
 30
0.0
 41
1.0
 10
237.0434375113681
 20
653.296971513099
 30
0.0
 41
1.0
 10
236.7392714214231
 20
653.753148895135
 30
0.0
 41
1.0
 10
236.3763032330971
 20
653.9973483090411
 30
0.0
 41
1.0
 10
236.0665857852661
 20
654.0913123996801
 30
0.0
 41
1.0
 10
235.8535943718412
 20
654.112719306457
 30
0.0
 41
1.0
 10
235.7461756729091
 20
654.112719306457
 30
0.0
 41
1.0
  0
SPLINE
  5
D7
330
93
100
AcDbEntity
  8
$DDT_AUDIT_GENERATED_(BC)
  6
Continuous
 62
     7
100
AcDbSpline
210
0.0
220
0.0
230
1.0
 70
    12
 71
     5
 72
    19
 73
    13
 74
     0
 42
0.0000000022983432
 43
0.0000000001
 40
0.0
 40
0.0
 40
0.0
 40
0.0
 40
0.0
 40
0.0
 40
0.1261261261261259
 40
0.2477477477469935
 40
0.373873873872907
 40
0.4999999999988208
 40
0.6261261261270928
 40
0.7477477477481727
 40
0.8738738738740862
 40
1.0
 40
1.0
 40
1.0
 40
1.0
 40
1.0
 40
1.0
 10
235.7461756729091
 20
616.6127193064572
 30
0.0
 41
1.0
 10
235.6387536869351
 20
616.6127193064572
 30
0.0
 41
1.0
 10
235.4295788516181
 20
616.5916987837561
 30
0.0
 41
1.0
 10
235.1197129044131
 20
616.4988239979641
 30
0.0
 41
1.0
 10
234.7559837062671
 20
616.2560691641561
 30
0.0
 41
1.0
 10
234.4500527056811
 20
615.8008146734501
 30
0.0
 41
1.0
 10
234.3430731854882
 20
615.2666311551201
 30
0.0
 41
1.0
 10
234.4490095958391
 20
614.7286721411591
 30
0.0
 41
1.0
 10
234.7528408861421
 20
614.2723060468771
 30
0.0
 41
1.0
 10
235.1164544078615
 20
614.0283602841441
 30
0.0
 41
1.0
 10
235.4252511032604
 20
613.9341147017441
 30
0.0
 41
1.0
 10
235.6392002672015
 20
613.9129206935861
 30
0.0
 41
1.0
 10
235.7461753606171
 20
613.912921599692
 30
0.0
 41
1.0
  0
SPLINE
  5
D8
330
93
100
AcDbEntity
  8
$DDT_AUDIT_GENERATED_(BC)
  6
Continuous
 62
     7
100
AcDbSpline
210
0.0
220
0.0
230
1.0
 70
    12
 71
     5
 72
    19
 73
    13
 74
     0
 42
0.0000000022983437
 43
0.0000000001
 40
0.0
 40
0.0
 40
0.0
 40
0.0
 40
0.0
 40
0.0
 40
0.1261261261259136
 40
0.2477477477469933
 40
0.3738738738729072
 40
0.4999999999988207
 40
0.6261261261270927
 40
0.7477477477481725
 40
0.8738738738740864
 40
1.0
 40
1.0
 40
1.0
 40
1.0
 40
1.0
 40
1.0
 10
235.7461753606171
 20
613.912921599692
 30
0.0
 41
1.0
 10
235.8531504540328
 20
613.9129225057991
 30
0.0
 41
1.0
 10
236.0632811064376
 20
613.9337416092291
 30
0.0
 41
1.0
 10
236.3722351208509
 20
614.026865502621
 30
0.0
 41
1.0
 10
236.7366061147511
 20
614.269399536805
 30
0.0
 41
1.0
 10
237.0422026982471
 20
614.7248234130532
 30
0.0
 41
1.0
 10
237.1492776840631
 20
615.258869117263
 30
0.0
 41
1.0
 10
237.0434375113681
 20
615.796971513099
 30
0.0
 41
1.0
 10
236.7392714214231
 20
616.253148895135
 30
0.0
 41
1.0
 10
236.3763032330971
 20
616.4973483090411
 30
0.0
 41
1.0
 10
236.0665857852661
 20
616.5913123996801
 30
0.0
 41
1.0
 10
235.8535943718412
 20
616.6127193064572
 30
0.0
 41
1.0
 10
235.7461756729091
 20
616.6127193064572
 30
0.0
 41
1.0
  0
SPLINE
  5
D9
330
93
100
AcDbEntity
  8
$DDT_AUDIT_GENERATED_(BC)
  6
Continuous
 62
     7
100
AcDbSpline
210
0.0
220
0.0
230
1.0
 70
    12
 71
     5
 72
    18
 73
    12
 74
     0
 42
0.0000000023033936
 43
0.0000000001
 40
0.2192829091118885
 40
0.2192829091118885
 40
0.2192829091118885
 40
0.2192829091118885
 40
0.2192829091118885
 40
0.2192829091118885
 40
0.2499999999994104
 40
0.3727272727278088
 40
0.4999999999988208
 40
0.6227272727272191
 40
0.749999999998231
 40
0.8727272727266294
 40
1.0
 40
1.0
 40
1.0
 40
1.0
 40
1.0
 40
1.0
 10
244.1380658932989
 20
623.8048095296083
 30
0.0
 41
1.0
 10
244.1179603262646
 20
623.7882459841873
 30
0.0
 41
1.0
 10
244.0195241648356
 20
623.7030803374631
 30
0.0
 41
1.0
 10
243.858402279143
 20
623.5257170096187
 30
0.0
 41
1.0
 10
243.6853742592586
 20
623.2223817073956
 30
0.0
 41
1.0
 10
243.5932930668821
 20
622.766778621563
 30
0.0
 41
1.0
 10
243.6976479821221
 20
622.2314453362591
 30
0.0
 41
1.0
 10
244.0013029589231
 20
621.7735596861671
 30
0.0
 41
1.0
 10
244.3645718444126
 20
621.528949051768
 30
0.0
 41
1.0
 10
244.6761932329838
 20
621.4341257394631
 30
0.0
 41
1.0
 10
244.8882353063501
 20
621.412925760351
 30
0.0
 41
1.0
 10
244.9961823681692
 20
621.412924380591
 30
0.0
 41
1.0
  0
SPLINE
  5
DA
330
93
100
AcDbEntity
  8
$DDT_AUDIT_GENERATED_(BC)
  6
Continuous
 62
     7
100
AcDbSpline
210
0.0
220
0.0
230
1.0
 70
    12
 71
     5
 72
    19
 73
    13
 74
     0
 42
0.0000000022982483
 43
0.0000000001
 40
0.0
 40
0.0
 40
0.0
 40
0.0
 40
0.0
 40
0.0
 40
0.1227272727263293
 40
0.2500000000000001
 40
0.372727272726329
 40
0.4999999999999999
 40
0.6227272727263291
 40
0.7499999999999999
 40
0.8727272727263291
 40
1.0
 40
1.0
 40
1.0
 40
1.0
 40
1.0
 40
1.0
 10
244.9961823681692
 20
621.412924380591
 30
0.0
 41
1.0
 10
245.1002741777789
 20
621.412923050109
 30
0.0
 41
1.0
 10
245.312309961627
 20
621.4333605634201
 30
0.0
 41
1.0
 10
245.6204443842706
 20
621.525912702348
 30
0.0
 41
1.0
 10
245.9853561191421
 20
621.7678609645081
 30
0.0
 41
1.0
 10
246.2901221920431
 20
622.220379651498
 30
0.0
 41
1.0
 10
246.3990747606421
 20
622.7587256558631
 30
0.0
 41
1.0
 10
246.2947944659021
 20
623.2941937181541
 30
0.0
 41
1.0
 10
245.9908294449161
 20
623.751919364369
 30
0.0
 41
1.0
 10
245.6281768189322
 20
623.9967367938781
 30
0.0
 41
1.0
 10
245.3156674678631
 20
624.091324249631
 30
0.0
 41
1.0
 10
245.1045636864071
 20
624.1127208064571
 30
0.0
 41
1.0
 10
244.9961786729091
 20
624.1127208064571
 30
0.0
 41
1.0
  0
SPLINE
  5
DB
330
93
100
AcDbEntity
  8
$DDT_AUDIT_GENERATED_(BC)
  6
Continuous
 62
     7
100
AcDbSpline
210
0.0
220
0.0
230
1.0
 70
    12
 71
     5
 72
    18
 73
    12
 74
     0
 42
0.0000000023033936
 43
0.0000000001
 40
0.2192829090911739
 40
0.2192829090911739
 40
0.2192829090911739
 40
0.2192829090911739
 40
0.2192829090911739
 40
0.2192829090911739
 40
0.2499999999994104
 40
0.3727272727278088
 40
0.4999999999988208
 40
0.6227272727272191
 40
0.749999999998231
 40
0.8727272727266294
 40
1.0
 40
1.0
 40
1.0
 40
1.0
 40
1.0
 40
1.0
 10
244.1380658933667
 20
608.804805529716
 30
0.0
 41
1.0
 10
244.1179603263178
 20
608.788241984285
 30
0.0
 41
1.0
 10
244.0195241648712
 20
608.7030763375542
 30
0.0
 41
1.0
 10
243.8584022791607
 20
608.5257130097013
 30
0.0
 41
1.0
 10
243.6853742592621
 20
608.2223777074644
 30
0.0
 41
1.0
 10
243.5932930668821
 20
607.7667746216141
 30
0.0
 41
1.0
 10
243.6976479821221
 20
607.2314413363111
 30
0.0
 41
1.0
 10
244.0013029589231
 20
606.7735556862191
 30
0.0
 41
1.0
 10
244.3645718444126
 20
606.528945051819
 30
0.0
 41
1.0
 10
244.6761932329838
 20
606.434121739515
 30
0.0
 41
1.0
 10
244.8882353063501
 20
606.412921760403
 30
0.0
 41
1.0
 10
244.9961823681692
 20
606.4129203806431
 30
0.0
 41
1.0
  0
SPLINE
  5
DC
330
93
100
AcDbEntity
  8
$DDT_AUDIT_GENERATED_(BC)
  6
Continuous
 62
     7
100
AcDbSpline
210
0.0
220
0.0
230
1.0
 70
    12
 71
     5
 72
    19
 73
    13
 74
     0
 42
0.0000000022982483
 43
0.0000000001
 40
0.0
 40
0.0
 40
0.0
 40
0.0
 40
0.0
 40
0.0
 40
0.1227272727263293
 40
0.2500000000000001
 40
0.372727272726329
 40
0.4999999999999999
 40
0.6227272727263291
 40
0.7499999999999999
 40
0.8727272727263291
 40
1.0
 40
1.0
 40
1.0
 40
1.0
 40
1.0
 40
1.0
 10
244.9961823681692
 20
606.4129203806431
 30
0.0
 41
1.0
 10
245.1002741777789
 20
606.412919050161
 30
0.0
 41
1.0
 10
245.312309961627
 20
606.4333565634721
 30
0.0
 41
1.0
 10
245.6204443842706
 20
606.5259087023991
 30
0.0
 41
1.0
 10
245.9853561191421
 20
606.7678569645591
 30
0.0
 41
1.0
 10
246.2901221920431
 20
607.2203756515501
 30
0.0
 41
1.0
 10
246.3990747606421
 20
607.758721655915
 30
0.0
 41
1.0
 10
246.2947944659021
 20
608.294189718206
 30
0.0
 41
1.0
 10
245.9908294449161
 20
608.751915364421
 30
0.0
 41
1.0
 10
245.6281768189322
 20
608.996732793929
 30
0.0
 41
1.0
 10
245.3156674678631
 20
609.0913202496821
 30
0.0
 41
1.0
 10
245.1045636864071
 20
609.112716806508
 30
0.0
 41
1.0
 10
244.9961786729091
 20
609.112716806508
 30
0.0
 41
1.0
  0
SPLINE
  5
DD
330
93
100
AcDbEntity
  8
$DDT_AUDIT_GENERATED_(BC)
  6
Continuous
 62
     7
100
AcDbSpline
210
0.0
220
0.0
230
1.0
 70
    12
 71
     5
 72
    18
 73
    12
 74
     0
 42
0.000000002303372
 43
0.0000000001
 40
0.2201319522160514
 40
0.2201319522160514
 40
0.2201319522160514
 40
0.2201319522160514
 40
0.2201319522160514
 40
0.2201319522160514
 40
0.2499999999994104
 40
0.3727272727276372
 40
0.4999999999988208
 40
0.6272727272723627
 40
0.7500000000005896
 40
0.8727272727264579
 40
1.0
 40
1.0
 40
1.0
 40
1.0
 40
1.0
 40
1.0
 10
248.8852929172103
 20
661.302502450994
 30
0.0
 41
1.0
 10
248.865786395287
 20
661.2863451423318
 30
0.0
 41
1.0
 10
248.76806719651
 20
661.201458668196
 30
0.0
 41
1.0
 10
248.607679426879
 20
661.0244286115574
 30
0.0
 41
1.0
 10
248.4332821095738
 20
660.7182009256337
 30
0.0
 41
1.0
 10
248.3428630049831
 20
660.2627376868351
 30
0.0
 41
1.0
 10
248.4492212058321
 20
659.7275870321341
 30
0.0
 41
1.0
 10
248.7544549585911
 20
659.27099076774
 30
0.0
 41
1.0
 10
249.1183282612134
 20
659.027784602385
 30
0.0
 41
1.0
 10
249.4261959606343
 20
658.934106060423
 30
0.0
 41
1.0
 10
249.6382376856477
 20
658.912908427141
 30
0.0
 41
1.0
 10
249.7461845103136
 20
658.9129079363171
 30
0.0
 41
1.0
  0
SPLINE
  5
DE
330
93
100
AcDbEntity
  8
$DDT_AUDIT_GENERATED_(BC)
  6
Continuous
 62
     7
100
AcDbSpline
210
0.0
220
0.0
230
1.0
 70
    12
 71
     5
 72
    19
 73
    13
 74
     0
 42
0.0000000022979082
 43
0.0000000001
 40
0.0
 40
0.0
 40
0.0
 40
0.0
 40
0.0
 40
0.0
 40
0.1227272727282268
 40
0.2499999999994106
 40
0.3727272727276371
 40
0.4999999999988207
 40
0.6272727272723628
 40
0.7500000000005895
 40
0.8772727272717732
 40
1.0
 40
1.0
 40
1.0
 40
1.0
 40
1.0
 40
1.0
 10
249.7461845103136
 20
658.9129079363171
 30
0.0
 41
1.0
 10
249.8502760912416
 20
658.9129074630231
 30
0.0
 41
1.0
 10
250.0623112959626
 20
658.9333461441711
 30
0.0
 41
1.0
 10
250.3704454375086
 20
659.0258954397981
 30
0.0
 41
1.0
 10
250.7353637555732
 20
659.2678363564021
 30
0.0
 41
1.0
 10
251.0423402094351
 20
659.7236827360881
 30
0.0
 41
1.0
 10
251.1495167200181
 20
660.262732539227
 30
0.0
 41
1.0
 10
251.0424396578491
 20
660.8019372524981
 30
0.0
 41
1.0
 10
250.7351169437042
 20
661.257586935014
 30
0.0
 41
1.0
 10
250.3708634497901
 20
661.49978500546
 30
0.0
 41
1.0
 10
250.0617823448751
 20
661.5920522875231
 30
0.0
 41
1.0
 10
249.8507333888801
 20
661.612704945692
 30
0.0
 41
1.0
 10
249.7461806729092
 20
661.612704945692
 30
0.0
 41
1.0
  0
SPLINE
  5
DF
330
93
100
AcDbEntity
  8
$DDT_AUDIT_GENERATED_(BC)
  6
Continuous
 62
     7
100
AcDbSpline
210
0.0
220
0.0
230
1.0
 70
    12
 71
     5
 72
    19
 73
    13
 74
     0
 42
0.0000000022983432
 43
0.0000000001
 40
0.0
 40
0.0
 40
0.0
 40
0.0
 40
0.0
 40
0.0
 40
0.1261261261261259
 40
0.2477477477469935
 40
0.373873873872907
 40
0.4999999999988208
 40
0.6261261261270928
 40
0.7477477477481727
 40
0.8738738738740862
 40
1.0
 40
1.0
 40
1.0
 40
1.0
 40
1.0
 40
1.0
 10
235.7461756729091
 20
639.112719306457
 30
0.0
 41
1.0
 10
235.6387536869351
 20
639.112719306457
 30
0.0
 41
1.0
 10
235.4295788516181
 20
639.0916987837561
 30
0.0
 41
1.0
 10
235.1197129044131
 20
638.998823997964
 30
0.0
 41
1.0
 10
234.7559837062671
 20
638.7560691641551
 30
0.0
 41
1.0
 10
234.4500527056811
 20
638.30081467345
 30
0.0
 41
1.0
 10
234.3430731854882
 20
637.76663115512
 30
0.0
 41
1.0
 10
234.4490095958391
 20
637.2286721411591
 30
0.0
 41
1.0
 10
234.7528408861421
 20
636.772306046877
 30
0.0
 41
1.0
 10
235.1164544078615
 20
636.528360284144
 30
0.0
 41
1.0
 10
235.4252511032604
 20
636.4341147017441
 30
0.0
 41
1.0
 10
235.6392002672015
 20
636.412920693586
 30
0.0
 41
1.0
 10
235.7461753606171
 20
636.4129215996921
 30
0.0
 41
1.0
  0
SPLINE
  5
E0
330
93
100
AcDbEntity
  8
$DDT_AUDIT_GENERATED_(BC)
  6
Continuous
 62
     7
100
AcDbSpline
210
0.0
220
0.0
230
1.0
 70
    12
 71
     5
 72
    19
 73
    13
 74
     0
 42
0.0000000022983437
 43
0.0000000001
 40
0.0
 40
0.0
 40
0.0
 40
0.0
 40
0.0
 40
0.0
 40
0.1261261261259136
 40
0.2477477477469933
 40
0.3738738738729072
 40
0.4999999999988207
 40
0.6261261261270927
 40
0.7477477477481725
 40
0.8738738738740864
 40
1.0
 40
1.0
 40
1.0
 40
1.0
 40
1.0
 40
1.0
 10
235.7461753606171
 20
636.4129215996921
 30
0.0
 41
1.0
 10
235.8531504540328
 20
636.4129225057991
 30
0.0
 41
1.0
 10
236.0632811064376
 20
636.4337416092301
 30
0.0
 41
1.0
 10
236.3722351208509
 20
636.526865502621
 30
0.0
 41
1.0
 10
236.7366061147511
 20
636.7693995368052
 30
0.0
 41
1.0
 10
237.0422026982471
 20
637.2248234130531
 30
0.0
 41
1.0
 10
237.1492776840631
 20
637.7588691172631
 30
0.0
 41
1.0
 10
237.0434375113681
 20
638.296971513099
 30
0.0
 41
1.0
 10
236.7392714214231
 20
638.7531488951352
 30
0.0
 41
1.0
 10
236.3763032330971
 20
638.9973483090411
 30
0.0
 41
1.0
 10
236.0665857852661
 20
639.0913123996801
 30
0.0
 41
1.0
 10
235.8535943718412
 20
639.112719306457
 30
0.0
 41
1.0
 10
235.7461756729091
 20
639.112719306457
 30
0.0
 41
1.0
  0
SPLINE
  5
E1
330
93
100
AcDbEntity
  8
$DDT_AUDIT_GENERATED_(BC)
  6
Continuous
 62
     7
100
AcDbSpline
210
0.0
220
0.0
230
1.0
 70
    12
 71
     5
 72
    18
 73
    12
 74
     0
 42
0.0000000023033936
 43
0.0000000001
 40
0.2192829091531817
 40
0.2192829091531817
 40
0.2192829091531817
 40
0.2192829091531817
 40
0.2192829091531817
 40
0.2192829091531817
 40
0.2499999999994104
 40
0.3727272727278088
 40
0.4999999999988208
 40
0.6227272727272191
 40
0.749999999998231
 40
0.8727272727266294
 40
1.0
 40
1.0
 40
1.0
 40
1.0
 40
1.0
 40
1.0
 10
244.1380658931638
 20
653.8048095294969
 30
0.0
 41
1.0
 10
244.1179603261587
 20
653.7882459840956
 30
0.0
 41
1.0
 10
244.0195241647644
 20
653.7030803373849
 30
0.0
 41
1.0
 10
243.8584022791076
 20
653.5257170095566
 30
0.0
 41
1.0
 10
243.6853742592514
 20
653.2223817073601
 30
0.0
 41
1.0
 10
243.5932930668821
 20
652.766778621563
 30
0.0
 41
1.0
 10
243.6976479821221
 20
652.2314453362591
 30
0.0
 41
1.0
 10
244.0013029589231
 20
651.7735596861681
 30
0.0
 41
1.0
 10
244.3645718444126
 20
651.5289490517681
 30
0.0
 41
1.0
 10
244.6761932329838
 20
651.4341257394631
 30
0.0
 41
1.0
 10
244.8882353063501
 20
651.4129257603511
 30
0.0
 41
1.0
 10
244.9961823681692
 20
651.4129243805911
 30
0.0
 41
1.0
  0
SPLINE
  5
E2
330
93
100
AcDbEntity
  8
$DDT_AUDIT_GENERATED_(BC)
  6
Continuous
 62
     7
100
AcDbSpline
210
0.0
220
0.0
230
1.0
 70
    12
 71
     5
 72
    19
 73
    13
 74
     0
 42
0.0000000022982483
 43
0.0000000001
 40
0.0
 40
0.0
 40
0.0
 40
0.0
 40
0.0
 40
0.0
 40
0.1227272727263293
 40
0.2500000000000001
 40
0.372727272726329
 40
0.4999999999999999
 40
0.6227272727263291
 40
0.7499999999999999
 40
0.8727272727263291
 40
1.0
 40
1.0
 40
1.0
 40
1.0
 40
1.0
 40
1.0
 10
244.9961823681692
 20
651.4129243805911
 30
0.0
 41
1.0
 10
245.1002741777789
 20
651.412923050109
 30
0.0
 41
1.0
 10
245.312309961627
 20
651.43336056342
 30
0.0
 41
1.0
 10
245.6204443842706
 20
651.525912702348
 30
0.0
 41
1.0
 10
245.9853561191421
 20
651.7678609645081
 30
0.0
 41
1.0
 10
246.2901221920431
 20
652.2203796514981
 30
0.0
 41
1.0
 10
246.3990747606421
 20
652.758725655863
 30
0.0
 41
1.0
 10
246.2947944659021
 20
653.2941937181541
 30
0.0
 41
1.0
 10
245.9908294449161
 20
653.75191936437
 30
0.0
 41
1.0
 10
245.6281768189322
 20
653.9967367938781
 30
0.0
 41
1.0
 10
245.3156674678631
 20
654.091324249631
 30
0.0
 41
1.0
 10
245.1045636864071
 20
654.1127208064571
 30
0.0
 41
1.0
 10
244.9961786729091
 20
654.1127208064571
 30
0.0
 41
1.0
  0
SPLINE
  5
E3
330
93
100
AcDbEntity
  8
$DDT_AUDIT_GENERATED_(BC)
  6
Continuous
 62
     7
100
AcDbSpline
210
0.0
220
0.0
230
1.0
 70
    12
 71
     5
 72
    18
 73
    12
 74
     0
 42
0.0000000023033548
 43
0.0000000001
 40
0.2196181047039876
 40
0.2196181047039876
 40
0.2196181047039876
 40
0.2196181047039876
 40
0.2196181047039876
 40
0.2196181047039876
 40
0.2499999999994104
 40
0.3772727272729524
 40
0.4999999999988208
 40
0.6272727272723627
 40
0.7500000000005896
 40
0.8772727272717731
 40
1.0
 40
1.0
 40
1.0
 40
1.0
 40
1.0
 40
1.0
 10
239.6369680795482
 20
653.8039097720729
 30
0.0
 41
1.0
 10
239.617098914679
 20
653.787506484405
 30
0.0
 41
1.0
 10
239.5160302468806
 20
653.6999264102965
 30
0.0
 41
1.0
 10
239.3557588068076
 20
653.5220524626443
 30
0.0
 41
1.0
 10
239.1821029963281
 20
653.2147940540256
 30
0.0
 41
1.0
 10
239.0932758250681
 20
652.7587217782572
 30
0.0
 41
1.0
 10
239.2022362102961
 20
652.2203788875171
 30
0.0
 41
1.0
 10
239.5069973335741
 20
651.767863506746
 30
0.0
 41
1.0
 10
239.8719119294319
 20
651.525906575972
 30
0.0
 41
1.0
 10
240.1800459636022
 20
651.433361767431
 30
0.0
 41
1.0
 10
240.3920815464312
 20
651.412924108227
 30
0.0
 41
1.0
 10
240.4961733202324
 20
651.4129245939201
 30
0.0
 41
1.0
  0
SPLINE
  5
E4
330
93
100
AcDbEntity
  8
$DDT_AUDIT_GENERATED_(BC)
  6
Continuous
 62
     7
100
AcDbSpline
210
0.0
220
0.0
230
1.0
 70
    12
 71
     5
 72
    19
 73
    13
 74
     0
 42
0.0000000022985083
 43
0.0000000001
 40
0.0
 40
0.0
 40
0.0
 40
0.0
 40
0.0
 40
0.0
 40
0.1272727272735419
 40
0.2499999999994106
 40
0.3727272727276371
 40
0.4999999999988207
 40
0.6227272727270475
 40
0.7500000000005895
 40
0.8727272727264579
 40
1.0
 40
1.0
 40
1.0
 40
1.0
 40
1.0
 40
1.0
 10
240.4961733202324
 20
651.4129245939201
 30
0.0
 41
1.0
 10
240.6041203449151
 20
651.4129250976031
 30
0.0
 41
1.0
 10
240.8161624781481
 20
651.4341217225441
 30
0.0
 41
1.0
 10
241.1240301816812
 20
651.5277956683311
 30
0.0
 41
1.0
 10
241.4878994026721
 20
651.7710179512841
 30
0.0
 41
1.0
 10
241.7909310031382
 20
652.224277762225
 30
0.0
 41
1.0
 10
241.8990600222351
 20
652.758727194078
 30
0.0
 41
1.0
 10
241.7948035344091
 20
653.294191748844
 30
0.0
 41
1.0
 10
241.4908197194941
 20
653.751920699002
 30
0.0
 41
1.0
 10
241.1281814280771
 20
653.9967357499801
 30
0.0
 41
1.0
 10
240.8156633888771
 20
654.091324668815
 30
0.0
 41
1.0
 10
240.6045625345641
 20
654.1127208064571
 30
0.0
 41
1.0
 10
240.4961771729091
 20
654.1127208064571
 30
0.0
 41
1.0
  0
SPLINE
  5
E5
330
93
100
AcDbEntity
  8
$DDT_AUDIT_GENERATED_(BC)
  6
Continuous
 62
     7
100
AcDbSpline
210
0.0
220
0.0
230
1.0
 70
    12
 71
     5
 72
    18
 73
    12
 74
     0
 42
0.0000000023033936
 43
0.0000000001
 40
0.2192829091699154
 40
0.2192829091699154
 40
0.2192829091699154
 40
0.2192829091699154
 40
0.2192829091699154
 40
0.2192829091699154
 40
0.2499999999994104
 40
0.3727272727278088
 40
0.4999999999988208
 40
0.6227272727272191
 40
0.749999999998231
 40
0.8727272727266294
 40
1.0
 40
1.0
 40
1.0
 40
1.0
 40
1.0
 40
1.0
 10
244.1380658931091
 20
661.3047926686868
 30
0.0
 41
1.0
 10
244.1179603261157
 20
661.2882291232935
 30
0.0
 41
1.0
 10
244.0195241647356
 20
661.2030634765882
 30
0.0
 41
1.0
 10
243.8584022790932
 20
661.0257001487665
 30
0.0
 41
1.0
 10
243.6853742592485
 20
660.7223648465807
 30
0.0
 41
1.0
 10
243.5932930668821
 20
660.266761760798
 30
0.0
 41
1.0
 10
243.6976479821221
 20
659.731428475495
 30
0.0
 41
1.0
 10
244.0013029589231
 20
659.2735428254031
 30
0.0
 41
1.0
 10
244.3645718444126
 20
659.0289321910032
 30
0.0
 41
1.0
 10
244.6761932329838
 20
658.934108878699
 30
0.0
 41
1.0
 10
244.8882353063501
 20
658.9129088995861
 30
0.0
 41
1.0
 10
244.9961823681692
 20
658.9129075198272
 30
0.0
 41
1.0
  0
SPLINE
  5
E6
330
93
100
AcDbEntity
  8
$DDT_AUDIT_GENERATED_(BC)
  6
Continuous
 62
     7
100
AcDbSpline
210
0.0
220
0.0
230
1.0
 70
    12
 71
     5
 72
    19
 73
    13
 74
     0
 42
0.0000000022982483
 43
0.0000000001
 40
0.0
 40
0.0
 40
0.0
 40
0.0
 40
0.0
 40
0.0
 40
0.1227272727263293
 40
0.2500000000000001
 40
0.372727272726329
 40
0.4999999999999999
 40
0.6227272727263291
 40
0.7499999999999999
 40
0.8727272727263291
 40
1.0
 40
1.0
 40
1.0
 40
1.0
 40
1.0
 40
1.0
 10
244.9961823681692
 20
658.9129075198272
 30
0.0
 41
1.0
 10
245.1002741777789
 20
658.9129061893451
 30
0.0
 41
1.0
 10
245.312309961627
 20
658.9333437026561
 30
0.0
 41
1.0
 10
245.6204443842706
 20
659.0258958415831
 30
0.0
 41
1.0
 10
245.9853561191421
 20
659.2678441037431
 30
0.0
 41
1.0
 10
246.2901221920431
 20
659.7203627907331
 30
0.0
 41
1.0
 10
246.3990747606421
 20
660.2587087950981
 30
0.0
 41
1.0
 10
246.2947944659021
 20
660.7941768573891
 30
0.0
 41
1.0
 10
245.9908294449161
 20
661.2519025036052
 30
0.0
 41
1.0
 10
245.6281768189322
 20
661.4967199331131
 30
0.0
 41
1.0
 10
245.3156674678631
 20
661.5913073888661
 30
0.0
 41
1.0
 10
245.1045636864071
 20
661.612703945692
 30
0.0
 41
1.0
 10
244.9961786729091
 20
661.612703945692
 30
0.0
 41
1.0
  0
SPLINE
  5
E7
330
93
100
AcDbEntity
  8
$DDT_AUDIT_GENERATED_(BC)
  6
Continuous
 62
     7
100
AcDbSpline
210
0.0
220
0.0
230
1.0
 70
    12
 71
     5
 72
    18
 73
    12
 74
     0
 42
0.000000002303372
 43
0.0000000001
 40
0.2201319522530985
 40
0.2201319522530985
 40
0.2201319522530985
 40
0.2201319522530985
 40
0.2201319522530985
 40
0.2201319522530985
 40
0.2499999999994104
 40
0.3727272727276372
 40
0.4999999999988208
 40
0.6272727272723627
 40
0.7500000000005896
 40
0.8727272727264579
 40
1.0
 40
1.0
 40
1.0
 40
1.0
 40
1.0
 40
1.0
 10
248.8852929170893
 20
646.3025193116583
 30
0.0
 41
1.0
 10
248.8657863951921
 20
646.2863620030139
 30
0.0
 41
1.0
 10
248.7680671964463
 20
646.2014755288906
 30
0.0
 41
1.0
 10
248.6076794268472
 20
646.0244454722667
 30
0.0
 41
1.0
 10
248.4332821095675
 20
645.718217786367
 30
0.0
 41
1.0
 10
248.3428630049831
 20
645.2627545476
 30
0.0
 41
1.0
 10
248.4492212058321
 20
644.7276038928991
 30
0.0
 41
1.0
 10
248.7544549585911
 20
644.2710076285041
 30
0.0
 41
1.0
 10
249.1183282612134
 20
644.0278014631491
 30
0.0
 41
1.0
 10
249.4261959606343
 20
643.934122921187
 30
0.0
 41
1.0
 10
249.6382376856477
 20
643.9129252879051
 30
0.0
 41
1.0
 10
249.7461845103136
 20
643.912924797081
 30
0.0
 41
1.0
  0
SPLINE
  5
E8
330
93
100
AcDbEntity
  8
$DDT_AUDIT_GENERATED_(BC)
  6
Continuous
 62
     7
100
AcDbSpline
210
0.0
220
0.0
230
1.0
 70
    12
 71
     5
 72
    19
 73
    13
 74
     0
 42
0.0000000022979082
 43
0.0000000001
 40
0.0
 40
0.0
 40
0.0
 40
0.0
 40
0.0
 40
0.0
 40
0.1227272727282268
 40
0.2499999999994106
 40
0.3727272727276371
 40
0.4999999999988207
 40
0.6272727272723628
 40
0.7500000000005895
 40
0.8772727272717732
 40
1.0
 40
1.0
 40
1.0
 40
1.0
 40
1.0
 40
1.0
 10
249.7461845103136
 20
643.912924797081
 30
0.0
 41
1.0
 10
249.8502760912416
 20
643.9129243237871
 30
0.0
 41
1.0
 10
250.0623112959626
 20
643.9333630049351
 30
0.0
 41
1.0
 10
250.3704454375086
 20
644.025912300562
 30
0.0
 41
1.0
 10
250.7353637555732
 20
644.267853217167
 30
0.0
 41
1.0
 10
251.0423402094351
 20
644.723699596852
 30
0.0
 41
1.0
 10
251.1495167200181
 20
645.2627493999911
 30
0.0
 41
1.0
 10
251.0424396578491
 20
645.801954113262
 30
0.0
 41
1.0
 10
250.7351169437042
 20
646.257603795778
 30
0.0
 41
1.0
 10
250.3708634497901
 20
646.4998018662241
 30
0.0
 41
1.0
 10
250.0617823448751
 20
646.592069148287
 30
0.0
 41
1.0
 10
249.8507333888801
 20
646.6127218064571
 30
0.0
 41
1.0
 10
249.7461806729092
 20
646.6127218064571
 30
0.0
 41
1.0
  0
SPLINE
  5
E9
330
93
100
AcDbEntity
  8
$DDT_AUDIT_GENERATED_(BC)
  6
Continuous
 62
     7
100
AcDbSpline
210
0.0
220
0.0
230
1.0
 70
    12
 71
     5
 72
    18
 73
    12
 74
     0
 42
0.0000000023033548
 43
0.0000000001
 40
0.2196181046898669
 40
0.2196181046898669
 40
0.2196181046898669
 40
0.2196181046898669
 40
0.2196181046898669
 40
0.2196181046898669
 40
0.2499999999994104
 40
0.3772727272729524
 40
0.4999999999988208
 40
0.6272727272723627
 40
0.7500000000005896
 40
0.8772727272717731
 40
1.0
 40
1.0
 40
1.0
 40
1.0
 40
1.0
 40
1.0
 10
239.6369680795943
 20
623.8039097721111
 30
0.0
 41
1.0
 10
239.6170989147153
 20
623.7875064844363
 30
0.0
 41
1.0
 10
239.5160302469048
 20
623.6999264103233
 30
0.0
 41
1.0
 10
239.3557588068196
 20
623.5220524626656
 30
0.0
 41
1.0
 10
239.1821029963304
 20
623.2147940540377
 30
0.0
 41
1.0
 10
239.0932758250681
 20
622.758721778257
 30
0.0
 41
1.0
 10
239.2022362102961
 20
622.220378887517
 30
0.0
 41
1.0
 10
239.5069973335741
 20
621.767863506745
 30
0.0
 41
1.0
 10
239.8719119294319
 20
621.525906575972
 30
0.0
 41
1.0
 10
240.1800459636022
 20
621.433361767431
 30
0.0
 41
1.0
 10
240.3920815464312
 20
621.412924108227
 30
0.0
 41
1.0
 10
240.4961733202324
 20
621.41292459392
 30
0.0
 41
1.0
  0
SPLINE
  5
EA
330
93
100
AcDbEntity
  8
$DDT_AUDIT_GENERATED_(BC)
  6
Continuous
 62
     7
100
AcDbSpline
210
0.0
220
0.0
230
1.0
 70
    12
 71
     5
 72
    19
 73
    13
 74
     0
 42
0.0000000022985083
 43
0.0000000001
 40
0.0
 40
0.0
 40
0.0
 40
0.0
 40
0.0
 40
0.0
 40
0.1272727272735419
 40
0.2499999999994106
 40
0.3727272727276371
 40
0.4999999999988207
 40
0.6227272727270475
 40
0.7500000000005895
 40
0.8727272727264579
 40
1.0
 40
1.0
 40
1.0
 40
1.0
 40
1.0
 40
1.0
 10
240.4961733202324
 20
621.41292459392
 30
0.0
 41
1.0
 10
240.6041203449151
 20
621.4129250976031
 30
0.0
 41
1.0
 10
240.8161624781481
 20
621.4341217225441
 30
0.0
 41
1.0
 10
241.1240301816812
 20
621.527795668331
 30
0.0
 41
1.0
 10
241.4878994026721
 20
621.7710179512841
 30
0.0
 41
1.0
 10
241.7909310031382
 20
622.2242777622251
 30
0.0
 41
1.0
 10
241.8990600222351
 20
622.7587271940781
 30
0.0
 41
1.0
 10
241.7948035344091
 20
623.294191748844
 30
0.0
 41
1.0
 10
241.4908197194941
 20
623.7519206990021
 30
0.0
 41
1.0
 10
241.1281814280771
 20
623.9967357499801
 30
0.0
 41
1.0
 10
240.8156633888771
 20
624.0913246688141
 30
0.0
 41
1.0
 10
240.6045625345641
 20
624.1127208064571
 30
0.0
 41
1.0
 10
240.4961771729091
 20
624.1127208064571
 30
0.0
 41
1.0
  0
SPLINE
  5
EB
330
93
100
AcDbEntity
  8
$DDT_AUDIT_GENERATED_(BC)
  6
Continuous
 62
     7
100
AcDbSpline
210
0.0
220
0.0
230
1.0
 70
    12
 71
     5
 72
    18
 73
    12
 74
     0
 42
0.000000002303372
 43
0.0000000001
 40
0.22013195226295
 40
0.22013195226295
 40
0.22013195226295
 40
0.22013195226295
 40
0.22013195226295
 40
0.22013195226295
 40
0.2499999999994104
 40
0.3727272727276372
 40
0.4999999999988208
 40
0.6272727272723627
 40
0.7500000000005896
 40
0.8727272727264579
 40
1.0
 40
1.0
 40
1.0
 40
1.0
 40
1.0
 40
1.0
 10
248.8852929170572
 20
623.8025193116316
 30
0.0
 41
1.0
 10
248.8657863951669
 20
623.786362002992
 30
0.0
 41
1.0
 10
248.7680671964294
 20
623.7014755288718
 30
0.0
 41
1.0
 10
248.6076794268388
 20
623.524445472252
 30
0.0
 41
1.0
 10
248.4332821095658
 20
623.2182177863584
 30
0.0
 41
1.0
 10
248.3428630049831
 20
622.7627545476001
 30
0.0
 41
1.0
 10
248.4492212058321
 20
622.2276038928991
 30
0.0
 41
1.0
 10
248.7544549585911
 20
621.7710076285041
 30
0.0
 41
1.0
 10
249.1183282612134
 20
621.5278014631491
 30
0.0
 41
1.0
 10
249.4261959606343
 20
621.434122921187
 30
0.0
 41
1.0
 10
249.6382376856477
 20
621.4129252879051
 30
0.0
 41
1.0
 10
249.7461845103136
 20
621.4129247970811
 30
0.0
 41
1.0
  0
SPLINE
  5
EC
330
93
100
AcDbEntity
  8
$DDT_AUDIT_GENERATED_(BC)
  6
Continuous
 62
     7
100
AcDbSpline
210
0.0
220
0.0
230
1.0
 70
    12
 71
     5
 72
    19
 73
    13
 74
     0
 42
0.0000000022979082
 43
0.0000000001
 40
0.0
 40
0.0
 40
0.0
 40
0.0
 40
0.0
 40
0.0
 40
0.1227272727282268
 40
0.2499999999994106
 40
0.3727272727276371
 40
0.4999999999988207
 40
0.6272727272723628
 40
0.7500000000005895
 40
0.8772727272717732
 40
1.0
 40
1.0
 40
1.0
 40
1.0
 40
1.0
 40
1.0
 10
249.7461845103136
 20
621.4129247970811
 30
0.0
 41
1.0
 10
249.8502760912416
 20
621.412924323787
 30
0.0
 41
1.0
 10
250.0623112959626
 20
621.433363004935
 30
0.0
 41
1.0
 10
250.3704454375086
 20
621.5259123005621
 30
0.0
 41
1.0
 10
250.7353637555732
 20
621.767853217167
 30
0.0
 41
1.0
 10
251.0423402094351
 20
622.223699596852
 30
0.0
 41
1.0
 10
251.1495167200181
 20
622.7627493999911
 30
0.0
 41
1.0
 10
251.0424396578491
 20
623.301954113262
 30
0.0
 41
1.0
 10
250.7351169437042
 20
623.7576037957781
 30
0.0
 41
1.0
 10
250.3708634497901
 20
623.9998018662241
 30
0.0
 41
1.0
 10
250.0617823448751
 20
624.0920691482871
 30
0.0
 41
1.0
 10
249.8507333888801
 20
624.1127218064571
 30
0.0
 41
1.0
 10
249.7461806729092
 20
624.1127218064571
 30
0.0
 41
1.0
  0
SPLINE
  5
ED
330
93
100
AcDbEntity
  8
$DDT_AUDIT_GENERATED_(BC)
  6
Continuous
 62
     7
100
AcDbSpline
210
0.0
220
0.0
230
1.0
 70
    12
 71
     5
 72
    19
 73
    13
 74
     0
 42
0.0000000022983432
 43
0.0000000001
 40
0.0
 40
0.0
 40
0.0
 40
0.0
 40
0.0
 40
0.0
 40
0.1261261261261259
 40
0.2477477477469935
 40
0.373873873872907
 40
0.4999999999988208
 40
0.6261261261270928
 40
0.7477477477481727
 40
0.8738738738740862
 40
1.0
 40
1.0
 40
1.0
 40
1.0
 40
1.0
 40
1.0
 10
235.7461756729091
 20
631.612719306457
 30
0.0
 41
1.0
 10
235.6387536869351
 20
631.612719306457
 30
0.0
 41
1.0
 10
235.4295788516181
 20
631.5916987837561
 30
0.0
 41
1.0
 10
235.1197129044131
 20
631.4988239979641
 30
0.0
 41
1.0
 10
234.7559837062671
 20
631.2560691641551
 30
0.0
 41
1.0
 10
234.4500527056811
 20
630.8008146734501
 30
0.0
 41
1.0
 10
234.3430731854882
 20
630.2666311551201
 30
0.0
 41
1.0
 10
234.4490095958391
 20
629.728672141159
 30
0.0
 41
1.0
 10
234.7528408861421
 20
629.2723060468771
 30
0.0
 41
1.0
 10
235.1164544078615
 20
629.0283602841441
 30
0.0
 41
1.0
 10
235.4252511032604
 20
628.9341147017441
 30
0.0
 41
1.0
 10
235.6392002672015
 20
628.9129206935861
 30
0.0
 41
1.0
 10
235.7461753606171
 20
628.912921599692
 30
0.0
 41
1.0
  0
SPLINE
  5
EE
330
93
100
AcDbEntity
  8
$DDT_AUDIT_GENERATED_(BC)
  6
Continuous
 62
     7
100
AcDbSpline
210
0.0
220
0.0
230
1.0
 70
    12
 71
     5
 72
    19
 73
    13
 74
     0
 42
0.0000000022983437
 43
0.0000000001
 40
0.0
 40
0.0
 40
0.0
 40
0.0
 40
0.0
 40
0.0
 40
0.1261261261259136
 40
0.2477477477469933
 40
0.3738738738729072
 40
0.4999999999988207
 40
0.6261261261270927
 40
0.7477477477481725
 40
0.8738738738740864
 40
1.0
 40
1.0
 40
1.0
 40
1.0
 40
1.0
 40
1.0
 10
235.7461753606171
 20
628.912921599692
 30
0.0
 41
1.0
 10
235.8531504540328
 20
628.9129225057991
 30
0.0
 41
1.0
 10
236.0632811064376
 20
628.9337416092291
 30
0.0
 41
1.0
 10
236.3722351208509
 20
629.0268655026211
 30
0.0
 41
1.0
 10
236.7366061147511
 20
629.269399536805
 30
0.0
 41
1.0
 10
237.0422026982471
 20
629.7248234130531
 30
0.0
 41
1.0
 10
237.1492776840631
 20
630.258869117263
 30
0.0
 41
1.0
 10
237.0434375113681
 20
630.7969715130992
 30
0.0
 41
1.0
 10
236.7392714214231
 20
631.253148895135
 30
0.0
 41
1.0
 10
236.3763032330971
 20
631.4973483090411
 30
0.0
 41
1.0
 10
236.0665857852661
 20
631.5913123996801
 30
0.0
 41
1.0
 10
235.8535943718412
 20
631.612719306457
 30
0.0
 41
1.0
 10
235.7461756729091
 20
631.612719306457
 30
0.0
 41
1.0
  0
SPLINE
  5
EF
330
93
100
AcDbEntity
  8
$DDT_AUDIT_GENERATED_(BC)
  6
Continuous
 62
     7
100
AcDbSpline
210
0.0
220
0.0
230
1.0
 70
    12
 71
     5
 72
    18
 73
    12
 74
     0
 42
0.000000002303372
 43
0.0000000001
 40
0.2201319522625047
 40
0.2201319522625047
 40
0.2201319522625047
 40
0.2201319522625047
 40
0.2201319522625047
 40
0.2201319522625047
 40
0.2499999999994104
 40
0.3727272727276372
 40
0.4999999999988208
 40
0.6272727272723627
 40
0.7500000000005896
 40
0.8727272727264579
 40
1.0
 40
1.0
 40
1.0
 40
1.0
 40
1.0
 40
1.0
 10
248.8852929170586
 20
616.3025193116329
 30
0.0
 41
1.0
 10
248.865786395168
 20
616.286362002993
 30
0.0
 41
1.0
 10
248.7680671964302
 20
616.2014755288726
 30
0.0
 41
1.0
 10
248.6076794268392
 20
616.0244454722525
 30
0.0
 41
1.0
 10
248.4332821095659
 20
615.718217786359
 30
0.0
 41
1.0
 10
248.3428630049831
 20
615.2627545476
 30
0.0
 41
1.0
 10
248.4492212058321
 20
614.7276038928991
 30
0.0
 41
1.0
 10
248.7544549585911
 20
614.2710076285051
 30
0.0
 41
1.0
 10
249.1183282612134
 20
614.02780146315
 30
0.0
 41
1.0
 10
249.4261959606343
 20
613.9341229211881
 30
0.0
 41
1.0
 10
249.6382376856477
 20
613.9129252879051
 30
0.0
 41
1.0
 10
249.7461845103136
 20
613.912924797082
 30
0.0
 41
1.0
  0
SPLINE
  5
F0
330
93
100
AcDbEntity
  8
$DDT_AUDIT_GENERATED_(BC)
  6
Continuous
 62
     7
100
AcDbSpline
210
0.0
220
0.0
230
1.0
 70
    12
 71
     5
 72
    19
 73
    13
 74
     0
 42
0.0000000022979082
 43
0.0000000001
 40
0.0
 40
0.0
 40
0.0
 40
0.0
 40
0.0
 40
0.0
 40
0.1227272727282268
 40
0.2499999999994106
 40
0.3727272727276371
 40
0.4999999999988207
 40
0.6272727272723628
 40
0.7500000000005895
 40
0.8772727272717732
 40
1.0
 40
1.0
 40
1.0
 40
1.0
 40
1.0
 40
1.0
 10
249.7461845103136
 20
613.912924797082
 30
0.0
 41
1.0
 10
249.8502760912416
 20
613.912924323787
 30
0.0
 41
1.0
 10
250.0623112959626
 20
613.933363004935
 30
0.0
 41
1.0
 10
250.3704454375086
 20
614.025912300562
 30
0.0
 41
1.0
 10
250.7353637555732
 20
614.267853217167
 30
0.0
 41
1.0
 10
251.0423402094351
 20
614.723699596852
 30
0.0
 41
1.0
 10
251.1495167200181
 20
615.2627493999911
 30
0.0
 41
1.0
 10
251.0424396578491
 20
615.8019541132621
 30
0.0
 41
1.0
 10
250.7351169437042
 20
616.2576037957791
 30
0.0
 41
1.0
 10
250.3708634497901
 20
616.4998018662251
 30
0.0
 41
1.0
 10
250.0617823448751
 20
616.5920691482871
 30
0.0
 41
1.0
 10
249.8507333888801
 20
616.6127218064571
 30
0.0
 41
1.0
 10
249.7461806729092
 20
616.6127218064571
 30
0.0
 41
1.0
  0
SPLINE
  5
F1
330
93
100
AcDbEntity
  8
$DDT_AUDIT_GENERATED_(BC)
  6
Continuous
 62
     7
100
AcDbSpline
210
0.0
220
0.0
230
1.0
 70
    12
 71
     5
 72
    18
 73
    12
 74
     0
 42
0.000000002303372
 43
0.0000000001
 40
0.2201319523177604
 40
0.2201319523177604
 40
0.2201319523177604
 40
0.2201319523177604
 40
0.2201319523177604
 40
0.2201319523177604
 40
0.2499999999994104
 40
0.3727272727276372
 40
0.4999999999988208
 40
0.6272727272723627
 40
0.7500000000005896
 40
0.8727272727264579
 40
1.0
 40
1.0
 40
1.0
 40
1.0
 40
1.0
 40
1.0
 10
248.8852929168782
 20
608.8025153115348
 30
0.0
 41
1.0
 10
248.8657863950265
 20
608.7863580029214
 30
0.0
 41
1.0
 10
248.7680671963352
 20
608.7014715288191
 30
0.0
 41
1.0
 10
248.6076794267918
 20
608.5244414722205
 30
0.0
 41
1.0
 10
248.4332821095565
 20
608.2182137863625
 30
0.0
 41
1.0
 10
248.3428630049831
 20
607.7627505476521
 30
0.0
 41
1.0
 10
248.4492212058321
 20
607.227599892951
 30
0.0
 41
1.0
 10
248.7544549585911
 20
606.7710036285561
 30
0.0
 41
1.0
 10
249.1183282612134
 20
606.5277974632011
 30
0.0
 41
1.0
 10
249.4261959606343
 20
606.4341189212391
 30
0.0
 41
1.0
 10
249.6382376856477
 20
606.4129212879571
 30
0.0
 41
1.0
 10
249.7461845103136
 20
606.4129207971331
 30
0.0
 41
1.0
  0
SPLINE
  5
F2
330
93
100
AcDbEntity
  8
$DDT_AUDIT_GENERATED_(BC)
  6
Continuous
 62
     7
100
AcDbSpline
210
0.0
220
0.0
230
1.0
 70
    12
 71
     5
 72
    19
 73
    13
 74
     0
 42
0.0000000022979082
 43
0.0000000001
 40
0.0
 40
0.0
 40
0.0
 40
0.0
 40
0.0
 40
0.0
 40
0.1227272727282268
 40
0.2499999999994106
 40
0.3727272727276371
 40
0.4999999999988207
 40
0.6272727272723628
 40
0.7500000000005895
 40
0.8772727272717732
 40
1.0
 40
1.0
 40
1.0
 40
1.0
 40
1.0
 40
1.0
 10
249.7461845103136
 20
606.4129207971331
 30
0.0
 41
1.0
 10
249.8502760912416
 20
606.4129203238391
 30
0.0
 41
1.0
 10
250.0623112959626
 20
606.4333590049871
 30
0.0
 41
1.0
 10
250.3704454375086
 20
606.525908300614
 30
0.0
 41
1.0
 10
250.7353637555732
 20
606.7678492172181
 30
0.0
 41
1.0
 10
251.0423402094351
 20
607.223695596904
 30
0.0
 41
1.0
 10
251.1495167200181
 20
607.7627454000431
 30
0.0
 41
1.0
 10
251.0424396578491
 20
608.301950113314
 30
0.0
 41
1.0
 10
250.7351169437042
 20
608.7575997958301
 30
0.0
 41
1.0
 10
250.3708634497901
 20
608.9997978662761
 30
0.0
 41
1.0
 10
250.0617823448751
 20
609.092065148339
 30
0.0
 41
1.0
 10
249.8507333888801
 20
609.1127178065082
 30
0.0
 41
1.0
 10
249.7461806729092
 20
609.1127178065082
 30
0.0
 41
1.0
  0
SPLINE
  5
F3
330
93
100
AcDbEntity
  8
$DDT_AUDIT_GENERATED_(BC)
  6
Continuous
 62
     7
100
AcDbSpline
210
0.0
220
0.0
230
1.0
 70
    12
 71
     5
 72
    19
 73
    13
 74
     0
 42
0.0000000022983432
 43
0.0000000001
 40
0.0
 40
0.0
 40
0.0
 40
0.0
 40
0.0
 40
0.0
 40
0.1261261261261259
 40
0.2477477477469935
 40
0.373873873872907
 40
0.4999999999988208
 40
0.6261261261270928
 40
0.7477477477481727
 40
0.8738738738740862
 40
1.0
 40
1.0
 40
1.0
 40
1.0
 40
1.0
 40
1.0
 10
235.7461756729091
 20
646.612719306457
 30
0.0
 41
1.0
 10
235.6387536869351
 20
646.612719306457
 30
0.0
 41
1.0
 10
235.4295788516181
 20
646.5916987837551
 30
0.0
 41
1.0
 10
235.1197129044131
 20
646.4988239979641
 30
0.0
 41
1.0
 10
234.7559837062671
 20
646.2560691641552
 30
0.0
 41
1.0
 10
234.4500527056811
 20
645.8008146734501
 30
0.0
 41
1.0
 10
234.3430731854882
 20
645.2666311551201
 30
0.0
 41
1.0
 10
234.4490095958391
 20
644.7286721411581
 30
0.0
 41
1.0
 10
234.7528408861421
 20
644.272306046877
 30
0.0
 41
1.0
 10
235.1164544078615
 20
644.028360284144
 30
0.0
 41
1.0
 10
235.4252511032604
 20
643.9341147017441
 30
0.0
 41
1.0
 10
235.6392002672015
 20
643.9129206935861
 30
0.0
 41
1.0
 10
235.7461753606171
 20
643.912921599692
 30
0.0
 41
1.0
  0
SPLINE
  5
F4
330
93
100
AcDbEntity
  8
$DDT_AUDIT_GENERATED_(BC)
  6
Continuous
 62
     7
100
AcDbSpline
210
0.0
220
0.0
230
1.0
 70
    12
 71
     5
 72
    19
 73
    13
 74
     0
 42
0.0000000022983437
 43
0.0000000001
 40
0.0
 40
0.0
 40
0.0
 40
0.0
 40
0.0
 40
0.0
 40
0.1261261261259136
 40
0.2477477477469933
 40
0.3738738738729072
 40
0.4999999999988207
 40
0.6261261261270927
 40
0.7477477477481725
 40
0.8738738738740864
 40
1.0
 40
1.0
 40
1.0
 40
1.0
 40
1.0
 40
1.0
 10
235.7461753606171
 20
643.912921599692
 30
0.0
 41
1.0
 10
235.8531504540328
 20
643.9129225057991
 30
0.0
 41
1.0
 10
236.0632811064376
 20
643.9337416092291
 30
0.0
 41
1.0
 10
236.3722351208509
 20
644.026865502621
 30
0.0
 41
1.0
 10
236.7366061147511
 20
644.269399536804
 30
0.0
 41
1.0
 10
237.0422026982471
 20
644.724823413052
 30
0.0
 41
1.0
 10
237.1492776840631
 20
645.2588691172631
 30
0.0
 41
1.0
 10
237.0434375113681
 20
645.7969715130992
 30
0.0
 41
1.0
 10
236.7392714214231
 20
646.253148895135
 30
0.0
 41
1.0
 10
236.3763032330971
 20
646.4973483090411
 30
0.0
 41
1.0
 10
236.0665857852661
 20
646.5913123996801
 30
0.0
 41
1.0
 10
235.8535943718412
 20
646.612719306457
 30
0.0
 41
1.0
 10
235.7461756729091
 20
646.612719306457
 30
0.0
 41
1.0
  0
SPLINE
  5
F5
330
93
100
AcDbEntity
  8
$DDT_AUDIT_GENERATED_(BC)
  6
Continuous
 62
     7
100
AcDbSpline
210
0.0
220
0.0
230
1.0
 70
    12
 71
     5
 72
    18
 73
    12
 74
     0
 42
0.000000002303372
 43
0.0000000001
 40
0.2201319522794207
 40
0.2201319522794207
 40
0.2201319522794207
 40
0.2201319522794207
 40
0.2201319522794207
 40
0.2201319522794207
 40
0.2499999999994104
 40
0.3727272727276372
 40
0.4999999999988208
 40
0.6272727272723627
 40
0.7500000000005896
 40
0.8727272727264579
 40
1.0
 40
1.0
 40
1.0
 40
1.0
 40
1.0
 40
1.0
 10
248.8852929170034
 20
631.302519311587
 30
0.0
 41
1.0
 10
248.8657863951247
 20
631.2863620029555
 30
0.0
 41
1.0
 10
248.7680671964011
 20
631.2014755288405
 30
0.0
 41
1.0
 10
248.6076794268247
 20
631.0244454722272
 30
0.0
 41
1.0
 10
248.433282109563
 20
630.7182177863444
 30
0.0
 41
1.0
 10
248.3428630049831
 20
630.2627545476
 30
0.0
 41
1.0
 10
248.4492212058321
 20
629.7276038928991
 30
0.0
 41
1.0
 10
248.7544549585911
 20
629.2710076285051
 30
0.0
 41
1.0
 10
249.1183282612134
 20
629.0278014631501
 30
0.0
 41
1.0
 10
249.4261959606343
 20
628.9341229211881
 30
0.0
 41
1.0
 10
249.6382376856477
 20
628.9129252879051
 30
0.0
 41
1.0
 10
249.7461845103136
 20
628.912924797082
 30
0.0
 41
1.0
  0
SPLINE
  5
F6
330
93
100
AcDbEntity
  8
$DDT_AUDIT_GENERATED_(BC)
  6
Continuous
 62
     7
100
AcDbSpline
210
0.0
220
0.0
230
1.0
 70
    12
 71
     5
 72
    19
 73
    13
 74
     0
 42
0.0000000022979082
 43
0.0000000001
 40
0.0
 40
0.0
 40
0.0
 40
0.0
 40
0.0
 40
0.0
 40
0.1227272727282268
 40
0.2499999999994106
 40
0.3727272727276371
 40
0.4999999999988207
 40
0.6272727272723628
 40
0.7500000000005895
 40
0.8772727272717732
 40
1.0
 40
1.0
 40
1.0
 40
1.0
 40
1.0
 40
1.0
 10
249.7461845103136
 20
628.912924797082
 30
0.0
 41
1.0
 10
249.8502760912416
 20
628.9129243237871
 30
0.0
 41
1.0
 10
250.0623112959626
 20
628.9333630049351
 30
0.0
 41
1.0
 10
250.3704454375086
 20
629.025912300562
 30
0.0
 41
1.0
 10
250.7353637555732
 20
629.267853217167
 30
0.0
 41
1.0
 10
251.0423402094351
 20
629.723699596852
 30
0.0
 41
1.0
 10
251.1495167200181
 20
630.2627493999911
 30
0.0
 41
1.0
 10
251.0424396578491
 20
630.8019541132621
 30
0.0
 41
1.0
 10
250.7351169437042
 20
631.2576037957791
 30
0.0
 41
1.0
 10
250.3708634497901
 20
631.4998018662241
 30
0.0
 41
1.0
 10
250.0617823448751
 20
631.592069148287
 30
0.0
 41
1.0
 10
249.8507333888801
 20
631.6127218064571
 30
0.0
 41
1.0
 10
249.7461806729092
 20
631.6127218064571
 30
0.0
 41
1.0
  0
SPLINE
  5
F7
330
93
100
AcDbEntity
  8
$DDT_AUDIT_GENERATED_(BC)
  6
Continuous
 62
     7
100
AcDbSpline
210
0.0
220
0.0
230
1.0
 70
    12
 71
     5
 72
    19
 73
    13
 74
     0
 42
0.0000000022983432
 43
0.0000000001
 40
0.0
 40
0.0
 40
0.0
 40
0.0
 40
0.0
 40
0.0
 40
0.1261261261261259
 40
0.2477477477469935
 40
0.373873873872907
 40
0.4999999999988208
 40
0.6261261261270928
 40
0.7477477477481727
 40
0.8738738738740862
 40
1.0
 40
1.0
 40
1.0
 40
1.0
 40
1.0
 40
1.0
 10
235.7461756729091
 20
609.112715306508
 30
0.0
 41
1.0
 10
235.6387536869351
 20
609.112715306508
 30
0.0
 41
1.0
 10
235.4295788516181
 20
609.091694783807
 30
0.0
 41
1.0
 10
235.1197129044131
 20
608.9988199980161
 30
0.0
 41
1.0
 10
234.7559837062671
 20
608.7560651642071
 30
0.0
 41
1.0
 10
234.4500527056811
 20
608.300810673502
 30
0.0
 41
1.0
 10
234.3430731854882
 20
607.766627155171
 30
0.0
 41
1.0
 10
234.4490095958391
 20
607.2286681412102
 30
0.0
 41
1.0
 10
234.7528408861421
 20
606.7723020469291
 30
0.0
 41
1.0
 10
235.1164544078615
 20
606.5283562841961
 30
0.0
 41
1.0
 10
235.4252511032604
 20
606.434110701796
 30
0.0
 41
1.0
 10
235.6392002672015
 20
606.4129166936381
 30
0.0
 41
1.0
 10
235.7461753606171
 20
606.412917599744
 30
0.0
 41
1.0
  0
SPLINE
  5
F8
330
93
100
AcDbEntity
  8
$DDT_AUDIT_GENERATED_(BC)
  6
Continuous
 62
     7
100
AcDbSpline
210
0.0
220
0.0
230
1.0
 70
    12
 71
     5
 72
    19
 73
    13
 74
     0
 42
0.0000000022983437
 43
0.0000000001
 40
0.0
 40
0.0
 40
0.0
 40
0.0
 40
0.0
 40
0.0
 40
0.1261261261259136
 40
0.2477477477469933
 40
0.3738738738729072
 40
0.4999999999988207
 40
0.6261261261270927
 40
0.7477477477481725
 40
0.8738738738740864
 40
1.0
 40
1.0
 40
1.0
 40
1.0
 40
1.0
 40
1.0
 10
235.7461753606171
 20
606.412917599744
 30
0.0
 41
1.0
 10
235.8531504540328
 20
606.412918505851
 30
0.0
 41
1.0
 10
236.0632811064376
 20
606.4337376092811
 30
0.0
 41
1.0
 10
236.3722351208509
 20
606.5268615026731
 30
0.0
 41
1.0
 10
236.7366061147511
 20
606.769395536856
 30
0.0
 41
1.0
 10
237.0422026982471
 20
607.224819413104
 30
0.0
 41
1.0
 10
237.1492776840631
 20
607.758865117314
 30
0.0
 41
1.0
 10
237.0434375113681
 20
608.2969675131511
 30
0.0
 41
1.0
 10
236.7392714214231
 20
608.753144895187
 30
0.0
 41
1.0
 10
236.3763032330971
 20
608.997344309093
 30
0.0
 41
1.0
 10
236.0665857852661
 20
609.091308399732
 30
0.0
 41
1.0
 10
235.8535943718412
 20
609.112715306508
 30
0.0
 41
1.0
 10
235.7461756729091
 20
609.112715306508
 30
0.0
 41
1.0
  0
SPLINE
  5
F9
330
93
100
AcDbEntity
  8
$DDT_AUDIT_GENERATED_(BC)
  6
Continuous
 62
     7
100
AcDbSpline
210
0.0
220
0.0
230
1.0
 70
    12
 71
     5
 72
    18
 73
    12
 74
     0
 42
0.0000000023033548
 43
0.0000000001
 40
0.2196181047536854
 40
0.2196181047536854
 40
0.2196181047536854
 40
0.2196181047536854
 40
0.2196181047536854
 40
0.2196181047536854
 40
0.2499999999994104
 40
0.3772727272729524
 40
0.4999999999988208
 40
0.6272727272723627
 40
0.7500000000005896
 40
0.8772727272717731
 40
1.0
 40
1.0
 40
1.0
 40
1.0
 40
1.0
 40
1.0
 10
239.6369680793856
 20
608.8039057719901
 30
0.0
 41
1.0
 10
239.6170989145516
 20
608.7875024843459
 30
0.0
 41
1.0
 10
239.5160302467954
 20
608.6999224102532
 30
0.0
 41
1.0
 10
239.3557588067652
 20
608.5220484626203
 30
0.0
 41
1.0
 10
239.1821029963198
 20
608.2147900540338
 30
0.0
 41
1.0
 10
239.0932758250681
 20
607.758717778308
 30
0.0
 41
1.0
 10
239.2022362102961
 20
607.220374887569
 30
0.0
 41
1.0
 10
239.5069973335741
 20
606.7678595067971
 30
0.0
 41
1.0
 10
239.8719119294319
 20
606.525902576024
 30
0.0
 41
1.0
 10
240.1800459636022
 20
606.4333577674831
 30
0.0
 41
1.0
 10
240.3920815464312
 20
606.4129201082791
 30
0.0
 41
1.0
 10
240.4961733202324
 20
606.412920593972
 30
0.0
 41
1.0
  0
SPLINE
  5
FA
330
93
100
AcDbEntity
  8
$DDT_AUDIT_GENERATED_(BC)
  6
Continuous
 62
     7
100
AcDbSpline
210
0.0
220
0.0
230
1.0
 70
    12
 71
     5
 72
    19
 73
    13
 74
     0
 42
0.0000000022985083
 43
0.0000000001
 40
0.0
 40
0.0
 40
0.0
 40
0.0
 40
0.0
 40
0.0
 40
0.1272727272735419
 40
0.2499999999994106
 40
0.3727272727276371
 40
0.4999999999988207
 40
0.6227272727270475
 40
0.7500000000005895
 40
0.8727272727264579
 40
1.0
 40
1.0
 40
1.0
 40
1.0
 40
1.0
 40
1.0
 10
240.4961733202324
 20
606.412920593972
 30
0.0
 41
1.0
 10
240.6041203449151
 20
606.412921097655
 30
0.0
 41
1.0
 10
240.8161624781481
 20
606.434117722596
 30
0.0
 41
1.0
 10
241.1240301816812
 20
606.527791668383
 30
0.0
 41
1.0
 10
241.4878994026721
 20
606.771013951336
 30
0.0
 41
1.0
 10
241.7909310031382
 20
607.2242737622771
 30
0.0
 41
1.0
 10
241.8990600222351
 20
607.7587231941301
 30
0.0
 41
1.0
 10
241.7948035344091
 20
608.2941877488951
 30
0.0
 41
1.0
 10
241.4908197194941
 20
608.751916699053
 30
0.0
 41
1.0
 10
241.1281814280771
 20
608.9967317500311
 30
0.0
 41
1.0
 10
240.8156633888771
 20
609.091320668866
 30
0.0
 41
1.0
 10
240.6045625345641
 20
609.112716806508
 30
0.0
 41
1.0
 10
240.4961771729091
 20
609.112716806508
 30
0.0
 41
1.0
  0
SPLINE
  5
FB
330
93
100
AcDbEntity
  8
$DDT_AUDIT_GENERATED_(BC)
  6
Continuous
 62
     7
100
AcDbSpline
210
0.0
220
0.0
230
1.0
 70
    12
 71
     5
 72
    18
 73
    12
 74
     0
 42
0.0000000023033936
 43
0.0000000001
 40
0.219282909121935
 40
0.219282909121935
 40
0.219282909121935
 40
0.219282909121935
 40
0.219282909121935
 40
0.219282909121935
 40
0.2499999999994104
 40
0.3727272727278088
 40
0.4999999999988208
 40
0.6227272727272191
 40
0.749999999998231
 40
0.8727272727266294
 40
1.0
 40
1.0
 40
1.0
 40
1.0
 40
1.0
 40
1.0
 10
244.1380658932661
 20
616.3048095295811
 30
0.0
 41
1.0
 10
244.1179603262388
 20
616.288245984165
 30
0.0
 41
1.0
 10
244.0195241648183
 20
616.2030803374441
 30
0.0
 41
1.0
 10
243.8584022791344
 20
616.0257170096036
 30
0.0
 41
1.0
 10
243.6853742592568
 20
615.722381707387
 30
0.0
 41
1.0
 10
243.5932930668821
 20
615.266778621563
 30
0.0
 41
1.0
 10
243.6976479821221
 20
614.7314453362591
 30
0.0
 41
1.0
 10
244.0013029589231
 20
614.273559686168
 30
0.0
 41
1.0
 10
244.3645718444126
 20
614.0289490517681
 30
0.0
 41
1.0
 10
244.6761932329838
 20
613.9341257394631
 30
0.0
 41
1.0
 10
244.8882353063501
 20
613.9129257603511
 30
0.0
 41
1.0
 10
244.9961823681692
 20
613.9129243805911
 30
0.0
 41
1.0
  0
SPLINE
  5
FC
330
93
100
AcDbEntity
  8
$DDT_AUDIT_GENERATED_(BC)
  6
Continuous
 62
     7
100
AcDbSpline
210
0.0
220
0.0
230
1.0
 70
    12
 71
     5
 72
    19
 73
    13
 74
     0
 42
0.0000000022982483
 43
0.0000000001
 40
0.0
 40
0.0
 40
0.0
 40
0.0
 40
0.0
 40
0.0
 40
0.1227272727263293
 40
0.2500000000000001
 40
0.372727272726329
 40
0.4999999999999999
 40
0.6227272727263291
 40
0.7499999999999999
 40
0.8727272727263291
 40
1.0
 40
1.0
 40
1.0
 40
1.0
 40
1.0
 40
1.0
 10
244.9961823681692
 20
613.9129243805911
 30
0.0
 41
1.0
 10
245.1002741777789
 20
613.912923050109
 30
0.0
 41
1.0
 10
245.312309961627
 20
613.93336056342
 30
0.0
 41
1.0
 10
245.6204443842706
 20
614.025912702348
 30
0.0
 41
1.0
 10
245.9853561191421
 20
614.267860964508
 30
0.0
 41
1.0
 10
246.2901221920431
 20
614.7203796514981
 30
0.0
 41
1.0
 10
246.3990747606421
 20
615.258725655863
 30
0.0
 41
1.0
 10
246.2947944659021
 20
615.794193718154
 30
0.0
 41
1.0
 10
245.9908294449161
 20
616.2519193643701
 30
0.0
 41
1.0
 10
245.6281768189322
 20
616.4967367938781
 30
0.0
 41
1.0
 10
245.3156674678631
 20
616.591324249631
 30
0.0
 41
1.0
 10
245.1045636864071
 20
616.612720806457
 30
0.0
 41
1.0
 10
244.9961786729091
 20
616.612720806457
 30
0.0
 41
1.0
  0
SPLINE
  5
FD
330
93
100
AcDbEntity
  8
$DDT_AUDIT_GENERATED_(BC)
  6
Continuous
 62
     7
100
AcDbSpline
210
0.0
220
0.0
230
1.0
 70
    12
 71
     5
 72
    19
 73
    13
 74
     0
 42
0.0000000022983432
 43
0.0000000001
 40
0.0
 40
0.0
 40
0.0
 40
0.0
 40
0.0
 40
0.0
 40
0.1261261261261259
 40
0.2477477477469935
 40
0.373873873872907
 40
0.4999999999988208
 40
0.6261261261270928
 40
0.7477477477481727
 40
0.8738738738740862
 40
1.0
 40
1.0
 40
1.0
 40
1.0
 40
1.0
 40
1.0
 10
235.7461756729091
 20
661.612702445692
 30
0.0
 41
1.0
 10
235.6387536869351
 20
661.612702445692
 30
0.0
 41
1.0
 10
235.4295788516181
 20
661.5916819229911
 30
0.0
 41
1.0
 10
235.1197129044131
 20
661.4988071371992
 30
0.0
 41
1.0
 10
234.7559837062671
 20
661.2560523033911
 30
0.0
 41
1.0
 10
234.4500527056811
 20
660.8007978126851
 30
0.0
 41
1.0
 10
234.3430731854882
 20
660.2666142943551
 30
0.0
 41
1.0
 10
234.4490095958391
 20
659.728655280394
 30
0.0
 41
1.0
 10
234.7528408861421
 20
659.272289186113
 30
0.0
 41
1.0
 10
235.1164544078615
 20
659.02834342338
 30
0.0
 41
1.0
 10
235.4252511032604
 20
658.9340978409801
 30
0.0
 41
1.0
 10
235.6392002672015
 20
658.912903832821
 30
0.0
 41
1.0
 10
235.7461753606171
 20
658.9129047389281
 30
0.0
 41
1.0
  0
SPLINE
  5
FE
330
93
100
AcDbEntity
  8
$DDT_AUDIT_GENERATED_(BC)
  6
Continuous
 62
     7
100
AcDbSpline
210
0.0
220
0.0
230
1.0
 70
    12
 71
     5
 72
    19
 73
    13
 74
     0
 42
0.0000000022983437
 43
0.0000000001
 40
0.0
 40
0.0
 40
0.0
 40
0.0
 40
0.0
 40
0.0
 40
0.1261261261259136
 40
0.2477477477469933
 40
0.3738738738729072
 40
0.4999999999988207
 40
0.6261261261270927
 40
0.7477477477481725
 40
0.8738738738740864
 40
1.0
 40
1.0
 40
1.0
 40
1.0
 40
1.0
 40
1.0
 10
235.7461753606171
 20
658.9129047389281
 30
0.0
 41
1.0
 10
235.8531504540328
 20
658.912905645034
 30
0.0
 41
1.0
 10
236.0632811064376
 20
658.9337247484651
 30
0.0
 41
1.0
 10
236.3722351208509
 20
659.026848641857
 30
0.0
 41
1.0
 10
236.7366061147511
 20
659.2693826760401
 30
0.0
 41
1.0
 10
237.0422026982471
 20
659.7248065522881
 30
0.0
 41
1.0
 10
237.1492776840631
 20
660.258852256498
 30
0.0
 41
1.0
 10
237.0434375113681
 20
660.796954652335
 30
0.0
 41
1.0
 10
236.7392714214231
 20
661.2531320343711
 30
0.0
 41
1.0
 10
236.3763032330971
 20
661.497331448277
 30
0.0
 41
1.0
 10
236.0665857852661
 20
661.591295538915
 30
0.0
 41
1.0
 10
235.8535943718412
 20
661.612702445692
 30
0.0
 41
1.0
 10
235.7461756729091
 20
661.612702445692
 30
0.0
 41
1.0
  0
SPLINE
  5
FF
330
93
100
AcDbEntity
  8
$DDT_AUDIT_GENERATED_(BC)
  6
Continuous
 62
     7
100
AcDbSpline
210
0.0
220
0.0
230
1.0
 70
    12
 71
     5
 72
    18
 73
    12
 74
     0
 42
0.0000000023033548
 43
0.0000000001
 40
0.2196181046917666
 40
0.2196181046917666
 40
0.2196181046917666
 40
0.2196181046917666
 40
0.2196181046917666
 40
0.2196181046917666
 40
0.2499999999994104
 40
0.3772727272729524
 40
0.4999999999988208
 40
0.6272727272723627
 40
0.7500000000005896
 40
0.8772727272717731
 40
1.0
 40
1.0
 40
1.0
 40
1.0
 40
1.0
 40
1.0
 10
239.6369680795881
 20
616.303909772106
 30
0.0
 41
1.0
 10
239.6170989147104
 20
616.2875064844322
 30
0.0
 41
1.0
 10
239.5160302469016
 20
616.1999264103197
 30
0.0
 41
1.0
 10
239.355758806818
 20
616.0220524626627
 30
0.0
 41
1.0
 10
239.1821029963301
 20
615.714794054036
 30
0.0
 41
1.0
 10
239.0932758250681
 20
615.258721778257
 30
0.0
 41
1.0
 10
239.2022362102961
 20
614.7203788875171
 30
0.0
 41
1.0
 10
239.5069973335741
 20
614.2678635067462
 30
0.0
 41
1.0
 10
239.8719119294319
 20
614.0259065759722
 30
0.0
 41
1.0
 10
240.1800459636022
 20
613.933361767431
 30
0.0
 41
1.0
 10
240.3920815464312
 20
613.9129241082271
 30
0.0
 41
1.0
 10
240.4961733202324
 20
613.9129245939201
 30
0.0
 41
1.0
  0
SPLINE
  5
100
330
93
100
AcDbEntity
  8
$DDT_AUDIT_GENERATED_(BC)
  6
Continuous
 62
     7
100
AcDbSpline
210
0.0
220
0.0
230
1.0
 70
    12
 71
     5
 72
    19
 73
    13
 74
     0
 42
0.0000000022985083
 43
0.0000000001
 40
0.0
 40
0.0
 40
0.0
 40
0.0
 40
0.0
 40
0.0
 40
0.1272727272735419
 40
0.2499999999994106
 40
0.3727272727276371
 40
0.4999999999988207
 40
0.6227272727270475
 40
0.7500000000005895
 40
0.8727272727264579
 40
1.0
 40
1.0
 40
1.0
 40
1.0
 40
1.0
 40
1.0
 10
240.4961733202324
 20
613.9129245939201
 30
0.0
 41
1.0
 10
240.6041203449151
 20
613.9129250976031
 30
0.0
 41
1.0
 10
240.8161624781481
 20
613.934121722544
 30
0.0
 41
1.0
 10
241.1240301816812
 20
614.0277956683311
 30
0.0
 41
1.0
 10
241.4878994026721
 20
614.2710179512841
 30
0.0
 41
1.0
 10
241.7909310031382
 20
614.724277762225
 30
0.0
 41
1.0
 10
241.8990600222351
 20
615.258727194078
 30
0.0
 41
1.0
 10
241.7948035344091
 20
615.7941917488441
 30
0.0
 41
1.0
 10
241.4908197194941
 20
616.2519206990021
 30
0.0
 41
1.0
 10
241.1281814280771
 20
616.4967357499801
 30
0.0
 41
1.0
 10
240.8156633888771
 20
616.5913246688151
 30
0.0
 41
1.0
 10
240.6045625345641
 20
616.612720806457
 30
0.0
 41
1.0
 10
240.4961771729091
 20
616.612720806457
 30
0.0
 41
1.0
  0
SPLINE
  5
101
330
93
100
AcDbEntity
  8
$DDT_AUDIT_GENERATED_(BC)
  6
Continuous
 62
     7
100
AcDbSpline
210
0.0
220
0.0
230
1.0
 70
    12
 71
     5
 72
    19
 73
    13
 74
     0
 42
0.0000000022983432
 43
0.0000000001
 40
0.0
 40
0.0
 40
0.0
 40
0.0
 40
0.0
 40
0.0
 40
0.1261261261261259
 40
0.2477477477469935
 40
0.373873873872907
 40
0.4999999999988208
 40
0.6261261261270928
 40
0.7477477477481727
 40
0.8738738738740862
 40
1.0
 40
1.0
 40
1.0
 40
1.0
 40
1.0
 40
1.0
 10
235.7461756729091
 20
624.112719306457
 30
0.0
 41
1.0
 10
235.6387536869351
 20
624.112719306457
 30
0.0
 41
1.0
 10
235.4295788516181
 20
624.091698783756
 30
0.0
 41
1.0
 10
235.1197129044131
 20
623.998823997964
 30
0.0
 41
1.0
 10
234.7559837062671
 20
623.7560691641551
 30
0.0
 41
1.0
 10
234.4500527056811
 20
623.3008146734501
 30
0.0
 41
1.0
 10
234.3430731854882
 20
622.7666311551201
 30
0.0
 41
1.0
 10
234.4490095958391
 20
622.2286721411591
 30
0.0
 41
1.0
 10
234.7528408861421
 20
621.772306046877
 30
0.0
 41
1.0
 10
235.1164544078615
 20
621.528360284144
 30
0.0
 41
1.0
 10
235.4252511032604
 20
621.4341147017441
 30
0.0
 41
1.0
 10
235.6392002672015
 20
621.4129206935861
 30
0.0
 41
1.0
 10
235.7461753606171
 20
621.412921599692
 30
0.0
 41
1.0
  0
SPLINE
  5
102
330
93
100
AcDbEntity
  8
$DDT_AUDIT_GENERATED_(BC)
  6
Continuous
 62
     7
100
AcDbSpline
210
0.0
220
0.0
230
1.0
 70
    12
 71
     5
 72
    19
 73
    13
 74
     0
 42
0.0000000022983437
 43
0.0000000001
 40
0.0
 40
0.0
 40
0.0
 40
0.0
 40
0.0
 40
0.0
 40
0.1261261261259136
 40
0.2477477477469933
 40
0.3738738738729072
 40
0.4999999999988207
 40
0.6261261261270927
 40
0.7477477477481725
 40
0.8738738738740864
 40
1.0
 40
1.0
 40
1.0
 40
1.0
 40
1.0
 40
1.0
 10
235.7461753606171
 20
621.412921599692
 30
0.0
 41
1.0
 10
235.8531504540328
 20
621.4129225057991
 30
0.0
 41
1.0
 10
236.0632811064376
 20
621.4337416092291
 30
0.0
 41
1.0
 10
236.3722351208509
 20
621.526865502621
 30
0.0
 41
1.0
 10
236.7366061147511
 20
621.7693995368041
 30
0.0
 41
1.0
 10
237.0422026982471
 20
622.224823413052
 30
0.0
 41
1.0
 10
237.1492776840631
 20
622.7588691172631
 30
0.0
 41
1.0
 10
237.0434375113681
 20
623.296971513099
 30
0.0
 41
1.0
 10
236.7392714214231
 20
623.7531488951352
 30
0.0
 41
1.0
 10
236.3763032330971
 20
623.9973483090411
 30
0.0
 41
1.0
 10
236.0665857852661
 20
624.0913123996801
 30
0.0
 41
1.0
 10
235.8535943718412
 20
624.112719306457
 30
0.0
 41
1.0
 10
235.7461756729091
 20
624.112719306457
 30
0.0
 41
1.0
  0
SPLINE
  5
103
330
93
100
AcDbEntity
  8
$DDT_AUDIT_GENERATED_(BC)
  6
Continuous
 62
     7
100
AcDbSpline
210
0.0
220
0.0
230
1.0
 70
    12
 71
     5
 72
    18
 73
    12
 74
     0
 42
0.0000000023033548
 43
0.0000000001
 40
0.2196181047022109
 40
0.2196181047022109
 40
0.2196181047022109
 40
0.2196181047022109
 40
0.2196181047022109
 40
0.2196181047022109
 40
0.2499999999994104
 40
0.3772727272729524
 40
0.4999999999988208
 40
0.6272727272723627
 40
0.7500000000005896
 40
0.8772727272717731
 40
1.0
 40
1.0
 40
1.0
 40
1.0
 40
1.0
 40
1.0
 10
239.636968079554
 20
646.3039097720778
 30
0.0
 41
1.0
 10
239.6170989146836
 20
646.2875064844089
 30
0.0
 41
1.0
 10
239.5160302468837
 20
646.1999264102999
 30
0.0
 41
1.0
 10
239.3557588068091
 20
646.022052462647
 30
0.0
 41
1.0
 10
239.1821029963284
 20
645.7147940540272
 30
0.0
 41
1.0
 10
239.0932758250681
 20
645.258721778257
 30
0.0
 41
1.0
 10
239.2022362102961
 20
644.7203788875171
 30
0.0
 41
1.0
 10
239.5069973335741
 20
644.267863506745
 30
0.0
 41
1.0
 10
239.8719119294319
 20
644.025906575972
 30
0.0
 41
1.0
 10
240.1800459636022
 20
643.933361767431
 30
0.0
 41
1.0
 10
240.3920815464312
 20
643.9129241082271
 30
0.0
 41
1.0
 10
240.4961733202324
 20
643.91292459392
 30
0.0
 41
1.0
  0
SPLINE
  5
104
330
93
100
AcDbEntity
  8
$DDT_AUDIT_GENERATED_(BC)
  6
Continuous
 62
     7
100
AcDbSpline
210
0.0
220
0.0
230
1.0
 70
    12
 71
     5
 72
    19
 73
    13
 74
     0
 42
0.0000000022985083
 43
0.0000000001
 40
0.0
 40
0.0
 40
0.0
 40
0.0
 40
0.0
 40
0.0
 40
0.1272727272735419
 40
0.2499999999994106
 40
0.3727272727276371
 40
0.4999999999988207
 40
0.6227272727270475
 40
0.7500000000005895
 40
0.8727272727264579
 40
1.0
 40
1.0
 40
1.0
 40
1.0
 40
1.0
 40
1.0
 10
240.4961733202324
 20
643.91292459392
 30
0.0
 41
1.0
 10
240.6041203449151
 20
643.9129250976031
 30
0.0
 41
1.0
 10
240.8161624781481
 20
643.9341217225441
 30
0.0
 41
1.0
 10
241.1240301816812
 20
644.027795668331
 30
0.0
 41
1.0
 10
241.4878994026721
 20
644.2710179512841
 30
0.0
 41
1.0
 10
241.7909310031382
 20
644.724277762225
 30
0.0
 41
1.0
 10
241.8990600222351
 20
645.2587271940781
 30
0.0
 41
1.0
 10
241.7948035344091
 20
645.7941917488441
 30
0.0
 41
1.0
 10
241.4908197194941
 20
646.2519206990021
 30
0.0
 41
1.0
 10
241.1281814280771
 20
646.49673574998
 30
0.0
 41
1.0
 10
240.8156633888771
 20
646.5913246688141
 30
0.0
 41
1.0
 10
240.6045625345641
 20
646.612720806457
 30
0.0
 41
1.0
 10
240.4961771729091
 20
646.612720806457
 30
0.0
 41
1.0
  0
SPLINE
  5
105
330
93
100
AcDbEntity
  8
$DDT_AUDIT_GENERATED_(BC)
  6
Continuous
 62
     7
100
AcDbSpline
210
0.0
220
0.0
230
1.0
 70
    12
 71
     5
 72
    18
 73
    12
 74
     0
 42
0.0000000023033936
 43
0.0000000001
 40
0.2192829091185506
 40
0.2192829091185506
 40
0.2192829091185506
 40
0.2192829091185506
 40
0.2192829091185506
 40
0.2192829091185506
 40
0.2499999999994104
 40
0.3727272727278088
 40
0.4999999999988208
 40
0.6227272727272191
 40
0.749999999998231
 40
0.8727272727266294
 40
1.0
 40
1.0
 40
1.0
 40
1.0
 40
1.0
 40
1.0
 10
244.1380658932771
 20
631.3048095295902
 30
0.0
 41
1.0
 10
244.1179603262475
 20
631.2882459841725
 30
0.0
 41
1.0
 10
244.0195241648241
 20
631.2030803374504
 30
0.0
 41
1.0
 10
243.8584022791373
 20
631.0257170096088
 30
0.0
 41
1.0
 10
243.6853742592574
 20
630.7223817073899
 30
0.0
 41
1.0
 10
243.5932930668821
 20
630.2667786215632
 30
0.0
 41
1.0
 10
243.6976479821221
 20
629.7314453362591
 30
0.0
 41
1.0
 10
244.0013029589231
 20
629.273559686167
 30
0.0
 41
1.0
 10
244.3645718444126
 20
629.0289490517681
 30
0.0
 41
1.0
 10
244.6761932329838
 20
628.9341257394631
 30
0.0
 41
1.0
 10
244.8882353063501
 20
628.9129257603511
 30
0.0
 41
1.0
 10
244.9961823681692
 20
628.9129243805911
 30
0.0
 41
1.0
  0
SPLINE
  5
106
330
93
100
AcDbEntity
  8
$DDT_AUDIT_GENERATED_(BC)
  6
Continuous
 62
     7
100
AcDbSpline
210
0.0
220
0.0
230
1.0
 70
    12
 71
     5
 72
    19
 73
    13
 74
     0
 42
0.0000000022982483
 43
0.0000000001
 40
0.0
 40
0.0
 40
0.0
 40
0.0
 40
0.0
 40
0.0
 40
0.1227272727263293
 40
0.2500000000000001
 40
0.372727272726329
 40
0.4999999999999999
 40
0.6227272727263291
 40
0.7499999999999999
 40
0.8727272727263291
 40
1.0
 40
1.0
 40
1.0
 40
1.0
 40
1.0
 40
1.0
 10
244.9961823681692
 20
628.9129243805911
 30
0.0
 41
1.0
 10
245.1002741777789
 20
628.912923050109
 30
0.0
 41
1.0
 10
245.312309961627
 20
628.9333605634201
 30
0.0
 41
1.0
 10
245.6204443842706
 20
629.0259127023481
 30
0.0
 41
1.0
 10
245.9853561191421
 20
629.267860964508
 30
0.0
 41
1.0
 10
246.2901221920431
 20
629.7203796514981
 30
0.0
 41
1.0
 10
246.3990747606421
 20
630.258725655863
 30
0.0
 41
1.0
 10
246.2947944659021
 20
630.794193718154
 30
0.0
 41
1.0
 10
245.9908294449161
 20
631.2519193643691
 30
0.0
 41
1.0
 10
245.6281768189322
 20
631.4967367938781
 30
0.0
 41
1.0
 10
245.3156674678631
 20
631.591324249631
 30
0.0
 41
1.0
 10
245.1045636864071
 20
631.612720806457
 30
0.0
 41
1.0
 10
244.9961786729091
 20
631.612720806457
 30
0.0
 41
1.0
  0
SPLINE
  5
107
330
93
100
AcDbEntity
  8
$DDT_AUDIT_GENERATED_(BC)
  6
Continuous
 62
     7
100
AcDbSpline
210
0.0
220
0.0
230
1.0
 70
    12
 71
     5
 72
    18
 73
    12
 74
     0
 42
0.000000002303372
 43
0.0000000001
 40
0.2201319522735576
 40
0.2201319522735576
 40
0.2201319522735576
 40
0.2201319522735576
 40
0.2201319522735576
 40
0.2201319522735576
 40
0.2499999999994104
 40
0.3727272727276372
 40
0.4999999999988208
 40
0.6272727272723627
 40
0.7500000000005896
 40
0.8727272727264579
 40
1.0
 40
1.0
 40
1.0
 40
1.0
 40
1.0
 40
1.0
 10
248.8852929170226
 20
653.802519311603
 30
0.0
 41
1.0
 10
248.8657863951397
 20
653.7863620029684
 30
0.0
 41
1.0
 10
248.7680671964112
 20
653.7014755288517
 30
0.0
 41
1.0
 10
248.6076794268297
 20
653.524445472236
 30
0.0
 41
1.0
 10
248.433282109564
 20
653.2182177863493
 30
0.0
 41
1.0
 10
248.3428630049831
 20
652.7627545476
 30
0.0
 41
1.0
 10
248.4492212058321
 20
652.227603892899
 30
0.0
 41
1.0
 10
248.7544549585911
 20
651.771007628505
 30
0.0
 41
1.0
 10
249.1183282612134
 20
651.52780146315
 30
0.0
 41
1.0
 10
249.4261959606343
 20
651.4341229211881
 30
0.0
 41
1.0
 10
249.6382376856477
 20
651.4129252879061
 30
0.0
 41
1.0
 10
249.7461845103136
 20
651.412924797082
 30
0.0
 41
1.0
  0
SPLINE
  5
108
330
93
100
AcDbEntity
  8
$DDT_AUDIT_GENERATED_(BC)
  6
Continuous
 62
     7
100
AcDbSpline
210
0.0
220
0.0
230
1.0
 70
    12
 71
     5
 72
    19
 73
    13
 74
     0
 42
0.0000000022979082
 43
0.0000000001
 40
0.0
 40
0.0
 40
0.0
 40
0.0
 40
0.0
 40
0.0
 40
0.1227272727282268
 40
0.2499999999994106
 40
0.3727272727276371
 40
0.4999999999988207
 40
0.6272727272723628
 40
0.7500000000005895
 40
0.8772727272717732
 40
1.0
 40
1.0
 40
1.0
 40
1.0
 40
1.0
 40
1.0
 10
249.7461845103136
 20
651.412924797082
 30
0.0
 41
1.0
 10
249.8502760912416
 20
651.412924323788
 30
0.0
 41
1.0
 10
250.0623112959626
 20
651.433363004935
 30
0.0
 41
1.0
 10
250.3704454375086
 20
651.5259123005621
 30
0.0
 41
1.0
 10
250.7353637555732
 20
651.767853217167
 30
0.0
 41
1.0
 10
251.0423402094351
 20
652.2236995968522
 30
0.0
 41
1.0
 10
251.1495167200181
 20
652.7627493999911
 30
0.0
 41
1.0
 10
251.0424396578491
 20
653.3019541132621
 30
0.0
 41
1.0
 10
250.7351169437042
 20
653.7576037957791
 30
0.0
 41
1.0
 10
250.3708634497901
 20
653.9998018662251
 30
0.0
 41
1.0
 10
250.0617823448751
 20
654.0920691482871
 30
0.0
 41
1.0
 10
249.8507333888801
 20
654.1127218064571
 30
0.0
 41
1.0
 10
249.7461806729092
 20
654.1127218064571
 30
0.0
 41
1.0
  0
SPLINE
  5
109
330
93
100
AcDbEntity
  8
$DDT_AUDIT_GENERATED_(BC)
  6
Continuous
 62
     7
100
AcDbSpline
210
0.0
220
0.0
230
1.0
 70
    12
 71
     5
 72
    18
 73
    12
 74
     0
 42
0.0000000023033548
 43
0.0000000001
 40
0.2196181047461134
 40
0.2196181047461134
 40
0.2196181047461134
 40
0.2196181047461134
 40
0.2196181047461134
 40
0.2196181047461134
 40
0.2499999999994104
 40
0.3772727272729524
 40
0.4999999999988208
 40
0.6272727272723627
 40
0.7500000000005896
 40
0.8772727272717731
 40
1.0
 40
1.0
 40
1.0
 40
1.0
 40
1.0
 40
1.0
 10
239.6369680794104
 20
661.3038929111941
 30
0.0
 41
1.0
 10
239.617098914571
 20
661.2874896235463
 30
0.0
 41
1.0
 10
239.5160302468084
 20
661.1999095494513
 30
0.0
 41
1.0
 10
239.3557588067717
 20
661.0220356018157
 30
0.0
 41
1.0
 10
239.182102996321
 20
660.7147771932243
 30
0.0
 41
1.0
 10
239.0932758250681
 20
660.2587049174921
 30
0.0
 41
1.0
 10
239.2022362102961
 20
659.7203620267521
 30
0.0
 41
1.0
 10
239.5069973335741
 20
659.2678466459811
 30
0.0
 41
1.0
 10
239.8719119294319
 20
659.025889715208
 30
0.0
 41
1.0
 10
240.1800459636022
 20
658.9333449066661
 30
0.0
 41
1.0
 10
240.3920815464312
 20
658.912907247462
 30
0.0
 41
1.0
 10
240.4961733202324
 20
658.912907733156
 30
0.0
 41
1.0
  0
SPLINE
  5
10A
330
93
100
AcDbEntity
  8
$DDT_AUDIT_GENERATED_(BC)
  6
Continuous
 62
     7
100
AcDbSpline
210
0.0
220
0.0
230
1.0
 70
    12
 71
     5
 72
    19
 73
    13
 74
     0
 42
0.0000000022985083
 43
0.0000000001
 40
0.0
 40
0.0
 40
0.0
 40
0.0
 40
0.0
 40
0.0
 40
0.1272727272735419
 40
0.2499999999994106
 40
0.3727272727276371
 40
0.4999999999988207
 40
0.6227272727270475
 40
0.7500000000005895
 40
0.8727272727264579
 40
1.0
 40
1.0
 40
1.0
 40
1.0
 40
1.0
 40
1.0
 10
240.4961733202324
 20
658.912907733156
 30
0.0
 41
1.0
 10
240.6041203449151
 20
658.9129082368381
 30
0.0
 41
1.0
 10
240.8161624781481
 20
658.934104861779
 30
0.0
 41
1.0
 10
241.1240301816812
 20
659.027778807566
 30
0.0
 41
1.0
 10
241.4878994026721
 20
659.27100109052
 30
0.0
 41
1.0
 10
241.7909310031382
 20
659.7242609014601
 30
0.0
 41
1.0
 10
241.8990600222351
 20
660.2587103333141
 30
0.0
 41
1.0
 10
241.7948035344091
 20
660.7941748880792
 30
0.0
 41
1.0
 10
241.4908197194941
 20
661.251903838237
 30
0.0
 41
1.0
 10
241.1281814280771
 20
661.496718889215
 30
0.0
 41
1.0
 10
240.8156633888771
 20
661.59130780805
 30
0.0
 41
1.0
 10
240.6045625345641
 20
661.612703945692
 30
0.0
 41
1.0
 10
240.4961771729091
 20
661.612703945692
 30
0.0
 41
1.0
  0
LINE
  5
10C
330
93
100
AcDbEntity
  8
$DDT_AUDIT_GENERATED_(10B)
  6
Continuous
 62
     7
100
AcDbLine
 10
222.2461850795
 20
430.9627684457
 30
0.0
 11
222.2461850795
 21
460.5127684457
 31
0.0
  0
LINE
  5
10D
330
93
100
AcDbEntity
  8
$DDT_AUDIT_GENERATED_(10B)
  6
Continuous
 62
     7
100
AcDbLine
 10
263.2461850795
 20
460.5127684457
 30
0.0
 11
263.2461850795
 21
430.9627684457
 31
0.0
  0
LINE
  5
10E
330
93
100
AcDbEntity
  8
$DDT_AUDIT_GENERATED_(10B)
  6
Continuous
 62
     7
100
AcDbLine
 10
222.7461850795
 20
461.0127684457
 30
0.0
 11
262.7461850795
 21
461.0127684457
 31
0.0
  0
ARC
  5
10F
330
93
100
AcDbEntity
  8
$DDT_AUDIT_GENERATED_(10B)
  6
Continuous
 62
     7
100
AcDbCircle
 10
262.7461850795
 20
460.5127684457
 30
0.0
 40
0.5000000000000004
100
AcDbArc
 50
0.0
 51
90.0
  0
ARC
  5
110
330
93
100
AcDbEntity
  8
$DDT_AUDIT_GENERATED_(10B)
  6
Continuous
 62
     7
100
AcDbCircle
 10
222.7461850795
 20
460.5127684457
 30
0.0
 40
0.5000000000000004
100
AcDbArc
 50
90.0
 51
180.0
  0
LINE
  5
112
330
93
100
AcDbEntity
  8
$DDT_AUDIT_GENERATED_(111)
  6
Continuous
 62
     7
100
AcDbLine
 10
275.2461850795
 20
429.9627684457
 30
0.0
 11
275.2461850795
 21
420.9627684457
 31
0.0
  0
LINE
  5
113
330
93
100
AcDbEntity
  8
$DDT_AUDIT_GENERATED_(111)
  6
Continuous
 62
     7
100
AcDbLine
 10
211.2461850795
 20
420.9627684457
 30
0.0
 11
274.2461850795
 21
420.9627684457
 31
0.0
  0
LINE
  5
114
330
93
100
AcDbEntity
  8
$DDT_AUDIT_GENERATED_(111)
  6
Continuous
 62
     7
100
AcDbLine
 10
211.2461850795
 20
420.9627684457
 30
0.0
 11
210.2461850795
 21
420.9627684457
 31
0.0
  0
LINE
  5
115
330
93
100
AcDbEntity
  8
$DDT_AUDIT_GENERATED_(111)
  6
Continuous
 62
     7
100
AcDbLine
 10
275.2461850795
 20
420.9627684457
 30
0.0
 11
274.2461850795
 21
420.9627684457
 31
0.0
  0
LINE
  5
116
330
93
100
AcDbEntity
  8
$DDT_AUDIT_GENERATED_(111)
  6
Continuous
 62
     7
100
AcDbLine
 10
210.2461850795
 20
420.9627684457
 30
0.0
 11
210.2461850795
 21
429.9627684457
 31
0.0
  0
LINE
  5
117
330
93
100
AcDbEntity
  8
$DDT_AUDIT_GENERATED_(111)
  6
Continuous
 62
     7
100
AcDbLine
 10
211.2461850795
 20
430.9627684457
 30
0.0
 11
274.2461850795
 21
430.9627684457
 31
0.0
  0
ARC
  5
118
330
93
100
AcDbEntity
  8
$DDT_AUDIT_GENERATED_(111)
  6
Continuous
 62
     7
100
AcDbCircle
 10
211.2461850795
 20
429.9627684457
 30
0.0
 40
0.9999999999999991
100
AcDbArc
 50
90.0
 51
180.0
  0
ARC
  5
119
330
93
100
AcDbEntity
  8
$DDT_AUDIT_GENERATED_(111)
  6
Continuous
 62
     7
100
AcDbCircle
 10
274.2461850795
 20
429.9627684457
 30
0.0
 40
1.000000000000001
100
AcDbArc
 50
0.0
 51
90.0
  0
LINE
  5
11B
330
93
100
AcDbEntity
  8
$DDT_AUDIT_GENERATED_(11A)
  6
Continuous
 62
     7
100
AcDbLine
 10
387.2097208836
 20
519.2339385964
 30
0.0
 11
408.2768851649
 21
519.233937986
 31
0.0
  0
SPLINE
  5
11C
330
93
100
AcDbEntity
  8
$DDT_AUDIT_GENERATED_(11A)
  6
Continuous
 62
     7
100
AcDbSpline
210
0.0
220
0.0
230
1.0
 70
     8
 71
     3
 72
    25
 73
    21
 74
     0
 42
0.0000000038969206
 43
0.0000000001
 40
0.0
 40
0.0
 40
0.0
 40
0.0
 40
0.0433609927140805
 40
0.0857991882657849
 40
0.1274833538679859
 40
0.1685915497552801
 40
0.2093093979209776
 40
0.249827890062355
 40
0.290340841789208
 40
0.3310421518769374
 40
0.3721230557743503
 40
0.4137695634903377
 40
0.4561602431288124
 40
0.4994644605357177
 40
0.5853524825533398
 40
0.6682404995111947
 40
0.7496020630921941
 40
0.830993652287068
 40
0.9139700216246635
 40
1.0
 40
1.0
 40
1.0
 40
1.0
 10
408.2768851648962
 20
519.2339379859667
 30
0.0
 10
408.3339875486222
 20
519.2351723461264
 30
0.0
 10
408.4469930706474
 20
519.2360849119107
 30
0.0
 10
408.6142855821863
 20
519.2357640073018
 30
0.0
 10
408.7773209597866
 20
519.2341691441982
 30
0.0
 10
408.9360917318754
 20
519.2311881068374
 30
0.0
 10
409.0905876687287
 20
519.2268507133347
 30
0.0
 10
409.2407979806407
 20
519.2211500831484
 30
0.0
 10
409.3867119744597
 20
519.2140895063604
 30
0.0
 10
409.5283199678454
 20
519.2056700957417
 30
0.0
 10
409.6656149014449
 20
519.1958938602376
 30
0.0
 10
409.7985899434381
 20
519.1847632026659
 30
0.0
 10
409.9272498805866
 20
519.172279154613
 30
0.0
 10
410.0912429084631
 20
519.1540343804924
 30
0.0
 10
410.2768282707616
 20
519.1290888184182
 30
0.0
 10
410.4617496427423
 20
519.0959280275714
 30
0.0
 10
410.6049551853488
 20
519.0600422220206
 30
0.0
 10
410.7053232395821
 20
519.0214227705276
 30
0.0
 10
410.7662042381706
 20
518.9801232551997
 30
0.0
 10
410.7716318028689
 20
518.9513770572885
 30
0.0
 10
410.7744047620647
 20
518.9360483916843
 30
0.0
  0
ELLIPSE
  5
11D
330
93
100
AcDbEntity
  8
$DDT_AUDIT_GENERATED_(11A)
  6
Continuous
 62
     7
100
AcDbEllipse
 10
206.735085198
 20
4427.7318740114
 30
0.0
 11
206.563956824443
 21
-3941.461119093233
 31
0.0
210
0.0
220
0.0
230
1.0
 40
0.0026194594
 41
-0.1289317485961137
 42
-0.1245236266404124
  0
ELLIPSE
  5
11E
330
93
100
AcDbEntity
  8
$DDT_AUDIT_GENERATED_(11A)
  6
Continuous
 62
     7
100
AcDbEllipse
 10
588.7506656009
 20
4427.7154426195
 30
0.0
 11
-206.5631017602782
 21
-3941.444687940917
 31
0.0
210
0.0
220
0.0
230
1.0
 40
0.0026194647
 41
0.1245238810581729
 42
0.1289320181761777
  0
ARC
  5
11F
330
93
100
AcDbEntity
  8
$DDT_AUDIT_GENERATED_(11A)
  6
Continuous
 62
     7
100
AcDbCircle
 10
397.7433649344
 20
-5506.3895476279
 30
0.0
 40
6031.043029588643
100
AcDbArc
 50
89.7991757122
 51
90.2008254687
  0
LINE
  5
120
330
93
100
AcDbEntity
  8
$DDT_AUDIT_GENERATED_(11A)
  6
Continuous
 62
     7
100
AcDbLine
 10
423.1703287281
 20
479.6554901779
 30
0.0
 11
372.3162771665
 21
479.6554901779
 31
0.0
  0
SPLINE
  5
121
330
93
100
AcDbEntity
  8
$DDT_AUDIT_GENERATED_(11A)
  6
Continuous
 62
     7
100
AcDbSpline
210
0.0
220
0.0
230
1.0
 70
    11
 71
     3
 72
    23
 73
    19
 74
     0
 42
0.0000000004436811
 43
0.0000000001
 40
0.0
 40
0.0
 40
0.0
 40
0.0
 40
0.0590123114903445
 40
0.1248131724136465
 40
0.1766568801515686
 40
0.250034781206034
 40
0.3234402458185077
 40
0.3747663979511367
 40
0.4406611830764217
 40
0.4995794530002671
 40
0.5586261205494071
 40
0.624650715412374
 40
0.6761999560213078
 40
0.7499745732364165
 40
0.8232366914914809
 40
0.8750309199954588
 40
0.9409131900626801
 40
1.0
 40
1.0
 40
1.0
 40
1.0
 10
397.7461850795243
 20
495.9932424891124
 30
0.0
 10
397.3091115596853
 20
495.9932426666322
 30
0.0
 10
396.3847004887015
 20
495.7667646908474
 30
0.0
 10
395.3583530676096
 20
494.9031278890926
 30
0.0
 10
394.6673858694803
 20
493.6707102639373
 30
0.0
 10
394.3952206691941
 20
492.2092207214408
 30
0.0
 10
394.6688466776843
 20
490.7521132409568
 30
0.0
 10
395.3568012990689
 20
489.5226792804249
 30
0.0
 10
396.3768131008132
 20
488.6582197089174
 30
0.0
 10
397.7372216310476
 20
488.319346287621
 30
0.0
 10
399.1011082975519
 20
488.6499850165601
 30
0.0
 10
400.1279699176749
 20
489.5126542972953
 30
0.0
 10
400.8218548208363
 20
490.745108660222
 30
0.0
 10
401.0975064585899
 20
492.2059000179112
 30
0.0
 10
400.8254238504262
 20
493.6687899237407
 30
0.0
 10
400.1357062391814
 20
494.9011262415307
 30
0.0
 10
399.1094066584375
 20
495.766194415393
 30
0.0
 10
398.1838103706399
 20
495.9932423113686
 30
0.0
 10
397.7461850795243
 20
495.9932424891124
 30
0.0
  0
ARC
  5
122
330
93
100
AcDbEntity
  8
$DDT_AUDIT_GENERATED_(11A)
  6
Continuous
 62
     7
100
AcDbCircle
 10
397.7433284564
 20
1365.533145755
 30
0.0
 40
856.8013579536506
100
AcDbArc
 50
268.5368052834
 51
271.4631915306
  0
LINE
  5
123
330
93
100
AcDbEntity
  8
$DDT_AUDIT_GENERATED_(11A)
  6
Continuous
 62
     7
100
AcDbLine
 10
420.1047178152
 20
509.0091673498
 30
0.0
 11
423.666601773
 21
480.2159709021
 31
0.0
  0
LINE
  5
124
330
93
100
AcDbEntity
  8
$DDT_AUDIT_GENERATED_(11A)
  6
Continuous
 62
     7
100
AcDbLine
 10
419.3784525435
 20
524.1806182741
 30
0.0
 11
419.6732430935
 21
521.7976061343
 31
0.0
  0
ELLIPSE
  5
125
330
93
100
AcDbEntity
  8
$DDT_AUDIT_GENERATED_(11A)
  6
Continuous
 62
     7
100
AcDbEllipse
 10
-5677.464213992
 20
49802.9926507636
 30
0.0
 11
6052.473754957787
 21
-49661.73846299262
 31
0.0
210
0.0
220
0.0
230
0.9999999999999999
 40
0.0148337313
 41
0.1206232633465655
 42
0.1220803344716739
  0
ELLIPSE
  5
126
330
93
100
AcDbEntity
  8
$DDT_AUDIT_GENERATED_(11A)
  6
Continuous
 62
     7
100
AcDbEllipse
 10
420.1043394907
 20
509.4394291254
 30
0.0
 11
-0.4258953679521782
 21
3.494861632295052
 31
0.0
210
0.0
220
0.0
230
1.0
 40
0.0147859312
 41
0.1205055908200067
 42
1.69242008139594
  0
SPLINE
  5
127
330
93
100
AcDbEntity
  8
$DDT_AUDIT_GENERATED_(11A)
  6
Continuous
 62
     7
100
AcDbSpline
210
0.0
220
0.0
230
1.0
 70
     8
 71
     3
 72
    20
 73
    16
 74
     0
 42
0.0000000039037994
 43
0.0000000001
 40
0.0
 40
0.0
 40
0.0
 40
0.0
 40
0.0420019903964128
 40
0.0836673932126929
 40
0.1251779739649309
 40
0.1667175342124403
 40
0.2084694961263686
 40
0.2506145118051107
 40
0.3752457878381781
 40
0.5001089744636926
 40
0.6251261134041731
 40
0.7504496021187248
 40
0.8338588742583446
 40
0.9165574099628686
 40
1.0
 40
1.0
 40
1.0
 40
1.0
 10
384.7122010585325
 20
518.9360489980695
 30
0.0
 10
384.7127322500661
 20
518.9438791606383
 30
0.0
 10
384.7137701692903
 20
518.9580905678814
 30
0.0
 10
384.7289454256205
 20
518.9790948142038
 30
0.0
 10
384.7541423741523
 20
518.999717503845
 30
0.0
 10
384.790304968342
 20
519.0199490728317
 30
0.0
 10
384.8372066821952
 20
519.0397968859374
 30
0.0
 10
384.9320510467914
 20
519.0718514840528
 30
0.0
 10
385.1108588942066
 20
519.1138861529388
 30
0.0
 10
385.4243862927182
 20
519.159752766822
 30
0.0
 10
385.8060663353885
 20
519.1964356340087
 30
0.0
 10
386.1958689262372
 20
519.2190740878733
 30
0.0
 10
386.5589912490523
 20
519.2312477124021
 30
0.0
 10
386.8815440103747
 20
519.2365211414797
 30
0.0
 10
387.100007854324
 20
519.2353166892432
 30
0.0
 10
387.2097208835538
 20
519.2339385963745
 30
0.0
  0
ARC
  5
128
330
93
100
AcDbEntity
  8
$DDT_AUDIT_GENERATED_(11A)
  6
Continuous
 62
     7
100
AcDbCircle
 10
397.7432880986
 20
1343.6943461286
 30
0.0
 40
831.6194145479107
100
AcDbArc
 50
268.5219809034
 51
271.4780211224
  0
ARC
  5
129
330
93
100
AcDbEntity
  8
$DDT_AUDIT_GENERATED_(11A)
  6
Continuous
 62
     7
100
AcDbCircle
 10
397.7434269233
 20
-6061.4259588319
 30
0.0
 40
6583.260507706959
100
AcDbArc
 50
89.8133417955
 51
90.1866603356
  0
LINE
  5
12A
330
93
100
AcDbEntity
  8
$DDT_AUDIT_GENERATED_(11A)
  6
Continuous
 62
     7
100
AcDbLine
 10
387.0623335393
 20
516.4185430908
 30
0.0
 11
408.42427561
 21
516.4185461673
 31
0.0
  0
LINE
  5
12B
330
93
100
AcDbEntity
  8
$DDT_AUDIT_GENERATED_(11A)
  6
Continuous
 62
     7
100
AcDbLine
 10
371.8200041211
 20
480.2159708978
 30
0.0
 11
375.3818880699
 21
509.0091690901
 31
0.0
  0
ELLIPSE
  5
12C
330
93
100
AcDbEntity
  8
$DDT_AUDIT_GENERATED_(11A)
  6
Continuous
 62
     7
100
AcDbEllipse
 10
375.3828611961
 20
509.4437446663
 30
0.0
 11
-0.4253039109881063
 21
-3.490417698525081
 31
0.0
210
0.0
220
0.0
230
0.9999999999999999
 40
0.0147859365
 41
1.447768922795255
 42
3.021308829354304
  0
ELLIPSE
  5
12D
330
93
100
AcDbEntity
  8
$DDT_AUDIT_GENERATED_(11A)
  6
Continuous
 62
     7
100
AcDbEllipse
 10
6460.1606786001
 20
49699.6085360042
 30
0.0
 11
-6039.684609449952
 21
-49558.35137358282
 31
0.0
210
0.0
220
0.0
230
0.9999999999999999
 40
0.0148488556
 41
-0.1222073850985499
 42
-0.1207487833167518
  0
LINE
  5
12E
330
93
100
AcDbEntity
  8
$DDT_AUDIT_GENERATED_(11A)
  6
Continuous
 62
     7
100
AcDbLine
 10
375.8133624937
 20
521.7976057068
 30
0.0
 11
376.1081530241
 21
524.1806178344
 31
0.0
  0
ARC
  5
12F
330
93
100
AcDbEntity
  8
$DDT_AUDIT_GENERATED_(11A)
  6
Continuous
 62
     7
100
AcDbCircle
 10
413.0703556785
 20
519.1127667439
 30
0.0
 40
2.820172654990414
100
AcDbArc
 50
180.0056084883
 51
183.9995826357
  0
ARC
  5
130
330
93
100
AcDbEntity
  8
$DDT_AUDIT_GENERATED_(11A)
  6
Continuous
 62
     7
100
AcDbCircle
 10
382.4250694762
 20
519.1124978572
 30
0.0
 40
2.811356109048317
100
AcDbArc
 50
355.9933473575
 51
359.9998433322
  0
SPLINE
  5
131
330
93
100
AcDbEntity
  8
$DDT_AUDIT_GENERATED_(11A)
  6
Continuous
 62
     7
100
AcDbSpline
210
0.0
220
0.0
230
1.0
 70
     8
 71
     3
 72
    25
 73
    21
 74
     0
 42
0.0000000043691513
 43
0.0000000001
 40
0.0
 40
0.0
 40
0.0
 40
0.0
 40
0.0454586789234653
 40
0.0913856982181127
 40
0.1377828834307386
 40
0.1846520049015296
 40
0.2319947797598297
 40
0.2798128738408421
 40
0.3281079035263093
 40
0.3768814375121596
 40
0.4261349985059908
 40
0.475870064857207
 40
0.5260880721224852
 40
0.5767904145692355
 40
0.6279784466195423
 40
0.6796534842370505
 40
0.731816806259119
 40
0.7844696556765323
 40
0.8376132408629356
 40
0.8643725937767353
 40
0.8643725937767353
 40
0.8643725937767353
 40
0.8643725937767353
 10
408.4242756327598
 20
516.4185435547138
 30
0.0
 10
408.472076357022
 20
516.4192422995088
 30
0.0
 10
408.5681702744673
 20
516.420647043252
 30
0.0
 10
408.7122788439087
 20
516.424839576832
 30
0.0
 10
408.8563078289115
 20
516.4305352608823
 30
0.0
 10
408.9994263339636
 20
516.437859043169
 30
0.0
 10
409.140769569895
 20
516.4467323712761
 30
0.0
 10
409.2794409763598
 20
516.4571237360233
 30
0.0
 10
409.4145181051036
 20
516.4689804028125
 30
0.0
 10
409.5450582829826
 20
516.4822469431275
 30
0.0
 10
409.6701051369296
 20
516.4968602303198
 30
0.0
 10
409.7886956511317
 20
516.5127509184091
 30
0.0
 10
409.8998678943546
 20
516.5298432450601
 30
0.0
 10
410.0026690604196
 20
516.548055382378
 30
0.0
 10
410.0961649371783
 20
516.5672997371757
 30
0.0
 10
410.179446396489
 20
516.5874833608816
 30
0.0
 10
410.2516493305882
 20
516.6085084530223
 30
0.0
 10
410.3119255600247
 20
516.6302728724097
 30
0.0
 10
410.351563986649
 20
516.6488952738634
 30
0.0
 10
410.3702212865462
 20
516.6602385005334
 30
0.0
 10
410.3759045873552
 20
516.6640481422363
 30
0.0
  0
SPLINE
  5
132
330
93
100
AcDbEntity
  8
$DDT_AUDIT_GENERATED_(11A)
  6
Continuous
 62
     7
100
AcDbSpline
210
0.0
220
0.0
230
1.0
 70
     8
 71
     3
 72
    10
 73
     6
 74
     0
 42
0.000000017805973
 43
0.0000000001
 40
0.8643725937767353
 40
0.8643725937767353
 40
0.8643725937767353
 40
0.8643725937767353
 40
0.8912487367560636
 40
0.9453772859928068
 40
1.0
 40
1.0
 40
1.0
 40
1.0
 10
410.3759045873552
 20
516.6640481422363
 30
0.0
 10
410.3816126926905
 20
516.6678744109594
 30
0.0
 10
410.3970991268465
 20
516.6794396664163
 30
0.0
 10
410.4147030367656
 20
516.6989324109541
 30
0.0
 10
410.4164199748145
 20
516.714617558519
 30
0.0
 10
410.417282367151
 20
516.7224957700627
 30
0.0
  0
SPLINE
  5
133
330
93
100
AcDbEntity
  8
$DDT_AUDIT_GENERATED_(11A)
  6
Continuous
 62
     7
100
AcDbSpline
210
0.0
220
0.0
230
1.0
 70
     8
 71
     3
 72
    10
 73
     6
 74
     0
 42
0.0000000178800169
 43
0.0000000001
 40
0.0
 40
0.0
 40
0.0
 40
0.0
 40
0.0455544679350248
 40
0.0907655256900191
 40
0.1356338133103106
 40
0.1356338133103106
 40
0.1356338133103106
 40
0.1356338133103106
 10
385.0693232819139
 20
516.7224928567193
 30
0.0
 10
385.0698448175713
 20
516.7159229138198
 30
0.0
 10
385.0708846880653
 20
516.7028325169238
 30
0.0
 10
385.0853487766529
 20
516.6833153671555
 30
0.0
 10
385.1011298631478
 20
516.6704304057117
 30
0.0
 10
385.110656314597
 20
516.6640426664806
 30
0.0
  0
SPLINE
  5
134
330
93
100
AcDbEntity
  8
$DDT_AUDIT_GENERATED_(11A)
  6
Continuous
 62
     7
100
AcDbSpline
210
0.0
220
0.0
230
1.0
 70
     8
 71
     3
 72
    28
 73
    24
 74
     0
 42
0.0000000043691396
 43
0.0000000001
 40
0.1356338133103106
 40
0.1356338133103106
 40
0.1356338133103106
 40
0.1356338133103106
 40
0.1801599857148196
 40
0.2243447131273599
 40
0.2681886815224235
 40
0.3116925930860185
 40
0.3548571666921029
 40
0.39768313839512
 40
0.4401712619393248
 40
0.4823223092853725
 40
0.5241370711549107
 40
0.5656163575937277
 40
0.606760998554175
 40
0.6475718444975127
 40
0.6880497670169116
 40
0.7281956594818046
 40
0.768010437704355
 40
0.8074950406288163
 40
0.8466504310445337
 40
0.8854775963234404
 40
0.9239775491828485
 40
0.9621513284743958
 40
1.0
 40
1.0
 40
1.0
 40
1.0
 10
385.110656314597
 20
516.6640426664806
 30
0.0
 10
385.120110128017
 20
516.6577036329813
 30
0.0
 10
385.1422139283306
 20
516.6451334827449
 30
0.0
 10
385.1845753855666
 20
516.6265956910443
 30
0.0
 10
385.2356645530078
 20
516.6085103797859
 30
0.0
 10
385.295017556705
 20
516.5909385993979
 30
0.0
 10
385.3621647394589
 20
516.5739396126352
 30
0.0
 10
385.4366073134766
 20
516.5575706711035
 30
0.0
 10
385.5178286615337
 20
516.5418867650798
 30
0.0
 10
385.6052963378973
 20
516.5269404160549
 30
0.0
 10
385.6984663805201
 20
516.5127814934115
 30
0.0
 10
385.7967868351838
 20
516.499457058999
 30
0.0
 10
385.899701290989
 20
516.4870112398547
 30
0.0
 10
386.0066521971742
 20
516.475485120361
 30
0.0
 10
386.1170840071182
 20
516.4649166830314
 30
0.0
 10
386.2304461238732
 20
516.4553406853108
 30
0.0
 10
386.346195648055
 20
516.4467888823845
 30
0.0
 10
386.4637999067333
 20
516.4392890790401
 30
0.0
 10
386.5827388157349
 20
516.4328685957751
 30
0.0
 10
386.7025068693036
 20
516.427541558286
 30
0.0
 10
386.8226155106148
 20
516.4233558874776
 30
0.0
 10
386.9425931085237
 20
516.4202203716479
 30
0.0
 10
387.0225339833107
 20
516.4190967659448
 30
0.0
 10
387.0623334883134
 20
516.4185373661285
 30
0.0
  0
ELLIPSE
  5
135
330
93
100
AcDbEntity
  8
$DDT_AUDIT_GENERATED_(11A)
  6
Continuous
 62
     7
100
AcDbEllipse
 10
372.3162771665
 20
480.1554901779
 30
0.0
 11
0.0
 21
0.4999448504730852
 31
0.0
210
0.0
220
0.0
230
1.0
 40
1.0
 41
1.449524506896693
 42
3.141592653589793
  0
ELLIPSE
  5
136
330
93
100
AcDbEntity
  8
$DDT_AUDIT_GENERATED_(11A)
  6
Continuous
 62
     7
100
AcDbEllipse
 10
423.1703287281
 20
480.1554901779
 30
0.0
 11
-1.182387521225792E-10
 21
-0.4999999999998964
 31
0.0
210
0.0
220
0.0
230
1.0
 40
0.999888063
 41
0.0
 42
1.692054713715142
  0
SPLINE
  5
137
330
93
100
AcDbEntity
  8
$DDT_AUDIT_GENERATED_(11A)
  6
Continuous
 62
     7
100
AcDbSpline
210
0.0
220
0.0
230
1.0
 70
     8
 71
     3
 72
     8
 73
     4
 74
     0
 42
0.0000000031611785
 43
0.0000000001
 40
0.0
 40
0.0
 40
0.0
 40
0.0
 40
0.1635953005932636
 40
0.1635953005932636
 40
0.1635953005932636
 40
0.1635953005932636
 10
408.2767385887628
 20
519.2328645186773
 30
0.0
 10
408.4670747294932
 20
519.23357554754
 30
0.0
 10
408.6315951506465
 20
519.2341419267157
 30
0.0
 10
408.7942419640848
 20
519.2325325296817
 30
0.0
  0
ARC
  5
138
330
93
100
AcDbEntity
  8
$DDT_AUDIT_GENERATED_(11A)
  6
Continuous
 62
     7
100
AcDbCircle
 10
419.1769700181
 20
521.7371256566
 30
0.0
 40
0.5000000000106565
100
AcDbArc
 50
0.0563341779
 51
7.0519498382
  0
ARC
  5
139
330
93
100
AcDbEntity
  8
$DDT_AUDIT_GENERATED_(11A)
  6
Continuous
 62
     7
100
AcDbCircle
 10
418.8821794681
 20
524.1201377964
 30
0.0
 40
0.5000000000043953
100
AcDbArc
 50
7.0519481557
 51
89.7864263572
  0
ARC
  5
13A
330
93
100
AcDbEntity
  8
$DDT_AUDIT_GENERATED_(11A)
  6
Continuous
 62
     7
100
AcDbCircle
 10
376.3096355695
 20
521.7371252332
 30
0.0
 40
0.5000000000000191
100
AcDbArc
 50
172.9480505895
 51
179.9436658328
  0
ARC
  5
13B
330
93
100
AcDbEntity
  8
$DDT_AUDIT_GENERATED_(11A)
  6
Continuous
 62
     7
100
AcDbCircle
 10
376.6044261
 20
524.1201373607
 30
0.0
 40
0.4999999999999969
100
AcDbArc
 50
90.213524617
 51
172.9480522698
  0
LINE
  5
13D
330
93
100
AcDbEntity
  8
$DDT_AUDIT_GENERATED_(13C)
  6
Continuous
 62
     7
100
AcDbLine
 10
70.4961850795
 20
430.9627684457
 30
0.0
 11
70.4961850795
 21
435.3627684457
 31
0.0
  0
LINE
  5
13E
330
93
100
AcDbEntity
  8
$DDT_AUDIT_GENERATED_(13C)
  6
Continuous
 62
     7
100
AcDbLine
 10
34.9961850795
 20
435.3627684457
 30
0.0
 11
34.9961850795
 21
430.9627684457
 31
0.0
  0
LINE
  5
140
330
93
100
AcDbEntity
  8
$DDT_AUDIT_GENERATED_(13F)
  6
Continuous
 62
     7
100
AcDbLine
 10
430.2461850795
 20
429.9627684457
 30
0.0
 11
430.2461850795
 21
420.9627684457
 31
0.0
  0
LINE
  5
141
330
93
100
AcDbEntity
  8
$DDT_AUDIT_GENERATED_(13F)
  6
Continuous
 62
     7
100
AcDbLine
 10
366.2461850795
 20
420.9627684457
 30
0.0
 11
429.2461850795
 21
420.9627684457
 31
0.0
  0
LINE
  5
142
330
93
100
AcDbEntity
  8
$DDT_AUDIT_GENERATED_(13F)
  6
Continuous
 62
     7
100
AcDbLine
 10
366.2461850795
 20
420.9627684457
 30
0.0
 11
365.2461850795
 21
420.9627684457
 31
0.0
  0
LINE
  5
143
330
93
100
AcDbEntity
  8
$DDT_AUDIT_GENERATED_(13F)
  6
Continuous
 62
     7
100
AcDbLine
 10
430.2461850795
 20
420.9627684457
 30
0.0
 11
429.2461850795
 21
420.9627684457
 31
0.0
  0
LINE
  5
144
330
93
100
AcDbEntity
  8
$DDT_AUDIT_GENERATED_(13F)
  6
Continuous
 62
     7
100
AcDbLine
 10
366.2461850795
 20
430.9627684457
 30
0.0
 11
429.2461850795
 21
430.9627684457
 31
0.0
  0
LINE
  5
145
330
93
100
AcDbEntity
  8
$DDT_AUDIT_GENERATED_(13F)
  6
Continuous
 62
     7
100
AcDbLine
 10
365.2461850795
 20
420.9627684457
 30
0.0
 11
365.2461850795
 21
429.9627684457
 31
0.0
  0
ARC
  5
146
330
93
100
AcDbEntity
  8
$DDT_AUDIT_GENERATED_(13F)
  6
Continuous
 62
     7
100
AcDbCircle
 10
366.2461850795
 20
429.9627684457
 30
0.0
 40
0.9999999999999991
100
AcDbArc
 50
90.0
 51
180.0
  0
ARC
  5
147
330
93
100
AcDbEntity
  8
$DDT_AUDIT_GENERATED_(13F)
  6
Continuous
 62
     7
100
AcDbCircle
 10
429.2461850795
 20
429.9627684457
 30
0.0
 40
1.000000000000001
100
AcDbArc
 50
0.0
 51
90.0
  0
ENDBLK
  5
149
330
93
100
AcDbEntity
  8
0
100
AcDbBlockEnd
  0
BLOCK
  5
208
330
14A
100
AcDbEntity
  8
0
100
AcDbBlockBegin
  2
SE1
 70
     0
 10
0.0
 20
0.0
 30
0.0
  3
SE1
  1

  0
LINE
  5
14C
330
14A
100
AcDbEntity
  8
$DDT_AUDIT_GENERATED_(95)
  6
Continuous
 62
     7
100
AcDbLine
 10
720.3344583363
 20
429.9627684457
 30
0.0
 11
720.3344583363
 21
421.2627684457
 31
0.0
  0
LINE
  5
14D
330
14A
100
AcDbEntity
  8
$DDT_AUDIT_GENERATED_(95)
  6
Continuous
 62
     7
100
AcDbLine
 10
656.3344583363
 20
421.2627684457
 30
0.0
 11
719.3344583363
 21
421.2627684457
 31
0.0
  0
LINE
  5
14E
330
14A
100
AcDbEntity
  8
$DDT_AUDIT_GENERATED_(95)
  6
Continuous
 62
     7
100
AcDbLine
 10
656.3344583363
 20
421.2627684457
 30
0.0
 11
655.3344583363
 21
421.2627684457
 31
0.0
  0
LINE
  5
14F
330
14A
100
AcDbEntity
  8
$DDT_AUDIT_GENERATED_(95)
  6
Continuous
 62
     7
100
AcDbLine
 10
720.3344583363
 20
421.2627684457
 30
0.0
 11
719.3344583363
 21
421.2627684457
 31
0.0
  0
LINE
  5
150
330
14A
100
AcDbEntity
  8
$DDT_AUDIT_GENERATED_(95)
  6
Continuous
 62
     7
100
AcDbLine
 10
655.3344583363
 20
421.2627684457
 30
0.0
 11
655.3344583363
 21
429.9627684457
 31
0.0
  0
LINE
  5
151
330
14A
100
AcDbEntity
  8
$DDT_AUDIT_GENERATED_(95)
  6
Continuous
 62
     7
100
AcDbLine
 10
656.3344583363
 20
430.9627684457
 30
0.0
 11
719.3344583363
 21
430.9627684457
 31
0.0
  0
ARC
  5
152
330
14A
100
AcDbEntity
  8
$DDT_AUDIT_GENERATED_(95)
  6
Continuous
 62
     7
100
AcDbCircle
 10
656.3344583363
 20
429.9627684457
 30
0.0
 40
1.000000000000001
100
AcDbArc
 50
90.0
 51
180.0
  0
ARC
  5
153
330
14A
100
AcDbEntity
  8
$DDT_AUDIT_GENERATED_(95)
  6
Continuous
 62
     7
100
AcDbCircle
 10
719.3344583363
 20
429.9627684457
 30
0.0
 40
1.000000000000001
100
AcDbArc
 50
0.0
 51
90.0
  0
LINE
  5
154
330
14A
100
AcDbEntity
  8
$DDT_AUDIT_GENERATED_(9E)
  6
Continuous
 62
     7
100
AcDbLine
 10
713.8344583363
 20
477.2628564374
 30
0.0
 11
713.8344583363
 21
430.9627684457
 31
0.0
  0
LINE
  5
155
330
14A
100
AcDbEntity
  8
$DDT_AUDIT_GENERATED_(9E)
  6
Continuous
 62
     7
100
AcDbLine
 10
662.3344583363
 20
477.7628564374
 30
0.0
 11
675.8382654558
 21
477.7628564374
 31
0.0
  0
LINE
  5
156
330
14A
100
AcDbEntity
  8
$DDT_AUDIT_GENERATED_(9E)
  6
Continuous
 62
     7
100
AcDbLine
 10
699.8382654558
 20
477.7628564374
 30
0.0
 11
713.3344583363
 21
477.7628564374
 31
0.0
  0
ARC
  5
157
330
14A
100
AcDbEntity
  8
$DDT_AUDIT_GENERATED_(9E)
  6
Continuous
 62
     7
100
AcDbCircle
 10
662.3344583363
 20
477.2628564374
 30
0.0
 40
0.5000000000000004
100
AcDbArc
 50
90.0
 51
180.0
  0
ARC
  5
158
330
14A
100
AcDbEntity
  8
$DDT_AUDIT_GENERATED_(9E)
  6
Continuous
 62
     7
100
AcDbCircle
 10
713.3344583363
 20
477.2628564374
 30
0.0
 40
0.5000000000000004
100
AcDbArc
 50
0.0
 51
90.0
  0
LINE
  5
159
330
14A
100
AcDbEntity
  8
$DDT_AUDIT_GENERATED_(9E)
  6
Continuous
 62
     7
100
AcDbLine
 10
661.8344583363
 20
430.9627684457
 30
0.0
 11
661.8344583363
 21
477.2628564374
 31
0.0
  0
LINE
  5
15A
330
14A
100
AcDbEntity
  8
$DDT_AUDIT_GENERATED_(A4)
  6
Continuous
 62
     7
100
AcDbLine
 10
672.7686048215
 20
489.6132964795
 30
0.0
 11
673.9114709373
 21
489.6132964795
 31
0.0
  0
ARC
  5
15B
330
14A
100
AcDbEntity
  8
$DDT_AUDIT_GENERATED_(A4)
  6
Continuous
 62
     7
100
AcDbCircle
 10
687.8344583363
 20
469.6628564374
 30
0.0
 40
24.99999999999988
100
AcDbArc
 50
127.0587879329
 51
161.0949986971
  0
ARC
  5
15C
330
14A
100
AcDbEntity
  8
$DDT_AUDIT_GENERATED_(A4)
  6
Continuous
 62
     7
100
AcDbCircle
 10
687.8344583363
 20
469.6628564374
 30
0.0
 40
25.0
100
AcDbArc
 50
18.9050013029
 51
23.5597597541
  0
LINE
  5
15D
330
14A
100
AcDbEntity
  8
$DDT_AUDIT_GENERATED_(A7)
  6
Continuous
 62
     7
100
AcDbLine
 10
667.1844583363
 20
435.8627684457
 30
0.0
 11
667.1844583363
 21
454.8627684457
 31
0.0
  0
LINE
  5
15E
330
14A
100
AcDbEntity
  8
$DDT_AUDIT_GENERATED_(A7)
  6
Continuous
 62
     7
100
AcDbLine
 10
707.9844583363
 20
435.3627684457
 30
0.0
 11
667.6844583363
 21
435.3627684457
 31
0.0
  0
LINE
  5
15F
330
14A
100
AcDbEntity
  8
$DDT_AUDIT_GENERATED_(A7)
  6
Continuous
 62
     7
100
AcDbLine
 10
708.4844583363
 20
454.8627684457
 30
0.0
 11
708.4844583363
 21
435.8627684457
 31
0.0
  0
LINE
  5
160
330
14A
100
AcDbEntity
  8
$DDT_AUDIT_GENERATED_(A7)
  6
Continuous
 62
     7
100
AcDbLine
 10
667.6844583363
 20
455.3627684457
 30
0.0
 11
707.9844583363
 21
455.3627684457
 31
0.0
  0
ARC
  5
161
330
14A
100
AcDbEntity
  8
$DDT_AUDIT_GENERATED_(A7)
  6
Continuous
 62
     7
100
AcDbCircle
 10
707.9844583363
 20
454.8627684457
 30
0.0
 40
0.5000000000000004
100
AcDbArc
 50
0.0
 51
90.0
  0
ARC
  5
162
330
14A
100
AcDbEntity
  8
$DDT_AUDIT_GENERATED_(A7)
  6
Continuous
 62
     7
100
AcDbCircle
 10
707.9844583363
 20
435.8627684457
 30
0.0
 40
0.4999999999999987
100
AcDbArc
 50
270.0
 51
0.0
  0
ARC
  5
163
330
14A
100
AcDbEntity
  8
$DDT_AUDIT_GENERATED_(A7)
  6
Continuous
 62
     7
100
AcDbCircle
 10
667.6844583363
 20
454.8627684457
 30
0.0
 40
0.5000000000000004
100
AcDbArc
 50
90.0
 51
180.0
  0
ARC
  5
164
330
14A
100
AcDbEntity
  8
$DDT_AUDIT_GENERATED_(A7)
  6
Continuous
 62
     7
100
AcDbCircle
 10
667.6844583363
 20
435.8627684457
 30
0.0
 40
0.5000000000000004
100
AcDbArc
 50
180.0
 51
270.0
  0
LINE
  5
165
330
14A
100
AcDbEntity
  8
$DDT_AUDIT_GENERATED_(B0)
  6
Continuous
 62
     7
100
AcDbLine
 10
699.6344583363
 20
462.0127684457
 30
0.0
 11
676.0344583363
 21
462.0127684457
 31
0.0
  0
LINE
  5
166
330
14A
100
AcDbEntity
  8
$DDT_AUDIT_GENERATED_(B0)
  6
Continuous
 62
     7
100
AcDbLine
 10
699.3344583363
 20
462.3127684457
 30
0.0
 11
676.3344583363
 21
462.3127684457
 31
0.0
  0
LINE
  5
167
330
14A
100
AcDbEntity
  8
$DDT_AUDIT_GENERATED_(B0)
  6
Continuous
 62
     7
100
AcDbLine
 10
698.8344583363
 20
465.5127684457
 30
0.0
 11
676.8344583363
 21
465.5127684457
 31
0.0
  0
LINE
  5
168
330
14A
100
AcDbEntity
  8
$DDT_AUDIT_GENERATED_(B0)
  6
Continuous
 62
     7
100
AcDbLine
 10
676.0344583363
 20
462.0127684457
 30
0.0
 11
676.0868661155
 21
461.0127684457
 31
0.0
  0
LINE
  5
169
330
14A
100
AcDbEntity
  8
$DDT_AUDIT_GENERATED_(B0)
  6
Continuous
 62
     7
100
AcDbLine
 10
699.582050557
 20
461.0127684457
 30
0.0
 11
699.6344583363
 21
462.0127684457
 31
0.0
  0
LINE
  5
16A
330
14A
100
AcDbEntity
  8
$DDT_AUDIT_GENERATED_(B0)
  6
Continuous
 62
     7
100
AcDbLine
 10
699.6344583363
 20
462.0127684457
 30
0.0
 11
699.3344583363
 21
462.3127684457
 31
0.0
  0
LINE
  5
16B
330
14A
100
AcDbEntity
  8
$DDT_AUDIT_GENERATED_(B0)
  6
Continuous
 62
     7
100
AcDbLine
 10
676.3344583363
 20
462.3127684457
 30
0.0
 11
676.0344583363
 21
462.0127684457
 31
0.0
  0
LINE
  5
16C
330
14A
100
AcDbEntity
  8
$DDT_AUDIT_GENERATED_(B0)
  6
Continuous
 62
     7
100
AcDbLine
 10
676.3344583363
 20
465.0127684457
 30
0.0
 11
676.3344583363
 21
462.3127684457
 31
0.0
  0
LINE
  5
16D
330
14A
100
AcDbEntity
  8
$DDT_AUDIT_GENERATED_(B0)
  6
Continuous
 62
     7
100
AcDbLine
 10
699.3344583363
 20
462.3127684457
 30
0.0
 11
699.3344583363
 21
465.0127684457
 31
0.0
  0
ARC
  5
16E
330
14A
100
AcDbEntity
  8
$DDT_AUDIT_GENERATED_(B0)
  6
Continuous
 62
     7
100
AcDbCircle
 10
676.8344583363
 20
465.0127684457
 30
0.0
 40
0.5000000000000004
100
AcDbArc
 50
90.0
 51
180.0
  0
ARC
  5
16F
330
14A
100
AcDbEntity
  8
$DDT_AUDIT_GENERATED_(B0)
  6
Continuous
 62
     7
100
AcDbCircle
 10
698.8344583363
 20
465.0127684457
 30
0.0
 40
0.5000000000000004
100
AcDbArc
 50
0.0
 51
90.0
  0
SPLINE
  5
170
330
14A
100
AcDbEntity
  8
$DDT_AUDIT_GENERATED_(BC)
  6
Continuous
 62
     7
100
AcDbSpline
210
0.0
220
0.0
230
1.0
 70
    12
 71
     5
 72
    12
 73
     6
 74
     0
 42
0.0000000251373102
 43
0.0000000001
 40
0.0
 40
0.0
 40
0.0
 40
0.0
 40
0.0
 40
0.0
 40
1.0
 40
1.0
 40
1.0
 40
1.0
 40
1.0
 40
1.0
 10
699.338265455829
 20
672.5127684456921
 30
0.0
 41
1.0
 10
699.4211081683043
 20
672.5127684456921
 30
0.0
 41
1.0
 10
699.5000293937624
 20
672.4959791042991
 30
0.0
 41
1.0
 10
699.5728849408342
 20
672.464545058686
 30
0.0
 41
1.0
 10
699.6375295245423
 20
672.4206111581651
 30
0.0
 41
1.0
 10
699.6918188464233
 20
672.366321836282
 30
0.0
 41
1.0
  0
SPLINE
  5
171
330
14A
100
AcDbEntity
  8
$DDT_AUDIT_GENERATED_(BC)
  6
Continuous
 62
     7
100
AcDbSpline
210
0.0
220
0.0
230
1.0
 70
    12
 71
     5
 72
    12
 73
     6
 74
     0
 42
0.0000000251373102
 43
0.0000000001
 40
0.0
 40
0.0
 40
0.0
 40
0.0
 40
0.0
 40
0.0
 40
1.0
 40
1.0
 40
1.0
 40
1.0
 40
1.0
 40
1.0
 10
699.6918188464233
 20
672.366321836282
 30
0.0
 41
1.0
 10
699.7461081683043
 20
672.3120325144001
 30
0.0
 41
1.0
 10
699.7900420688263
 20
672.247387930691
 30
0.0
 41
1.0
 10
699.8214761144363
 20
672.174532383618
 30
0.0
 41
1.0
 10
699.8382654558293
 20
672.0956111581601
 30
0.0
 41
1.0
 10
699.8382654553945
 20
672.012768445687
 30
0.0
 41
1.0
  0
SPLINE
  5
172
330
14A
100
AcDbEntity
  8
$DDT_AUDIT_GENERATED_(BC)
  6
Continuous
 62
     7
100
AcDbSpline
210
0.0
220
0.0
230
1.0
 70
    12
 71
     5
 72
    12
 73
     6
 74
     0
 42
0.0000000251373102
 43
0.0000000001
 40
0.0
 40
0.0
 40
0.0
 40
0.0
 40
0.0
 40
0.0
 40
1.0
 40
1.0
 40
1.0
 40
1.0
 40
1.0
 40
1.0
 10
675.8382654562638
 20
672.0127684456841
 30
0.0
 41
1.0
 10
675.8382654558297
 20
672.095611158159
 30
0.0
 41
1.0
 10
675.8550547972228
 20
672.174532383616
 30
0.0
 41
1.0
 10
675.8864888428327
 20
672.24738793069
 30
0.0
 41
1.0
 10
675.9304227433536
 20
672.3120325143991
 30
0.0
 41
1.0
 10
675.9847120652342
 20
672.366321836282
 30
0.0
 41
1.0
  0
LINE
  5
173
330
14A
100
AcDbEntity
  8
$DDT_AUDIT_GENERATED_(BC)
  6
Continuous
 62
     7
100
AcDbLine
 10
676.3382654558
 20
466.5127684457
 30
0.0
 11
699.3382654558
 21
466.5127684457
 31
0.0
  0
SPLINE
  5
174
330
14A
100
AcDbEntity
  8
$DDT_AUDIT_GENERATED_(BC)
  6
Continuous
 62
     7
100
AcDbSpline
210
0.0
220
0.0
230
1.0
 70
    12
 71
     5
 72
    12
 73
     6
 74
     0
 42
0.0000000251373088
 43
0.0000000001
 40
0.0
 40
0.0
 40
0.0
 40
0.0
 40
0.0
 40
0.0
 40
1.0
 40
1.0
 40
1.0
 40
1.0
 40
1.0
 40
1.0
 10
699.8382650986567
 20
467.0127684456911
 30
0.0
 41
1.0
 10
699.8382647414843
 20
466.9299257332161
 30
0.0
 41
1.0
 10
699.8214779360073
 20
466.8510045077621
 30
0.0
 41
1.0
 10
699.7900410330313
 20
466.778148960687
 30
0.0
 41
1.0
 10
699.7461081683033
 20
466.71350437698
 30
0.0
 41
1.0
 10
699.6918188464223
 20
466.659215055099
 30
0.0
 41
1.0
  0
SPLINE
  5
175
330
14A
100
AcDbEntity
  8
$DDT_AUDIT_GENERATED_(BC)
  6
Continuous
 62
     7
100
AcDbSpline
210
0.0
220
0.0
230
1.0
 70
    12
 71
     5
 72
    12
 73
     6
 74
     0
 42
0.0000000251373102
 43
0.0000000001
 40
0.0
 40
0.0
 40
0.0
 40
0.0
 40
0.0
 40
0.0
 40
1.0
 40
1.0
 40
1.0
 40
1.0
 40
1.0
 40
1.0
 10
675.9847120652353
 20
466.659215055099
 30
0.0
 41
1.0
 10
675.9304227433543
 20
466.7135043769811
 30
0.0
 41
1.0
 10
675.8864888428324
 20
466.77814896069
 30
0.0
 41
1.0
 10
675.8550547972224
 20
466.8510045077621
 30
0.0
 41
1.0
 10
675.8382654558293
 20
466.9299257332191
 30
0.0
 41
1.0
 10
675.8382656344153
 20
467.0127684456928
 30
0.0
 41
1.0
  0
SPLINE
  5
176
330
14A
100
AcDbEntity
  8
$DDT_AUDIT_GENERATED_(BC)
  6
Continuous
 62
     7
100
AcDbSpline
210
0.0
220
0.0
230
1.0
 70
    12
 71
     5
 72
    12
 73
     6
 74
     0
 42
0.0000000251373102
 43
0.0000000001
 40
0.0
 40
0.0
 40
0.0
 40
0.0
 40
0.0
 40
0.0
 40
1.0
 40
1.0
 40
1.0
 40
1.0
 40
1.0
 40
1.0
 10
676.3382654558293
 20
672.5127684456921
 30
0.0
 41
1.0
 10
676.2554227433533
 20
672.5127684456921
 30
0.0
 41
1.0
 10
676.1765015178963
 20
672.495979104298
 30
0.0
 41
1.0
 10
676.1036459708242
 20
672.464545058688
 30
0.0
 41
1.0
 10
676.0390013871153
 20
672.4206111581641
 30
0.0
 41
1.0
 10
675.9847120652342
 20
672.366321836282
 30
0.0
 41
1.0
  0
SPLINE
  5
177
330
14A
100
AcDbEntity
  8
$DDT_AUDIT_GENERATED_(BC)
  6
Continuous
 62
     7
100
AcDbSpline
210
0.0
220
0.0
230
1.0
 70
    12
 71
     5
 72
    12
 73
     6
 74
     0
 42
0.0000000251373102
 43
0.0000000001
 40
0.0
 40
0.0
 40
0.0
 40
0.0
 40
0.0
 40
0.0
 40
1.0
 40
1.0
 40
1.0
 40
1.0
 40
1.0
 40
1.0
 10
675.9847120652353
 20
466.659215055099
 30
0.0
 41
1.0
 10
676.0390013871163
 20
466.6049257332181
 30
0.0
 41
1.0
 10
676.1036459708253
 20
466.5609918326961
 30
0.0
 41
1.0
 10
676.1765015178963
 20
466.529557787085
 30
0.0
 41
1.0
 10
676.2554227433543
 20
466.5127684456921
 30
0.0
 41
1.0
 10
676.3382654558293
 20
466.5127684456921
 30
0.0
 41
1.0
  0
SPLINE
  5
178
330
14A
100
AcDbEntity
  8
$DDT_AUDIT_GENERATED_(BC)
  6
Continuous
 62
     7
100
AcDbSpline
210
0.0
220
0.0
230
1.0
 70
    12
 71
     5
 72
    12
 73
     6
 74
     0
 42
0.0000000251373102
 43
0.0000000001
 40
0.0
 40
0.0
 40
0.0
 40
0.0
 40
0.0
 40
0.0
 40
1.0
 40
1.0
 40
1.0
 40
1.0
 40
1.0
 40
1.0
 10
699.3382654558293
 20
466.5127684456921
 30
0.0
 41
1.0
 10
699.4211081683032
 20
466.5127684456921
 30
0.0
 41
1.0
 10
699.5000293937613
 20
466.529557787085
 30
0.0
 41
1.0
 10
699.5728849408323
 20
466.5609918326961
 30
0.0
 41
1.0
 10
699.6375295245413
 20
466.6049257332171
 30
0.0
 41
1.0
 10
699.6918188464223
 20
466.659215055099
 30
0.0
 41
1.0
  0
LINE
  5
179
330
14A
100
AcDbEntity
  8
$DDT_AUDIT_GENERATED_(BC)
  6
Continuous
 62
     7
100
AcDbLine
 10
676.3382654558
 20
672.5127684457
 30
0.0
 11
699.3382654558
 21
672.5127684457
 31
0.0
  0
LINE
  5
17A
330
14A
100
AcDbEntity
  8
$DDT_AUDIT_GENERATED_(BC)
  6
Continuous
 62
     7
100
AcDbLine
 10
675.8382654558
 20
467.0127684457
 30
0.0
 11
675.8382654558
 21
672.0127684457
 31
0.0
  0
LINE
  5
17B
330
14A
100
AcDbEntity
  8
$DDT_AUDIT_GENERATED_(BC)
  6
Continuous
 62
     7
100
AcDbLine
 10
699.8382654558
 20
672.0127684457
 30
0.0
 11
699.8382654558
 21
467.0127684457
 31
0.0
  0
SPLINE
  5
17C
330
14A
100
AcDbEntity
  8
$DDT_AUDIT_GENERATED_(BC)
  6
Continuous
 62
     7
100
AcDbSpline
210
0.0
220
0.0
230
1.0
 70
    12
 71
     5
 72
    12
 73
     6
 74
     0
 42
0.0000000070880827
 43
0.0000000001
 40
0.0
 40
0.0
 40
0.0
 40
0.0
 40
0.0
 40
0.0
 40
1.0
 40
1.0
 40
1.0
 40
1.0
 40
1.0
 40
1.0
 10
700.5882654558293
 20
651.4129215996921
 30
0.0
 41
1.0
 10
700.9610326813603
 20
651.413039214741
 30
0.0
 41
1.0
 10
701.1860319745812
 20
651.4131101471501
 30
0.0
 41
1.0
 10
701.3382654558288
 20
651.5651291485651
 30
0.0
 41
1.0
 10
701.3382654558288
 20
651.7901654547621
 30
0.0
 41
1.0
 10
701.3382654558288
 20
652.1630423123671
 30
0.0
 41
1.0
  0
LINE
  5
17D
330
14A
100
AcDbEntity
  8
$DDT_AUDIT_GENERATED_(BC)
  6
Continuous
 62
     7
100
AcDbLine
 10
701.3382654558
 20
652.1630423112
 30
0.0
 11
701.3382654558
 21
653.3627193065
 31
0.0
  0
LINE
  5
17E
330
14A
100
AcDbEntity
  8
$DDT_AUDIT_GENERATED_(BC)
  6
Continuous
 62
     7
100
AcDbLine
 10
700.5882654558
 20
651.438821481
 30
0.0
 11
700.5882654558
 21
651.4129215997
 31
0.0
  0
SPLINE
  5
17F
330
14A
100
AcDbEntity
  8
$DDT_AUDIT_GENERATED_(BC)
  6
Continuous
 62
     7
100
AcDbSpline
210
0.0
220
0.0
230
1.0
 70
    12
 71
     3
 72
     8
 73
     4
 74
     0
 42
0.0000000133333331
 43
0.0000000001
 40
0.0
 40
0.0
 40
0.0
 40
0.0
 40
1.0
 40
1.0
 40
1.0
 40
1.0
 10
699.8382654558293
 20
651.4128473065141
 30
0.0
 41
1.0
 10
700.0882654558276
 20
651.4128473065141
 30
0.0
 41
1.0
 10
700.3382654558259
 20
651.4128473065141
 30
0.0
 41
1.0
 10
700.5882654558293
 20
651.4129215996921
 30
0.0
 41
1.0
  0
SPLINE
  5
180
330
14A
100
AcDbEntity
  8
$DDT_AUDIT_GENERATED_(BC)
  6
Continuous
 62
     7
100
AcDbSpline
210
0.0
220
0.0
230
1.0
 70
    12
 71
     5
 72
    12
 73
     6
 74
     0
 42
0.0000000070879823
 43
0.0000000001
 40
0.0
 40
0.0
 40
0.0
 40
0.0
 40
0.0
 40
0.0
 40
1.0
 40
1.0
 40
1.0
 40
1.0
 40
1.0
 40
1.0
 10
700.5882654558267
 20
654.112719306457
 30
0.0
 41
1.0
 10
700.9610576619601
 20
654.112719306457
 30
0.0
 41
1.0
 10
701.1860576619594
 20
654.112719306457
 30
0.0
 41
1.0
 10
701.3382654558243
 20
653.960511512598
 30
0.0
 41
1.0
 10
701.3382654558293
 20
653.7355115126031
 30
0.0
 41
1.0
 10
701.3382654558293
 20
653.3627193064771
 30
0.0
 41
1.0
  0
LINE
  5
181
330
14A
100
AcDbEntity
  8
$DDT_AUDIT_GENERATED_(BC)
  6
Continuous
 62
     7
100
AcDbLine
 10
699.8382654558
 20
654.1127193065
 30
0.0
 11
700.5882654558
 21
654.1127193065
 31
0.0
  0
SPLINE
  5
182
330
14A
100
AcDbEntity
  8
$DDT_AUDIT_GENERATED_(BC)
  6
Continuous
 62
     7
100
AcDbSpline
210
0.0
220
0.0
230
1.0
 70
    12
 71
     5
 72
    12
 73
     6
 74
     0
 42
0.0000000070880827
 43
0.0000000001
 40
0.0
 40
0.0
 40
0.0
 40
0.0
 40
0.0
 40
0.0
 40
1.0
 40
1.0
 40
1.0
 40
1.0
 40
1.0
 40
1.0
 10
700.5882654558293
 20
613.912921599692
 30
0.0
 41
1.0
 10
700.9610326813603
 20
613.913039214741
 30
0.0
 41
1.0
 10
701.1860319745812
 20
613.9131101471501
 30
0.0
 41
1.0
 10
701.3382654558288
 20
614.065129148565
 30
0.0
 41
1.0
 10
701.3382654558288
 20
614.2901654547621
 30
0.0
 41
1.0
 10
701.3382654558288
 20
614.663042312367
 30
0.0
 41
1.0
  0
LINE
  5
183
330
14A
100
AcDbEntity
  8
$DDT_AUDIT_GENERATED_(BC)
  6
Continuous
 62
     7
100
AcDbLine
 10
701.3382654558
 20
614.6630423112
 30
0.0
 11
701.3382654558
 21
615.8627193065
 31
0.0
  0
LINE
  5
184
330
14A
100
AcDbEntity
  8
$DDT_AUDIT_GENERATED_(BC)
  6
Continuous
 62
     7
100
AcDbLine
 10
700.5882654558
 20
613.938821481
 30
0.0
 11
700.5882654558
 21
613.9129215997
 31
0.0
  0
SPLINE
  5
185
330
14A
100
AcDbEntity
  8
$DDT_AUDIT_GENERATED_(BC)
  6
Continuous
 62
     7
100
AcDbSpline
210
0.0
220
0.0
230
1.0
 70
    12
 71
     3
 72
     8
 73
     4
 74
     0
 42
0.0000000133333331
 43
0.0000000001
 40
0.0
 40
0.0
 40
0.0
 40
0.0
 40
1.0
 40
1.0
 40
1.0
 40
1.0
 10
699.8382654558293
 20
613.9128473065141
 30
0.0
 41
1.0
 10
700.0882654558276
 20
613.9128473065141
 30
0.0
 41
1.0
 10
700.3382654558259
 20
613.9128473065141
 30
0.0
 41
1.0
 10
700.5882654558293
 20
613.912921599692
 30
0.0
 41
1.0
  0
SPLINE
  5
186
330
14A
100
AcDbEntity
  8
$DDT_AUDIT_GENERATED_(BC)
  6
Continuous
 62
     7
100
AcDbSpline
210
0.0
220
0.0
230
1.0
 70
    12
 71
     5
 72
    12
 73
     6
 74
     0
 42
0.0000000070879823
 43
0.0000000001
 40
0.0
 40
0.0
 40
0.0
 40
0.0
 40
0.0
 40
0.0
 40
1.0
 40
1.0
 40
1.0
 40
1.0
 40
1.0
 40
1.0
 10
700.5882654558267
 20
616.6127193064572
 30
0.0
 41
1.0
 10
700.9610576619601
 20
616.6127193064572
 30
0.0
 41
1.0
 10
701.1860576619594
 20
616.6127193064572
 30
0.0
 41
1.0
 10
701.3382654558243
 20
616.460511512598
 30
0.0
 41
1.0
 10
701.3382654558293
 20
616.235511512602
 30
0.0
 41
1.0
 10
701.3382654558293
 20
615.8627193064771
 30
0.0
 41
1.0
  0
LINE
  5
187
330
14A
100
AcDbEntity
  8
$DDT_AUDIT_GENERATED_(BC)
  6
Continuous
 62
     7
100
AcDbLine
 10
699.8382654558
 20
616.6127193065
 30
0.0
 11
700.5882654558
 21
616.6127193065
 31
0.0
  0
SPLINE
  5
188
330
14A
100
AcDbEntity
  8
$DDT_AUDIT_GENERATED_(BC)
  6
Continuous
 62
     7
100
AcDbSpline
210
0.0
220
0.0
230
1.0
 70
    12
 71
     5
 72
    12
 73
     6
 74
     0
 42
0.0000000070880827
 43
0.0000000001
 40
0.0
 40
0.0
 40
0.0
 40
0.0
 40
0.0
 40
0.0
 40
1.0
 40
1.0
 40
1.0
 40
1.0
 40
1.0
 40
1.0
 10
700.5882654558293
 20
636.4129215996921
 30
0.0
 41
1.0
 10
700.9610326813603
 20
636.413039214741
 30
0.0
 41
1.0
 10
701.1860319745812
 20
636.4131101471501
 30
0.0
 41
1.0
 10
701.3382654558288
 20
636.5651291485651
 30
0.0
 41
1.0
 10
701.3382654558288
 20
636.7901654547621
 30
0.0
 41
1.0
 10
701.3382654558288
 20
637.1630423123661
 30
0.0
 41
1.0
  0
LINE
  5
189
330
14A
100
AcDbEntity
  8
$DDT_AUDIT_GENERATED_(BC)
  6
Continuous
 62
     7
100
AcDbLine
 10
701.3382654558
 20
637.1630423112
 30
0.0
 11
701.3382654558
 21
638.3627193065
 31
0.0
  0
LINE
  5
18A
330
14A
100
AcDbEntity
  8
$DDT_AUDIT_GENERATED_(BC)
  6
Continuous
 62
     7
100
AcDbLine
 10
700.5882654558
 20
636.438821481
 30
0.0
 11
700.5882654558
 21
636.4129215997
 31
0.0
  0
SPLINE
  5
18B
330
14A
100
AcDbEntity
  8
$DDT_AUDIT_GENERATED_(BC)
  6
Continuous
 62
     7
100
AcDbSpline
210
0.0
220
0.0
230
1.0
 70
    12
 71
     3
 72
     8
 73
     4
 74
     0
 42
0.0000000133333331
 43
0.0000000001
 40
0.0
 40
0.0
 40
0.0
 40
0.0
 40
1.0
 40
1.0
 40
1.0
 40
1.0
 10
699.8382654558293
 20
636.4128473065141
 30
0.0
 41
1.0
 10
700.0882654558276
 20
636.4128473065141
 30
0.0
 41
1.0
 10
700.3382654558259
 20
636.4128473065141
 30
0.0
 41
1.0
 10
700.5882654558293
 20
636.4129215996921
 30
0.0
 41
1.0
  0
SPLINE
  5
18C
330
14A
100
AcDbEntity
  8
$DDT_AUDIT_GENERATED_(BC)
  6
Continuous
 62
     7
100
AcDbSpline
210
0.0
220
0.0
230
1.0
 70
    12
 71
     5
 72
    12
 73
     6
 74
     0
 42
0.0000000070879823
 43
0.0000000001
 40
0.0
 40
0.0
 40
0.0
 40
0.0
 40
0.0
 40
0.0
 40
1.0
 40
1.0
 40
1.0
 40
1.0
 40
1.0
 40
1.0
 10
700.5882654558267
 20
639.112719306457
 30
0.0
 41
1.0
 10
700.9610576619601
 20
639.112719306457
 30
0.0
 41
1.0
 10
701.1860576619594
 20
639.112719306457
 30
0.0
 41
1.0
 10
701.3382654558243
 20
638.960511512598
 30
0.0
 41
1.0
 10
701.3382654558293
 20
638.7355115126021
 30
0.0
 41
1.0
 10
701.3382654558293
 20
638.3627193064771
 30
0.0
 41
1.0
  0
LINE
  5
18D
330
14A
100
AcDbEntity
  8
$DDT_AUDIT_GENERATED_(BC)
  6
Continuous
 62
     7
100
AcDbLine
 10
699.8382654558
 20
639.1127193065
 30
0.0
 11
700.5882654558
 21
639.1127193065
 31
0.0
  0
SPLINE
  5
18E
330
14A
100
AcDbEntity
  8
$DDT_AUDIT_GENERATED_(BC)
  6
Continuous
 62
     7
100
AcDbSpline
210
0.0
220
0.0
230
1.0
 70
    12
 71
     5
 72
    12
 73
     6
 74
     0
 42
0.0000000070880827
 43
0.0000000001
 40
0.0
 40
0.0
 40
0.0
 40
0.0
 40
0.0
 40
0.0
 40
1.0
 40
1.0
 40
1.0
 40
1.0
 40
1.0
 40
1.0
 10
700.5882654558293
 20
628.912921599692
 30
0.0
 41
1.0
 10
700.9610326813603
 20
628.913039214741
 30
0.0
 41
1.0
 10
701.1860319745812
 20
628.9131101471501
 30
0.0
 41
1.0
 10
701.3382654558288
 20
629.065129148565
 30
0.0
 41
1.0
 10
701.3382654558288
 20
629.290165454762
 30
0.0
 41
1.0
 10
701.3382654558288
 20
629.663042312366
 30
0.0
 41
1.0
  0
LINE
  5
18F
330
14A
100
AcDbEntity
  8
$DDT_AUDIT_GENERATED_(BC)
  6
Continuous
 62
     7
100
AcDbLine
 10
701.3382654558
 20
629.6630423112
 30
0.0
 11
701.3382654558
 21
630.8627193065
 31
0.0
  0
LINE
  5
190
330
14A
100
AcDbEntity
  8
$DDT_AUDIT_GENERATED_(BC)
  6
Continuous
 62
     7
100
AcDbLine
 10
700.5882654558
 20
628.938821481
 30
0.0
 11
700.5882654558
 21
628.9129215997
 31
0.0
  0
SPLINE
  5
191
330
14A
100
AcDbEntity
  8
$DDT_AUDIT_GENERATED_(BC)
  6
Continuous
 62
     7
100
AcDbSpline
210
0.0
220
0.0
230
1.0
 70
    12
 71
     3
 72
     8
 73
     4
 74
     0
 42
0.0000000133333331
 43
0.0000000001
 40
0.0
 40
0.0
 40
0.0
 40
0.0
 40
1.0
 40
1.0
 40
1.0
 40
1.0
 10
699.8382654558293
 20
628.9128473065141
 30
0.0
 41
1.0
 10
700.0882654558276
 20
628.9128473065141
 30
0.0
 41
1.0
 10
700.3382654558259
 20
628.9128473065141
 30
0.0
 41
1.0
 10
700.5882654558293
 20
628.912921599692
 30
0.0
 41
1.0
  0
SPLINE
  5
192
330
14A
100
AcDbEntity
  8
$DDT_AUDIT_GENERATED_(BC)
  6
Continuous
 62
     7
100
AcDbSpline
210
0.0
220
0.0
230
1.0
 70
    12
 71
     5
 72
    12
 73
     6
 74
     0
 42
0.0000000070879823
 43
0.0000000001
 40
0.0
 40
0.0
 40
0.0
 40
0.0
 40
0.0
 40
0.0
 40
1.0
 40
1.0
 40
1.0
 40
1.0
 40
1.0
 40
1.0
 10
700.5882654558267
 20
631.612719306457
 30
0.0
 41
1.0
 10
700.9610576619601
 20
631.612719306457
 30
0.0
 41
1.0
 10
701.1860576619594
 20
631.612719306457
 30
0.0
 41
1.0
 10
701.3382654558243
 20
631.460511512598
 30
0.0
 41
1.0
 10
701.3382654558293
 20
631.235511512602
 30
0.0
 41
1.0
 10
701.3382654558293
 20
630.8627193064771
 30
0.0
 41
1.0
  0
LINE
  5
193
330
14A
100
AcDbEntity
  8
$DDT_AUDIT_GENERATED_(BC)
  6
Continuous
 62
     7
100
AcDbLine
 10
699.8382654558
 20
631.6127193065
 30
0.0
 11
700.5882654558
 21
631.6127193065
 31
0.0
  0
SPLINE
  5
194
330
14A
100
AcDbEntity
  8
$DDT_AUDIT_GENERATED_(BC)
  6
Continuous
 62
     7
100
AcDbSpline
210
0.0
220
0.0
230
1.0
 70
    12
 71
     5
 72
    12
 73
     6
 74
     0
 42
0.0000000070880827
 43
0.0000000001
 40
0.0
 40
0.0
 40
0.0
 40
0.0
 40
0.0
 40
0.0
 40
1.0
 40
1.0
 40
1.0
 40
1.0
 40
1.0
 40
1.0
 10
700.5882654558293
 20
643.912921599692
 30
0.0
 41
1.0
 10
700.9610326813603
 20
643.91303921474
 30
0.0
 41
1.0
 10
701.1860319745812
 20
643.9131101471501
 30
0.0
 41
1.0
 10
701.3382654558288
 20
644.0651291485651
 30
0.0
 41
1.0
 10
701.3382654558288
 20
644.290165454762
 30
0.0
 41
1.0
 10
701.3382654558288
 20
644.6630423123661
 30
0.0
 41
1.0
  0
LINE
  5
195
330
14A
100
AcDbEntity
  8
$DDT_AUDIT_GENERATED_(BC)
  6
Continuous
 62
     7
100
AcDbLine
 10
701.3382654558
 20
644.6630423112
 30
0.0
 11
701.3382654558
 21
645.8627193065
 31
0.0
  0
LINE
  5
196
330
14A
100
AcDbEntity
  8
$DDT_AUDIT_GENERATED_(BC)
  6
Continuous
 62
     7
100
AcDbLine
 10
700.5882654558
 20
643.938821481
 30
0.0
 11
700.5882654558
 21
643.9129215997
 31
0.0
  0
SPLINE
  5
197
330
14A
100
AcDbEntity
  8
$DDT_AUDIT_GENERATED_(BC)
  6
Continuous
 62
     7
100
AcDbSpline
210
0.0
220
0.0
230
1.0
 70
    12
 71
     3
 72
     8
 73
     4
 74
     0
 42
0.0000000133333331
 43
0.0000000001
 40
0.0
 40
0.0
 40
0.0
 40
0.0
 40
1.0
 40
1.0
 40
1.0
 40
1.0
 10
699.8382654558293
 20
643.9128473065141
 30
0.0
 41
1.0
 10
700.0882654558276
 20
643.9128473065141
 30
0.0
 41
1.0
 10
700.3382654558259
 20
643.9128473065141
 30
0.0
 41
1.0
 10
700.5882654558293
 20
643.912921599692
 30
0.0
 41
1.0
  0
SPLINE
  5
198
330
14A
100
AcDbEntity
  8
$DDT_AUDIT_GENERATED_(BC)
  6
Continuous
 62
     7
100
AcDbSpline
210
0.0
220
0.0
230
1.0
 70
    12
 71
     5
 72
    12
 73
     6
 74
     0
 42
0.0000000070879823
 43
0.0000000001
 40
0.0
 40
0.0
 40
0.0
 40
0.0
 40
0.0
 40
0.0
 40
1.0
 40
1.0
 40
1.0
 40
1.0
 40
1.0
 40
1.0
 10
700.5882654558267
 20
646.612719306457
 30
0.0
 41
1.0
 10
700.9610576619601
 20
646.612719306457
 30
0.0
 41
1.0
 10
701.1860576619594
 20
646.612719306457
 30
0.0
 41
1.0
 10
701.3382654558243
 20
646.4605115125971
 30
0.0
 41
1.0
 10
701.3382654558293
 20
646.2355115126021
 30
0.0
 41
1.0
 10
701.3382654558293
 20
645.8627193064771
 30
0.0
 41
1.0
  0
LINE
  5
199
330
14A
100
AcDbEntity
  8
$DDT_AUDIT_GENERATED_(BC)
  6
Continuous
 62
     7
100
AcDbLine
 10
699.8382654558
 20
646.6127193065
 30
0.0
 11
700.5882654558
 21
646.6127193065
 31
0.0
  0
SPLINE
  5
19A
330
14A
100
AcDbEntity
  8
$DDT_AUDIT_GENERATED_(BC)
  6
Continuous
 62
     7
100
AcDbSpline
210
0.0
220
0.0
230
1.0
 70
    12
 71
     5
 72
    12
 73
     6
 74
     0
 42
0.0000000070880827
 43
0.0000000001
 40
0.0
 40
0.0
 40
0.0
 40
0.0
 40
0.0
 40
0.0
 40
1.0
 40
1.0
 40
1.0
 40
1.0
 40
1.0
 40
1.0
 10
700.5882654558293
 20
606.412917599744
 30
0.0
 41
1.0
 10
700.9610326813603
 20
606.4130352147921
 30
0.0
 41
1.0
 10
701.1860319745812
 20
606.413106147201
 30
0.0
 41
1.0
 10
701.3382654558288
 20
606.5651251486171
 30
0.0
 41
1.0
 10
701.3382654558288
 20
606.7901614548141
 30
0.0
 41
1.0
 10
701.3382654558288
 20
607.163038312418
 30
0.0
 41
1.0
  0
LINE
  5
19B
330
14A
100
AcDbEntity
  8
$DDT_AUDIT_GENERATED_(BC)
  6
Continuous
 62
     7
100
AcDbLine
 10
701.3382654558
 20
607.1630383113
 30
0.0
 11
701.3382654558
 21
608.3627153065
 31
0.0
  0
LINE
  5
19C
330
14A
100
AcDbEntity
  8
$DDT_AUDIT_GENERATED_(BC)
  6
Continuous
 62
     7
100
AcDbLine
 10
700.5882654558
 20
606.4388174811
 30
0.0
 11
700.5882654558
 21
606.4129175997
 31
0.0
  0
SPLINE
  5
19D
330
14A
100
AcDbEntity
  8
$DDT_AUDIT_GENERATED_(BC)
  6
Continuous
 62
     7
100
AcDbSpline
210
0.0
220
0.0
230
1.0
 70
    12
 71
     3
 72
     8
 73
     4
 74
     0
 42
0.0000000133333331
 43
0.0000000001
 40
0.0
 40
0.0
 40
0.0
 40
0.0
 40
1.0
 40
1.0
 40
1.0
 40
1.0
 10
699.8382654558293
 20
606.4128433065661
 30
0.0
 41
1.0
 10
700.0882654558276
 20
606.4128433065661
 30
0.0
 41
1.0
 10
700.3382654558259
 20
606.4128433065661
 30
0.0
 41
1.0
 10
700.5882654558293
 20
606.412917599744
 30
0.0
 41
1.0
  0
SPLINE
  5
19E
330
14A
100
AcDbEntity
  8
$DDT_AUDIT_GENERATED_(BC)
  6
Continuous
 62
     7
100
AcDbSpline
210
0.0
220
0.0
230
1.0
 70
    12
 71
     5
 72
    12
 73
     6
 74
     0
 42
0.0000000070879823
 43
0.0000000001
 40
0.0
 40
0.0
 40
0.0
 40
0.0
 40
0.0
 40
0.0
 40
1.0
 40
1.0
 40
1.0
 40
1.0
 40
1.0
 40
1.0
 10
700.5882654558267
 20
609.112715306508
 30
0.0
 41
1.0
 10
700.9610576619601
 20
609.112715306508
 30
0.0
 41
1.0
 10
701.1860576619594
 20
609.112715306508
 30
0.0
 41
1.0
 10
701.3382654558243
 20
608.9605075126491
 30
0.0
 41
1.0
 10
701.3382654558293
 20
608.7355075126541
 30
0.0
 41
1.0
 10
701.3382654558293
 20
608.3627153065281
 30
0.0
 41
1.0
  0
LINE
  5
19F
330
14A
100
AcDbEntity
  8
$DDT_AUDIT_GENERATED_(BC)
  6
Continuous
 62
     7
100
AcDbLine
 10
699.8382654558
 20
609.1127153065
 30
0.0
 11
700.5882654558
 21
609.1127153065
 31
0.0
  0
SPLINE
  5
1A0
330
14A
100
AcDbEntity
  8
$DDT_AUDIT_GENERATED_(BC)
  6
Continuous
 62
     7
100
AcDbSpline
210
0.0
220
0.0
230
1.0
 70
    12
 71
     5
 72
    12
 73
     6
 74
     0
 42
0.0000000070880827
 43
0.0000000001
 40
0.0
 40
0.0
 40
0.0
 40
0.0
 40
0.0
 40
0.0
 40
1.0
 40
1.0
 40
1.0
 40
1.0
 40
1.0
 40
1.0
 10
700.5882654558293
 20
658.9129047389281
 30
0.0
 41
1.0
 10
700.9610326813603
 20
658.9130223539761
 30
0.0
 41
1.0
 10
701.1860319745812
 20
658.913093286385
 30
0.0
 41
1.0
 10
701.3382654558288
 20
659.0651122878011
 30
0.0
 41
1.0
 10
701.3382654558288
 20
659.2901485939981
 30
0.0
 41
1.0
 10
701.3382654558288
 20
659.663025451602
 30
0.0
 41
1.0
  0
LINE
  5
1A1
330
14A
100
AcDbEntity
  8
$DDT_AUDIT_GENERATED_(BC)
  6
Continuous
 62
     7
100
AcDbLine
 10
701.3382654558
 20
659.6630254505
 30
0.0
 11
701.3382654558
 21
660.8627024457
 31
0.0
  0
LINE
  5
1A2
330
14A
100
AcDbEntity
  8
$DDT_AUDIT_GENERATED_(BC)
  6
Continuous
 62
     7
100
AcDbLine
 10
700.5882654558
 20
658.9388046202
 30
0.0
 11
700.5882654558
 21
658.9129047389
 31
0.0
  0
SPLINE
  5
1A3
330
14A
100
AcDbEntity
  8
$DDT_AUDIT_GENERATED_(BC)
  6
Continuous
 62
     7
100
AcDbSpline
210
0.0
220
0.0
230
1.0
 70
    12
 71
     3
 72
     8
 73
     4
 74
     0
 42
0.0000000133333331
 43
0.0000000001
 40
0.0
 40
0.0
 40
0.0
 40
0.0
 40
1.0
 40
1.0
 40
1.0
 40
1.0
 10
699.8382654558293
 20
658.9128304457502
 30
0.0
 41
1.0
 10
700.0882654558276
 20
658.9128304457502
 30
0.0
 41
1.0
 10
700.3382654558259
 20
658.9128304457502
 30
0.0
 41
1.0
 10
700.5882654558293
 20
658.9129047389281
 30
0.0
 41
1.0
  0
SPLINE
  5
1A4
330
14A
100
AcDbEntity
  8
$DDT_AUDIT_GENERATED_(BC)
  6
Continuous
 62
     7
100
AcDbSpline
210
0.0
220
0.0
230
1.0
 70
    12
 71
     5
 72
    12
 73
     6
 74
     0
 42
0.0000000070879823
 43
0.0000000001
 40
0.0
 40
0.0
 40
0.0
 40
0.0
 40
0.0
 40
0.0
 40
1.0
 40
1.0
 40
1.0
 40
1.0
 40
1.0
 40
1.0
 10
700.5882654558267
 20
661.612702445692
 30
0.0
 41
1.0
 10
700.9610576619601
 20
661.612702445692
 30
0.0
 41
1.0
 10
701.1860576619594
 20
661.612702445692
 30
0.0
 41
1.0
 10
701.3382654558243
 20
661.4604946518331
 30
0.0
 41
1.0
 10
701.3382654558293
 20
661.235494651838
 30
0.0
 41
1.0
 10
701.3382654558293
 20
660.8627024457121
 30
0.0
 41
1.0
  0
LINE
  5
1A5
330
14A
100
AcDbEntity
  8
$DDT_AUDIT_GENERATED_(BC)
  6
Continuous
 62
     7
100
AcDbLine
 10
699.8382654558
 20
661.6127024457
 30
0.0
 11
700.5882654558
 21
661.6127024457
 31
0.0
  0
SPLINE
  5
1A6
330
14A
100
AcDbEntity
  8
$DDT_AUDIT_GENERATED_(BC)
  6
Continuous
 62
     7
100
AcDbSpline
210
0.0
220
0.0
230
1.0
 70
    12
 71
     5
 72
    12
 73
     6
 74
     0
 42
0.0000000070880827
 43
0.0000000001
 40
0.0
 40
0.0
 40
0.0
 40
0.0
 40
0.0
 40
0.0
 40
1.0
 40
1.0
 40
1.0
 40
1.0
 40
1.0
 40
1.0
 10
700.5882654558293
 20
621.412921599692
 30
0.0
 41
1.0
 10
700.9610326813603
 20
621.413039214741
 30
0.0
 41
1.0
 10
701.1860319745812
 20
621.4131101471501
 30
0.0
 41
1.0
 10
701.3382654558288
 20
621.5651291485651
 30
0.0
 41
1.0
 10
701.3382654558288
 20
621.790165454762
 30
0.0
 41
1.0
 10
701.3382654558288
 20
622.1630423123661
 30
0.0
 41
1.0
  0
LINE
  5
1A7
330
14A
100
AcDbEntity
  8
$DDT_AUDIT_GENERATED_(BC)
  6
Continuous
 62
     7
100
AcDbLine
 10
701.3382654558
 20
622.1630423112
 30
0.0
 11
701.3382654558
 21
623.3627193065
 31
0.0
  0
LINE
  5
1A8
330
14A
100
AcDbEntity
  8
$DDT_AUDIT_GENERATED_(BC)
  6
Continuous
 62
     7
100
AcDbLine
 10
700.5882654558
 20
621.438821481
 30
0.0
 11
700.5882654558
 21
621.4129215997
 31
0.0
  0
SPLINE
  5
1A9
330
14A
100
AcDbEntity
  8
$DDT_AUDIT_GENERATED_(BC)
  6
Continuous
 62
     7
100
AcDbSpline
210
0.0
220
0.0
230
1.0
 70
    12
 71
     3
 72
     8
 73
     4
 74
     0
 42
0.0000000133333331
 43
0.0000000001
 40
0.0
 40
0.0
 40
0.0
 40
0.0
 40
1.0
 40
1.0
 40
1.0
 40
1.0
 10
699.8382654558293
 20
621.412847306514
 30
0.0
 41
1.0
 10
700.0882654558276
 20
621.412847306514
 30
0.0
 41
1.0
 10
700.3382654558259
 20
621.412847306514
 30
0.0
 41
1.0
 10
700.5882654558293
 20
621.412921599692
 30
0.0
 41
1.0
  0
SPLINE
  5
1AA
330
14A
100
AcDbEntity
  8
$DDT_AUDIT_GENERATED_(BC)
  6
Continuous
 62
     7
100
AcDbSpline
210
0.0
220
0.0
230
1.0
 70
    12
 71
     5
 72
    12
 73
     6
 74
     0
 42
0.0000000070879823
 43
0.0000000001
 40
0.0
 40
0.0
 40
0.0
 40
0.0
 40
0.0
 40
0.0
 40
1.0
 40
1.0
 40
1.0
 40
1.0
 40
1.0
 40
1.0
 10
700.5882654558267
 20
624.112719306457
 30
0.0
 41
1.0
 10
700.9610576619601
 20
624.112719306457
 30
0.0
 41
1.0
 10
701.1860576619594
 20
624.112719306457
 30
0.0
 41
1.0
 10
701.3382654558243
 20
623.9605115125981
 30
0.0
 41
1.0
 10
701.3382654558293
 20
623.7355115126021
 30
0.0
 41
1.0
 10
701.3382654558293
 20
623.3627193064771
 30
0.0
 41
1.0
  0
LINE
  5
1AB
330
14A
100
AcDbEntity
  8
$DDT_AUDIT_GENERATED_(BC)
  6
Continuous
 62
     7
100
AcDbLine
 10
699.8382654558
 20
624.1127193065
 30
0.0
 11
700.5882654558
 21
624.1127193065
 31
0.0
  0
LINE
  5
1AC
330
14A
100
AcDbEntity
  8
$DDT_AUDIT_GENERATED_(BC)
  6
Continuous
 62
     7
100
AcDbLine
 10
698.0844583363
 20
465.5127684457
 30
0.0
 11
698.0844583363
 21
466.5127684457
 31
0.0
  0
LINE
  5
1AD
330
14A
100
AcDbEntity
  8
$DDT_AUDIT_GENERATED_(BC)
  6
Continuous
 62
     7
100
AcDbLine
 10
677.5844583363
 20
466.5127684457
 30
0.0
 11
677.5844583363
 21
465.5127684457
 31
0.0
  0
LINE
  5
1AE
330
14A
100
AcDbEntity
  8
$DDT_AUDIT_GENERATED_(BC)
  6
Continuous
 62
     7
100
AcDbLine
 10
700.7994561816
 20
631.6100189604
 30
0.0
 11
700.7370914001
 21
631.603132083
 31
0.0
  0
LINE
  5
1AF
330
14A
100
AcDbEntity
  8
$DDT_AUDIT_GENERATED_(BC)
  6
Continuous
 62
     7
100
AcDbLine
 10
700.7994561816
 20
639.1100189604
 30
0.0
 11
700.7370914001
 21
639.103132083
 31
0.0
  0
LINE
  5
1B0
330
14A
100
AcDbEntity
  8
$DDT_AUDIT_GENERATED_(BC)
  6
Continuous
 62
     7
100
AcDbLine
 10
700.7994561816
 20
639.1100199604
 30
0.0
 11
700.7370906821
 21
639.1031331293
 31
0.0
  0
LINE
  5
1B1
330
14A
100
AcDbEntity
  8
$DDT_AUDIT_GENERATED_(BC)
  6
Continuous
 62
     7
100
AcDbLine
 10
700.7994561816
 20
654.1100174604
 30
0.0
 11
700.5882654558
 21
654.0866958961
 31
0.0
  0
SPLINE
  5
1B2
330
14A
100
AcDbEntity
  8
$DDT_AUDIT_GENERATED_(BC)
  6
Continuous
 62
     7
100
AcDbSpline
210
0.0
220
0.0
230
1.0
 70
     8
 71
     3
 72
    13
 73
     9
 74
     0
 42
0.0000000109157332
 43
0.0000000001
 40
0.0
 40
0.0
 40
0.0
 40
0.0
 40
0.3264012689343807
 40
0.571448754176469
 40
0.6755516314478838
 40
0.776408300498684
 40
0.8821740779995206
 40
1.0
 40
1.0
 40
1.0
 40
1.0
 10
700.5882654558293
 20
651.438860013531
 30
0.0
 10
700.6992524807754
 20
651.4315058221226
 30
0.0
 10
700.8618314665994
 20
651.4279862367445
 30
0.0
 10
701.0717826184665
 20
651.45522472781
 30
0.0
 10
701.1880285640242
 20
651.5218228807371
 30
0.0
 10
701.2512608514855
 20
651.5892613862724
 30
0.0
 10
701.2961268938566
 20
651.6789040999033
 30
0.0
 10
701.3105245841496
 20
651.7412594153
 30
0.0
 10
701.3186339359585
 20
651.7803198353404
 30
0.0
  0
LINE
  5
1B3
330
14A
100
AcDbEntity
  8
$DDT_AUDIT_GENERATED_(BC)
  6
Continuous
 62
     7
100
AcDbLine
 10
700.7994561816
 20
616.6100174604
 30
0.0
 11
700.5882654558
 21
616.5866958961
 31
0.0
  0
SPLINE
  5
1B4
330
14A
100
AcDbEntity
  8
$DDT_AUDIT_GENERATED_(BC)
  6
Continuous
 62
     7
100
AcDbSpline
210
0.0
220
0.0
230
1.0
 70
     8
 71
     3
 72
    13
 73
     9
 74
     0
 42
0.0000000109157332
 43
0.0000000001
 40
0.0
 40
0.0
 40
0.0
 40
0.0
 40
0.3264012689344066
 40
0.5714487541765617
 40
0.6755516314479708
 40
0.7764083004988371
 40
0.882174077999609
 40
1.0
 40
1.0
 40
1.0
 40
1.0
 10
700.5882654558293
 20
613.938860013531
 30
0.0
 10
700.6992524807753
 20
613.9315058221226
 30
0.0
 10
700.8618314665993
 20
613.9279862367445
 30
0.0
 10
701.0717826184663
 20
613.9552247278101
 30
0.0
 10
701.1880285640241
 20
614.0218228807369
 30
0.0
 10
701.2512608514853
 20
614.089261386272
 30
0.0
 10
701.2961268938565
 20
614.178904099903
 30
0.0
 10
701.3105245841494
 20
614.2412594152995
 30
0.0
 10
701.3186339359584
 20
614.2803198353398
 30
0.0
  0
LINE
  5
1B5
330
14A
100
AcDbEntity
  8
$DDT_AUDIT_GENERATED_(BC)
  6
Continuous
 62
     7
100
AcDbLine
 10
700.7994561816
 20
661.6100030996
 30
0.0
 11
700.7370906821
 21
661.6031162685
 31
0.0
  0
LINE
  5
1B6
330
14A
100
AcDbEntity
  8
$DDT_AUDIT_GENERATED_(BC)
  6
Continuous
 62
     7
100
AcDbLine
 10
700.7994561816
 20
639.1100174604
 30
0.0
 11
700.5882654558
 21
639.0866958961
 31
0.0
  0
SPLINE
  5
1B7
330
14A
100
AcDbEntity
  8
$DDT_AUDIT_GENERATED_(BC)
  6
Continuous
 62
     7
100
AcDbSpline
210
0.0
220
0.0
230
1.0
 70
     8
 71
     3
 72
    13
 73
     9
 74
     0
 42
0.0000000109157332
 43
0.0000000001
 40
0.0
 40
0.0
 40
0.0
 40
0.0
 40
0.3264012689346402
 40
0.5714487541773049
 40
0.675551631448896
 40
0.7764083004997459
 40
0.8821740780002553
 40
1.0
 40
1.0
 40
1.0
 40
1.0
 10
700.5882654558293
 20
636.438860013531
 30
0.0
 10
700.6992524807749
 20
636.4315058221226
 30
0.0
 10
700.8618314665985
 20
636.4279862367446
 30
0.0
 10
701.0717826184646
 20
636.4552247278095
 30
0.0
 10
701.1880285640224
 20
636.5218228807355
 30
0.0
 10
701.251260851484
 20
636.5892613862699
 30
0.0
 10
701.2961268938553
 20
636.6789040998999
 30
0.0
 10
701.3105245841485
 20
636.7412594152956
 30
0.0
 10
701.3186339359577
 20
636.7803198353356
 30
0.0
  0
LINE
  5
1B8
330
14A
100
AcDbEntity
  8
$DDT_AUDIT_GENERATED_(BC)
  6
Continuous
 62
     7
100
AcDbLine
 10
700.7994561816
 20
654.1100189604
 30
0.0
 11
700.7370914001
 21
654.103132083
 31
0.0
  0
LINE
  5
1B9
330
14A
100
AcDbEntity
  8
$DDT_AUDIT_GENERATED_(BC)
  6
Continuous
 62
     7
100
AcDbLine
 10
700.7994561816
 20
646.6100199604
 30
0.0
 11
700.7370906821
 21
646.6031331293
 31
0.0
  0
LINE
  5
1BA
330
14A
100
AcDbEntity
  8
$DDT_AUDIT_GENERATED_(BC)
  6
Continuous
 62
     7
100
AcDbLine
 10
700.7994561816
 20
624.1100189604
 30
0.0
 11
700.7370914001
 21
624.103132083
 31
0.0
  0
LINE
  5
1BB
330
14A
100
AcDbEntity
  8
$DDT_AUDIT_GENERATED_(BC)
  6
Continuous
 62
     7
100
AcDbLine
 10
700.7994561816
 20
624.1100199604
 30
0.0
 11
700.7370906821
 21
624.1031331293
 31
0.0
  0
LINE
  5
1BC
330
14A
100
AcDbEntity
  8
$DDT_AUDIT_GENERATED_(BC)
  6
Continuous
 62
     7
100
AcDbLine
 10
700.7994561816
 20
631.6100174604
 30
0.0
 11
700.5882654558
 21
631.5866958961
 31
0.0
  0
SPLINE
  5
1BD
330
14A
100
AcDbEntity
  8
$DDT_AUDIT_GENERATED_(BC)
  6
Continuous
 62
     7
100
AcDbSpline
210
0.0
220
0.0
230
1.0
 70
     8
 71
     3
 72
    13
 73
     9
 74
     0
 42
0.0000000109157332
 43
0.0000000001
 40
0.0
 40
0.0
 40
0.0
 40
0.0
 40
0.3264012689346374
 40
0.5714487541773099
 40
0.6755516314489474
 40
0.776408300499767
 40
0.882174078000245
 40
1.0
 40
1.0
 40
1.0
 40
1.0
 10
700.5882654558293
 20
628.9388600135311
 30
0.0
 10
700.6992524807748
 20
628.9315058221226
 30
0.0
 10
700.8618314665982
 20
628.9279862367447
 30
0.0
 10
701.0717826184645
 20
628.9552247278091
 30
0.0
 10
701.1880285640221
 20
629.0218228807353
 30
0.0
 10
701.2512608514838
 20
629.0892613862695
 30
0.0
 10
701.2961268938552
 20
629.1789040998996
 30
0.0
 10
701.3105245841484
 20
629.2412594152952
 30
0.0
 10
701.3186339359576
 20
629.2803198353351
 30
0.0
  0
LINE
  5
1BE
330
14A
100
AcDbEntity
  8
$DDT_AUDIT_GENERATED_(BC)
  6
Continuous
 62
     7
100
AcDbLine
 10
700.7994561816
 20
616.6100199604
 30
0.0
 11
700.7370906821
 21
616.6031331293
 31
0.0
  0
LINE
  5
1BF
330
14A
100
AcDbEntity
  8
$DDT_AUDIT_GENERATED_(BC)
  6
Continuous
 62
     7
100
AcDbLine
 10
700.7994561816
 20
609.1100159604
 30
0.0
 11
700.7370906821
 21
609.1031291293
 31
0.0
  0
LINE
  5
1C0
330
14A
100
AcDbEntity
  8
$DDT_AUDIT_GENERATED_(BC)
  6
Continuous
 62
     7
100
AcDbLine
 10
700.7994561816
 20
646.6100174604
 30
0.0
 11
700.5882654558
 21
646.5866958961
 31
0.0
  0
SPLINE
  5
1C1
330
14A
100
AcDbEntity
  8
$DDT_AUDIT_GENERATED_(BC)
  6
Continuous
 62
     7
100
AcDbSpline
210
0.0
220
0.0
230
1.0
 70
     8
 71
     3
 72
    13
 73
     9
 74
     0
 42
0.0000000109157332
 43
0.0000000001
 40
0.0
 40
0.0
 40
0.0
 40
0.0
 40
0.326401268934669
 40
0.5714487541774167
 40
0.675551631449043
 40
0.7764083004998937
 40
0.8821740780003968
 40
1.0
 40
1.0
 40
1.0
 40
1.0
 10
700.5882654558293
 20
643.9388600135311
 30
0.0
 10
700.6992524807748
 20
643.9315058221226
 30
0.0
 10
700.8618314665981
 20
643.9279862367441
 30
0.0
 10
701.0717826184642
 20
643.9552247278098
 30
0.0
 10
701.1880285640219
 20
644.0218228807349
 30
0.0
 10
701.2512608514836
 20
644.0892613862696
 30
0.0
 10
701.296126893855
 20
644.1789040998991
 30
0.0
 10
701.3105245841483
 20
644.2412594152947
 30
0.0
 10
701.3186339359575
 20
644.2803198353346
 30
0.0
  0
LINE
  5
1C2
330
14A
100
AcDbEntity
  8
$DDT_AUDIT_GENERATED_(BC)
  6
Continuous
 62
     7
100
AcDbLine
 10
700.7994561816
 20
631.6100199604
 30
0.0
 11
700.7370906821
 21
631.6031331293
 31
0.0
  0
LINE
  5
1C3
330
14A
100
AcDbEntity
  8
$DDT_AUDIT_GENERATED_(BC)
  6
Continuous
 62
     7
100
AcDbLine
 10
700.7994561816
 20
609.1100134604
 30
0.0
 11
700.5882654558
 21
609.0866918962
 31
0.0
  0
SPLINE
  5
1C4
330
14A
100
AcDbEntity
  8
$DDT_AUDIT_GENERATED_(BC)
  6
Continuous
 62
     7
100
AcDbSpline
210
0.0
220
0.0
230
1.0
 70
     8
 71
     3
 72
    13
 73
     9
 74
     0
 42
0.0000000109157332
 43
0.0000000001
 40
0.0
 40
0.0
 40
0.0
 40
0.0
 40
0.3264012689344087
 40
0.5714487541765654
 40
0.6755516314479931
 40
0.776408300498879
 40
0.8821740779996506
 40
1.0
 40
1.0
 40
1.0
 40
1.0
 10
700.5882654558293
 20
606.4388560135831
 30
0.0
 10
700.6992524807753
 20
606.4315018221745
 30
0.0
 10
700.861831466599
 20
606.4279822367965
 30
0.0
 10
701.071782618466
 20
606.4552207278615
 30
0.0
 10
701.1880285640239
 20
606.5218188807883
 30
0.0
 10
701.2512608514853
 20
606.5892573863234
 30
0.0
 10
701.2961268938562
 20
606.6789000999544
 30
0.0
 10
701.3105245841493
 20
606.7412554153507
 30
0.0
 10
701.3186339359582
 20
606.7803158353911
 30
0.0
  0
LINE
  5
1C5
330
14A
100
AcDbEntity
  8
$DDT_AUDIT_GENERATED_(BC)
  6
Continuous
 62
     7
100
AcDbLine
 10
700.7994561816
 20
609.1100149604
 30
0.0
 11
700.7370914001
 21
609.1031280831
 31
0.0
  0
LINE
  5
1C6
330
14A
100
AcDbEntity
  8
$DDT_AUDIT_GENERATED_(BC)
  6
Continuous
 62
     7
100
AcDbLine
 10
700.7994561816
 20
661.6100005996
 30
0.0
 11
700.5882654558
 21
661.5866790354
 31
0.0
  0
SPLINE
  5
1C7
330
14A
100
AcDbEntity
  8
$DDT_AUDIT_GENERATED_(BC)
  6
Continuous
 62
     7
100
AcDbSpline
210
0.0
220
0.0
230
1.0
 70
     8
 71
     3
 72
    13
 73
     9
 74
     0
 42
0.0000000109157332
 43
0.0000000001
 40
0.0
 40
0.0
 40
0.0
 40
0.0
 40
0.3264012689341897
 40
0.5714487541763414
 40
0.6755516314478643
 40
0.7764083004987792
 40
0.8821740779997154
 40
1.0
 40
1.0
 40
1.0
 40
1.0
 10
700.5882654558293
 20
658.9388431527676
 30
0.0
 10
700.6992524807753
 20
658.9314889613589
 30
0.0
 10
700.8618314665993
 20
658.9279693759802
 30
0.0
 10
701.0717826184664
 20
658.9552078670455
 30
0.0
 10
701.188028564024
 20
659.0218060199722
 30
0.0
 10
701.2512608514854
 20
659.0892445255076
 30
0.0
 10
701.2961268938564
 20
659.1788872391386
 30
0.0
 10
701.3105245841494
 20
659.2412425545351
 30
0.0
 10
701.3186339359584
 20
659.2803029745755
 30
0.0
  0
LINE
  5
1C8
330
14A
100
AcDbEntity
  8
$DDT_AUDIT_GENERATED_(BC)
  6
Continuous
 62
     7
100
AcDbLine
 10
700.7994561816
 20
616.6100189604
 30
0.0
 11
700.7370914001
 21
616.603132083
 31
0.0
  0
LINE
  5
1C9
330
14A
100
AcDbEntity
  8
$DDT_AUDIT_GENERATED_(BC)
  6
Continuous
 62
     7
100
AcDbLine
 10
700.7994561816
 20
624.1100174604
 30
0.0
 11
700.5882654558
 21
624.0866958961
 31
0.0
  0
SPLINE
  5
1CA
330
14A
100
AcDbEntity
  8
$DDT_AUDIT_GENERATED_(BC)
  6
Continuous
 62
     7
100
AcDbSpline
210
0.0
220
0.0
230
1.0
 70
     8
 71
     3
 72
    13
 73
     9
 74
     0
 42
0.0000000109157332
 43
0.0000000001
 40
0.0
 40
0.0
 40
0.0
 40
0.0
 40
0.3264012689346588
 40
0.5714487541773636
 40
0.6755516314489398
 40
0.7764083004998106
 40
0.8821740780002987
 40
1.0
 40
1.0
 40
1.0
 40
1.0
 10
700.5882654558293
 20
621.438860013531
 30
0.0
 10
700.6992524807748
 20
621.4315058221227
 30
0.0
 10
700.8618314665983
 20
621.4279862367447
 30
0.0
 10
701.0717826184643
 20
621.4552247278093
 30
0.0
 10
701.1880285640221
 20
621.5218228807353
 30
0.0
 10
701.2512608514837
 20
621.5892613862696
 30
0.0
 10
701.2961268938551
 20
621.6789040998995
 30
0.0
 10
701.3105245841484
 20
621.7412594152952
 30
0.0
 10
701.3186339359576
 20
621.7803198353351
 30
0.0
  0
LINE
  5
1CB
330
14A
100
AcDbEntity
  8
$DDT_AUDIT_GENERATED_(BC)
  6
Continuous
 62
     7
100
AcDbLine
 10
700.7994561816
 20
646.6100189604
 30
0.0
 11
700.7370914001
 21
646.603132083
 31
0.0
  0
LINE
  5
1CC
330
14A
100
AcDbEntity
  8
$DDT_AUDIT_GENERATED_(BC)
  6
Continuous
 62
     7
100
AcDbLine
 10
700.7994561816
 20
654.1100199604
 30
0.0
 11
700.7370906821
 21
654.1031331293
 31
0.0
  0
LINE
  5
1CD
330
14A
100
AcDbEntity
  8
$DDT_AUDIT_GENERATED_(BC)
  6
Continuous
 62
     7
100
AcDbLine
 10
700.7994561816
 20
661.6100020996
 30
0.0
 11
700.7370914001
 21
661.6031152222
 31
0.0
  0
LINE
  5
1CE
330
14A
100
AcDbEntity
  8
$DDT_AUDIT_GENERATED_(10B)
  6
Continuous
 62
     7
100
AcDbLine
 10
708.3344583363
 20
460.5127684457
 30
0.0
 11
708.3344583363
 21
455.2198398671
 31
0.0
  0
LINE
  5
1CF
330
14A
100
AcDbEntity
  8
$DDT_AUDIT_GENERATED_(10B)
  6
Continuous
 62
     7
100
AcDbLine
 10
708.3344583363
 20
435.5056970243
 30
0.0
 11
708.3344583363
 21
430.9627684457
 31
0.0
  0
LINE
  5
1D0
330
14A
100
AcDbEntity
  8
$DDT_AUDIT_GENERATED_(10B)
  6
Continuous
 62
     7
100
AcDbLine
 10
667.8344583363
 20
461.0127684457
 30
0.0
 11
707.8344583363
 21
461.0127684457
 31
0.0
  0
LINE
  5
1D1
330
14A
100
AcDbEntity
  8
$DDT_AUDIT_GENERATED_(10B)
  6
Continuous
 62
     7
100
AcDbLine
 10
667.3344583363
 20
430.9627684457
 30
0.0
 11
667.3344583363
 21
435.5056970243
 31
0.0
  0
LINE
  5
1D2
330
14A
100
AcDbEntity
  8
$DDT_AUDIT_GENERATED_(10B)
  6
Continuous
 62
     7
100
AcDbLine
 10
667.3344583363
 20
455.2198398671
 30
0.0
 11
667.3344583363
 21
460.5127684457
 31
0.0
  0
ARC
  5
1D3
330
14A
100
AcDbEntity
  8
$DDT_AUDIT_GENERATED_(10B)
  6
Continuous
 62
     7
100
AcDbCircle
 10
667.8344583363
 20
460.5127684457
 30
0.0
 40
0.5000000000000004
100
AcDbArc
 50
90.0
 51
180.0
  0
ARC
  5
1D4
330
14A
100
AcDbEntity
  8
$DDT_AUDIT_GENERATED_(10B)
  6
Continuous
 62
     7
100
AcDbCircle
 10
707.8344583363
 20
460.5127684457
 30
0.0
 40
0.5000000000000004
100
AcDbArc
 50
0.0
 51
90.0
  0
LINE
  5
1D5
330
14A
100
AcDbEntity
  8
$DDT_AUDIT_GENERATED_(11A)
  6
Continuous
 62
     7
100
AcDbLine
 10
766.6561969974
 20
518.7871557683
 30
0.0
 11
767.796455744
 21
518.9360471088
 31
0.0
  0
LINE
  5
1D6
330
14A
100
AcDbEntity
  8
$DDT_AUDIT_GENERATED_(11A)
  6
Continuous
 62
     7
100
AcDbLine
 10
747.7707285394
 20
520.2463079424
 30
0.0
 11
746.445386853
 21
520.0864449502
 31
0.0
  0
ARC
  5
1D7
330
14A
100
AcDbEntity
  8
$DDT_AUDIT_GENERATED_(11A)
  6
Continuous
 62
     7
100
AcDbCircle
 10
667.7108742708
 20
494.415183841
 30
0.0
 40
15.72148615254218
100
AcDbArc
 50
96.482528365
 51
97.5752442054
  0
LINE
  5
1D8
330
14A
100
AcDbEntity
  8
$DDT_AUDIT_GENERATED_(11A)
  6
Continuous
 62
     7
100
AcDbLine
 10
665.9359148503
 20
510.0361519896
 30
0.0
 11
666.1815073844
 21
510.0662986359
 31
0.0
  0
LINE
  5
1D9
330
14A
100
AcDbEntity
  8
$DDT_AUDIT_GENERATED_(11A)
  6
Continuous
 62
     7
100
AcDbLine
 10
784.5475410723
 20
524.5958076988
 30
0.0
 11
784.7155821602
 21
524.6164348537
 31
0.0
  0
SPLINE
  5
1DA
330
14A
100
AcDbEntity
  8
$DDT_AUDIT_GENERATED_(11A)
  6
Continuous
 62
     7
100
AcDbSpline
210
0.0
220
0.0
230
1.0
 70
     8
 71
     3
 72
    15
 73
    11
 74
     0
 42
0.0000000171751195
 43
0.0000000001
 40
0.0
 40
0.0
 40
0.0
 40
0.0
 40
0.0666879885391173
 40
0.1333691510098888
 40
0.2000443608508612
 40
0.2667144905590383
 40
0.3333804121475683
 40
0.4000429974380896
 40
0.4667031182231443
 40
0.4999999923972761
 40
0.4999999923972761
 40
0.4999999923972761
 40
0.4999999923972761
 10
784.7155821602228
 20
524.6164348537118
 30
0.0
 10
784.7402356711307
 20
524.6198053172582
 30
0.0
 10
784.7895395176855
 20
524.6265512251452
 30
0.0
 10
784.8505416177632
 20
524.6345233487996
 30
0.0
 10
784.9020355065903
 20
524.6410873960475
 30
0.0
 10
784.9430805313235
 20
524.6461834806569
 30
0.0
 10
784.9739153515567
 20
524.6499395185964
 30
0.0
 10
784.9944658501352
 20
524.6524066846702
 30
0.0
 10
785.0030299971447
 20
524.6534260504386
 30
0.0
 10
785.004315805213
 20
524.6535790842679
 30
0.0
 10
785.0043166889449
 20
524.653579184005
 30
0.0
  0
LINE
  5
1DB
330
14A
100
AcDbEntity
  8
$DDT_AUDIT_GENERATED_(11A)
  6
Continuous
 62
     7
100
AcDbLine
 10
767.4879615898
 20
522.59613369
 30
0.0
 11
750.5446441209
 21
520.5780488222
 31
0.0
  0
LINE
  5
1DC
330
14A
100
AcDbEntity
  8
$DDT_AUDIT_GENERATED_(11A)
  6
Continuous
 62
     7
100
AcDbLine
 10
750.5444544099
 20
520.5796286318
 30
0.0
 11
747.7707391247
 21
520.2462216523
 31
0.0
  0
ARC
  5
1DD
330
14A
100
AcDbEntity
  8
$DDT_AUDIT_GENERATED_(11A)
  6
Continuous
 62
     7
100
AcDbCircle
 10
740.2826440085
 20
565.9444078845
 30
0.0
 40
46.27020934216196
100
AcDbArc
 50
274.536421164
 51
277.6539865305
  0
LINE
  5
1DE
330
14A
100
AcDbEntity
  8
$DDT_AUDIT_GENERATED_(11A)
  6
Continuous
 62
     7
100
AcDbLine
 10
747.770739132
 20
520.246221646
 30
0.0
 11
750.5444544168
 21
520.5796286258
 31
0.0
  0
LINE
  5
1DF
330
14A
100
AcDbEntity
  8
$DDT_AUDIT_GENERATED_(11A)
  6
Continuous
 62
     7
100
AcDbLine
 10
713.5743585671
 20
479.6554901779
 30
0.0
 11
713.283598015
 21
479.6554901779
 31
0.0
  0
LINE
  5
1E0
330
14A
100
AcDbEntity
  8
$DDT_AUDIT_GENERATED_(11A)
  6
Continuous
 62
     7
100
AcDbLine
 10
713.283598015
 20
479.6554901779
 30
0.0
 11
699.8382654558
 21
479.6554901779
 31
0.0
  0
ARC
  5
1E1
330
14A
100
AcDbEntity
  8
$DDT_AUDIT_GENERATED_(11A)
  6
Continuous
 62
     7
100
AcDbCircle
 10
1158.2243317155
 20
546.9259768107
 30
0.0
 40
448.9890790786637
100
AcDbArc
 50
186.5135794416
 51
187.4864153254
  0
LINE
  5
1E2
330
14A
100
AcDbEntity
  8
$DDT_AUDIT_GENERATED_(11A)
  6
Continuous
 62
     7
100
AcDbLine
 10
710.2457766764
 20
509.0111464712
 30
0.0
 11
713.7795194032
 21
480.2177590775
 31
0.0
  0
LINE
  5
1E3
330
14A
100
AcDbEntity
  8
$DDT_AUDIT_GENERATED_(11A)
  6
Continuous
 62
     7
100
AcDbLine
 10
764.0309221577
 20
518.4464402586
 30
0.0
 11
766.656178618
 21
518.7872951615
 31
0.0
  0
ARC
  5
1E4
330
14A
100
AcDbEntity
  8
$DDT_AUDIT_GENERATED_(11A)
  6
Continuous
 62
     7
100
AcDbCircle
 10
775.8932700759
 20
461.5855734832
 30
0.0
 40
57.91921484340494
100
AcDbArc
 50
95.5431915784
 51
98.0359818986
  0
LINE
  5
1E5
330
14A
100
AcDbEntity
  8
$DDT_AUDIT_GENERATED_(11A)
  6
Continuous
 62
     7
100
AcDbLine
 10
766.6561786125
 20
518.7872951599
 30
0.0
 11
764.0309221431
 21
518.4464402561
 31
0.0
  0
LINE
  5
1E6
330
14A
100
AcDbEntity
  8
$DDT_AUDIT_GENERATED_(11A)
  6
Continuous
 62
     7
100
AcDbLine
 10
746.7699004569
 20
516.2526636927
 30
0.0
 11
764.0309221564
 21
518.4464402554
 31
0.0
  0
SPLINE
  5
1E7
330
14A
100
AcDbEntity
  8
$DDT_AUDIT_GENERATED_(11A)
  6
Continuous
 62
     7
100
AcDbSpline
210
0.0
220
0.0
230
1.0
 70
     8
 71
     3
 72
    12
 73
     8
 74
     0
 42
0.0000000306298976
 43
0.0000000001
 40
0.5000000038773017
 40
0.5000000038773017
 40
0.5000000038773017
 40
0.5000000038773017
 40
0.5332984961180994
 40
0.5999587656342775
 40
0.6666214151797825
 40
0.7332872943110817
 40
0.7764651504374394
 40
0.7764651504374394
 40
0.7764651504374394
 40
0.7764651504374394
 10
785.4234122977336
 20
521.2740020466963
 30
0.0
 10
785.4234114403517
 20
521.2740019256015
 30
0.0
 10
785.4221095946108
 20
521.2738320033147
 30
0.0
 10
785.4134383190818
 20
521.2727003296344
 30
0.0
 10
785.3926234123307
 20
521.2700232754349
 30
0.0
 10
785.3650432595707
 20
521.2665655578542
 30
0.0
 10
785.3431830815969
 20
521.2639063715183
 30
0.0
 10
785.3338520818869
 20
521.2627894837541
 30
0.0
  0
SPLINE
  5
1E8
330
14A
100
AcDbEntity
  8
$DDT_AUDIT_GENERATED_(11A)
  6
Continuous
 62
     7
100
AcDbSpline
210
0.0
220
0.0
230
1.0
 70
     8
 71
     3
 72
     9
 73
     5
 74
     0
 42
0.0000000090803376
 43
0.0000000001
 40
0.932529560757261
 40
0.932529560757261
 40
0.932529560757261
 40
0.932529560757261
 40
0.9333127636033156
 40
1.0
 40
1.0
 40
1.0
 40
1.0
 10
785.2040136542182
 20
521.2482716714632
 30
0.0
 10
785.2037453602862
 20
521.2482440234404
 30
0.0
 10
785.180606373703
 20
521.2458610236087
 30
0.0
 10
785.1551931246928
 20
521.243374035691
 30
0.0
 10
785.1300752979892
 20
521.2409124990727
 30
0.0
  0
LINE
  5
1E9
330
14A
100
AcDbEntity
  8
$DDT_AUDIT_GENERATED_(11A)
  6
Continuous
 62
     7
100
AcDbLine
 10
785.5645523103
 20
521.7996131726
 30
0.0
 11
785.8491604016
 21
521.8345488898
 31
0.0
  0
LINE
  5
1EA
330
14A
100
AcDbEntity
  8
$DDT_AUDIT_GENERATED_(11A)
  6
Continuous
 62
     7
100
AcDbLine
 10
785.2722097577
 20
524.1826453984
 30
0.0
 11
785.5645523103
 21
521.7996131726
 31
0.0
  0
LINE
  5
1EB
330
14A
100
AcDbEntity
  8
$DDT_AUDIT_GENERATED_(11A)
  6
Continuous
 62
     7
100
AcDbLine
 10
663.8608059838
 20
496.2357382876
 30
0.0
 11
665.5011364376
 21
509.6023772409
 31
0.0
  0
LINE
  5
1EC
330
14A
100
AcDbEntity
  8
$DDT_AUDIT_GENERATED_(11A)
  6
Continuous
 62
     7
100
AcDbLine
 10
675.8382654558
 20
488.4093016374
 30
0.0
 11
664.0917516249
 21
495.7493381221
 31
0.0
  0
LINE
  5
1ED
330
14A
100
AcDbEntity
  8
$DDT_AUDIT_GENERATED_(11A)
  6
Continuous
 62
     7
100
AcDbLine
 10
664.0917516249
 20
495.7493381221
 30
0.0
 11
663.822588999
 21
495.9175295977
 31
0.0
  0
ELLIPSE
  5
1EE
330
14A
100
AcDbEntity
  8
$DDT_AUDIT_GENERATED_(11A)
  6
Continuous
 62
     7
100
AcDbEllipse
 10
713.283598015
 20
480.1554901779
 30
0.0
 11
0.0
 21
0.4999999999997726
 31
0.0
210
0.0
220
0.0
230
1.0
 40
1.0
 41
3.141592653589793
 42
4.837297326018685
  0
ARC
  5
1EF
330
14A
100
AcDbEntity
  8
$DDT_AUDIT_GENERATED_(11A)
  6
Continuous
 62
     7
100
AcDbCircle
 10
770.2394524082
 20
519.6751122654
 30
0.0
 40
0.4999119732796345
100
AcDbArc
 50
248.8037132287
 51
277.7288232041
  0
ARC
  5
1F0
330
14A
100
AcDbEntity
  8
$DDT_AUDIT_GENERATED_(11A)
  6
Continuous
 62
     7
100
AcDbCircle
 10
743.9941407017
 20
519.387055913
 30
0.0
 40
0.5000281162959603
100
AcDbArc
 50
64.7657677318
 51
96.8183615295
  0
LINE
  5
1F1
330
14A
100
AcDbEntity
  8
$DDT_AUDIT_GENERATED_(11A)
  6
Continuous
 62
     7
100
AcDbLine
 10
784.5475329099
 20
524.5958741945
 30
0.0
 11
783.8316174874
 21
524.5212147597
 31
0.0
  0
LINE
  5
1F2
330
14A
100
AcDbEntity
  8
$DDT_AUDIT_GENERATED_(11A)
  6
Continuous
 62
     7
100
AcDbLine
 10
666.8082373232
 20
510.154657168
 30
0.0
 11
666.1814955047
 21
510.0663954151
 31
0.0
  0
SPLINE
  5
1F3
330
14A
100
AcDbEntity
  8
$DDT_AUDIT_GENERATED_(11A)
  6
Continuous
 62
     7
100
AcDbSpline
210
0.0
220
0.0
230
1.0
 70
     8
 71
     3
 72
    15
 73
    11
 74
     0
 42
0.0000000001286374
 43
0.0000000001
 40
0.0
 40
0.0
 40
0.0
 40
0.0
 40
0.0912395979636301
 40
0.1871427168360286
 40
0.2837605966357595
 40
0.3409767277059889
 40
0.3985875397544102
 40
0.4565930811317641
 40
0.5149934020881147
 40
0.5715459728784884
 40
0.5715459728784884
 40
0.5715459728784884
 40
0.5715459728784884
 10
743.9348181446412
 20
519.8804871219072
 30
0.0
 10
741.352625855521
 20
519.5709034861381
 30
0.0
 10
736.8874103573651
 20
519.035179103923
 30
0.0
 10
729.4410220984086
 20
518.1304996728221
 30
0.0
 10
723.0548848912232
 20
517.3469971993802
 30
0.0
 10
717.6113828517881
 20
516.6737089288704
 30
0.0
 10
713.1683916306596
 20
516.120874913547
 30
0.0
 10
708.6937371033147
 20
515.5607628488087
 30
0.0
 10
704.2471108587863
 20
515.00081716685
 30
0.0
 10
701.29204253451
 20
514.6265054423906
 30
0.0
 10
699.8382564685571
 20
514.4418269713485
 30
0.0
  0
SPLINE
  5
1F4
330
14A
100
AcDbEntity
  8
$DDT_AUDIT_GENERATED_(11A)
  6
Continuous
 62
     7
100
AcDbSpline
210
0.0
220
0.0
230
1.0
 70
     8
 71
     3
 72
     9
 73
     5
 74
     0
 42
0.0000000001289941
 43
0.0000000001
 40
0.8825117653174994
 40
0.8825117653174994
 40
0.8825117653174994
 40
0.8825117653174994
 40
0.9188026011479389
 40
1.0
 40
1.0
 40
1.0
 40
1.0
 10
675.8381668401582
 20
511.3448714338891
 30
0.0
 10
674.9021509276903
 20
511.2222166875051
 30
0.0
 10
671.8976806505992
 20
510.8277721906809
 30
0.0
 10
669.1026874518213
 20
510.4582073648045
 30
0.0
 10
666.8082373231267
 20
510.1546571679388
 30
0.0
  0
SPLINE
  5
1F5
330
14A
100
AcDbEntity
  8
$DDT_AUDIT_GENERATED_(11A)
  6
Continuous
 62
     7
100
AcDbSpline
210
0.0
220
0.0
230
1.0
 70
     8
 71
     3
 72
     8
 73
     4
 74
     0
 42
0.0000000007175298
 43
0.0000000001
 40
0.0
 40
0.0
 40
0.0
 40
0.0
 40
1.0
 40
1.0
 40
1.0
 40
1.0
 10
783.8316174875431
 20
524.5212147596998
 30
0.0
 10
778.7334900431042
 20
523.9450041048988
 30
0.0
 10
774.117921168344
 20
523.4179378578679
 30
0.0
 10
769.9849108632624
 20
522.940016018607
 30
0.0
  0
LINE
  5
1F6
330
14A
100
AcDbEntity
  8
$DDT_AUDIT_GENERATED_(11A)
  6
Continuous
 62
     7
100
AcDbLine
 10
712.1334571242
 20
495.9934130855
 30
0.0
 11
710.564971042
 21
508.7677071065
 31
0.0
  0
LINE
  5
1F7
330
14A
100
AcDbEntity
  8
$DDT_AUDIT_GENERATED_(11A)
  6
Continuous
 62
     7
100
AcDbLine
 10
714.0701285017
 20
480.2204904704
 30
0.0
 11
713.062421478
 21
488.427605569
 31
0.0
  0
SPLINE
  5
1F8
330
14A
100
AcDbEntity
  8
$DDT_AUDIT_GENERATED_(11A)
  6
Continuous
 62
     7
100
AcDbSpline
210
0.0
220
0.0
230
1.0
 70
     8
 71
     3
 72
    10
 73
     6
 74
     0
 42
0.000000000687543
 43
0.0000000001
 40
0.0
 40
0.0
 40
0.0
 40
0.0
 40
0.2875287108516512
 40
0.6296246663395195
 40
1.0
 40
1.0
 40
1.0
 40
1.0
 10
770.3057205973553
 20
519.1809366803635
 30
0.0
 10
771.8251525809425
 20
519.3873609506064
 30
0.0
 10
774.6171091881432
 20
519.7670152782873
 30
0.0
 10
779.616937744378
 20
520.4575788421101
 30
0.0
 10
782.757114913827
 20
520.898640764448
 30
0.0
 10
784.7130853977276
 20
521.1736622528584
 30
0.0
  0
SPLINE
  5
1F9
330
14A
100
AcDbEntity
  8
$DDT_AUDIT_GENERATED_(11A)
  6
Continuous
 62
     7
100
AcDbSpline
210
0.0
220
0.0
230
1.0
 70
     8
 71
     3
 72
    15
 73
    11
 74
     0
 42
0.0000000003192448
 43
0.0000000001
 40
0.0
 40
0.0
 40
0.0
 40
0.0
 40
0.1528258264327847
 40
0.3152439932698944
 40
0.4647560165183752
 40
0.601362585212209
 40
0.7250641695128898
 40
0.8358610646183964
 40
0.928507212103435
 40
1.0
 40
1.0
 40
1.0
 40
1.0
 10
713.1748722781554
 20
512.0717555696003
 30
0.0
 10
714.9189251416465
 20
512.2698868796277
 30
0.0
 10
717.9522363261091
 20
512.6148853060874
 30
0.0
 10
722.8706604829484
 20
513.1866255862276
 30
0.0
 10
727.4979241809806
 20
513.7328061481238
 30
0.0
 10
731.7501934707246
 20
514.2421608092302
 30
0.0
 10
735.6023218994478
 20
514.709668300982
 30
0.0
 10
738.9716443662978
 20
515.1233748665791
 30
0.0
 10
741.8813213308852
 20
515.4840968633239
 30
0.0
 10
743.4630607218235
 20
515.6821705155437
 30
0.0
 10
744.2778161480835
 20
515.7842541880487
 30
0.0
  0
LINE
  5
1FA
330
14A
100
AcDbEntity
  8
$DDT_AUDIT_GENERATED_(11A)
  6
Continuous
 62
     7
100
AcDbLine
 10
784.7130853986
 20
521.173662253
 30
0.0
 11
785.1156339961
 21
521.2370107643
 31
0.0
  0
LINE
  5
1FB
330
14A
100
AcDbEntity
  8
$DDT_AUDIT_GENERATED_(11A)
  6
Continuous
 62
     7
100
AcDbLine
 10
785.8509154969
 20
521.8202507723
 30
0.0
 11
785.5548904524
 21
524.2318583902
 31
0.0
  0
LINE
  5
1FC
330
14A
100
AcDbEntity
  8
$DDT_AUDIT_GENERATED_(11A)
  6
Continuous
 62
     7
100
AcDbLine
 10
665.2086961248
 20
509.5753773401
 30
0.0
 11
663.5894497639
 21
496.3876740242
 31
0.0
  0
ARC
  5
1FD
330
14A
100
AcDbEntity
  8
$DDT_AUDIT_GENERATED_(11A)
  6
Continuous
 62
     7
100
AcDbCircle
 10
744.2156779328
 20
516.2795058973
 30
0.0
 40
0.5000399971971358
100
AcDbArc
 50
277.1513644248
 51
343.154156717
  0
SPLINE
  5
1FE
330
14A
100
AcDbEntity
  8
$DDT_AUDIT_GENERATED_(11A)
  6
Continuous
 62
     7
100
AcDbSpline
210
0.0
220
0.0
230
1.0
 70
     8
 71
     3
 72
    12
 73
     8
 74
     0
 42
0.0000000038722512
 43
0.0000000001
 40
0.2024318215966051
 40
0.2024318215966051
 40
0.2024318215966051
 40
0.2024318215966051
 40
0.3072398106075691
 40
0.4407953259627928
 40
0.5998318867098018
 40
0.7863973081751396
 40
1.0
 40
1.0
 40
1.0
 40
1.0
 10
744.724834145308
 20
516.1095257440893
 30
0.0
 10
744.7485033814212
 20
516.0944661825471
 30
0.0
 10
744.8282862761591
 20
516.0759312287408
 30
0.0
 10
745.0541081042493
 20
516.0768484215665
 30
0.0
 10
745.4490680960187
 20
516.1099583837154
 30
0.0
 10
746.0455816678738
 20
516.1753688914736
 30
0.0
 10
746.4900265470988
 20
516.2267054509924
 30
0.0
 10
746.7682082298398
 20
516.2592752844992
 30
0.0
  0
SPLINE
  5
1FF
330
14A
100
AcDbEntity
  8
$DDT_AUDIT_GENERATED_(11A)
  6
Continuous
 62
     7
100
AcDbSpline
210
0.0
220
0.0
230
1.0
 70
     8
 71
     3
 72
    12
 73
     8
 74
     0
 42
0.0000000038574553
 43
0.0000000001
 40
0.2037687010633918
 40
0.2037687010633918
 40
0.2037687010633918
 40
0.2037687010633918
 40
0.3045712856483413
 40
0.4382585459888228
 40
0.5977617534876808
 40
0.7851739070813843
 40
1.0
 40
1.0
 40
1.0
 40
1.0
 10
769.5382963152431
 20
522.7062694006926
 30
0.0
 10
769.5151855169571
 20
522.7217336747557
 30
0.0
 10
769.4365640825202
 20
522.7434121364574
 30
0.0
 10
769.2135762284468
 20
522.7494895262474
 30
0.0
 10
768.817659770418
 20
522.7247583836383
 30
0.0
 10
768.2175693130707
 20
522.6679482145962
 30
0.0
 10
767.7698686428272
 20
522.6201629909024
 30
0.0
 10
767.4895212532117
 20
522.5897023009255
 30
0.0
  0
ARC
  5
200
330
14A
100
AcDbEntity
  8
$DDT_AUDIT_GENERATED_(11A)
  6
Continuous
 62
     7
100
AcDbCircle
 10
713.5489332897
 20
509.097096664
 30
0.0
 40
3.001820349235175
100
AcDbArc
 50
96.5184815442
 51
186.9685111538
  0
ARC
  5
201
330
14A
100
AcDbEntity
  8
$DDT_AUDIT_GENERATED_(11A)
  6
Continuous
 62
     7
100
AcDbCircle
 10
785.3515244195
 20
521.7658034438
 30
0.0
 40
0.5022699336785235
100
AcDbArc
 50
278.300842086
 51
6.7529961988
  0
ARC
  5
202
330
14A
100
AcDbEntity
  8
$DDT_AUDIT_GENERATED_(11A)
  6
Continuous
 62
     7
100
AcDbCircle
 10
785.0593660987
 20
524.1588246841
 30
0.0
 40
0.5006522585066978
100
AcDbArc
 50
7.0694506388
 51
96.3583093044
  0
ARC
  5
203
330
14A
100
AcDbEntity
  8
$DDT_AUDIT_GENERATED_(11A)
  6
Continuous
 62
     7
100
AcDbCircle
 10
665.7045635402
 20
509.5060500465
 30
0.0
 40
0.5007742140058715
100
AcDbArc
 50
97.6347881338
 51
172.9342430677
  0
ARC
  5
204
330
14A
100
AcDbEntity
  8
$DDT_AUDIT_GENERATED_(11A)
  6
Continuous
 62
     7
100
AcDbCircle
 10
664.0884155197
 20
496.3414963676
 30
0.0
 40
0.5004108738112457
100
AcDbArc
 50
173.0296094647
 51
237.9702360603
  0
ARC
  5
205
330
14A
100
AcDbEntity
  8
$DDT_AUDIT_GENERATED_(11A)
  6
Continuous
 62
     7
100
AcDbCircle
 10
713.5740833385
 20
480.1557470949
 30
0.0
 40
0.5002747085076391
100
AcDbArc
 50
269.5167851415
 51
6.9679251029
  0
LINE
  5
206
330
14A
100
AcDbEntity
  8
$DDT_AUDIT_GENERATED_(13C)
  6
Continuous
 62
     7
100
AcDbLine
 10
705.5844583363
 20
430.9627684457
 30
0.0
 11
705.5844583363
 21
435.3627684457
 31
0.0
  0
LINE
  5
207
330
14A
100
AcDbEntity
  8
$DDT_AUDIT_GENERATED_(13C)
  6
Continuous
 62
     7
100
AcDbLine
 10
670.0844583363
 20
435.3627684457
 30
0.0
 11
670.0844583363
 21
430.9627684457
 31
0.0
  0
ENDBLK
  5
209
330
14A
100
AcDbEntity
  8
0
100
AcDbBlockEnd
  0
BLOCK
  5
2C5
330
20A
100
AcDbEntity
  8
0
100
AcDbBlockBegin
  2
SE2
 70
     0
 10
0.0
 20
0.0
 30
0.0
  3
SE2
  1

  0
LINE
  5
20C
330
20A
100
AcDbEntity
  8
$DDT_AUDIT_GENERATED_(95)
  6
Continuous
 62
     7
100
AcDbLine
 10
84.2461850795
 20
171.8659670967
 30
0.0
 11
21.2461850795
 21
171.8659670967
 31
0.0
  0
LINE
  5
20D
330
20A
100
AcDbEntity
  8
$DDT_AUDIT_GENERATED_(95)
  6
Continuous
 62
     7
100
AcDbLine
 10
20.2461850795
 20
172.8659670967
 30
0.0
 11
20.2461850795
 21
235.8659670967
 31
0.0
  0
LINE
  5
20E
330
20A
100
AcDbEntity
  8
$DDT_AUDIT_GENERATED_(95)
  6
Continuous
 62
     7
100
AcDbLine
 10
21.2461850795
 20
236.8659670967
 30
0.0
 11
84.2461850795
 21
236.8659670967
 31
0.0
  0
LINE
  5
20F
330
20A
100
AcDbEntity
  8
$DDT_AUDIT_GENERATED_(95)
  6
Continuous
 62
     7
100
AcDbLine
 10
85.2461850795
 20
235.8659670967
 30
0.0
 11
85.2461850795
 21
172.8659670967
 31
0.0
  0
ARC
  5
210
330
20A
100
AcDbEntity
  8
$DDT_AUDIT_GENERATED_(95)
  6
Continuous
 62
     7
100
AcDbCircle
 10
84.2461850795
 20
235.8659670967
 30
0.0
 40
1.000000000000001
100
AcDbArc
 50
0.0
 51
90.0
  0
ARC
  5
211
330
20A
100
AcDbEntity
  8
$DDT_AUDIT_GENERATED_(95)
  6
Continuous
 62
     7
100
AcDbCircle
 10
21.2461850795
 20
235.8659670967
 30
0.0
 40
1.000000000000001
100
AcDbArc
 50
90.0
 51
180.0
  0
ARC
  5
212
330
20A
100
AcDbEntity
  8
$DDT_AUDIT_GENERATED_(95)
  6
Continuous
 62
     7
100
AcDbCircle
 10
84.2461850795
 20
172.8659670967
 30
0.0
 40
1.000000000000001
100
AcDbArc
 50
270.0
 51
0.0
  0
ARC
  5
213
330
20A
100
AcDbEntity
  8
$DDT_AUDIT_GENERATED_(95)
  6
Continuous
 62
     7
100
AcDbCircle
 10
21.2461850795
 20
172.8659670967
 30
0.0
 40
1.000000000000001
100
AcDbArc
 50
180.0
 51
270.0
  0
ARC
  5
214
330
20A
100
AcDbEntity
  8
$DDT_AUDIT_GENERATED_(9E)
  6
Continuous
 62
     7
100
AcDbCircle
 10
397.7461850795
 20
204.3659670967
 30
0.0
 40
24.53867513459482
100
AcDbArc
 50
81.4668481285
 51
98.8511264959
  0
LINE
  5
215
330
20A
100
AcDbEntity
  8
$DDT_AUDIT_GENERATED_(9E)
  6
Continuous
 62
     7
100
AcDbLine
 10
423.7461888942
 20
229.8659670967
 30
0.0
 11
423.7461888942
 21
178.8659670967
 31
0.0
  0
LINE
  5
216
330
20A
100
AcDbEntity
  8
$DDT_AUDIT_GENERATED_(9E)
  6
Continuous
 62
     7
100
AcDbLine
 10
372.3150501918
 20
178.3659670967
 30
0.0
 11
372.2461812648
 21
178.3659670967
 31
0.0
  0
LINE
  5
217
330
20A
100
AcDbEntity
  8
$DDT_AUDIT_GENERATED_(9E)
  6
Continuous
 62
     7
100
AcDbLine
 10
371.7461812648
 20
178.8659670967
 30
0.0
 11
371.7461812648
 21
229.8659670967
 31
0.0
  0
LINE
  5
218
330
20A
100
AcDbEntity
  8
$DDT_AUDIT_GENERATED_(9E)
  6
Continuous
 62
     7
100
AcDbLine
 10
372.2461812648
 20
230.3659670967
 30
0.0
 11
423.2461888942
 21
230.3659670967
 31
0.0
  0
ARC
  5
219
330
20A
100
AcDbEntity
  8
$DDT_AUDIT_GENERATED_(9E)
  6
Continuous
 62
     7
100
AcDbCircle
 10
372.2461812648
 20
229.8659670967
 30
0.0
 40
0.5000000000000004
100
AcDbArc
 50
90.0
 51
180.0
  0
ARC
  5
21A
330
20A
100
AcDbEntity
  8
$DDT_AUDIT_GENERATED_(9E)
  6
Continuous
 62
     7
100
AcDbCircle
 10
372.2461812648
 20
178.8659670967
 30
0.0
 40
0.5000000000000004
100
AcDbArc
 50
180.0
 51
270.0
  0
ARC
  5
21B
330
20A
100
AcDbEntity
  8
$DDT_AUDIT_GENERATED_(9E)
  6
Continuous
 62
     7
100
AcDbCircle
 10
423.2461888942
 20
229.8659670967
 30
0.0
 40
0.5000000000000004
100
AcDbArc
 50
0.0
 51
90.0
  0
ARC
  5
21C
330
20A
100
AcDbEntity
  8
$DDT_AUDIT_GENERATED_(9E)
  6
Continuous
 62
     7
100
AcDbCircle
 10
423.2461888942
 20
178.8659670967
 30
0.0
 40
0.5000000000000004
100
AcDbArc
 50
270.0
 51
0.0
  0
LINE
  5
21D
330
20A
100
AcDbEntity
  8
$DDT_AUDIT_GENERATED_(A7)
  6
Continuous
 62
     7
100
AcDbLine
 10
32.0961850795
 20
184.2159670967
 30
0.0
 11
32.0961850795
 21
224.5159670967
 31
0.0
  0
LINE
  5
21E
330
20A
100
AcDbEntity
  8
$DDT_AUDIT_GENERATED_(A7)
  6
Continuous
 62
     7
100
AcDbLine
 10
32.5961850795
 20
225.0159670967
 30
0.0
 11
72.8961850795
 21
225.0159670967
 31
0.0
  0
LINE
  5
21F
330
20A
100
AcDbEntity
  8
$DDT_AUDIT_GENERATED_(A7)
  6
Continuous
 62
     7
100
AcDbLine
 10
72.8961850795
 20
183.7159670967
 30
0.0
 11
32.5961850795
 21
183.7159670967
 31
0.0
  0
LINE
  5
220
330
20A
100
AcDbEntity
  8
$DDT_AUDIT_GENERATED_(A7)
  6
Continuous
 62
     7
100
AcDbLine
 10
73.3961850795
 20
224.5159670967
 30
0.0
 11
73.3961850795
 21
184.2159670967
 31
0.0
  0
ARC
  5
221
330
20A
100
AcDbEntity
  8
$DDT_AUDIT_GENERATED_(A7)
  6
Continuous
 62
     7
100
AcDbCircle
 10
72.8961850795
 20
184.2159670967
 30
0.0
 40
0.5000000000000004
100
AcDbArc
 50
270.0
 51
0.0
  0
ARC
  5
222
330
20A
100
AcDbEntity
  8
$DDT_AUDIT_GENERATED_(A7)
  6
Continuous
 62
     7
100
AcDbCircle
 10
72.8961850795
 20
224.5159670967
 30
0.0
 40
0.5000000000000004
100
AcDbArc
 50
0.0
 51
90.0
  0
ARC
  5
223
330
20A
100
AcDbEntity
  8
$DDT_AUDIT_GENERATED_(A7)
  6
Continuous
 62
     7
100
AcDbCircle
 10
32.5961850795
 20
184.2159670967
 30
0.0
 40
0.5000000000000004
100
AcDbArc
 50
180.0
 51
270.0
  0
ARC
  5
224
330
20A
100
AcDbEntity
  8
$DDT_AUDIT_GENERATED_(A7)
  6
Continuous
 62
     7
100
AcDbCircle
 10
32.5961850795
 20
224.5159670967
 30
0.0
 40
0.5000000000000004
100
AcDbArc
 50
90.0
 51
180.0
  0
ARC
  5
226
330
20A
100
AcDbEntity
  8
$DDT_AUDIT_GENERATED_(225)
  6
Continuous
 62
     7
100
AcDbCircle
 10
242.7461850795
 20
204.3659670967
 30
0.0
 40
14.00000000000001
100
AcDbArc
 50
0.0
 51
30.8054679354
  0
ARC
  5
227
330
20A
100
AcDbEntity
  8
$DDT_AUDIT_GENERATED_(225)
  6
Continuous
 62
     7
100
AcDbCircle
 10
242.7461850795
 20
204.3659670967
 30
0.0
 40
14.00000000000001
100
AcDbArc
 50
59.386959206
 51
120.7303802541
  0
ARC
  5
228
330
20A
100
AcDbEntity
  8
$DDT_AUDIT_GENERATED_(225)
  6
Continuous
 62
     7
100
AcDbCircle
 10
242.7461850795
 20
204.3659670967
 30
0.0
 40
14.00000000000001
100
AcDbArc
 50
149.1584672213
 51
210.5970774698
  0
ARC
  5
229
330
20A
100
AcDbEntity
  8
$DDT_AUDIT_GENERATED_(225)
  6
Continuous
 62
     7
100
AcDbCircle
 10
242.7461850795
 20
204.3659670967
 30
0.0
 40
14.00000000000001
100
AcDbArc
 50
246.1531117188
 51
293.6970268604
  0
ARC
  5
22A
330
20A
100
AcDbEntity
  8
$DDT_AUDIT_GENERATED_(225)
  6
Continuous
 62
     7
100
AcDbCircle
 10
242.7461850795
 20
204.3659670967
 30
0.0
 40
14.00000000000001
100
AcDbArc
 50
329.3668348771
 51
0.0
  0
LINE
  5
22B
330
20A
100
AcDbEntity
  8
$DDT_AUDIT_GENERATED_(BC)
  6
Continuous
 62
     7
100
AcDbLine
 10
254.2461851729
 20
216.3621599767
 30
0.0
 11
231.2461851729
 21
216.3621599767
 31
0.0
  0
LINE
  5
22C
330
20A
100
AcDbEntity
  8
$DDT_AUDIT_GENERATED_(BC)
  6
Continuous
 62
     7
100
AcDbLine
 10
254.7461851725
 20
192.8621599771
 30
0.0
 11
254.746185172
 21
215.8621599771
 31
0.0
  0
SPLINE
  5
22D
330
20A
100
AcDbEntity
  8
$DDT_AUDIT_GENERATED_(BC)
  6
Continuous
 62
     7
100
AcDbSpline
210
0.0
220
0.0
230
1.0
 70
    12
 71
     5
 72
    12
 73
     6
 74
     0
 42
0.0000000251373102
 43
0.0000000001
 40
0.0
 40
0.0
 40
0.0
 40
0.0
 40
0.0
 40
0.0
 40
1.0
 40
1.0
 40
1.0
 40
1.0
 40
1.0
 40
1.0
 10
230.7461851737786
 20
215.862159977118
 30
0.0
 41
1.0
 10
230.7461851741261
 20
215.945002689599
 30
0.0
 41
1.0
 10
230.7629745151281
 20
216.023923915056
 30
0.0
 41
1.0
 10
230.7944085604561
 20
216.096779462106
 30
0.0
 41
1.0
 10
230.8383424607821
 20
216.161424045749
 30
0.0
 41
1.0
 10
230.8926317825331
 20
216.2157133674999
 30
0.0
 41
1.0
  0
SPLINE
  5
22E
330
20A
100
AcDbEntity
  8
$DDT_AUDIT_GENERATED_(BC)
  6
Continuous
 62
     7
100
AcDbSpline
210
0.0
220
0.0
230
1.0
 70
    12
 71
     5
 72
    12
 73
     6
 74
     0
 42
0.0000000251373102
 43
0.0000000001
 40
0.0
 40
0.0
 40
0.0
 40
0.0
 40
0.0
 40
0.0
 40
1.0
 40
1.0
 40
1.0
 40
1.0
 40
1.0
 40
1.0
 10
230.8926317825331
 20
216.2157133674999
 30
0.0
 41
1.0
 10
230.9469211042841
 20
216.270002689251
 30
0.0
 41
1.0
 10
231.0115656879271
 20
216.313936592098
 30
0.0
 41
1.0
 10
231.0844212349771
 20
216.345370630472
 30
0.0
 41
1.0
 10
231.1633424604341
 20
216.362159977646
 30
0.0
 41
1.0
 10
231.2461851729151
 20
216.3621599766895
 30
0.0
 41
1.0
  0
ARC
  5
22F
330
20A
100
AcDbEntity
  8
$DDT_AUDIT_GENERATED_(BC)
  6
Continuous
 62
     7
100
AcDbCircle
 10
231.2456276975
 20
215.8635056637
 30
0.0
 40
0.4986544464397133
100
AcDbArc
 50
112.4439639055
 51
135.0640398962
  0
SPLINE
  5
230
330
20A
100
AcDbEntity
  8
$DDT_AUDIT_GENERATED_(BC)
  6
Continuous
 62
     7
100
AcDbSpline
210
0.0
220
0.0
230
1.0
 70
    12
 71
     5
 72
    12
 73
     6
 74
     0
 42
0.0000000251373102
 43
0.0000000001
 40
0.0
 40
0.0
 40
0.0
 40
0.0
 40
0.0
 40
0.0
 40
1.0
 40
1.0
 40
1.0
 40
1.0
 40
1.0
 40
1.0
 10
231.2461851729151
 20
192.3621599775587
 30
0.0
 41
1.0
 10
231.1633424604341
 20
192.362159976603
 30
0.0
 41
1.0
 10
231.0844212349771
 20
192.378949323777
 30
0.0
 41
1.0
 10
231.0115656879271
 20
192.41038336215
 30
0.0
 41
1.0
 10
230.9469211042841
 20
192.4543172649969
 30
0.0
 41
1.0
 10
230.8926317825331
 20
192.508606586748
 30
0.0
 41
1.0
  0
SPLINE
  5
231
330
20A
100
AcDbEntity
  8
$DDT_AUDIT_GENERATED_(BC)
  6
Continuous
 62
     7
100
AcDbSpline
210
0.0
220
0.0
230
1.0
 70
    12
 71
     5
 72
    12
 73
     6
 74
     0
 42
0.0000000251373102
 43
0.0000000001
 40
0.0
 40
0.0
 40
0.0
 40
0.0
 40
0.0
 40
0.0
 40
1.0
 40
1.0
 40
1.0
 40
1.0
 40
1.0
 40
1.0
 10
230.8926317825331
 20
192.508606586748
 30
0.0
 41
1.0
 10
230.8383424607821
 20
192.5628959084989
 30
0.0
 41
1.0
 10
230.7944085604561
 20
192.627540492143
 30
0.0
 41
1.0
 10
230.7629745151281
 20
192.700396039193
 30
0.0
 41
1.0
 10
230.7461851741261
 20
192.77931726465
 30
0.0
 41
1.0
 10
230.7461851737781
 20
192.8621599771308
 30
0.0
 41
1.0
  0
ARC
  5
232
330
20A
100
AcDbEntity
  8
$DDT_AUDIT_GENERATED_(BC)
  6
Continuous
 62
     7
100
AcDbCircle
 10
231.2448394863
 20
192.8616025017
 30
0.0
 40
0.4986544464452578
100
AcDbArc
 50
202.9582803565
 51
225.0640398959
  0
ARC
  5
233
330
20A
100
AcDbEntity
  8
$DDT_AUDIT_GENERATED_(BC)
  6
Continuous
 62
     7
100
AcDbCircle
 10
231.2456267849
 20
192.8608126955
 30
0.0
 40
0.4986526738631952
100
AcDbArc
 50
247.0419290512
 51
270.0641594483
  0
SPLINE
  5
234
330
20A
100
AcDbEntity
  8
$DDT_AUDIT_GENERATED_(BC)
  6
Continuous
 62
     7
100
AcDbSpline
210
0.0
220
0.0
230
1.0
 70
    12
 71
     5
 72
    12
 73
     6
 74
     0
 42
0.0000000251373102
 43
0.0000000001
 40
0.0
 40
0.0
 40
0.0
 40
0.0
 40
0.0
 40
0.0
 40
1.0
 40
1.0
 40
1.0
 40
1.0
 40
1.0
 40
1.0
 10
254.5997385632851
 20
192.508606586748
 30
0.0
 41
1.0
 10
254.5454492415341
 20
192.4543172649969
 30
0.0
 41
1.0
 10
254.4808046578911
 20
192.410383364671
 30
0.0
 41
1.0
 10
254.4079491108411
 20
192.378949319343
 30
0.0
 41
1.0
 10
254.3290278853841
 20
192.362159978341
 30
0.0
 41
1.0
 10
254.2461851729031
 20
192.3621599779935
 30
0.0
 41
1.0
  0
SPLINE
  5
235
330
20A
100
AcDbEntity
  8
$DDT_AUDIT_GENERATED_(BC)
  6
Continuous
 62
     7
100
AcDbSpline
210
0.0
220
0.0
230
1.0
 70
    12
 71
     5
 72
    12
 73
     6
 74
     0
 42
0.0000000251373102
 43
0.0000000001
 40
0.0
 40
0.0
 40
0.0
 40
0.0
 40
0.0
 40
0.0
 40
1.0
 40
1.0
 40
1.0
 40
1.0
 40
1.0
 40
1.0
 10
254.5997385632851
 20
192.508606586748
 30
0.0
 41
1.0
 10
254.6540278850361
 20
192.5628959084989
 30
0.0
 41
1.0
 10
254.6979617878831
 20
192.627540492143
 30
0.0
 41
1.0
 10
254.7293958262581
 20
192.700396039192
 30
0.0
 41
1.0
 10
254.7461851734312
 20
192.77931726465
 30
0.0
 41
1.0
 10
254.7461851724746
 20
192.86215997713
 30
0.0
 41
1.0
  0
SPLINE
  5
236
330
20A
100
AcDbEntity
  8
$DDT_AUDIT_GENERATED_(BC)
  6
Continuous
 62
     7
100
AcDbSpline
210
0.0
220
0.0
230
1.0
 70
    12
 71
     5
 72
    12
 73
     6
 74
     0
 42
0.0000000251373102
 43
0.0000000001
 40
0.0
 40
0.0
 40
0.0
 40
0.0
 40
0.0
 40
0.0
 40
1.0
 40
1.0
 40
1.0
 40
1.0
 40
1.0
 40
1.0
 10
254.7461851720401
 20
215.8621599771185
 30
0.0
 41
1.0
 10
254.7461851716921
 20
215.945002689599
 30
0.0
 41
1.0
 10
254.7293958306901
 20
216.023923915056
 30
0.0
 41
1.0
 10
254.6979617853621
 20
216.096779462106
 30
0.0
 41
1.0
 10
254.6540278850361
 20
216.16142404575
 30
0.0
 41
1.0
 10
254.5997385632851
 20
216.2157133675009
 30
0.0
 41
1.0
  0
SPLINE
  5
237
330
20A
100
AcDbEntity
  8
$DDT_AUDIT_GENERATED_(BC)
  6
Continuous
 62
     7
100
AcDbSpline
210
0.0
220
0.0
230
1.0
 70
    12
 71
     5
 72
    12
 73
     6
 74
     0
 42
0.0000000251373102
 43
0.0000000001
 40
0.0
 40
0.0
 40
0.0
 40
0.0
 40
0.0
 40
0.0
 40
1.0
 40
1.0
 40
1.0
 40
1.0
 40
1.0
 40
1.0
 10
254.5997385632851
 20
216.2157133675009
 30
0.0
 41
1.0
 10
254.5454492415341
 20
216.270002689251
 30
0.0
 41
1.0
 10
254.4808046578911
 20
216.313936592098
 30
0.0
 41
1.0
 10
254.4079491108411
 20
216.345370630473
 30
0.0
 41
1.0
 10
254.3290278853841
 20
216.362159977646
 30
0.0
 41
1.0
 10
254.2461851729031
 20
216.3621599766895
 30
0.0
 41
1.0
  0
ARC
  5
238
330
20A
100
AcDbEntity
  8
$DDT_AUDIT_GENERATED_(BC)
  6
Continuous
 62
     7
100
AcDbCircle
 10
254.2475308595
 20
215.8627174525
 30
0.0
 40
0.4986544464440755
100
AcDbArc
 50
359.9359456331
 51
22.9580498957
  0
ARC
  5
239
330
20A
100
AcDbEntity
  8
$DDT_AUDIT_GENERATED_(BC)
  6
Continuous
 62
     7
100
AcDbCircle
 10
254.2467435609
 20
215.8635072587
 30
0.0
 40
0.4986526738600393
100
AcDbArc
 50
44.9359044279
 51
67.0417538453
  0
ARC
  5
23A
330
20A
100
AcDbEntity
  8
$DDT_AUDIT_GENERATED_(BC)
  6
Continuous
 62
     7
100
AcDbCircle
 10
231.2448378913
 20
215.8627183651
 30
0.0
 40
0.4986526738638618
100
AcDbArc
 50
134.9359044282
 51
180.0641594484
  0
ARC
  5
23B
330
20A
100
AcDbEntity
  8
$DDT_AUDIT_GENERATED_(BC)
  6
Continuous
 62
     7
100
AcDbCircle
 10
254.2475324545
 20
192.8616015892
 30
0.0
 40
0.4986526738659677
100
AcDbArc
 50
314.9359044282
 51
337.0417538451
  0
ARC
  5
23C
330
20A
100
AcDbEntity
  8
$DDT_AUDIT_GENERATED_(BC)
  6
Continuous
 62
     7
100
AcDbCircle
 10
254.2467426483
 20
192.8608142905
 30
0.0
 40
0.4986544464461336
100
AcDbArc
 50
269.9359456326
 51
315.064039896
  0
LINE
  5
23D
330
20A
100
AcDbEntity
  8
$DDT_AUDIT_GENERATED_(BC)
  6
Continuous
 62
     7
100
AcDbLine
 10
230.7461851738
 20
192.8621599771
 30
0.0
 11
230.7461851738
 21
215.8621599771
 31
0.0
  0
LINE
  5
23E
330
20A
100
AcDbEntity
  8
$DDT_AUDIT_GENERATED_(BC)
  6
Continuous
 62
     7
100
AcDbLine
 10
254.2461851729
 20
192.362159978
 30
0.0
 11
231.2461851729
 21
192.3621599776
 31
0.0
  0
LINE
  5
23F
330
20A
100
AcDbEntity
  8
$DDT_AUDIT_GENERATED_(BC)
  6
Continuous
 62
     7
100
AcDbLine
 10
249.1467895649
 20
190.8621599771
 30
0.0
 11
249.7461806664
 21
190.8621599771
 31
0.0
  0
LINE
  5
240
330
20A
100
AcDbEntity
  8
$DDT_AUDIT_GENERATED_(BC)
  6
Continuous
 62
     7
100
AcDbLine
 10
249.7461806664
 20
190.8621599771
 30
0.0
 11
250.3455725483
 21
190.8621599771
 31
0.0
  0
LINE
  5
241
330
20A
100
AcDbEntity
  8
$DDT_AUDIT_GENERATED_(BC)
  6
Continuous
 62
     7
100
AcDbLine
 10
244.3967851873
 20
190.8621599771
 30
0.0
 11
244.9961786725
 21
190.8621599771
 31
0.0
  0
LINE
  5
242
330
20A
100
AcDbEntity
  8
$DDT_AUDIT_GENERATED_(BC)
  6
Continuous
 62
     7
100
AcDbLine
 10
244.9961786725
 20
190.8621599771
 30
0.0
 11
245.5955629834
 21
190.8621599771
 31
0.0
  0
LINE
  5
243
330
20A
100
AcDbEntity
  8
$DDT_AUDIT_GENERATED_(BC)
  6
Continuous
 62
     7
100
AcDbLine
 10
235.1467838741
 20
190.8621599771
 30
0.0
 11
235.7461756717
 21
190.8621599771
 31
0.0
  0
LINE
  5
244
330
20A
100
AcDbEntity
  8
$DDT_AUDIT_GENERATED_(BC)
  6
Continuous
 62
     7
100
AcDbLine
 10
235.7461756717
 20
190.8621599771
 30
0.0
 11
236.3455608228
 21
190.8621599771
 31
0.0
  0
LINE
  5
245
330
20A
100
AcDbEntity
  8
$DDT_AUDIT_GENERATED_(BC)
  6
Continuous
 62
     7
100
AcDbLine
 10
240.4961784434
 20
190.8621599771
 30
0.0
 11
239.8967889002
 21
190.8621599771
 31
0.0
  0
LINE
  5
246
330
20A
100
AcDbEntity
  8
$DDT_AUDIT_GENERATED_(BC)
  6
Continuous
 62
     7
100
AcDbLine
 10
240.4961771781
 20
190.8621599771
 30
0.0
 11
241.0955638985
 21
190.8621599771
 31
0.0
  0
SPLINE
  5
247
330
20A
100
AcDbEntity
  8
$DDT_AUDIT_GENERATED_(BC)
  6
Continuous
 62
     7
100
AcDbSpline
210
0.0
220
0.0
230
1.0
 70
     8
 71
     3
 72
    13
 73
     9
 74
     0
 42
0.0000000076316009
 43
0.0000000001
 40
0.0
 40
0.0
 40
0.0
 40
0.0
 40
0.2955881113548727
 40
0.4047743077064806
 40
0.4999249668489861
 40
0.5950761039364922
 40
0.7042767712581282
 40
1.0
 40
1.0
 40
1.0
 40
1.0
 10
248.3963278884719
 20
191.6121599771245
 30
0.0
 10
248.39131442312
 20
191.4717399005497
 30
0.0
 10
248.3926270319729
 20
191.3098328474418
 30
0.0
 10
248.4473667765653
 20
191.0964150667731
 30
0.0
 10
248.5206578590932
 20
190.9862486921581
 30
0.0
 10
248.6308338626777
 20
190.9129547683886
 30
0.0
 10
248.8443375274785
 20
190.8582668131526
 30
0.0
 10
249.0063090068171
 20
190.8570521853527
 30
0.0
 10
249.1467899612315
 20
190.8621599771242
 30
0.0
  0
LINE
  5
248
330
20A
100
AcDbEntity
  8
$DDT_AUDIT_GENERATED_(BC)
  6
Continuous
 62
     7
100
AcDbLine
 10
248.3962446729
 20
192.3621599771
 30
0.0
 11
248.3962446729
 21
191.6121599771
 31
0.0
  0
SPLINE
  5
249
330
20A
100
AcDbEntity
  8
$DDT_AUDIT_GENERATED_(BC)
  6
Continuous
 62
     7
100
AcDbSpline
210
0.0
220
0.0
230
1.0
 70
     8
 71
     3
 72
    13
 73
     9
 74
     0
 42
0.0000000076315951
 43
0.0000000001
 40
0.0
 40
0.0
 40
0.0
 40
0.0
 40
0.2957233083886058
 40
0.4049240899294475
 40
0.5000753141611449
 40
0.5952259695573863
 40
0.7044120880630041
 40
1.0
 40
1.0
 40
1.0
 40
1.0
 10
250.3455725483139
 20
190.8621599771244
 30
0.0
 10
250.4860536458457
 20
190.8570522011592
 30
0.0
 10
250.6480253166188
 20
190.8582668324563
 30
0.0
 10
250.8615292706893
 20
190.9129547465747
 30
0.0
 10
250.9717055270529
 20
190.986248600827
 30
0.0
 10
251.0449968320744
 20
191.0964149634709
 30
0.0
 10
251.0997365630732
 20
191.3098328106387
 30
0.0
 10
251.1010488461594
 20
191.4717399024973
 30
0.0
 10
251.0960350702697
 20
191.6121599771245
 30
0.0
  0
LINE
  5
24A
330
20A
100
AcDbEntity
  8
$DDT_AUDIT_GENERATED_(BC)
  6
Continuous
 62
     7
100
AcDbLine
 10
251.0961166729
 20
191.6121599771
 30
0.0
 11
251.0961166729
 21
192.3621599771
 31
0.0
  0
SPLINE
  5
24B
330
20A
100
AcDbEntity
  8
$DDT_AUDIT_GENERATED_(BC)
  6
Continuous
 62
     7
100
AcDbSpline
210
0.0
220
0.0
230
1.0
 70
     8
 71
     3
 72
    13
 73
     9
 74
     0
 42
0.0000000076316139
 43
0.0000000001
 40
0.0
 40
0.0
 40
0.0
 40
0.0
 40
0.2955885722726226
 40
0.4047749103451803
 40
0.4999257304472142
 40
0.5950770135605671
 40
0.7042776622919841
 40
1.0
 40
1.0
 40
1.0
 40
1.0
 10
243.6463275749345
 20
191.6121599771244
 30
0.0
 10
243.6413133658751
 20
191.4717399567676
 30
0.0
 10
243.6426251565878
 20
191.3098328899507
 30
0.0
 10
243.6973645310704
 20
191.0964150395618
 30
0.0
 10
243.770655616781
 20
190.9862487037639
 30
0.0
 10
243.8808314974191
 20
190.9129548273718
 30
0.0
 10
244.0943344040773
 20
190.8582668646231
 30
0.0
 10
244.2563052521714
 20
190.8570522365109
 30
0.0
 10
244.3967855358721
 20
190.8621599771244
 30
0.0
  0
LINE
  5
24C
330
20A
100
AcDbEntity
  8
$DDT_AUDIT_GENERATED_(BC)
  6
Continuous
 62
     7
100
AcDbLine
 10
243.6462431729
 20
192.3621599771
 30
0.0
 11
243.6462431729
 21
191.6121599771
 31
0.0
  0
SPLINE
  5
24D
330
20A
100
AcDbEntity
  8
$DDT_AUDIT_GENERATED_(BC)
  6
Continuous
 62
     7
100
AcDbSpline
210
0.0
220
0.0
230
1.0
 70
     8
 71
     3
 72
    13
 73
     9
 74
     0
 42
0.0000000076315811
 43
0.0000000001
 40
0.0
 40
0.0
 40
0.0
 40
0.0
 40
0.2957244912586282
 40
0.4049252094445781
 40
0.5000761673291397
 40
0.5952266100330237
 40
0.7044125943053704
 40
1.0
 40
1.0
 40
1.0
 40
1.0
 10
245.5955629833832
 20
190.8621599771244
 30
0.0
 10
245.7360449135952
 20
190.8570521173468
 30
0.0
 10
245.8980173259381
 20
190.8582667449957
 30
0.0
 10
246.1115221230043
 20
190.9129546965574
 30
0.0
 10
246.2216983602027
 20
190.9862486806529
 30
0.0
 10
246.2949895128716
 20
191.0964151012626
 30
0.0
 10
246.349729865829
 20
191.3098327797995
 30
0.0
 10
246.3510436346244
 20
191.4717398216037
 30
0.0
 10
246.3460312218717
 20
191.6121599771244
 30
0.0
  0
LINE
  5
24E
330
20A
100
AcDbEntity
  8
$DDT_AUDIT_GENERATED_(BC)
  6
Continuous
 62
     7
100
AcDbLine
 10
246.3461141729
 20
191.6121599771
 30
0.0
 11
246.3461141729
 21
192.3621599771
 31
0.0
  0
SPLINE
  5
24F
330
20A
100
AcDbEntity
  8
$DDT_AUDIT_GENERATED_(BC)
  6
Continuous
 62
     7
100
AcDbSpline
210
0.0
220
0.0
230
1.0
 70
     8
 71
     3
 72
    13
 73
     9
 74
     0
 42
0.0000000076316035
 43
0.0000000001
 40
0.0
 40
0.0
 40
0.0
 40
0.0
 40
0.2955882057623709
 40
0.4047744304059339
 40
0.4999251262998394
 40
0.5950763021327342
 40
0.7042769725428114
 40
1.0
 40
1.0
 40
1.0
 40
1.0
 10
234.3963230577096
 20
191.612159977124
 30
0.0
 10
234.3913094120585
 20
191.4717399110462
 30
0.0
 10
234.3926218236118
 20
191.3098328515615
 30
0.0
 10
234.4473614949237
 20
191.0964150528522
 30
0.0
 10
234.5206525969839
 20
190.9862486885427
 30
0.0
 10
234.6308285908989
 20
190.9129547802742
 30
0.0
 10
234.8443320996807
 20
190.8582668265555
 30
0.0
 10
235.006303446459
 20
190.8570521983999
 30
0.0
 10
235.1467842575179
 20
190.8621599771244
 30
0.0
  0
LINE
  5
250
330
20A
100
AcDbEntity
  8
$DDT_AUDIT_GENERATED_(BC)
  6
Continuous
 62
     7
100
AcDbLine
 10
234.3962396729
 20
192.3621599771
 30
0.0
 11
234.3962396729
 21
191.6121599771
 31
0.0
  0
SPLINE
  5
251
330
20A
100
AcDbEntity
  8
$DDT_AUDIT_GENERATED_(BC)
  6
Continuous
 62
     7
100
AcDbSpline
210
0.0
220
0.0
230
1.0
 70
     8
 71
     3
 72
    13
 73
     9
 74
     0
 42
0.0000000076315833
 43
0.0000000001
 40
0.0
 40
0.0
 40
0.0
 40
0.0
 40
0.2957243904075075
 40
0.4049250910238852
 40
0.5000760492305665
 40
0.5952265062166089
 40
0.7044125164549448
 40
1.0
 40
1.0
 40
1.0
 40
1.0
 10
236.3455608227935
 20
190.8621599771244
 30
0.0
 10
236.486042668536
 20
190.8570521203554
 30
0.0
 10
236.6480149934683
 20
190.8582667478263
 30
0.0
 10
236.8615196670238
 20
190.9129546967187
 30
0.0
 10
236.9716958481611
 20
190.986248680675
 30
0.0
 10
237.0449869523634
 20
191.0964150998284
 30
0.0
 10
237.0997272293556
 20
191.3098327793693
 30
0.0
 10
237.1010409384935
 20
191.471739822202
 30
0.0
 10
237.0960284736841
 20
191.612159977124
 30
0.0
  0
LINE
  5
252
330
20A
100
AcDbEntity
  8
$DDT_AUDIT_GENERATED_(BC)
  6
Continuous
 62
     7
100
AcDbLine
 10
237.0961116729
 20
191.6121599771
 30
0.0
 11
237.0961116729
 21
192.3621599771
 31
0.0
  0
SPLINE
  5
253
330
20A
100
AcDbEntity
  8
$DDT_AUDIT_GENERATED_(BC)
  6
Continuous
 62
     7
100
AcDbSpline
210
0.0
220
0.0
230
1.0
 70
     8
 71
     3
 72
    13
 73
     9
 74
     0
 42
0.000000007631587
 43
0.0000000001
 40
0.0
 40
0.0
 40
0.0
 40
0.0
 40
0.295587599857111
 40
0.4047736372497533
 40
0.4999241939619907
 40
0.5950753083161734
 40
0.7042760806294466
 40
1.0
 40
1.0
 40
1.0
 40
1.0
 10
239.1463237631889
 20
191.612159977124
 30
0.0
 10
239.1413106359455
 20
191.4717398778475
 30
0.0
 10
239.1426236270229
 20
191.3098328163321
 30
0.0
 10
239.1973637058534
 20
191.0964150528583
 30
0.0
 10
239.2706549880549
 20
190.9862486613372
 30
0.0
 10
239.3808312835668
 20
190.9129547397189
 30
0.0
 10
239.5943357184929
 20
190.8582667912382
 30
0.0
 10
239.7563077945659
 20
190.8570521615386
 30
0.0
 10
239.8967893308542
 20
190.8621599771245
 30
0.0
  0
LINE
  5
254
330
20A
100
AcDbEntity
  8
$DDT_AUDIT_GENERATED_(BC)
  6
Continuous
 62
     7
100
AcDbLine
 10
239.1462411729
 20
192.3621599771
 30
0.0
 11
239.1462411729
 21
191.6121599771
 31
0.0
  0
SPLINE
  5
255
330
20A
100
AcDbEntity
  8
$DDT_AUDIT_GENERATED_(BC)
  6
Continuous
 62
     7
100
AcDbSpline
210
0.0
220
0.0
230
1.0
 70
     8
 71
     3
 72
    13
 73
     9
 74
     0
 42
0.0000000076315929
 43
0.0000000001
 40
0.0
 40
0.0
 40
0.0
 40
0.0
 40
0.2957238321826525
 40
0.4049244886169775
 40
0.5000755111728401
 40
0.595226067128778
 40
0.7044121835223459
 40
1.0
 40
1.0
 40
1.0
 40
1.0
 10
241.0955638985272
 20
190.8621599771245
 30
0.0
 10
241.2360452899749
 20
190.8570521462722
 30
0.0
 10
241.3980171704185
 20
190.8582667727868
 30
0.0
 10
241.6115213054156
 20
190.9129547487655
 30
0.0
 10
241.7216973434559
 20
190.9862487313092
 30
0.0
 10
241.7949883925413
 20
191.0964151336142
 30
0.0
 10
241.8497284580008
 20
191.3098328365431
 30
0.0
 10
241.8510417596799
 20
191.4717398663795
 30
0.0
 10
241.8460289285206
 20
191.6121599771242
 30
0.0
  0
LINE
  5
256
330
20A
100
AcDbEntity
  8
$DDT_AUDIT_GENERATED_(BC)
  6
Continuous
 62
     7
100
AcDbLine
 10
241.8461131729
 20
191.6121599771
 30
0.0
 11
241.8461131729
 21
192.3621599771
 31
0.0
  0
ARC
  5
258
330
20A
100
AcDbEntity
  8
$DDT_AUDIT_GENERATED_(257)
  6
Continuous
 62
     7
100
AcDbCircle
 10
397.7461850795
 20
204.3659670967
 30
0.0
 40
26.25
100
AcDbArc
 50
352.0862023118
 51
0.0
  0
ARC
  5
259
330
20A
100
AcDbEntity
  8
$DDT_AUDIT_GENERATED_(257)
  6
Continuous
 62
     7
100
AcDbCircle
 10
397.7461850795
 20
204.3659670967
 30
0.0
 40
26.25
100
AcDbArc
 50
172.0862023123
 51
187.9137976877
  0
ARC
  5
25A
330
20A
100
AcDbEntity
  8
$DDT_AUDIT_GENERATED_(257)
  6
Continuous
 62
     7
100
AcDbCircle
 10
397.7461850795
 20
204.3659670967
 30
0.0
 40
26.25
100
AcDbArc
 50
82.0861418377
 51
97.9138581623
  0
ARC
  5
25B
330
20A
100
AcDbEntity
  8
$DDT_AUDIT_GENERATED_(257)
  6
Continuous
 62
     7
100
AcDbCircle
 10
397.7461850795
 20
204.3659670967
 30
0.0
 40
26.25
100
AcDbArc
 50
0.0
 51
7.9137976882
  0
ARC
  5
25C
330
20A
100
AcDbEntity
  8
$DDT_AUDIT_GENERATED_(10B)
  6
Continuous
 62
     7
100
AcDbCircle
 10
242.7461850795
 20
204.3659670967
 30
0.0
 40
14.05
100
AcDbArc
 50
0.0
 51
30.974005918
  0
ARC
  5
25D
330
20A
100
AcDbEntity
  8
$DDT_AUDIT_GENERATED_(10B)
  6
Continuous
 62
     7
100
AcDbCircle
 10
242.7461850795
 20
204.3659670967
 30
0.0
 40
14.05
100
AcDbArc
 50
58.9776771803
 51
121.2283048838
  0
ARC
  5
25E
330
20A
100
AcDbEntity
  8
$DDT_AUDIT_GENERATED_(10B)
  6
Continuous
 62
     7
100
AcDbCircle
 10
242.7461850795
 20
204.3659670967
 30
0.0
 40
14.05
100
AcDbArc
 50
149.0095672201
 51
211.2018380109
  0
ARC
  5
25F
330
20A
100
AcDbEntity
  8
$DDT_AUDIT_GENERATED_(10B)
  6
Continuous
 62
     7
100
AcDbCircle
 10
242.7461850795
 20
204.3659670967
 30
0.0
 40
14.05
100
AcDbArc
 50
246.2133039148
 51
293.8238912178
  0
ARC
  5
260
330
20A
100
AcDbEntity
  8
$DDT_AUDIT_GENERATED_(10B)
  6
Continuous
 62
     7
100
AcDbCircle
 10
242.7461850795
 20
204.3659670967
 30
0.0
 40
14.05
100
AcDbArc
 50
328.8258629495
 51
0.0
  0
LINE
  5
261
330
20A
100
AcDbEntity
  8
$DDT_AUDIT_GENERATED_(10B)
  6
Continuous
 62
     7
100
AcDbLine
 10
262.7461850795
 20
183.8659670967
 30
0.0
 11
222.7461850795
 21
183.8659670967
 31
0.0
  0
LINE
  5
262
330
20A
100
AcDbEntity
  8
$DDT_AUDIT_GENERATED_(10B)
  6
Continuous
 62
     7
100
AcDbLine
 10
222.2461850795
 20
184.3659670967
 30
0.0
 11
222.2461850795
 21
224.3659670967
 31
0.0
  0
LINE
  5
263
330
20A
100
AcDbEntity
  8
$DDT_AUDIT_GENERATED_(10B)
  6
Continuous
 62
     7
100
AcDbLine
 10
263.2461850795
 20
224.3659670967
 30
0.0
 11
263.2461850795
 21
184.3659670967
 31
0.0
  0
LINE
  5
264
330
20A
100
AcDbEntity
  8
$DDT_AUDIT_GENERATED_(10B)
  6
Continuous
 62
     7
100
AcDbLine
 10
222.7461850795
 20
224.8659670967
 30
0.0
 11
262.7461850795
 21
224.8659670967
 31
0.0
  0
ARC
  5
265
330
20A
100
AcDbEntity
  8
$DDT_AUDIT_GENERATED_(10B)
  6
Continuous
 62
     7
100
AcDbCircle
 10
262.7461850795
 20
224.3659670967
 30
0.0
 40
0.5000000000000004
100
AcDbArc
 50
0.0
 51
90.0
  0
ARC
  5
266
330
20A
100
AcDbEntity
  8
$DDT_AUDIT_GENERATED_(10B)
  6
Continuous
 62
     7
100
AcDbCircle
 10
222.7461850795
 20
224.3659670967
 30
0.0
 40
0.5000000000000004
100
AcDbArc
 50
90.0
 51
180.0
  0
ARC
  5
267
330
20A
100
AcDbEntity
  8
$DDT_AUDIT_GENERATED_(10B)
  6
Continuous
 62
     7
100
AcDbCircle
 10
262.7461850795
 20
184.3659670967
 30
0.0
 40
0.5000000000000004
100
AcDbArc
 50
270.0
 51
0.0
  0
ARC
  5
268
330
20A
100
AcDbEntity
  8
$DDT_AUDIT_GENERATED_(10B)
  6
Continuous
 62
     7
100
AcDbCircle
 10
222.7461850795
 20
184.3659670967
 30
0.0
 40
0.5000000000000004
100
AcDbArc
 50
180.0
 51
270.0
  0
LINE
  5
269
330
20A
100
AcDbEntity
  8
$DDT_AUDIT_GENERATED_(111)
  6
Continuous
 62
     7
100
AcDbLine
 10
275.2461850795
 20
235.8659670967
 30
0.0
 11
275.2461850795
 21
172.8659670967
 31
0.0
  0
LINE
  5
26A
330
20A
100
AcDbEntity
  8
$DDT_AUDIT_GENERATED_(111)
  6
Continuous
 62
     7
100
AcDbLine
 10
274.2461850795
 20
171.8659670967
 30
0.0
 11
211.2461850795
 21
171.8659670967
 31
0.0
  0
LINE
  5
26B
330
20A
100
AcDbEntity
  8
$DDT_AUDIT_GENERATED_(111)
  6
Continuous
 62
     7
100
AcDbLine
 10
210.2461850795
 20
172.8659670967
 30
0.0
 11
210.2461850795
 21
235.8659670967
 31
0.0
  0
LINE
  5
26C
330
20A
100
AcDbEntity
  8
$DDT_AUDIT_GENERATED_(111)
  6
Continuous
 62
     7
100
AcDbLine
 10
211.2461850795
 20
236.8659670967
 30
0.0
 11
274.2461850795
 21
236.8659670967
 31
0.0
  0
ARC
  5
26D
330
20A
100
AcDbEntity
  8
$DDT_AUDIT_GENERATED_(111)
  6
Continuous
 62
     7
100
AcDbCircle
 10
211.2461850795
 20
235.8659670967
 30
0.0
 40
1.000000000000001
100
AcDbArc
 50
90.0
 51
180.0
  0
ARC
  5
26E
330
20A
100
AcDbEntity
  8
$DDT_AUDIT_GENERATED_(111)
  6
Continuous
 62
     7
100
AcDbCircle
 10
211.2461850795
 20
172.8659670967
 30
0.0
 40
1.000000000000001
100
AcDbArc
 50
180.0
 51
270.0
  0
ARC
  5
26F
330
20A
100
AcDbEntity
  8
$DDT_AUDIT_GENERATED_(111)
  6
Continuous
 62
     7
100
AcDbCircle
 10
274.2461850795
 20
235.8659670967
 30
0.0
 40
1.000000000000001
100
AcDbArc
 50
0.0
 51
90.0
  0
ARC
  5
270
330
20A
100
AcDbEntity
  8
$DDT_AUDIT_GENERATED_(111)
  6
Continuous
 62
     7
100
AcDbCircle
 10
274.2461850795
 20
172.8659670967
 30
0.0
 40
1.000000000000001
100
AcDbArc
 50
270.0
 51
0.0
  0
LINE
  5
271
330
20A
100
AcDbEntity
  8
$DDT_AUDIT_GENERATED_(11A)
  6
Continuous
 62
     7
100
AcDbLine
 10
385.2187686381
 20
124.4673348339
 30
0.0
 11
385.2295544717
 21
125.607472462
 31
0.0
  0
ARC
  5
272
330
20A
100
AcDbEntity
  8
$DDT_AUDIT_GENERATED_(11A)
  6
Continuous
 62
     7
100
AcDbCircle
 10
408.2780005437
 20
124.4563317668
 30
0.0
 40
1.989868667048988
100
AcDbArc
 50
323.1201312362
 51
0.3169506132
  0
LINE
  5
273
330
20A
100
AcDbEntity
  8
$DDT_AUDIT_GENERATED_(11A)
  6
Continuous
 62
     7
100
AcDbLine
 10
410.2570513917
 20
125.6074724737
 30
0.0
 11
410.2678371837
 21
124.4673393253
 31
0.0
  0
SPLINE
  5
274
330
20A
100
AcDbEntity
  8
$DDT_AUDIT_GENERATED_(11A)
  6
Continuous
 62
     7
100
AcDbSpline
210
0.0
220
0.0
230
1.0
 70
     8
 71
     3
 72
     8
 73
     4
 74
     0
 42
0.0000000756074957
 43
0.0000000001
 40
0.0
 40
0.0
 40
0.0
 40
0.0
 40
0.127158705004824
 40
0.127158705004824
 40
0.127158705004824
 40
0.127158705004824
 10
410.2570340556929
 20
125.6074724288595
 30
0.0
 10
410.2552414345298
 20
125.6029743953728
 30
0.0
 10
410.2572500702783
 20
125.5984947571444
 30
0.0
 10
410.2628005551616
 20
125.5941207275844
 30
0.0
  0
LINE
  5
275
330
20A
100
AcDbEntity
  8
$DDT_AUDIT_GENERATED_(11A)
  6
Continuous
 62
     7
100
AcDbLine
 10
385.2177051284
 20
145.696540121
 30
0.0
 11
385.2295544714
 21
144.3712589051
 31
0.0
  0
LINE
  5
276
330
20A
100
AcDbEntity
  8
$DDT_AUDIT_GENERATED_(11A)
  6
Continuous
 62
     7
100
AcDbLine
 10
410.2570513916
 20
144.3712588992
 30
0.0
 11
410.268900689
 21
145.6965350082
 31
0.0
  0
SPLINE
  5
277
330
20A
100
AcDbEntity
  8
$DDT_AUDIT_GENERATED_(11A)
  6
Continuous
 62
     7
100
AcDbSpline
210
0.0
220
0.0
230
1.0
 70
     8
 71
     3
 72
     8
 73
     4
 74
     0
 42
0.0000000789026801
 43
0.0000000001
 40
0.0
 40
0.0
 40
0.0
 40
0.0
 40
0.1292512906927569
 40
0.1292512906927569
 40
0.1292512906927569
 40
0.1292512906927569
 10
410.2570406611137
 20
144.3712589273754
 30
0.0
 10
410.2552174149504
 20
144.375488622972
 30
0.0
 10
410.2573179163522
 20
144.3797000482141
 30
0.0
 10
410.2630703465585
 20
144.3838085939184
 30
0.0
  0
LINE
  5
278
330
20A
100
AcDbEntity
  8
$DDT_AUDIT_GENERATED_(11A)
  6
Continuous
 62
     7
100
AcDbLine
 10
420.1047178152
 20
182.4578611775
 30
0.0
 11
423.666601773
 21
178.9242512467
 31
0.0
  0
LINE
  5
279
330
20A
100
AcDbEntity
  8
$DDT_AUDIT_GENERATED_(11A)
  6
Continuous
 62
     7
100
AcDbLine
 10
420.9823878089
 20
227.8511428928
 30
0.0
 11
419.3779618632
 21
226.2108391195
 31
0.0
  0
SPLINE
  5
27A
330
20A
100
AcDbEntity
  8
$DDT_AUDIT_GENERATED_(11A)
  6
Continuous
 62
     7
100
AcDbSpline
210
0.0
220
0.0
230
1.0
 70
     8
 71
     3
 72
    17
 73
    13
 74
     0
 42
0.0000000000841897
 43
0.0000000001
 40
0.0
 40
0.0
 40
0.0
 40
0.0
 40
0.129786673499619
 40
0.129786673499619
 40
0.129786673499619
 40
0.386771923704479
 40
0.386771923704479
 40
0.386771923704479
 40
0.6437571738134971
 40
0.6437571738134971
 40
0.6437571738134971
 40
1.0
 40
1.0
 40
1.0
 40
1.0
 10
419.3779625679333
 20
226.2108391269027
 30
0.0
 10
419.3777485783257
 20
221.0724149161981
 30
0.0
 10
419.3775685119422
 20
215.9339576705978
 30
0.0
 10
419.3774197520873
 20
210.7954692988181
 30
0.0
 10
419.3771251988225
 20
200.6209600063997
 30
0.0
 10
419.37695284336
 20
190.4463291501631
 30
0.0
 10
419.3768944003214
 20
180.2715852357932
 30
0.0
 10
419.376835957283
 20
170.0968413232591
 30
0.0
 10
419.3768914189741
 20
159.9219842689756
 30
0.0
 10
419.3770612807708
 20
149.7470138362849
 30
0.0
 10
419.3772967497176
 20
135.6420789988566
 30
0.0
 10
419.377750808004
 20
121.5369272999092
 30
0.0
 10
419.3784525434969
 20
107.4315306989568
 30
0.0
  0
ELLIPSE
  5
27B
330
20A
100
AcDbEntity
  8
$DDT_AUDIT_GENERATED_(11A)
  6
Continuous
 62
     7
100
AcDbEllipse
 10
420.1043394907
 20
178.9789430781
 30
0.0
 11
0.05227481664643596
 21
-3.504630074374879
 31
0.0
210
0.0
220
0.0
230
1.0
 40
0.121502734
 41
3.018559903591076
 42
4.5904743941667
  0
LINE
  5
27C
330
20A
100
AcDbEntity
  8
$DDT_AUDIT_GENERATED_(11A)
  6
Continuous
 62
     7
100
AcDbLine
 10
387.0750420988
 20
122.6527627498
 30
0.0
 11
408.411566491
 21
122.652741996
 31
0.0
  0
ARC
  5
27D
330
20A
100
AcDbEntity
  8
$DDT_AUDIT_GENERATED_(11A)
  6
Continuous
 62
     7
100
AcDbCircle
 10
397.7433663162
 20
914.6062232338
 30
0.0
 40
808.2549501859193
100
AcDbArc
 50
268.4794745523
 51
271.5205166792
  0
ARC
  5
27E
330
20A
100
AcDbEntity
  8
$DDT_AUDIT_GENERATED_(11A)
  6
Continuous
 62
     7
100
AcDbCircle
 10
397.7588710161
 20
14341.9919073847
 30
0.0
 40
14194.50595064658
100
AcDbArc
 50
269.9568236812
 51
270.0430506515
  0
LINE
  5
27F
330
20A
100
AcDbEntity
  8
$DDT_AUDIT_GENERATED_(11A)
  6
Continuous
 62
     7
100
AcDbLine
 10
376.1086436879
 20
226.2108355213
 30
0.0
 11
374.5042176075
 21
227.8511402309
 31
0.0
  0
LINE
  5
280
330
20A
100
AcDbEntity
  8
$DDT_AUDIT_GENERATED_(11A)
  6
Continuous
 62
     7
100
AcDbLine
 10
371.8200041211
 20
178.9242535166
 30
0.0
 11
375.3818880699
 21
182.4578648861
 31
0.0
  0
ELLIPSE
  5
281
330
20A
100
AcDbEntity
  8
$DDT_AUDIT_GENERATED_(11A)
  6
Continuous
 62
     7
100
AcDbEllipse
 10
375.3828611961
 20
178.9835634185
 30
0.0
 11
-0.05179726968451703
 21
-3.500172229819662
 31
0.0
210
0.0
220
0.0
230
0.9999999999999997
 40
0.121502888
 41
1.691522611792794
 42
3.265062518350985
  0
SPLINE
  5
282
330
20A
100
AcDbEntity
  8
$DDT_AUDIT_GENERATED_(11A)
  6
Continuous
 62
     7
100
AcDbSpline
210
0.0
220
0.0
230
1.0
 70
     8
 71
     3
 72
    17
 73
    13
 74
     0
 42
0.0000000000841898
 43
0.0000000001
 40
0.0
 40
0.0
 40
0.0
 40
0.0
 40
0.128248024489474
 40
0.128248024489474
 40
0.128248024489474
 40
0.385233290211513
 40
0.385233290211513
 40
0.385233290211513
 40
0.642218555837836
 40
0.642218555837836
 40
0.642218555837836
 40
1.0
 40
1.0
 40
1.0
 40
1.0
 10
376.1081530241112
 20
107.4315342587056
 30
0.0
 10
376.1084056500432
 20
112.5095008037542
 30
0.0
 10
376.1086258794324
 20
117.5874353067449
 30
0.0
 10
376.1088155406413
 20
122.6653395382925
 30
0.0
 10
376.1091955865427
 20
132.8405182135095
 30
0.0
 10
376.1094534406032
 20
143.0155759526415
 30
0.0
 10
376.1095973838866
 20
153.1905206883676
 30
0.0
 10
376.10974132717
 20
163.3654654222608
 30
0.0
 10
376.1097713674399
 20
173.5402972517
 30
0.0
 10
376.1096870054635
 20
183.7150154264237
 30
0.0
 10
376.1095695545678
 20
197.8805176272129
 30
0.0
 10
376.1092316412222
 20
212.0458010332576
 30
0.0
 10
376.1086499939569
 20
226.210835426979
 30
0.0
  0
ARC
  5
283
330
20A
100
AcDbEntity
  8
$DDT_AUDIT_GENERATED_(11A)
  6
Continuous
 62
     7
100
AcDbCircle
 10
397.7432481715
 20
-535.6811866691
 30
0.0
 40
762.6738518794903
100
AcDbArc
 50
88.4107545774
 51
91.589236958
  0
ARC
  5
284
330
20A
100
AcDbEntity
  8
$DDT_AUDIT_GENERATED_(11A)
  6
Continuous
 62
     7
100
AcDbCircle
 10
408.2757438074
 20
145.7064800408
 30
0.0
 40
1.993182657755353
100
AcDbArc
 50
359.7141180378
 51
35.7163790007
  0
ARC
  5
285
330
20A
100
AcDbEntity
  8
$DDT_AUDIT_GENERATED_(11A)
  6
Continuous
 62
     7
100
AcDbCircle
 10
387.210975257
 20
145.7064044134
 30
0.0
 40
1.993262887855487
100
AcDbArc
 50
89.8593512206
 51
180.2835450628
  0
ARC
  5
286
330
20A
100
AcDbEntity
  8
$DDT_AUDIT_GENERATED_(11A)
  6
Continuous
 62
     7
100
AcDbCircle
 10
387.208972052
 20
124.45664083
 30
0.0
 40
1.990180975558819
100
AcDbArc
 50
179.6921303794
 51
216.866592206
  0
ARC
  5
287
330
20A
100
AcDbEntity
  8
$DDT_AUDIT_GENERATED_(11A)
  6
Continuous
 62
     7
100
AcDbCircle
 10
372.3254315219
 20
178.9258642965
 30
0.0
 40
0.505401863988718
100
AcDbArc
 50
180.1826571656
 51
267.675478226
  0
SPLINE
  5
288
330
20A
100
AcDbEntity
  8
$DDT_AUDIT_GENERATED_(11A)
  6
Continuous
 62
     7
100
AcDbSpline
210
0.0
220
0.0
230
1.0
 70
    12
 71
     2
 72
     6
 73
     3
 74
     0
 42
0.0000002252433226
 43
0.0000000001
 40
0.8393110442419482
 40
0.8393110442419482
 40
0.8393110442419482
 40
0.9105885215672741
 40
0.9105885215672741
 40
0.9105885215672741
 10
419.1900605761869
 20
106.6350933563573
 30
0.0
 41
0.9207890302151268
 10
419.1902081989253
 20
106.6320716658937
 30
0.0
 41
0.9349935540673155
 10
419.1902789449991
 20
106.6319518173578
 30
0.0
 41
0.9521819555267108
  0
ARC
  5
289
330
20A
100
AcDbEntity
  8
$DDT_AUDIT_GENERATED_(11A)
  6
Continuous
 62
     7
100
AcDbCircle
 10
420.4773237343
 20
227.8347741503
 30
0.0
 40
0.5053224943243128
100
AcDbArc
 50
1.8562762774
 51
87.5686894601
  0
ARC
  5
28A
330
20A
100
AcDbEntity
  8
$DDT_AUDIT_GENERATED_(11A)
  6
Continuous
 62
     7
100
AcDbCircle
 10
375.0092721464
 20
227.8347668467
 30
0.0
 40
0.5053205283437987
100
AcDbArc
 50
92.4298882798
 51
178.143177349
  0
ELLIPSE
  5
28B
330
20A
100
AcDbEntity
  8
$DDT_AUDIT_GENERATED_(11A)
  6
Continuous
 62
     7
100
AcDbEllipse
 10
375.0004906702
 20
227.8437141759
 30
0.0
 11
0.4979372992667819
 21
-0.04537010027424321
 31
0.0
210
0.0
220
0.0
230
0.9999999999999999
 40
0.5283442977
 41
3.141592653589793
 42
3.284548818714897
  0
ELLIPSE
  5
28C
330
20A
100
AcDbEntity
  8
$DDT_AUDIT_GENERATED_(11A)
  6
Continuous
 62
     7
100
AcDbEllipse
 10
375.0004906702
 20
227.8437141759
 30
0.0
 11
0.01181444569509082
 21
-0.4998603993845788
 31
0.0
210
0.0
220
0.0
230
0.9999999999999999
 40
0.0147633609
 41
2.92919173191024
 42
3.266691348460482
  0
SPLINE
  5
28D
330
20A
100
AcDbEntity
  8
$DDT_AUDIT_GENERATED_(11A)
  6
Continuous
 62
     7
100
AcDbSpline
210
0.0
220
0.0
230
1.0
 70
     8
 71
     3
 72
     8
 73
     4
 74
     0
 42
0.0000000276739938
 43
0.0000000001
 40
0.0
 40
0.0
 40
0.0
 40
0.0
 40
0.0865930719307982
 40
0.0865930719307982
 40
0.0865930719307982
 40
0.0865930719307982
 10
372.1685519425367
 20
202.2171866131794
 30
0.0
 10
372.1670857906341
 20
202.2275871703564
 30
0.0
 10
372.1656196387314
 20
202.2379877275335
 30
0.0
 10
372.1663859520201
 20
202.2482427706489
 30
0.0
  0
ELLIPSE
  5
28E
330
20A
100
AcDbEntity
  8
$DDT_AUDIT_GENERATED_(11A)
  6
Continuous
 62
     7
100
AcDbEllipse
 10
420.4861147632
 20
227.8437168541
 30
0.0
 11
-0.4979372989868946
 21
-0.04537010334618521
 31
0.0
210
0.0
220
0.0
230
1.0
 40
0.5283442975
 41
2.998636227733232
 42
3.141592653589789
  0
SPLINE
  5
28F
330
20A
100
AcDbEntity
  8
$DDT_AUDIT_GENERATED_(11A)
  6
Continuous
 62
     7
100
AcDbSpline
210
0.0
220
0.0
230
1.0
 70
     8
 71
     3
 72
     8
 73
     4
 74
     0
 42
0.000000027819616
 43
0.0000000001
 40
0.914150679544897
 40
0.914150679544897
 40
0.914150679544897
 40
0.914150679544897
 40
1.0
 40
1.0
 40
1.0
 40
1.0
 10
423.3183500146622
 20
202.248005380243
 30
0.0
 10
423.3189825668649
 20
202.2378176018441
 30
0.0
 10
423.3185182303591
 20
202.2275021077614
 30
0.0
 10
423.3180538938535
 20
202.2171866136788
 30
0.0
  0
LINE
  5
290
330
20A
100
AcDbEntity
  8
$DDT_AUDIT_GENERATED_(11A)
  6
Continuous
 62
     7
100
AcDbLine
 10
371.8163331351
 20
178.9243084173
 30
0.0
 11
371.8200041207
 21
178.9242534859
 31
0.0
  0
ARC
  5
291
330
20A
100
AcDbEntity
  8
$DDT_AUDIT_GENERATED_(11A)
  6
Continuous
 62
     7
100
AcDbCircle
 10
408.654906835
 20
124.433180931
 30
0.0
 40
1.618780338729051
100
AcDbArc
 50
334.5731130805
 51
0.727696579
  0
LINE
  5
292
330
20A
100
AcDbEntity
  8
$DDT_AUDIT_GENERATED_(11A)
  6
Continuous
 62
     7
100
AcDbLine
 10
410.250181886
 20
142.9842881738
 30
0.0
 11
410.250181886
 21
126.9194758182
 31
0.0
  0
LINE
  5
293
330
20A
100
AcDbEntity
  8
$DDT_AUDIT_GENERATED_(11A)
  6
Continuous
 62
     7
100
AcDbLine
 10
385.2364239773
 20
126.9194758461
 30
0.0
 11
385.2364239773
 21
142.9842881664
 31
0.0
  0
ARC
  5
294
330
20A
100
AcDbEntity
  8
$DDT_AUDIT_GENERATED_(11A)
  6
Continuous
 62
     7
100
AcDbCircle
 10
408.5481815654
 20
145.6124223193
 30
0.0
 40
1.829005499148796
100
AcDbArc
 50
48.2982307306
 51
67.4984293164
  0
ARC
  5
295
330
20A
100
AcDbEntity
  8
$DDT_AUDIT_GENERATED_(11A)
  6
Continuous
 62
     7
100
AcDbCircle
 10
408.426386139
 20
145.6314537145
 30
0.0
 40
1.861893726837259
100
AcDbArc
 50
63.8090925588
 51
90.0032420417
  0
ARC
  5
296
330
20A
100
AcDbEntity
  8
$DDT_AUDIT_GENERATED_(11A)
  6
Continuous
 62
     7
100
AcDbCircle
 10
387.0575475454
 20
145.6399398405
 30
0.0
 40
1.853433538454334
100
AcDbArc
 50
89.9140344416
 51
116.1433317307
  0
ARC
  5
297
330
20A
100
AcDbEntity
  8
$DDT_AUDIT_GENERATED_(11A)
  6
Continuous
 62
     7
100
AcDbCircle
 10
386.9384379206
 20
145.6145155859
 30
0.0
 40
1.827596424936715
100
AcDbArc
 50
112.4374431066
 51
131.7352963029
  0
LINE
  5
298
330
20A
100
AcDbEntity
  8
$DDT_AUDIT_GENERATED_(11A)
  6
Continuous
 62
     7
100
AcDbLine
 10
410.2501780851
 20
126.9193335522
 30
0.0
 11
410.2507289661
 21
126.8613742634
 31
0.0
  0
LINE
  5
299
330
20A
100
AcDbEntity
  8
$DDT_AUDIT_GENERATED_(11A)
  6
Continuous
 62
     7
100
AcDbLine
 10
385.2348038045
 20
126.7485254671
 30
0.0
 11
385.2364272085
 21
126.9193348493
 31
0.0
  0
ARC
  5
29A
330
20A
100
AcDbEntity
  8
$DDT_AUDIT_GENERATED_(11A)
  6
Continuous
 62
     7
100
AcDbCircle
 10
386.8150669488
 20
145.7308567086
 30
0.0
 40
1.603219681422124
100
AcDbArc
 50
154.9787628859
 51
180.7769862415
  0
LINE
  5
29B
330
20A
100
AcDbEntity
  8
$DDT_AUDIT_GENERATED_(11A)
  6
Continuous
 62
     7
100
AcDbLine
 10
385.2364282096
 20
142.9844376686
 30
0.0
 11
385.223846412
 21
144.3838176558
 31
0.0
  0
LINE
  5
29C
330
20A
100
AcDbEntity
  8
$DDT_AUDIT_GENERATED_(11A)
  6
Continuous
 62
     7
100
AcDbLine
 10
410.2627594549
 20
144.3838176532
 30
0.0
 11
410.2501781532
 21
142.9844317235
 31
0.0
  0
ARC
  5
29D
330
20A
100
AcDbEntity
  8
$DDT_AUDIT_GENERATED_(11A)
  6
Continuous
 62
     7
100
AcDbCircle
 10
386.97854377
 20
124.5589884932
 30
0.0
 40
1.867702782684358
100
AcDbArc
 50
216.2447507268
 51
246.681973972
  0
ARC
  5
29E
330
20A
100
AcDbEntity
  8
$DDT_AUDIT_GENERATED_(11A)
  6
Continuous
 62
     7
100
AcDbCircle
 10
387.079053622
 20
124.5575310909
 30
0.0
 40
1.908411064065811
100
AcDbArc
 50
243.8924389574
 51
269.8603476506
  0
SPLINE
  5
29F
330
20A
100
AcDbEntity
  8
$DDT_AUDIT_GENERATED_(11A)
  6
Continuous
 62
     7
100
AcDbSpline
210
0.0
220
0.0
230
1.0
 70
     8
 71
     3
 72
     8
 73
     4
 74
     0
 42
0.0000000004686518
 43
0.0000000001
 40
0.0
 40
0.0
 40
0.0
 40
0.0
 40
1.0
 40
1.0
 40
1.0
 40
1.0
 10
408.4122065258302
 20
122.6491457022995
 30
0.0
 10
401.9756091065105
 20
122.6480923119134
 30
0.0
 10
394.8630076239774
 20
122.6480856429785
 30
0.0
 10
387.0744020782308
 20
122.6491256954947
 30
0.0
  0
ARC
  5
2A0
330
20A
100
AcDbEntity
  8
$DDT_AUDIT_GENERATED_(11A)
  6
Continuous
 62
     7
100
AcDbCircle
 10
408.404971079
 20
124.5654311152
 30
0.0
 40
1.916299072277814
100
AcDbArc
 50
270.2163344729
 51
296.143443639
  0
ARC
  5
2A1
330
20A
100
AcDbEntity
  8
$DDT_AUDIT_GENERATED_(11A)
  6
Continuous
 62
     7
100
AcDbCircle
 10
408.5079337631
 20
124.5611499759
 30
0.0
 40
1.869282604299906
100
AcDbArc
 50
293.3671167225
 51
323.6992345624
  0
SPLINE
  5
2A2
330
20A
100
AcDbEntity
  8
$DDT_AUDIT_GENERATED_(11A)
  6
Continuous
 62
     7
100
AcDbSpline
210
0.0
220
0.0
230
1.0
 70
     8
 71
     3
 72
     8
 73
     4
 74
     0
 42
0.0000000021578213
 43
0.0000000001
 40
0.0
 40
0.0
 40
0.0
 40
0.0
 40
0.0207702509370438
 40
0.0207702509370438
 40
0.0207702509370438
 40
0.0207702509370438
 10
419.6761091386064
 20
179.3848795508947
 30
0.0
 10
419.6763199860436
 20
179.4175130409187
 30
0.0
 10
419.6765298318263
 20
179.449577242465
 30
0.0
 10
419.676744530718
 20
179.4811331098607
 30
0.0
  0
SPLINE
  5
2A3
330
20A
100
AcDbEntity
  8
$DDT_AUDIT_GENERATED_(11A)
  6
Continuous
 62
     7
100
AcDbSpline
210
0.0
220
0.0
230
1.0
 70
     8
 71
     3
 72
     8
 73
     4
 74
     0
 42
0.0000000001383892
 43
0.0000000001
 40
0.0
 40
0.0
 40
0.0
 40
0.0
 40
1.0
 40
1.0
 40
1.0
 40
1.0
 10
419.6734967969772
 20
107.1244828495667
 30
0.0
 10
419.6765758536312
 20
131.0211016586306
 30
0.0
 10
419.6773184475309
 20
155.1077620930532
 30
0.0
 10
419.6757245786764
 20
179.3844641528346
 30
0.0
  0
ARC
  5
2A4
330
20A
100
AcDbEntity
  8
$DDT_AUDIT_GENERATED_(11A)
  6
Continuous
 62
     7
100
AcDbCircle
 10
419.1769700181
 20
107.1317695714
 30
0.0
 40
0.5000000000000011
100
AcDbArc
 50
271.5259331049
 51
359.9930267719
  0
SPLINE
  5
2A5
330
20A
100
AcDbEntity
  8
$DDT_AUDIT_GENERATED_(11A)
  6
Continuous
 62
     7
100
AcDbSpline
210
0.0
220
0.0
230
1.0
 70
     8
 71
     3
 72
     8
 73
     4
 74
     0
 42
0.0000000022582486
 43
0.0000000001
 40
0.9136169495059269
 40
0.9136169495059269
 40
0.9136169495059269
 40
0.9136169495059269
 40
1.0
 40
1.0
 40
1.0
 40
1.0
 10
375.8084883824833
 20
179.7673150255078
 30
0.0
 10
375.8093776068305
 20
179.6460768013434
 30
0.0
 10
375.8099739939547
 20
179.5193988038318
 30
0.0
 10
375.8105750513286
 20
179.3847987149662
 30
0.0
  0
ARC
  5
2A6
330
20A
100
AcDbEntity
  8
$DDT_AUDIT_GENERATED_(11A)
  6
Continuous
 62
     7
100
AcDbCircle
 10
397.7433674848
 20
913.2204319237
 30
0.0
 40
806.8704319237025
100
AcDbArc
 50
268.4768843203
 51
269.4877147669
  0
ARC
  5
2A7
330
20A
100
AcDbEntity
  8
$DDT_AUDIT_GENERATED_(11A)
  6
Continuous
 62
     7
100
AcDbCircle
 10
397.7433674848
 20
913.2204319237
 30
0.0
 40
806.8704319237025
100
AcDbArc
 50
270.508063032
 51
271.5231067236
  0
SPLINE
  5
2A8
330
20A
100
AcDbEntity
  8
$DDT_AUDIT_GENERATED_(11A)
  6
Continuous
 62
     7
100
AcDbSpline
210
0.0
220
0.0
230
1.0
 70
     8
 71
     3
 72
     8
 73
     4
 74
     0
 42
0.0000000001383892
 43
0.0000000001
 40
0.0
 40
0.0
 40
0.0
 40
0.0
 40
1.0
 40
1.0
 40
1.0
 40
1.0
 10
375.8108810857802
 20
179.3844702760311
 30
0.0
 10
375.8092763845878
 20
155.4841222762134
 30
0.0
 10
375.8100189792081
 20
131.3974609137294
 30
0.0
 10
375.813108869641
 20
107.1244861885791
 30
0.0
  0
ARC
  5
2A9
330
20A
100
AcDbEntity
  8
$DDT_AUDIT_GENERATED_(11A)
  6
Continuous
 62
     7
100
AcDbCircle
 10
376.3096355695
 20
107.1317729923
 30
0.0
 40
0.4999999999999804
100
AcDbArc
 50
180.0069732268
 51
268.4744530455
  0
ARC
  5
2AA
330
20A
100
AcDbEntity
  8
$DDT_AUDIT_GENERATED_(11A)
  6
Continuous
 62
     7
100
AcDbCircle
 10
397.743359957
 20
-734.9463545271
 30
0.0
 40
963.5474074221264
100
AcDbArc
 50
88.7163032346
 51
91.2825915135
  0
LINE
  5
2AB
330
20A
100
AcDbEntity
  8
$DDT_AUDIT_GENERATED_(11A)
  6
Continuous
 62
     7
100
AcDbLine
 10
374.502553371
 20
227.8890842762
 30
0.0
 11
372.1662785788
 21
202.2484453235
 31
0.0
  0
LINE
  5
2AC
330
20A
100
AcDbEntity
  8
$DDT_AUDIT_GENERATED_(11A)
  6
Continuous
 62
     7
100
AcDbLine
 10
423.3203272579
 20
202.2484453262
 30
0.0
 11
420.9840520622
 21
227.8890869574
 31
0.0
  0
LINE
  5
2AD
330
20A
100
AcDbEntity
  8
$DDT_AUDIT_GENERATED_(11A)
  6
Continuous
 62
     7
100
AcDbLine
 10
372.1649812868
 20
202.2239444409
 30
0.0
 11
371.816333135
 21
178.9243084173
 31
0.0
  0
LINE
  5
2AE
330
20A
100
AcDbEntity
  8
$DDT_AUDIT_GENERATED_(11A)
  6
Continuous
 62
     7
100
AcDbLine
 10
423.6702727574
 20
178.9243061474
 30
0.0
 11
423.321621454
 21
202.2241513411
 31
0.0
  0
ARC
  5
2AF
330
20A
100
AcDbEntity
  8
$DDT_AUDIT_GENERATED_(11A)
  6
Continuous
 62
     7
100
AcDbCircle
 10
397.7433529013
 20
1290.9736194173
 30
0.0
 40
1112.843524359929
100
AcDbArc
 50
268.6901652896
 51
268.8707354167
  0
ARC
  5
2B0
330
20A
100
AcDbEntity
  8
$DDT_AUDIT_GENERATED_(11A)
  6
Continuous
 62
     7
100
AcDbCircle
 10
397.7433529013
 20
1290.9736194173
 30
0.0
 40
1112.843524359929
100
AcDbArc
 50
271.1292594697
 51
271.3098296797
  0
ARC
  5
2B1
330
20A
100
AcDbEntity
  8
$DDT_AUDIT_GENERATED_(11A)
  6
Continuous
 62
     7
100
AcDbCircle
 10
423.1703287281
 20
178.9168251476
 30
0.0
 40
0.5000000000000112
100
AcDbArc
 50
319.7620807091
 51
0.8572914281
  0
ARC
  5
2B2
330
20A
100
AcDbEntity
  8
$DDT_AUDIT_GENERATED_(11A)
  6
Continuous
 62
     7
100
AcDbCircle
 10
423.1703287281
 20
178.9168251476
 30
0.0
 40
0.4999999999999989
100
AcDbArc
 50
271.3106285327
 51
319.7620807091
  0
LINE
  5
2B3
330
20A
100
AcDbEntity
  8
$DDT_AUDIT_GENERATED_(13F)
  6
Continuous
 62
     7
100
AcDbLine
 10
430.2461850795
 20
235.8659670967
 30
0.0
 11
430.2461850795
 21
172.8659670967
 31
0.0
  0
LINE
  5
2B4
330
20A
100
AcDbEntity
  8
$DDT_AUDIT_GENERATED_(13F)
  6
Continuous
 62
     7
100
AcDbLine
 10
429.2461850795
 20
171.8659670967
 30
0.0
 11
419.6758555009
 21
171.8659670967
 31
0.0
  0
LINE
  5
2B5
330
20A
100
AcDbEntity
  8
$DDT_AUDIT_GENERATED_(13F)
  6
Continuous
 62
     7
100
AcDbLine
 10
375.8107445729
 20
171.8659670967
 30
0.0
 11
366.2461850795
 21
171.8659670967
 31
0.0
  0
LINE
  5
2B6
330
20A
100
AcDbEntity
  8
$DDT_AUDIT_GENERATED_(13F)
  6
Continuous
 62
     7
100
AcDbLine
 10
366.2461850795
 20
236.8659670967
 30
0.0
 11
429.2461850795
 21
236.8659670967
 31
0.0
  0
LINE
  5
2B7
330
20A
100
AcDbEntity
  8
$DDT_AUDIT_GENERATED_(13F)
  6
Continuous
 62
     7
100
AcDbLine
 10
365.2461850795
 20
172.8659670967
 30
0.0
 11
365.2461850795
 21
235.8659670967
 31
0.0
  0
ARC
  5
2B8
330
20A
100
AcDbEntity
  8
$DDT_AUDIT_GENERATED_(13F)
  6
Continuous
 62
     7
100
AcDbCircle
 10
366.2461850795
 20
235.8659670967
 30
0.0
 40
1.000000000000001
100
AcDbArc
 50
90.0
 51
180.0
  0
ARC
  5
2B9
330
20A
100
AcDbEntity
  8
$DDT_AUDIT_GENERATED_(13F)
  6
Continuous
 62
     7
100
AcDbCircle
 10
366.2461850795
 20
172.8659670967
 30
0.0
 40
1.000000000000001
100
AcDbArc
 50
180.0
 51
270.0
  0
ARC
  5
2BA
330
20A
100
AcDbEntity
  8
$DDT_AUDIT_GENERATED_(13F)
  6
Continuous
 62
     7
100
AcDbCircle
 10
429.2461850795
 20
235.8659670967
 30
0.0
 40
1.000000000000001
100
AcDbArc
 50
0.0
 51
90.0
  0
ARC
  5
2BB
330
20A
100
AcDbEntity
  8
$DDT_AUDIT_GENERATED_(13F)
  6
Continuous
 62
     7
100
AcDbCircle
 10
429.2461850795
 20
172.8659670967
 30
0.0
 40
1.000000000000001
100
AcDbArc
 50
270.0
 51
0.0
  0
LINE
  5
2BC
330
20A
100
AcDbEntity
  8
$DDT_AUDIT_GENERATED_(13F)
  6
Continuous
 62
     7
100
AcDbLine
 10
423.9961850795
 20
178.6159670967
 30
0.0
 11
423.9961850795
 21
230.1159670967
 31
0.0
  0
ARC
  5
2BD
330
20A
100
AcDbEntity
  8
$DDT_AUDIT_GENERATED_(13F)
  6
Continuous
 62
     7
100
AcDbCircle
 10
423.4961850795
 20
230.1159670967
 30
0.0
 40
0.5000000000000004
100
AcDbArc
 50
0.0
 51
90.0
  0
ARC
  5
2BE
330
20A
100
AcDbEntity
  8
$DDT_AUDIT_GENERATED_(13F)
  6
Continuous
 62
     7
100
AcDbCircle
 10
423.4961850795
 20
178.6159670967
 30
0.0
 40
0.5000000000000004
100
AcDbArc
 50
270.0
 51
0.0
  0
LINE
  5
2BF
330
20A
100
AcDbEntity
  8
$DDT_AUDIT_GENERATED_(13F)
  6
Continuous
 62
     7
100
AcDbLine
 10
423.4961850795
 20
230.6159670967
 30
0.0
 11
371.9961850795
 21
230.6159670967
 31
0.0
  0
LINE
  5
2C0
330
20A
100
AcDbEntity
  8
$DDT_AUDIT_GENERATED_(13F)
  6
Continuous
 62
     7
100
AcDbLine
 10
371.9961850795
 20
178.1159670967
 30
0.0
 11
375.8108580537
 21
178.1159670967
 31
0.0
  0
LINE
  5
2C1
330
20A
100
AcDbEntity
  8
$DDT_AUDIT_GENERATED_(13F)
  6
Continuous
 62
     7
100
AcDbLine
 10
419.6757466675
 20
178.1159670967
 30
0.0
 11
423.4961850795
 21
178.1159670967
 31
0.0
  0
ARC
  5
2C2
330
20A
100
AcDbEntity
  8
$DDT_AUDIT_GENERATED_(13F)
  6
Continuous
 62
     7
100
AcDbCircle
 10
371.9961850795
 20
230.1159670967
 30
0.0
 40
0.5000000000000004
100
AcDbArc
 50
90.0
 51
180.0
  0
ARC
  5
2C3
330
20A
100
AcDbEntity
  8
$DDT_AUDIT_GENERATED_(13F)
  6
Continuous
 62
     7
100
AcDbCircle
 10
371.9961850795
 20
178.6159670967
 30
0.0
 40
0.5000000000000004
100
AcDbArc
 50
180.0
 51
270.0
  0
LINE
  5
2C4
330
20A
100
AcDbEntity
  8
$DDT_AUDIT_GENERATED_(13F)
  6
Continuous
 62
     7
100
AcDbLine
 10
371.4961850795
 20
230.1159670967
 30
0.0
 11
371.4961850795
 21
178.6159670967
 31
0.0
  0
ENDBLK
  5
2C6
330
20A
100
AcDbEntity
  8
0
100
AcDbBlockEnd
  0
ENDSEC
  0
SECTION
  2
ENTITIES
  0
INSERT
  5
5F
330
1F
100
AcDbEntity
  8
Default
100
AcDbBlockReference
  2
SEANNOT_GROUP
 10
0.0
 20
0.0
 30
0.0
  0
INSERT
  5
6A
330
1F
100
AcDbEntity
  8
Default
100
AcDbBlockReference
  2
SEANNOT_GROUP1
 10
0.0
 20
0.0
 30
0.0
  0
INSERT
  5
74
330
1F
100
AcDbEntity
  8
Default
100
AcDbBlockReference
  2
SEANNOT_GROUP2
 10
0.0
 20
0.0
 30
0.0
  0
INSERT
  5
7A
330
1F
100
AcDbEntity
  8
Default
100
AcDbBlockReference
  2
SEANNOT_GROUP3
 10
0.0
 20
0.0
 30
0.0
  0
INSERT
  5
80
330
1F
100
AcDbEntity
  8
Default
100
AcDbBlockReference
  2
SEANNOT_GROUP4
 10
0.0
 20
0.0
 30
0.0
  0
INSERT
  5
86
330
1F
100
AcDbEntity
  8
Default
100
AcDbBlockReference
  2
SEANNOT_GROUP5
 10
0.0
 20
0.0
 30
0.0
  0
LINE
  5
8B
330
1F
100
AcDbEntity
  8
Default
  6
Continuous
 62
     7
100
AcDbLine
 10
52.7461850795
 20
205.4465341271
 30
0.0
 11
52.7461850795
 21
203.7195657043
 31
0.0
  0
LINE
  5
8C
330
1F
100
AcDbEntity
  8
Default
  6
Continuous
 62
     7
100
AcDbLine
 10
51.8090452769
 20
204.3659670967
 30
0.0
 11
53.5344173423
 21
204.3659670967
 31
0.0
  0
INSERT
  5
8E
330
1F
100
AcDbEntity
  8
Default
100
AcDbBlockReference
  2
SEANNOT_GROUP6
 10
0.0
 20
0.0
 30
0.0
  0
INSERT
  5
94
330
1F
100
AcDbEntity
  8
Default
100
AcDbBlockReference
  2
SE
 10
0.0
 20
0.0
 30
0.0
  0
INSERT
  5
14B
330
1F
100
AcDbEntity
  8
Default
100
AcDbBlockReference
  2
SE1
 10
0.0
 20
0.0
 30
0.0
  0
INSERT
  5
20B
330
1F
100
AcDbEntity
  8
Default
100
AcDbBlockReference
  2
SE2
 10
0.0
 20
0.0
 30
0.0
  0
TEXT
  5
2C8
330
1F
100
AcDbEntity
  8
Default
  6
Continuous
 62
     7
100
AcDbText
 10
5.9362635081
 20
53.4225120485
 30
0.0
 40
10.0
  1
Grohe AG^J
  7
SEACAD_seiso_ttf
 11
5.9362635081
 21
63.4225120485
 31
0.0
100
AcDbText
 73
     3
  0
TEXT
  5
2C9
330
1F
100
AcDbEntity
  8
Default
  6
Continuous
 62
     7
100
AcDbText
 10
5.9362635081
 20
37.0588756849
 30
0.0
 40
10.0
  1
 
  7
SEACAD_seiso_ttf
 11
5.9362635081
 21
47.0588756849
 31
0.0
100
AcDbText
 73
     3
  0
TEXT
  5
2CA
330
1F
100
AcDbEntity
  8
Default
  6
Continuous
 62
     7
100
AcDbText
 10
5.9362635081
 20
20.6952393213
 30
0.0
 40
10.0
  1
ecn:
  7
SEACAD_seiso_ttf
 11
5.9362635081
 21
30.6952393213
 31
0.0
100
AcDbText
 73
     3
  0
TEXT
  5
2CB
330
1F
100
AcDbEntity
  8
Default
  6
Continuous
 62
     7
100
AcDbText
 10
5.9362635081
 20
4.3316029576
 30
0.0
 40
10.0
  1
unit: mm
  7
SEACAD_seiso_ttf
 11
5.9362635081
 21
14.3316029576
 31
0.0
100
AcDbText
 73
     3
  0
LINE
  5
2CC
330
1F
100
AcDbEntity
  8
Default
  6
Continuous
 62
     7
100
AcDbLine
 10
0.0
 20
0.0
 30
0.0
 11
100.0
 21
0.0
 31
0.0
  0
LINE
  5
2CD
330
1F
100
AcDbEntity
  8
Default
  6
Continuous
 62
     7
100
AcDbLine
 10
0.0
 20
0.0
 30
0.0
 11
0.0
 21
100.0
 31
0.0
  0
TEXT
  5
2CE
330
1F
100
AcDbEntity
  8
Default
  6
Continuous
 62
     7
100
AcDbText
 10
24.3923665681
 20
-18.2375342018
 30
0.0
 40
10.0
  1
100 mm
  7
SEACAD_seiso_ttf
 11
24.3923665681
 21
-8.2375342018
 31
0.0
100
AcDbText
 73
     3
  0
TEXT
  5
2CF
330
1F
100
AcDbEntity
  8
Default
  6
Continuous
 62
     7
100
AcDbText
 10
-7.6150308803
 20
24.6231930421
 30
0.0
 40
10.0
  1
100 mm
 50
90.0
  7
SEACAD_seiso_ttf
 11
-17.6150308803
 21
24.6231930421
 31
0.0
100
AcDbText
 73
     3
  0
TEXT
  5
2D0
330
1F
100
AcDbEntity
  8
Default
  6
Continuous
 62
     7
100
AcDbText
 10
28.4878128572
 20
20.0907663715
 30
0.0
 40
10.0
  1
229461
  7
SEACAD_seiso_ttf
 11
28.4878128572
 21
30.0907663715
 31
0.0
100
AcDbText
 73
     3
  0
TEXT
  5
2D1
330
1F
100
AcDbEntity
  8
Default
  6
Continuous
 62
     7
100
AcDbText
 10
5.9012241913
 20
36.7242780188
 30
0.0
 40
10.0
  1
19966000
  7
SEACAD_seiso_ttf
 11
5.9012241913
 21
46.7242780188
 31
0.0
100
AcDbText
 73
     3
  0
ENDSEC
  0
SECTION
  2
OBJECTS
  0
DICTIONARY
  5
C
330
0
100
AcDbDictionary
281
     1
  3
ACAD_GROUP
350
D
  3
ACAD_LAYOUT
350
1A
  3
ACAD_MLEADERSTYLE
350
2D5
  3
ACAD_MLINESTYLE
350
17
  3
ACAD_PLOTSETTINGS
350
19
  3
ACAD_PLOTSTYLENAME
350
E
  3
ACAD_SCALELIST
350
3B
  3
ACAD_TABLESTYLE
350
2D4
  3
ACAD_VISUALSTYLE
350
2A
  3
AcDbVariableDictionary
350
2D2
  0
DICTIONARY
  5
D
102
{ACAD_REACTORS
330
C
102
}
330
C
100
AcDbDictionary
281
     1
  0
DICTIONARY
  5
1A
102
{ACAD_REACTORS
330
C
102
}
330
C
100
AcDbDictionary
281
     1
  3
Layout1
350
1E
  3
Model
350
22
  0
DICTIONARY
  5
2D5
102
{ACAD_REACTORS
330
C
102
}
330
C
100
AcDbDictionary
281
     1
  0
DICTIONARY
  5
17
102
{ACAD_REACTORS
330
C
102
}
330
C
100
AcDbDictionary
281
     1
  3
Standard
350
18
  0
DICTIONARY
  5
19
102
{ACAD_REACTORS
330
C
102
}
330
C
100
AcDbDictionary
281
     1
  0
ACDBDICTIONARYWDFLT
  5
E
102
{ACAD_REACTORS
330
C
102
}
330
C
100
AcDbDictionary
281
     1
  3
Normal
350
F
100
AcDbDictionaryWithDefault
340
F
  0
DICTIONARY
  5
3B
102
{ACAD_REACTORS
330
C
102
}
330
C
100
AcDbDictionary
281
     1
  3
A0
350
3C
  3
A1
350
3D
  3
A2
350
3E
  3
A3
350
3F
  3
A4
350
40
  3
A5
350
41
  3
A6
350
42
  3
A7
350
43
  3
A8
350
44
  3
A9
350
45
  3
B0
350
46
  3
B1
350
47
  3
B2
350
48
  3
B3
350
49
  3
B4
350
4A
  3
B5
350
4B
  3
B6
350
4C
  3
B7
350
4D
  3
B8
350
4E
  3
B9
350
4F
  3
C0
350
50
  3
C1
350
51
  3
C2
350
52
  3
C3
350
53
  3
C4
350
54
  3
C5
350
55
  3
C6
350
56
  3
C7
350
57
  3
C8
350
58
  3
C9
350
59
  3
D0
350
5A
  3
D1
350
5B
  3
D2
350
5C
  0
DICTIONARY
  5
2D4
102
{ACAD_REACTORS
330
C
102
}
330
C
100
AcDbDictionary
281
     1
  0
DICTIONARY
  5
2A
102
{ACAD_REACTORS
330
C
102
}
330
C
100
AcDbDictionary
281
     1
  3
2dWireframe
350
2F
  3
3D Hidden
350
31
  3
3dWireframe
350
30
  3
Basic
350
32
  3
Brighten
350
36
  3
ColorChange
350
3A
  3
Conceptual
350
34
  3
Dim
350
35
  3
Facepattern
350
39
  3
Flat
350
2B
  3
FlatWithEdges
350
2C
  3
Gouraud
350
2D
  3
GouraudWithEdges
350
2E
  3
Linepattern
350
38
  3
Realistic
350
33
  3
Thicken
350
37
  0
DICTIONARY
  5
2D2
102
{ACAD_REACTORS
330
C
102
}
330
C
100
AcDbDictionary
281
     1
  3
CANNOSCALE
350
2D3
  3
PSOLHEIGHT
350
2D7
  3
PSOLWIDTH
350
2D6
  0
LAYOUT
  5
1E
102
{ACAD_REACTORS
330
1A
102
}
330
1A
100
AcDbPlotSettings
  1

  2
none_device
  4

  6

 40
0.0
 41
0.0
 42
0.0
 43
0.0
 44
0.0
 45
0.0
 46
0.0
 47
0.0
 48
0.0
 49
0.0
140
0.0
141
0.0
142
1.0
143
1.0
 70
   688
 72
     0
 73
     0
 74
     5
  7

 75
    16
147
1.0
148
0.0
149
0.0
100
AcDbLayout
  1
Layout1
 70
     1
 71
     1
 10
0.0
 20
0.0
 11
3000.0
 21
4500.0
 12
0.0
 22
0.0
 32
0.0
 14
0.0
 24
0.0
 34
0.0
 15
3000.0
 25
4500.0
 35
0.0
146
0.0
 13
0.0
 23
0.0
 33
0.0
 16
1.0
 26
0.0
 36
0.0
 17
0.0
 27
1.0
 37
0.0
 76
     0
330
1B
  0
LAYOUT
  5
22
102
{ACAD_REACTORS
330
1A
102
}
330
1A
100
AcDbPlotSettings
  1

  2
none_device
  4

  6

 40
0.0
 41
0.0
 42
0.0
 43
0.0
 44
0.0
 45
0.0
 46
0.0
 47
0.0
 48
0.0
 49
0.0
140
0.0
141
0.0
142
1.0
143
1.0
 70
  1712
 72
     0
 73
     0
 74
     0
  7

 75
     0
147
1.0
148
0.0
149
0.0
100
AcDbLayout
  1
Model
 70
     1
 71
     0
 10
0.0
 20
0.0
 11
3000.0
 21
4500.0
 12
0.0
 22
0.0
 32
0.0
 14
0.0
 24
0.0
 34
0.0
 15
3000.0
 25
4500.0
 35
0.0
146
0.0
 13
0.0
 23
0.0
 33
0.0
 16
1.0
 26
0.0
 36
0.0
 17
0.0
 27
1.0
 37
0.0
 76
     0
330
1F
331
29
  0
MLINESTYLE
  5
18
102
{ACAD_REACTORS
330
17
102
}
330
17
100
AcDbMlineStyle
  2
Standard
 70
     0
  3

 62
   256
 51
90.0
 52
90.0
 71
     2
 49
0.5
 62
   256
  6
BYLAYER
 49
-0.5
 62
   256
  6
BYLAYER
  0
ACDBPLACEHOLDER
  5
F
102
{ACAD_REACTORS
330
E
102
}
330
E
  0
SCALE
  5
3C
102
{ACAD_REACTORS
330
3B
102
}
330
3B
100
AcDbScale
 70
     0
300
1:1
140
1.0
141
1.0
290
     1
  0
SCALE
  5
3D
102
{ACAD_REACTORS
330
3B
102
}
330
3B
100
AcDbScale
 70
     0
300
1:2
140
1.0
141
2.0
290
     0
  0
SCALE
  5
3E
102
{ACAD_REACTORS
330
3B
102
}
330
3B
100
AcDbScale
 70
     0
300
1:4
140
1.0
141
4.0
290
     0
  0
SCALE
  5
3F
102
{ACAD_REACTORS
330
3B
102
}
330
3B
100
AcDbScale
 70
     0
300
1:5
140
1.0
141
5.0
290
     0
  0
SCALE
  5
40
102
{ACAD_REACTORS
330
3B
102
}
330
3B
100
AcDbScale
 70
     0
300
1:8
140
1.0
141
8.0
290
     0
  0
SCALE
  5
41
102
{ACAD_REACTORS
330
3B
102
}
330
3B
100
AcDbScale
 70
     0
300
1:10
140
1.0
141
10.0
290
     0
  0
SCALE
  5
42
102
{ACAD_REACTORS
330
3B
102
}
330
3B
100
AcDbScale
 70
     0
300
1:16
140
1.0
141
16.0
290
     0
  0
SCALE
  5
43
102
{ACAD_REACTORS
330
3B
102
}
330
3B
100
AcDbScale
 70
     0
300
1:20
140
1.0
141
20.0
290
     0
  0
SCALE
  5
44
102
{ACAD_REACTORS
330
3B
102
}
330
3B
100
AcDbScale
 70
     0
300
1:30
140
1.0
141
30.0
290
     0
  0
SCALE
  5
45
102
{ACAD_REACTORS
330
3B
102
}
330
3B
100
AcDbScale
 70
     0
300
1:40
140
1.0
141
40.0
290
     0
  0
SCALE
  5
46
102
{ACAD_REACTORS
330
3B
102
}
330
3B
100
AcDbScale
 70
     0
300
1:50
140
1.0
141
50.0
290
     0
  0
SCALE
  5
47
102
{ACAD_REACTORS
330
3B
102
}
330
3B
100
AcDbScale
 70
     0
300
1:100
140
1.0
141
100.0
290
     0
  0
SCALE
  5
48
102
{ACAD_REACTORS
330
3B
102
}
330
3B
100
AcDbScale
 70
     0
300
2:1
140
2.0
141
1.0
290
     0
  0
SCALE
  5
49
102
{ACAD_REACTORS
330
3B
102
}
330
3B
100
AcDbScale
 70
     0
300
4:1
140
4.0
141
1.0
290
     0
  0
SCALE
  5
4A
102
{ACAD_REACTORS
330
3B
102
}
330
3B
100
AcDbScale
 70
     0
300
8:1
140
8.0
141
1.0
290
     0
  0
SCALE
  5
4B
102
{ACAD_REACTORS
330
3B
102
}
330
3B
100
AcDbScale
 70
     0
300
10:1
140
10.0
141
1.0
290
     0
  0
SCALE
  5
4C
102
{ACAD_REACTORS
330
3B
102
}
330
3B
100
AcDbScale
 70
     0
300
100:1
140
100.0
141
1.0
290
     0
  0
SCALE
  5
4D
102
{ACAD_REACTORS
330
3B
102
}
330
3B
100
AcDbScale
 70
     0
300
1/128" = 1'-0"
140
0.0078125
141
12.0
290
     0
  0
SCALE
  5
4E
102
{ACAD_REACTORS
330
3B
102
}
330
3B
100
AcDbScale
 70
     0
300
1/64" = 1'-0"
140
0.015625
141
12.0
290
     0
  0
SCALE
  5
4F
102
{ACAD_REACTORS
330
3B
102
}
330
3B
100
AcDbScale
 70
     0
300
1/32" = 1'-0"
140
0.03125
141
12.0
290
     0
  0
SCALE
  5
50
102
{ACAD_REACTORS
330
3B
102
}
330
3B
100
AcDbScale
 70
     0
300
1/16" = 1'-0"
140
0.0625
141
12.0
290
     0
  0
SCALE
  5
51
102
{ACAD_REACTORS
330
3B
102
}
330
3B
100
AcDbScale
 70
     0
300
3/32" = 1'-0"
140
0.09375
141
12.0
290
     0
  0
SCALE
  5
52
102
{ACAD_REACTORS
330
3B
102
}
330
3B
100
AcDbScale
 70
     0
300
1/8" = 1'-0"
140
0.125
141
12.0
290
     0
  0
SCALE
  5
53
102
{ACAD_REACTORS
330
3B
102
}
330
3B
100
AcDbScale
 70
     0
300
3/16" = 1'-0"
140
0.1875
141
12.0
290
     0
  0
SCALE
  5
54
102
{ACAD_REACTORS
330
3B
102
}
330
3B
100
AcDbScale
 70
     0
300
1/4" = 1'-0"
140
0.25
141
12.0
290
     0
  0
SCALE
  5
55
102
{ACAD_REACTORS
330
3B
102
}
330
3B
100
AcDbScale
 70
     0
300
3/8" = 1'-0"
140
0.375
141
12.0
290
     0
  0
SCALE
  5
56
102
{ACAD_REACTORS
330
3B
102
}
330
3B
100
AcDbScale
 70
     0
300
1/2" = 1'-0"
140
0.5
141
12.0
290
     0
  0
SCALE
  5
57
102
{ACAD_REACTORS
330
3B
102
}
330
3B
100
AcDbScale
 70
     0
300
3/4" = 1'-0"
140
0.75
141
12.0
290
     0
  0
SCALE
  5
58
102
{ACAD_REACTORS
330
3B
102
}
330
3B
100
AcDbScale
 70
     0
300
1" = 1'-0"
140
1.0
141
12.0
290
     0
  0
SCALE
  5
59
102
{ACAD_REACTORS
330
3B
102
}
330
3B
100
AcDbScale
 70
     0
300
1-1/2" = 1'-0"
140
1.5
141
12.0
290
     0
  0
SCALE
  5
5A
102
{ACAD_REACTORS
330
3B
102
}
330
3B
100
AcDbScale
 70
     0
300
3" = 1'-0"
140
3.0
141
12.0
290
     0
  0
SCALE
  5
5B
102
{ACAD_REACTORS
330
3B
102
}
330
3B
100
AcDbScale
 70
     0
300
6" = 1'-0"
140
6.0
141
12.0
290
     0
  0
SCALE
  5
5C
102
{ACAD_REACTORS
330
3B
102
}
330
3B
100
AcDbScale
 70
     0
300
1'-0" = 1'-0"
140
12.0
141
12.0
290
     0
  0
VISUALSTYLE
  5
2F
102
{ACAD_REACTORS
330
2A
102
}
330
2A
100
AcDbVisualStyle
  2
2dWireframe
 70
     4
 71
     0
 72
     2
 73
     0
 90
        0
 40
-0.6
 41
-30.0
 62
     5
 63
     7
 74
     1
 91
        4
 64
     7
 65
   257
 75
     1
175
     1
 42
1.0
 92
        0
 66
   257
 43
1.0
 76
     1
 77
     6
 78
     2
 67
     7
 79
     5
170
     0
171
     0
290
     0
174
     0
 93
        1
 44
0.0
173
     0
291
     0
 45
0.0
1001
ACAD
1000
AcDbSavedByObjectVersion
1070
     0
  0
VISUALSTYLE
  5
31
102
{ACAD_REACTORS
330
2A
102
}
330
2A
100
AcDbVisualStyle
  2
3D Hidden
 70
     6
 71
     1
 72
     2
 73
     2
 90
        0
 40
-0.6
 41
-30.0
 62
     5
 63
     7
 74
     2
 91
        2
 64
     7
 65
   257
 75
     2
175
     1
 42
40.0
 92
        0
 66
   257
 43
1.0
 76
     1
 77
     6
 78
     2
 67
     7
 79
     3
170
     0
171
     0
290
     0
174
     0
 93
        1
 44
0.0
173
     0
291
     0
 45
0.0
1001
ACAD
1000
AcDbSavedByObjectVersion
1070
     0
  0
VISUALSTYLE
  5
30
102
{ACAD_REACTORS
330
2A
102
}
330
2A
100
AcDbVisualStyle
  2
3dWireframe
 70
     5
 71
     0
 72
     2
 73
     0
 90
        0
 40
-0.6
 41
-30.0
 62
     5
 63
     7
 74
     1
 91
        4
 64
     7
 65
   257
 75
     1
175
     1
 42
1.0
 92
        0
 66
   257
 43
1.0
 76
     1
 77
     6
 78
     2
 67
     7
 79
     5
170
     0
171
     0
290
     0
174
     0
 93
        1
 44
0.0
173
     0
291
     0
 45
0.0
1001
ACAD
1000
AcDbSavedByObjectVersion
1070
     0
  0
VISUALSTYLE
  5
32
102
{ACAD_REACTORS
330
2A
102
}
330
2A
100
AcDbVisualStyle
  2
Basic
 70
     7
 71
     1
 72
     0
 73
     1
 90
        0
 40
-0.6
 41
-30.0
 62
     5
 63
     7
 74
     0
 91
        4
 64
     7
 65
   257
 75
     1
175
     1
 42
1.0
 92
        8
 66
     7
 43
1.0
 76
     1
 77
     6
 78
     2
 67
     7
 79
     5
170
     0
171
     0
290
     0
174
     0
 93
        1
 44
0.0
173
     0
291
     1
 45
0.0
1001
ACAD
1000
AcDbSavedByObjectVersion
1070
     0
  0
VISUALSTYLE
  5
36
102
{ACAD_REACTORS
330
2A
102
}
330
2A
100
AcDbVisualStyle
  2
Brighten
 70
    12
 71
     2
 72
     2
 73
     0
 90
        0
 40
-0.6
 41
-30.0
 62
     5
 63
     7
 74
     1
 91
        4
 64
     7
 65
   257
 75
     1
175
     1
 42
1.0
 92
        8
 66
     7
 43
1.0
 76
     1
 77
     6
 78
     2
 67
     7
 79
     5
170
     0
171
     0
290
     0
174
     0
 93
        1
 44
50.0
173
     0
291
     1
 45
0.0
1001
ACAD
1000
AcDbSavedByObjectVersion
1070
     0
  0
VISUALSTYLE
  5
3A
102
{ACAD_REACTORS
330
2A
102
}
330
2A
100
AcDbVisualStyle
  2
ColorChange
 70
    16
 71
     2
 72
     2
 73
     3
 90
        0
 40
-0.6
 41
-30.0
 62
     5
 63
     8
 74
     1
 91
        4
 64
     7
 65
   257
 75
     1
175
     1
 42
1.0
 92
        8
 66
     8
 43
1.0
 76
     1
 77
     6
 78
     2
 67
     7
 79
     5
170
     0
171
     0
290
     0
174
     0
 93
        1
 44
0.0
173
     0
291
     1
 45
0.0
1001
ACAD
1000
AcDbSavedByObjectVersion
1070
     0
  0
VISUALSTYLE
  5
34
102
{ACAD_REACTORS
330
2A
102
}
330
2A
100
AcDbVisualStyle
  2
Conceptual
 70
     9
 71
     3
 72
     2
 73
     0
 90
        0
 40
-0.6
 41
-30.0
 62
     5
 63
     7
 74
     2
 91
        2
 64
     7
 65
   257
 75
     1
175
     1
 42
40.0
 92
        8
 66
     7
 43
1.0
 76
     1
 77
     6
 78
     2
 67
     7
 79
     3
170
     0
171
     0
290
     0
174
     0
 93
        1
 44
0.0
173
     0
291
     0
 45
0.0
1001
ACAD
1000
AcDbSavedByObjectVersion
1070
     0
  0
VISUALSTYLE
  5
35
102
{ACAD_REACTORS
330
2A
102
}
330
2A
100
AcDbVisualStyle
  2
Dim
 70
    11
 71
     2
 72
     2
 73
     0
 90
        0
 40
-0.6
 41
-30.0
 62
     5
 63
     7
 74
     1
 91
        4
 64
     7
 65
   257
 75
     1
175
     1
 42
1.0
 92
        8
 66
     7
 43
1.0
 76
     1
 77
     6
 78
     2
 67
     7
 79
     5
170
     0
171
     0
290
     0
174
     0
 93
        1
 44
-50.0
173
     0
291
     1
 45
0.0
1001
ACAD
1000
AcDbSavedByObjectVersion
1070
     0
  0
VISUALSTYLE
  5
39
102
{ACAD_REACTORS
330
2A
102
}
330
2A
100
AcDbVisualStyle
  2
Facepattern
 70
    15
 71
     2
 72
     2
 73
     0
 90
        0
 40
-0.6
 41
-30.0
 62
     5
 63
     7
 74
     1
 91
        4
 64
     7
 65
   257
 75
     1
175
     1
 42
1.0
 92
        8
 66
     7
 43
1.0
 76
     1
 77
     6
 78
     2
 67
     7
 79
     5
170
     0
171
     0
290
     0
174
     0
 93
        1
 44
0.0
173
     0
291
     1
 45
0.0
1001
ACAD
1000
AcDbSavedByObjectVersion
1070
     0
  0
VISUALSTYLE
  5
2B
102
{ACAD_REACTORS
330
2A
102
}
330
2A
100
AcDbVisualStyle
  2
Flat
 70
     0
 71
     2
 72
     1
 73
     1
 90
        2
 40
-0.6
 41
30.0
 62
     5
 63
     7
 74
     0
 91
        4
 64
     7
 65
   257
 75
     1
175
     1
 42
1.0
 92
        8
 66
     7
 43
1.0
 76
     1
 77
     6
 78
     2
 67
     7
 79
     5
170
     0
171
     0
290
     0
174
     0
 93
       13
 44
0.0
173
     0
291
     1
 45
0.0
1001
ACAD
1000
AcDbSavedByObjectVersion
1070
     0
  0
VISUALSTYLE
  5
2C
102
{ACAD_REACTORS
330
2A
102
}
330
2A
100
AcDbVisualStyle
  2
FlatWithEdges
 70
     1
 71
     2
 72
     1
 73
     1
 90
        2
 40
-0.6
 41
30.0
 62
     5
 63
     7
 74
     1
 91
        4
 64
     7
 65
   257
 75
     1
175
     1
 42
1.0
 92
        0
 66
   257
 43
1.0
 76
     1
 77
     6
 78
     2
 67
     7
 79
     5
170
     0
171
     0
290
     0
174
     0
 93
       13
 44
0.0
173
     0
291
     1
 45
0.0
1001
ACAD
1000
AcDbSavedByObjectVersion
1070
     0
  0
VISUALSTYLE
  5
2D
102
{ACAD_REACTORS
330
2A
102
}
330
2A
100
AcDbVisualStyle
  2
Gouraud
 70
     2
 71
     2
 72
     2
 73
     1
 90
        2
 40
-0.6
 41
30.0
 62
     5
 63
     7
 74
     0
 91
        4
 64
     7
 65
   257
 75
     1
175
     1
 42
1.0
 92
        0
 66
     7
 43
1.0
 76
     1
 77
     6
 78
     2
 67
     7
 79
     5
170
     0
171
     0
290
     0
174
     0
 93
       13
 44
0.0
173
     0
291
     1
 45
0.0
1001
ACAD
1000
AcDbSavedByObjectVersion
1070
     0
  0
VISUALSTYLE
  5
2E
102
{ACAD_REACTORS
330
2A
102
}
330
2A
100
AcDbVisualStyle
  2
GouraudWithEdges
 70
     3
 71
     2
 72
     2
 73
     1
 90
        2
 40
-0.6
 41
30.0
 62
     5
 63
     7
 74
     1
 91
        4
 64
     7
 65
   257
 75
     1
175
     1
 42
1.0
 92
        0
 66
   257
 43
1.0
 76
     1
 77
     6
 78
     2
 67
     7
 79
     5
170
     0
171
     0
290
     0
174
     0
 93
       13
 44
0.0
173
     0
291
     1
 45
0.0
1001
ACAD
1000
AcDbSavedByObjectVersion
1070
     0
  0
VISUALSTYLE
  5
38
102
{ACAD_REACTORS
330
2A
102
}
330
2A
100
AcDbVisualStyle
  2
Linepattern
 70
    14
 71
     2
 72
     2
 73
     0
 90
        0
 40
-0.6
 41
-30.0
 62
     5
 63
     7
 74
     1
 91
        4
 64
     7
 65
   257
 75
     7
175
     7
 42
1.0
 92
        8
 66
     7
 43
1.0
 76
     1
 77
     6
 78
     2
 67
     7
 79
     5
170
     0
171
     0
290
     0
174
     0
 93
        1
 44
0.0
173
     0
291
     1
 45
0.0
1001
ACAD
1000
AcDbSavedByObjectVersion
1070
     0
  0
VISUALSTYLE
  5
33
102
{ACAD_REACTORS
330
2A
102
}
330
2A
100
AcDbVisualStyle
  2
Realistic
 70
     8
 71
     2
 72
     2
 73
     0
 90
        0
 40
-0.6
 41
-30.0
 62
     5
 63
     7
 74
     1
 91
        0
 64
     7
 65
   257
 75
     1
175
     1
 42
1.0
 92
        8
 66
     8
 43
1.0
 76
     1
 77
     6
 78
     2
 67
     7
 79
     5
170
     0
171
     0
290
     0
174
     0
 93
       13
 44
0.0
173
     0
291
     0
 45
0.0
1001
ACAD
1000
AcDbSavedByObjectVersion
1070
     0
  0
VISUALSTYLE
  5
37
102
{ACAD_REACTORS
330
2A
102
}
330
2A
100
AcDbVisualStyle
  2
Thicken
 70
    13
 71
     2
 72
     2
 73
     0
 90
        0
 40
-0.6
 41
-30.0
 62
     5
 63
     7
 74
     1
 91
        4
 64
     7
 65
   257
 75
     1
175
     1
 42
1.0
 92
       12
 66
     7
 43
1.0
 76
     1
 77
     6
 78
     2
 67
     7
 79
     5
170
     0
171
     0
290
     0
174
     0
 93
        1
 44
0.0
173
     0
291
     1
 45
0.0
1001
ACAD
1000
AcDbSavedByObjectVersion
1070
     0
  0
DICTIONARYVAR
  5
2D3
102
{ACAD_REACTORS
330
2D2
102
}
330
2D2
100
DictionaryVariables
280
     0
  1
1:1
  0
DICTIONARYVAR
  5
2D7
102
{ACAD_REACTORS
330
2D2
102
}
330
2D2
100
DictionaryVariables
280
     0
  1
80.000000
  0
DICTIONARYVAR
  5
2D6
102
{ACAD_REACTORS
330
2D2
102
}
330
2D2
100
DictionaryVariables
280
     0
  1
5.000000
  0
ENDSEC
  0
EOF
