  0
SECTION
  2
HEADER
  9
$ACADVER
  1
AC1015
  9
$ACADMAINTVER
 70
     6
  9
$DWGCODEPAGE
  3
ANSI_1252
  9
$INSBASE
 10
0.0
 20
0.0
 30
0.0
  9
$EXTMIN
 10
0.0
 20
0.0
 30
0.0
  9
$EXTMAX
 10
3000.0
 20
4500.0
 30
0.0
  9
$LIMMIN
 10
0.0
 20
0.0
  9
$LIMMAX
 10
3000.0
 20
4500.0
  9
$ORTHOMODE
 70
     0
  9
$REGENMODE
 70
     1
  9
$FILLMODE
 70
     1
  9
$QTEXTMODE
 70
     0
  9
$MIRRTEXT
 70
     1
  9
$LTSCALE
 40
1.0
  9
$ATTMODE
 70
     1
  9
$TEXTSIZE
 40
2.5
  9
$TRACEWID
 40
1.0
  9
$TEXTSTYLE
  7
Standard
  9
$CLAYER
  8
0
  9
$CELTYPE
  6
ByLayer
  9
$CECOLOR
 62
   256
  9
$CELTSCALE
 40
1.0
  9
$DISPSILH
 70
     0
  9
$DIMSCALE
 40
1.0
  9
$DIMASZ
 40
2.5
  9
$DIMEXO
 40
0.625
  9
$DIMDLI
 40
3.75
  9
$DIMRND
 40
0.0
  9
$DIMDLE
 40
0.0
  9
$DIMEXE
 40
1.25
  9
$DIMTP
 40
0.0
  9
$DIMTM
 40
0.0
  9
$DIMTXT
 40
2.5
  9
$DIMCEN
 40
2.5
  9
$DIMTSZ
 40
0.0
  9
$DIMTOL
 70
     0
  9
$DIMLIM
 70
     0
  9
$DIMTIH
 70
     0
  9
$DIMTOH
 70
     0
  9
$DIMSE1
 70
     0
  9
$DIMSE2
 70
     0
  9
$DIMTAD
 70
     1
  9
$DIMZIN
 70
     8
  9
$DIMBLK
  1

  9
$DIMASO
 70
     1
  9
$DIMSHO
 70
     1
  9
$DIMPOST
  1

  9
$DIMAPOST
  1

  9
$DIMALT
 70
     0
  9
$DIMALTD
 70
     3
  9
$DIMALTF
 40
0.0393700787
  9
$DIMLFAC
 40
1.0
  9
$DIMTOFL
 70
     1
  9
$DIMTVP
 40
0.0
  9
$DIMTIX
 70
     0
  9
$DIMSOXD
 70
     0
  9
$DIMSAH
 70
     0
  9
$DIMBLK1
  1

  9
$DIMBLK2
  1

  9
$DIMSTYLE
  2
ISO-25
  9
$DIMCLRD
 70
     0
  9
$DIMCLRE
 70
     0
  9
$DIMCLRT
 70
     0
  9
$DIMTFAC
 40
1.0
  9
$DIMGAP
 40
0.625
  9
$DIMJUST
 70
     0
  9
$DIMSD1
 70
     0
  9
$DIMSD2
 70
     0
  9
$DIMTOLJ
 70
     0
  9
$DIMTZIN
 70
     8
  9
$DIMALTZ
 70
     0
  9
$DIMALTTZ
 70
     0
  9
$DIMUPT
 70
     0
  9
$DIMDEC
 70
     2
  9
$DIMTDEC
 70
     2
  9
$DIMALTU
 70
     2
  9
$DIMALTTD
 70
     3
  9
$DIMTXSTY
  7
Standard
  9
$DIMAUNIT
 70
     0
  9
$DIMADEC
 70
     0
  9
$DIMALTRND
 40
0.0
  9
$DIMAZIN
 70
     0
  9
$DIMDSEP
 70
    44
  9
$DIMATFIT
 70
     3
  9
$DIMFRAC
 70
     0
  9
$DIMLDRBLK
  1

  9
$DIMLUNIT
 70
     2
  9
$DIMLWD
 70
    -2
  9
$DIMLWE
 70
    -2
  9
$DIMTMOVE
 70
     0
  9
$LUNITS
 70
     2
  9
$LUPREC
 70
     4
  9
$SKETCHINC
 40
1.0
  9
$FILLETRAD
 40
10.0
  9
$AUNITS
 70
     0
  9
$AUPREC
 70
     0
  9
$MENU
  1
.
  9
$ELEVATION
 40
0.0
  9
$PELEVATION
 40
0.0
  9
$THICKNESS
 40
0.0
  9
$LIMCHECK
 70
     0
  9
$CHAMFERA
 40
10.0
  9
$CHAMFERB
 40
10.0
  9
$CHAMFERC
 40
20.0
  9
$CHAMFERD
 40
0.0
  9
$SKPOLY
 70
     0
  9
$TDCREATE
 40
2456562.623695648
  9
$TDUCREATE
 40
2456562.540362315
  9
$TDUPDATE
 40
2456562.62369566
  9
$TDUUPDATE
 40
2456562.540362326
  9
$TDINDWG
 40
0.0000000116
  9
$TDUSRTIMER
 40
0.0000000116
  9
$USRTIMER
 70
     1
  9
$ANGBASE
 50
0.0
  9
$ANGDIR
 70
     0
  9
$PDMODE
 70
     0
  9
$PDSIZE
 40
0.0
  9
$PLINEWID
 40
0.0
  9
$SPLFRAME
 70
     0
  9
$SPLINETYPE
 70
     6
  9
$SPLINESEGS
 70
     8
  9
$HANDSEED
  5
2AF
  9
$SURFTAB1
 70
     6
  9
$SURFTAB2
 70
     6
  9
$SURFTYPE
 70
     6
  9
$SURFU
 70
     6
  9
$SURFV
 70
     6
  9
$UCSBASE
  2

  9
$UCSNAME
  2

  9
$UCSORG
 10
0.0
 20
0.0
 30
0.0
  9
$UCSXDIR
 10
1.0
 20
0.0
 30
0.0
  9
$UCSYDIR
 10
0.0
 20
1.0
 30
0.0
  9
$UCSORTHOREF
  2

  9
$UCSORTHOVIEW
 70
     0
  9
$UCSORGTOP
 10
0.0
 20
0.0
 30
0.0
  9
$UCSORGBOTTOM
 10
0.0
 20
0.0
 30
0.0
  9
$UCSORGLEFT
 10
0.0
 20
0.0
 30
0.0
  9
$UCSORGRIGHT
 10
0.0
 20
0.0
 30
0.0
  9
$UCSORGFRONT
 10
0.0
 20
0.0
 30
0.0
  9
$UCSORGBACK
 10
0.0
 20
0.0
 30
0.0
  9
$PUCSBASE
  2

  9
$PUCSNAME
  2

  9
$PUCSORG
 10
0.0
 20
0.0
 30
0.0
  9
$PUCSXDIR
 10
1.0
 20
0.0
 30
0.0
  9
$PUCSYDIR
 10
0.0
 20
1.0
 30
0.0
  9
$PUCSORTHOREF
  2

  9
$PUCSORTHOVIEW
 70
     0
  9
$PUCSORGTOP
 10
0.0
 20
0.0
 30
0.0
  9
$PUCSORGBOTTOM
 10
0.0
 20
0.0
 30
0.0
  9
$PUCSORGLEFT
 10
0.0
 20
0.0
 30
0.0
  9
$PUCSORGRIGHT
 10
0.0
 20
0.0
 30
0.0
  9
$PUCSORGFRONT
 10
0.0
 20
0.0
 30
0.0
  9
$PUCSORGBACK
 10
0.0
 20
0.0
 30
0.0
  9
$USERI1
 70
     0
  9
$USERI2
 70
     0
  9
$USERI3
 70
     0
  9
$USERI4
 70
     0
  9
$USERI5
 70
     0
  9
$USERR1
 40
0.0
  9
$USERR2
 40
0.0
  9
$USERR3
 40
0.0
  9
$USERR4
 40
0.0
  9
$USERR5
 40
0.0
  9
$WORLDVIEW
 70
     1
  9
$SHADEDGE
 70
     3
  9
$SHADEDIF
 70
    70
  9
$TILEMODE
 70
     1
  9
$MAXACTVP
 70
    64
  9
$PINSBASE
 10
0.0
 20
0.0
 30
0.0
  9
$PLIMCHECK
 70
     0
  9
$PEXTMIN
 10
0.0
 20
0.0
 30
0.0
  9
$PEXTMAX
 10
3000.0
 20
4500.0
 30
0.0
  9
$PLIMMIN
 10
0.0
 20
0.0
  9
$PLIMMAX
 10
3000.0
 20
4500.0
  9
$UNITMODE
 70
     0
  9
$VISRETAIN
 70
     1
  9
$PLINEGEN
 70
     0
  9
$PSLTSCALE
 70
     1
  9
$TREEDEPTH
 70
  3020
  9
$CMLSTYLE
  2
Standard
  9
$CMLJUST
 70
     0
  9
$CMLSCALE
 40
20.0
  9
$PROXYGRAPHICS
 70
     1
  9
$MEASUREMENT
 70
     1
  9
$CELWEIGHT
370
    -1
  9
$ENDCAPS
280
     0
  9
$JOINSTYLE
280
     0
  9
$LWDISPLAY
290
     0
  9
$INSUNITS
 70
     4
  9
$HYPERLINKBASE
  1

  9
$STYLESHEET
  1

  9
$XEDIT
290
     1
  9
$CEPSNTYPE
380
     0
  9
$PSTYLEMODE
290
     1
  9
$FINGERPRINTGUID
  2
{2C7308DF-3713-4C22-933A-DD0E9ACC4C7A}
  9
$VERSIONGUID
  2
{FAEB1C32-E019-11D5-929B-00C0DF256EC4}
  9
$EXTNAMES
290
     1
  9
$PSVPSCALE
 40
0.0
  9
$OLESTARTUP
290
     0
  0
ENDSEC
  0
SECTION
  2
CLASSES
  0
CLASS
  1
ACDBDICTIONARYWDFLT
  2
AcDbDictionaryWithDefault
  3
ObjectDBX Classes
 90
        0
280
     0
281
     0
  0
CLASS
  1
VISUALSTYLE
  2
AcDbVisualStyle
  3
ObjectDBX Classes
 90
     4095
280
     0
281
     0
  0
CLASS
  1
SCALE
  2
AcDbScale
  3
ObjectDBX Classes
 90
     1153
280
     0
281
     0
  0
CLASS
  1
DICTIONARYVAR
  2
AcDbDictionaryVar
  3
ObjectDBX Classes
 90
        0
280
     0
281
     0
  0
CLASS
  1
ACDBPLACEHOLDER
  2
AcDbPlaceHolder
  3
ObjectDBX Classes
 90
        0
280
     0
281
     0
  0
CLASS
  1
LAYOUT
  2
AcDbLayout
  3
ObjectDBX Classes
 90
        0
280
     0
281
     0
  0
ENDSEC
  0
SECTION
  2
TABLES
  0
TABLE
  2
VPORT
  5
8
330
0
100
AcDbSymbolTable
 70
     1
  0
VPORT
  5
29
330
8
100
AcDbSymbolTableRecord
100
AcDbViewportTableRecord
  2
*Active
 70
     0
 10
0.0
 20
0.0
 11
1.0
 21
1.0
 12
344.1869158879
 22
148.5
 13
0.0
 23
0.0
 14
10.0
 24
10.0
 15
10.0
 25
10.0
 16
0.0
 26
0.0
 36
1.0
 17
0.0
 27
0.0
 37
0.0
 40
297.0
 41
1.9729729729
 42
50.0
 43
0.0
 44
0.0
 50
0.0
 51
0.0
 71
     0
 72
   100
 73
     1
 74
     3
 75
     0
 76
     0
 77
     0
 78
     0
281
     0
 65
     1
110
0.0
120
0.0
130
0.0
111
1.0
121
0.0
131
0.0
112
0.0
122
1.0
132
0.0
 79
     0
146
0.0
  0
ENDTAB
  0
TABLE
  2
LTYPE
  5
5
330
0
100
AcDbSymbolTable
 70
     2
  0
LTYPE
  5
14
330
5
100
AcDbSymbolTableRecord
100
AcDbLinetypeTableRecord
  2
ByBlock
 70
     0
  3

 72
    65
 73
     0
 40
0.0
  0
LTYPE
  5
15
330
5
100
AcDbSymbolTableRecord
100
AcDbLinetypeTableRecord
  2
ByLayer
 70
     0
  3

 72
    65
 73
     0
 40
0.0
  0
LTYPE
  5
16
330
5
100
AcDbSymbolTableRecord
100
AcDbLinetypeTableRecord
  2
Continuous
 70
     0
  3
Solid line
 72
    65
 73
     0
 40
0.0
  0
LTYPE
  5
60
330
5
100
AcDbSymbolTableRecord
100
AcDbLinetypeTableRecord
  2
CENTER2
 70
     0
  3
Center (.5x) ___ _ ___ _ ___ _ ___ _ ___ _ ___
 72
    65
 73
     4
 40
28.575
 49
19.05
 74
     4
 75
     0
340
0
 46
0.0
 50
0.0
 44
0.0
 45
0.0
 49
-3.175
 74
     4
 75
     0
340
0
 46
0.0
 50
0.0
 44
0.0
 45
0.0
 49
3.175
 74
     4
 75
     0
340
0
 46
0.0
 50
0.0
 44
0.0
 45
0.0
 49
-3.175
 74
     4
 75
     0
340
0
 46
0.0
 50
0.0
 44
0.0
 45
0.0
  0
ENDTAB
  0
TABLE
  2
LAYER
  5
2
330
0
100
AcDbSymbolTable
 70
    10
  0
LAYER
  5
10
330
2
100
AcDbSymbolTableRecord
100
AcDbLayerTableRecord
  2
0
 70
     0
 62
     7
  6
Continuous
370
    -3
390
F
  0
LAYER
  5
5D
330
2
100
AcDbSymbolTableRecord
100
AcDbLayerTableRecord
  2
Default
 70
     0
 62
     7
  6
Continuous
370
    -3
390
F
  0
LAYER
  5
8A
330
2
100
AcDbSymbolTableRecord
100
AcDbLayerTableRecord
  2
$DDT_AUDIT_GENERATED_(8A)
 70
     0
 62
     7
  6
Continuous
370
    -3
390
F
  0
LAYER
  5
BA
330
2
100
AcDbSymbolTableRecord
100
AcDbLayerTableRecord
  2
$DDT_AUDIT_GENERATED_(BA)
 70
     0
 62
     7
  6
Continuous
370
    -3
390
F
  0
LAYER
  5
D6
330
2
100
AcDbSymbolTableRecord
100
AcDbLayerTableRecord
  2
$DDT_AUDIT_GENERATED_(D6)
 70
     0
 62
     7
  6
Continuous
370
    -3
390
F
  0
LAYER
  5
D9
330
2
100
AcDbSymbolTableRecord
100
AcDbLayerTableRecord
  2
$DDT_AUDIT_GENERATED_(D9)
 70
     0
 62
     7
  6
Continuous
370
    -3
390
F
  0
LAYER
  5
E4
330
2
100
AcDbSymbolTableRecord
100
AcDbLayerTableRecord
  2
$DDT_AUDIT_GENERATED_(E4)
 70
     0
 62
     7
  6
Continuous
370
    -3
390
F
  0
LAYER
  5
1ED
330
2
100
AcDbSymbolTableRecord
100
AcDbLayerTableRecord
  2
$DDT_AUDIT_GENERATED_(1ED)
 70
     0
 62
     7
  6
Continuous
370
    -3
390
F
  0
LAYER
  5
21C
330
2
100
AcDbSymbolTableRecord
100
AcDbLayerTableRecord
  2
$DDT_AUDIT_GENERATED_(21C)
 70
     0
 62
     7
  6
Continuous
370
    -3
390
F
  0
LAYER
  5
244
330
2
100
AcDbSymbolTableRecord
100
AcDbLayerTableRecord
  2
$DDT_AUDIT_GENERATED_(244)
 70
     0
 62
     7
  6
Continuous
370
    -3
390
F
  0
ENDTAB
  0
TABLE
  2
STYLE
  5
3
330
0
100
AcDbSymbolTable
 70
     2
  0
STYLE
  5
11
330
3
100
AcDbSymbolTableRecord
100
AcDbTextStyleTableRecord
  2
Standard
 70
     0
 40
0.0
 41
1.0
 50
0.0
 71
     0
 42
2.5
  3
txt
  4

  0
STYLE
  5
29E
330
3
100
AcDbSymbolTableRecord
100
AcDbTextStyleTableRecord
  2
SEACAD_seiso_ttf
 70
     0
 40
0.0
 41
1.0
 50
0.0
 71
     0
 42
0.2
  3
seiso.ttf
  4

  0
ENDTAB
  0
TABLE
  2
VIEW
  5
6
330
0
100
AcDbSymbolTable
 70
     0
  0
ENDTAB
  0
TABLE
  2
UCS
  5
7
330
0
100
AcDbSymbolTable
 70
     0
  0
ENDTAB
  0
TABLE
  2
APPID
  5
9
330
0
100
AcDbSymbolTable
 70
     1
  0
APPID
  5
12
330
9
100
AcDbSymbolTableRecord
100
AcDbRegAppTableRecord
  2
ACAD
 70
     0
  0
ENDTAB
  0
TABLE
  2
DIMSTYLE
  5
A
330
0
100
AcDbSymbolTable
 70
     1
100
AcDbDimStyleTable
  0
DIMSTYLE
105
27
330
A
100
AcDbSymbolTableRecord
100
AcDbDimStyleTableRecord
  2
ISO-25
 70
     0
 41
2.5
 42
0.625
 43
3.75
 44
1.25
 73
     0
 74
     0
 77
     1
 78
     8
140
2.5
141
2.5
143
0.0393700787
147
0.625
171
     3
172
     1
271
     2
272
     2
274
     3
278
    44
283
     0
284
     8
340
11
  0
ENDTAB
  0
TABLE
  2
BLOCK_RECORD
  5
1
330
0
100
AcDbSymbolTable
 70
    10
  0
BLOCK_RECORD
  5
1F
330
1
100
AcDbSymbolTableRecord
100
AcDbBlockTableRecord
  2
*Model_Space
340
22
  0
BLOCK_RECORD
  5
1B
330
1
100
AcDbSymbolTableRecord
100
AcDbBlockTableRecord
  2
*Paper_Space
340
1E
  0
BLOCK_RECORD
  5
5E
330
1
100
AcDbSymbolTableRecord
100
AcDbBlockTableRecord
  2
SEANNOT_GROUP
340
0
102
{BLKREFS
331
5F
102
}
  0
BLOCK_RECORD
  5
65
330
1
100
AcDbSymbolTableRecord
100
AcDbBlockTableRecord
  2
SEANNOT_GROUP1
340
0
102
{BLKREFS
331
66
102
}
  0
BLOCK_RECORD
  5
6B
330
1
100
AcDbSymbolTableRecord
100
AcDbBlockTableRecord
  2
SEANNOT_GROUP2
340
0
102
{BLKREFS
331
6C
102
}
  0
BLOCK_RECORD
  5
72
330
1
100
AcDbSymbolTableRecord
100
AcDbBlockTableRecord
  2
SEANNOT_GROUP3
340
0
102
{BLKREFS
331
73
102
}
  0
BLOCK_RECORD
  5
79
330
1
100
AcDbSymbolTableRecord
100
AcDbBlockTableRecord
  2
SEANNOT_GROUP4
340
0
102
{BLKREFS
331
7A
102
}
  0
BLOCK_RECORD
  5
81
330
1
100
AcDbSymbolTableRecord
100
AcDbBlockTableRecord
  2
SEANNOT_GROUP5
340
0
102
{BLKREFS
331
82
102
}
  0
BLOCK_RECORD
  5
88
330
1
100
AcDbSymbolTableRecord
100
AcDbBlockTableRecord
  2
SE
340
0
102
{BLKREFS
331
89
102
}
  0
BLOCK_RECORD
  5
1F2
330
1
100
AcDbSymbolTableRecord
100
AcDbBlockTableRecord
  2
SE1
340
0
102
{BLKREFS
331
1F3
102
}
  0
BLOCK_RECORD
  5
249
330
1
100
AcDbSymbolTableRecord
100
AcDbBlockTableRecord
  2
SE2
340
0
102
{BLKREFS
331
24A
102
}
  0
ENDTAB
  0
ENDSEC
  0
SECTION
  2
BLOCKS
  0
BLOCK
  5
20
330
1F
100
AcDbEntity
  8
0
100
AcDbBlockBegin
  2
*Model_Space
 70
     0
 10
0.0
 20
0.0
 30
0.0
  3
*Model_Space
  1

  0
ENDBLK
  5
21
330
1F
100
AcDbEntity
  8
0
100
AcDbBlockEnd
  0
BLOCK
  5
1C
330
1B
100
AcDbEntity
 67
     1
  8
0
100
AcDbBlockBegin
  2
*Paper_Space
 70
     0
 10
0.0
 20
0.0
 30
0.0
  3
*Paper_Space
  1

  0
ENDBLK
  5
1D
330
1B
100
AcDbEntity
 67
     1
  8
0
100
AcDbBlockEnd
  0
BLOCK
  5
63
330
5E
100
AcDbEntity
  8
0
100
AcDbBlockBegin
  2
SEANNOT_GROUP
 70
     0
 10
0.0
 20
0.0
 30
0.0
  3
SEANNOT_GROUP
  1

  0
LINE
  5
61
330
5E
100
AcDbEntity
  8
Default
  6
CENTER2
 62
     7
100
AcDbLine
 10
52.3325458174
 20
358.9527622511
 30
0.0
 11
12.3325467115
 21
358.9527622511
 31
0.0
  0
LINE
  5
62
330
5E
100
AcDbEntity
  8
Default
  6
CENTER2
 62
     7
100
AcDbLine
 10
32.3325462644
 20
378.9527618041
 30
0.0
 11
32.3325462644
 21
338.9527626982
 31
0.0
  0
ENDBLK
  5
64
330
5E
100
AcDbEntity
  8
0
100
AcDbBlockEnd
  0
BLOCK
  5
69
330
65
100
AcDbEntity
  8
0
100
AcDbBlockBegin
  2
SEANNOT_GROUP1
 70
     0
 10
0.0
 20
0.0
 30
0.0
  3
SEANNOT_GROUP1
  1

  0
LINE
  5
67
330
65
100
AcDbEntity
  8
Default
  6
CENTER2
 62
     7
100
AcDbLine
 10
175.7467178028
 20
358.9527622511
 30
0.0
 11
135.7467186969
 21
358.9527622511
 31
0.0
  0
LINE
  5
68
330
65
100
AcDbEntity
  8
Default
  6
CENTER2
 62
     7
100
AcDbLine
 10
155.7467182498
 20
378.9527618041
 30
0.0
 11
155.7467182498
 21
338.9527626982
 31
0.0
  0
ENDBLK
  5
6A
330
65
100
AcDbEntity
  8
0
100
AcDbBlockEnd
  0
BLOCK
  5
6F
330
6B
100
AcDbEntity
  8
0
100
AcDbBlockBegin
  2
SEANNOT_GROUP2
 70
     0
 10
0.0
 20
0.0
 30
0.0
  3
SEANNOT_GROUP2
  1

  0
LINE
  5
6D
330
6B
100
AcDbEntity
  8
Default
  6
CENTER2
 62
     7
100
AcDbLine
 10
355.8812386499
 20
601.0470245023
 30
0.0
 11
315.881239544
 21
601.0470245023
 31
0.0
  0
LINE
  5
6E
330
6B
100
AcDbEntity
  8
Default
  6
CENTER2
 62
     7
100
AcDbLine
 10
335.8812390969
 20
621.0470240552
 30
0.0
 11
335.8812390969
 21
581.0470249493
 31
0.0
  0
ENDBLK
  5
70
330
6B
100
AcDbEntity
  8
0
100
AcDbBlockEnd
  0
BLOCK
  5
76
330
72
100
AcDbEntity
  8
0
100
AcDbBlockBegin
  2
SEANNOT_GROUP3
 70
     0
 10
0.0
 20
0.0
 30
0.0
  3
SEANNOT_GROUP3
  1

  0
LINE
  5
74
330
72
100
AcDbEntity
  8
Default
  6
CENTER2
 62
     7
100
AcDbLine
 10
52.3325458176
 20
601.0470245023
 30
0.0
 11
12.3325467116
 21
601.0470245023
 31
0.0
  0
LINE
  5
75
330
72
100
AcDbEntity
  8
Default
  6
CENTER2
 62
     7
100
AcDbLine
 10
32.3325462646
 20
621.0470240552
 30
0.0
 11
32.3325462646
 21
581.0470249493
 31
0.0
  0
ENDBLK
  5
77
330
72
100
AcDbEntity
  8
0
100
AcDbBlockEnd
  0
BLOCK
  5
7D
330
79
100
AcDbEntity
  8
0
100
AcDbBlockBegin
  2
SEANNOT_GROUP4
 70
     0
 10
0.0
 20
0.0
 30
0.0
  3
SEANNOT_GROUP4
  1

  0
LINE
  5
7B
330
79
100
AcDbEntity
  8
Default
  6
CENTER2
 62
     7
100
AcDbLine
 10
52.3325458174
 20
112.3482088419
 30
0.0
 11
12.3325467115
 21
112.3482088419
 31
0.0
  0
LINE
  5
7C
330
79
100
AcDbEntity
  8
Default
  6
CENTER2
 62
     7
100
AcDbLine
 10
32.3325462644
 20
132.3482083949
 30
0.0
 11
32.3325462644
 21
92.348209289
 31
0.0
  0
ENDBLK
  5
7E
330
79
100
AcDbEntity
  8
0
100
AcDbBlockEnd
  0
BLOCK
  5
85
330
81
100
AcDbEntity
  8
0
100
AcDbBlockBegin
  2
SEANNOT_GROUP5
 70
     0
 10
0.0
 20
0.0
 30
0.0
  3
SEANNOT_GROUP5
  1

  0
LINE
  5
83
330
81
100
AcDbEntity
  8
Default
  6
CENTER2
 62
     7
100
AcDbLine
 10
52.3325458174
 20
291.5429772448
 30
0.0
 11
12.3325467115
 21
291.5429772448
 31
0.0
  0
LINE
  5
84
330
81
100
AcDbEntity
  8
Default
  6
CENTER2
 62
     7
100
AcDbLine
 10
32.3325462644
 20
311.5429767977
 30
0.0
 11
32.3325462644
 21
271.5429776918
 31
0.0
  0
ENDBLK
  5
86
330
81
100
AcDbEntity
  8
0
100
AcDbBlockEnd
  0
BLOCK
  5
1F0
330
88
100
AcDbEntity
  8
0
100
AcDbBlockBegin
  2
SE
 70
     0
 10
0.0
 20
0.0
 30
0.0
  3
SE
  1

  0
LINE
  5
8B
330
88
100
AcDbEntity
  8
$DDT_AUDIT_GENERATED_(8A)
  6
Continuous
 62
     7
100
AcDbLine
 10
18.3291297913
 20
603.5067936513
 30
0.0
 11
46.3359627375
 21
603.5067936513
 31
0.0
  0
SPLINE
  5
8C
330
88
100
AcDbEntity
  8
$DDT_AUDIT_GENERATED_(8A)
  6
Continuous
 62
     7
100
AcDbSpline
210
0.0
220
0.0
230
1.0
 70
     8
 71
     3
 72
     8
 73
     4
 74
     0
 42
0.0000000091687103
 43
0.0000000001
 40
0.585804169888307
 40
0.585804169888307
 40
0.585804169888307
 40
0.585804169888307
 40
1.0
 40
1.0
 40
1.0
 40
1.0
 10
46.88157189034947
 20
633.3021622018689
 30
0.0
 10
47.03186849090158
 20
633.3180779803293
 30
0.0
 10
47.18216861154723
 20
633.318885406152
 30
0.0
 10
47.33246670830599
 20
633.3207796719125
 30
0.0
  0
SPLINE
  5
8D
330
88
100
AcDbEntity
  8
$DDT_AUDIT_GENERATED_(8A)
  6
Continuous
 62
     7
100
AcDbSpline
210
0.0
220
0.0
230
1.0
 70
     8
 71
     3
 72
    24
 73
    20
 74
     0
 42
0.0000000000870947
 43
0.0000000001
 40
0.0
 40
0.0
 40
0.0
 40
0.0
 40
0.0312500000000009
 40
0.0312500000000009
 40
0.0625000000000018
 40
0.0625000000000018
 40
0.0781250000000021
 40
0.0781250000000021
 40
0.0937500000000023
 40
0.0937500000000023
 40
0.1093750000000025
 40
0.1093750000000025
 40
0.1250000000000028
 40
0.1250000000000028
 40
0.1562500000000027
 40
0.1562500000000027
 40
0.1875000000000026
 40
0.1875000000000026
 40
0.1926077572627196
 40
0.1926077572627196
 40
0.1926077572627196
 40
0.1926077572627196
 10
46.90293288850449
 20
599.685873559697
 30
0.0
 10
46.90618197884029
 20
601.3875200965896
 30
0.0
 10
46.90945229599475
 20
603.0877492141144
 30
0.0
 10
46.91629075570072
 20
606.4683201785772
 30
0.0
 10
46.91972107979707
 20
608.1578648434644
 30
0.0
 10
46.926575648361
 20
610.5780579787466
 30
0.0
 10
46.92920395094671
 20
611.3635444467191
 30
0.0
 10
46.93521274107226
 20
612.8773388918211
 30
0.0
 10
46.93853037710887
 20
613.5877693518528
 30
0.0
 10
46.9454888898236
 20
614.9606801396372
 30
0.0
 10
46.94909689815917
 20
615.6280362199133
 30
0.0
 10
46.95663065428513
 20
616.9156143047143
 30
0.0
 10
46.96058056099775
 20
617.5407017862357
 30
0.0
 10
46.97314372933335
 20
619.220486706432
 30
0.0
 10
46.98263319825944
 20
620.0914745189868
 30
0.0
 10
47.00279702316994
 20
621.2957592498493
 30
0.0
 10
47.01337343081774
 20
621.5874863381247
 30
0.0
 10
47.02578562341337
 20
621.7606669256656
 30
0.0
 10
47.02752912265915
 20
621.7815559736252
 30
0.0
 10
47.02927241240406
 20
621.7994482256685
 30
0.0
  0
SPLINE
  5
8E
330
88
100
AcDbEntity
  8
$DDT_AUDIT_GENERATED_(8A)
  6
Continuous
 62
     7
100
AcDbSpline
210
0.0
220
0.0
230
1.0
 70
     8
 71
     3
 72
     8
 73
     4
 74
     0
 42
0.0000000016215449
 43
0.0000000001
 40
0.3789492006160952
 40
0.3789492006160952
 40
0.3789492006160952
 40
0.3789492006160952
 40
0.4230725850633609
 40
0.4230725850633609
 40
0.4230725850633609
 40
0.4230725850633609
 10
47.21988028746448
 20
621.0686061222738
 30
0.0
 10
47.23492238758287
 20
620.9778644896342
 30
0.0
 10
47.24996466495745
 20
620.8880626099553
 30
0.0
 10
47.26500732091316
 20
620.8002678405674
 30
0.0
  0
SPLINE
  5
8F
330
88
100
AcDbEntity
  8
$DDT_AUDIT_GENERATED_(8A)
  6
Continuous
 62
     7
100
AcDbSpline
210
0.0
220
0.0
230
1.0
 70
     8
 71
     3
 72
    22
 73
    18
 74
     0
 42
0.0000000000842576
 43
0.0000000001
 40
0.0
 40
0.0
 40
0.0
 40
0.0
 40
0.0312500000000006
 40
0.0312500000000006
 40
0.0625000000000008
 40
0.0625000000000008
 40
0.093750000000001
 40
0.093750000000001
 40
0.1250000000000012
 40
0.1250000000000012
 40
0.1562500000000014
 40
0.1562500000000014
 40
0.1875000000000016
 40
0.1875000000000016
 40
0.2187500000000017
 40
0.2187500000000017
 40
0.2457816803042879
 40
0.2457816803042879
 40
0.2457816803042879
 40
0.2457816803042879
 10
17.82913856598027
 20
603.3592319611322
 30
0.0
 10
17.82575503454972
 20
605.2081932178216
 30
0.0
 10
17.822328096589
 20
607.0543973454099
 30
0.0
 10
17.81536015460276
 20
610.7395602652574
 30
0.0
 10
17.81199494945046
 20
612.5896855844696
 30
0.0
 10
17.80289539704406
 20
616.1394512473433
 30
0.0
 10
17.79695163566806
 20
617.8519993549465
 30
0.0
 10
17.78326552842364
 20
620.9885371178564
 30
0.0
 10
17.77559364822628
 20
622.430385233809
 30
0.0
 10
17.75884190350355
 20
625.0993218743956
 30
0.0
 10
17.74967159641804
 20
626.3304760876431
 30
0.0
 10
17.73045752562264
 20
628.4712912430828
 30
0.0
 10
17.7203562700075
 20
629.3919539079749
 30
0.0
 10
17.69912969631816
 20
630.9229962136201
 30
0.0
 10
17.68798381166588
 20
631.5323980331323
 30
0.0
 10
17.66708341213164
 20
632.2886410169384
 30
0.0
 10
17.65722717884146
 20
632.461992762598
 30
0.0
 10
17.64727232437337
 20
632.5276127149664
 30
0.0
  0
ELLIPSE
  5
90
330
88
100
AcDbEntity
  8
$DDT_AUDIT_GENERATED_(8A)
  6
Continuous
 62
     7
100
AcDbEllipse
 10
46.4029416632
 20
599.6858735597
 30
0.0
 11
-0.01992042715011529
 21
0.4996030189881873
 31
0.0
210
0.0
220
0.0
230
1.0
 40
0.1217060261
 41
3.119808154205587
 42
3.141592653788959
  0
SPLINE
  5
91
330
88
100
AcDbEntity
  8
$DDT_AUDIT_GENERATED_(8A)
  6
Continuous
 62
     7
100
AcDbSpline
210
0.0
220
0.0
230
1.0
 70
     8
 71
     3
 72
     8
 73
     4
 74
     0
 42
0.000000000766312
 43
0.0000000001
 40
0.0
 40
0.0
 40
0.0
 40
0.0
 40
1.0
 40
1.0
 40
1.0
 40
1.0
 10
32.33254626441857
 20
636.3201751154562
 30
0.0
 10
37.06045897780822
 20
636.320442099166
 30
0.0
 10
41.78837169119798
 20
636.3206108813578
 30
0.0
 10
45.38206141775374
 20
636.3207796635495
 30
0.0
  0
SPLINE
  5
92
330
88
100
AcDbEntity
  8
$DDT_AUDIT_GENERATED_(8A)
  6
Continuous
 62
     7
100
AcDbSpline
210
0.0
220
0.0
230
1.0
 70
     8
 71
     3
 72
    15
 73
    11
 74
     0
 42
0.0000000019308305
 43
0.0000000001
 40
0.0
 40
0.0
 40
0.0
 40
0.0
 40
0.1078558812217843
 40
0.2182172074360164
 40
0.3600495902824758
 40
0.5657849179487415
 40
0.7512243817742248
 40
0.8619332569686637
 40
0.931716834534894
 40
1.0
 40
1.0
 40
1.0
 40
1.0
 10
45.38206141775374
 20
636.3207796635495
 30
0.0
 10
45.55111551054232
 20
636.3114277908514
 30
0.0
 10
45.89315074882535
 20
636.2925068055391
 30
0.0
 10
46.42421466983993
 20
636.1294295006356
 30
0.0
 10
47.04794696101278
 20
635.7963157652409
 30
0.0
 10
47.67239100784575
 20
635.2040897246837
 30
0.0
 10
48.12240987599549
 20
634.4330844743317
 30
0.0
 10
48.33321889663608
 20
633.7516436555884
 30
0.0
 10
48.41798292228643
 20
633.2506294203178
 30
0.0
 10
48.42689750757579
 20
632.9631837832629
 30
0.0
 10
48.43130636150399
 20
632.8210228430808
 30
0.0
  0
LINE
  5
93
330
88
100
AcDbEntity
  8
$DDT_AUDIT_GENERATED_(8A)
  6
Continuous
 62
     7
100
AcDbLine
 10
48.4313063615
 20
632.8210228431
 30
0.0
 11
48.4313063615
 21
617.8386837993
 31
0.0
  0
SPLINE
  5
94
330
88
100
AcDbEntity
  8
$DDT_AUDIT_GENERATED_(8A)
  6
Continuous
 62
     7
100
AcDbSpline
210
0.0
220
0.0
230
1.0
 70
     8
 71
     3
 72
    15
 73
    11
 74
     0
 42
0.0000000015458316
 43
0.0000000001
 40
0.0
 40
0.0
 40
0.0
 40
0.0
 40
0.0934719038878074
 40
0.1947563525534783
 40
0.4374859495785928
 40
0.5859143838759888
 40
0.723991015437594
 40
0.8289790080633518
 40
0.9203790029010352
 40
1.0
 40
1.0
 40
1.0
 40
1.0
 10
48.43130636150398
 20
617.8386837992825
 30
0.0
 10
48.4290122445109
 20
617.6280278911184
 30
0.0
 10
48.42423226422471
 20
617.1891090865236
 30
0.0
 10
48.36045733876834
 20
616.2084309574169
 30
0.0
 10
48.2294120165725
 20
615.1175472671904
 30
0.0
 10
48.00885803323489
 20
613.9799066225006
 30
0.0
 10
47.79290269419959
 20
613.166432119072
 30
0.0
 10
47.55899556196815
 20
612.5073581353224
 30
0.0
 10
47.32583819356336
 20
611.994190285034
 30
0.0
 10
47.13517714199268
 20
611.7325643563837
 30
0.0
 10
47.04641246543403
 20
611.6107610790772
 30
0.0
  0
ARC
  5
95
330
88
100
AcDbEntity
  8
$DDT_AUDIT_GENERATED_(8A)
  6
Continuous
 62
     7
100
AcDbCircle
 10
31.2569492408
 20
622.8434622968
 30
0.0
 40
19.37732503649186
100
AcDbArc
 50
324.0511285218
 51
324.5717673872
  0
SPLINE
  5
96
330
88
100
AcDbEntity
  8
$DDT_AUDIT_GENERATED_(8A)
  6
Continuous
 62
     7
100
AcDbSpline
210
0.0
220
0.0
230
1.0
 70
     8
 71
     3
 72
    22
 73
    18
 74
     0
 42
0.0000000000821963
 43
0.0000000001
 40
0.7603905890283449
 40
0.7603905890283449
 40
0.7603905890283449
 40
0.7603905890283449
 40
0.7812499999999996
 40
0.7812499999999996
 40
0.8124999999999996
 40
0.8124999999999996
 40
0.8437499999999997
 40
0.8437499999999997
 40
0.8749999999999997
 40
0.8749999999999997
 40
0.9062499999999998
 40
0.9062499999999998
 40
0.9374999999999999
 40
0.9374999999999999
 40
0.9687499999999999
 40
0.9687499999999999
 40
1.0
 40
1.0
 40
1.0
 40
1.0
 10
47.01556402888808
 20
632.5084750296361
 30
0.0
 10
47.00790583095936
 20
632.44643671991
 30
0.0
 10
47.00027024447742
 20
632.3232901424104
 30
0.0
 10
46.9813018310079
 20
631.7285529040315
 30
0.0
 10
46.96984372368058
 20
631.1509864306205
 30
0.0
 10
46.94805743839949
 20
629.668663547037
 30
0.0
 10
46.93770367806347
 20
628.7663637844395
 30
0.0
 10
46.91802204962169
 20
626.6552830307694
 30
0.0
 10
46.9086176013326
 20
625.4341942027364
 30
0.0
 10
46.89123713335132
 20
622.7405936431597
 30
0.0
 10
46.88330130968966
 20
621.2833681333758
 30
0.0
 10
46.86914412304728
 20
618.117966526663
 30
0.0
 10
46.8629448978836
 20
616.3835489382532
 30
0.0
 10
46.85346110246333
 20
612.7738029307258
 30
0.0
 10
46.85001469728392
 20
610.8874271125887
 30
0.0
 10
46.84290198585251
 20
607.1285100263989
 30
0.0
 10
46.8394053840796
 20
605.2452922068962
 30
0.0
 10
46.83595396285683
 20
603.3592319611322
 30
0.0
  0
SPLINE
  5
97
330
88
100
AcDbEntity
  8
$DDT_AUDIT_GENERATED_(8A)
  6
Continuous
 62
     7
100
AcDbSpline
210
0.0
220
0.0
230
1.0
 70
     8
 71
     3
 72
     8
 73
     4
 74
     0
 42
0.0000000092029258
 43
0.0000000001
 40
0.0
 40
0.0
 40
0.0
 40
0.0
 40
0.4194383685492781
 40
0.4194383685492781
 40
0.4194383685492781
 40
0.4194383685492781
 10
17.332625820531
 20
633.3207796719125
 30
0.0
 10
17.4842541491237
 20
633.3188686407193
 30
0.0
 10
17.63588526273109
 20
633.3178550725917
 30
0.0
 10
17.78751153613169
 20
633.3016341906922
 30
0.0
  0
SPLINE
  5
98
330
88
100
AcDbEntity
  8
$DDT_AUDIT_GENERATED_(8A)
  6
Continuous
 62
     7
100
AcDbSpline
210
0.0
220
0.0
230
1.0
 70
     8
 71
     3
 72
    16
 73
    12
 74
     0
 42
0.0000000006666702
 43
0.0000000001
 40
0.0
 40
0.0
 40
0.0
 40
0.0
 40
0.0831646677368324
 40
0.1666195700049159
 40
0.2506736215621249
 40
0.3750115073668651
 40
0.5003593077889615
 40
0.6250708809598639
 40
0.7499016311061827
 40
0.8750443451544696
 40
1.0
 40
1.0
 40
1.0
 40
1.0
 10
32.33254626441867
 20
633.3202733342019
 30
0.0
 10
31.87982096945111
 20
633.3202741955566
 30
0.0
 10
30.97279042354014
 20
633.3202759212719
 30
0.0
 10
29.61327719839293
 20
633.3202897849095
 30
0.0
 10
28.04230506485927
 20
633.3203151432384
 30
0.0
 10
26.26948322479024
 20
633.3203576349322
 30
0.0
 10
24.32877324846508
 20
633.3204211862
 30
0.0
 10
22.44584222199809
 20
633.3204980779949
 30
0.0
 10
20.64231150429859
 20
633.3205856089635
 30
0.0
 10
18.91874352342986
 20
633.3206805745299
 30
0.0
 10
17.86106802800764
 20
633.3207466559268
 30
0.0
 10
17.332625820531
 20
633.3207796719125
 30
0.0
  0
SPLINE
  5
99
330
88
100
AcDbEntity
  8
$DDT_AUDIT_GENERATED_(8A)
  6
Continuous
 62
     7
100
AcDbSpline
210
0.0
220
0.0
230
1.0
 70
     8
 71
     3
 72
    16
 73
    12
 74
     0
 42
0.0000000006666702
 43
0.0000000001
 40
0.0
 40
0.0
 40
0.0
 40
0.0
 40
0.0833404797919004
 40
0.1666148694737537
 40
0.250144747126019
 40
0.3749469661250572
 40
0.4996875741312596
 40
0.6250053381375652
 40
0.7493737730951018
 40
0.8751725449940781
 40
1.0
 40
1.0
 40
1.0
 40
1.0
 10
47.33246670830599
 20
633.3207796719125
 30
0.0
 10
46.98264187968866
 20
633.3207576531213
 30
0.0
 10
46.28326963820038
 20
633.3207136329999
 30
0.0
 10
45.16986321455801
 20
633.3206487869788
 30
0.0
 10
43.82419694510935
 20
633.3205759012912
 30
0.0
 10
42.21889551949583
 20
633.3204980773345
 30
0.0
 10
40.33676369045047
 20
633.3204212187246
 30
0.0
 10
38.39569613395115
 20
633.3203575607681
 30
0.0
 10
36.401354294356
 20
633.3203101234591
 30
0.0
 10
34.37680938556973
 20
633.3202791817573
 30
0.0
 10
33.0122044355065
 20
633.3202752783443
 30
0.0
 10
32.33254626441867
 20
633.3202733342019
 30
0.0
  0
ARC
  5
9A
330
88
100
AcDbEntity
  8
$DDT_AUDIT_GENERATED_(8A)
  6
Continuous
 62
     7
100
AcDbCircle
 10
33.3808838401
 20
622.7940347808
 30
0.0
 40
19.32647610369055
100
AcDbArc
 50
215.3556769319
 51
215.8814367301
  0
SPLINE
  5
9B
330
88
100
AcDbEntity
  8
$DDT_AUDIT_GENERATED_(8A)
  6
Continuous
 62
     7
100
AcDbSpline
210
0.0
220
0.0
230
1.0
 70
     8
 71
     3
 72
    16
 73
    12
 74
     0
 42
0.0000000015461148
 43
0.0000000001
 40
0.0
 40
0.0
 40
0.0
 40
0.0
 40
0.0588536768716343
 40
0.1240414687064861
 40
0.1964497706939874
 40
0.2767260262843272
 40
0.4135719118721137
 40
0.5624233993132007
 40
0.8050141510704607
 40
0.9040464866088721
 40
1.0
 40
1.0
 40
1.0
 40
1.0
 10
17.61868006340105
 20
611.6107610790806
 30
0.0
 10
17.55198045669383
 20
611.699056031054
 30
0.0
 10
17.41140271172129
 20
611.8851486611856
 30
0.0
 10
17.22950267358709
 20
612.2329973033777
 30
0.0
 10
17.05496926759244
 20
612.6438403859773
 30
0.0
 10
16.85770567105332
 20
613.2189747772451
 30
0.0
 10
16.65570380220012
 20
613.9791155794046
 30
0.0
 10
16.43676176875364
 20
615.1156326576662
 30
0.0
 10
16.30540096269689
 20
616.2019564027946
 30
0.0
 10
16.24187705941723
 20
617.1829636025004
 30
0.0
 10
16.23645459114394
 20
617.6224234205536
 30
0.0
 10
16.23378616733303
 20
617.838683799283
 30
0.0
  0
LINE
  5
9C
330
88
100
AcDbEntity
  8
$DDT_AUDIT_GENERATED_(8A)
  6
Continuous
 62
     7
100
AcDbLine
 10
16.2337861673
 20
617.8386837993
 30
0.0
 11
16.2337861673
 21
632.8210228431
 31
0.0
  0
SPLINE
  5
9D
330
88
100
AcDbEntity
  8
$DDT_AUDIT_GENERATED_(8A)
  6
Continuous
 62
     7
100
AcDbSpline
210
0.0
220
0.0
230
1.0
 70
     8
 71
     3
 72
    15
 73
    11
 74
     0
 42
0.0000000019308329
 43
0.0000000001
 40
0.0
 40
0.0
 40
0.0
 40
0.0
 40
0.0681527810873613
 40
0.1378035870802699
 40
0.2483737577619391
 40
0.4340245374372261
 40
0.6392846771089318
 40
0.7814466228119228
 40
0.891977160675371
 40
1.0
 40
1.0
 40
1.0
 40
1.0
 10
16.23378616733299
 20
632.8210228430813
 30
0.0
 10
16.23817943667779
 20
632.9629113653465
 30
0.0
 10
16.24706254115369
 20
633.2498071753439
 30
0.0
 10
16.33152807876806
 20
633.7500750936894
 30
0.0
 10
16.54200041143452
 20
634.4316472175439
 30
0.0
 10
16.9914417531995
 20
635.2023945531133
 30
0.0
 10
17.61564250584282
 20
635.7951522411687
 30
0.0
 10
18.23918835473888
 20
636.1288005971322
 30
0.0
 10
18.77115832545643
 20
636.292423878023
 30
0.0
 10
19.11371703099881
 20
636.3114003140778
 30
0.0
 10
19.28303111108375
 20
636.3207796635495
 30
0.0
  0
SPLINE
  5
9E
330
88
100
AcDbEntity
  8
$DDT_AUDIT_GENERATED_(8A)
  6
Continuous
 62
     7
100
AcDbSpline
210
0.0
220
0.0
230
1.0
 70
     8
 71
     3
 72
     8
 73
     4
 74
     0
 42
0.000000000766312
 43
0.0000000001
 40
0.0
 40
0.0
 40
0.0
 40
0.0
 40
1.0
 40
1.0
 40
1.0
 40
1.0
 10
19.28303111108375
 20
636.3207796635495
 30
0.0
 10
22.87672083763913
 20
636.3206108813579
 30
0.0
 10
27.60463355102893
 20
636.320442099166
 30
0.0
 10
32.33254626441857
 20
636.3201751154562
 30
0.0
  0
SPLINE
  5
9F
330
88
100
AcDbEntity
  8
$DDT_AUDIT_GENERATED_(8A)
  6
Continuous
 62
     7
100
AcDbSpline
210
0.0
220
0.0
230
1.0
 70
     8
 71
     3
 72
    22
 73
    18
 74
     0
 42
0.0000000000848275
 43
0.0000000001
 40
0.8131415052879637
 40
0.8131415052879637
 40
0.8131415052879637
 40
0.8131415052879637
 40
0.8437499999999969
 40
0.8437499999999969
 40
0.8593749999999967
 40
0.8593749999999967
 40
0.8749999999999964
 40
0.8749999999999964
 40
0.9062499999999962
 40
0.9062499999999962
 40
0.9218749999999966
 40
0.9218749999999966
 40
0.9374999999999968
 40
0.9374999999999968
 40
0.9687499999999983
 40
0.9687499999999983
 40
1.0
 40
1.0
 40
1.0
 40
1.0
 10
17.64264205274921
 20
621.7130569705458
 30
0.0
 10
17.65303504413326
 20
621.5535721975764
 30
0.0
 10
17.66353086536641
 20
621.2401944829221
 30
0.0
 10
17.67828086696301
 20
620.3303787100774
 30
0.0
 10
17.68308949901261
 20
619.9525536544595
 30
0.0
 10
17.6924099611199
 20
619.0784472794446
 30
0.0
 10
17.69691146066143
 20
618.5667928061526
 30
0.0
 10
17.70932304803513
 20
616.874894136938
 30
0.0
 10
17.71656886144453
 20
615.5670459594944
 30
0.0
 10
17.72691543318107
 20
613.5139411046437
 30
0.0
 10
17.73020565112184
 20
612.8011888963499
 30
0.0
 10
17.73603700618734
 20
611.3197040254968
 30
0.0
 10
17.73860678123038
 20
610.5486601028974
 30
0.0
 10
17.74537214461928
 20
608.152836115698
 30
0.0
 10
17.74881866167656
 20
606.4602329981635
 30
0.0
 10
17.75565100333264
 20
603.0821621785369
 30
0.0
 10
17.75891608092824
 20
601.3846233810856
 30
0.0
 10
17.76215964033259
 20
599.6858735596971
 30
0.0
  0
LINE
  5
A0
330
88
100
AcDbEntity
  8
$DDT_AUDIT_GENERATED_(8A)
  6
Continuous
 62
     7
100
AcDbLine
 10
18.1904106407
 20
658.3957760278
 30
0.0
 11
12.3325462644
 21
658.3957760278
 31
0.0
  0
LINE
  5
A1
330
88
100
AcDbEntity
  8
$DDT_AUDIT_GENERATED_(8A)
  6
Continuous
 62
     7
100
AcDbLine
 10
32.3325462644
 20
658.3957760278
 30
0.0
 11
18.1904106407
 21
658.3957760278
 31
0.0
  0
LINE
  5
A2
330
88
100
AcDbEntity
  8
$DDT_AUDIT_GENERATED_(8A)
  6
Continuous
 62
     7
100
AcDbLine
 10
46.4746818881
 20
658.3957760278
 30
0.0
 11
32.3325462644
 21
658.3957760278
 31
0.0
  0
LINE
  5
A3
330
88
100
AcDbEntity
  8
$DDT_AUDIT_GENERATED_(8A)
  6
Continuous
 62
     7
100
AcDbLine
 10
52.3325462644
 20
658.3957760278
 30
0.0
 11
46.4746818881
 21
658.3957760278
 31
0.0
  0
LINE
  5
A4
330
88
100
AcDbEntity
  8
$DDT_AUDIT_GENERATED_(8A)
  6
Continuous
 62
     7
100
AcDbLine
 10
12.6325462644
 20
658.9527622511
 30
0.0
 11
52.0325462644
 21
658.9527622511
 31
0.0
  0
LINE
  5
A5
330
88
100
AcDbEntity
  8
$DDT_AUDIT_GENERATED_(8A)
  6
Continuous
 62
     7
100
AcDbLine
 10
24.4995163349
 20
601.0025653173
 30
0.0
 11
24.4995163349
 21
600.197765901
 31
0.0
  0
LINE
  5
A6
330
88
100
AcDbEntity
  8
$DDT_AUDIT_GENERATED_(8A)
  6
Continuous
 62
     7
100
AcDbLine
 10
40.2753012813
 20
600.225234125
 30
0.0
 11
40.2753012813
 21
601.2184657314
 31
0.0
  0
LINE
  5
A7
330
88
100
AcDbEntity
  8
$DDT_AUDIT_GENERATED_(8A)
  6
Continuous
 62
     7
100
AcDbLine
 10
44.6233410451
 20
601.3143814227
 30
0.0
 11
44.6108861193
 21
601.9974530861
 31
0.0
  0
SPLINE
  5
A8
330
88
100
AcDbEntity
  8
$DDT_AUDIT_GENERATED_(8A)
  6
Continuous
 62
     7
100
AcDbSpline
210
0.0
220
0.0
230
1.0
 70
     8
 71
     3
 72
    10
 73
     6
 74
     0
 42
0.0000000125389218
 43
0.0000000001
 40
0.0
 40
0.0
 40
0.0
 40
0.0
 40
0.5
 40
0.5
 40
1.0
 40
1.0
 40
1.0
 40
1.0
 10
24.4995163348997
 20
600.1977659010349
 30
0.0
 10
24.4995163348997
 20
600.043104897496
 30
0.0
 10
24.47591406328187
 20
599.8719481943259
 30
0.0
 10
24.40280934596888
 20
599.5954143989898
 30
0.0
 10
24.35357027622231
 20
599.4887487932457
 30
0.0
 10
24.30680247399351
 20
599.4413833050905
 30
0.0
  0
SPLINE
  5
A9
330
88
100
AcDbEntity
  8
$DDT_AUDIT_GENERATED_(8A)
  6
Continuous
 62
     7
100
AcDbSpline
210
0.0
220
0.0
230
1.0
 70
     8
 71
     3
 72
    10
 73
     6
 74
     0
 42
0.0000000124339558
 43
0.0000000001
 40
0.0
 40
0.0
 40
0.0
 40
0.0
 40
0.5
 40
0.5
 40
1.0
 40
1.0
 40
1.0
 40
1.0
 10
40.27530128129946
 20
600.2252341249559
 30
0.0
 10
40.27530128129945
 20
600.0701110706788
 30
0.0
 10
40.3012569742721
 20
599.8986593160947
 30
0.0
 10
40.38127440495392
 20
599.6226582309104
 30
0.0
 10
40.4350231079198
 20
599.5166432562614
 30
0.0
 10
40.48612972726428
 20
599.4695541622235
 30
0.0
  0
LINE
  5
AA
330
88
100
AcDbEntity
  8
$DDT_AUDIT_GENERATED_(8A)
  6
Continuous
 62
     7
100
AcDbLine
 10
52.3325462644
 20
367.2527622886
 30
0.0
 11
52.3325462644
 21
658.3957760278
 31
0.0
  0
SPLINE
  5
AB
330
88
100
AcDbEntity
  8
$DDT_AUDIT_GENERATED_(8A)
  6
Continuous
 62
     7
100
AcDbSpline
210
0.0
220
0.0
230
1.0
 70
     8
 71
     3
 72
    10
 73
     6
 74
     0
 42
0.0000000486901611
 43
0.0000000001
 40
0.5376683644105221
 40
0.5376683644105221
 40
0.5376683644105221
 40
0.5376683644105221
 40
0.6423262826055557
 40
0.8536672508990117
 40
1.0
 40
1.0
 40
1.0
 40
1.0
 10
17.63564557251667
 20
621.7720388155368
 30
0.0
 10
17.63563147332805
 20
621.7720617590361
 30
0.0
 10
17.63647093320605
 20
621.7669495141771
 30
0.0
 10
17.63951566519638
 20
621.7426967461239
 30
0.0
 10
17.6423667168977
 20
621.6990573047029
 30
0.0
 10
17.6437933299922
 20
621.6775339750818
 30
0.0
  0
ARC
  5
AC
330
88
100
AcDbEntity
  8
$DDT_AUDIT_GENERATED_(8A)
  6
Continuous
 62
     7
100
AcDbCircle
 10
18.2621508657
 20
599.6858735597
 30
0.0
 40
0.4999999999999993
100
AcDbArc
 50
180.1093992984
 51
267.716682874
  0
ARC
  5
AD
330
88
100
AcDbEntity
  8
$DDT_AUDIT_GENERATED_(8A)
  6
Continuous
 62
     7
100
AcDbCircle
 10
46.566763141
 20
621.8799554483
 30
0.0
 40
0.4749644610035131
100
AcDbArc
 50
343.6320917523
 51
346.948041733
  0
ARC
  5
AE
330
88
100
AcDbEntity
  8
$DDT_AUDIT_GENERATED_(8A)
  6
Continuous
 62
     7
100
AcDbCircle
 10
32.3262847893
 20
947.9581846942
 30
0.0
 40
349.0531806003703
100
AcDbArc
 50
267.6877304748
 51
272.3142920026
  0
ARC
  5
AF
330
88
100
AcDbEntity
  8
$DDT_AUDIT_GENERATED_(8A)
  6
Continuous
 62
     7
100
AcDbCircle
 10
46.4029416632
 20
599.6858735597
 30
0.0
 40
0.4999999999999653
100
AcDbArc
 50
272.283317126
 51
359.8906007016
  0
LINE
  5
B0
330
88
100
AcDbEntity
  8
$DDT_AUDIT_GENERATED_(8A)
  6
Continuous
 62
     7
100
AcDbLine
 10
12.3325462644
 20
658.3957760278
 30
0.0
 11
12.3325462644
 21
367.2527622886
 31
0.0
  0
LINE
  5
B1
330
88
100
AcDbEntity
  8
$DDT_AUDIT_GENERATED_(8A)
  6
Continuous
 62
     7
100
AcDbLine
 10
52.3325462644
 20
658.3957760278
 30
0.0
 11
52.3325462644
 21
658.6527622511
 31
0.0
  0
LINE
  5
B2
330
88
100
AcDbEntity
  8
$DDT_AUDIT_GENERATED_(8A)
  6
Continuous
 62
     7
100
AcDbLine
 10
12.3325462644
 20
658.6527622511
 30
0.0
 11
12.3325462644
 21
658.3957760278
 31
0.0
  0
ARC
  5
B3
330
88
100
AcDbEntity
  8
$DDT_AUDIT_GENERATED_(8A)
  6
Continuous
 62
     7
100
AcDbCircle
 10
12.6325462644
 20
658.6527622511
 30
0.0
 40
0.3000000000000225
100
AcDbArc
 50
90.0
 51
180.0
  0
ARC
  5
B4
330
88
100
AcDbEntity
  8
$DDT_AUDIT_GENERATED_(8A)
  6
Continuous
 62
     7
100
AcDbCircle
 10
52.0325462644
 20
658.6527622511
 30
0.0
 40
0.3000000000000017
100
AcDbArc
 50
0.0
 51
90.0
  0
SPLINE
  5
B5
330
88
100
AcDbEntity
  8
$DDT_AUDIT_GENERATED_(8A)
  6
Continuous
 62
     7
100
AcDbSpline
210
0.0
220
0.0
230
1.0
 70
     8
 71
     3
 72
    22
 73
    18
 74
     0
 42
0.0000000027382766
 43
0.0000000001
 40
0.1464719582987848
 40
0.1464719582987848
 40
0.1464719582987848
 40
0.1464719582987848
 40
0.1480076919304598
 40
0.2025295824639237
 40
0.2564741542763794
 40
0.3117600474925667
 40
0.3695339180175542
 40
0.4299250894842214
 40
0.4926525254289643
 40
0.5572936221655553
 40
0.6234224670073949
 40
0.6906698014218157
 40
0.7587378840460176
 40
0.8273939468530919
 40
0.8964563980950927
 40
0.9657804877895309
 40
1.0
 40
1.0
 40
1.0
 40
1.0
 10
20.08244135916567
 20
601.9404954246577
 30
0.0
 10
20.08244198082038
 20
601.9404966555447
 30
0.0
 10
20.08258551648873
 20
601.940704788728
 30
0.0
 10
20.09170292081074
 20
601.9527481432723
 30
0.0
 10
20.13963686214623
 20
601.9943128779522
 30
0.0
 10
20.22412576349917
 20
602.0503624337116
 30
0.0
 10
20.34723916860107
 20
602.1154771335154
 30
0.0
 10
20.50998354646504
 20
602.1852887196013
 30
0.0
 10
20.7115597337366
 20
602.2559300413983
 30
0.0
 10
20.94962397932043
 20
602.3240730551871
 30
0.0
 10
21.22066161337658
 20
602.386972169202
 30
0.0
 10
21.52049060425159
 20
602.4424432674482
 30
0.0
 10
21.84410553088259
 20
602.4887814556226
 30
0.0
 10
22.1875803915089
 20
602.5247685774034
 30
0.0
 10
22.54172142607972
 20
602.5493079464062
 30
0.0
 10
22.85291696064204
 20
602.5602722017697
 30
0.0
 10
23.0238967938505
 20
602.5615331285278
 30
0.0
 10
23.09035697190433
 20
602.5619216510688
 30
0.0
  0
LINE
  5
B6
330
88
100
AcDbEntity
  8
$DDT_AUDIT_GENERATED_(8A)
  6
Continuous
 62
     7
100
AcDbLine
 10
23.0903569719
 20
602.5619216511
 30
0.0
 11
41.5900633112
 21
602.594132668
 31
0.0
  0
SPLINE
  5
B7
330
88
100
AcDbEntity
  8
$DDT_AUDIT_GENERATED_(8A)
  6
Continuous
 62
     7
100
AcDbSpline
210
0.0
220
0.0
230
1.0
 70
     8
 71
     3
 72
    21
 73
    17
 74
     0
 42
0.0000000027285874
 43
0.0000000001
 40
0.0
 40
0.0
 40
0.0
 40
0.0
 40
0.0364481783374795
 40
0.105939330461235
 40
0.1753556511139104
 40
0.2445592239561317
 40
0.3134242671323614
 40
0.3817976063152986
 40
0.4494854203597752
 40
0.5162381634164065
 40
0.5817368467664178
 40
0.6455909307689901
 40
0.7073725586457955
 40
0.7667346236940823
 40
0.8236785908204584
 40
0.8610581492715003
 40
0.8610581492715003
 40
0.8610581492715003
 40
0.8610581492715003
 10
41.59006331117898
 20
602.594132668012
 30
0.0
 10
41.66084323408832
 20
602.5939465944348
 30
0.0
 10
41.83565815685523
 20
602.593207443848
 30
0.0
 10
42.15187028869548
 20
602.5828170004692
 30
0.0
 10
42.50842971056634
 20
602.5589640382542
 30
0.0
 10
42.85551278840433
 20
602.5233948364357
 30
0.0
 10
43.18394992678603
 20
602.4770648333342
 30
0.0
 10
43.48979473972773
 20
602.4210204930113
 30
0.0
 10
43.76789508578213
 20
602.3567698288166
 30
0.0
 10
44.01365782310511
 20
602.2863183922145
 30
0.0
 10
44.22270640907568
 20
602.2123678605528
 30
0.0
 10
44.39123789997887
 20
602.1385578556236
 30
0.0
 10
44.51641036945414
 20
602.0698191701483
 30
0.0
 10
44.59724439815474
 20
602.0126499518344
 30
0.0
 10
44.63153910365605
 20
601.9794787912591
 30
0.0
 10
44.63653094953506
 20
601.9726249007225
 30
0.0
 10
44.63652763802586
 20
601.972634254487
 30
0.0
  0
ARC
  5
B8
330
88
100
AcDbEntity
  8
$DDT_AUDIT_GENERATED_(8A)
  6
Continuous
 62
     7
100
AcDbCircle
 10
52.0325462625
 20
367.2527622886
 30
0.0
 40
0.299999999969003
100
AcDbArc
 50
269.9999773399
 51
0.4739546229
  0
ARC
  5
B9
330
88
100
AcDbEntity
  8
$DDT_AUDIT_GENERATED_(8A)
  6
Continuous
 62
     7
100
AcDbCircle
 10
12.6325698065
 20
367.2527622816
 30
0.0
 40
0.2999999930431405
100
AcDbArc
 50
180.5230702099
 51
270.0089980123
  0
ELLIPSE
  5
BB
330
88
100
AcDbEntity
  8
$DDT_AUDIT_GENERATED_(BA)
  6
Continuous
 62
     7
100
AcDbEllipse
 10
32.3325462644
 20
661.9974131828
 30
0.0
 11
20.0
 21
0.0
 31
0.0
210
0.0
220
0.0
230
1.0
 40
0.5064289213
 41
-0.0685513398446962
 42
0.0
  0
ELLIPSE
  5
BC
330
88
100
AcDbEntity
  8
$DDT_AUDIT_GENERATED_(BA)
  6
Continuous
 62
     7
100
AcDbEllipse
 10
32.3325462644
 20
661.9974131828
 30
0.0
 11
20.0
 21
0.0
 31
0.0
210
0.0
220
0.0
230
1.0
 40
0.5064289213
 41
3.141592653589793
 42
3.232815444158221
  0
ELLIPSE
  5
BD
330
88
100
AcDbEntity
  8
$DDT_AUDIT_GENERATED_(BA)
  6
Continuous
 62
     7
100
AcDbEllipse
 10
32.3325462644
 20
660.5493697684
 30
0.0
 11
19.69999999999999
 21
0.0
 31
0.0
210
0.0
220
0.0
230
1.0
 40
0.0261769483
 41
3.315616113262558
 42
6.055314130596614
  0
ELLIPSE
  5
BE
330
88
100
AcDbEntity
  8
$DDT_AUDIT_GENERATED_(BA)
  6
Continuous
 62
     7
100
AcDbEllipse
 10
32.3325462644
 20
690.072023357
 30
0.0
 11
19.33381303966964
 21
0.0
 31
0.0
210
0.0
220
0.0
230
1.0
 40
0.0261769483
 41
0.2576301282014835
 42
0.5721846656054121
  0
ELLIPSE
  5
BF
330
88
100
AcDbEntity
  8
$DDT_AUDIT_GENERATED_(BA)
  6
Continuous
 62
     7
100
AcDbEllipse
 10
32.3325462644
 20
690.072023357
 30
0.0
 11
19.33381303966964
 21
0.0
 31
0.0
210
0.0
220
0.0
230
1.0
 40
0.0261769483
 41
-3.713777319195207
 42
-3.418036370902652
  0
ELLIPSE
  5
C0
330
88
100
AcDbEntity
  8
$DDT_AUDIT_GENERATED_(BA)
  6
Continuous
 62
     7
100
AcDbEllipse
 10
32.3325462644
 20
690.072023357
 30
0.0
 11
19.33381303966964
 21
0.0
 31
0.0
210
0.0
220
0.0
230
1.0
 40
0.0261769483
 41
3.757339157297851
 42
5.635596265215183
  0
LINE
  5
C1
330
88
100
AcDbEntity
  8
$DDT_AUDIT_GENERATED_(BA)
  6
Continuous
 62
     7
100
AcDbLine
 10
23.8325462644
 20
679.4125077087
 30
0.0
 11
23.8325462644
 21
684.0109314035
 31
0.0
  0
ELLIPSE
  5
C2
330
88
100
AcDbEntity
  8
$DDT_AUDIT_GENERATED_(BA)
  6
Continuous
 62
     7
100
AcDbEllipse
 10
32.3325462644
 20
686.5404602178
 30
0.0
 11
20.99999999999982
 21
0.0
 31
0.0
210
0.0
220
0.0
230
1.0
 40
0.0261769483
 41
4.331841788694907
 42
5.092936172074474
  0
LINE
  5
C3
330
88
100
AcDbEntity
  8
$DDT_AUDIT_GENERATED_(BA)
  6
Continuous
 62
     7
100
AcDbLine
 10
23.8325462644
 20
684.0109314035
 30
0.0
 11
23.8325462644
 21
685.3303100102
 31
0.0
  0
LINE
  5
C4
330
88
100
AcDbEntity
  8
$DDT_AUDIT_GENERATED_(BA)
  6
Continuous
 62
     7
100
AcDbLine
 10
23.8325462644
 20
685.3303100102
 30
0.0
 11
23.8325462644
 21
685.5068283746
 31
0.0
  0
LINE
  5
C5
330
88
100
AcDbEntity
  8
$DDT_AUDIT_GENERATED_(BA)
  6
Continuous
 62
     7
100
AcDbLine
 10
40.8325462644
 20
684.0109314035
 30
0.0
 11
40.8325462644
 21
679.4125077087
 31
0.0
  0
LINE
  5
C6
330
88
100
AcDbEntity
  8
$DDT_AUDIT_GENERATED_(BA)
  6
Continuous
 62
     7
100
AcDbLine
 10
40.8325462644
 20
685.5068283746
 30
0.0
 11
40.8325462644
 21
685.3303100102
 31
0.0
  0
LINE
  5
C7
330
88
100
AcDbEntity
  8
$DDT_AUDIT_GENERATED_(BA)
  6
Continuous
 62
     7
100
AcDbLine
 10
40.8325462644
 20
685.3303100102
 30
0.0
 11
40.8325462644
 21
684.0109314035
 31
0.0
  0
LINE
  5
C8
330
88
100
AcDbEntity
  8
$DDT_AUDIT_GENERATED_(BA)
  6
Continuous
 62
     7
100
AcDbLine
 10
52.3325462644
 20
661.9974131828
 30
0.0
 11
52.3325462644
 21
689.3730800848
 31
0.0
  0
LINE
  5
C9
330
88
100
AcDbEntity
  8
$DDT_AUDIT_GENERATED_(BA)
  6
Continuous
 62
     7
100
AcDbLine
 10
12.3325462644
 20
689.3730800848
 30
0.0
 11
12.3325462644
 21
661.9974131828
 31
0.0
  0
SPLINE
  5
CA
330
88
100
AcDbEntity
  8
$DDT_AUDIT_GENERATED_(BA)
  6
Continuous
 62
     7
100
AcDbSpline
210
0.0
220
0.0
230
1.0
 70
     8
 71
     3
 72
    14
 73
    10
 74
     0
 42
0.0000000137796536
 43
0.0000000001
 40
0.0
 40
0.0
 40
0.0
 40
0.0
 40
0.0894072204734498
 40
0.2189297387508424
 40
0.3502648901748442
 40
0.4991917103379594
 40
0.6830247443202915
 40
0.946637370226919
 40
1.0
 40
1.0
 40
1.0
 40
1.0
 10
51.85494412933329
 20
660.4804227926766
 30
0.0
 10
51.88490580771122
 20
660.4851831018472
 30
0.0
 10
51.94674673730648
 20
660.4954710690234
 30
0.0
 10
52.03432035488284
 20
660.5532621625757
 30
0.0
 10
52.10547619628534
 20
660.6286881424049
 30
0.0
 10
52.15853803179635
 20
660.7175003929178
 30
0.0
 10
52.20317999792473
 20
660.8312009365832
 30
0.0
 10
52.23149356307566
 20
660.9363484390052
 30
0.0
 10
52.24308959886537
 20
661.0102970173049
 30
0.0
 10
52.2453349504183
 20
661.0248358021465
 30
0.0
  0
LINE
  5
CB
330
88
100
AcDbEntity
  8
$DDT_AUDIT_GENERATED_(BA)
  6
Continuous
 62
     7
100
AcDbLine
 10
12.3911424714
 20
661.2335722391
 30
0.0
 11
12.4191027679
 21
661.0228616802
 31
0.0
  0
LINE
  5
CC
330
88
100
AcDbEntity
  8
$DDT_AUDIT_GENERATED_(BA)
  6
Continuous
 62
     7
100
AcDbLine
 10
52.2459897609
 20
661.0228616802
 30
0.0
 11
52.2832722002
 21
661.2644280222
 31
0.0
  0
ARC
  5
CD
330
88
100
AcDbEntity
  8
$DDT_AUDIT_GENERATED_(BA)
  6
Continuous
 62
     7
100
AcDbCircle
 10
51.0472839732
 20
665.3421905251
 30
0.0
 40
4.933442285338067
100
AcDbArc
 50
275.8871696165
 51
279.4435148016
  0
LINE
  5
CE
330
88
100
AcDbEntity
  8
$DDT_AUDIT_GENERATED_(BA)
  6
Continuous
 62
     7
100
AcDbLine
 10
12.808353058
 20
660.4756070644
 30
0.0
 11
12.8862030036
 21
660.4632765615
 31
0.0
  0
SPLINE
  5
CF
330
88
100
AcDbEntity
  8
$DDT_AUDIT_GENERATED_(BA)
  6
Continuous
 62
     7
100
AcDbSpline
210
0.0
220
0.0
230
1.0
 70
     8
 71
     3
 72
    13
 73
     9
 74
     0
 42
0.0000000134047216
 43
0.0000000001
 40
0.0
 40
0.0
 40
0.0
 40
0.0
 40
0.2353733501893969
 40
0.483112622626204
 40
0.6339377793059924
 40
0.7691527069603198
 40
0.8955548322739721
 40
1.0
 40
1.0
 40
1.0
 40
1.0
 10
12.41984827858125
 20
661.0245507960592
 30
0.0
 10
12.43100549371927
 20
660.9639350713243
 30
0.0
 10
12.45215766060599
 20
660.8589657123234
 30
0.0
 10
12.49813908255291
 20
660.7320547999001
 30
0.0
 10
12.55941040552399
 20
660.6292335650296
 30
0.0
 10
12.63140425079648
 20
660.5522213767694
 30
0.0
 10
12.72673071864738
 20
660.4920327276004
 30
0.0
 10
12.79370593492087
 20
660.4808648045334
 30
0.0
 10
12.8298144740786
 20
660.4751690028527
 30
0.0
  0
ARC
  5
D0
330
88
100
AcDbEntity
  8
$DDT_AUDIT_GENERATED_(BA)
  6
Continuous
 62
     7
100
AcDbCircle
 10
32.3325462644
 20
290.4262451962
 30
0.0
 40
400.2499999999954
100
AcDbArc
 50
87.6725537625
 51
92.3274462375
  0
SPLINE
  5
D1
330
88
100
AcDbEntity
  8
$DDT_AUDIT_GENERATED_(BA)
  6
Continuous
 62
     7
100
AcDbSpline
210
0.0
220
0.0
230
1.0
 70
     8
 71
     3
 72
    21
 73
    17
 74
     0
 42
0.0000000058868317
 43
0.0000000001
 40
0.0
 40
0.0
 40
0.0
 40
0.0
 40
0.0136306001207946
 40
0.0524587089392772
 40
0.0890191967570582
 40
0.1245996785378791
 40
0.1604768418356908
 40
0.198447087295625
 40
0.2412510450890826
 40
0.2928111248600618
 40
0.3590781997774709
 40
0.4508717052980298
 40
0.5952323677053659
 40
0.7787266258916284
 40
0.9514831042197681
 40
1.0
 40
1.0
 40
1.0
 40
1.0
 10
52.32747545723702
 20
689.3725171401363
 30
0.0
 10
52.32913075872844
 20
689.3941866296756
 30
0.0
 10
52.33421998846282
 20
689.465345284839
 30
0.0
 10
52.30189433400433
 20
689.5957124839828
 30
0.0
 10
52.24075735988032
 20
689.7332143332521
 30
0.0
 10
52.16177693044839
 20
689.8421977249018
 30
0.0
 10
52.07938843658475
 20
689.9230027795768
 30
0.0
 10
51.99944204381116
 20
689.9817583486288
 30
0.0
 10
51.92349044174947
 20
690.0249369378515
 30
0.0
 10
51.84888571624639
 20
690.0581774597839
 30
0.0
 10
51.76953693364371
 20
690.0858816133956
 30
0.0
 10
51.67088369411346
 20
690.1125015546063
 30
0.0
 10
51.53884861019956
 20
690.1391559533816
 30
0.0
 10
51.36118284398895
 20
690.1654764093389
 30
0.0
 10
51.19211491041609
 20
690.1860203850566
 30
0.0
 10
51.08777055317884
 20
690.1957517276946
 30
0.0
 10
51.06093920012998
 20
690.1982418027472
 30
0.0
  0
SPLINE
  5
D2
330
88
100
AcDbEntity
  8
$DDT_AUDIT_GENERATED_(BA)
  6
Continuous
 62
     7
100
AcDbSpline
210
0.0
220
0.0
230
1.0
 70
     8
 71
     3
 72
    20
 73
    16
 74
     0
 42
0.0000000055591738
 43
0.0000000001
 40
0.0
 40
0.0
 40
0.0
 40
0.0
 40
0.1219094473347734
 40
0.2876629130350979
 40
0.4604770779085481
 40
0.6293524794403152
 40
0.7134206607321499
 40
0.764810950749334
 40
0.8089569367417152
 40
0.8474508579764147
 40
0.8831662276086839
 40
0.9181107001565982
 40
0.9531181537565517
 40
0.9882979716944235
 40
1.0
 40
1.0
 40
1.0
 40
1.0
 10
13.7043679463588
 20
690.2079019192308
 30
0.0
 10
13.63243259092209
 20
690.2012305851351
 30
0.0
 10
13.48978471202192
 20
690.18782137546
 30
0.0
 10
13.28405400373711
 20
690.1630907872066
 30
0.0
 10
13.09560263456499
 20
690.1339292219204
 30
0.0
 10
12.95605238579011
 20
690.1042015406723
 30
0.0
 10
12.84169054937825
 20
690.0682696660923
 30
0.0
 10
12.75676812482972
 20
690.0324461447999
 30
0.0
 10
12.67767337341498
 20
689.989621017958
 30
0.0
 10
12.59236590739085
 20
689.9289868818021
 30
0.0
 10
12.50454520231172
 20
689.8442292739863
 30
0.0
 10
12.42193402346062
 20
689.7298579291913
 30
0.0
 10
12.36128295706924
 20
689.5895119875989
 30
0.0
 10
12.33077708112557
 20
689.4610912509539
 30
0.0
 10
12.3356667572433
 20
689.393141659013
 30
0.0
 10
12.33718787905422
 20
689.373274837714
 30
0.0
  0
ARC
  5
D3
330
88
100
AcDbEntity
  8
$DDT_AUDIT_GENERATED_(BA)
  6
Continuous
 62
     7
100
AcDbCircle
 10
24.5325462644
 20
679.4125077087
 30
0.0
 40
0.700000000000001
100
AcDbArc
 50
180.0
 51
270.0
  0
LINE
  5
D4
330
88
100
AcDbEntity
  8
$DDT_AUDIT_GENERATED_(BA)
  6
Continuous
 62
     7
100
AcDbLine
 10
24.5325462644
 20
678.7125077087
 30
0.0
 11
40.1325462644
 21
678.7125077087
 31
0.0
  0
ARC
  5
D5
330
88
100
AcDbEntity
  8
$DDT_AUDIT_GENERATED_(BA)
  6
Continuous
 62
     7
100
AcDbCircle
 10
40.1325462644
 20
679.4125077087
 30
0.0
 40
0.6999999999999784
100
AcDbArc
 50
270.0
 51
0.0
  0
ARC
  5
D7
330
88
100
AcDbEntity
  8
$DDT_AUDIT_GENERATED_(D6)
  6
Continuous
 62
     7
100
AcDbCircle
 10
32.3325462644
 20
649.5527622511
 30
0.0
 40
20.00000000000003
100
AcDbArc
 50
147.5521471948
 51
151.9657034651
  0
ARC
  5
D8
330
88
100
AcDbEntity
  8
$DDT_AUDIT_GENERATED_(D6)
  6
Continuous
 62
     7
100
AcDbCircle
 10
32.3325462644
 20
649.5527622511
 30
0.0
 40
20.00000000000001
100
AcDbArc
 50
28.0342965349
 51
32.4478528052
  0
LINE
  5
DA
330
88
100
AcDbEntity
  8
$DDT_AUDIT_GENERATED_(D9)
  6
Continuous
 62
     7
100
AcDbLine
 10
56.7325462644
 20
366.9527622511
 30
0.0
 11
57.7496219812
 21
366.9527622511
 31
0.0
  0
LINE
  5
DB
330
88
100
AcDbEntity
  8
$DDT_AUDIT_GENERATED_(D9)
  6
Continuous
 62
     7
100
AcDbLine
 10
6.9154705476
 20
366.9527622511
 30
0.0
 11
7.9325462644
 21
366.9527622511
 31
0.0
  0
LINE
  5
DC
330
88
100
AcDbEntity
  8
$DDT_AUDIT_GENERATED_(D9)
  6
Continuous
 62
     7
100
AcDbLine
 10
7.9325462644
 20
366.9527622511
 30
0.0
 11
56.7325462644
 21
366.9527622511
 31
0.0
  0
LINE
  5
DD
330
88
100
AcDbEntity
  8
$DDT_AUDIT_GENERATED_(D9)
  6
Continuous
 62
     7
100
AcDbLine
 10
6.4154895861
 20
366.4571255189
 30
0.0
 11
6.35
 21
358.9527622511
 31
0.0
  0
LINE
  5
DE
330
88
100
AcDbEntity
  8
$DDT_AUDIT_GENERATED_(D9)
  6
Continuous
 62
     7
100
AcDbLine
 10
58.2496029427
 20
366.4571255189
 30
0.0
 11
58.3150925288
 21
358.9527622511
 31
0.0
  0
ARC
  5
DF
330
88
100
AcDbEntity
  8
$DDT_AUDIT_GENERATED_(D9)
  6
Continuous
 62
     7
100
AcDbCircle
 10
6.9154705476
 20
366.4527622511
 30
0.0
 40
0.5000000000000004
100
AcDbArc
 50
90.0
 51
179.5
  0
ARC
  5
E0
330
88
100
AcDbEntity
  8
$DDT_AUDIT_GENERATED_(D9)
  6
Continuous
 62
     7
100
AcDbCircle
 10
57.7496219812
 20
366.4527622511
 30
0.0
 40
0.5000000000000014
100
AcDbArc
 50
0.5
 51
90.0
  0
LINE
  5
E1
330
88
100
AcDbEntity
  8
$DDT_AUDIT_GENERATED_(D9)
  6
Continuous
 62
     7
100
AcDbLine
 10
7.9325462644
 20
358.9527622511
 30
0.0
 11
6.35
 21
358.9527622511
 31
0.0
  0
LINE
  5
E2
330
88
100
AcDbEntity
  8
$DDT_AUDIT_GENERATED_(D9)
  6
Continuous
 62
     7
100
AcDbLine
 10
58.3150925288
 20
358.9527622511
 30
0.0
 11
56.7325462644
 21
358.9527622511
 31
0.0
  0
LINE
  5
E3
330
88
100
AcDbEntity
  8
$DDT_AUDIT_GENERATED_(D9)
  6
Continuous
 62
     7
100
AcDbLine
 10
56.7325462644
 20
358.9527622511
 30
0.0
 11
7.9325462644
 21
358.9527622511
 31
0.0
  0
LINE
  5
E5
330
88
100
AcDbEntity
  8
$DDT_AUDIT_GENERATED_(E4)
  6
Continuous
 62
     7
100
AcDbLine
 10
24.4764211028
 20
602.5643350156
 30
0.0
 11
24.4772225238
 21
602.5206678857
 31
0.0
  0
LINE
  5
E6
330
88
100
AcDbEntity
  8
$DDT_AUDIT_GENERATED_(E4)
  6
Continuous
 62
     7
100
AcDbLine
 10
23.2732819255
 20
602.5185716281
 30
0.0
 11
23.274074366
 21
602.5622415331
 31
0.0
  0
LINE
  5
E7
330
88
100
AcDbEntity
  8
$DDT_AUDIT_GENERATED_(E4)
  6
Continuous
 62
     7
100
AcDbLine
 10
40.7653119528
 20
602.5490281156
 30
0.0
 11
40.7661043932
 21
602.5926980207
 31
0.0
  0
LINE
  5
E8
330
88
100
AcDbEntity
  8
$DDT_AUDIT_GENERATED_(E4)
  6
Continuous
 62
     7
100
AcDbLine
 10
41.9685987234
 20
602.5867495605
 30
0.0
 11
41.9692525511
 21
602.5511243733
 31
0.0
  0
LINE
  5
E9
330
88
100
AcDbEntity
  8
$DDT_AUDIT_GENERATED_(E4)
  6
Continuous
 62
     7
100
AcDbLine
 10
23.2820152992
 20
602.0396028898
 30
0.0
 11
23.2868619437
 21
602.3066923668
 31
0.0
  0
LINE
  5
EA
330
88
100
AcDbEntity
  8
$DDT_AUDIT_GENERATED_(E4)
  6
Continuous
 62
     7
100
AcDbLine
 10
23.2868619437
 20
602.3066923668
 30
0.0
 11
23.2859882361
 21
602.3546095464
 31
0.0
  0
LINE
  5
EB
330
88
100
AcDbEntity
  8
$DDT_AUDIT_GENERATED_(E4)
  6
Continuous
 62
     7
100
AcDbLine
 10
24.4810543265
 20
602.3087716512
 30
0.0
 11
23.2868619437
 21
602.3066923668
 31
0.0
  0
LINE
  5
EC
330
88
100
AcDbEntity
  8
$DDT_AUDIT_GENERATED_(E4)
  6
Continuous
 62
     7
100
AcDbLine
 10
24.4801806189
 20
602.3566888309
 30
0.0
 11
24.4810543265
 21
602.3087716512
 31
0.0
  0
ARC
  5
ED
330
88
100
AcDbEntity
  8
$DDT_AUDIT_GENERATED_(E4)
  6
Continuous
 62
     7
100
AcDbCircle
 10
23.0920769061
 20
602.5338957438
 30
0.0
 40
0.1818518286464964
100
AcDbArc
 50
287.6228207941
 51
355.1661217156
  0
SPLINE
  5
EE
330
88
100
AcDbEntity
  8
$DDT_AUDIT_GENERATED_(E4)
  6
Continuous
 62
     7
100
AcDbSpline
210
0.0
220
0.0
230
1.0
 70
    12
 71
     3
 72
     8
 73
     4
 74
     0
 42
0.0000000527968675
 43
0.0000000001
 40
0.7945508165789869
 40
0.7945508165789869
 40
0.7945508165789869
 40
0.7945508165789869
 40
1.0
 40
1.0
 40
1.0
 40
1.0
 10
23.18528826454548
 20
602.3544411896175
 30
0.0
 41
0.9063821118792723
 10
23.17271286903824
 20
602.35455673213
 30
0.0
 41
0.9295190632375994
 10
23.15988279401294
 20
602.3566822748194
 30
0.0
 41
0.9607250259445086
 10
23.1471324600914
 20
602.3605781926299
 30
0.0
 41
1.0
  0
SPLINE
  5
EF
330
88
100
AcDbEntity
  8
$DDT_AUDIT_GENERATED_(E4)
  6
Continuous
 62
     7
100
AcDbSpline
210
0.0
220
0.0
230
1.0
 70
    12
 71
     3
 72
     8
 73
     4
 74
     0
 42
0.0000000533555842
 43
0.0000000001
 40
0.0
 40
0.0
 40
0.0
 40
0.0
 40
0.1960326699915187
 40
0.1960326699915187
 40
0.1960326699915187
 40
0.1960326699915187
 10
24.60480162902801
 20
602.363116233258
 30
0.0
 41
1.0
 10
24.59279451938431
 20
602.3593637827031
 30
0.0
 41
0.9625251466083177
 10
24.58070819417269
 20
602.3572155241566
 30
0.0
 41
0.9323965887845476
 10
24.56882761944107
 20
602.3568829111939
 30
0.0
 41
0.9096143265286897
  0
ARC
  5
F0
330
88
100
AcDbEntity
  8
$DDT_AUDIT_GENERATED_(E4)
  6
Continuous
 62
     7
100
AcDbCircle
 10
24.6579972904
 20
602.5366220651
 30
0.0
 40
0.1814774147467424
100
AcDbArc
 50
185.043540692
 51
252.9548307336
  0
LINE
  5
F1
330
88
100
AcDbEntity
  8
$DDT_AUDIT_GENERATED_(E4)
  6
Continuous
 62
     7
100
AcDbLine
 10
24.4810543265
 20
602.3087716512
 30
0.0
 11
24.4859558975
 21
602.0416991475
 31
0.0
  0
LINE
  5
F2
330
88
100
AcDbEntity
  8
$DDT_AUDIT_GENERATED_(E4)
  6
Continuous
 62
     7
100
AcDbLine
 10
25.9340902717
 20
602.5668730562
 30
0.0
 11
25.9348916928
 21
602.5232059263
 31
0.0
  0
LINE
  5
F3
330
88
100
AcDbEntity
  8
$DDT_AUDIT_GENERATED_(E4)
  6
Continuous
 62
     7
100
AcDbLine
 10
24.7309510945
 20
602.5211096687
 30
0.0
 11
24.7317435349
 21
602.5647795738
 31
0.0
  0
LINE
  5
F4
330
88
100
AcDbEntity
  8
$DDT_AUDIT_GENERATED_(E4)
  6
Continuous
 62
     7
100
AcDbLine
 10
26.1886202634
 20
602.5236477093
 30
0.0
 11
26.1894127039
 21
602.5673176144
 31
0.0
  0
LINE
  5
F5
330
88
100
AcDbEntity
  8
$DDT_AUDIT_GENERATED_(E4)
  6
Continuous
 62
     7
100
AcDbLine
 10
27.3917594406
 20
602.5694110969
 30
0.0
 11
27.3925608617
 21
602.525743967
 31
0.0
  0
LINE
  5
F6
330
88
100
AcDbEntity
  8
$DDT_AUDIT_GENERATED_(E4)
  6
Continuous
 62
     7
100
AcDbLine
 10
28.8494286096
 20
602.5719491375
 30
0.0
 11
28.8502300307
 21
602.5282820076
 31
0.0
  0
LINE
  5
F7
330
88
100
AcDbEntity
  8
$DDT_AUDIT_GENERATED_(E4)
  6
Continuous
 62
     7
100
AcDbLine
 10
27.6462894323
 20
602.52618575
 30
0.0
 11
27.6470818728
 21
602.569855655
 31
0.0
  0
LINE
  5
F8
330
88
100
AcDbEntity
  8
$DDT_AUDIT_GENERATED_(E4)
  6
Continuous
 62
     7
100
AcDbLine
 10
30.3070977785
 20
602.5744871781
 30
0.0
 11
30.3078991996
 21
602.5308200482
 31
0.0
  0
LINE
  5
F9
330
88
100
AcDbEntity
  8
$DDT_AUDIT_GENERATED_(E4)
  6
Continuous
 62
     7
100
AcDbLine
 10
29.1039586013
 20
602.5287237906
 30
0.0
 11
29.1047510417
 21
602.5723936956
 31
0.0
  0
LINE
  5
FA
330
88
100
AcDbEntity
  8
$DDT_AUDIT_GENERATED_(E4)
  6
Continuous
 62
     7
100
AcDbLine
 10
31.7647669474
 20
602.5770252187
 30
0.0
 11
31.7655683685
 21
602.5333580889
 31
0.0
  0
LINE
  5
FB
330
88
100
AcDbEntity
  8
$DDT_AUDIT_GENERATED_(E4)
  6
Continuous
 62
     7
100
AcDbLine
 10
30.5616277702
 20
602.5312618312
 30
0.0
 11
30.5624202107
 21
602.5749317363
 31
0.0
  0
LINE
  5
FC
330
88
100
AcDbEntity
  8
$DDT_AUDIT_GENERATED_(E4)
  6
Continuous
 62
     7
100
AcDbLine
 10
33.2224361164
 20
602.5795632594
 30
0.0
 11
33.2232375375
 21
602.5358961295
 31
0.0
  0
LINE
  5
FD
330
88
100
AcDbEntity
  8
$DDT_AUDIT_GENERATED_(E4)
  6
Continuous
 62
     7
100
AcDbLine
 10
32.0192969392
 20
602.5337998718
 30
0.0
 11
32.0200893796
 21
602.5774697769
 31
0.0
  0
LINE
  5
FE
330
88
100
AcDbEntity
  8
$DDT_AUDIT_GENERATED_(E4)
  6
Continuous
 62
     7
100
AcDbLine
 10
34.6801052853
 20
602.5821013
 30
0.0
 11
34.6809067064
 21
602.5384341701
 31
0.0
  0
LINE
  5
FF
330
88
100
AcDbEntity
  8
$DDT_AUDIT_GENERATED_(E4)
  6
Continuous
 62
     7
100
AcDbLine
 10
33.4769661081
 20
602.5363379125
 30
0.0
 11
33.4777585485
 21
602.5800078175
 31
0.0
  0
LINE
  5
100
330
88
100
AcDbEntity
  8
$DDT_AUDIT_GENERATED_(E4)
  6
Continuous
 62
     7
100
AcDbLine
 10
36.1377744542
 20
602.5846393406
 30
0.0
 11
36.1385758753
 21
602.5409722107
 31
0.0
  0
LINE
  5
101
330
88
100
AcDbEntity
  8
$DDT_AUDIT_GENERATED_(E4)
  6
Continuous
 62
     7
100
AcDbLine
 10
34.934635277
 20
602.5388759531
 30
0.0
 11
34.9354277175
 21
602.5825458581
 31
0.0
  0
LINE
  5
102
330
88
100
AcDbEntity
  8
$DDT_AUDIT_GENERATED_(E4)
  6
Continuous
 62
     7
100
AcDbLine
 10
37.5954436232
 20
602.5871773813
 30
0.0
 11
37.5962450443
 21
602.5435102514
 31
0.0
  0
LINE
  5
103
330
88
100
AcDbEntity
  8
$DDT_AUDIT_GENERATED_(E4)
  6
Continuous
 62
     7
100
AcDbLine
 10
36.392304446
 20
602.5414139937
 30
0.0
 11
36.3930968864
 21
602.5850838988
 31
0.0
  0
LINE
  5
104
330
88
100
AcDbEntity
  8
$DDT_AUDIT_GENERATED_(E4)
  6
Continuous
 62
     7
100
AcDbLine
 10
37.8499736149
 20
602.5439520343
 30
0.0
 11
37.8507660553
 21
602.5876219394
 31
0.0
  0
LINE
  5
105
330
88
100
AcDbEntity
  8
$DDT_AUDIT_GENERATED_(E4)
  6
Continuous
 62
     7
100
AcDbLine
 10
39.0531127921
 20
602.5897154219
 30
0.0
 11
39.0539142132
 21
602.546048292
 31
0.0
  0
LINE
  5
106
330
88
100
AcDbEntity
  8
$DDT_AUDIT_GENERATED_(E4)
  6
Continuous
 62
     7
100
AcDbLine
 10
40.5107819611
 20
602.5922534625
 30
0.0
 11
40.5115833821
 21
602.5485863326
 31
0.0
  0
ARC
  5
107
330
88
100
AcDbEntity
  8
$DDT_AUDIT_GENERATED_(E4)
  6
Continuous
 62
     7
100
AcDbCircle
 10
40.5841069334
 20
602.5643522314
 30
0.0
 40
0.1818518286464598
100
AcDbArc
 50
287.6228207941
 51
355.1661217156
  0
LINE
  5
108
330
88
100
AcDbEntity
  8
$DDT_AUDIT_GENERATED_(E4)
  6
Continuous
 62
     7
100
AcDbLine
 10
39.3076427838
 20
602.546490075
 30
0.0
 11
39.3084352243
 21
602.59015998
 31
0.0
  0
LINE
  5
109
330
88
100
AcDbEntity
  8
$DDT_AUDIT_GENERATED_(E4)
  6
Continuous
 62
     7
100
AcDbLine
 10
40.7740453264
 20
602.0700593774
 30
0.0
 11
40.7788919709
 21
602.3371488543
 31
0.0
  0
LINE
  5
10A
330
88
100
AcDbEntity
  8
$DDT_AUDIT_GENERATED_(E4)
  6
Continuous
 62
     7
100
AcDbLine
 10
40.7788919709
 20
602.3371488543
 30
0.0
 11
40.7780182633
 21
602.385066034
 31
0.0
  0
LINE
  5
10B
330
88
100
AcDbEntity
  8
$DDT_AUDIT_GENERATED_(E4)
  6
Continuous
 62
     7
100
AcDbLine
 10
41.9730843537
 20
602.3392281387
 30
0.0
 11
40.7788919709
 21
602.3371488543
 31
0.0
  0
LINE
  5
10C
330
88
100
AcDbEntity
  8
$DDT_AUDIT_GENERATED_(E4)
  6
Continuous
 62
     7
100
AcDbLine
 10
41.9722106461
 20
602.3871453184
 30
0.0
 11
41.9730843537
 21
602.3392281387
 31
0.0
  0
LINE
  5
10D
330
88
100
AcDbEntity
  8
$DDT_AUDIT_GENERATED_(E4)
  6
Continuous
 62
     7
100
AcDbLine
 10
41.9730843537
 20
602.3392281387
 30
0.0
 11
41.9779859247
 21
602.072155635
 31
0.0
  0
ARC
  5
10E
330
88
100
AcDbEntity
  8
$DDT_AUDIT_GENERATED_(E4)
  6
Continuous
 62
     7
100
AcDbCircle
 10
42.1500273177
 20
602.5670785526
 30
0.0
 40
0.1814774147729721
100
AcDbArc
 50
185.0435406919
 51
252.9548307276
  0
SPLINE
  5
10F
330
88
100
AcDbEntity
  8
$DDT_AUDIT_GENERATED_(E4)
  6
Continuous
 62
     7
100
AcDbSpline
210
0.0
220
0.0
230
1.0
 70
    12
 71
     3
 72
     8
 73
     4
 74
     0
 42
0.0000000527968675
 43
0.0000000001
 40
0.7945508165788557
 40
0.7945508165788557
 40
0.7945508165788557
 40
0.7945508165788557
 40
1.0
 40
1.0
 40
1.0
 40
1.0
 10
40.67731829178476
 20
602.3848976771555
 30
0.0
 41
0.906382111879228
 10
40.66474289627753
 20
602.3850132196679
 30
0.0
 41
0.9295190632375595
 10
40.65191282125222
 20
602.3871387623575
 30
0.0
 41
0.9607250259444835
 10
40.63916248733067
 20
602.3910346801679
 30
0.0
 41
1.0
  0
SPLINE
  5
110
330
88
100
AcDbEntity
  8
$DDT_AUDIT_GENERATED_(E4)
  6
Continuous
 62
     7
100
AcDbSpline
210
0.0
220
0.0
230
1.0
 70
    12
 71
     3
 72
     8
 73
     4
 74
     0
 42
0.0000000533555842
 43
0.0000000001
 40
0.0
 40
0.0
 40
0.0
 40
0.0
 40
0.1960326697734217
 40
0.1960326697734217
 40
0.1960326697734217
 40
0.1960326697734217
 10
42.09683165626762
 20
602.3935727207785
 30
0.0
 41
1.0
 10
42.08482454663458
 20
602.3898202702322
 30
0.0
 41
0.9625251466602694
 10
42.0727382214347
 20
602.3876720116905
 30
0.0
 41
0.9323965888700937
 10
42.06085764671472
 20
602.3873393987276
 30
0.0
 41
0.9096143266294727
  0
ARC
  5
111
330
88
100
AcDbEntity
  8
$DDT_AUDIT_GENERATED_(E4)
  6
Continuous
 62
     7
100
AcDbCircle
 10
23.1008102798
 20
602.0549270056
 30
0.0
 40
0.1818518286733272
100
AcDbArc
 50
287.6228208004
 51
355.1661217161
  0
ARC
  5
112
330
88
100
AcDbEntity
  8
$DDT_AUDIT_GENERATED_(E4)
  6
Continuous
 62
     7
100
AcDbCircle
 10
24.6667306641
 20
602.0576533268
 30
0.0
 40
0.1814774147732559
100
AcDbArc
 50
185.0435406915
 51
252.9548307275
  0
ARC
  5
113
330
88
100
AcDbEntity
  8
$DDT_AUDIT_GENERATED_(E4)
  6
Continuous
 62
     7
100
AcDbCircle
 10
26.1156664593
 20
602.5391601057
 30
0.0
 40
0.1814774147467481
100
AcDbArc
 50
185.043540692
 51
252.9548307336
  0
ARC
  5
114
330
88
100
AcDbEntity
  8
$DDT_AUDIT_GENERATED_(E4)
  6
Continuous
 62
     7
100
AcDbCircle
 10
24.5497460751
 20
602.5364337845
 30
0.0
 40
0.1818518286465198
100
AcDbArc
 50
287.6228207941
 51
355.1661217156
  0
ARC
  5
115
330
88
100
AcDbEntity
  8
$DDT_AUDIT_GENERATED_(E4)
  6
Continuous
 62
     7
100
AcDbCircle
 10
27.5733356283
 20
602.5416981463
 30
0.0
 40
0.1814774147467871
100
AcDbArc
 50
185.043540692
 51
252.9548307336
  0
ARC
  5
116
330
88
100
AcDbEntity
  8
$DDT_AUDIT_GENERATED_(E4)
  6
Continuous
 62
     7
100
AcDbCircle
 10
26.007415244
 20
602.5389718251
 30
0.0
 40
0.1818518286464877
100
AcDbArc
 50
287.6228207941
 51
355.1661217156
  0
ARC
  5
117
330
88
100
AcDbEntity
  8
$DDT_AUDIT_GENERATED_(E4)
  6
Continuous
 62
     7
100
AcDbCircle
 10
29.0310047972
 20
602.544236187
 30
0.0
 40
0.1814774147467444
100
AcDbArc
 50
185.043540692
 51
252.9548307336
  0
ARC
  5
118
330
88
100
AcDbEntity
  8
$DDT_AUDIT_GENERATED_(E4)
  6
Continuous
 62
     7
100
AcDbCircle
 10
27.4650844129
 20
602.5415098657
 30
0.0
 40
0.1818518286464445
100
AcDbArc
 50
287.6228207941
 51
355.1661217156
  0
ARC
  5
119
330
88
100
AcDbEntity
  8
$DDT_AUDIT_GENERATED_(E4)
  6
Continuous
 62
     7
100
AcDbCircle
 10
30.4886739662
 20
602.5467742276
 30
0.0
 40
0.1814774147467763
100
AcDbArc
 50
185.043540692
 51
252.9548307336
  0
ARC
  5
11A
330
88
100
AcDbEntity
  8
$DDT_AUDIT_GENERATED_(E4)
  6
Continuous
 62
     7
100
AcDbCircle
 10
28.9227535819
 20
602.5440479064
 30
0.0
 40
0.1818518286464347
100
AcDbArc
 50
287.6228207941
 51
355.1661217156
  0
ARC
  5
11B
330
88
100
AcDbEntity
  8
$DDT_AUDIT_GENERATED_(E4)
  6
Continuous
 62
     7
100
AcDbCircle
 10
31.9463431351
 20
602.5493122682
 30
0.0
 40
0.1814774147467787
100
AcDbArc
 50
185.043540692
 51
252.9548307336
  0
ARC
  5
11C
330
88
100
AcDbEntity
  8
$DDT_AUDIT_GENERATED_(E4)
  6
Continuous
 62
     7
100
AcDbCircle
 10
30.3804227508
 20
602.546585947
 30
0.0
 40
0.1818518286464314
100
AcDbArc
 50
287.6228207941
 51
355.1661217156
  0
ARC
  5
11D
330
88
100
AcDbEntity
  8
$DDT_AUDIT_GENERATED_(E4)
  6
Continuous
 62
     7
100
AcDbCircle
 10
33.404012304
 20
602.5518503088
 30
0.0
 40
0.1814774147467786
100
AcDbArc
 50
185.043540692
 51
252.9548307336
  0
ARC
  5
11E
330
88
100
AcDbEntity
  8
$DDT_AUDIT_GENERATED_(E4)
  6
Continuous
 62
     7
100
AcDbCircle
 10
31.8380919198
 20
602.5491239876
 30
0.0
 40
0.1818518286464084
100
AcDbArc
 50
287.6228207941
 51
355.1661217156
  0
ARC
  5
11F
330
88
100
AcDbEntity
  8
$DDT_AUDIT_GENERATED_(E4)
  6
Continuous
 62
     7
100
AcDbCircle
 10
34.861681473
 20
602.5543883495
 30
0.0
 40
0.1814774147467797
100
AcDbArc
 50
185.043540692
 51
252.9548307336
  0
ARC
  5
120
330
88
100
AcDbEntity
  8
$DDT_AUDIT_GENERATED_(E4)
  6
Continuous
 62
     7
100
AcDbCircle
 10
33.2957610887
 20
602.5516620282
 30
0.0
 40
0.1818518286464324
100
AcDbArc
 50
287.6228207941
 51
355.1661217156
  0
ARC
  5
121
330
88
100
AcDbEntity
  8
$DDT_AUDIT_GENERATED_(E4)
  6
Continuous
 62
     7
100
AcDbCircle
 10
36.3193506419
 20
602.5569263901
 30
0.0
 40
0.1814774147467585
100
AcDbArc
 50
185.043540692
 51
252.9548307336
  0
ARC
  5
122
330
88
100
AcDbEntity
  8
$DDT_AUDIT_GENERATED_(E4)
  6
Continuous
 62
     7
100
AcDbCircle
 10
34.7534302576
 20
602.5542000689
 30
0.0
 40
0.181851828646437
100
AcDbArc
 50
287.6228207941
 51
355.1661217156
  0
ARC
  5
123
330
88
100
AcDbEntity
  8
$DDT_AUDIT_GENERATED_(E4)
  6
Continuous
 62
     7
100
AcDbCircle
 10
37.7770198108
 20
602.5594644307
 30
0.0
 40
0.1814774147467636
100
AcDbArc
 50
185.043540692
 51
252.9548307336
  0
ARC
  5
124
330
88
100
AcDbEntity
  8
$DDT_AUDIT_GENERATED_(E4)
  6
Continuous
 62
     7
100
AcDbCircle
 10
36.2110994266
 20
602.5567381095
 30
0.0
 40
0.1818518286464239
100
AcDbArc
 50
287.6228207941
 51
355.1661217156
  0
ARC
  5
125
330
88
100
AcDbEntity
  8
$DDT_AUDIT_GENERATED_(E4)
  6
Continuous
 62
     7
100
AcDbCircle
 10
39.2346889798
 20
602.5620024714
 30
0.0
 40
0.1814774147467835
100
AcDbArc
 50
185.043540692
 51
252.9548307336
  0
ARC
  5
126
330
88
100
AcDbEntity
  8
$DDT_AUDIT_GENERATED_(E4)
  6
Continuous
 62
     7
100
AcDbCircle
 10
37.6687685955
 20
602.5592761501
 30
0.0
 40
0.1818518286464225
100
AcDbArc
 50
287.6228207941
 51
355.1661217156
  0
ARC
  5
127
330
88
100
AcDbEntity
  8
$DDT_AUDIT_GENERATED_(E4)
  6
Continuous
 62
     7
100
AcDbCircle
 10
40.6923581487
 20
602.564540512
 30
0.0
 40
0.1814774147467331
100
AcDbArc
 50
185.043540692
 51
252.9548307336
  0
ARC
  5
128
330
88
100
AcDbEntity
  8
$DDT_AUDIT_GENERATED_(E4)
  6
Continuous
 62
     7
100
AcDbCircle
 10
39.1264377644
 20
602.5618141908
 30
0.0
 40
0.1818518286464282
100
AcDbArc
 50
287.6228207941
 51
355.1661217156
  0
ARC
  5
129
330
88
100
AcDbEntity
  8
$DDT_AUDIT_GENERATED_(E4)
  6
Continuous
 62
     7
100
AcDbCircle
 10
40.592840307
 20
602.0853834932
 30
0.0
 40
0.181851828673366
100
AcDbArc
 50
287.6228208004
 51
355.1661217161
  0
ARC
  5
12A
330
88
100
AcDbEntity
  8
$DDT_AUDIT_GENERATED_(E4)
  6
Continuous
 62
     7
100
AcDbCircle
 10
42.1587606913
 20
602.0881098144
 30
0.0
 40
0.1814774147732769
100
AcDbArc
 50
185.0435406915
 51
252.9548307275
  0
ARC
  5
12B
330
88
100
AcDbEntity
  8
$DDT_AUDIT_GENERATED_(E4)
  6
Continuous
 62
     7
100
AcDbCircle
 10
42.050509476
 20
602.0879215338
 30
0.0
 40
0.1818518286676392
100
AcDbArc
 50
287.6228207979
 51
355.1661217055
  0
SPLINE
  5
12C
330
88
100
AcDbEntity
  8
$DDT_AUDIT_GENERATED_(E4)
  6
Continuous
 62
     7
100
AcDbSpline
210
0.0
220
0.0
230
1.0
 70
    12
 71
     3
 72
     8
 73
     4
 74
     0
 42
0.0000000527968675
 43
0.0000000001
 40
0.7945508167944221
 40
0.7945508167944221
 40
0.7945508167944221
 40
0.7945508167944221
 40
1.0
 40
1.0
 40
1.0
 40
1.0
 10
42.13498746068766
 20
602.387435717779
 30
0.0
 41
0.9063821119776854
 10
42.12241206519205
 20
602.3875512602921
 30
0.0
 41
0.9295190633223395
 10
42.10958199017853
 20
602.3896768029771
 30
0.0
 41
0.9607250259964444
 10
42.09683165626762
 20
602.3935727207785
 30
0.0
 41
1.0
  0
LINE
  5
12D
330
88
100
AcDbEntity
  8
$DDT_AUDIT_GENERATED_(E4)
  6
Continuous
 62
     7
100
AcDbLine
 10
42.2229811217
 20
602.5515661562
 30
0.0
 11
42.2234229332
 21
602.5759135561
 31
0.0
  0
ARC
  5
12E
330
88
100
AcDbEntity
  8
$DDT_AUDIT_GENERATED_(E4)
  6
Continuous
 62
     7
100
AcDbCircle
 10
42.0417761023
 20
602.566890272
 30
0.0
 40
0.1818518286679197
100
AcDbArc
 50
287.622820798
 51
355.1661217059
  0
LINE
  5
12F
330
88
100
AcDbEntity
  8
$DDT_AUDIT_GENERATED_(E4)
  6
Continuous
 62
     7
100
AcDbLine
 10
42.2317144954
 20
602.072597418
 30
0.0
 11
42.2365611398
 21
602.339686895
 31
0.0
  0
LINE
  5
130
330
88
100
AcDbEntity
  8
$DDT_AUDIT_GENERATED_(E4)
  6
Continuous
 62
     7
100
AcDbLine
 10
42.2365611398
 20
602.339686895
 30
0.0
 11
42.2356874322
 21
602.3876040746
 31
0.0
  0
LINE
  5
131
330
88
100
AcDbEntity
  8
$DDT_AUDIT_GENERATED_(E4)
  6
Continuous
 62
     7
100
AcDbLine
 10
23.0187627181
 20
602.5612093704
 30
0.0
 11
23.0195533549
 21
602.5181298451
 31
0.0
  0
ARC
  5
132
330
88
100
AcDbEntity
  8
$DDT_AUDIT_GENERATED_(E4)
  6
Continuous
 62
     7
100
AcDbCircle
 10
23.2003281215
 20
602.5340840244
 30
0.0
 40
0.1814774147467514
100
AcDbArc
 50
185.043540692
 51
252.9548307335
  0
ARC
  5
133
330
88
100
AcDbEntity
  8
$DDT_AUDIT_GENERATED_(E4)
  6
Continuous
 62
     7
100
AcDbCircle
 10
23.2090614952
 20
602.0551152862
 30
0.0
 40
0.181477414773256
100
AcDbArc
 50
185.0435406915
 51
252.9548307275
  0
SPLINE
  5
134
330
88
100
AcDbEntity
  8
$DDT_AUDIT_GENERATED_(E4)
  6
Continuous
 62
     7
100
AcDbSpline
210
0.0
220
0.0
230
1.0
 70
    12
 71
     3
 72
     8
 73
     4
 74
     0
 42
0.0000000533555842
 43
0.0000000001
 40
0.0
 40
0.0
 40
0.0
 40
0.0
 40
0.1960326699913209
 40
0.1960326699913209
 40
0.1960326699913209
 40
0.1960326699913209
 10
23.1471324600914
 20
602.3605781926299
 30
0.0
 41
1.0
 10
23.13512535044771
 20
602.356825742075
 30
0.0
 41
0.9625251466083555
 10
23.1230390252361
 20
602.3546774835285
 30
0.0
 41
0.9323965887846084
 10
23.11115845050449
 20
602.3543448705658
 30
0.0
 41
0.9096143265287586
  0
LINE
  5
135
330
88
100
AcDbEntity
  8
$DDT_AUDIT_GENERATED_(E4)
  6
Continuous
 62
     7
100
AcDbLine
 10
23.0225114499
 20
602.3541507902
 30
0.0
 11
23.0233851575
 21
602.3062336106
 31
0.0
  0
LINE
  5
136
330
88
100
AcDbEntity
  8
$DDT_AUDIT_GENERATED_(E4)
  6
Continuous
 62
     7
100
AcDbLine
 10
23.0233851575
 20
602.3062336106
 30
0.0
 11
23.0282867286
 21
602.0391611069
 31
0.0
  0
SPLINE
  5
137
330
88
100
AcDbEntity
  8
$DDT_AUDIT_GENERATED_(E4)
  6
Continuous
 62
     7
100
AcDbSpline
210
0.0
220
0.0
230
1.0
 70
    12
 71
     3
 72
     8
 73
     4
 74
     0
 42
0.0000000527968675
 43
0.0000000001
 40
0.7945508168155233
 40
0.7945508168155233
 40
0.7945508168155233
 40
0.7945508168155233
 40
1.0
 40
1.0
 40
1.0
 40
1.0
 10
23.19402163816734
 20
601.8754724513866
 30
0.0
 41
0.9063821119848835
 10
23.18144624267299
 20
601.8755879939001
 30
0.0
 41
0.9295190633288016
 10
23.16861616766083
 20
601.8777135365849
 30
0.0
 41
0.9607250260005071
 10
23.15586583375128
 20
601.881609454386
 30
0.0
 41
1.0
  0
SPLINE
  5
138
330
88
100
AcDbEntity
  8
$DDT_AUDIT_GENERATED_(E4)
  6
Continuous
 62
     7
100
AcDbSpline
210
0.0
220
0.0
230
1.0
 70
    12
 71
     3
 72
     8
 73
     4
 74
     0
 42
0.0000000533555842
 43
0.0000000001
 40
0.0
 40
0.0
 40
0.0
 40
0.0
 40
0.1960326697522866
 40
0.1960326697522866
 40
0.1960326697522866
 40
0.1960326697522866
 10
24.61353500268789
 20
601.8841474950141
 30
0.0
 41
1.0
 10
24.6015278930562
 20
601.8803950444684
 30
0.0
 41
0.9625251466642819
 10
24.58944156785766
 20
601.8782467859266
 30
0.0
 41
0.9323965888765401
 10
24.57756099313893
 20
601.8779141729632
 30
0.0
 41
0.9096143266367744
  0
ARC
  5
139
330
88
100
AcDbEntity
  8
$DDT_AUDIT_GENERATED_(E4)
  6
Continuous
 62
     7
100
AcDbCircle
 10
24.5584794487
 20
602.0574650463
 30
0.0
 40
0.1818518286733406
100
AcDbArc
 50
287.6228208004
 51
355.1661217161
  0
SPLINE
  5
13A
330
88
100
AcDbEntity
  8
$DDT_AUDIT_GENERATED_(E4)
  6
Continuous
 62
     7
100
AcDbSpline
210
0.0
220
0.0
230
1.0
 70
    12
 71
     3
 72
     8
 73
     4
 74
     0
 42
0.0000000527968675
 43
0.0000000001
 40
0.7945508165789495
 40
0.7945508165789495
 40
0.7945508165789495
 40
0.7945508165789495
 40
1.0
 40
1.0
 40
1.0
 40
1.0
 10
24.6429574334821
 20
602.3569792302457
 30
0.0
 41
0.9063821118792598
 10
24.63038203797485
 20
602.3570947727582
 30
0.0
 41
0.929519063237588
 10
24.61755196294955
 20
602.3592203154476
 30
0.0
 41
0.9607250259445015
 10
24.60480162902801
 20
602.363116233258
 30
0.0
 41
1.0
  0
LINE
  5
13B
330
88
100
AcDbEntity
  8
$DDT_AUDIT_GENERATED_(E4)
  6
Continuous
 62
     7
100
AcDbLine
 10
24.7396844681
 20
602.0421409305
 30
0.0
 11
24.7445311126
 21
602.3092304074
 31
0.0
  0
LINE
  5
13C
330
88
100
AcDbEntity
  8
$DDT_AUDIT_GENERATED_(E4)
  6
Continuous
 62
     7
100
AcDbLine
 10
24.7445311126
 20
602.3092304074
 30
0.0
 11
24.743657405
 21
602.3571475871
 31
0.0
  0
SPLINE
  5
13D
330
88
100
AcDbEntity
  8
$DDT_AUDIT_GENERATED_(E4)
  6
Continuous
 62
     7
100
AcDbSpline
210
0.0
220
0.0
230
1.0
 70
    12
 71
     3
 72
     8
 73
     4
 74
     0
 42
0.0000000533555842
 43
0.0000000001
 40
0.0
 40
0.0
 40
0.0
 40
0.0
 40
0.1960326699914538
 40
0.1960326699914538
 40
0.1960326699914538
 40
0.1960326699914538
 10
26.06247079796461
 20
602.3656542738862
 30
0.0
 41
1.0
 10
26.05046368832092
 20
602.3619018233313
 30
0.0
 41
0.9625251466083301
 10
26.0383773631093
 20
602.3597535647849
 30
0.0
 41
0.9323965887845675
 10
26.02649678837768
 20
602.3594209518221
 30
0.0
 41
0.9096143265287123
  0
SPLINE
  5
13E
330
88
100
AcDbEntity
  8
$DDT_AUDIT_GENERATED_(E4)
  6
Continuous
 62
     7
100
AcDbSpline
210
0.0
220
0.0
230
1.0
 70
    12
 71
     3
 72
     8
 73
     4
 74
     0
 42
0.0000000527968675
 43
0.0000000001
 40
0.7945508165789169
 40
0.7945508165789169
 40
0.7945508165789169
 40
0.7945508165789169
 40
1.0
 40
1.0
 40
1.0
 40
1.0
 10
26.10062660241871
 20
602.3595172708739
 30
0.0
 41
0.9063821118792488
 10
26.08805120691147
 20
602.3596328133865
 30
0.0
 41
0.9295190632375782
 10
26.07522113188616
 20
602.3617583560758
 30
0.0
 41
0.9607250259444953
 10
26.06247079796461
 20
602.3656542738862
 30
0.0
 41
1.0
  0
SPLINE
  5
13F
330
88
100
AcDbEntity
  8
$DDT_AUDIT_GENERATED_(E4)
  6
Continuous
 62
     7
100
AcDbSpline
210
0.0
220
0.0
230
1.0
 70
    12
 71
     3
 72
     8
 73
     4
 74
     0
 42
0.0000000533555842
 43
0.0000000001
 40
0.0
 40
0.0
 40
0.0
 40
0.0
 40
0.1960326699915644
 40
0.1960326699915644
 40
0.1960326699915644
 40
0.1960326699915644
 10
27.52013996690123
 20
602.3681923145143
 30
0.0
 41
1.0
 10
27.50813285725752
 20
602.3644398639594
 30
0.0
 41
0.9625251466083089
 10
27.49604653204589
 20
602.362291605413
 30
0.0
 41
0.9323965887845335
 10
27.48416595731427
 20
602.3619589924502
 30
0.0
 41
0.9096143265286737
  0
SPLINE
  5
140
330
88
100
AcDbEntity
  8
$DDT_AUDIT_GENERATED_(E4)
  6
Continuous
 62
     7
100
AcDbSpline
210
0.0
220
0.0
230
1.0
 70
    12
 71
     3
 72
     8
 73
     4
 74
     0
 42
0.0000000527968675
 43
0.0000000001
 40
0.7945508165789182
 40
0.7945508165789182
 40
0.7945508165789182
 40
0.7945508165789182
 40
1.0
 40
1.0
 40
1.0
 40
1.0
 10
27.55829577135531
 20
602.3620553115021
 30
0.0
 41
0.9063821118792487
 10
27.54572037584807
 20
602.3621708540146
 30
0.0
 41
0.9295190632375782
 10
27.53289030082277
 20
602.3642963967039
 30
0.0
 41
0.9607250259444953
 10
27.52013996690123
 20
602.3681923145143
 30
0.0
 41
1.0
  0
SPLINE
  5
141
330
88
100
AcDbEntity
  8
$DDT_AUDIT_GENERATED_(E4)
  6
Continuous
 62
     7
100
AcDbSpline
210
0.0
220
0.0
230
1.0
 70
    12
 71
     3
 72
     8
 73
     4
 74
     0
 42
0.0000000533555842
 43
0.0000000001
 40
0.0
 40
0.0
 40
0.0
 40
0.0
 40
0.1960326699913963
 40
0.1960326699913963
 40
0.1960326699913963
 40
0.1960326699913963
 10
28.97780913583783
 20
602.3707303551425
 30
0.0
 41
1.0
 10
28.96580202619414
 20
602.3669779045875
 30
0.0
 41
0.9625251466083413
 10
28.95371570098252
 20
602.3648296460411
 30
0.0
 41
0.9323965887845855
 10
28.94183512625091
 20
602.3644970330785
 30
0.0
 41
0.9096143265287328
  0
SPLINE
  5
142
330
88
100
AcDbEntity
  8
$DDT_AUDIT_GENERATED_(E4)
  6
Continuous
 62
     7
100
AcDbSpline
210
0.0
220
0.0
230
1.0
 70
    12
 71
     3
 72
     8
 73
     4
 74
     0
 42
0.0000000527968675
 43
0.0000000001
 40
0.7945508165788442
 40
0.7945508165788442
 40
0.7945508165788442
 40
0.7945508165788442
 40
1.0
 40
1.0
 40
1.0
 40
1.0
 10
29.01596494029194
 20
602.3645933521302
 30
0.0
 41
0.9063821118792231
 10
29.00338954478469
 20
602.3647088946427
 30
0.0
 41
0.9295190632375553
 10
28.99055946975938
 20
602.366834437332
 30
0.0
 41
0.960725025944481
 10
28.97780913583783
 20
602.3707303551425
 30
0.0
 41
1.0
  0
SPLINE
  5
143
330
88
100
AcDbEntity
  8
$DDT_AUDIT_GENERATED_(E4)
  6
Continuous
 62
     7
100
AcDbSpline
210
0.0
220
0.0
230
1.0
 70
    12
 71
     3
 72
     8
 73
     4
 74
     0
 42
0.0000000533555842
 43
0.0000000001
 40
0.0
 40
0.0
 40
0.0
 40
0.0
 40
0.1960326699914947
 40
0.1960326699914947
 40
0.1960326699914947
 40
0.1960326699914947
 10
30.43547830477443
 20
602.3732683957707
 30
0.0
 41
1.0
 10
30.42347119513073
 20
602.3695159452158
 30
0.0
 41
0.9625251466083222
 10
30.41138486991911
 20
602.3673676866694
 30
0.0
 41
0.9323965887845549
 10
30.39950429518749
 20
602.3670350737067
 30
0.0
 41
0.909614326528698
  0
SPLINE
  5
144
330
88
100
AcDbEntity
  8
$DDT_AUDIT_GENERATED_(E4)
  6
Continuous
 62
     7
100
AcDbSpline
210
0.0
220
0.0
230
1.0
 70
    12
 71
     3
 72
     8
 73
     4
 74
     0
 42
0.0000000527968675
 43
0.0000000001
 40
0.7945508165788607
 40
0.7945508165788607
 40
0.7945508165788607
 40
0.7945508165788607
 40
1.0
 40
1.0
 40
1.0
 40
1.0
 10
30.47363410922853
 20
602.3671313927583
 30
0.0
 41
0.9063821118792292
 10
30.46105871372129
 20
602.3672469352708
 30
0.0
 41
0.9295190632375607
 10
30.44822863869598
 20
602.3693724779602
 30
0.0
 41
0.9607250259444843
 10
30.43547830477443
 20
602.3732683957707
 30
0.0
 41
1.0
  0
SPLINE
  5
145
330
88
100
AcDbEntity
  8
$DDT_AUDIT_GENERATED_(E4)
  6
Continuous
 62
     7
100
AcDbSpline
210
0.0
220
0.0
230
1.0
 70
    12
 71
     3
 72
     8
 73
     4
 74
     0
 42
0.0000000533555842
 43
0.0000000001
 40
0.0
 40
0.0
 40
0.0
 40
0.0
 40
0.1960326699915441
 40
0.1960326699915441
 40
0.1960326699915441
 40
0.1960326699915441
 10
31.89314747371104
 20
602.3758064363989
 30
0.0
 41
1.0
 10
31.88114036406734
 20
602.3720539858439
 30
0.0
 41
0.962525146608313
 10
31.86905403885571
 20
602.3699057272976
 30
0.0
 41
0.9323965887845401
 10
31.85717346412409
 20
602.3695731143348
 30
0.0
 41
0.9096143265286812
  0
SPLINE
  5
146
330
88
100
AcDbEntity
  8
$DDT_AUDIT_GENERATED_(E4)
  6
Continuous
 62
     7
100
AcDbSpline
210
0.0
220
0.0
230
1.0
 70
    12
 71
     3
 72
     8
 73
     4
 74
     0
 42
0.0000000527968675
 43
0.0000000001
 40
0.7945508165788746
 40
0.7945508165788746
 40
0.7945508165788746
 40
0.7945508165788746
 40
1.0
 40
1.0
 40
1.0
 40
1.0
 10
31.93130327816514
 20
602.3696694333867
 30
0.0
 41
0.906382111879234
 10
31.91872788265789
 20
602.369784975899
 30
0.0
 41
0.929519063237565
 10
31.90589780763259
 20
602.3719105185885
 30
0.0
 41
0.9607250259444869
 10
31.89314747371104
 20
602.3758064363989
 30
0.0
 41
1.0
  0
SPLINE
  5
147
330
88
100
AcDbEntity
  8
$DDT_AUDIT_GENERATED_(E4)
  6
Continuous
 62
     7
100
AcDbSpline
210
0.0
220
0.0
230
1.0
 70
    12
 71
     3
 72
     8
 73
     4
 74
     0
 42
0.0000000533555842
 43
0.0000000001
 40
0.0
 40
0.0
 40
0.0
 40
0.0
 40
0.1960326699914861
 40
0.1960326699914861
 40
0.1960326699914861
 40
0.1960326699914861
 10
33.35081664264765
 20
602.378344477027
 30
0.0
 41
1.0
 10
33.33880953300395
 20
602.374592026472
 30
0.0
 41
0.9625251466083241
 10
33.32672320779233
 20
602.3724437679257
 30
0.0
 41
0.932396588784558
 10
33.31484263306071
 20
602.3721111549629
 30
0.0
 41
0.9096143265287016
  0
SPLINE
  5
148
330
88
100
AcDbEntity
  8
$DDT_AUDIT_GENERATED_(E4)
  6
Continuous
 62
     7
100
AcDbSpline
210
0.0
220
0.0
230
1.0
 70
    12
 71
     3
 72
     8
 73
     4
 74
     0
 42
0.0000000527968675
 43
0.0000000001
 40
0.7945508165789827
 40
0.7945508165789827
 40
0.7945508165789827
 40
0.7945508165789827
 40
1.0
 40
1.0
 40
1.0
 40
1.0
 10
33.38897244710173
 20
602.3722074740148
 30
0.0
 41
0.90638211187927
 10
33.37639705159449
 20
602.3723230165272
 30
0.0
 41
0.9295190632375974
 10
33.36356697656918
 20
602.3744485592166
 30
0.0
 41
0.9607250259445074
 10
33.35081664264765
 20
602.378344477027
 30
0.0
 41
1.0
  0
SPLINE
  5
149
330
88
100
AcDbEntity
  8
$DDT_AUDIT_GENERATED_(E4)
  6
Continuous
 62
     7
100
AcDbSpline
210
0.0
220
0.0
230
1.0
 70
    12
 71
     3
 72
     8
 73
     4
 74
     0
 42
0.0000000533555842
 43
0.0000000001
 40
0.0
 40
0.0
 40
0.0
 40
0.0
 40
0.1960326699914695
 40
0.1960326699914695
 40
0.1960326699914695
 40
0.1960326699914695
 10
34.80848581158425
 20
602.3808825176552
 30
0.0
 41
1.0
 10
34.79647870194055
 20
602.3771300671002
 30
0.0
 41
0.9625251466083273
 10
34.78439237672894
 20
602.3749818085538
 30
0.0
 41
0.9323965887845631
 10
34.77251180199732
 20
602.3746491955911
 30
0.0
 41
0.9096143265287073
  0
SPLINE
  5
14A
330
88
100
AcDbEntity
  8
$DDT_AUDIT_GENERATED_(E4)
  6
Continuous
 62
     7
100
AcDbSpline
210
0.0
220
0.0
230
1.0
 70
    12
 71
     3
 72
     8
 73
     4
 74
     0
 42
0.0000000527968675
 43
0.0000000001
 40
0.7945508165788856
 40
0.7945508165788856
 40
0.7945508165788856
 40
0.7945508165788856
 40
1.0
 40
1.0
 40
1.0
 40
1.0
 10
34.84664161603835
 20
602.3747455146429
 30
0.0
 41
0.9063821118792371
 10
34.83406622053111
 20
602.3748610571553
 30
0.0
 41
0.9295190632375678
 10
34.8212361455058
 20
602.3769865998447
 30
0.0
 41
0.9607250259444888
 10
34.80848581158425
 20
602.3808825176552
 30
0.0
 41
1.0
  0
SPLINE
  5
14B
330
88
100
AcDbEntity
  8
$DDT_AUDIT_GENERATED_(E4)
  6
Continuous
 62
     7
100
AcDbSpline
210
0.0
220
0.0
230
1.0
 70
    12
 71
     3
 72
     8
 73
     4
 74
     0
 42
0.0000000533555842
 43
0.0000000001
 40
0.0
 40
0.0
 40
0.0
 40
0.0
 40
0.1960326699914229
 40
0.1960326699914229
 40
0.1960326699914229
 40
0.1960326699914229
 10
36.26615498052085
 20
602.3834205582833
 30
0.0
 41
1.0
 10
36.25414787087716
 20
602.3796681077283
 30
0.0
 41
0.9625251466083362
 10
36.24206154566555
 20
602.3775198491819
 30
0.0
 41
0.9323965887845774
 10
36.23018097093393
 20
602.3771872362192
 30
0.0
 41
0.9096143265287235
  0
SPLINE
  5
14C
330
88
100
AcDbEntity
  8
$DDT_AUDIT_GENERATED_(E4)
  6
Continuous
 62
     7
100
AcDbSpline
210
0.0
220
0.0
230
1.0
 70
    12
 71
     3
 72
     8
 73
     4
 74
     0
 42
0.0000000527968675
 43
0.0000000001
 40
0.79455081657887
 40
0.79455081657887
 40
0.79455081657887
 40
0.79455081657887
 40
1.0
 40
1.0
 40
1.0
 40
1.0
 10
36.30431078497495
 20
602.377283555271
 30
0.0
 41
0.9063821118792319
 10
36.29173538946771
 20
602.3773990977834
 30
0.0
 41
0.9295190632375632
 10
36.2789053144424
 20
602.3795246404728
 30
0.0
 41
0.9607250259444858
 10
36.26615498052085
 20
602.3834205582833
 30
0.0
 41
1.0
  0
SPLINE
  5
14D
330
88
100
AcDbEntity
  8
$DDT_AUDIT_GENERATED_(E4)
  6
Continuous
 62
     7
100
AcDbSpline
210
0.0
220
0.0
230
1.0
 70
    12
 71
     3
 72
     8
 73
     4
 74
     0
 42
0.0000000533555842
 43
0.0000000001
 40
0.0
 40
0.0
 40
0.0
 40
0.0
 40
0.1960326699915225
 40
0.1960326699915225
 40
0.1960326699915225
 40
0.1960326699915225
 10
37.72382414945746
 20
602.3859585989115
 30
0.0
 41
1.0
 10
37.71181703981377
 20
602.3822061483565
 30
0.0
 41
0.9625251466083171
 10
37.69973071460214
 20
602.3800578898102
 30
0.0
 41
0.9323965887845467
 10
37.68785013987052
 20
602.3797252768475
 30
0.0
 41
0.9096143265286888
  0
SPLINE
  5
14E
330
88
100
AcDbEntity
  8
$DDT_AUDIT_GENERATED_(E4)
  6
Continuous
 62
     7
100
AcDbSpline
210
0.0
220
0.0
230
1.0
 70
    12
 71
     3
 72
     8
 73
     4
 74
     0
 42
0.0000000527968675
 43
0.0000000001
 40
0.7945508165790003
 40
0.7945508165790003
 40
0.7945508165790003
 40
0.7945508165790003
 40
1.0
 40
1.0
 40
1.0
 40
1.0
 10
37.76197995391154
 20
602.3798215958992
 30
0.0
 41
0.906382111879276
 10
37.7494045584043
 20
602.3799371384117
 30
0.0
 41
0.9295190632376028
 10
37.73657448337901
 20
602.3820626811012
 30
0.0
 41
0.9607250259445108
 10
37.72382414945746
 20
602.3859585989115
 30
0.0
 41
1.0
  0
SPLINE
  5
14F
330
88
100
AcDbEntity
  8
$DDT_AUDIT_GENERATED_(E4)
  6
Continuous
 62
     7
100
AcDbSpline
210
0.0
220
0.0
230
1.0
 70
    12
 71
     3
 72
     8
 73
     4
 74
     0
 42
0.0000000533555842
 43
0.0000000001
 40
0.0
 40
0.0
 40
0.0
 40
0.0
 40
0.1960326699915285
 40
0.1960326699915285
 40
0.1960326699915285
 40
0.1960326699915285
 10
39.18149331839407
 20
602.3884966395397
 30
0.0
 41
1.0
 10
39.16948620875037
 20
602.3847441889847
 30
0.0
 41
0.962525146608316
 10
39.15739988353874
 20
602.3825959304384
 30
0.0
 41
0.9323965887845449
 10
39.14551930880712
 20
602.3822633174756
 30
0.0
 41
0.9096143265286867
  0
SPLINE
  5
150
330
88
100
AcDbEntity
  8
$DDT_AUDIT_GENERATED_(E4)
  6
Continuous
 62
     7
100
AcDbSpline
210
0.0
220
0.0
230
1.0
 70
    12
 71
     3
 72
     8
 73
     4
 74
     0
 42
0.0000000527968675
 43
0.0000000001
 40
0.7945508165789371
 40
0.7945508165789371
 40
0.7945508165789371
 40
0.7945508165789371
 40
1.0
 40
1.0
 40
1.0
 40
1.0
 10
39.21964912284816
 20
602.3823596365273
 30
0.0
 41
0.9063821118792547
 10
39.20707372734091
 20
602.3824751790398
 30
0.0
 41
0.9295190632375836
 10
39.19424365231561
 20
602.3846007217293
 30
0.0
 41
0.9607250259444987
 10
39.18149331839407
 20
602.3884966395397
 30
0.0
 41
1.0
  0
SPLINE
  5
151
330
88
100
AcDbEntity
  8
$DDT_AUDIT_GENERATED_(E4)
  6
Continuous
 62
     7
100
AcDbSpline
210
0.0
220
0.0
230
1.0
 70
    12
 71
     3
 72
     8
 73
     4
 74
     0
 42
0.0000000533555842
 43
0.0000000001
 40
0.0
 40
0.0
 40
0.0
 40
0.0
 40
0.1960326699915192
 40
0.1960326699915192
 40
0.1960326699915192
 40
0.1960326699915192
 10
40.63916248733067
 20
602.3910346801679
 30
0.0
 41
1.0
 10
40.62715537768696
 20
602.3872822296129
 30
0.0
 41
0.9625251466083176
 10
40.61506905247535
 20
602.3851339710665
 30
0.0
 41
0.9323965887845473
 10
40.60318847774373
 20
602.3848013581038
 30
0.0
 41
0.9096143265286895
  0
LINE
  5
152
330
88
100
AcDbEntity
  8
$DDT_AUDIT_GENERATED_(E4)
  6
Continuous
 62
     7
100
AcDbLine
 10
40.5145414772
 20
602.3846072778
 30
0.0
 11
40.5154151848
 21
602.3366900981
 31
0.0
  0
LINE
  5
153
330
88
100
AcDbEntity
  8
$DDT_AUDIT_GENERATED_(E4)
  6
Continuous
 62
     7
100
AcDbLine
 10
40.5154151848
 20
602.3366900981
 30
0.0
 11
40.5203167558
 21
602.0696175944
 31
0.0
  0
ARC
  5
154
330
88
100
AcDbEntity
  8
$DDT_AUDIT_GENERATED_(E4)
  6
Continuous
 62
     7
100
AcDbCircle
 10
40.7010915224
 20
602.0855717738
 30
0.0
 40
0.1814774147732507
100
AcDbArc
 50
185.0435406915
 51
252.9548307275
  0
SPLINE
  5
155
330
88
100
AcDbEntity
  8
$DDT_AUDIT_GENERATED_(E4)
  6
Continuous
 62
     7
100
AcDbSpline
210
0.0
220
0.0
230
1.0
 70
    12
 71
     3
 72
     8
 73
     4
 74
     0
 42
0.0000000527968675
 43
0.0000000001
 40
0.7945508168155633
 40
0.7945508168155633
 40
0.7945508168155633
 40
0.7945508168155633
 40
1.0
 40
1.0
 40
1.0
 40
1.0
 10
40.68605166540661
 20
601.9059289389246
 30
0.0
 41
0.9063821119848955
 10
40.67347626991224
 20
601.9060444814381
 30
0.0
 41
0.9295190633288126
 10
40.66064619490009
 20
601.9081700241229
 30
0.0
 41
0.9607250260005141
 10
40.64789586099054
 20
601.912065941924
 30
0.0
 41
1.0
  0
SPLINE
  5
156
330
88
100
AcDbEntity
  8
$DDT_AUDIT_GENERATED_(E4)
  6
Continuous
 62
     7
100
AcDbSpline
210
0.0
220
0.0
230
1.0
 70
    12
 71
     3
 72
     8
 73
     4
 74
     0
 42
0.0000000533555842
 43
0.0000000001
 40
0.0
 40
0.0
 40
0.0
 40
0.0
 40
0.196032669752188
 40
0.196032669752188
 40
0.196032669752188
 40
0.196032669752188
 10
42.10556502992718
 20
601.9146039825521
 30
0.0
 41
1.0
 10
42.09355792029549
 20
601.9108515320064
 30
0.0
 41
0.9625251466643008
 10
42.08147159509695
 20
601.9087032734645
 30
0.0
 41
0.9323965888765704
 10
42.06959102037823
 20
601.9083706605012
 30
0.0
 41
0.9096143266368089
  0
LINE
  5
157
330
88
100
AcDbEntity
  8
$DDT_AUDIT_GENERATED_(E4)
  6
Continuous
 62
     7
100
AcDbLine
 10
41.9809440198
 20
601.9081765802
 30
0.0
 11
41.9817725727
 21
601.8627358426
 31
0.0
  0
LINE
  5
158
330
88
100
AcDbEntity
  8
$DDT_AUDIT_GENERATED_(E4)
  6
Continuous
 62
     7
100
AcDbLine
 10
41.9817725727
 20
601.8627358426
 30
0.0
 11
41.9866405867
 21
601.5975037207
 31
0.0
  0
LINE
  5
159
330
88
100
AcDbEntity
  8
$DDT_AUDIT_GENERATED_(E4)
  6
Continuous
 62
     7
100
AcDbLine
 10
41.9866405867
 20
601.5975037207
 30
0.0
 11
41.9809758691
 21
601.9081766356
 31
0.0
  0
SPLINE
  5
15A
330
88
100
AcDbEntity
  8
$DDT_AUDIT_GENERATED_(E4)
  6
Continuous
 62
     7
100
AcDbSpline
210
0.0
220
0.0
230
1.0
 70
     8
 71
     3
 72
    35
 73
    31
 74
     0
 42
0.0000000257684253
 43
0.0000000001
 40
0.0
 40
0.0
 40
0.0
 40
0.0
 40
0.104622252067186
 40
0.104622252067186
 40
0.104622252067186
 40
0.2091821357513632
 40
0.2091821357513632
 40
0.2091821357513632
 40
0.314723427130129
 40
0.314723427130129
 40
0.314723427130129
 40
0.422770190623174
 40
0.422770190623174
 40
0.422770190623174
 40
0.5340097384941643
 40
0.5340097384941643
 40
0.5340097384941643
 40
0.6480315983246445
 40
0.6480315983246445
 40
0.6480315983246445
 40
0.7627487572738181
 40
0.7627487572738181
 40
0.7627487572738181
 40
0.8748250218601867
 40
0.8748250218601867
 40
0.8748250218601867
 40
0.981822508040157
 40
0.981822508040157
 40
0.981822508040157
 40
1.0
 40
1.0
 40
1.0
 40
1.0
 10
41.98664058672085
 20
601.5975037206786
 30
0.0
 10
41.98688359046838
 20
601.5842637391894
 30
0.0
 10
41.98949276680811
 20
601.5710487078161
 30
0.0
 10
41.99423104033052
 20
601.5589618219768
 30
0.0
 10
41.99896773984676
 20
601.5468789512779
 30
0.0
 10
42.00595781425301
 20
601.5355937112358
 30
0.0
 10
42.01458753507318
 20
601.526012618858
 30
0.0
 10
42.02329980560211
 20
601.5163398761936
 30
0.0
 10
42.03391175459016
 20
601.5081434856749
 30
0.0
 10
42.04553318735349
 20
601.5020382075332
 30
0.0
 10
42.05742922260765
 20
601.4957886679551
 30
0.0
 10
42.07069500401586
 20
601.4915612829878
 30
0.0
 10
42.08425999899693
 20
601.4896373625953
 30
0.0
 10
42.09822100762108
 20
601.4876572756707
 30
0.0
 10
42.11287077303971
 20
601.4880610487828
 30
0.0
 10
42.12704864261364
 20
601.4907809298084
 30
0.0
 10
42.14157265917242
 20
601.4935672156355
 30
0.0
 10
42.15600074141116
 20
601.4988610948764
 30
0.0
 10
42.16915217733165
 20
601.5062401830038
 30
0.0
 10
42.18237530133888
 20
601.5136594943217
 30
0.0
 10
42.19468415198442
 20
601.5234052209054
 30
0.0
 10
42.20497149421161
 20
601.5346846694696
 30
0.0
 10
42.21501958241827
 20
601.5457017904704
 30
0.0
 10
42.22342738760195
 20
601.5585135461591
 30
0.0
 10
42.22935188759101
 20
601.5719973749192
 30
0.0
 10
42.23501120356428
 20
601.5848776597741
 30
0.0
 10
42.23856300714797
 20
601.5987477103452
 30
0.0
 10
42.23963593821593
 20
601.6123631448743
 30
0.0
 10
42.23982101330022
 20
601.6147117372194
 30
0.0
 10
42.23993514314903
 20
601.6170598117168
 30
0.0
 10
42.2399779480077
 20
601.6194007913467
 30
0.0
  0
LINE
  5
15B
330
88
100
AcDbEntity
  8
$DDT_AUDIT_GENERATED_(E4)
  6
Continuous
 62
     7
100
AcDbLine
 10
42.239977948
 20
601.6194007913
 30
0.0
 11
42.2347044397
 21
601.9086184186
 31
0.0
  0
SPLINE
  5
15C
330
88
100
AcDbEntity
  8
$DDT_AUDIT_GENERATED_(E4)
  6
Continuous
 62
     7
100
AcDbSpline
210
0.0
220
0.0
230
1.0
 70
    12
 71
     3
 72
     8
 73
     4
 74
     0
 42
0.0000000527968675
 43
0.0000000001
 40
0.7945508168156179
 40
0.7945508168156179
 40
0.7945508168156179
 40
0.7945508168156179
 40
1.0
 40
1.0
 40
1.0
 40
1.0
 10
42.14372083434321
 20
601.9084669795527
 30
0.0
 41
0.9063821119849155
 10
42.13114543884886
 20
601.9085825220662
 30
0.0
 41
0.9295190633288304
 10
42.11831536383671
 20
601.910708064751
 30
0.0
 41
0.9607250260005252
 10
42.10556502992718
 20
601.9146039825521
 30
0.0
 41
1.0
  0
LINE
  5
15D
330
88
100
AcDbEntity
  8
$DDT_AUDIT_GENERATED_(E4)
  6
Continuous
 62
     7
100
AcDbLine
 10
42.239977948
 20
601.6194007913
 30
0.0
 11
42.24484308
 21
601.8854763464
 31
0.0
  0
LINE
  5
15E
330
88
100
AcDbEntity
  8
$DDT_AUDIT_GENERATED_(E4)
  6
Continuous
 62
     7
100
AcDbLine
 10
42.24484308
 20
601.8854763464
 30
0.0
 11
42.2444208059
 21
601.9086353364
 31
0.0
  0
ELLIPSE
  5
15F
330
88
100
AcDbEntity
  8
$DDT_AUDIT_GENERATED_(E4)
  6
Continuous
 62
     7
100
AcDbEllipse
 10
41.3733926341
 20
602.6914762047
 30
0.0
 11
2.750000000000028
 21
2.775557561562891E-14
 31
0.0
210
0.0
220
0.0
230
1.0
 40
0.3090169944
 41
-1.248346505746373
 42
-1.170117688452346
  0
SPLINE
  5
160
330
88
100
AcDbEntity
  8
$DDT_AUDIT_GENERATED_(E4)
  6
Continuous
 62
     7
100
AcDbSpline
210
0.0
220
0.0
230
1.0
 70
     8
 71
     3
 72
    23
 73
    19
 74
     0
 42
0.0000000305344276
 43
0.0000000001
 40
0.395574860825525
 40
0.395574860825525
 40
0.395574860825525
 40
0.395574860825525
 40
0.5150929843316076
 40
0.5150929843316076
 40
0.5150929843316076
 40
0.6451316788543618
 40
0.6451316788543618
 40
0.6451316788543618
 40
0.7708112890249819
 40
0.7708112890249819
 40
0.7708112890249819
 40
0.8843554838900912
 40
0.8843554838900912
 40
0.8843554838900912
 40
0.9856732074333132
 40
0.9856732074333132
 40
0.9856732074333132
 40
1.0
 40
1.0
 40
1.0
 40
1.0
 10
43.79638895324677
 20
601.9113377192203
 30
0.0
 10
43.80397390553998
 20
601.9113498212236
 30
0.0
 10
43.81185871878721
 20
601.9139947979584
 30
0.0
 10
43.81947071610726
 20
601.9190802889655
 30
0.0
 10
43.82773522603438
 20
601.92460171641
 30
0.0
 10
43.83591842626361
 20
601.9331823944516
 30
0.0
 10
43.84330062064087
 20
601.9442599046972
 30
0.0
 10
43.85042731764251
 20
601.9549540228711
 30
0.0
 10
43.85703202256064
 20
601.9683458432587
 30
0.0
 10
43.86243175174934
 20
601.9833052988922
 30
0.0
 10
43.86731463377999
 20
601.9968328767666
 30
0.0
 10
43.8713664307211
 20
602.0120925902218
 30
0.0
 10
43.87413749997759
 20
602.027586727318
 30
0.0
 10
43.87661580246638
 20
602.0414438903741
 30
0.0
 10
43.87814564301431
 20
602.0559109310701
 30
0.0
 10
43.87856499564809
 20
602.0695984050362
 30
0.0
 10
43.87862527899101
 20
602.0715660251733
 30
0.0
 10
43.87866350792696
 20
602.0735229441298
 30
0.0
 10
43.87867959258145
 20
602.0754650538322
 30
0.0
  0
LINE
  5
161
330
88
100
AcDbEntity
  8
$DDT_AUDIT_GENERATED_(E4)
  6
Continuous
 62
     7
100
AcDbLine
 10
43.8786795926
 20
602.0754650538
 30
0.0
 11
43.8808858516
 21
602.3425499334
 31
0.0
  0
LINE
  5
162
330
88
100
AcDbEntity
  8
$DDT_AUDIT_GENERATED_(E4)
  6
Continuous
 62
     7
100
AcDbLine
 10
43.8091914
 20
602.3424251017
 30
0.0
 11
42.2365611398
 21
602.339686895
 31
0.0
  0
LINE
  5
163
330
88
100
AcDbEntity
  8
$DDT_AUDIT_GENERATED_(E4)
  6
Continuous
 62
     7
100
AcDbLine
 10
23.0233851575
 20
602.3062336106
 30
0.0
 11
21.3790604457
 21
602.3033705721
 31
0.0
  0
LINE
  5
164
330
88
100
AcDbEntity
  8
$DDT_AUDIT_GENERATED_(E4)
  6
Continuous
 62
     7
100
AcDbLine
 10
21.3790604457
 20
602.3033705721
 30
0.0
 11
21.3813216314
 21
602.036293471
 31
0.0
  0
SPLINE
  5
165
330
88
100
AcDbEntity
  8
$DDT_AUDIT_GENERATED_(E4)
  6
Continuous
 62
     7
100
AcDbSpline
210
0.0
220
0.0
230
1.0
 70
     8
 71
     3
 72
    23
 73
    19
 74
     0
 42
0.0000000303878013
 43
0.0000000001
 40
0.0
 40
0.0
 40
0.0
 40
0.0
 40
0.0949658902443601
 40
0.0949658902443601
 40
0.0949658902443601
 40
0.1897030580225751
 40
0.1897030580225751
 40
0.1897030580225751
 40
0.2878492317736118
 40
0.2878492317736118
 40
0.2878492317736118
 40
0.3947358584158081
 40
0.3947358584158081
 40
0.3947358584158081
 40
0.51243873842869
 40
0.51243873842869
 40
0.51243873842869
 40
0.6037507695842215
 40
0.6037507695842215
 40
0.6037507695842215
 40
0.6037507695842215
 10
21.38132163136049
 20
602.036293471042
 30
0.0
 10
21.38142917809645
 20
602.0236229551188
 30
0.0
 10
21.38253301313582
 20
602.0101598340904
 30
0.0
 10
21.38452777175486
 20
601.9970624596368
 30
0.0
 10
21.38651983074284
 20
601.9839828106757
 30
0.0
 10
21.38944897791649
 20
601.9709207386244
 30
0.0
 10
21.39306970717124
 20
601.9588496526917
 30
0.0
 10
21.39682280275339
 20
601.9463372729753
 30
0.0
 10
21.40140824057615
 20
601.9345741727473
 30
0.0
 10
21.40649110263262
 20
601.9242853020363
 30
0.0
 10
21.41202388733462
 20
601.9130856853955
 30
0.0
 10
21.41827825137177
 20
601.9033540199123
 30
0.0
 10
21.42482541907539
 20
601.8956075907895
 30
0.0
 10
21.43202742176426
 20
601.887086378886
 30
0.0
 10
21.43976302540708
 20
601.8807477851271
 30
0.0
 10
21.44748813798707
 20
601.8769243717935
 30
0.0
 10
21.45347090667393
 20
601.8739633019925
 30
0.0
 10
21.45956475484773
 20
601.8724535756824
 30
0.0
 10
21.46550194999977
 20
601.8724627944731
 30
0.0
  0
SPLINE
  5
166
330
88
100
AcDbEntity
  8
$DDT_AUDIT_GENERATED_(E4)
  6
Continuous
 62
     7
100
AcDbSpline
210
0.0
220
0.0
230
1.0
 70
    12
 71
     3
 72
     8
 73
     4
 74
     0
 42
0.0000000533555842
 43
0.0000000001
 40
0.0
 40
0.0
 40
0.0
 40
0.0
 40
0.196032669752145
 40
0.196032669752145
 40
0.196032669752145
 40
0.196032669752145
 10
23.15586583375128
 20
601.881609454386
 30
0.0
 41
1.0
 10
23.14385872411959
 20
601.8778570038402
 30
0.0
 41
0.962525146664309
 10
23.13177239892106
 20
601.8757087452985
 30
0.0
 41
0.9323965888765836
 10
23.11989182420235
 20
601.875376132335
 30
0.0
 41
0.9096143266368238
  0
LINE
  5
167
330
88
100
AcDbEntity
  8
$DDT_AUDIT_GENERATED_(E4)
  6
Continuous
 62
     7
100
AcDbLine
 10
23.0312448236
 20
601.875182052
 30
0.0
 11
23.0316670977
 21
601.852023062
 31
0.0
  0
ELLIPSE
  5
168
330
88
100
AcDbEntity
  8
$DDT_AUDIT_GENERATED_(E4)
  6
Continuous
 62
     7
100
AcDbEllipse
 10
23.8736704213
 20
602.6610063238
 30
0.0
 11
-2.749999999999952
 21
2.775557561562891E-14
 31
0.0
210
0.0
220
0.0
230
1.0
 40
0.3090169944
 41
1.181386617316435
 42
1.259615434610532
  0
LINE
  5
169
330
88
100
AcDbEntity
  8
$DDT_AUDIT_GENERATED_(E4)
  6
Continuous
 62
     7
100
AcDbLine
 10
23.0316670977
 20
601.852023062
 30
0.0
 11
23.0365501812
 21
601.5859644802
 31
0.0
  0
LINE
  5
16A
330
88
100
AcDbEntity
  8
$DDT_AUDIT_GENERATED_(E4)
  6
Continuous
 62
     7
100
AcDbLine
 10
23.0365501812
 20
601.5859644802
 30
0.0
 11
23.0312766729
 21
601.8751821075
 31
0.0
  0
SPLINE
  5
16B
330
88
100
AcDbEntity
  8
$DDT_AUDIT_GENERATED_(E4)
  6
Continuous
 62
     7
100
AcDbSpline
210
0.0
220
0.0
230
1.0
 70
     8
 71
     3
 72
    35
 73
    31
 74
     0
 42
0.0000000257384525
 43
0.0000000001
 40
0.0
 40
0.0
 40
0.0
 40
0.0
 40
0.1030794341224772
 40
0.1030794341224772
 40
0.1030794341224772
 40
0.2059981132529831
 40
0.2059981132529831
 40
0.2059981132529831
 40
0.3113833204089256
 40
0.3113833204089256
 40
0.3113833204089256
 40
0.4216356136379638
 40
0.4216356136379638
 40
0.4216356136379638
 40
0.5013008412104804
 40
0.5013008412104804
 40
0.5013008412104804
 40
0.6140083963991574
 40
0.6140083963991574
 40
0.6140083963991574
 40
0.7268713214924332
 40
0.7268713214924332
 40
0.7268713214924332
 40
0.8373132459539616
 40
0.8373132459539616
 40
0.8373132459539616
 40
0.9445263795324927
 40
0.9445263795324927
 40
0.9445263795324927
 40
1.0
 40
1.0
 40
1.0
 40
1.0
 10
23.03655018116907
 20
601.5859644801964
 30
0.0
 10
23.03679017204426
 20
601.5728883885281
 30
0.0
 10
23.03933396346658
 20
601.559446683323
 30
0.0
 10
23.04393013211291
 20
601.5467742245723
 30
0.0
 10
23.04852225982537
 20
601.5341129073989
 30
0.0
 10
23.05527721486732
 20
601.5218772000517
 30
0.0
 10
23.06359689903152
 20
601.5110066940467
 30
0.0
 10
23.07211742603145
 20
601.4998737666317
 30
0.0
 10
23.08249505353328
 20
601.4898774332394
 30
0.0
 10
23.09389995513876
 20
601.4817291242357
 30
0.0
 10
23.10582428730401
 20
601.4732097045594
 30
0.0
 10
23.11918561997344
 20
601.4664837266843
 30
0.0
 10
23.13293973624841
 20
601.4620449506245
 30
0.0
 10
23.14294153267612
 20
601.458817136227
 30
0.0
 10
23.15331175065054
 20
601.456732170202
 30
0.0
 10
23.16362845559371
 20
601.4558801378412
 30
0.0
 10
23.17812121097108
 20
601.4546832153113
 30
0.0
 10
23.19284951249714
 20
601.4559258331528
 30
0.0
 10
23.20659416376808
 20
601.4595536094936
 30
0.0
 10
23.22034976735276
 20
601.4631842765984
 30
0.0
 10
23.2335045722787
 20
601.4693144701981
 30
0.0
 10
23.24487067686471
 20
601.4774660951531
 30
0.0
 10
23.25599365979679
 20
601.4854433563646
 30
0.0
 10
23.26571828580921
 20
601.4955886967829
 30
0.0
 10
23.27313050005553
 20
601.5070371399779
 30
0.0
 10
23.28032946252124
 20
601.5181562077912
 30
0.0
 10
23.28555003684937
 20
601.5308200133427
 30
0.0
 10
23.28830340034678
 20
601.5439385343177
 30
0.0
 10
23.28974362814949
 20
601.5508005627629
 30
0.0
 10
23.29053953407864
 20
601.5578620719778
 30
0.0
 10
23.29066996113746
 20
601.5649509754951
 30
0.0
  0
LINE
  5
16C
330
88
100
AcDbEntity
  8
$DDT_AUDIT_GENERATED_(E4)
  6
Continuous
 62
     7
100
AcDbLine
 10
23.2906699611
 20
601.5649509755
 30
0.0
 11
23.2850052435
 21
601.8756238904
 31
0.0
  0
LINE
  5
16D
330
88
100
AcDbEntity
  8
$DDT_AUDIT_GENERATED_(E4)
  6
Continuous
 62
     7
100
AcDbLine
 10
23.2906699611
 20
601.5649509755
 30
0.0
 11
23.2955501626
 21
601.8302000706
 31
0.0
  0
LINE
  5
16E
330
88
100
AcDbEntity
  8
$DDT_AUDIT_GENERATED_(E4)
  6
Continuous
 62
     7
100
AcDbLine
 10
23.2955501626
 20
601.8302000706
 30
0.0
 11
23.2947216097
 21
601.8756408082
 31
0.0
  0
ELLIPSE
  5
16F
330
88
100
AcDbEntity
  8
$DDT_AUDIT_GENERATED_(E4)
  6
Continuous
 62
     7
100
AcDbEllipse
 10
23.8736704213
 20
602.6610063238
 30
0.0
 11
-2.750000000000202
 21
-2.775557561562891E-13
 31
0.0
210
0.0
220
0.0
230
1.0
 40
0.3090169944
 41
0.3731984531550525
 42
0.4343805755812454
  0
ELLIPSE
  5
170
330
88
100
AcDbEntity
  8
$DDT_AUDIT_GENERATED_(E4)
  6
Continuous
 62
     7
100
AcDbEllipse
 10
23.8736704213
 20
602.6610063238
 30
0.0
 11
2.749999999998007
 21
-2.220446049250313E-13
 31
0.0
210
0.0
220
0.0
230
1.0
 40
0.3090169944
 41
4.500583322175107
 42
4.718023444816927
  0
LINE
  5
171
330
88
100
AcDbEntity
  8
$DDT_AUDIT_GENERATED_(E4)
  6
Continuous
 62
     7
100
AcDbLine
 10
24.1293536826
 20
601.8116412861
 30
0.0
 11
23.8891651165
 21
601.8112230785
 31
0.0
  0
LINE
  5
172
330
88
100
AcDbEntity
  8
$DDT_AUDIT_GENERATED_(E4)
  6
Continuous
 62
     7
100
AcDbLine
 10
24.2504446978
 20
601.8773048785
 30
0.0
 11
24.1293536826
 21
601.8116412861
 31
0.0
  0
LINE
  5
173
330
88
100
AcDbEntity
  8
$DDT_AUDIT_GENERATED_(E4)
  6
Continuous
 62
     7
100
AcDbLine
 10
24.4914132434
 20
601.7423992231
 30
0.0
 11
24.4889294518
 21
601.8777201195
 31
0.0
  0
SPLINE
  5
174
330
88
100
AcDbEntity
  8
$DDT_AUDIT_GENERATED_(E4)
  6
Continuous
 62
     7
100
AcDbSpline
210
0.0
220
0.0
230
1.0
 70
    12
 71
     3
 72
     8
 73
     4
 74
     0
 42
0.0000000482177172
 43
0.0000000001
 40
0.0
 40
0.0
 40
0.0
 40
0.0
 40
1.0
 40
1.0
 40
1.0
 40
1.0
 10
24.61703942439942
 20
601.6919527599254
 30
0.0
 41
1.0
 10
24.54445262500055
 20
601.6525913753895
 30
0.0
 41
0.808833632737763
 10
24.49268005772284
 20
601.6733811732604
 30
0.0
 41
0.808833632737763
 10
24.49141324339706
 20
601.7423992231492
 30
0.0
 41
1.0
  0
LINE
  5
175
330
88
100
AcDbEntity
  8
$DDT_AUDIT_GENERATED_(E4)
  6
Continuous
 62
     7
100
AcDbLine
 10
24.9726210209
 20
601.8847727226
 30
0.0
 11
24.6170394244
 21
601.6919527599
 31
0.0
  0
ARC
  5
176
330
88
100
AcDbEntity
  8
$DDT_AUDIT_GENERATED_(E4)
  6
Continuous
 62
     7
100
AcDbCircle
 10
24.8537531517
 20
602.0349820437
 30
0.0
 40
0.191552631049478
100
AcDbArc
 50
308.3562652547
 51
2.3010190482
  0
LINE
  5
177
330
88
100
AcDbEntity
  8
$DDT_AUDIT_GENERATED_(E4)
  6
Continuous
 62
     7
100
AcDbLine
 10
25.0479379344
 20
602.3097586884
 30
0.0
 11
25.0451513303
 21
602.0426727983
 31
0.0
  0
LINE
  5
178
330
88
100
AcDbEntity
  8
$DDT_AUDIT_GENERATED_(E4)
  6
Continuous
 62
     7
100
AcDbLine
 10
25.0479379344
 20
602.3097586884
 30
0.0
 11
24.7445311126
 21
602.3092304074
 31
0.0
  0
LINE
  5
179
330
88
100
AcDbEntity
  8
$DDT_AUDIT_GENERATED_(E4)
  6
Continuous
 62
     7
100
AcDbLine
 10
25.9378497878
 20
602.3592268715
 30
0.0
 11
25.9384797525
 21
602.3246774052
 31
0.0
  0
LINE
  5
17A
330
88
100
AcDbEntity
  8
$DDT_AUDIT_GENERATED_(E4)
  6
Continuous
 62
     7
100
AcDbLine
 10
25.0726696881
 20
602.3231698881
 30
0.0
 11
25.0479379344
 21
602.3097586884
 31
0.0
  0
LINE
  5
17B
330
88
100
AcDbEntity
  8
$DDT_AUDIT_GENERATED_(E4)
  6
Continuous
 62
     7
100
AcDbLine
 10
25.9384797525
 20
602.3246774052
 30
0.0
 11
25.0726696881
 21
602.3231698881
 31
0.0
  0
LINE
  5
17C
330
88
100
AcDbEntity
  8
$DDT_AUDIT_GENERATED_(E4)
  6
Continuous
 62
     7
100
AcDbLine
 10
25.9433538603
 20
602.0591110836
 30
0.0
 11
25.9384797525
 21
602.3246774052
 31
0.0
  0
ELLIPSE
  5
17D
330
88
100
AcDbEntity
  8
$DDT_AUDIT_GENERATED_(E4)
  6
Continuous
 62
     7
100
AcDbEllipse
 10
26.0702181456
 20
602.0614380512
 30
0.0
 11
0.1268645369870581
 21
0.002313210222565365
 31
0.0
210
0.0
220
0.0
230
0.9999999999999998
 40
0.9510414197
 41
3.141706678055223
 42
6.248392746262347
  0
LINE
  5
17E
330
88
100
AcDbEntity
  8
$DDT_AUDIT_GENERATED_(E4)
  6
Continuous
 62
     7
100
AcDbLine
 10
26.2019565386
 20
602.3251361614
 30
0.0
 11
26.1970824309
 21
602.0595528666
 31
0.0
  0
LINE
  5
17F
330
88
100
AcDbEntity
  8
$DDT_AUDIT_GENERATED_(E4)
  6
Continuous
 62
     7
100
AcDbLine
 10
26.2019565386
 20
602.3251361614
 30
0.0
 11
26.2013265739
 21
602.3596856277
 31
0.0
  0
LINE
  5
180
330
88
100
AcDbEntity
  8
$DDT_AUDIT_GENERATED_(E4)
  6
Continuous
 62
     7
100
AcDbLine
 10
27.3955189567
 20
602.3617649121
 30
0.0
 11
27.3961489214
 21
602.3272154458
 31
0.0
  0
LINE
  5
181
330
88
100
AcDbEntity
  8
$DDT_AUDIT_GENERATED_(E4)
  6
Continuous
 62
     7
100
AcDbLine
 10
27.3961489214
 20
602.3272154458
 30
0.0
 11
26.2019565386
 21
602.3251361614
 31
0.0
  0
LINE
  5
182
330
88
100
AcDbEntity
  8
$DDT_AUDIT_GENERATED_(E4)
  6
Continuous
 62
     7
100
AcDbLine
 10
27.4010230292
 20
602.0616491242
 30
0.0
 11
27.3961489214
 21
602.3272154458
 31
0.0
  0
ELLIPSE
  5
183
330
88
100
AcDbEntity
  8
$DDT_AUDIT_GENERATED_(E4)
  6
Continuous
 62
     7
100
AcDbEllipse
 10
27.5278873145
 20
602.0639760918
 30
0.0
 11
0.1268645369870546
 21
0.002313210222815165
 31
0.0
210
0.0
220
0.0
230
0.9999999999999997
 40
0.9510414197
 41
3.141706677565466
 42
6.248392746260208
  0
LINE
  5
184
330
88
100
AcDbEntity
  8
$DDT_AUDIT_GENERATED_(E4)
  6
Continuous
 62
     7
100
AcDbLine
 10
27.6596257076
 20
602.327674202
 30
0.0
 11
27.6547515998
 21
602.0620909072
 31
0.0
  0
LINE
  5
185
330
88
100
AcDbEntity
  8
$DDT_AUDIT_GENERATED_(E4)
  6
Continuous
 62
     7
100
AcDbLine
 10
27.6596257076
 20
602.327674202
 30
0.0
 11
27.6589957429
 21
602.3622236683
 31
0.0
  0
LINE
  5
186
330
88
100
AcDbEntity
  8
$DDT_AUDIT_GENERATED_(E4)
  6
Continuous
 62
     7
100
AcDbLine
 10
28.8538180904
 20
602.3297534864
 30
0.0
 11
27.6596257076
 21
602.327674202
 31
0.0
  0
LINE
  5
187
330
88
100
AcDbEntity
  8
$DDT_AUDIT_GENERATED_(E4)
  6
Continuous
 62
     7
100
AcDbLine
 10
28.8531881257
 20
602.3643029527
 30
0.0
 11
28.8538180904
 21
602.3297534864
 31
0.0
  0
LINE
  5
188
330
88
100
AcDbEntity
  8
$DDT_AUDIT_GENERATED_(E4)
  6
Continuous
 62
     7
100
AcDbLine
 10
28.8586921981
 20
602.0641871648
 30
0.0
 11
28.8538180904
 21
602.3297534864
 31
0.0
  0
ELLIPSE
  5
189
330
88
100
AcDbEntity
  8
$DDT_AUDIT_GENERATED_(E4)
  6
Continuous
 62
     7
100
AcDbEllipse
 10
28.9855564834
 20
602.0665141325
 30
0.0
 11
0.1268645369870542
 21
0.002313210223092721
 31
0.0
210
0.0
220
0.0
230
0.9999999999999999
 40
0.9510414197
 41
3.141706677591755
 42
6.248392746257422
  0
LINE
  5
18A
330
88
100
AcDbEntity
  8
$DDT_AUDIT_GENERATED_(E4)
  6
Continuous
 62
     7
100
AcDbLine
 10
29.1172948765
 20
602.3302122426
 30
0.0
 11
29.1124207688
 21
602.0646289478
 31
0.0
  0
LINE
  5
18B
330
88
100
AcDbEntity
  8
$DDT_AUDIT_GENERATED_(E4)
  6
Continuous
 62
     7
100
AcDbLine
 10
29.1172948765
 20
602.3302122426
 30
0.0
 11
29.1166649118
 21
602.3647617089
 31
0.0
  0
LINE
  5
18C
330
88
100
AcDbEntity
  8
$DDT_AUDIT_GENERATED_(E4)
  6
Continuous
 62
     7
100
AcDbLine
 10
30.3114872593
 20
602.3322915271
 30
0.0
 11
29.1172948765
 21
602.3302122426
 31
0.0
  0
LINE
  5
18D
330
88
100
AcDbEntity
  8
$DDT_AUDIT_GENERATED_(E4)
  6
Continuous
 62
     7
100
AcDbLine
 10
30.3108572946
 20
602.3668409934
 30
0.0
 11
30.3114872593
 21
602.3322915271
 31
0.0
  0
LINE
  5
18E
330
88
100
AcDbEntity
  8
$DDT_AUDIT_GENERATED_(E4)
  6
Continuous
 62
     7
100
AcDbLine
 10
30.3163613671
 20
602.0667252054
 30
0.0
 11
30.3114872593
 21
602.3322915271
 31
0.0
  0
ELLIPSE
  5
18F
330
88
100
AcDbEntity
  8
$DDT_AUDIT_GENERATED_(E4)
  6
Continuous
 62
     7
100
AcDbEllipse
 10
30.4432256524
 20
602.0690521731
 30
0.0
 11
0.126864536987054
 21
0.002313210222815165
 31
0.0
210
0.0
220
0.0
230
0.9999999999999997
 40
0.9510414197
 41
3.141706677563518
 42
6.248392746260352
  0
LINE
  5
190
330
88
100
AcDbEntity
  8
$DDT_AUDIT_GENERATED_(E4)
  6
Continuous
 62
     7
100
AcDbLine
 10
30.5749640454
 20
602.3327502833
 30
0.0
 11
30.5700899377
 21
602.0671669884
 31
0.0
  0
LINE
  5
191
330
88
100
AcDbEntity
  8
$DDT_AUDIT_GENERATED_(E4)
  6
Continuous
 62
     7
100
AcDbLine
 10
30.5749640454
 20
602.3327502833
 30
0.0
 11
30.5743340807
 21
602.3672997496
 31
0.0
  0
LINE
  5
192
330
88
100
AcDbEntity
  8
$DDT_AUDIT_GENERATED_(E4)
  6
Continuous
 62
     7
100
AcDbLine
 10
31.7691564282
 20
602.3348295677
 30
0.0
 11
30.5749640454
 21
602.3327502833
 31
0.0
  0
LINE
  5
193
330
88
100
AcDbEntity
  8
$DDT_AUDIT_GENERATED_(E4)
  6
Continuous
 62
     7
100
AcDbLine
 10
31.7685264635
 20
602.369379034
 30
0.0
 11
31.7691564282
 21
602.3348295677
 31
0.0
  0
LINE
  5
194
330
88
100
AcDbEntity
  8
$DDT_AUDIT_GENERATED_(E4)
  6
Continuous
 62
     7
100
AcDbLine
 10
31.774030536
 20
602.0692632461
 30
0.0
 11
31.7691564282
 21
602.3348295677
 31
0.0
  0
ELLIPSE
  5
195
330
88
100
AcDbEntity
  8
$DDT_AUDIT_GENERATED_(E4)
  6
Continuous
 62
     7
100
AcDbEllipse
 10
31.9008948213
 20
602.0715902137
 30
0.0
 11
0.12686453698705
 21
0.002313210223009455
 31
0.0
210
0.0
220
0.0
230
1.0
 40
0.9510414197
 41
3.141706677966619
 42
6.248392746259012
  0
LINE
  5
196
330
88
100
AcDbEntity
  8
$DDT_AUDIT_GENERATED_(E4)
  6
Continuous
 62
     7
100
AcDbLine
 10
32.0326332144
 20
602.3352883239
 30
0.0
 11
32.0277591066
 21
602.0697050291
 31
0.0
  0
LINE
  5
197
330
88
100
AcDbEntity
  8
$DDT_AUDIT_GENERATED_(E4)
  6
Continuous
 62
     7
100
AcDbLine
 10
32.0326332144
 20
602.3352883239
 30
0.0
 11
32.0320032497
 21
602.3698377902
 31
0.0
  0
LINE
  5
198
330
88
100
AcDbEntity
  8
$DDT_AUDIT_GENERATED_(E4)
  6
Continuous
 62
     7
100
AcDbLine
 10
33.2268255972
 20
602.3373676083
 30
0.0
 11
32.0326332144
 21
602.3352883239
 31
0.0
  0
LINE
  5
199
330
88
100
AcDbEntity
  8
$DDT_AUDIT_GENERATED_(E4)
  6
Continuous
 62
     7
100
AcDbLine
 10
33.2261956325
 20
602.3719170746
 30
0.0
 11
33.2268255972
 21
602.3373676083
 31
0.0
  0
LINE
  5
19A
330
88
100
AcDbEntity
  8
$DDT_AUDIT_GENERATED_(E4)
  6
Continuous
 62
     7
100
AcDbLine
 10
33.2316997049
 20
602.0718012867
 30
0.0
 11
33.2268255972
 21
602.3373676083
 31
0.0
  0
ELLIPSE
  5
19B
330
88
100
AcDbEntity
  8
$DDT_AUDIT_GENERATED_(E4)
  6
Continuous
 62
     7
100
AcDbEllipse
 10
33.3585639902
 20
602.0741282543
 30
0.0
 11
0.1268645369870568
 21
0.002313210222593121
 31
0.0
210
0.0
220
0.0
230
0.9999999999999998
 40
0.9510414197
 41
3.141706677368783
 42
6.248392746262315
  0
LINE
  5
19C
330
88
100
AcDbEntity
  8
$DDT_AUDIT_GENERATED_(E4)
  6
Continuous
 62
     7
100
AcDbLine
 10
33.4903023833
 20
602.3378263645
 30
0.0
 11
33.4854282756
 21
602.0722430697
 31
0.0
  0
LINE
  5
19D
330
88
100
AcDbEntity
  8
$DDT_AUDIT_GENERATED_(E4)
  6
Continuous
 62
     7
100
AcDbLine
 10
33.4903023833
 20
602.3378263645
 30
0.0
 11
33.4896724186
 21
602.3723758308
 31
0.0
  0
LINE
  5
19E
330
88
100
AcDbEntity
  8
$DDT_AUDIT_GENERATED_(E4)
  6
Continuous
 62
     7
100
AcDbLine
 10
34.6844947661
 20
602.3399056489
 30
0.0
 11
33.4903023833
 21
602.3378263645
 31
0.0
  0
LINE
  5
19F
330
88
100
AcDbEntity
  8
$DDT_AUDIT_GENERATED_(E4)
  6
Continuous
 62
     7
100
AcDbLine
 10
34.6838648014
 20
602.3744551152
 30
0.0
 11
34.6844947661
 21
602.3399056489
 31
0.0
  0
LINE
  5
1A0
330
88
100
AcDbEntity
  8
$DDT_AUDIT_GENERATED_(E4)
  6
Continuous
 62
     7
100
AcDbLine
 10
34.6893688739
 20
602.0743393273
 30
0.0
 11
34.6844947661
 21
602.3399056489
 31
0.0
  0
ELLIPSE
  5
1A1
330
88
100
AcDbEntity
  8
$DDT_AUDIT_GENERATED_(E4)
  6
Continuous
 62
     7
100
AcDbEllipse
 10
34.8162331592
 20
602.076666295
 30
0.0
 11
0.1268645369870542
 21
0.002313210222815165
 31
0.0
210
0.0
220
0.0
230
0.9999999999999997
 40
0.9510414197
 41
3.141706678066907
 42
6.248392746260308
  0
LINE
  5
1A2
330
88
100
AcDbEntity
  8
$DDT_AUDIT_GENERATED_(E4)
  6
Continuous
 62
     7
100
AcDbLine
 10
34.9479715522
 20
602.3403644052
 30
0.0
 11
34.9430974445
 21
602.0747811103
 31
0.0
  0
LINE
  5
1A3
330
88
100
AcDbEntity
  8
$DDT_AUDIT_GENERATED_(E4)
  6
Continuous
 62
     7
100
AcDbLine
 10
34.9479715522
 20
602.3403644052
 30
0.0
 11
34.9473415875
 21
602.3749138715
 31
0.0
  0
LINE
  5
1A4
330
88
100
AcDbEntity
  8
$DDT_AUDIT_GENERATED_(E4)
  6
Continuous
 62
     7
100
AcDbLine
 10
36.1421639351
 20
602.3424436896
 30
0.0
 11
34.9479715522
 21
602.3403644052
 31
0.0
  0
LINE
  5
1A5
330
88
100
AcDbEntity
  8
$DDT_AUDIT_GENERATED_(E4)
  6
Continuous
 62
     7
100
AcDbLine
 10
36.1415339704
 20
602.3769931559
 30
0.0
 11
36.1421639351
 21
602.3424436896
 31
0.0
  0
LINE
  5
1A6
330
88
100
AcDbEntity
  8
$DDT_AUDIT_GENERATED_(E4)
  6
Continuous
 62
     7
100
AcDbLine
 10
36.1470380428
 20
602.076877368
 30
0.0
 11
36.1421639351
 21
602.3424436896
 31
0.0
  0
ELLIPSE
  5
1A7
330
88
100
AcDbEntity
  8
$DDT_AUDIT_GENERATED_(E4)
  6
Continuous
 62
     7
100
AcDbEllipse
 10
36.2739023281
 20
602.0792043356
 30
0.0
 11
0.1268645369870546
 21
0.002313210222815165
 31
0.0
210
0.0
220
0.0
230
0.9999999999999997
 40
0.9510414197
 41
3.141706677304521
 42
6.248392746260208
  0
LINE
  5
1A8
330
88
100
AcDbEntity
  8
$DDT_AUDIT_GENERATED_(E4)
  6
Continuous
 62
     7
100
AcDbLine
 10
36.4056407212
 20
602.3429024458
 30
0.0
 11
36.4007666134
 21
602.077319151
 31
0.0
  0
LINE
  5
1A9
330
88
100
AcDbEntity
  8
$DDT_AUDIT_GENERATED_(E4)
  6
Continuous
 62
     7
100
AcDbLine
 10
36.4056407212
 20
602.3429024458
 30
0.0
 11
36.4050107565
 21
602.3774519121
 31
0.0
  0
LINE
  5
1AA
330
88
100
AcDbEntity
  8
$DDT_AUDIT_GENERATED_(E4)
  6
Continuous
 62
     7
100
AcDbLine
 10
37.599833104
 20
602.3449817302
 30
0.0
 11
36.4056407212
 21
602.3429024458
 31
0.0
  0
LINE
  5
1AB
330
88
100
AcDbEntity
  8
$DDT_AUDIT_GENERATED_(E4)
  6
Continuous
 62
     7
100
AcDbLine
 10
37.5992031393
 20
602.3795311965
 30
0.0
 11
37.599833104
 21
602.3449817302
 31
0.0
  0
LINE
  5
1AC
330
88
100
AcDbEntity
  8
$DDT_AUDIT_GENERATED_(E4)
  6
Continuous
 62
     7
100
AcDbLine
 10
37.6047072117
 20
602.0794154086
 30
0.0
 11
37.599833104
 21
602.3449817302
 31
0.0
  0
ELLIPSE
  5
1AD
330
88
100
AcDbEntity
  8
$DDT_AUDIT_GENERATED_(E4)
  6
Continuous
 62
     7
100
AcDbEllipse
 10
37.7315714971
 20
602.0817423762
 30
0.0
 11
0.1268645369870416
 21
0.002313210222842921
 31
0.0
210
0.0
220
0.0
230
0.9999999999999998
 40
0.9510414197
 41
3.141706677697885
 42
6.248392746261692
  0
LINE
  5
1AE
330
88
100
AcDbEntity
  8
$DDT_AUDIT_GENERATED_(E4)
  6
Continuous
 62
     7
100
AcDbLine
 10
37.8633098901
 20
602.3454404864
 30
0.0
 11
37.8584357824
 21
602.0798571916
 31
0.0
  0
LINE
  5
1AF
330
88
100
AcDbEntity
  8
$DDT_AUDIT_GENERATED_(E4)
  6
Continuous
 62
     7
100
AcDbLine
 10
37.8633098901
 20
602.3454404864
 30
0.0
 11
37.8626799254
 21
602.3799899527
 31
0.0
  0
LINE
  5
1B0
330
88
100
AcDbEntity
  8
$DDT_AUDIT_GENERATED_(E4)
  6
Continuous
 62
     7
100
AcDbLine
 10
39.0568723082
 20
602.3820692371
 30
0.0
 11
39.0575022729
 21
602.3475197708
 31
0.0
  0
LINE
  5
1B1
330
88
100
AcDbEntity
  8
$DDT_AUDIT_GENERATED_(E4)
  6
Continuous
 62
     7
100
AcDbLine
 10
39.0575022729
 20
602.3475197708
 30
0.0
 11
37.8633098901
 21
602.3454404864
 31
0.0
  0
LINE
  5
1B2
330
88
100
AcDbEntity
  8
$DDT_AUDIT_GENERATED_(E4)
  6
Continuous
 62
     7
100
AcDbLine
 10
39.0623763807
 20
602.0819534492
 30
0.0
 11
39.0575022729
 21
602.3475197708
 31
0.0
  0
ELLIPSE
  5
1B3
330
88
100
AcDbEntity
  8
$DDT_AUDIT_GENERATED_(E4)
  6
Continuous
 62
     7
100
AcDbEllipse
 10
39.189240666
 20
602.0842804169
 30
0.0
 11
0.1268645369870581
 21
0.002313210222593121
 31
0.0
210
0.0
220
0.0
230
0.9999999999999998
 40
0.9510414197
 41
3.141706677404809
 42
6.248392746262025
  0
LINE
  5
1B4
330
88
100
AcDbEntity
  8
$DDT_AUDIT_GENERATED_(E4)
  6
Continuous
 62
     7
100
AcDbLine
 10
39.3209790591
 20
602.347978527
 30
0.0
 11
39.3161049513
 21
602.0823952322
 31
0.0
  0
LINE
  5
1B5
330
88
100
AcDbEntity
  8
$DDT_AUDIT_GENERATED_(E4)
  6
Continuous
 62
     7
100
AcDbLine
 10
39.3209790591
 20
602.347978527
 30
0.0
 11
39.3203490944
 21
602.3825279933
 31
0.0
  0
LINE
  5
1B6
330
88
100
AcDbEntity
  8
$DDT_AUDIT_GENERATED_(E4)
  6
Continuous
 62
     7
100
AcDbLine
 10
40.5154151848
 20
602.3366900981
 30
0.0
 11
40.212008363
 21
602.3361618172
 31
0.0
  0
LINE
  5
1B7
330
88
100
AcDbEntity
  8
$DDT_AUDIT_GENERATED_(E4)
  6
Continuous
 62
     7
100
AcDbLine
 10
40.1867891235
 20
602.3494860441
 30
0.0
 11
39.3209790591
 21
602.347978527
 31
0.0
  0
LINE
  5
1B8
330
88
100
AcDbEntity
  8
$DDT_AUDIT_GENERATED_(E4)
  6
Continuous
 62
     7
100
AcDbLine
 10
40.212008363
 20
602.3361618172
 30
0.0
 11
40.1867891235
 21
602.3494860441
 31
0.0
  0
LINE
  5
1B9
330
88
100
AcDbEntity
  8
$DDT_AUDIT_GENERATED_(E4)
  6
Continuous
 62
     7
100
AcDbLine
 10
40.2148498937
 20
602.0690857266
 30
0.0
 11
40.212008363
 21
602.3361618172
 31
0.0
  0
ARC
  5
1BA
330
88
100
AcDbEntity
  8
$DDT_AUDIT_GENERATED_(E4)
  6
Continuous
 62
     7
100
AcDbCircle
 10
40.4042219679
 20
602.0617587394
 30
0.0
 40
0.1895137653234324
100
AcDbArc
 50
177.7842765186
 51
232.4834385547
  0
LINE
  5
1BB
330
88
100
AcDbEntity
  8
$DDT_AUDIT_GENERATED_(E4)
  6
Continuous
 62
     7
100
AcDbLine
 10
40.6514002827
 20
601.7198712069
 30
0.0
 11
40.2888098428
 21
601.9114407144
 31
0.0
  0
SPLINE
  5
1BC
330
88
100
AcDbEntity
  8
$DDT_AUDIT_GENERATED_(E4)
  6
Continuous
 62
     7
100
AcDbSpline
210
0.0
220
0.0
230
1.0
 70
    12
 71
     3
 72
     8
 73
     4
 74
     0
 42
0.000000047720454
 43
0.0000000001
 40
0.0
 40
0.0
 40
0.0
 40
0.0
 40
1.0
 40
1.0
 40
1.0
 40
1.0
 10
40.77950267232783
 20
601.7707594530175
 30
0.0
 41
1.0
 10
40.77821088791688
 20
601.7017369482203
 30
0.0
 41
0.808833632721054
 10
40.72541783526848
 20
601.6807650844888
 30
0.0
 41
0.808833632721054
 10
40.65140028265943
 20
601.7198712068563
 30
0.0
 41
1.0
  0
LINE
  5
1BD
330
88
100
AcDbEntity
  8
$DDT_AUDIT_GENERATED_(E4)
  6
Continuous
 62
     7
100
AcDbLine
 10
40.7820354217
 20
601.906089084
 30
0.0
 11
40.7795026723
 21
601.770759453
 31
0.0
  0
LINE
  5
1BE
330
88
100
AcDbEntity
  8
$DDT_AUDIT_GENERATED_(E4)
  6
Continuous
 62
     7
100
AcDbLine
 10
41.1486987632
 20
601.8412747518
 30
0.0
 11
41.0252209317
 21
601.9065125098
 31
0.0
  0
LINE
  5
1BF
330
88
100
AcDbEntity
  8
$DDT_AUDIT_GENERATED_(E4)
  6
Continuous
 62
     7
100
AcDbLine
 10
41.3888873293
 20
601.8416929594
 30
0.0
 11
41.1486987632
 21
601.8412747518
 31
0.0
  0
ELLIPSE
  5
1C0
330
88
100
AcDbEntity
  8
$DDT_AUDIT_GENERATED_(E4)
  6
Continuous
 62
     7
100
AcDbEllipse
 10
41.3733926341
 20
602.6914762047
 30
0.0
 11
2.75000000000139
 21
-1.942890293094024E-13
 31
0.0
210
0.0
220
0.0
230
1.0
 40
0.3090169944
 41
4.718023444816936
 42
4.9354635674585
  0
ELLIPSE
  5
1C1
330
88
100
AcDbEntity
  8
$DDT_AUDIT_GENERATED_(E4)
  6
Continuous
 62
     7
100
AcDbEllipse
 10
23.8736704213
 20
601.943992411
 30
0.0
 11
-3.049999999999995
 21
0.0
 31
0.0
210
0.0
220
0.0
230
1.0
 40
0.3090169944
 41
0.0056344644321141
 42
1.576430791226972
  0
LINE
  5
1C2
330
88
100
AcDbEntity
  8
$DDT_AUDIT_GENERATED_(E4)
  6
Continuous
 62
     7
100
AcDbLine
 10
20.8174237898
 20
602.2839242609
 30
0.0
 11
20.8237188356
 21
601.9386819461
 31
0.0
  0
LINE
  5
1C3
330
88
100
AcDbEntity
  8
$DDT_AUDIT_GENERATED_(E4)
  6
Continuous
 62
     7
100
AcDbLine
 10
44.4207956441
 20
602.1195455562
 30
0.0
 11
44.4233442198
 21
601.9797727569
 31
0.0
  0
ELLIPSE
  5
1C4
330
88
100
AcDbEntity
  8
$DDT_AUDIT_GENERATED_(E4)
  6
Continuous
 62
     7
100
AcDbEllipse
 10
41.3733926341
 20
601.9744622919
 30
0.0
 11
-3.049999999999995
 21
0.0
 31
0.0
210
0.0
220
0.0
230
1.0
 40
0.3090169944
 41
1.576430791226971
 42
3.147227118021907
  0
ELLIPSE
  5
1C5
330
88
100
AcDbEntity
  8
$DDT_AUDIT_GENERATED_(E4)
  6
Continuous
 62
     7
100
AcDbEllipse
 10
41.3733926341
 20
601.9744622919
 30
0.0
 11
-2.750000000000001
 21
-2.775557561562891E-14
 31
0.0
210
0.0
220
0.0
230
1.0
 40
0.3090169944
 41
1.576430791226969
 42
3.147227118022321
  0
LINE
  5
1C6
330
88
100
AcDbEntity
  8
$DDT_AUDIT_GENERATED_(E4)
  6
Continuous
 62
     7
100
AcDbLine
 10
44.1184728221
 20
602.2466760604
 30
0.0
 11
44.1233489818
 21
601.9792504161
 31
0.0
  0
LINE
  5
1C7
330
88
100
AcDbEntity
  8
$DDT_AUDIT_GENERATED_(E4)
  6
Continuous
 62
     7
100
AcDbLine
 10
21.1237140736
 20
601.9392042869
 30
0.0
 11
21.1160337203
 21
602.3604217039
 31
0.0
  0
ELLIPSE
  5
1C8
330
88
100
AcDbEntity
  8
$DDT_AUDIT_GENERATED_(E4)
  6
Continuous
 62
     7
100
AcDbEllipse
 10
23.8736704213
 20
601.943992411
 30
0.0
 11
2.749999999999988
 21
0.0
 31
0.0
210
0.0
220
0.0
230
1.0
 40
0.3090169944
 41
3.147227118021887
 42
4.718023444816766
  0
LINE
  5
1C9
330
88
100
AcDbEntity
  8
$DDT_AUDIT_GENERATED_(E4)
  6
Continuous
 62
     7
100
AcDbLine
 10
24.1293536826
 20
601.0946273734
 30
0.0
 11
23.8891651165
 21
601.0942091658
 31
0.0
  0
LINE
  5
1CA
330
88
100
AcDbEntity
  8
$DDT_AUDIT_GENERATED_(E4)
  6
Continuous
 62
     7
100
AcDbLine
 10
24.1293536826
 20
601.0946273734
 30
0.0
 11
24.1293536826
 21
601.8116412861
 31
0.0
  0
LINE
  5
1CB
330
88
100
AcDbEntity
  8
$DDT_AUDIT_GENERATED_(E4)
  6
Continuous
 62
     7
100
AcDbLine
 10
25.0726696881
 20
602.3231698881
 30
0.0
 11
25.0726696881
 21
601.6061559754
 31
0.0
  0
LINE
  5
1CC
330
88
100
AcDbEntity
  8
$DDT_AUDIT_GENERATED_(E4)
  6
Continuous
 62
     7
100
AcDbLine
 10
25.0726696881
 20
601.6061559754
 30
0.0
 11
24.1293536826
 21
601.0946273734
 31
0.0
  0
LINE
  5
1CD
330
88
100
AcDbEntity
  8
$DDT_AUDIT_GENERATED_(E4)
  6
Continuous
 62
     7
100
AcDbLine
 10
40.1867891235
 20
602.3494860441
 30
0.0
 11
40.1867891235
 21
601.6324721314
 31
0.0
  0
LINE
  5
1CE
330
88
100
AcDbEntity
  8
$DDT_AUDIT_GENERATED_(E4)
  6
Continuous
 62
     7
100
AcDbLine
 10
40.1867891235
 20
601.6324721314
 30
0.0
 11
25.0726696881
 21
601.6061559754
 31
0.0
  0
LINE
  5
1CF
330
88
100
AcDbEntity
  8
$DDT_AUDIT_GENERATED_(E4)
  6
Continuous
 62
     7
100
AcDbLine
 10
41.1486987632
 20
601.8412747518
 30
0.0
 11
41.1486987632
 21
601.1242608391
 31
0.0
  0
LINE
  5
1D0
330
88
100
AcDbEntity
  8
$DDT_AUDIT_GENERATED_(E4)
  6
Continuous
 62
     7
100
AcDbLine
 10
41.1486987632
 20
601.1242608391
 30
0.0
 11
40.1867891235
 21
601.6324721314
 31
0.0
  0
LINE
  5
1D1
330
88
100
AcDbEntity
  8
$DDT_AUDIT_GENERATED_(E4)
  6
Continuous
 62
     7
100
AcDbLine
 10
41.3888873293
 20
601.1246790467
 30
0.0
 11
41.1486987632
 21
601.1242608391
 31
0.0
  0
ELLIPSE
  5
1D2
330
88
100
AcDbEntity
  8
$DDT_AUDIT_GENERATED_(E4)
  6
Continuous
 62
     7
100
AcDbEllipse
 10
23.8736704213
 20
602.2293093659
 30
0.0
 11
-3.349999999999999
 21
0.0
 31
0.0
210
0.0
220
0.0
230
1.0
 40
0.3090169944
 41
0.0361355627107704
 42
0.4647258896026334
  0
LINE
  5
1D3
330
88
100
AcDbEntity
  8
$DDT_AUDIT_GENERATED_(E4)
  6
Continuous
 62
     7
100
AcDbLine
 10
41.3905776597
 20
601.0319754199
 30
0.0
 11
40.6307820994
 21
601.0306524915
 31
0.0
  0
LINE
  5
1D4
330
88
100
AcDbEntity
  8
$DDT_AUDIT_GENERATED_(E4)
  6
Continuous
 62
     7
100
AcDbLine
 10
23.8908554469
 20
601.001505539
 30
0.0
 11
24.6506510072
 21
601.0028284675
 31
0.0
  0
LINE
  5
1D5
330
88
100
AcDbEntity
  8
$DDT_AUDIT_GENERATED_(E4)
  6
Continuous
 62
     7
100
AcDbLine
 10
25.4224550116
 20
601.4213518691
 30
0.0
 11
39.8437651215
 21
601.4464617306
 31
0.0
  0
LINE
  5
1D6
330
88
100
AcDbEntity
  8
$DDT_AUDIT_GENERATED_(E4)
  6
Continuous
 62
     7
100
AcDbLine
 10
40.6307820994
 20
601.0306524915
 30
0.0
 11
39.8437651215
 21
601.4464617306
 31
0.0
  0
LINE
  5
1D7
330
88
100
AcDbEntity
  8
$DDT_AUDIT_GENERATED_(E4)
  6
Continuous
 62
     7
100
AcDbLine
 10
25.4224550116
 20
601.4213518691
 30
0.0
 11
24.6506510072
 21
601.0028284675
 31
0.0
  0
ELLIPSE
  5
1D8
330
88
100
AcDbEntity
  8
$DDT_AUDIT_GENERATED_(E4)
  6
Continuous
 62
     7
100
AcDbEllipse
 10
23.8736704213
 20
602.2293093659
 30
0.0
 11
-3.599999999999996
 21
2.775557561562891E-14
 31
0.0
210
0.0
220
0.0
230
1.0
 40
0.3090169944
 41
0.1177483878804666
 42
0.7456086805721932
  0
LINE
  5
1D9
330
88
100
AcDbEntity
  8
$DDT_AUDIT_GENERATED_(E4)
  6
Continuous
 62
     7
100
AcDbLine
 10
23.1841692034
 20
602.3544322628
 30
0.0
 11
24.5704647932
 21
602.3568460304
 31
0.0
  0
LINE
  5
1DA
330
88
100
AcDbEntity
  8
$DDT_AUDIT_GENERATED_(E4)
  6
Continuous
 62
     7
100
AcDbLine
 10
40.6761992306
 20
602.3848887504
 30
0.0
 11
42.0624948204
 21
602.3873025179
 31
0.0
  0
LINE
  5
1DB
330
88
100
AcDbEntity
  8
$DDT_AUDIT_GENERATED_(E4)
  6
Continuous
 62
     7
100
AcDbLine
 10
23.192902577
 20
601.8754635246
 30
0.0
 11
24.5791981669
 21
601.8778772922
 31
0.0
  0
LINE
  5
1DC
330
88
100
AcDbEntity
  8
$DDT_AUDIT_GENERATED_(E4)
  6
Continuous
 62
     7
100
AcDbLine
 10
24.6418383723
 20
602.3569703035
 30
0.0
 11
26.0281339621
 21
602.359384071
 31
0.0
  0
LINE
  5
1DD
330
88
100
AcDbEntity
  8
$DDT_AUDIT_GENERATED_(E4)
  6
Continuous
 62
     7
100
AcDbLine
 10
26.0995075412
 20
602.3595083441
 30
0.0
 11
27.485803131
 21
602.3619221116
 31
0.0
  0
LINE
  5
1DE
330
88
100
AcDbEntity
  8
$DDT_AUDIT_GENERATED_(E4)
  6
Continuous
 62
     7
100
AcDbLine
 10
27.5571767102
 20
602.3620463847
 30
0.0
 11
28.9434723
 21
602.3644601523
 31
0.0
  0
LINE
  5
1DF
330
88
100
AcDbEntity
  8
$DDT_AUDIT_GENERATED_(E4)
  6
Continuous
 62
     7
100
AcDbLine
 10
29.0148458791
 20
602.3645844253
 30
0.0
 11
30.4011414689
 21
602.3669981929
 31
0.0
  0
LINE
  5
1E0
330
88
100
AcDbEntity
  8
$DDT_AUDIT_GENERATED_(E4)
  6
Continuous
 62
     7
100
AcDbLine
 10
30.472515048
 20
602.367122466
 30
0.0
 11
31.8588106379
 21
602.3695362335
 31
0.0
  0
LINE
  5
1E1
330
88
100
AcDbEntity
  8
$DDT_AUDIT_GENERATED_(E4)
  6
Continuous
 62
     7
100
AcDbLine
 10
31.930184217
 20
602.3696605066
 30
0.0
 11
33.3164798068
 21
602.3720742741
 31
0.0
  0
LINE
  5
1E2
330
88
100
AcDbEntity
  8
$DDT_AUDIT_GENERATED_(E4)
  6
Continuous
 62
     7
100
AcDbLine
 10
33.3878533859
 20
602.3721985472
 30
0.0
 11
34.7741489757
 21
602.3746123148
 31
0.0
  0
LINE
  5
1E3
330
88
100
AcDbEntity
  8
$DDT_AUDIT_GENERATED_(E4)
  6
Continuous
 62
     7
100
AcDbLine
 10
34.8455225549
 20
602.3747365879
 30
0.0
 11
36.2318181447
 21
602.3771503554
 31
0.0
  0
LINE
  5
1E4
330
88
100
AcDbEntity
  8
$DDT_AUDIT_GENERATED_(E4)
  6
Continuous
 62
     7
100
AcDbLine
 10
36.3031917238
 20
602.3772746285
 30
0.0
 11
37.6894873136
 21
602.379688396
 31
0.0
  0
LINE
  5
1E5
330
88
100
AcDbEntity
  8
$DDT_AUDIT_GENERATED_(E4)
  6
Continuous
 62
     7
100
AcDbLine
 10
37.7608608927
 20
602.3798126691
 30
0.0
 11
39.1471564825
 21
602.3822264367
 31
0.0
  0
LINE
  5
1E6
330
88
100
AcDbEntity
  8
$DDT_AUDIT_GENERATED_(E4)
  6
Continuous
 62
     7
100
AcDbLine
 10
39.2185300617
 20
602.3823507097
 30
0.0
 11
40.6048256515
 21
602.3847644773
 31
0.0
  0
LINE
  5
1E7
330
88
100
AcDbEntity
  8
$DDT_AUDIT_GENERATED_(E4)
  6
Continuous
 62
     7
100
AcDbLine
 10
40.6849326042
 20
601.9059200121
 30
0.0
 11
42.0712281941
 21
601.9083337797
 31
0.0
  0
LINE
  5
1E8
330
88
100
AcDbEntity
  8
$DDT_AUDIT_GENERATED_(E4)
  6
Continuous
 62
     7
100
AcDbLine
 10
42.1426017732
 20
601.9084580528
 30
0.0
 11
43.7964098744
 21
601.9113376034
 31
0.0
  0
LINE
  5
1E9
330
88
100
AcDbEntity
  8
$DDT_AUDIT_GENERATED_(E4)
  6
Continuous
 62
     7
100
AcDbLine
 10
42.1338683995
 20
602.387426791
 30
0.0
 11
43.6137931529
 21
602.3900035822
 31
0.0
  0
LINE
  5
1EA
330
88
100
AcDbEntity
  8
$DDT_AUDIT_GENERATED_(E4)
  6
Continuous
 62
     7
100
AcDbLine
 10
21.1223855323
 20
602.35084236
 30
0.0
 11
23.1127956242
 21
602.3543079897
 31
0.0
  0
LINE
  5
1EB
330
88
100
AcDbEntity
  8
$DDT_AUDIT_GENERATED_(E4)
  6
Continuous
 62
     7
100
AcDbLine
 10
21.4653541934
 20
601.8724555801
 30
0.0
 11
23.1215289979
 21
601.8753392515
 31
0.0
  0
LINE
  5
1EC
330
88
100
AcDbEntity
  8
$DDT_AUDIT_GENERATED_(E4)
  6
Continuous
 62
     7
100
AcDbLine
 10
44.4233926341
 20
601.9744622919
 30
0.0
 11
44.4233926341
 21
602.1181343718
 31
0.0
  0
ARC
  5
1EE
330
88
100
AcDbEntity
  8
$DDT_AUDIT_GENERATED_(1ED)
  6
Continuous
 62
     7
100
AcDbCircle
 10
53.3325462644
 20
359.7027622511
 30
0.0
 40
1.5
100
AcDbArc
 50
325.2276746223
 51
330.0
  0
ARC
  5
1EF
330
88
100
AcDbEntity
  8
$DDT_AUDIT_GENERATED_(1ED)
  6
Continuous
 62
     7
100
AcDbCircle
 10
11.3325462644
 20
359.7027622511
 30
0.0
 40
1.5
100
AcDbArc
 50
210.0
 51
214.7723253777
  0
ENDBLK
  5
1F1
330
88
100
AcDbEntity
  8
0
100
AcDbBlockEnd
  0
BLOCK
  5
247
330
1F2
100
AcDbEntity
  8
0
100
AcDbBlockBegin
  2
SE1
 70
     0
 10
0.0
 20
0.0
 30
0.0
  3
SE1
  1

  0
LINE
  5
1F4
330
1F2
100
AcDbEntity
  8
$DDT_AUDIT_GENERATED_(8A)
  6
Continuous
 62
     7
100
AcDbLine
 10
341.5339564361
 20
602.883703703
 30
0.0
 11
330.2285217578
 21
599.2103453015
 31
0.0
  0
LINE
  5
1F5
330
1F2
100
AcDbEntity
  8
$DDT_AUDIT_GENERATED_(8A)
  6
Continuous
 62
     7
100
AcDbLine
 10
330.2285217578
 20
599.2103453015
 30
0.0
 11
329.986035121
 21
599.1315566172
 31
0.0
  0
SPLINE
  5
1F6
330
1F2
100
AcDbEntity
  8
$DDT_AUDIT_GENERATED_(8A)
  6
Continuous
 62
     7
100
AcDbSpline
210
0.0
220
0.0
230
1.0
 70
     8
 71
     3
 72
    32
 73
    28
 74
     0
 42
0.0000000000534115
 43
0.0000000001
 40
0.0
 40
0.0
 40
0.0
 40
0.0
 40
0.0312500000000006
 40
0.0312500000000006
 40
0.0625000000000008
 40
0.0625000000000008
 40
0.093750000000001
 40
0.093750000000001
 40
0.1250000000000012
 40
0.1250000000000012
 40
0.1562500000000014
 40
0.1562500000000014
 40
0.1875000000000016
 40
0.1875000000000016
 40
0.2187500000000017
 40
0.2187500000000017
 40
0.2500000000000019
 40
0.2500000000000019
 40
0.2812500000000021
 40
0.2812500000000021
 40
0.3125000000000023
 40
0.3125000000000023
 40
0.3750000000000023
 40
0.3750000000000023
 40
0.5000000000000019
 40
0.5000000000000019
 40
1.0
 40
1.0
 40
1.0
 40
1.0
 10
341.3824101314802
 20
603.3592319611322
 30
0.0
 10
340.8113007384903
 20
605.2081932178216
 30
0.0
 10
340.232864717209
 20
607.0543973454099
 30
0.0
 10
339.056739358294
 20
610.7395602652574
 30
0.0
 10
338.4887232747213
 20
612.5896855844696
 30
0.0
 10
336.9528014256181
 20
616.1394512473433
 30
0.0
 10
335.9495484571705
 20
617.8519993549465
 30
0.0
 10
333.6394577838
 20
620.9885371178564
 30
0.0
 10
332.3445140445268
 20
622.430385233809
 30
0.0
 10
329.5169715917634
 20
625.0993218743956
 30
0.0
 10
327.969106995068
 20
626.3304760876431
 30
0.0
 10
324.7259462518953
 20
628.4712912430828
 30
0.0
 10
323.020945993666
 20
629.3919539079749
 30
0.0
 10
319.4380930295869
 20
630.9229962136201
 30
0.0
 10
317.5567688720395
 20
631.5323980331323
 30
0.0
 10
313.7736357020403
 20
632.3433764785223
 30
0.0
 10
311.845434817517
 20
632.5117760991026
 30
0.0
 10
307.9490291418795
 20
632.5896783388216
 30
0.0
 10
305.9942539829462
 20
632.5791889705167
 30
0.0
 10
302.0902526838744
 20
632.6155506246905
 30
0.0
 10
300.1382879755909
 20
632.6407946967155
 30
0.0
 10
294.2823315882919
 20
632.7042909751667
 30
0.0
 10
290.3782794465624
 20
632.7306609311449
 30
0.0
 10
278.6659709246816
 20
632.779880460741
 30
0.0
 10
270.8576246038936
 20
632.7855463268363
 30
0.0
 10
231.8159371137811
 20
632.8173099689642
 30
0.0
 10
200.5825797057828
 20
632.8193910978622
 30
0.0
 10
169.349222154948
 20
632.8210228430813
 30
0.0
  0
ARC
  5
1F7
330
1F2
100
AcDbEntity
  8
$DDT_AUDIT_GENERATED_(8A)
  6
Continuous
 62
     7
100
AcDbCircle
 10
341.3794479389
 20
603.3592319611
 30
0.0
 40
0.4999999999999458
100
AcDbArc
 50
288.0
 51
17.1649359393
  0
LINE
  5
1F8
330
1F2
100
AcDbEntity
  8
$DDT_AUDIT_GENERATED_(8A)
  6
Continuous
 62
     7
100
AcDbLine
 10
175.7467182498
 20
658.3957760278
 30
0.0
 11
175.7467182498
 21
636.3201751155
 31
0.0
  0
LINE
  5
1F9
330
1F2
100
AcDbEntity
  8
$DDT_AUDIT_GENERATED_(8A)
  6
Continuous
 62
     7
100
AcDbLine
 10
135.7467182498
 20
658.3957760278
 30
0.0
 11
135.7467182498
 21
443.3916273062
 31
0.0
  0
ARC
  5
1FA
330
1F2
100
AcDbEntity
  8
$DDT_AUDIT_GENERATED_(8A)
  6
Continuous
 62
     7
100
AcDbCircle
 10
84.1043811163
 20
478.9925986029
 30
0.0
 40
165.4832091307362
100
AcDbArc
 50
53.1889567329
 51
56.893249909
  0
SPLINE
  5
1FB
330
1F2
100
AcDbEntity
  8
$DDT_AUDIT_GENERATED_(8A)
  6
Continuous
 62
     7
100
AcDbSpline
210
0.0
220
0.0
230
1.0
 70
     8
 71
     3
 72
    32
 73
    28
 74
     0
 42
0.0000000000543395
 43
0.0000000001
 40
0.0
 40
0.0
 40
0.0
 40
0.0
 40
0.5000000000000001
 40
0.5000000000000001
 40
0.6250000000000001
 40
0.6250000000000001
 40
0.6875
 40
0.6875
 40
0.71875
 40
0.71875
 40
0.75
 40
0.75
 40
0.7812500000000001
 40
0.7812500000000001
 40
0.8125000000000001
 40
0.8125000000000001
 40
0.8437500000000001
 40
0.8437500000000001
 40
0.8750000000000001
 40
0.8750000000000001
 40
0.9062500000000001
 40
0.9062500000000001
 40
0.9375000000000001
 40
0.9375000000000001
 40
0.9687500000000001
 40
0.9687500000000001
 40
1.0
 40
1.0
 40
1.0
 40
1.0
 10
173.1786603210286
 20
633.3207796719125
 30
0.0
 10
203.6879822783701
 20
633.3185015884841
 30
0.0
 10
234.1974918054299
 20
633.3174988283206
 30
0.0
 10
272.3338611730977
 20
633.2837382843783
 30
0.0
 10
279.9611478845205
 20
633.2775627445301
 30
0.0
 10
291.4011009279425
 20
633.2244248421605
 30
0.0
 10
295.214168585373
 20
633.1954839572667
 30
0.0
 10
300.9333066981185
 20
633.1312682480694
 30
0.0
 10
302.8396211569923
 20
633.1069494143188
 30
0.0
 10
306.6526299831983
 20
633.0753743019001
 30
0.0
 10
308.5598908093863
 20
633.0935603694527
 30
0.0
 10
312.3710761632399
 20
632.9800412129961
 30
0.0
 10
314.2733168427146
 20
632.772727294458
 30
0.0
 10
318.0676339294532
 20
631.9017330179354
 30
0.0
 10
319.9545402343548
 20
631.2648057023227
 30
0.0
 10
323.5103245755056
 20
629.7014658619713
 30
0.0
 10
325.2079132016083
 20
628.7665036423167
 30
0.0
 10
328.4451119180227
 20
626.5950122946527
 30
0.0
 10
329.9929950572504
 20
625.3484779256191
 30
0.0
 10
332.8195970224883
 20
622.651628121827
 30
0.0
 10
334.1155523110741
 20
621.1953709397612
 30
0.0
 10
336.4281406476989
 20
618.0261793160462
 30
0.0
 10
337.4232858149339
 20
616.310389610966
 30
0.0
 10
338.9565334340438
 20
612.754626855686
 30
0.0
 10
339.5269694582772
 20
610.9013344538992
 30
0.0
 10
340.7053755604494
 20
607.2091771379188
 30
0.0
 10
341.2849437625375
 20
605.3593950100657
 30
0.0
 10
341.8571775146732
 20
603.5067936512788
 30
0.0
  0
ARC
  5
1FC
330
1F2
100
AcDbEntity
  8
$DDT_AUDIT_GENERATED_(8A)
  6
Continuous
 62
     7
100
AcDbCircle
 10
93.5760097424
 20
544.7567095583
 30
0.0
 40
101.006589080407
100
AcDbArc
 50
35.5588830106
 51
41.443266848
  0
ARC
  5
1FD
330
1F2
100
AcDbEntity
  8
$DDT_AUDIT_GENERATED_(8A)
  6
Continuous
 62
     7
100
AcDbCircle
 10
178.7427429586
 20
617.5231632503
 30
0.0
 40
11.14803020334627
100
AcDbArc
 50
178.3781520229
 51
212.0293748512
  0
LINE
  5
1FE
330
1F2
100
AcDbEntity
  8
$DDT_AUDIT_GENERATED_(8A)
  6
Continuous
 62
     7
100
AcDbLine
 10
167.5991787084
 20
617.8386837993
 30
0.0
 11
167.5991787084
 21
632.8210228431
 31
0.0
  0
ARC
  5
1FF
330
1F2
100
AcDbEntity
  8
$DDT_AUDIT_GENERATED_(8A)
  6
Continuous
 62
     7
100
AcDbCircle
 10
171.3382097589
 20
632.6010752275
 30
0.0
 40
3.745494646876007
100
AcDbArc
 50
96.727597519
 51
176.6334688981
  0
SPLINE
  5
200
330
1F2
100
AcDbEntity
  8
$DDT_AUDIT_GENERATED_(8A)
  6
Continuous
 62
     7
100
AcDbSpline
210
0.0
220
0.0
230
1.0
 70
     8
 71
     3
 72
     8
 73
     4
 74
     0
 42
0.0000000020628949
 43
0.0000000001
 40
0.0
 40
0.0
 40
0.0
 40
0.0
 40
1.0
 40
1.0
 40
1.0
 40
1.0
 10
170.8994284257863
 20
636.3207796635495
 30
0.0
 10
173.9743514605174
 20
636.3206108813579
 30
0.0
 10
175.746718249834
 20
636.320442099166
 30
0.0
 10
175.746718249834
 20
636.3201751154562
 30
0.0
  0
SPLINE
  5
201
330
1F2
100
AcDbEntity
  8
$DDT_AUDIT_GENERATED_(8A)
  6
Continuous
 62
     7
100
AcDbSpline
210
0.0
220
0.0
230
1.0
 70
     8
 71
     3
 72
    23
 73
    19
 74
     0
 42
0.0000000025539248
 43
0.0000000001
 40
0.0
 40
0.0
 40
0.0
 40
0.0
 40
0.0757430690850389
 40
0.1662782050439249
 40
0.2716068485072626
 40
0.3993268014489593
 40
0.4492319664677361
 40
0.585676057344335
 40
0.6913656151293529
 40
0.7944653211086096
 40
0.8738886760367673
 40
0.9039088329636329
 40
0.9296412864616653
 40
0.9511523438458649
 40
0.9685566267686165
 40
0.9820736362788948
 40
0.9921794264627821
 40
1.0
 40
1.0
 40
1.0
 40
1.0
 10
173.1786603210286
 20
633.3207796719125
 30
0.0
 10
173.0803659287918
 20
633.3203285573068
 30
0.0
 10
172.864580969132
 20
633.3193382287153
 30
0.0
 10
172.5117161564879
 20
633.3106320902838
 30
0.0
 10
172.0911021464793
 20
633.2936230160092
 30
0.0
 10
171.7232073782028
 20
633.271437247846
 30
0.0
 10
171.3148541391809
 20
633.2411232675836
 30
0.0
 10
170.9354197846264
 20
633.2063735496754
 30
0.0
 10
170.4875395319208
 20
633.1541203464596
 30
0.0
 10
170.1149811508016
 20
633.098527457121
 30
0.0
 10
169.8419200395647
 20
633.0456466715193
 30
0.0
 10
169.6704684509394
 20
633.0022460174373
 30
0.0
 10
169.5736190441599
 20
632.9729619001633
 30
0.0
 10
169.4943171485224
 20
632.9435337914019
 30
0.0
 10
169.4318232848276
 20
632.9141471484884
 30
0.0
 10
169.3873182729947
 20
632.8846751289877
 30
0.0
 10
169.3561569938406
 20
632.8548636879506
 30
0.0
 10
169.3513285964504
 20
632.8313019226161
 30
0.0
 10
169.349222154948
 20
632.8210228430813
 30
0.0
  0
SPLINE
  5
202
330
1F2
100
AcDbEntity
  8
$DDT_AUDIT_GENERATED_(8A)
  6
Continuous
 62
     7
100
AcDbSpline
210
0.0
220
0.0
230
1.0
 70
     8
 71
     3
 72
    34
 73
    30
 74
     0
 42
0.0000000000578783
 43
0.0000000001
 40
0.0
 40
0.0
 40
0.0
 40
0.0
 40
0.249999999999999
 40
0.249999999999999
 40
0.4999999999999981
 40
0.4999999999999981
 40
0.6249999999999977
 40
0.6249999999999977
 40
0.7499999999999972
 40
0.7499999999999972
 40
0.7812499999999971
 40
0.7812499999999971
 40
0.812499999999997
 40
0.812499999999997
 40
0.8437499999999969
 40
0.8437499999999969
 40
0.8593749999999967
 40
0.8593749999999967
 40
0.8749999999999964
 40
0.8749999999999964
 40
0.9062499999999962
 40
0.9062499999999962
 40
0.9218749999999966
 40
0.9218749999999966
 40
0.9374999999999968
 40
0.9374999999999968
 40
0.9687499999999983
 40
0.9687499999999983
 40
1.0
 40
1.0
 40
1.0
 40
1.0
 10
169.3492221548021
 20
617.8386837992799
 30
0.0
 10
183.7560763341706
 20
618.2393224274
 30
0.0
 10
198.1606719213819
 20
618.7161942535265
 30
0.0
 10
226.9729318367386
 20
619.5664596793482
 30
0.0
 10
241.3809535335671
 20
619.927869886813
 30
0.0
 10
262.9894693787285
 20
620.5884438872388
 30
0.0
 10
270.1913921620344
 20
620.8398570849455
 30
0.0
 10
284.5947332914682
 20
621.3555951435635
 30
0.0
 10
291.7959606202161
 20
621.6336011293121
 30
0.0
 10
300.8009283280018
 20
621.8546414503793
 30
0.0
 10
302.6029935015481
 20
621.8938929134899
 30
0.0
 10
306.2042648155102
 20
621.9035040863944
 30
0.0
 10
308.0030144570239
 20
621.8791850526075
 30
0.0
 10
311.5834201676456
 20
621.5665810666616
 30
0.0
 10
313.3947885389429
 20
621.2528184827515
 30
0.0
 10
315.9189998803081
 20
620.3303787100774
 30
0.0
 10
316.7306533220923
 20
619.9525536544595
 30
0.0
 10
318.3038627234989
 20
619.0784472794446
 30
0.0
 10
319.0636749857646
 20
618.5667928061526
 30
0.0
 10
321.1586382738396
 20
616.874894136938
 30
0.0
 10
322.3816658067395
 20
615.5670459594944
 30
0.0
 10
324.1280731995138
 20
613.5139411046437
 30
0.0
 10
324.6834321224335
 20
612.8011888963499
 30
0.0
 10
325.6677119259855
 20
611.3197040254968
 30
0.0
 10
326.1014666272801
 20
610.5486601028974
 30
0.0
 10
327.2433985577815
 20
608.152836115698
 30
0.0
 10
327.825139352838
 20
606.4602329981635
 30
0.0
 10
328.9783766068751
 20
603.0821621785369
 30
0.0
 10
329.529492067738
 20
601.3846233810856
 30
0.0
 10
330.0769754532409
 20
599.6858735596971
 30
0.0
  0
LINE
  5
203
330
1F2
100
AcDbEntity
  8
$DDT_AUDIT_GENERATED_(8A)
  6
Continuous
 62
     7
100
AcDbLine
 10
169.3492221549
 20
632.8210228431
 30
0.0
 11
169.3492221549
 21
617.8386837993
 31
0.0
  0
ELLIPSE
  5
204
330
1F2
100
AcDbEntity
  8
$DDT_AUDIT_GENERATED_(8A)
  6
Continuous
 62
     7
100
AcDbEllipse
 10
173.1788843263
 20
636.3207796635
 30
0.0
 11
-0.0002240053154391186
 21
-2.999999991636859
 31
0.0
210
0.0
220
0.0
230
0.9999999999999999
 40
0.7598186326
 41
4.712445714855575
 42
6.283185307179586
  0
SPLINE
  5
205
330
1F2
100
AcDbEntity
  8
$DDT_AUDIT_GENERATED_(8A)
  6
Continuous
 62
     7
100
AcDbSpline
210
0.0
220
0.0
230
1.0
 70
    12
 71
     2
 72
     6
 73
     3
 74
     0
 42
0.0000000016668726
 43
0.0000000001
 40
0.0
 40
0.0
 40
0.0
 40
1.0
 40
1.0
 40
1.0
 10
175.746718249834
 20
636.3201751154562
 30
0.0
 41
1.0
 10
175.7467182498339
 20
633.3205948038161
 30
0.0
 41
0.7071446697891669
 10
178.7463967457665
 20
633.3202733342019
 30
0.0
 41
1.0
  0
LINE
  5
206
330
1F2
100
AcDbEntity
  8
$DDT_AUDIT_GENERATED_(8A)
  6
Continuous
 62
     7
100
AcDbLine
 10
169.3492221549
 20
632.8210228431
 30
0.0
 11
167.5991787084
 21
632.8210228431
 31
0.0
  0
LINE
  5
207
330
1F2
100
AcDbEntity
  8
$DDT_AUDIT_GENERATED_(8A)
  6
Continuous
 62
     7
100
AcDbLine
 10
169.3492221548
 20
617.8386837993
 30
0.0
 11
167.5991787084
 21
617.8386837993
 31
0.0
  0
ELLIPSE
  5
208
330
1F2
100
AcDbEntity
  8
$DDT_AUDIT_GENERATED_(8A)
  6
Continuous
 62
     7
100
AcDbEllipse
 10
174.6979697172
 20
611.6107610791
 30
0.0
 11
4.895195708457221
 21
6.327484411349394
 31
0.0
210
0.0
220
0.0
230
1.0
 40
0.5870414196
 41
0.9553039103553139
 42
1.997103314977335
  0
SPLINE
  5
209
330
1F2
100
AcDbEntity
  8
$DDT_AUDIT_GENERATED_(8A)
  6
Continuous
 62
     7
100
AcDbSpline
210
0.0
220
0.0
230
1.0
 70
    12
 71
     2
 72
     6
 73
     3
 74
     0
 42
0.0000000006643999
 43
0.0000000001
 40
0.0
 40
0.0
 40
0.0
 40
1.0
 40
1.0
 40
1.0
 10
183.2582663982949
 20
611.4810869243236
 30
0.0
 41
1.0
 10
175.7467182498339
 20
611.0216009670519
 30
0.0
 41
0.7283736957916532
 10
175.746718249834
 20
603.4960124231853
 30
0.0
 41
1.0
  0
LINE
  5
20A
330
1F2
100
AcDbEntity
  8
$DDT_AUDIT_GENERATED_(8A)
  6
Continuous
 62
     7
100
AcDbLine
 10
141.6045826261
 20
658.3957760278
 30
0.0
 11
135.7467182498
 21
658.3957760278
 31
0.0
  0
LINE
  5
20B
330
1F2
100
AcDbEntity
  8
$DDT_AUDIT_GENERATED_(8A)
  6
Continuous
 62
     7
100
AcDbLine
 10
155.7467182498
 20
658.3957760278
 30
0.0
 11
141.6045826261
 21
658.3957760278
 31
0.0
  0
LINE
  5
20C
330
1F2
100
AcDbEntity
  8
$DDT_AUDIT_GENERATED_(8A)
  6
Continuous
 62
     7
100
AcDbLine
 10
169.8888538736
 20
658.3957760278
 30
0.0
 11
155.7467182498
 21
658.3957760278
 31
0.0
  0
LINE
  5
20D
330
1F2
100
AcDbEntity
  8
$DDT_AUDIT_GENERATED_(8A)
  6
Continuous
 62
     7
100
AcDbLine
 10
175.7467182498
 20
658.3957760278
 30
0.0
 11
169.8888538736
 21
658.3957760278
 31
0.0
  0
LINE
  5
20E
330
1F2
100
AcDbEntity
  8
$DDT_AUDIT_GENERATED_(8A)
  6
Continuous
 62
     7
100
AcDbLine
 10
136.0467182498
 20
658.9527622511
 30
0.0
 11
175.4467182498
 21
658.9527622511
 31
0.0
  0
LINE
  5
20F
330
1F2
100
AcDbEntity
  8
$DDT_AUDIT_GENERATED_(8A)
  6
Continuous
 62
     7
100
AcDbLine
 10
329.9854604329
 20
599.1313698897
 30
0.0
 11
329.4782176303
 21
598.9665567123
 31
0.0
  0
ARC
  5
210
330
1F2
100
AcDbEntity
  8
$DDT_AUDIT_GENERATED_(8A)
  6
Continuous
 62
     7
100
AcDbCircle
 10
302.4119507672
 20
597.5179024814
 30
0.0
 40
25.54216292595383
100
AcDbArc
 50
16.572773557
 51
28.5208202413
  0
LINE
  5
211
330
1F2
100
AcDbEntity
  8
$DDT_AUDIT_GENERATED_(8A)
  6
Continuous
 62
     7
100
AcDbLine
 10
135.7467182498
 20
367.2527622886
 30
0.0
 11
135.7467182498
 21
443.3916273062
 31
0.0
  0
LINE
  5
212
330
1F2
100
AcDbEntity
  8
$DDT_AUDIT_GENERATED_(8A)
  6
Continuous
 62
     7
100
AcDbLine
 10
175.7467182498
 20
367.2527622886
 30
0.0
 11
175.7467182498
 21
603.4960124232
 31
0.0
  0
ARC
  5
213
330
1F2
100
AcDbEntity
  8
$DDT_AUDIT_GENERATED_(8A)
  6
Continuous
 62
     7
100
AcDbCircle
 10
136.0467182498
 20
367.2527622886
 30
0.0
 40
0.3000000000000086
100
AcDbArc
 50
180.0
 51
270.0
  0
SPLINE
  5
214
330
1F2
100
AcDbEntity
  8
$DDT_AUDIT_GENERATED_(8A)
  6
Continuous
 62
     7
100
AcDbSpline
210
0.0
220
0.0
230
1.0
 70
     8
 71
     3
 72
    10
 73
     6
 74
     0
 42
0.0000000206981884
 43
0.0000000001
 40
0.0
 40
0.0
 40
0.0
 40
0.0
 40
0.5
 40
0.5
 40
1.0
 40
1.0
 40
1.0
 40
1.0
 10
175.446718249834
 20
366.9527622886299
 30
0.0
 10
175.5252580661737
 20
366.9527622886299
 30
0.0
 10
175.6033142474629
 20
366.9850942175469
 30
0.0
 10
175.7143863209169
 20
367.0961662910009
 30
0.0
 10
175.746718249834
 20
367.1742224722901
 30
0.0
 10
175.746718249834
 20
367.2527622886299
 30
0.0
  0
ARC
  5
215
330
1F2
100
AcDbEntity
  8
$DDT_AUDIT_GENERATED_(8A)
  6
Continuous
 62
     7
100
AcDbCircle
 10
119.0730171099
 20
532.7310116135
 30
0.0
 40
219.9604971028033
100
AcDbArc
 50
17.6031240283
 51
19.1266166187
  0
SPLINE
  5
216
330
1F2
100
AcDbEntity
  8
$DDT_AUDIT_GENERATED_(8A)
  6
Continuous
 62
     7
100
AcDbSpline
210
0.0
220
0.0
230
1.0
 70
     8
 71
     3
 72
    42
 73
    38
 74
     0
 42
0.0000000000689454
 43
0.0000000001
 40
0.0
 40
0.0
 40
0.0
 40
0.0
 40
0.0480337681524603
 40
0.1082810334935604
 40
0.1672473073843177
 40
0.2232607512929897
 40
0.2754484353278562
 40
0.3325590937481883
 40
0.3856328807394838
 40
0.435342300410735
 40
0.4822764237374298
 40
0.5328872810042274
 40
0.581106379781059
 40
0.6266102726361059
 40
0.6688119482982152
 40
0.7072726436190119
 40
0.7416898460708669
 40
0.7718833337111337
 40
0.797781760755662
 40
0.8194409384677201
 40
0.8373611766389433
 40
0.8522391013519839
 40
0.8646701353202977
 40
0.8782905952207507
 40
0.8893974251804178
 40
0.8987139889089394
 40
0.9036878601277556
 40
0.9092433696275075
 40
0.9159707735183065
 40
0.9240801185218065
 40
0.9344098440385769
 40
0.9460584251079448
 40
0.9608317191104059
 40
0.977172530654214
 40
0.9858435750962893
 40
0.9953653010143053
 40
1.0
 40
1.0
 40
1.0
 40
1.0
 10
183.258606338421
 20
611.4761830794305
 30
0.0
 10
185.8081018633852
 20
611.6297742963371
 30
0.0
 10
190.6648832972491
 20
611.9217059990203
 30
0.0
 10
198.9137817891472
 20
612.3568584291656
 30
0.0
 10
207.3244285885605
 20
612.7818887518843
 30
0.0
 10
215.4074726387081
 20
613.1830874893279
 30
0.0
 10
223.3852913472328
 20
613.5866375853165
 30
0.0
 10
231.224674870967
 20
613.9916760484051
 30
0.0
 10
238.9427054337639
 20
614.4026489246545
 30
0.0
 10
246.1690391262268
 20
614.8010798498207
 30
0.0
 10
253.2755633798307
 20
615.2083880759318
 30
0.0
 10
260.3091463109373
 20
615.6293228482278
 30
0.0
 10
267.2724388952192
 20
616.0668454028983
 30
0.0
 10
273.8291067690218
 20
616.4933514256644
 30
0.0
 10
279.9145156191673
 20
616.8973857355709
 30
0.0
 10
285.4649538315468
 20
617.2692580764702
 30
0.0
 10
290.4362772038
 20
617.6014904496856
 30
0.0
 10
294.8019798859374
 20
617.8890348230746
 30
0.0
 10
298.5528098988998
 20
618.1281836329664
 30
0.0
 10
301.7121537083008
 20
618.3201936559652
 30
0.0
 10
304.3408874745004
 20
618.4605336151222
 30
0.0
 10
306.5257794781272
 20
618.5444564767346
 30
0.0
 10
308.5042623527734
 20
618.573635454687
 30
0.0
 10
310.3008442724491
 20
618.5327098188467
 30
0.0
 10
311.9419696282195
 20
618.3950811473377
 30
0.0
 10
313.1557654370864
 20
618.2022820995389
 30
0.0
 10
314.0918712944853
 20
617.9910256492393
 30
0.0
 10
314.895789373025
 20
617.7667423027239
 30
0.0
 10
315.8280327637312
 20
617.4445549562505
 30
0.0
 10
316.9511345658939
 20
616.9739614339783
 30
0.0
 10
318.2350473808315
 20
616.2846177355957
 30
0.0
 10
319.706941026628
 20
615.2849850497197
 30
0.0
 10
321.322652812092
 20
613.9958694152938
 30
0.0
 10
322.7301481168699
 20
612.6701302787015
 30
0.0
 10
323.7917710215952
 20
611.3931790126641
 30
0.0
 10
324.4410527827279
 20
610.4616026644312
 30
0.0
 10
324.7388697165571
 20
609.894559963912
 30
0.0
 10
324.8525889479787
 20
609.6759235171519
 30
0.0
  0
ARC
  5
217
330
1F2
100
AcDbEntity
  8
$DDT_AUDIT_GENERATED_(8A)
  6
Continuous
 62
     7
100
AcDbCircle
 10
329.2108103262
 20
599.4054019245
 30
0.0
 40
0.5000000000000051
100
AcDbArc
 50
198.4947330027
 51
288.0
  0
LINE
  5
218
330
1F2
100
AcDbEntity
  8
$DDT_AUDIT_GENERATED_(8A)
  6
Continuous
 62
     7
100
AcDbLine
 10
175.7467182498
 20
658.3957760278
 30
0.0
 11
175.7467182498
 21
658.6527622511
 31
0.0
  0
LINE
  5
219
330
1F2
100
AcDbEntity
  8
$DDT_AUDIT_GENERATED_(8A)
  6
Continuous
 62
     7
100
AcDbLine
 10
135.7467182498
 20
658.6527622511
 30
0.0
 11
135.7467182498
 21
658.3957760278
 31
0.0
  0
ARC
  5
21A
330
1F2
100
AcDbEntity
  8
$DDT_AUDIT_GENERATED_(8A)
  6
Continuous
 62
     7
100
AcDbCircle
 10
136.0467182498
 20
658.6527622511
 30
0.0
 40
0.3000000000000225
100
AcDbArc
 50
90.0
 51
180.0
  0
ARC
  5
21B
330
1F2
100
AcDbEntity
  8
$DDT_AUDIT_GENERATED_(8A)
  6
Continuous
 62
     7
100
AcDbCircle
 10
175.4467182498
 20
658.6527622511
 30
0.0
 40
0.3000000000000017
100
AcDbArc
 50
0.0
 51
90.0
  0
LINE
  5
21D
330
1F2
100
AcDbEntity
  8
$DDT_AUDIT_GENERATED_(21C)
  6
Continuous
 62
     7
100
AcDbLine
 10
136.5114442475
 20
680.4180101366
 30
0.0
 11
136.8752675194
 21
683.8795573424
 31
0.0
  0
LINE
  5
21E
330
1F2
100
AcDbEntity
  8
$DDT_AUDIT_GENERATED_(21C)
  6
Continuous
 62
     7
100
AcDbLine
 10
136.5114442475
 20
680.4180101366
 30
0.0
 11
136.5192713046
 21
680.4171874798
 31
0.0
  0
ARC
  5
21F
330
1F2
100
AcDbEntity
  8
$DDT_AUDIT_GENERATED_(BA)
  6
Continuous
 62
     7
100
AcDbCircle
 10
159.0615799939
 20
663.4703815646
 30
0.0
 40
2.999999999998999
100
AcDbArc
 50
242.5
 51
268.5
  0
LINE
  5
220
330
1F2
100
AcDbEntity
  8
$DDT_AUDIT_GENERATED_(BA)
  6
Continuous
 62
     7
100
AcDbLine
 10
157.6763341542
 20
660.8093490651
 30
0.0
 11
136.4635313133
 21
671.8520352739
 31
0.0
  0
LINE
  5
221
330
1F2
100
AcDbEntity
  8
$DDT_AUDIT_GENERATED_(BA)
  6
Continuous
 62
     7
100
AcDbLine
 10
158.983049149
 20
660.4714095897
 30
0.0
 11
175.6991193401
 21
660.0336838867
 31
0.0
  0
ARC
  5
222
330
1F2
100
AcDbEntity
  8
$DDT_AUDIT_GENERATED_(BA)
  6
Continuous
 62
     7
100
AcDbCircle
 10
116.7665221622
 20
684.2959312661
 30
0.0
 40
20.11350318655705
100
AcDbArc
 50
349.1724468389
 51
7.8275209363
  0
ARC
  5
223
330
1F2
100
AcDbEntity
  8
$DDT_AUDIT_GENERATED_(BA)
  6
Continuous
 62
     7
100
AcDbCircle
 10
176.5044026409
 20
678.0846087038
 30
0.0
 40
1.934182850963294
100
AcDbArc
 50
88.4191368444
 51
117.8517861855
  0
LINE
  5
224
330
1F2
100
AcDbEntity
  8
$DDT_AUDIT_GENERATED_(BA)
  6
Continuous
 62
     7
100
AcDbLine
 10
226.40545602
 20
678.7127475812
 30
0.0
 11
176.5577624256
 21
680.018055376
 31
0.0
  0
ARC
  5
225
330
1F2
100
AcDbEntity
  8
$DDT_AUDIT_GENERATED_(BA)
  6
Continuous
 62
     7
100
AcDbCircle
 10
226.4237798838
 20
679.4125077087
 30
0.0
 40
0.7000000000000166
100
AcDbArc
 50
268.5
 51
358.5
  0
LINE
  5
226
330
1F2
100
AcDbEntity
  8
$DDT_AUDIT_GENERATED_(BA)
  6
Continuous
 62
     7
100
AcDbLine
 10
175.6814532361
 20
686.1351095647
 30
0.0
 11
176.1774814931
 21
686.0300701377
 31
0.0
  0
LINE
  5
227
330
1F2
100
AcDbEntity
  8
$DDT_AUDIT_GENERATED_(BA)
  6
Continuous
 62
     7
100
AcDbLine
 10
176.1774814931
 20
686.0300701377
 30
0.0
 11
226.5625177099
 21
684.710691531
 31
0.0
  0
LINE
  5
228
330
1F2
100
AcDbEntity
  8
$DDT_AUDIT_GENERATED_(BA)
  6
Continuous
 62
     7
100
AcDbLine
 10
227.2439539735
 20
683.9926075397
 30
0.0
 11
227.1235400113
 21
679.3941838448
 31
0.0
  0
ARC
  5
229
330
1F2
100
AcDbEntity
  8
$DDT_AUDIT_GENERATED_(BA)
  6
Continuous
 62
     7
100
AcDbCircle
 10
226.5441938461
 20
684.0109314035
 30
0.0
 40
0.7000000000000166
100
AcDbArc
 50
358.5
 51
88.5
  0
LINE
  5
22A
330
1F2
100
AcDbEntity
  8
$DDT_AUDIT_GENERATED_(BA)
  6
Continuous
 62
     7
100
AcDbLine
 10
176.7057941419
 20
687.0165785766
 30
0.0
 11
176.7537919553
 21
688.8495411187
 31
0.0
  0
LINE
  5
22B
330
1F2
100
AcDbEntity
  8
$DDT_AUDIT_GENERATED_(BA)
  6
Continuous
 62
     7
100
AcDbLine
 10
176.0068696221
 20
660.3257279997
 30
0.0
 11
176.4832900813
 21
678.5194913143
 31
0.0
  0
LINE
  5
22C
330
1F2
100
AcDbEntity
  8
$DDT_AUDIT_GENERATED_(BA)
  6
Continuous
 62
     7
100
AcDbLine
 10
136.5192713046
 20
680.4171874798
 30
0.0
 11
136.3021586998
 21
672.1259916083
 31
0.0
  0
LINE
  5
22D
330
1F2
100
AcDbEntity
  8
$DDT_AUDIT_GENERATED_(BA)
  6
Continuous
 62
     7
100
AcDbLine
 10
136.7674989562
 20
689.896619051
 30
0.0
 11
136.6913793076
 21
686.9897269466
 31
0.0
  0
ARC
  5
22E
330
1F2
100
AcDbEntity
  8
$DDT_AUDIT_GENERATED_(BA)
  6
Continuous
 62
     7
100
AcDbCircle
 10
136.6020558973
 20
672.1181385238
 30
0.0
 40
0.2999999999999988
100
AcDbArc
 50
183.1328085406
 51
242.5
  0
ARC
  5
22F
330
1F2
100
AcDbEntity
  8
$DDT_AUDIT_GENERATED_(BA)
  6
Continuous
 62
     7
100
AcDbCircle
 10
175.7069724246
 20
660.3335810842
 30
0.0
 40
0.3000000000000151
100
AcDbArc
 50
268.5
 51
358.5
  0
ARC
  5
230
330
1F2
100
AcDbEntity
  8
$DDT_AUDIT_GENERATED_(BA)
  6
Continuous
 62
     7
100
AcDbCircle
 10
146.3138549271
 20
290.4262451962
 30
0.0
 40
400.2499999999953
100
AcDbArc
 50
85.731287626
 51
91.268712374
  0
ARC
  5
231
330
1F2
100
AcDbEntity
  8
$DDT_AUDIT_GENERATED_(BA)
  6
Continuous
 62
     7
100
AcDbCircle
 10
176.0540318278
 20
688.8678649825
 30
0.0
 40
0.6999999999999993
100
AcDbArc
 50
358.5
 51
85.7312876259
  0
ARC
  5
232
330
1F2
100
AcDbEntity
  8
$DDT_AUDIT_GENERATED_(BA)
  6
Continuous
 62
     7
100
AcDbCircle
 10
137.4672590837
 20
689.8782951872
 30
0.0
 40
0.6999999999999541
100
AcDbArc
 50
91.2687123741
 51
178.5
  0
ARC
  5
233
330
1F2
100
AcDbEntity
  8
$DDT_AUDIT_GENERATED_(BA)
  6
Continuous
 62
     7
100
AcDbCircle
 10
177.7054514669
 20
686.9904016283
 30
0.0
 40
1.000000000000032
100
AcDbArc
 50
178.5
 51
268.5
  0
ARC
  5
234
330
1F2
100
AcDbEntity
  8
$DDT_AUDIT_GENERATED_(BA)
  6
Continuous
 62
     7
100
AcDbCircle
 10
177.9827760688
 20
678.4802258918
 30
0.0
 40
1.500000000000002
100
AcDbArc
 50
88.5
 51
178.5
  0
LINE
  5
235
330
1F2
100
AcDbEntity
  8
$DDT_AUDIT_GENERATED_(D6)
  6
Continuous
 62
     7
100
AcDbLine
 10
143.7967182498
 20
665.5901404658
 30
0.0
 11
148.4925193206
 21
665.5901404658
 31
0.0
  0
ARC
  5
236
330
1F2
100
AcDbEntity
  8
$DDT_AUDIT_GENERATED_(D6)
  6
Continuous
 62
     7
100
AcDbCircle
 10
155.7467182498
 20
649.5527622511
 30
0.0
 40
20.00000000000001
100
AcDbArc
 50
28.0342965349
 51
31.8657199873
  0
ARC
  5
237
330
1F2
100
AcDbEntity
  8
$DDT_AUDIT_GENERATED_(D6)
  6
Continuous
 62
     7
100
AcDbCircle
 10
155.7467182498
 20
649.5527622511
 30
0.0
 40
20.00000000000003
100
AcDbArc
 50
126.691057378
 51
151.9657034651
  0
LINE
  5
238
330
1F2
100
AcDbEntity
  8
$DDT_AUDIT_GENERATED_(D9)
  6
Continuous
 62
     7
100
AcDbLine
 10
130.329642533
 20
366.9527622511
 30
0.0
 11
131.3467182498
 21
366.9527622511
 31
0.0
  0
LINE
  5
239
330
1F2
100
AcDbEntity
  8
$DDT_AUDIT_GENERATED_(D9)
  6
Continuous
 62
     7
100
AcDbLine
 10
131.3467182498
 20
366.9527622511
 30
0.0
 11
180.1467182498
 21
366.9527622511
 31
0.0
  0
LINE
  5
23A
330
1F2
100
AcDbEntity
  8
$DDT_AUDIT_GENERATED_(D9)
  6
Continuous
 62
     7
100
AcDbLine
 10
180.1467182498
 20
366.9527622511
 30
0.0
 11
181.1637939666
 21
366.9527622511
 31
0.0
  0
LINE
  5
23B
330
1F2
100
AcDbEntity
  8
$DDT_AUDIT_GENERATED_(D9)
  6
Continuous
 62
     7
100
AcDbLine
 10
181.6637749282
 20
366.4571255189
 30
0.0
 11
181.7292645143
 21
358.9527622511
 31
0.0
  0
LINE
  5
23C
330
1F2
100
AcDbEntity
  8
$DDT_AUDIT_GENERATED_(D9)
  6
Continuous
 62
     7
100
AcDbLine
 10
129.8296615715
 20
366.4571255189
 30
0.0
 11
129.7641719854
 21
358.9527622511
 31
0.0
  0
ARC
  5
23D
330
1F2
100
AcDbEntity
  8
$DDT_AUDIT_GENERATED_(D9)
  6
Continuous
 62
     7
100
AcDbCircle
 10
130.329642533
 20
366.4527622511
 30
0.0
 40
0.5000000000000004
100
AcDbArc
 50
90.0
 51
179.5
  0
ARC
  5
23E
330
1F2
100
AcDbEntity
  8
$DDT_AUDIT_GENERATED_(D9)
  6
Continuous
 62
     7
100
AcDbCircle
 10
181.1637939666
 20
366.4527622511
 30
0.0
 40
0.5000000000000004
100
AcDbArc
 50
0.5
 51
90.0
  0
LINE
  5
23F
330
1F2
100
AcDbEntity
  8
$DDT_AUDIT_GENERATED_(D9)
  6
Continuous
 62
     7
100
AcDbLine
 10
181.7292645143
 20
358.9527622511
 30
0.0
 11
180.1467182498
 21
358.9527622511
 31
0.0
  0
LINE
  5
240
330
1F2
100
AcDbEntity
  8
$DDT_AUDIT_GENERATED_(D9)
  6
Continuous
 62
     7
100
AcDbLine
 10
180.1467182498
 20
358.9527622511
 30
0.0
 11
131.3467182498
 21
358.9527622511
 31
0.0
  0
LINE
  5
241
330
1F2
100
AcDbEntity
  8
$DDT_AUDIT_GENERATED_(D9)
  6
Continuous
 62
     7
100
AcDbLine
 10
131.3467182498
 20
358.9527622511
 30
0.0
 11
129.7641719854
 21
358.9527622511
 31
0.0
  0
ARC
  5
242
330
1F2
100
AcDbEntity
  8
$DDT_AUDIT_GENERATED_(1ED)
  6
Continuous
 62
     7
100
AcDbCircle
 10
176.7467182498
 20
359.7027622511
 30
0.0
 40
1.5
100
AcDbArc
 50
324.5969689172
 51
330.0
  0
ARC
  5
243
330
1F2
100
AcDbEntity
  8
$DDT_AUDIT_GENERATED_(1ED)
  6
Continuous
 62
     7
100
AcDbCircle
 10
134.7467182498
 20
359.7027622511
 30
0.0
 40
1.499999999999999
100
AcDbArc
 50
210.0
 51
215.4030310828
  0
LINE
  5
245
330
1F2
100
AcDbEntity
  8
$DDT_AUDIT_GENERATED_(244)
  6
Continuous
 62
     7
100
AcDbLine
 10
326.6994326581
 20
605.2136178681
 30
0.0
 11
326.1111435017
 21
607.0241857196
 31
0.0
  0
ARC
  5
246
330
1F2
100
AcDbEntity
  8
$DDT_AUDIT_GENERATED_(244)
  6
Continuous
 62
     7
100
AcDbCircle
 10
326.9847496129
 20
605.3063229664
 30
0.0
 40
0.2999999999999949
100
AcDbArc
 50
198.0
 51
232.2394425027
  0
ENDBLK
  5
248
330
1F2
100
AcDbEntity
  8
0
100
AcDbBlockEnd
  0
BLOCK
  5
29C
330
249
100
AcDbEntity
  8
0
100
AcDbBlockBegin
  2
SE2
 70
     0
 10
0.0
 20
0.0
 30
0.0
  3
SE2
  1

  0
SPLINE
  5
24B
330
249
100
AcDbEntity
  8
$DDT_AUDIT_GENERATED_(8A)
  6
Continuous
 62
     7
100
AcDbSpline
210
0.0
220
0.0
230
1.0
 70
     8
 71
     3
 72
    32
 73
    28
 74
     0
 42
0.0000000000592833
 43
0.0000000001
 40
0.0
 40
0.0
 40
0.0
 40
0.0
 40
0.03125
 40
0.03125
 40
0.0625
 40
0.0625
 40
0.09375
 40
0.09375
 40
0.125
 40
0.125
 40
0.15625
 40
0.15625
 40
0.1875
 40
0.1875
 40
0.21875
 40
0.21875
 40
0.25
 40
0.25
 40
0.28125
 40
0.28125
 40
0.3125
 40
0.3125
 40
0.375
 40
0.375
 40
0.5
 40
0.5
 40
1.0
 40
1.0
 40
1.0
 40
1.0
 10
46.3359627375189
 20
106.3722704241926
 30
0.0
 10
46.33931830931829
 20
106.938922500467
 30
0.0
 10
46.34271570881204
 20
107.5129787584863
 30
0.0
 10
46.34962385729998
 20
108.6800495128448
 30
0.0
 10
46.35296058948585
 20
109.2452918260536
 30
0.0
 10
46.36165797162119
 20
110.7409203614393
 30
0.0
 10
46.36715204116024
 20
111.6889173632487
 30
0.0
 10
46.38037753638378
 20
113.9600494566592
 30
0.0
 10
46.38780052489325
 20
115.2316770884503
 30
0.0
 10
46.40384135247982
 20
117.9787882320852
 30
0.0
 10
46.41248377450358
 20
119.4586191286974
 30
0.0
 10
46.43108621358457
 20
122.6459025378485
 30
0.0
 10
46.44097734549371
 20
124.3411969478023
 30
0.0
 10
46.46134522169133
 20
127.8326652536587
 30
0.0
 10
46.47189972231072
 20
129.6419325690983
 30
0.0
 10
46.49381575655281
 20
133.4050423397337
 30
0.0
 10
46.50497118190022
 20
135.3322929170192
 30
0.0
 10
46.52734886325128
 20
139.1575052222537
 30
0.0
 10
46.53872363099754
 20
141.0720298503049
 30
0.0
 10
46.56141885038637
 20
144.8996359003706
 30
0.0
 10
46.57276005465101
 20
146.8132620444765
 30
0.0
 10
46.6067675447657
 20
152.5542586220523
 30
0.0
 10
46.62943276355902
 20
156.3818264738956
 30
0.0
 10
46.69745106272229
 20
167.8652037230612
 30
0.0
 10
46.74280931510153
 20
175.5213757265899
 30
0.0
 10
46.96959652128765
 20
213.8019118092235
 30
0.0
 10
47.15103308943272
 20
244.4263499798336
 30
0.0
 10
47.33246670830599
 20
275.0507876178375
 30
0.0
  0
LINE
  5
24C
330
249
100
AcDbEntity
  8
$DDT_AUDIT_GENERATED_(8A)
  6
Continuous
 62
     7
100
AcDbLine
 10
17.829138566
 20
106.8470378074
 30
0.0
 11
17.6765308005
 21
132.6058433889
 31
0.0
  0
LINE
  5
24D
330
249
100
AcDbEntity
  8
$DDT_AUDIT_GENERATED_(8A)
  6
Continuous
 62
     7
100
AcDbLine
 10
17.6510842585
 20
136.9009887006
 30
0.0
 11
16.8099298018
 21
278.8802257839
 31
0.0
  0
LINE
  5
24E
330
249
100
AcDbEntity
  8
$DDT_AUDIT_GENERATED_(8A)
  6
Continuous
 62
     7
100
AcDbLine
 10
47.855162727
 20
278.8802257839
 30
0.0
 11
46.8359539629
 21
106.8470378074
 31
0.0
  0
ARC
  5
24F
330
249
100
AcDbEntity
  8
$DDT_AUDIT_GENERATED_(8A)
  6
Continuous
 62
     7
100
AcDbCircle
 10
-15.6828782304
 20
285.6024069575
 30
0.0
 40
63.89264721732766
100
AcDbArc
 50
350.4942801533
 51
353.960702064
  0
SPLINE
  5
250
330
249
100
AcDbEntity
  8
$DDT_AUDIT_GENERATED_(8A)
  6
Continuous
 62
     7
100
AcDbSpline
210
0.0
220
0.0
230
1.0
 70
     8
 71
     3
 72
    32
 73
    28
 74
     0
 42
0.0000000000592833
 43
0.0000000001
 40
0.0
 40
0.0
 40
0.0
 40
0.0
 40
0.5000000000000001
 40
0.5000000000000001
 40
0.6250000000000001
 40
0.6250000000000001
 40
0.6875
 40
0.6875
 40
0.71875
 40
0.71875
 40
0.75
 40
0.75
 40
0.7812500000000001
 40
0.7812500000000001
 40
0.8125000000000001
 40
0.8125000000000001
 40
0.8437500000000001
 40
0.8437500000000001
 40
0.8750000000000001
 40
0.8750000000000001
 40
0.9062500000000001
 40
0.9062500000000001
 40
0.9375000000000001
 40
0.9375000000000001
 40
0.9687500000000001
 40
0.9687500000000001
 40
1.0
 40
1.0
 40
1.0
 40
1.0
 10
17.332625820531
 20
275.0507876178372
 30
0.0
 10
17.51337743979409
 20
244.5414656604958
 30
0.0
 10
17.69413301665072
 20
214.0319561334359
 30
0.0
 10
17.92006628859912
 20
175.8955867657682
 30
0.0
 10
17.96525344146701
 20
168.2683000543452
 30
0.0
 10
18.03301512254858
 20
156.8283470109234
 30
0.0
 10
18.05559524304042
 20
153.0152793534928
 30
0.0
 10
18.08947160111777
 20
147.2961412407473
 30
0.0
 10
18.1007676053705
 20
145.3898267818735
 30
0.0
 10
18.12337547345929
 20
141.5768179556675
 30
0.0
 10
18.13471621172323
 20
139.6695571294795
 30
0.0
 10
18.15706808653516
 20
135.8583717756259
 30
0.0
 10
18.16807209893019
 20
133.9561310961512
 30
0.0
 10
18.19016140718072
 20
130.1618140094127
 30
0.0
 10
18.20116791673394
 20
128.2749077045111
 30
0.0
 10
18.22191012291886
 20
124.7191233633602
 30
0.0
 10
18.23181461419799
 20
123.0215347372575
 30
0.0
 10
18.25070719319935
 20
119.7843360208431
 30
0.0
 10
18.25974639415325
 20
118.2364528816154
 30
0.0
 10
18.27625181899843
 20
115.4098509163775
 30
0.0
 10
18.2838176699764
 20
114.1138956277918
 30
0.0
 10
18.29728727940393
 20
111.8013072911669
 30
0.0
 10
18.30305631375959
 20
110.8061621239319
 30
0.0
 10
18.31197022603725
 20
109.2729145048221
 30
0.0
 10
18.31533597671618
 20
108.7024784805886
 30
0.0
 10
18.32231108912715
 20
107.5240723784164
 30
0.0
 10
18.32574116623108
 20
106.9445041763283
 30
0.0
 10
18.32912979131818
 20
106.3722704241926
 30
0.0
  0
ARC
  5
251
330
249
100
AcDbEntity
  8
$DDT_AUDIT_GENERATED_(8A)
  6
Continuous
 62
     7
100
AcDbCircle
 10
32.4538398341
 20
292.799177371
 30
0.0
 40
23.31644166837467
100
AcDbArc
 50
229.569777227
 51
248.2821216753
  0
ARC
  5
252
330
249
100
AcDbEntity
  8
$DDT_AUDIT_GENERATED_(8A)
  6
Continuous
 62
     7
100
AcDbCircle
 10
32.2128493746
 20
292.7948757897
 30
0.0
 40
23.31213189237296
100
AcDbArc
 50
291.7135206822
 51
310.4340919887
  0
ARC
  5
253
330
249
100
AcDbEntity
  8
$DDT_AUDIT_GENERATED_(8A)
  6
Continuous
 62
     7
100
AcDbCircle
 10
80.2969340436
 20
285.5954407429
 30
0.0
 40
63.84116085680252
100
AcDbArc
 50
186.0378997161
 51
189.5071180667
  0
ELLIPSE
  5
254
330
249
100
AcDbEntity
  8
$DDT_AUDIT_GENERATED_(8A)
  6
Continuous
 62
     7
100
AcDbEllipse
 10
17.3326258205
 20
275.0505636125
 30
0.0
 11
-1.950405290552264
 21
-2.279455900557366
 31
0.0
210
0.0
220
0.0
230
1.0
 40
0.0000485446
 41
3.141592653580847
 42
4.71233224591395
  0
SPLINE
  5
255
330
249
100
AcDbEntity
  8
$DDT_AUDIT_GENERATED_(8A)
  6
Continuous
 62
     7
100
AcDbSpline
210
0.0
220
0.0
230
1.0
 70
    12
 71
     2
 72
     6
 73
     3
 74
     0
 42
0.000000005165349
 43
0.0000000001
 40
0.0
 40
0.0
 40
0.0
 40
1.0
 40
1.0
 40
1.0
 10
16.80992980184574
 20
278.8802257839178
 30
0.0
 41
1.0
 10
16.80419506324246
 20
279.8481976056406
 30
0.0
 41
0.9516857331390911
 10
16.23378616733299
 20
280.6302692304347
 30
0.0
 41
1.0
  0
ELLIPSE
  5
256
330
249
100
AcDbEntity
  8
$DDT_AUDIT_GENERATED_(8A)
  6
Continuous
 62
     7
100
AcDbEllipse
 10
47.3324667083
 20
275.0505636125
 30
0.0
 11
-1.950405290552369
 21
2.279455900557187
 31
0.0
210
0.0
220
0.0
230
1.0
 40
0.0000485446
 41
4.712445714855461
 42
6.283185307179586
  0
SPLINE
  5
257
330
249
100
AcDbEntity
  8
$DDT_AUDIT_GENERATED_(8A)
  6
Continuous
 62
     7
100
AcDbSpline
210
0.0
220
0.0
230
1.0
 70
    12
 71
     2
 72
     6
 73
     3
 74
     0
 42
0.000000005165349
 43
0.0000000001
 40
0.0
 40
0.0
 40
0.0
 40
1.0
 40
1.0
 40
1.0
 10
48.43130636150399
 20
280.6302692304347
 30
0.0
 41
1.0
 10
47.8608974655945
 20
279.8481976056405
 30
0.0
 41
0.9516857331390908
 10
47.85516272699135
 20
278.880225783936
 30
0.0
 41
1.0
  0
LINE
  5
258
330
249
100
AcDbEntity
  8
$DDT_AUDIT_GENERATED_(8A)
  6
Continuous
 62
     7
100
AcDbLine
 10
17.6510878281
 20
136.9003861936
 30
0.0
 11
17.6765161783
 21
132.6083114928
 31
0.0
  0
ARC
  5
259
330
249
100
AcDbEntity
  8
$DDT_AUDIT_GENERATED_(8A)
  6
Continuous
 62
     7
100
AcDbCircle
 10
18.3291297913
 20
106.85
 30
0.0
 40
0.4999999999999993
100
AcDbArc
 50
180.3394442555
 51
270.0
  0
LINE
  5
25A
330
249
100
AcDbEntity
  8
$DDT_AUDIT_GENERATED_(8A)
  6
Continuous
 62
     7
100
AcDbLine
 10
18.3291297913
 20
106.35
 30
0.0
 11
46.3359627375
 21
106.35
 31
0.0
  0
ARC
  5
25B
330
249
100
AcDbEntity
  8
$DDT_AUDIT_GENERATED_(8A)
  6
Continuous
 62
     7
100
AcDbCircle
 10
46.3359627375
 20
106.85
 30
0.0
 40
0.5000000000000004
100
AcDbArc
 50
270.0
 51
359.6605557445
  0
ELLIPSE
  5
25C
330
249
100
AcDbEntity
  8
$DDT_AUDIT_GENERATED_(BA)
  6
Continuous
 62
     7
100
AcDbEllipse
 10
32.3325462644
 20
291.4505000094
 30
0.0
 11
19.33381303966814
 21
2.526371256292292E-9
 31
0.0
210
0.0
220
0.0
230
1.0
 40
0.999657325
 41
0.0
 42
6.283185307179586
  0
ARC
  5
25D
330
249
100
AcDbEntity
  8
$DDT_AUDIT_GENERATED_(BA)
  6
Continuous
 62
     7
100
AcDbCircle
 10
22.9030836636
 20
272.8390027559
 30
0.0
 40
0.9294699638473828
100
AcDbArc
 50
359.7719408474
 51
65.7437313818
  0
ELLIPSE
  5
25E
330
249
100
AcDbEntity
  8
$DDT_AUDIT_GENERATED_(BA)
  6
Continuous
 62
     7
100
AcDbEllipse
 10
32.3325462644
 20
291.5429772448
 30
0.0
 11
20.99999999998777
 21
-8.794082205065140E-8
 31
0.0
210
0.0
220
0.0
230
1.0
 40
0.999657325
 41
4.33184179288109
 42
5.092936176261528
  0
SPLINE
  5
25F
330
249
100
AcDbEntity
  8
$DDT_AUDIT_GENERATED_(BA)
  6
Continuous
 62
     7
100
AcDbSpline
210
0.0
220
0.0
230
1.0
 70
     8
 71
     3
 72
    12
 73
     8
 74
     0
 42
0.0000000060204524
 43
0.0000000001
 40
0.0
 40
0.0
 40
0.0
 40
0.0
 40
0.2499999999999985
 40
0.2499999999999985
 40
0.499999999999997
 40
0.499999999999997
 40
1.0
 40
1.0
 40
1.0
 40
1.0
 10
40.24531425662234
 20
272.547994702718
 30
0.0
 10
40.27943621799599
 20
272.6933604702374
 30
0.0
 10
40.34745241259883
 20
272.8183180400808
 30
0.0
 10
40.50960948143654
 20
273.0458167108347
 30
0.0
 10
40.60317075053263
 20
273.1453888755262
 30
0.0
 10
40.90599151250237
 20
273.4190126614276
 30
0.0
 10
41.13743418423008
 20
273.5675511353165
 30
0.0
 10
41.38016531203753
 20
273.6864164178622
 30
0.0
  0
ARC
  5
260
330
249
100
AcDbEntity
  8
$DDT_AUDIT_GENERATED_(BA)
  6
Continuous
 62
     7
100
AcDbCircle
 10
76.1523733235
 20
264.1239841258
 30
0.0
 40
36.88198537267031
100
AcDbArc
 50
166.7968451823
 51
167.5870886264
  0
ARC
  5
261
330
249
100
AcDbEntity
  8
$DDT_AUDIT_GENERATED_(BA)
  6
Continuous
 62
     7
100
AcDbCircle
 10
-11.4872807947
 20
264.1239841258
 30
0.0
 40
36.88198537271374
100
AcDbArc
 50
12.4129113736
 51
13.2031548177
  0
SPLINE
  5
262
330
249
100
AcDbEntity
  8
$DDT_AUDIT_GENERATED_(BA)
  6
Continuous
 62
     7
100
AcDbSpline
210
0.0
220
0.0
230
1.0
 70
     8
 71
     3
 72
    12
 73
     8
 74
     0
 42
0.0000000060204524
 43
0.0000000001
 40
0.0
 40
0.0
 40
0.0
 40
0.0
 40
0.500000000000003
 40
0.500000000000003
 40
0.7500000000000016
 40
0.7500000000000016
 40
1.0
 40
1.0
 40
1.0
 40
1.0
 10
23.28492721679942
 20
273.6864164178622
 30
0.0
 10
23.52765834459736
 20
273.5675511353218
 30
0.0
 10
23.75910101633457
 20
273.4190126614276
 30
0.0
 10
24.06192177830431
 20
273.1453888755262
 30
0.0
 10
24.15548304740041
 20
273.0458167108347
 30
0.0
 10
24.31764011623811
 20
272.8183180400808
 30
0.0
 10
24.38565631084096
 20
272.6933604702373
 30
0.0
 10
24.41977827221461
 20
272.547994702718
 30
0.0
  0
LINE
  5
263
330
249
100
AcDbEntity
  8
$DDT_AUDIT_GENERATED_(BA)
  6
Continuous
 62
     7
100
AcDbLine
 10
23.8325462644
 20
221.6852540928
 30
0.0
 11
23.8325462644
 21
272.0702903096
 31
0.0
  0
LINE
  5
264
330
249
100
AcDbEntity
  8
$DDT_AUDIT_GENERATED_(BA)
  6
Continuous
 62
     7
100
AcDbLine
 10
23.8325462644
 20
272.0702903096
 30
0.0
 11
23.8325462644
 21
272.8353031191
 31
0.0
  0
LINE
  5
265
330
249
100
AcDbEntity
  8
$DDT_AUDIT_GENERATED_(BA)
  6
Continuous
 62
     7
100
AcDbLine
 10
40.1325462644
 20
221.666930229
 30
0.0
 11
40.1325462644
 21
272.0519664458
 31
0.0
  0
LINE
  5
266
330
249
100
AcDbEntity
  8
$DDT_AUDIT_GENERATED_(BA)
  6
Continuous
 62
     7
100
AcDbLine
 10
24.5325462644
 20
272.0519664458
 30
0.0
 11
24.5325462644
 21
221.666930229
 31
0.0
  0
LINE
  5
267
330
249
100
AcDbEntity
  8
$DDT_AUDIT_GENERATED_(BA)
  6
Continuous
 62
     7
100
AcDbLine
 10
40.8325462644
 20
272.8353031191
 30
0.0
 11
40.8325462644
 21
272.0702903096
 31
0.0
  0
LINE
  5
268
330
249
100
AcDbEntity
  8
$DDT_AUDIT_GENERATED_(BA)
  6
Continuous
 62
     7
100
AcDbLine
 10
40.8325462644
 20
272.0702903096
 30
0.0
 11
40.8325462644
 21
221.6852540928
 31
0.0
  0
ARC
  5
269
330
249
100
AcDbEntity
  8
$DDT_AUDIT_GENERATED_(BA)
  6
Continuous
 62
     7
100
AcDbCircle
 10
41.7620088653
 20
272.8390027559
 30
0.0
 40
0.9294699638473726
100
AcDbArc
 50
114.2562686182
 51
180.2280591526
  0
ELLIPSE
  5
26A
330
249
100
AcDbEntity
  8
$DDT_AUDIT_GENERATED_(BA)
  6
Continuous
 62
     7
100
AcDbEllipse
 10
40.1325462644
 20
272.8353031191
 30
0.0
 11
0.6999999999999941
 21
-4.036404749295457E-30
 31
0.0
210
0.0
220
0.0
230
1.0
 40
0.4158724899
 41
4.874191184220054
 42
6.283185307179586
  0
ELLIPSE
  5
26B
330
249
100
AcDbEntity
  8
$DDT_AUDIT_GENERATED_(BA)
  6
Continuous
 62
     7
100
AcDbEllipse
 10
40.1325462644
 20
272.0702903096
 30
0.0
 11
0.700000000000001
 21
-1.062211776130384E-31
 31
0.0
210
0.0
220
0.0
230
1.0
 40
0.0261769483
 41
4.71238898038469
 42
6.283185307179586
  0
ELLIPSE
  5
26C
330
249
100
AcDbEntity
  8
$DDT_AUDIT_GENERATED_(BA)
  6
Continuous
 62
     7
100
AcDbEllipse
 10
24.5325462644
 20
272.0702903096
 30
0.0
 11
-0.6999999999999993
 21
0.0
 31
0.0
210
0.0
220
0.0
230
1.0
 40
0.0261769483
 41
0.0
 42
1.570796326794897
  0
ELLIPSE
  5
26D
330
249
100
AcDbEntity
  8
$DDT_AUDIT_GENERATED_(BA)
  6
Continuous
 62
     7
100
AcDbEllipse
 10
24.5325462644
 20
272.8353031191
 30
0.0
 11
-0.6999999999999984
 21
3.469446951953610E-15
 31
0.0
210
0.0
220
0.0
230
1.0
 40
0.4158724899
 41
0.0000000000000119
 42
1.408994122959535
  0
ARC
  5
26E
330
249
100
AcDbEntity
  8
$DDT_AUDIT_GENERATED_(BA)
  6
Continuous
 62
     7
100
AcDbCircle
 10
40.1325462644
 20
221.6852540928
 30
0.0
 40
0.7000000000000062
100
AcDbArc
 50
270.0
 51
0.0
  0
LINE
  5
26F
330
249
100
AcDbEntity
  8
$DDT_AUDIT_GENERATED_(BA)
  6
Continuous
 62
     7
100
AcDbLine
 10
24.5325462644
 20
220.9852540928
 30
0.0
 11
40.1325462644
 21
220.9852540928
 31
0.0
  0
ARC
  5
270
330
249
100
AcDbEntity
  8
$DDT_AUDIT_GENERATED_(BA)
  6
Continuous
 62
     7
100
AcDbCircle
 10
24.5325462644
 20
221.6852540928
 30
0.0
 40
0.700000000000001
100
AcDbArc
 50
180.0
 51
270.0
  0
LINE
  5
271
330
249
100
AcDbEntity
  8
$DDT_AUDIT_GENERATED_(D9)
  6
Continuous
 62
     7
100
AcDbLine
 10
56.7325462644
 20
317.8998054058
 30
0.0
 11
7.9325462644
 21
317.8998054058
 31
0.0
  0
ARC
  5
272
330
249
100
AcDbEntity
  8
$DDT_AUDIT_GENERATED_(D9)
  6
Continuous
 62
     7
100
AcDbCircle
 10
56.7325462644
 20
316.882729689
 30
0.0
 40
1.017075716794925
100
AcDbArc
 50
0.0
 51
90.0
  0
ARC
  5
273
330
249
100
AcDbEntity
  8
$DDT_AUDIT_GENERATED_(D9)
  6
Continuous
 62
     7
100
AcDbCircle
 10
7.9325462644
 20
316.882729689
 30
0.0
 40
1.017075716794921
100
AcDbArc
 50
90.0
 51
180.0
  0
LINE
  5
274
330
249
100
AcDbEntity
  8
$DDT_AUDIT_GENERATED_(D9)
  6
Continuous
 62
     7
100
AcDbLine
 10
57.7496219812
 20
268.082729689
 30
0.0
 11
57.7496219812
 21
316.882729689
 31
0.0
  0
LINE
  5
275
330
249
100
AcDbEntity
  8
$DDT_AUDIT_GENERATED_(D9)
  6
Continuous
 62
     7
100
AcDbLine
 10
6.9154705476
 20
316.882729689
 30
0.0
 11
6.9154705476
 21
268.082729689
 31
0.0
  0
ARC
  5
276
330
249
100
AcDbEntity
  8
$DDT_AUDIT_GENERATED_(D9)
  6
Continuous
 62
     7
100
AcDbCircle
 10
56.7325462644
 20
268.082729689
 30
0.0
 40
1.017075716794925
100
AcDbArc
 50
270.0
 51
0.0
  0
ARC
  5
277
330
249
100
AcDbEntity
  8
$DDT_AUDIT_GENERATED_(D9)
  6
Continuous
 62
     7
100
AcDbCircle
 10
7.9325462644
 20
268.082729689
 30
0.0
 40
1.017075716794918
100
AcDbArc
 50
180.0
 51
270.0
  0
LINE
  5
278
330
249
100
AcDbEntity
  8
$DDT_AUDIT_GENERATED_(D9)
  6
Continuous
 62
     7
100
AcDbLine
 10
7.9325462644
 20
267.0656539722
 30
0.0
 11
16.8799251049
 21
267.0656539722
 31
0.0
  0
LINE
  5
279
330
249
100
AcDbEntity
  8
$DDT_AUDIT_GENERATED_(D9)
  6
Continuous
 62
     7
100
AcDbLine
 10
47.7851674239
 20
267.0656539722
 30
0.0
 11
56.7325462644
 21
267.0656539722
 31
0.0
  0
LINE
  5
27A
330
249
100
AcDbEntity
  8
$DDT_AUDIT_GENERATED_(D9)
  6
Continuous
 62
     7
100
AcDbLine
 10
56.7325462644
 20
266.5656730107
 30
0.0
 11
56.7325462644
 21
266.5001834246
 31
0.0
  0
LINE
  5
27B
330
249
100
AcDbEntity
  8
$DDT_AUDIT_GENERATED_(D9)
  6
Continuous
 62
     7
100
AcDbLine
 10
7.9325462644
 20
266.5656730107
 30
0.0
 11
7.9325462644
 21
266.5001834246
 31
0.0
  0
LINE
  5
27C
330
249
100
AcDbEntity
  8
$DDT_AUDIT_GENERATED_(D9)
  6
Continuous
 62
     7
100
AcDbLine
 10
56.7325462644
 20
266.5656730107
 30
0.0
 11
47.7822052921
 21
266.5656730107
 31
0.0
  0
LINE
  5
27D
330
249
100
AcDbEntity
  8
$DDT_AUDIT_GENERATED_(D9)
  6
Continuous
 62
     7
100
AcDbLine
 10
16.8828872367
 20
266.5656730107
 30
0.0
 11
7.9325462644
 21
266.5656730107
 31
0.0
  0
LINE
  5
27E
330
249
100
AcDbEntity
  8
$DDT_AUDIT_GENERATED_(D9)
  6
Continuous
 62
     7
100
AcDbLine
 10
6.4154895861
 20
268.082729689
 30
0.0
 11
6.35
 21
268.082729689
 31
0.0
  0
ARC
  5
27F
330
249
100
AcDbEntity
  8
$DDT_AUDIT_GENERATED_(D9)
  6
Continuous
 62
     7
100
AcDbCircle
 10
7.9325462644
 20
268.082729689
 30
0.0
 40
1.517056678327005
100
AcDbArc
 50
180.0
 51
270.0
  0
LINE
  5
280
330
249
100
AcDbEntity
  8
$DDT_AUDIT_GENERATED_(D9)
  6
Continuous
 62
     7
100
AcDbLine
 10
58.2496029427
 20
268.082729689
 30
0.0
 11
58.3150925288
 21
268.082729689
 31
0.0
  0
ARC
  5
281
330
249
100
AcDbEntity
  8
$DDT_AUDIT_GENERATED_(D9)
  6
Continuous
 62
     7
100
AcDbCircle
 10
56.7325462644
 20
268.082729689
 30
0.0
 40
1.517056678327012
100
AcDbArc
 50
270.0
 51
0.0
  0
LINE
  5
282
330
249
100
AcDbEntity
  8
$DDT_AUDIT_GENERATED_(D9)
  6
Continuous
 62
     7
100
AcDbLine
 10
6.4154895861
 20
316.882729689
 30
0.0
 11
6.35
 21
316.882729689
 31
0.0
  0
LINE
  5
283
330
249
100
AcDbEntity
  8
$DDT_AUDIT_GENERATED_(D9)
  6
Continuous
 62
     7
100
AcDbLine
 10
6.4154895861
 20
268.082729689
 30
0.0
 11
6.4154895861
 21
316.882729689
 31
0.0
  0
LINE
  5
284
330
249
100
AcDbEntity
  8
$DDT_AUDIT_GENERATED_(D9)
  6
Continuous
 62
     7
100
AcDbLine
 10
58.2496029427
 20
316.882729689
 30
0.0
 11
58.3150925288
 21
316.882729689
 31
0.0
  0
LINE
  5
285
330
249
100
AcDbEntity
  8
$DDT_AUDIT_GENERATED_(D9)
  6
Continuous
 62
     7
100
AcDbLine
 10
58.2496029427
 20
316.882729689
 30
0.0
 11
58.2496029427
 21
268.082729689
 31
0.0
  0
LINE
  5
286
330
249
100
AcDbEntity
  8
$DDT_AUDIT_GENERATED_(D9)
  6
Continuous
 62
     7
100
AcDbLine
 10
7.9325462644
 20
318.3997863674
 30
0.0
 11
7.9325462644
 21
318.4652759535
 31
0.0
  0
ARC
  5
287
330
249
100
AcDbEntity
  8
$DDT_AUDIT_GENERATED_(D9)
  6
Continuous
 62
     7
100
AcDbCircle
 10
7.9325462644
 20
316.882729689
 30
0.0
 40
1.517056678327005
100
AcDbArc
 50
90.0
 51
180.0
  0
LINE
  5
288
330
249
100
AcDbEntity
  8
$DDT_AUDIT_GENERATED_(D9)
  6
Continuous
 62
     7
100
AcDbLine
 10
56.7325462644
 20
318.3997863674
 30
0.0
 11
56.7325462644
 21
318.4652759535
 31
0.0
  0
ARC
  5
289
330
249
100
AcDbEntity
  8
$DDT_AUDIT_GENERATED_(D9)
  6
Continuous
 62
     7
100
AcDbCircle
 10
56.7325462644
 20
316.882729689
 30
0.0
 40
1.517056678327005
100
AcDbArc
 50
0.0
 51
90.0
  0
LINE
  5
28A
330
249
100
AcDbEntity
  8
$DDT_AUDIT_GENERATED_(D9)
  6
Continuous
 62
     7
100
AcDbLine
 10
7.9325462644
 20
318.3997863674
 30
0.0
 11
56.7325462644
 21
318.3997863674
 31
0.0
  0
LINE
  5
28B
330
249
100
AcDbEntity
  8
$DDT_AUDIT_GENERATED_(D9)
  6
Continuous
 62
     7
100
AcDbLine
 10
7.9325462644
 20
317.8998054058
 30
0.0
 11
7.9325462644
 21
318.3997863674
 31
0.0
  0
LINE
  5
28C
330
249
100
AcDbEntity
  8
$DDT_AUDIT_GENERATED_(D9)
  6
Continuous
 62
     7
100
AcDbLine
 10
56.7325462644
 20
318.3997863674
 30
0.0
 11
56.7325462644
 21
317.8998054058
 31
0.0
  0
LINE
  5
28D
330
249
100
AcDbEntity
  8
$DDT_AUDIT_GENERATED_(D9)
  6
Continuous
 62
     7
100
AcDbLine
 10
6.9154705476
 20
316.882729689
 30
0.0
 11
6.4154895861
 21
316.882729689
 31
0.0
  0
LINE
  5
28E
330
249
100
AcDbEntity
  8
$DDT_AUDIT_GENERATED_(D9)
  6
Continuous
 62
     7
100
AcDbLine
 10
58.2496029427
 20
316.882729689
 30
0.0
 11
57.7496219812
 21
316.882729689
 31
0.0
  0
LINE
  5
28F
330
249
100
AcDbEntity
  8
$DDT_AUDIT_GENERATED_(D9)
  6
Continuous
 62
     7
100
AcDbLine
 10
6.9154705476
 20
268.082729689
 30
0.0
 11
6.4154895861
 21
268.082729689
 31
0.0
  0
LINE
  5
290
330
249
100
AcDbEntity
  8
$DDT_AUDIT_GENERATED_(D9)
  6
Continuous
 62
     7
100
AcDbLine
 10
58.2496029427
 20
268.082729689
 30
0.0
 11
57.7496219812
 21
268.082729689
 31
0.0
  0
LINE
  5
291
330
249
100
AcDbEntity
  8
$DDT_AUDIT_GENERATED_(D9)
  6
Continuous
 62
     7
100
AcDbLine
 10
7.9325462644
 20
267.0656539722
 30
0.0
 11
7.9325462644
 21
266.5656730107
 31
0.0
  0
LINE
  5
292
330
249
100
AcDbEntity
  8
$DDT_AUDIT_GENERATED_(D9)
  6
Continuous
 62
     7
100
AcDbLine
 10
56.7325462644
 20
266.5656730107
 30
0.0
 11
56.7325462644
 21
267.0656539722
 31
0.0
  0
LINE
  5
293
330
249
100
AcDbEntity
  8
$DDT_AUDIT_GENERATED_(D9)
  6
Continuous
 62
     7
100
AcDbLine
 10
7.9325462644
 20
318.4652759535
 30
0.0
 11
56.7325462644
 21
318.4652759535
 31
0.0
  0
ARC
  5
294
330
249
100
AcDbEntity
  8
$DDT_AUDIT_GENERATED_(D9)
  6
Continuous
 62
     7
100
AcDbCircle
 10
7.9325462644
 20
268.082729689
 30
0.0
 40
1.582546264418481
100
AcDbArc
 50
180.0
 51
270.0
  0
LINE
  5
295
330
249
100
AcDbEntity
  8
$DDT_AUDIT_GENERATED_(D9)
  6
Continuous
 62
     7
100
AcDbLine
 10
6.35
 20
268.082729689
 30
0.0
 11
6.35
 21
316.882729689
 31
0.0
  0
ARC
  5
296
330
249
100
AcDbEntity
  8
$DDT_AUDIT_GENERATED_(D9)
  6
Continuous
 62
     7
100
AcDbCircle
 10
7.9325462644
 20
316.882729689
 30
0.0
 40
1.582546264418481
100
AcDbArc
 50
90.0
 51
180.0
  0
ARC
  5
297
330
249
100
AcDbEntity
  8
$DDT_AUDIT_GENERATED_(D9)
  6
Continuous
 62
     7
100
AcDbCircle
 10
56.7325462644
 20
316.882729689
 30
0.0
 40
1.582546264418481
100
AcDbArc
 50
0.0
 51
90.0
  0
LINE
  5
298
330
249
100
AcDbEntity
  8
$DDT_AUDIT_GENERATED_(D9)
  6
Continuous
 62
     7
100
AcDbLine
 10
58.3150925288
 20
316.882729689
 30
0.0
 11
58.3150925288
 21
268.082729689
 31
0.0
  0
ARC
  5
299
330
249
100
AcDbEntity
  8
$DDT_AUDIT_GENERATED_(D9)
  6
Continuous
 62
     7
100
AcDbCircle
 10
56.7325462644
 20
268.082729689
 30
0.0
 40
1.582546264418488
100
AcDbArc
 50
270.0
 51
0.0
  0
LINE
  5
29A
330
249
100
AcDbEntity
  8
$DDT_AUDIT_GENERATED_(D9)
  6
Continuous
 62
     7
100
AcDbLine
 10
56.7325462644
 20
266.5001834246
 30
0.0
 11
47.7818172997
 21
266.5001834246
 31
0.0
  0
LINE
  5
29B
330
249
100
AcDbEntity
  8
$DDT_AUDIT_GENERATED_(D9)
  6
Continuous
 62
     7
100
AcDbLine
 10
16.8832752291
 20
266.5001834246
 30
0.0
 11
7.9325462644
 21
266.5001834246
 31
0.0
  0
ENDBLK
  5
29D
330
249
100
AcDbEntity
  8
0
100
AcDbBlockEnd
  0
ENDSEC
  0
SECTION
  2
ENTITIES
  0
INSERT
  5
5F
330
1F
100
AcDbEntity
  8
Default
100
AcDbBlockReference
  2
SEANNOT_GROUP
 10
0.0
 20
0.0
 30
0.0
  0
INSERT
  5
66
330
1F
100
AcDbEntity
  8
Default
100
AcDbBlockReference
  2
SEANNOT_GROUP1
 10
0.0
 20
0.0
 30
0.0
  0
INSERT
  5
6C
330
1F
100
AcDbEntity
  8
Default
100
AcDbBlockReference
  2
SEANNOT_GROUP2
 10
0.0
 20
0.0
 30
0.0
  0
POINT
  5
71
330
1F
100
AcDbEntity
  8
Default
  6
Continuous
 62
     7
100
AcDbPoint
 10
32.3325462646
 20
601.0470245023
 30
0.0
  0
INSERT
  5
73
330
1F
100
AcDbEntity
  8
Default
100
AcDbBlockReference
  2
SEANNOT_GROUP3
 10
0.0
 20
0.0
 30
0.0
  0
POINT
  5
78
330
1F
100
AcDbEntity
  8
Default
  6
Continuous
 62
     7
100
AcDbPoint
 10
32.3325462644
 20
112.3482088419
 30
0.0
  0
INSERT
  5
7A
330
1F
100
AcDbEntity
  8
Default
100
AcDbBlockReference
  2
SEANNOT_GROUP4
 10
0.0
 20
0.0
 30
0.0
  0
POINT
  5
7F
330
1F
100
AcDbEntity
  8
Default
  6
Continuous
 62
     7
100
AcDbPoint
 10
32.3325462644
 20
291.5429772448
 30
0.0
  0
POINT
  5
80
330
1F
100
AcDbEntity
  8
Default
  6
Continuous
 62
     7
100
AcDbPoint
 10
32.3325462644
 20
291.5429772448
 30
0.0
  0
INSERT
  5
82
330
1F
100
AcDbEntity
  8
Default
100
AcDbBlockReference
  2
SEANNOT_GROUP5
 10
0.0
 20
0.0
 30
0.0
  0
CIRCLE
  5
87
330
1F
100
AcDbEntity
  8
Default
  6
Continuous
 62
     7
100
AcDbCircle
 10
32.3325462644
 20
291.5429772448
 30
0.0
 40
19.32
  0
INSERT
  5
89
330
1F
100
AcDbEntity
  8
Default
100
AcDbBlockReference
  2
SE
 10
0.0
 20
0.0
 30
0.0
  0
INSERT
  5
1F3
330
1F
100
AcDbEntity
  8
Default
100
AcDbBlockReference
  2
SE1
 10
0.0
 20
0.0
 30
0.0
  0
INSERT
  5
24A
330
1F
100
AcDbEntity
  8
Default
100
AcDbBlockReference
  2
SE2
 10
0.0
 20
0.0
 30
0.0
  0
TEXT
  5
29F
330
1F
100
AcDbEntity
  8
Default
  6
Continuous
 62
     7
100
AcDbText
 10
5.9362635081
 20
53.4225120485
 30
0.0
 40
10.0
  1
Grohe AG^J
  7
SEACAD_seiso_ttf
 11
5.9362635081
 21
63.4225120485
 31
0.0
100
AcDbText
 73
     3
  0
TEXT
  5
2A0
330
1F
100
AcDbEntity
  8
Default
  6
Continuous
 62
     7
100
AcDbText
 10
5.9362635081
 20
37.0588756849
 30
0.0
 40
10.0
  1
 
  7
SEACAD_seiso_ttf
 11
5.9362635081
 21
47.0588756849
 31
0.0
100
AcDbText
 73
     3
  0
TEXT
  5
2A1
330
1F
100
AcDbEntity
  8
Default
  6
Continuous
 62
     7
100
AcDbText
 10
5.9362635081
 20
20.6952393213
 30
0.0
 40
10.0
  1
ecn:
  7
SEACAD_seiso_ttf
 11
5.9362635081
 21
30.6952393213
 31
0.0
100
AcDbText
 73
     3
  0
TEXT
  5
2A2
330
1F
100
AcDbEntity
  8
Default
  6
Continuous
 62
     7
100
AcDbText
 10
5.9362635081
 20
4.3316029576
 30
0.0
 40
10.0
  1
unit: mm
  7
SEACAD_seiso_ttf
 11
5.9362635081
 21
14.3316029576
 31
0.0
100
AcDbText
 73
     3
  0
LINE
  5
2A3
330
1F
100
AcDbEntity
  8
Default
  6
Continuous
 62
     7
100
AcDbLine
 10
0.0
 20
0.0
 30
0.0
 11
100.0
 21
0.0
 31
0.0
  0
LINE
  5
2A4
330
1F
100
AcDbEntity
  8
Default
  6
Continuous
 62
     7
100
AcDbLine
 10
0.0
 20
0.0
 30
0.0
 11
0.0
 21
100.0
 31
0.0
  0
TEXT
  5
2A5
330
1F
100
AcDbEntity
  8
Default
  6
Continuous
 62
     7
100
AcDbText
 10
24.3923665681
 20
-18.2375342018
 30
0.0
 40
10.0
  1
100 mm
  7
SEACAD_seiso_ttf
 11
24.3923665681
 21
-8.2375342018
 31
0.0
100
AcDbText
 73
     3
  0
TEXT
  5
2A6
330
1F
100
AcDbEntity
  8
Default
  6
Continuous
 62
     7
100
AcDbText
 10
-7.6150308803
 20
24.6231930421
 30
0.0
 40
10.0
  1
100 mm
 50
90.0
  7
SEACAD_seiso_ttf
 11
-17.6150308803
 21
24.6231930421
 31
0.0
100
AcDbText
 73
     3
  0
TEXT
  5
2A7
330
1F
100
AcDbEntity
  8
Default
  6
Continuous
 62
     7
100
AcDbText
 10
28.4878128572
 20
20.0907663715
 30
0.0
 40
10.0
  1
227985
  7
SEACAD_seiso_ttf
 11
28.4878128572
 21
30.0907663715
 31
0.0
100
AcDbText
 73
     3
  0
TEXT
  5
2A8
330
1F
100
AcDbEntity
  8
Default
  6
Continuous
 62
     7
100
AcDbText
 10
5.9012241913
 20
36.7242780188
 30
0.0
 40
10.0
  1
23403000
  7
SEACAD_seiso_ttf
 11
5.9012241913
 21
46.7242780188
 31
0.0
100
AcDbText
 73
     3
  0
ENDSEC
  0
SECTION
  2
OBJECTS
  0
DICTIONARY
  5
C
330
0
100
AcDbDictionary
281
     1
  3
ACAD_GROUP
350
D
  3
ACAD_LAYOUT
350
1A
  3
ACAD_MLEADERSTYLE
350
2AC
  3
ACAD_MLINESTYLE
350
17
  3
ACAD_PLOTSETTINGS
350
19
  3
ACAD_PLOTSTYLENAME
350
E
  3
ACAD_SCALELIST
350
3B
  3
ACAD_TABLESTYLE
350
2AB
  3
ACAD_VISUALSTYLE
350
2A
  3
AcDbVariableDictionary
350
2A9
  0
DICTIONARY
  5
D
102
{ACAD_REACTORS
330
C
102
}
330
C
100
AcDbDictionary
281
     1
  0
DICTIONARY
  5
1A
102
{ACAD_REACTORS
330
C
102
}
330
C
100
AcDbDictionary
281
     1
  3
Layout1
350
1E
  3
Model
350
22
  0
DICTIONARY
  5
2AC
102
{ACAD_REACTORS
330
C
102
}
330
C
100
AcDbDictionary
281
     1
  0
DICTIONARY
  5
17
102
{ACAD_REACTORS
330
C
102
}
330
C
100
AcDbDictionary
281
     1
  3
Standard
350
18
  0
DICTIONARY
  5
19
102
{ACAD_REACTORS
330
C
102
}
330
C
100
AcDbDictionary
281
     1
  0
ACDBDICTIONARYWDFLT
  5
E
102
{ACAD_REACTORS
330
C
102
}
330
C
100
AcDbDictionary
281
     1
  3
Normal
350
F
100
AcDbDictionaryWithDefault
340
F
  0
DICTIONARY
  5
3B
102
{ACAD_REACTORS
330
C
102
}
330
C
100
AcDbDictionary
281
     1
  3
A0
350
3C
  3
A1
350
3D
  3
A2
350
3E
  3
A3
350
3F
  3
A4
350
40
  3
A5
350
41
  3
A6
350
42
  3
A7
350
43
  3
A8
350
44
  3
A9
350
45
  3
B0
350
46
  3
B1
350
47
  3
B2
350
48
  3
B3
350
49
  3
B4
350
4A
  3
B5
350
4B
  3
B6
350
4C
  3
B7
350
4D
  3
B8
350
4E
  3
B9
350
4F
  3
C0
350
50
  3
C1
350
51
  3
C2
350
52
  3
C3
350
53
  3
C4
350
54
  3
C5
350
55
  3
C6
350
56
  3
C7
350
57
  3
C8
350
58
  3
C9
350
59
  3
D0
350
5A
  3
D1
350
5B
  3
D2
350
5C
  0
DICTIONARY
  5
2AB
102
{ACAD_REACTORS
330
C
102
}
330
C
100
AcDbDictionary
281
     1
  0
DICTIONARY
  5
2A
102
{ACAD_REACTORS
330
C
102
}
330
C
100
AcDbDictionary
281
     1
  3
2dWireframe
350
2F
  3
3D Hidden
350
31
  3
3dWireframe
350
30
  3
Basic
350
32
  3
Brighten
350
36
  3
ColorChange
350
3A
  3
Conceptual
350
34
  3
Dim
350
35
  3
Facepattern
350
39
  3
Flat
350
2B
  3
FlatWithEdges
350
2C
  3
Gouraud
350
2D
  3
GouraudWithEdges
350
2E
  3
Linepattern
350
38
  3
Realistic
350
33
  3
Thicken
350
37
  0
DICTIONARY
  5
2A9
102
{ACAD_REACTORS
330
C
102
}
330
C
100
AcDbDictionary
281
     1
  3
CANNOSCALE
350
2AA
  3
PSOLHEIGHT
350
2AE
  3
PSOLWIDTH
350
2AD
  0
LAYOUT
  5
1E
102
{ACAD_REACTORS
330
1A
102
}
330
1A
100
AcDbPlotSettings
  1

  2
none_device
  4

  6

 40
0.0
 41
0.0
 42
0.0
 43
0.0
 44
0.0
 45
0.0
 46
0.0
 47
0.0
 48
0.0
 49
0.0
140
0.0
141
0.0
142
1.0
143
1.0
 70
   688
 72
     0
 73
     0
 74
     5
  7

 75
    16
147
1.0
148
0.0
149
0.0
100
AcDbLayout
  1
Layout1
 70
     1
 71
     1
 10
0.0
 20
0.0
 11
3000.0
 21
4500.0
 12
0.0
 22
0.0
 32
0.0
 14
0.0
 24
0.0
 34
0.0
 15
3000.0
 25
4500.0
 35
0.0
146
0.0
 13
0.0
 23
0.0
 33
0.0
 16
1.0
 26
0.0
 36
0.0
 17
0.0
 27
1.0
 37
0.0
 76
     0
330
1B
  0
LAYOUT
  5
22
102
{ACAD_REACTORS
330
1A
102
}
330
1A
100
AcDbPlotSettings
  1

  2
none_device
  4

  6

 40
0.0
 41
0.0
 42
0.0
 43
0.0
 44
0.0
 45
0.0
 46
0.0
 47
0.0
 48
0.0
 49
0.0
140
0.0
141
0.0
142
1.0
143
1.0
 70
  1712
 72
     0
 73
     0
 74
     0
  7

 75
     0
147
1.0
148
0.0
149
0.0
100
AcDbLayout
  1
Model
 70
     1
 71
     0
 10
0.0
 20
0.0
 11
3000.0
 21
4500.0
 12
0.0
 22
0.0
 32
0.0
 14
0.0
 24
0.0
 34
0.0
 15
3000.0
 25
4500.0
 35
0.0
146
0.0
 13
0.0
 23
0.0
 33
0.0
 16
1.0
 26
0.0
 36
0.0
 17
0.0
 27
1.0
 37
0.0
 76
     0
330
1F
331
29
  0
MLINESTYLE
  5
18
102
{ACAD_REACTORS
330
17
102
}
330
17
100
AcDbMlineStyle
  2
Standard
 70
     0
  3

 62
   256
 51
90.0
 52
90.0
 71
     2
 49
0.5
 62
   256
  6
BYLAYER
 49
-0.5
 62
   256
  6
BYLAYER
  0
ACDBPLACEHOLDER
  5
F
102
{ACAD_REACTORS
330
E
102
}
330
E
  0
SCALE
  5
3C
102
{ACAD_REACTORS
330
3B
102
}
330
3B
100
AcDbScale
 70
     0
300
1:1
140
1.0
141
1.0
290
     1
  0
SCALE
  5
3D
102
{ACAD_REACTORS
330
3B
102
}
330
3B
100
AcDbScale
 70
     0
300
1:2
140
1.0
141
2.0
290
     0
  0
SCALE
  5
3E
102
{ACAD_REACTORS
330
3B
102
}
330
3B
100
AcDbScale
 70
     0
300
1:4
140
1.0
141
4.0
290
     0
  0
SCALE
  5
3F
102
{ACAD_REACTORS
330
3B
102
}
330
3B
100
AcDbScale
 70
     0
300
1:5
140
1.0
141
5.0
290
     0
  0
SCALE
  5
40
102
{ACAD_REACTORS
330
3B
102
}
330
3B
100
AcDbScale
 70
     0
300
1:8
140
1.0
141
8.0
290
     0
  0
SCALE
  5
41
102
{ACAD_REACTORS
330
3B
102
}
330
3B
100
AcDbScale
 70
     0
300
1:10
140
1.0
141
10.0
290
     0
  0
SCALE
  5
42
102
{ACAD_REACTORS
330
3B
102
}
330
3B
100
AcDbScale
 70
     0
300
1:16
140
1.0
141
16.0
290
     0
  0
SCALE
  5
43
102
{ACAD_REACTORS
330
3B
102
}
330
3B
100
AcDbScale
 70
     0
300
1:20
140
1.0
141
20.0
290
     0
  0
SCALE
  5
44
102
{ACAD_REACTORS
330
3B
102
}
330
3B
100
AcDbScale
 70
     0
300
1:30
140
1.0
141
30.0
290
     0
  0
SCALE
  5
45
102
{ACAD_REACTORS
330
3B
102
}
330
3B
100
AcDbScale
 70
     0
300
1:40
140
1.0
141
40.0
290
     0
  0
SCALE
  5
46
102
{ACAD_REACTORS
330
3B
102
}
330
3B
100
AcDbScale
 70
     0
300
1:50
140
1.0
141
50.0
290
     0
  0
SCALE
  5
47
102
{ACAD_REACTORS
330
3B
102
}
330
3B
100
AcDbScale
 70
     0
300
1:100
140
1.0
141
100.0
290
     0
  0
SCALE
  5
48
102
{ACAD_REACTORS
330
3B
102
}
330
3B
100
AcDbScale
 70
     0
300
2:1
140
2.0
141
1.0
290
     0
  0
SCALE
  5
49
102
{ACAD_REACTORS
330
3B
102
}
330
3B
100
AcDbScale
 70
     0
300
4:1
140
4.0
141
1.0
290
     0
  0
SCALE
  5
4A
102
{ACAD_REACTORS
330
3B
102
}
330
3B
100
AcDbScale
 70
     0
300
8:1
140
8.0
141
1.0
290
     0
  0
SCALE
  5
4B
102
{ACAD_REACTORS
330
3B
102
}
330
3B
100
AcDbScale
 70
     0
300
10:1
140
10.0
141
1.0
290
     0
  0
SCALE
  5
4C
102
{ACAD_REACTORS
330
3B
102
}
330
3B
100
AcDbScale
 70
     0
300
100:1
140
100.0
141
1.0
290
     0
  0
SCALE
  5
4D
102
{ACAD_REACTORS
330
3B
102
}
330
3B
100
AcDbScale
 70
     0
300
1/128" = 1'-0"
140
0.0078125
141
12.0
290
     0
  0
SCALE
  5
4E
102
{ACAD_REACTORS
330
3B
102
}
330
3B
100
AcDbScale
 70
     0
300
1/64" = 1'-0"
140
0.015625
141
12.0
290
     0
  0
SCALE
  5
4F
102
{ACAD_REACTORS
330
3B
102
}
330
3B
100
AcDbScale
 70
     0
300
1/32" = 1'-0"
140
0.03125
141
12.0
290
     0
  0
SCALE
  5
50
102
{ACAD_REACTORS
330
3B
102
}
330
3B
100
AcDbScale
 70
     0
300
1/16" = 1'-0"
140
0.0625
141
12.0
290
     0
  0
SCALE
  5
51
102
{ACAD_REACTORS
330
3B
102
}
330
3B
100
AcDbScale
 70
     0
300
3/32" = 1'-0"
140
0.09375
141
12.0
290
     0
  0
SCALE
  5
52
102
{ACAD_REACTORS
330
3B
102
}
330
3B
100
AcDbScale
 70
     0
300
1/8" = 1'-0"
140
0.125
141
12.0
290
     0
  0
SCALE
  5
53
102
{ACAD_REACTORS
330
3B
102
}
330
3B
100
AcDbScale
 70
     0
300
3/16" = 1'-0"
140
0.1875
141
12.0
290
     0
  0
SCALE
  5
54
102
{ACAD_REACTORS
330
3B
102
}
330
3B
100
AcDbScale
 70
     0
300
1/4" = 1'-0"
140
0.25
141
12.0
290
     0
  0
SCALE
  5
55
102
{ACAD_REACTORS
330
3B
102
}
330
3B
100
AcDbScale
 70
     0
300
3/8" = 1'-0"
140
0.375
141
12.0
290
     0
  0
SCALE
  5
56
102
{ACAD_REACTORS
330
3B
102
}
330
3B
100
AcDbScale
 70
     0
300
1/2" = 1'-0"
140
0.5
141
12.0
290
     0
  0
SCALE
  5
57
102
{ACAD_REACTORS
330
3B
102
}
330
3B
100
AcDbScale
 70
     0
300
3/4" = 1'-0"
140
0.75
141
12.0
290
     0
  0
SCALE
  5
58
102
{ACAD_REACTORS
330
3B
102
}
330
3B
100
AcDbScale
 70
     0
300
1" = 1'-0"
140
1.0
141
12.0
290
     0
  0
SCALE
  5
59
102
{ACAD_REACTORS
330
3B
102
}
330
3B
100
AcDbScale
 70
     0
300
1-1/2" = 1'-0"
140
1.5
141
12.0
290
     0
  0
SCALE
  5
5A
102
{ACAD_REACTORS
330
3B
102
}
330
3B
100
AcDbScale
 70
     0
300
3" = 1'-0"
140
3.0
141
12.0
290
     0
  0
SCALE
  5
5B
102
{ACAD_REACTORS
330
3B
102
}
330
3B
100
AcDbScale
 70
     0
300
6" = 1'-0"
140
6.0
141
12.0
290
     0
  0
SCALE
  5
5C
102
{ACAD_REACTORS
330
3B
102
}
330
3B
100
AcDbScale
 70
     0
300
1'-0" = 1'-0"
140
12.0
141
12.0
290
     0
  0
VISUALSTYLE
  5
2F
102
{ACAD_REACTORS
330
2A
102
}
330
2A
100
AcDbVisualStyle
  2
2dWireframe
 70
     4
 71
     0
 72
     2
 73
     0
 90
        0
 40
-0.6
 41
-30.0
 62
     5
 63
     7
 74
     1
 91
        4
 64
     7
 65
   257
 75
     1
175
     1
 42
1.0
 92
        0
 66
   257
 43
1.0
 76
     1
 77
     6
 78
     2
 67
     7
 79
     5
170
     0
171
     0
290
     0
174
     0
 93
        1
 44
0.0
173
     0
291
     0
 45
0.0
1001
ACAD
1000
AcDbSavedByObjectVersion
1070
     0
  0
VISUALSTYLE
  5
31
102
{ACAD_REACTORS
330
2A
102
}
330
2A
100
AcDbVisualStyle
  2
3D Hidden
 70
     6
 71
     1
 72
     2
 73
     2
 90
        0
 40
-0.6
 41
-30.0
 62
     5
 63
     7
 74
     2
 91
        2
 64
     7
 65
   257
 75
     2
175
     1
 42
40.0
 92
        0
 66
   257
 43
1.0
 76
     1
 77
     6
 78
     2
 67
     7
 79
     3
170
     0
171
     0
290
     0
174
     0
 93
        1
 44
0.0
173
     0
291
     0
 45
0.0
1001
ACAD
1000
AcDbSavedByObjectVersion
1070
     0
  0
VISUALSTYLE
  5
30
102
{ACAD_REACTORS
330
2A
102
}
330
2A
100
AcDbVisualStyle
  2
3dWireframe
 70
     5
 71
     0
 72
     2
 73
     0
 90
        0
 40
-0.6
 41
-30.0
 62
     5
 63
     7
 74
     1
 91
        4
 64
     7
 65
   257
 75
     1
175
     1
 42
1.0
 92
        0
 66
   257
 43
1.0
 76
     1
 77
     6
 78
     2
 67
     7
 79
     5
170
     0
171
     0
290
     0
174
     0
 93
        1
 44
0.0
173
     0
291
     0
 45
0.0
1001
ACAD
1000
AcDbSavedByObjectVersion
1070
     0
  0
VISUALSTYLE
  5
32
102
{ACAD_REACTORS
330
2A
102
}
330
2A
100
AcDbVisualStyle
  2
Basic
 70
     7
 71
     1
 72
     0
 73
     1
 90
        0
 40
-0.6
 41
-30.0
 62
     5
 63
     7
 74
     0
 91
        4
 64
     7
 65
   257
 75
     1
175
     1
 42
1.0
 92
        8
 66
     7
 43
1.0
 76
     1
 77
     6
 78
     2
 67
     7
 79
     5
170
     0
171
     0
290
     0
174
     0
 93
        1
 44
0.0
173
     0
291
     1
 45
0.0
1001
ACAD
1000
AcDbSavedByObjectVersion
1070
     0
  0
VISUALSTYLE
  5
36
102
{ACAD_REACTORS
330
2A
102
}
330
2A
100
AcDbVisualStyle
  2
Brighten
 70
    12
 71
     2
 72
     2
 73
     0
 90
        0
 40
-0.6
 41
-30.0
 62
     5
 63
     7
 74
     1
 91
        4
 64
     7
 65
   257
 75
     1
175
     1
 42
1.0
 92
        8
 66
     7
 43
1.0
 76
     1
 77
     6
 78
     2
 67
     7
 79
     5
170
     0
171
     0
290
     0
174
     0
 93
        1
 44
50.0
173
     0
291
     1
 45
0.0
1001
ACAD
1000
AcDbSavedByObjectVersion
1070
     0
  0
VISUALSTYLE
  5
3A
102
{ACAD_REACTORS
330
2A
102
}
330
2A
100
AcDbVisualStyle
  2
ColorChange
 70
    16
 71
     2
 72
     2
 73
     3
 90
        0
 40
-0.6
 41
-30.0
 62
     5
 63
     8
 74
     1
 91
        4
 64
     7
 65
   257
 75
     1
175
     1
 42
1.0
 92
        8
 66
     8
 43
1.0
 76
     1
 77
     6
 78
     2
 67
     7
 79
     5
170
     0
171
     0
290
     0
174
     0
 93
        1
 44
0.0
173
     0
291
     1
 45
0.0
1001
ACAD
1000
AcDbSavedByObjectVersion
1070
     0
  0
VISUALSTYLE
  5
34
102
{ACAD_REACTORS
330
2A
102
}
330
2A
100
AcDbVisualStyle
  2
Conceptual
 70
     9
 71
     3
 72
     2
 73
     0
 90
        0
 40
-0.6
 41
-30.0
 62
     5
 63
     7
 74
     2
 91
        2
 64
     7
 65
   257
 75
     1
175
     1
 42
40.0
 92
        8
 66
     7
 43
1.0
 76
     1
 77
     6
 78
     2
 67
     7
 79
     3
170
     0
171
     0
290
     0
174
     0
 93
        1
 44
0.0
173
     0
291
     0
 45
0.0
1001
ACAD
1000
AcDbSavedByObjectVersion
1070
     0
  0
VISUALSTYLE
  5
35
102
{ACAD_REACTORS
330
2A
102
}
330
2A
100
AcDbVisualStyle
  2
Dim
 70
    11
 71
     2
 72
     2
 73
     0
 90
        0
 40
-0.6
 41
-30.0
 62
     5
 63
     7
 74
     1
 91
        4
 64
     7
 65
   257
 75
     1
175
     1
 42
1.0
 92
        8
 66
     7
 43
1.0
 76
     1
 77
     6
 78
     2
 67
     7
 79
     5
170
     0
171
     0
290
     0
174
     0
 93
        1
 44
-50.0
173
     0
291
     1
 45
0.0
1001
ACAD
1000
AcDbSavedByObjectVersion
1070
     0
  0
VISUALSTYLE
  5
39
102
{ACAD_REACTORS
330
2A
102
}
330
2A
100
AcDbVisualStyle
  2
Facepattern
 70
    15
 71
     2
 72
     2
 73
     0
 90
        0
 40
-0.6
 41
-30.0
 62
     5
 63
     7
 74
     1
 91
        4
 64
     7
 65
   257
 75
     1
175
     1
 42
1.0
 92
        8
 66
     7
 43
1.0
 76
     1
 77
     6
 78
     2
 67
     7
 79
     5
170
     0
171
     0
290
     0
174
     0
 93
        1
 44
0.0
173
     0
291
     1
 45
0.0
1001
ACAD
1000
AcDbSavedByObjectVersion
1070
     0
  0
VISUALSTYLE
  5
2B
102
{ACAD_REACTORS
330
2A
102
}
330
2A
100
AcDbVisualStyle
  2
Flat
 70
     0
 71
     2
 72
     1
 73
     1
 90
        2
 40
-0.6
 41
30.0
 62
     5
 63
     7
 74
     0
 91
        4
 64
     7
 65
   257
 75
     1
175
     1
 42
1.0
 92
        8
 66
     7
 43
1.0
 76
     1
 77
     6
 78
     2
 67
     7
 79
     5
170
     0
171
     0
290
     0
174
     0
 93
       13
 44
0.0
173
     0
291
     1
 45
0.0
1001
ACAD
1000
AcDbSavedByObjectVersion
1070
     0
  0
VISUALSTYLE
  5
2C
102
{ACAD_REACTORS
330
2A
102
}
330
2A
100
AcDbVisualStyle
  2
FlatWithEdges
 70
     1
 71
     2
 72
     1
 73
     1
 90
        2
 40
-0.6
 41
30.0
 62
     5
 63
     7
 74
     1
 91
        4
 64
     7
 65
   257
 75
     1
175
     1
 42
1.0
 92
        0
 66
   257
 43
1.0
 76
     1
 77
     6
 78
     2
 67
     7
 79
     5
170
     0
171
     0
290
     0
174
     0
 93
       13
 44
0.0
173
     0
291
     1
 45
0.0
1001
ACAD
1000
AcDbSavedByObjectVersion
1070
     0
  0
VISUALSTYLE
  5
2D
102
{ACAD_REACTORS
330
2A
102
}
330
2A
100
AcDbVisualStyle
  2
Gouraud
 70
     2
 71
     2
 72
     2
 73
     1
 90
        2
 40
-0.6
 41
30.0
 62
     5
 63
     7
 74
     0
 91
        4
 64
     7
 65
   257
 75
     1
175
     1
 42
1.0
 92
        0
 66
     7
 43
1.0
 76
     1
 77
     6
 78
     2
 67
     7
 79
     5
170
     0
171
     0
290
     0
174
     0
 93
       13
 44
0.0
173
     0
291
     1
 45
0.0
1001
ACAD
1000
AcDbSavedByObjectVersion
1070
     0
  0
VISUALSTYLE
  5
2E
102
{ACAD_REACTORS
330
2A
102
}
330
2A
100
AcDbVisualStyle
  2
GouraudWithEdges
 70
     3
 71
     2
 72
     2
 73
     1
 90
        2
 40
-0.6
 41
30.0
 62
     5
 63
     7
 74
     1
 91
        4
 64
     7
 65
   257
 75
     1
175
     1
 42
1.0
 92
        0
 66
   257
 43
1.0
 76
     1
 77
     6
 78
     2
 67
     7
 79
     5
170
     0
171
     0
290
     0
174
     0
 93
       13
 44
0.0
173
     0
291
     1
 45
0.0
1001
ACAD
1000
AcDbSavedByObjectVersion
1070
     0
  0
VISUALSTYLE
  5
38
102
{ACAD_REACTORS
330
2A
102
}
330
2A
100
AcDbVisualStyle
  2
Linepattern
 70
    14
 71
     2
 72
     2
 73
     0
 90
        0
 40
-0.6
 41
-30.0
 62
     5
 63
     7
 74
     1
 91
        4
 64
     7
 65
   257
 75
     7
175
     7
 42
1.0
 92
        8
 66
     7
 43
1.0
 76
     1
 77
     6
 78
     2
 67
     7
 79
     5
170
     0
171
     0
290
     0
174
     0
 93
        1
 44
0.0
173
     0
291
     1
 45
0.0
1001
ACAD
1000
AcDbSavedByObjectVersion
1070
     0
  0
VISUALSTYLE
  5
33
102
{ACAD_REACTORS
330
2A
102
}
330
2A
100
AcDbVisualStyle
  2
Realistic
 70
     8
 71
     2
 72
     2
 73
     0
 90
        0
 40
-0.6
 41
-30.0
 62
     5
 63
     7
 74
     1
 91
        0
 64
     7
 65
   257
 75
     1
175
     1
 42
1.0
 92
        8
 66
     8
 43
1.0
 76
     1
 77
     6
 78
     2
 67
     7
 79
     5
170
     0
171
     0
290
     0
174
     0
 93
       13
 44
0.0
173
     0
291
     0
 45
0.0
1001
ACAD
1000
AcDbSavedByObjectVersion
1070
     0
  0
VISUALSTYLE
  5
37
102
{ACAD_REACTORS
330
2A
102
}
330
2A
100
AcDbVisualStyle
  2
Thicken
 70
    13
 71
     2
 72
     2
 73
     0
 90
        0
 40
-0.6
 41
-30.0
 62
     5
 63
     7
 74
     1
 91
        4
 64
     7
 65
   257
 75
     1
175
     1
 42
1.0
 92
       12
 66
     7
 43
1.0
 76
     1
 77
     6
 78
     2
 67
     7
 79
     5
170
     0
171
     0
290
     0
174
     0
 93
        1
 44
0.0
173
     0
291
     1
 45
0.0
1001
ACAD
1000
AcDbSavedByObjectVersion
1070
     0
  0
DICTIONARYVAR
  5
2AA
102
{ACAD_REACTORS
330
2A9
102
}
330
2A9
100
DictionaryVariables
280
     0
  1
1:1
  0
DICTIONARYVAR
  5
2AE
102
{ACAD_REACTORS
330
2A9
102
}
330
2A9
100
DictionaryVariables
280
     0
  1
80.000000
  0
DICTIONARYVAR
  5
2AD
102
{ACAD_REACTORS
330
2A9
102
}
330
2A9
100
DictionaryVariables
280
     0
  1
5.000000
  0
ENDSEC
  0
EOF
