  0
SECTION
  2
HEADER
  9
$ACADVER
  1
AC1015
  9
$ACADMAINTVER
 70
     6
  9
$DWGCODEPAGE
  3
ANSI_1252
  9
$INSBASE
 10
0.0
 20
0.0
 30
0.0
  9
$EXTMIN
 10
0.0
 20
0.0
 30
0.0
  9
$EXTMAX
 10
3000.0
 20
4500.0
 30
0.0
  9
$LIMMIN
 10
0.0
 20
0.0
  9
$LIMMAX
 10
3000.0
 20
4500.0
  9
$ORTHOMODE
 70
     0
  9
$REGENMODE
 70
     1
  9
$FILLMODE
 70
     1
  9
$QTEXTMODE
 70
     0
  9
$MIRRTEXT
 70
     1
  9
$LTSCALE
 40
1.0
  9
$ATTMODE
 70
     1
  9
$TEXTSIZE
 40
2.5
  9
$TRACEWID
 40
1.0
  9
$TEXTSTYLE
  7
Standard
  9
$CLAYER
  8
0
  9
$CELTYPE
  6
ByLayer
  9
$CECOLOR
 62
   256
  9
$CELTSCALE
 40
1.0
  9
$DISPSILH
 70
     0
  9
$DIMSCALE
 40
1.0
  9
$DIMASZ
 40
2.5
  9
$DIMEXO
 40
0.625
  9
$DIMDLI
 40
3.75
  9
$DIMRND
 40
0.0
  9
$DIMDLE
 40
0.0
  9
$DIMEXE
 40
1.25
  9
$DIMTP
 40
0.0
  9
$DIMTM
 40
0.0
  9
$DIMTXT
 40
2.5
  9
$DIMCEN
 40
2.5
  9
$DIMTSZ
 40
0.0
  9
$DIMTOL
 70
     0
  9
$DIMLIM
 70
     0
  9
$DIMTIH
 70
     0
  9
$DIMTOH
 70
     0
  9
$DIMSE1
 70
     0
  9
$DIMSE2
 70
     0
  9
$DIMTAD
 70
     1
  9
$DIMZIN
 70
     8
  9
$DIMBLK
  1

  9
$DIMASO
 70
     1
  9
$DIMSHO
 70
     1
  9
$DIMPOST
  1

  9
$DIMAPOST
  1

  9
$DIMALT
 70
     0
  9
$DIMALTD
 70
     3
  9
$DIMALTF
 40
0.0393700787
  9
$DIMLFAC
 40
1.0
  9
$DIMTOFL
 70
     1
  9
$DIMTVP
 40
0.0
  9
$DIMTIX
 70
     0
  9
$DIMSOXD
 70
     0
  9
$DIMSAH
 70
     0
  9
$DIMBLK1
  1

  9
$DIMBLK2
  1

  9
$DIMSTYLE
  2
ISO-25
  9
$DIMCLRD
 70
     0
  9
$DIMCLRE
 70
     0
  9
$DIMCLRT
 70
     0
  9
$DIMTFAC
 40
1.0
  9
$DIMGAP
 40
0.625
  9
$DIMJUST
 70
     0
  9
$DIMSD1
 70
     0
  9
$DIMSD2
 70
     0
  9
$DIMTOLJ
 70
     0
  9
$DIMTZIN
 70
     8
  9
$DIMALTZ
 70
     0
  9
$DIMALTTZ
 70
     0
  9
$DIMUPT
 70
     0
  9
$DIMDEC
 70
     2
  9
$DIMTDEC
 70
     2
  9
$DIMALTU
 70
     2
  9
$DIMALTTD
 70
     3
  9
$DIMTXSTY
  7
Standard
  9
$DIMAUNIT
 70
     0
  9
$DIMADEC
 70
     0
  9
$DIMALTRND
 40
0.0
  9
$DIMAZIN
 70
     0
  9
$DIMDSEP
 70
    44
  9
$DIMATFIT
 70
     3
  9
$DIMFRAC
 70
     0
  9
$DIMLDRBLK
  1

  9
$DIMLUNIT
 70
     2
  9
$DIMLWD
 70
    -2
  9
$DIMLWE
 70
    -2
  9
$DIMTMOVE
 70
     0
  9
$LUNITS
 70
     2
  9
$LUPREC
 70
     4
  9
$SKETCHINC
 40
1.0
  9
$FILLETRAD
 40
10.0
  9
$AUNITS
 70
     0
  9
$AUPREC
 70
     0
  9
$MENU
  1
.
  9
$ELEVATION
 40
0.0
  9
$PELEVATION
 40
0.0
  9
$THICKNESS
 40
0.0
  9
$LIMCHECK
 70
     0
  9
$CHAMFERA
 40
10.0
  9
$CHAMFERB
 40
10.0
  9
$CHAMFERC
 40
20.0
  9
$CHAMFERD
 40
0.0
  9
$SKPOLY
 70
     0
  9
$TDCREATE
 40
2456426.449090347
  9
$TDUCREATE
 40
2456426.365757014
  9
$TDUPDATE
 40
2456426.449090359
  9
$TDUUPDATE
 40
2456426.365757025
  9
$TDINDWG
 40
0.0000000116
  9
$TDUSRTIMER
 40
0.0000000116
  9
$USRTIMER
 70
     1
  9
$ANGBASE
 50
0.0
  9
$ANGDIR
 70
     0
  9
$PDMODE
 70
     0
  9
$PDSIZE
 40
0.0
  9
$PLINEWID
 40
0.0
  9
$SPLFRAME
 70
     0
  9
$SPLINETYPE
 70
     6
  9
$SPLINESEGS
 70
     8
  9
$HANDSEED
  5
381
  9
$SURFTAB1
 70
     6
  9
$SURFTAB2
 70
     6
  9
$SURFTYPE
 70
     6
  9
$SURFU
 70
     6
  9
$SURFV
 70
     6
  9
$UCSBASE
  2

  9
$UCSNAME
  2

  9
$UCSORG
 10
0.0
 20
0.0
 30
0.0
  9
$UCSXDIR
 10
1.0
 20
0.0
 30
0.0
  9
$UCSYDIR
 10
0.0
 20
1.0
 30
0.0
  9
$UCSORTHOREF
  2

  9
$UCSORTHOVIEW
 70
     0
  9
$UCSORGTOP
 10
0.0
 20
0.0
 30
0.0
  9
$UCSORGBOTTOM
 10
0.0
 20
0.0
 30
0.0
  9
$UCSORGLEFT
 10
0.0
 20
0.0
 30
0.0
  9
$UCSORGRIGHT
 10
0.0
 20
0.0
 30
0.0
  9
$UCSORGFRONT
 10
0.0
 20
0.0
 30
0.0
  9
$UCSORGBACK
 10
0.0
 20
0.0
 30
0.0
  9
$PUCSBASE
  2

  9
$PUCSNAME
  2

  9
$PUCSORG
 10
0.0
 20
0.0
 30
0.0
  9
$PUCSXDIR
 10
1.0
 20
0.0
 30
0.0
  9
$PUCSYDIR
 10
0.0
 20
1.0
 30
0.0
  9
$PUCSORTHOREF
  2

  9
$PUCSORTHOVIEW
 70
     0
  9
$PUCSORGTOP
 10
0.0
 20
0.0
 30
0.0
  9
$PUCSORGBOTTOM
 10
0.0
 20
0.0
 30
0.0
  9
$PUCSORGLEFT
 10
0.0
 20
0.0
 30
0.0
  9
$PUCSORGRIGHT
 10
0.0
 20
0.0
 30
0.0
  9
$PUCSORGFRONT
 10
0.0
 20
0.0
 30
0.0
  9
$PUCSORGBACK
 10
0.0
 20
0.0
 30
0.0
  9
$USERI1
 70
     0
  9
$USERI2
 70
     0
  9
$USERI3
 70
     0
  9
$USERI4
 70
     0
  9
$USERI5
 70
     0
  9
$USERR1
 40
0.0
  9
$USERR2
 40
0.0
  9
$USERR3
 40
0.0
  9
$USERR4
 40
0.0
  9
$USERR5
 40
0.0
  9
$WORLDVIEW
 70
     1
  9
$SHADEDGE
 70
     3
  9
$SHADEDIF
 70
    70
  9
$TILEMODE
 70
     1
  9
$MAXACTVP
 70
    64
  9
$PINSBASE
 10
0.0
 20
0.0
 30
0.0
  9
$PLIMCHECK
 70
     0
  9
$PEXTMIN
 10
0.0
 20
0.0
 30
0.0
  9
$PEXTMAX
 10
3000.0
 20
4500.0
 30
0.0
  9
$PLIMMIN
 10
0.0
 20
0.0
  9
$PLIMMAX
 10
3000.0
 20
4500.0
  9
$UNITMODE
 70
     0
  9
$VISRETAIN
 70
     1
  9
$PLINEGEN
 70
     0
  9
$PSLTSCALE
 70
     1
  9
$TREEDEPTH
 70
  3020
  9
$CMLSTYLE
  2
Standard
  9
$CMLJUST
 70
     0
  9
$CMLSCALE
 40
20.0
  9
$PROXYGRAPHICS
 70
     1
  9
$MEASUREMENT
 70
     1
  9
$CELWEIGHT
370
    -1
  9
$ENDCAPS
280
     0
  9
$JOINSTYLE
280
     0
  9
$LWDISPLAY
290
     0
  9
$INSUNITS
 70
     4
  9
$HYPERLINKBASE
  1

  9
$STYLESHEET
  1

  9
$XEDIT
290
     1
  9
$CEPSNTYPE
380
     0
  9
$PSTYLEMODE
290
     1
  9
$FINGERPRINTGUID
  2
{30543474-ECAE-49E7-A8BC-AB4D07B24040}
  9
$VERSIONGUID
  2
{FAEB1C32-E019-11D5-929B-00C0DF256EC4}
  9
$EXTNAMES
290
     1
  9
$PSVPSCALE
 40
0.0
  9
$OLESTARTUP
290
     0
  0
ENDSEC
  0
SECTION
  2
CLASSES
  0
CLASS
  1
ACDBDICTIONARYWDFLT
  2
AcDbDictionaryWithDefault
  3
ObjectDBX Classes
 90
        0
280
     0
281
     0
  0
CLASS
  1
VISUALSTYLE
  2
AcDbVisualStyle
  3
ObjectDBX Classes
 90
     4095
280
     0
281
     0
  0
CLASS
  1
SCALE
  2
AcDbScale
  3
ObjectDBX Classes
 90
     1153
280
     0
281
     0
  0
CLASS
  1
DICTIONARYVAR
  2
AcDbDictionaryVar
  3
ObjectDBX Classes
 90
        0
280
     0
281
     0
  0
CLASS
  1
ACDBPLACEHOLDER
  2
AcDbPlaceHolder
  3
ObjectDBX Classes
 90
        0
280
     0
281
     0
  0
CLASS
  1
LAYOUT
  2
AcDbLayout
  3
ObjectDBX Classes
 90
        0
280
     0
281
     0
  0
ENDSEC
  0
SECTION
  2
TABLES
  0
TABLE
  2
VPORT
  5
8
330
0
100
AcDbSymbolTable
 70
     1
  0
VPORT
  5
29
330
8
100
AcDbSymbolTableRecord
100
AcDbViewportTableRecord
  2
*Active
 70
     0
 10
0.0
 20
0.0
 11
1.0
 21
1.0
 12
344.1869158879
 22
148.5
 13
0.0
 23
0.0
 14
10.0
 24
10.0
 15
10.0
 25
10.0
 16
0.0
 26
0.0
 36
1.0
 17
0.0
 27
0.0
 37
0.0
 40
297.0
 41
1.9729729729
 42
50.0
 43
0.0
 44
0.0
 50
0.0
 51
0.0
 71
     0
 72
   100
 73
     1
 74
     3
 75
     0
 76
     0
 77
     0
 78
     0
281
     0
 65
     1
110
0.0
120
0.0
130
0.0
111
1.0
121
0.0
131
0.0
112
0.0
122
1.0
132
0.0
 79
     0
146
0.0
  0
ENDTAB
  0
TABLE
  2
LTYPE
  5
5
330
0
100
AcDbSymbolTable
 70
     2
  0
LTYPE
  5
14
330
5
100
AcDbSymbolTableRecord
100
AcDbLinetypeTableRecord
  2
ByBlock
 70
     0
  3

 72
    65
 73
     0
 40
0.0
  0
LTYPE
  5
15
330
5
100
AcDbSymbolTableRecord
100
AcDbLinetypeTableRecord
  2
ByLayer
 70
     0
  3

 72
    65
 73
     0
 40
0.0
  0
LTYPE
  5
16
330
5
100
AcDbSymbolTableRecord
100
AcDbLinetypeTableRecord
  2
Continuous
 70
     0
  3
Solid line
 72
    65
 73
     0
 40
0.0
  0
LTYPE
  5
60
330
5
100
AcDbSymbolTableRecord
100
AcDbLinetypeTableRecord
  2
CENTER2
 70
     0
  3
Center (.5x) ___ _ ___ _ ___ _ ___ _ ___ _ ___
 72
    65
 73
     4
 40
28.575
 49
19.05
 74
     4
 75
     0
340
0
 46
0.0
 50
0.0
 44
0.0
 45
0.0
 49
-3.175
 74
     4
 75
     0
340
0
 46
0.0
 50
0.0
 44
0.0
 45
0.0
 49
3.175
 74
     4
 75
     0
340
0
 46
0.0
 50
0.0
 44
0.0
 45
0.0
 49
-3.175
 74
     4
 75
     0
340
0
 46
0.0
 50
0.0
 44
0.0
 45
0.0
  0
ENDTAB
  0
TABLE
  2
LAYER
  5
2
330
0
100
AcDbSymbolTable
 70
    12
  0
LAYER
  5
10
330
2
100
AcDbSymbolTableRecord
100
AcDbLayerTableRecord
  2
0
 70
     0
 62
     7
  6
Continuous
370
    -3
390
F
  0
LAYER
  5
5D
330
2
100
AcDbSymbolTableRecord
100
AcDbLayerTableRecord
  2
Default
 70
     0
 62
     7
  6
Continuous
370
    -3
390
F
  0
LAYER
  5
74
330
2
100
AcDbSymbolTableRecord
100
AcDbLayerTableRecord
  2
$DDT_AUDIT_GENERATED_(74)
 70
     0
 62
     7
  6
Continuous
370
    -3
390
F
  0
LAYER
  5
84
330
2
100
AcDbSymbolTableRecord
100
AcDbLayerTableRecord
  2
$DDT_AUDIT_GENERATED_(84)
 70
     0
 62
     7
  6
Continuous
370
    -3
390
F
  0
LAYER
  5
87
330
2
100
AcDbSymbolTableRecord
100
AcDbLayerTableRecord
  2
$DDT_AUDIT_GENERATED_(87)
 70
     0
 62
     7
  6
Continuous
370
    -3
390
F
  0
LAYER
  5
8A
330
2
100
AcDbSymbolTableRecord
100
AcDbLayerTableRecord
  2
$DDT_AUDIT_GENERATED_(8A)
 70
     0
 62
     7
  6
Continuous
370
    -3
390
F
  0
LAYER
  5
94
330
2
100
AcDbSymbolTableRecord
100
AcDbLayerTableRecord
  2
$DDT_AUDIT_GENERATED_(94)
 70
     0
 62
     7
  6
Continuous
370
    -3
390
F
  0
LAYER
  5
99
330
2
100
AcDbSymbolTableRecord
100
AcDbLayerTableRecord
  2
490580DC5_AUSLAU
 70
     0
 62
     7
  6
Continuous
370
    -3
390
F
  0
LAYER
  5
AA
330
2
100
AcDbSymbolTableRecord
100
AcDbLayerTableRecord
  2
$DDT_AUDIT_GENERATED_(AA)
 70
     0
 62
     7
  6
Continuous
370
    -3
390
F
  0
LAYER
  5
AC
330
2
100
AcDbSymbolTableRecord
100
AcDbLayerTableRecord
  2
$DDT_AUDIT_GENERATED_(AC)
 70
     0
 62
     7
  6
Continuous
370
    -3
390
F
  0
LAYER
  5
B1
330
2
100
AcDbSymbolTableRecord
100
AcDbLayerTableRecord
  2
$DDT_AUDIT_GENERATED_(B1)
 70
     0
 62
     7
  6
Continuous
370
    -3
390
F
  0
LAYER
  5
C2
330
2
100
AcDbSymbolTableRecord
100
AcDbLayerTableRecord
  2
$DDT_AUDIT_GENERATED_(C2)
 70
     0
 62
     7
  6
Continuous
370
    -3
390
F
  0
ENDTAB
  0
TABLE
  2
STYLE
  5
3
330
0
100
AcDbSymbolTable
 70
     2
  0
STYLE
  5
11
330
3
100
AcDbSymbolTableRecord
100
AcDbTextStyleTableRecord
  2
Standard
 70
     0
 40
0.0
 41
1.0
 50
0.0
 71
     0
 42
2.5
  3
txt
  4

  0
STYLE
  5
370
330
3
100
AcDbSymbolTableRecord
100
AcDbTextStyleTableRecord
  2
SEACAD_seiso_ttf
 70
     0
 40
0.0
 41
1.0
 50
0.0
 71
     0
 42
0.2
  3
seiso.ttf
  4

  0
ENDTAB
  0
TABLE
  2
VIEW
  5
6
330
0
100
AcDbSymbolTable
 70
     0
  0
ENDTAB
  0
TABLE
  2
UCS
  5
7
330
0
100
AcDbSymbolTable
 70
     0
  0
ENDTAB
  0
TABLE
  2
APPID
  5
9
330
0
100
AcDbSymbolTable
 70
     1
  0
APPID
  5
12
330
9
100
AcDbSymbolTableRecord
100
AcDbRegAppTableRecord
  2
ACAD
 70
     0
  0
ENDTAB
  0
TABLE
  2
DIMSTYLE
  5
A
330
0
100
AcDbSymbolTable
 70
     1
100
AcDbDimStyleTable
  0
DIMSTYLE
105
27
330
A
100
AcDbSymbolTableRecord
100
AcDbDimStyleTableRecord
  2
ISO-25
 70
     0
 41
2.5
 42
0.625
 43
3.75
 44
1.25
 73
     0
 74
     0
 77
     1
 78
     8
140
2.5
141
2.5
143
0.0393700787
147
0.625
171
     3
172
     1
271
     2
272
     2
274
     3
278
    44
283
     0
284
     8
340
11
  0
ENDTAB
  0
TABLE
  2
BLOCK_RECORD
  5
1
330
0
100
AcDbSymbolTable
 70
     7
  0
BLOCK_RECORD
  5
1F
330
1
100
AcDbSymbolTableRecord
100
AcDbBlockTableRecord
  2
*Model_Space
340
22
  0
BLOCK_RECORD
  5
1B
330
1
100
AcDbSymbolTableRecord
100
AcDbBlockTableRecord
  2
*Paper_Space
340
1E
  0
BLOCK_RECORD
  5
5E
330
1
100
AcDbSymbolTableRecord
100
AcDbBlockTableRecord
  2
SEANNOT_GROUP
340
0
102
{BLKREFS
331
5F
102
}
  0
BLOCK_RECORD
  5
65
330
1
100
AcDbSymbolTableRecord
100
AcDbBlockTableRecord
  2
SEANNOT_GROUP1
340
0
102
{BLKREFS
331
66
102
}
  0
BLOCK_RECORD
  5
6C
330
1
100
AcDbSymbolTableRecord
100
AcDbBlockTableRecord
  2
SEANNOT_GROUP2
340
0
102
{BLKREFS
331
6D
102
}
  0
BLOCK_RECORD
  5
72
330
1
100
AcDbSymbolTableRecord
100
AcDbBlockTableRecord
  2
SE
340
0
102
{BLKREFS
331
73
102
}
  0
BLOCK_RECORD
  5
301
330
1
100
AcDbSymbolTableRecord
100
AcDbBlockTableRecord
  2
SE1
340
0
102
{BLKREFS
331
302
102
}
  0
BLOCK_RECORD
  5
344
330
1
100
AcDbSymbolTableRecord
100
AcDbBlockTableRecord
  2
SE2
340
0
102
{BLKREFS
331
345
102
}
  0
ENDTAB
  0
ENDSEC
  0
SECTION
  2
BLOCKS
  0
BLOCK
  5
20
330
1F
100
AcDbEntity
  8
0
100
AcDbBlockBegin
  2
*Model_Space
 70
     0
 10
0.0
 20
0.0
 30
0.0
  3
*Model_Space
  1

  0
ENDBLK
  5
21
330
1F
100
AcDbEntity
  8
0
100
AcDbBlockEnd
  0
BLOCK
  5
1C
330
1B
100
AcDbEntity
 67
     1
  8
0
100
AcDbBlockBegin
  2
*Paper_Space
 70
     0
 10
0.0
 20
0.0
 30
0.0
  3
*Paper_Space
  1

  0
ENDBLK
  5
1D
330
1B
100
AcDbEntity
 67
     1
  8
0
100
AcDbBlockEnd
  0
BLOCK
  5
63
330
5E
100
AcDbEntity
  8
0
100
AcDbBlockBegin
  2
SEANNOT_GROUP
 70
     0
 10
0.0
 20
0.0
 30
0.0
  3
SEANNOT_GROUP
  1

  0
LINE
  5
61
330
5E
100
AcDbEntity
  8
Default
  6
CENTER2
 62
     7
100
AcDbLine
 10
86.349999553
 20
739.3599476265
 30
0.0
 11
46.350000447
 21
739.3599476265
 31
0.0
  0
LINE
  5
62
330
5E
100
AcDbEntity
  8
Default
  6
CENTER2
 62
     7
100
AcDbLine
 10
66.35
 20
759.3599471795
 30
0.0
 11
66.35
 21
719.3599480736
 31
0.0
  0
ENDBLK
  5
64
330
5E
100
AcDbEntity
  8
0
100
AcDbBlockEnd
  0
BLOCK
  5
69
330
65
100
AcDbEntity
  8
0
100
AcDbBlockBegin
  2
SEANNOT_GROUP1
 70
     0
 10
0.0
 20
0.0
 30
0.0
  3
SEANNOT_GROUP1
  1

  0
LINE
  5
67
330
65
100
AcDbEntity
  8
Default
  6
CENTER2
 62
     7
100
AcDbLine
 10
268.2265333325
 20
739.3599476265
 30
0.0
 11
228.2265342266
 21
739.3599476265
 31
0.0
  0
LINE
  5
68
330
65
100
AcDbEntity
  8
Default
  6
CENTER2
 62
     7
100
AcDbLine
 10
248.2265337795
 20
759.3599471795
 30
0.0
 11
248.2265337795
 21
719.3599480736
 31
0.0
  0
ENDBLK
  5
6A
330
65
100
AcDbEntity
  8
0
100
AcDbBlockEnd
  0
BLOCK
  5
70
330
6C
100
AcDbEntity
  8
0
100
AcDbBlockBegin
  2
SEANNOT_GROUP2
 70
     0
 10
0.0
 20
0.0
 30
0.0
  3
SEANNOT_GROUP2
  1

  0
LINE
  5
6E
330
6C
100
AcDbEntity
  8
Default
  6
CENTER2
 62
     7
100
AcDbLine
 10
86.349999553
 20
355.3810246095
 30
0.0
 11
46.350000447
 21
355.3810246095
 31
0.0
  0
LINE
  5
6F
330
6C
100
AcDbEntity
  8
Default
  6
CENTER2
 62
     7
100
AcDbLine
 10
66.35
 20
375.3810241625
 30
0.0
 11
66.35
 21
335.3810250566
 31
0.0
  0
ENDBLK
  5
71
330
6C
100
AcDbEntity
  8
0
100
AcDbBlockEnd
  0
BLOCK
  5
2FF
330
72
100
AcDbEntity
  8
0
100
AcDbBlockBegin
  2
SE
 70
     0
 10
0.0
 20
0.0
 30
0.0
  3
SE
  1

  0
LINE
  5
75
330
72
100
AcDbEntity
  8
$DDT_AUDIT_GENERATED_(74)
  6
Continuous
 62
     7
100
AcDbLine
 10
126.35
 20
701.8599476265
 30
0.0
 11
126.35
 21
776.8599476265
 31
0.0
  0
ARC
  5
76
330
72
100
AcDbEntity
  8
$DDT_AUDIT_GENERATED_(74)
  6
Continuous
 62
     7
100
AcDbCircle
 10
66.35
 20
701.8599476265
 30
0.0
 40
60.0
100
AcDbArc
 50
180.0
 51
266.6558477955
  0
LINE
  5
77
330
72
100
AcDbEntity
  8
$DDT_AUDIT_GENERATED_(74)
  6
Continuous
 62
     7
100
AcDbLine
 10
6.35
 20
776.8599476265
 30
0.0
 11
6.35
 21
701.8599476265
 31
0.0
  0
ARC
  5
78
330
72
100
AcDbEntity
  8
$DDT_AUDIT_GENERATED_(74)
  6
Continuous
 62
     7
100
AcDbCircle
 10
66.35
 20
776.8599476265
 30
0.0
 40
60.0
100
AcDbArc
 50
0.0
 51
180.0
  0
ARC
  5
79
330
72
100
AcDbEntity
  8
$DDT_AUDIT_GENERATED_(74)
  6
Continuous
 62
     7
100
AcDbCircle
 10
66.35
 20
776.8599476265
 30
0.0
 40
8.199999999999998
100
AcDbArc
 50
0.0
 51
71.3707294089
  0
ARC
  5
7A
330
72
100
AcDbEntity
  8
$DDT_AUDIT_GENERATED_(74)
  6
Continuous
 62
     7
100
AcDbCircle
 10
66.35
 20
776.8599476265
 30
0.0
 40
8.199999999999998
100
AcDbArc
 50
108.4971975387
 51
0.0
  0
CIRCLE
  5
7B
330
72
100
AcDbEntity
  8
$DDT_AUDIT_GENERATED_(74)
  6
Continuous
 62
     7
100
AcDbCircle
 10
66.35
 20
739.3599476265
 30
0.0
 40
23.15
  0
ARC
  5
7C
330
72
100
AcDbEntity
  8
$DDT_AUDIT_GENERATED_(74)
  6
Continuous
 62
     7
100
AcDbCircle
 10
66.35
 20
701.8599476265
 30
0.0
 40
4.800000000000009
100
AcDbArc
 50
0.0
 51
180.0
  0
LINE
  5
7D
330
72
100
AcDbEntity
  8
$DDT_AUDIT_GENERATED_(74)
  6
Continuous
 62
     7
100
AcDbLine
 10
61.55
 20
693.3599476265
 30
0.0
 11
61.55
 21
701.8599476265
 31
0.0
  0
ARC
  5
7E
330
72
100
AcDbEntity
  8
$DDT_AUDIT_GENERATED_(74)
  6
Continuous
 62
     7
100
AcDbCircle
 10
66.35
 20
693.3599476265
 30
0.0
 40
4.800000000000003
100
AcDbArc
 50
180.0
 51
0.0
  0
LINE
  5
7F
330
72
100
AcDbEntity
  8
$DDT_AUDIT_GENERATED_(74)
  6
Continuous
 62
     7
100
AcDbLine
 10
71.15
 20
701.8599476265
 30
0.0
 11
71.15
 21
693.3599476265
 31
0.0
  0
ARC
  5
80
330
72
100
AcDbEntity
  8
$DDT_AUDIT_GENERATED_(74)
  6
Continuous
 62
     7
100
AcDbCircle
 10
66.35
 20
701.8599476265
 30
0.0
 40
60.0
100
AcDbArc
 50
273.3441522045
 51
360.0
  0
LINE
  5
81
330
72
100
AcDbEntity
  8
$DDT_AUDIT_GENERATED_(74)
  6
Continuous
 62
     7
100
AcDbLine
 10
69.85
 20
641.9621179497
 30
0.0
 11
69.85
 21
642.0233149919
 31
0.0
  0
ARC
  5
82
330
72
100
AcDbEntity
  8
$DDT_AUDIT_GENERATED_(74)
  6
Continuous
 62
     7
100
AcDbCircle
 10
66.35
 20
779.5730162444
 30
0.0
 40
137.5942234058037
100
AcDbArc
 50
268.5424034849
 51
271.4575965151
  0
LINE
  5
83
330
72
100
AcDbEntity
  8
$DDT_AUDIT_GENERATED_(74)
  6
Continuous
 62
     7
100
AcDbLine
 10
62.85
 20
642.0233149919
 30
0.0
 11
62.85
 21
641.9621179497
 31
0.0
  0
LINE
  5
85
330
72
100
AcDbEntity
  8
$DDT_AUDIT_GENERATED_(84)
  6
Continuous
 62
     7
100
AcDbLine
 10
64.3757540169
 20
716.3946509205
 30
0.0
 11
64.3757540169
 21
716.3287961947
 31
0.0
  0
LINE
  5
86
330
72
100
AcDbEntity
  8
$DDT_AUDIT_GENERATED_(84)
  6
Continuous
 62
     7
100
AcDbLine
 10
68.3242459831
 20
716.3340242674
 30
0.0
 11
68.3242459831
 21
716.3946509205
 31
0.0
  0
ARC
  5
88
330
72
100
AcDbEntity
  8
$DDT_AUDIT_GENERATED_(87)
  6
Continuous
 62
     7
100
AcDbCircle
 10
66.3513907537
 20
776.8584670479
 30
0.0
 40
8.199999999999994
100
AcDbArc
 50
69.2797832003
 51
71.4806929051
  0
ARC
  5
89
330
72
100
AcDbEntity
  8
$DDT_AUDIT_GENERATED_(87)
  6
Continuous
 62
     7
100
AcDbCircle
 10
66.0513907537
 20
770.1651868356
 30
0.0
 40
1.5
100
AcDbArc
 50
267.4336593045
 51
274.0969058799
  0
SPLINE
  5
8B
330
72
100
AcDbEntity
  8
$DDT_AUDIT_GENERATED_(8A)
  6
Continuous
 62
     7
100
AcDbSpline
210
0.0
220
0.0
230
1.0
 70
     8
 71
     3
 72
    14
 73
    10
 74
     0
 42
0.000000006325287
 43
0.0000000001
 40
0.0
 40
0.0
 40
0.0
 40
0.0
 40
0.2499999999999997
 40
0.2499999999999997
 40
0.4999999999999998
 40
0.4999999999999998
 40
0.7499999999999999
 40
0.7499999999999999
 40
1.0
 40
1.0
 40
1.0
 40
1.0
 10
67.85123842561272
 20
810.6584670478978
 30
0.0
 10
67.98146481958226
 20
810.6584670478978
 30
0.0
 10
68.11441974728214
 20
810.6319671635661
 30
0.0
 10
68.35493481667716
 20
810.5321400559956
 30
0.0
 10
68.46642430535567
 20
810.4576246097814
 30
0.0
 10
68.6508366784969
 20
810.2731399440418
 30
0.0
 10
68.7250762469282
 20
810.1622415446386
 30
0.0
 10
68.82539723097634
 20
809.9201147340862
 30
0.0
 10
68.85139075365662
 20
809.7905136286412
 30
0.0
 10
68.85139075365662
 20
809.6584349860539
 30
0.0
  0
SPLINE
  5
8C
330
72
100
AcDbEntity
  8
$DDT_AUDIT_GENERATED_(8A)
  6
Continuous
 62
     7
100
AcDbSpline
210
0.0
220
0.0
230
1.0
 70
     8
 71
     3
 72
    14
 73
    10
 74
     0
 42
0.000000006325287
 43
0.0000000001
 40
0.0
 40
0.0
 40
0.0
 40
0.0
 40
0.25
 40
0.25
 40
0.5
 40
0.5
 40
0.75
 40
0.75
 40
1.0
 40
1.0
 40
1.0
 40
1.0
 10
63.85139075365662
 20
809.6584349860539
 30
0.0
 10
63.85139075365662
 20
809.7905136286412
 30
0.0
 10
63.8773842763369
 20
809.9201147340862
 30
0.0
 10
63.97770526038504
 20
810.1622415446386
 30
0.0
 10
64.05194482881635
 20
810.2731399440418
 30
0.0
 10
64.23635720195757
 20
810.4576246097814
 30
0.0
 10
64.34784669063608
 20
810.5321400559956
 30
0.0
 10
64.58836176003108
 20
810.6319671635661
 30
0.0
 10
64.72131668773098
 20
810.6584670478978
 30
0.0
 10
64.85154308170053
 20
810.6584670478978
 30
0.0
  0
ARC
  5
8D
330
72
100
AcDbEntity
  8
$DDT_AUDIT_GENERATED_(8A)
  6
Continuous
 62
     7
100
AcDbCircle
 10
66.3513907537
 20
776.8584670479
 30
0.0
 40
8.099999999999998
100
AcDbArc
 50
110.415857615
 51
69.584142385
  0
LINE
  5
8E
330
72
100
AcDbEntity
  8
$DDT_AUDIT_GENERATED_(8A)
  6
Continuous
 62
     7
100
AcDbLine
 10
68.8513907537
 20
784.9181908082
 30
0.0
 11
68.8513907537
 21
809.6584349861
 31
0.0
  0
LINE
  5
8F
330
72
100
AcDbEntity
  8
$DDT_AUDIT_GENERATED_(8A)
  6
Continuous
 62
     7
100
AcDbLine
 10
63.8513907537
 20
784.9181908082
 30
0.0
 11
63.8513907537
 21
809.6584349861
 31
0.0
  0
SPLINE
  5
90
330
72
100
AcDbEntity
  8
$DDT_AUDIT_GENERATED_(8A)
  6
Continuous
 62
     7
100
AcDbSpline
210
0.0
220
0.0
230
1.0
 70
     8
 71
     3
 72
    10
 73
     6
 74
     0
 42
0.0000000162219861
 43
0.0000000001
 40
0.0
 40
0.0
 40
0.0
 40
0.0
 40
0.4999999999999982
 40
0.4999999999999982
 40
1.0
 40
1.0
 40
1.0
 40
1.0
 10
63.52585606334349
 20
784.4496694371005
 30
0.0
 10
63.62150306184156
 20
784.4852703733454
 30
0.0
 10
63.70398267338395
 20
784.5495653842454
 30
0.0
 10
63.81953108199625
 20
784.7155383674647
 30
0.0
 10
63.85139075365662
 20
784.8161330306201
 30
0.0
 10
63.85139075365662
 20
784.9181908082307
 30
0.0
  0
SPLINE
  5
91
330
72
100
AcDbEntity
  8
$DDT_AUDIT_GENERATED_(8A)
  6
Continuous
 62
     7
100
AcDbSpline
210
0.0
220
0.0
230
1.0
 70
     8
 71
     3
 72
    10
 73
     6
 74
     0
 42
0.0000000162219861
 43
0.0000000001
 40
0.0
 40
0.0
 40
0.0
 40
0.0
 40
0.5
 40
0.5
 40
1.0
 40
1.0
 40
1.0
 40
1.0
 10
69.17692544396975
 20
784.4496694371005
 30
0.0
 10
69.08127837665674
 20
784.4852703989592
 30
0.0
 10
68.99811617420738
 20
784.5502194021648
 30
0.0
 10
68.88287562239596
 20
784.7164062882576
 30
0.0
 10
68.85139075365662
 20
784.8161331040458
 30
0.0
 10
68.85139075365662
 20
784.9181908082307
 30
0.0
  0
ELLIPSE
  5
92
330
72
100
AcDbEntity
  8
$DDT_AUDIT_GENERATED_(8A)
  6
Continuous
 62
     7
100
AcDbEllipse
 10
69.1762483874
 20
784.8839574983
 30
0.0
 11
-0.1443924929770885
 21
-0.4786969897250942
 31
0.0
210
0.0
220
0.0
230
0.9999999999999998
 40
0.9335738425
 41
4.986880711332786
 42
6.234468684668521
  0
LINE
  5
93
330
72
100
AcDbEntity
  8
$DDT_AUDIT_GENERATED_(8A)
  6
Continuous
 62
     7
100
AcDbLine
 10
67.8512384256
 20
810.6584670479
 30
0.0
 11
64.8515430817
 21
810.6584670479
 31
0.0
  0
LINE
  5
95
330
72
100
AcDbEntity
  8
$DDT_AUDIT_GENERATED_(94)
  6
Continuous
 62
     7
100
AcDbLine
 10
67.9513907537
 20
768.8503173788
 30
0.0
 11
67.5677537247
 21
768.8503173788
 31
0.0
  0
LINE
  5
96
330
72
100
AcDbEntity
  8
$DDT_AUDIT_GENERATED_(94)
  6
Continuous
 62
     7
100
AcDbLine
 10
65.1350277826
 20
768.8503173788
 30
0.0
 11
64.7513907537
 21
768.8503173788
 31
0.0
  0
ARC
  5
97
330
72
100
AcDbEntity
  8
$DDT_AUDIT_GENERATED_(94)
  6
Continuous
 62
     7
100
AcDbCircle
 10
64.7513907537
 20
769.2503173788
 30
0.0
 40
0.4000000000000002
100
AcDbArc
 50
221.722099995
 51
270.0
  0
ARC
  5
98
330
72
100
AcDbEntity
  8
$DDT_AUDIT_GENERATED_(94)
  6
Continuous
 62
     7
100
AcDbCircle
 10
67.9513907537
 20
769.2503173788
 30
0.0
 40
0.400000000000001
100
AcDbArc
 50
270.0
 51
318.277900005
  0
LINE
  5
9A
330
72
100
AcDbEntity
  8
490580DC5_AUSLAU
  6
Continuous
 62
     7
100
AcDbLine
 10
51.0966448846
 20
734.9343862495
 30
0.0
 11
54.2248460293
 21
732.7963615238
 31
0.0
  0
ARC
  5
9B
330
72
100
AcDbEntity
  8
490580DC5_AUSLAU
  6
Continuous
 62
     7
100
AcDbCircle
 10
80.3503184095
 20
736.492791865
 30
0.0
 40
1.99968211472483
100
AcDbArc
 50
308.8010038216
 51
339.9986880954
  0
ELLIPSE
  5
9C
330
72
100
AcDbEntity
  8
490580DC5_AUSLAU
  6
Continuous
 62
     7
100
AcDbEllipse
 10
52.3501286126
 20
736.49293099
 30
0.0
 11
-1.998569975635333
 21
0.07893661995921801
 31
0.0
210
0.0
220
0.0
230
1.0
 40
0.9999555045
 41
0.0394742771419518
 42
0.9329572091982009
  0
ARC
  5
9D
330
72
100
AcDbEntity
  8
490580DC5_AUSLAU
  6
Continuous
 62
     7
100
AcDbCircle
 10
80.3502580973
 20
736.4930361168
 30
0.0
 40
1.999792887556003
100
AcDbArc
 50
340.0066981596
 51
0.023329295
  0
LINE
  5
9E
330
72
100
AcDbEntity
  8
490580DC5_AUSLAU
  6
Continuous
 62
     7
100
AcDbLine
 10
50.8416352037
 20
749.159947627
 30
0.0
 11
81.8578630305
 21
749.159947627
 31
0.0
  0
LINE
  5
9F
330
72
100
AcDbEntity
  8
490580DC5_AUSLAU
  6
Continuous
 62
     7
100
AcDbLine
 10
78.475166864
 20
732.7963679992
 30
0.0
 11
81.6033541524
 21
734.934385632
 31
0.0
  0
ARC
  5
A0
330
72
100
AcDbEntity
  8
490580DC5_AUSLAU
  6
Continuous
 62
     7
100
AcDbCircle
 10
66.3515096229
 20
753.891707799
 30
0.0
 40
24.33254778060421
100
AcDbArc
 50
239.7675783174
 51
240.9191971709
  0
ARC
  5
A1
330
72
100
AcDbEntity
  8
490580DC5_AUSLAU
  6
Continuous
 62
     7
100
AcDbCircle
 10
66.3515096229
 20
753.891707799
 30
0.0
 40
24.33254778060421
100
AcDbArc
 50
299.0664201228
 51
300.2194305913
  0
ARC
  5
A2
330
72
100
AcDbEntity
  8
490580DC5_AUSLAU
  6
Continuous
 62
     7
100
AcDbCircle
 10
76.1524947035
 20
737.1384128473
 30
0.0
 40
4.924242015410751
100
AcDbArc
 50
288.3936444635
 51
298.1434794324
  0
ARC
  5
A3
330
72
100
AcDbEntity
  8
490580DC5_AUSLAU
  6
Continuous
 62
     7
100
AcDbCircle
 10
66.3499276366
 20
813.4138189087
 30
0.0
 40
81.74079767482547
100
AcDbArc
 50
262.0140726449
 51
277.986028122
  0
ARC
  5
A4
330
72
100
AcDbEntity
  8
490580DC5_AUSLAU
  6
Continuous
 62
     7
100
AcDbCircle
 10
56.5479872141
 20
737.1394384407
 30
0.0
 40
4.925386977680403
100
AcDbArc
 50
241.857281298
 51
251.604847737
  0
LINE
  5
A5
330
72
100
AcDbEntity
  8
490580DC5_AUSLAU
  6
Continuous
 62
     7
100
AcDbLine
 10
82.3500005209
 20
736.4196281972
 30
0.0
 11
82.3500005209
 21
748.659947627
 31
0.0
  0
LINE
  5
A6
330
72
100
AcDbEntity
  8
490580DC5_AUSLAU
  6
Continuous
 62
     7
100
AcDbLine
 10
50.3500005209
 20
748.659947627
 30
0.0
 11
50.3500005209
 21
736.4196281972
 31
0.0
  0
LINE
  5
A7
330
72
100
AcDbEntity
  8
490580DC5_AUSLAU
  6
Continuous
 62
     7
100
AcDbLine
 10
82.229412367
 20
735.8089667202
 30
0.0
 11
82.2295286634
 21
735.8092863581
 31
0.0
  0
ARC
  5
A8
330
72
100
AcDbEntity
  8
490580DC5_AUSLAU
  6
Continuous
 62
     7
100
AcDbCircle
 10
81.8500005209
 20
748.659947627
 30
0.0
 40
0.5000000000000059
100
AcDbArc
 50
0.0
 51
90.0
  0
SPLINE
  5
A9
330
72
100
AcDbEntity
  8
490580DC5_AUSLAU
  6
Continuous
 62
     7
100
AcDbSpline
210
0.0
220
0.0
230
1.0
 70
     8
 71
     3
 72
    11
 73
     7
 74
     0
 42
0.0000000125275515
 43
0.0000000001
 40
0.0
 40
0.0
 40
0.0
 40
0.0
 40
0.2499999999999984
 40
0.4999999999999973
 40
0.7499999999999994
 40
1.0
 40
1.0
 40
1.0
 40
1.0
 10
50.85000052092308
 20
749.1599476269912
 30
0.0
 10
50.77881185436602
 20
749.152936155319
 30
0.0
 10
50.65609553361453
 20
749.1369636165235
 30
0.0
 10
50.48740067924336
 20
749.0225474686711
 30
0.0
 10
50.37298453139091
 20
748.8538526142999
 30
0.0
 10
50.35701199259542
 20
748.7311362935484
 30
0.0
 10
50.35000052092309
 20
748.6599476269913
 30
0.0
  0
CIRCLE
  5
AB
330
72
100
AcDbEntity
  8
$DDT_AUDIT_GENERATED_(AA)
  6
Continuous
 62
     7
100
AcDbCircle
 10
66.35
 20
739.3599476265
 30
0.0
 40
23.05
  0
LINE
  5
AD
330
72
100
AcDbEntity
  8
$DDT_AUDIT_GENERATED_(AC)
  6
Continuous
 62
     7
100
AcDbLine
 10
61.675
 20
701.8599476265
 30
0.0
 11
61.675
 21
693.3599476265
 31
0.0
  0
ARC
  5
AE
330
72
100
AcDbEntity
  8
$DDT_AUDIT_GENERATED_(AC)
  6
Continuous
 62
     7
100
AcDbCircle
 10
66.35
 20
701.8599476265
 30
0.0
 40
4.675000000000002
100
AcDbArc
 50
0.0
 51
180.0
  0
LINE
  5
AF
330
72
100
AcDbEntity
  8
$DDT_AUDIT_GENERATED_(AC)
  6
Continuous
 62
     7
100
AcDbLine
 10
71.025
 20
693.3599476265
 30
0.0
 11
71.025
 21
701.8599476265
 31
0.0
  0
ARC
  5
B0
330
72
100
AcDbEntity
  8
$DDT_AUDIT_GENERATED_(AC)
  6
Continuous
 62
     7
100
AcDbCircle
 10
66.35
 20
693.3599476265
 30
0.0
 40
4.675000000000002
100
AcDbArc
 50
180.0
 51
0.0
  0
ELLIPSE
  5
B2
330
72
100
AcDbEntity
  8
$DDT_AUDIT_GENERATED_(B1)
  6
Continuous
 62
     7
100
AcDbEllipse
 10
66.35
 20
726.2778020759
 30
0.0
 11
10.02278736572428
 21
0.0
 31
0.0
210
0.0
220
0.0
230
1.0
 40
0.2249510543
 41
0.0
 42
6.283185307179586
  0
ELLIPSE
  5
B3
330
72
100
AcDbEntity
  8
$DDT_AUDIT_GENERATED_(B1)
  6
Continuous
 62
     7
100
AcDbEllipse
 10
66.35
 20
726.2778020759
 30
0.0
 11
10.75000000000001
 21
-1.734723475976807E-15
 31
0.0
210
0.0
220
0.0
230
1.0
 40
0.2249510543
 41
0.0
 42
6.283185307179586
  0
LINE
  5
B4
330
72
100
AcDbEntity
  8
$DDT_AUDIT_GENERATED_(B1)
  6
Continuous
 62
     7
100
AcDbLine
 10
55.35
 20
726.0053694525
 30
0.0
 11
55.35
 21
727.1690428003
 31
0.0
  0
ELLIPSE
  5
B5
330
72
100
AcDbEntity
  8
$DDT_AUDIT_GENERATED_(B1)
  6
Continuous
 62
     7
100
AcDbEllipse
 10
66.35
 20
729.2009122702
 30
0.0
 11
11.80000000000027
 21
-5.204170427930421E-15
 31
0.0
210
0.0
220
0.0
230
1.0
 40
0.2249510543
 41
2.771250021498085
 42
3.511935285681504
  0
LINE
  5
B6
330
72
100
AcDbEntity
  8
$DDT_AUDIT_GENERATED_(B1)
  6
Continuous
 62
     7
100
AcDbLine
 10
55.35
 20
727.1690428003
 30
0.0
 11
55.35
 21
728.3917633593
 31
0.0
  0
LINE
  5
B7
330
72
100
AcDbEntity
  8
$DDT_AUDIT_GENERATED_(B1)
  6
Continuous
 62
     7
100
AcDbLine
 10
55.35
 20
728.3917633593
 30
0.0
 11
55.35
 21
730.1616402743
 31
0.0
  0
ELLIPSE
  5
B8
330
72
100
AcDbEntity
  8
$DDT_AUDIT_GENERATED_(B1)
  6
Continuous
 62
     7
100
AcDbEllipse
 10
66.35
 20
726.5872061264
 30
0.0
 11
11.30000000000002
 21
-1.734723475976807E-15
 31
0.0
210
0.0
220
0.0
230
1.0
 40
0.2249510543
 41
3.372534132729941
 42
3.552973594182254
  0
LINE
  5
B9
330
72
100
AcDbEntity
  8
$DDT_AUDIT_GENERATED_(B1)
  6
Continuous
 62
     7
100
AcDbLine
 10
77.35
 20
726.0053694525
 30
0.0
 11
77.35
 21
727.1690428003
 31
0.0
  0
ELLIPSE
  5
BA
330
72
100
AcDbEntity
  8
$DDT_AUDIT_GENERATED_(B1)
  6
Continuous
 62
     7
100
AcDbEllipse
 10
66.35
 20
729.2009122702
 30
0.0
 11
-11.80000000000017
 21
-1.908195823574488E-14
 31
0.0
210
0.0
220
0.0
230
1.0
 40
0.2249510543
 41
2.771250021498079
 42
3.511935285681497
  0
LINE
  5
BB
330
72
100
AcDbEntity
  8
$DDT_AUDIT_GENERATED_(B1)
  6
Continuous
 62
     7
100
AcDbLine
 10
77.35
 20
727.1690428003
 30
0.0
 11
77.35
 21
728.3917633593
 31
0.0
  0
LINE
  5
BC
330
72
100
AcDbEntity
  8
$DDT_AUDIT_GENERATED_(B1)
  6
Continuous
 62
     7
100
AcDbLine
 10
77.35
 20
728.3917633593
 30
0.0
 11
77.35
 21
730.1616402743
 31
0.0
  0
LINE
  5
BD
330
72
100
AcDbEntity
  8
$DDT_AUDIT_GENERATED_(B1)
  6
Continuous
 62
     7
100
AcDbLine
 10
55.9927647323
 20
725.5707439936
 30
0.0
 11
56.4968779533
 21
725.3108137637
 31
0.0
  0
LINE
  5
BE
330
72
100
AcDbEntity
  8
$DDT_AUDIT_GENERATED_(B1)
  6
Continuous
 62
     7
100
AcDbLine
 10
76.2031220467
 20
725.3108137637
 30
0.0
 11
76.7072352677
 21
725.5707439936
 31
0.0
  0
ARC
  5
BF
330
72
100
AcDbEntity
  8
$DDT_AUDIT_GENERATED_(B1)
  6
Continuous
 62
     7
100
AcDbCircle
 10
74.2695016162
 20
730.0266875588
 30
0.0
 40
5.078021288786096
100
AcDbArc
 50
294.5041276939
 51
307.4078943815
  0
LINE
  5
C0
330
72
100
AcDbEntity
  8
$DDT_AUDIT_GENERATED_(B1)
  6
Continuous
 62
     7
100
AcDbLine
 10
54.55
 20
732.6388145532
 30
0.0
 11
54.55
 21
729.2009122702
 31
0.0
  0
LINE
  5
C1
330
72
100
AcDbEntity
  8
$DDT_AUDIT_GENERATED_(B1)
  6
Continuous
 62
     7
100
AcDbLine
 10
78.15
 20
729.2009122702
 30
0.0
 11
78.15
 21
732.6387461502
 31
0.0
  0
ELLIPSE
  5
C3
330
72
100
AcDbEntity
  8
$DDT_AUDIT_GENERATED_(C2)
  6
Continuous
 62
     7
100
AcDbEllipse
 10
66.35
 20
726.3752390823
 30
0.0
 11
8.250000000000002
 21
1.734723475976807E-15
 31
0.0
210
0.0
220
0.0
230
1.0
 40
0.2249510543
 41
0.0
 42
6.283185307179586
  0
ELLIPSE
  5
C4
330
72
100
AcDbEntity
  8
$DDT_AUDIT_GENERATED_(C2)
  6
Continuous
 62
     7
100
AcDbEllipse
 10
66.35
 20
726.3752390823
 30
0.0
 11
9.400000000000006
 21
0.0
 31
0.0
210
0.0
220
0.0
230
1.0
 40
0.2249510543
 41
0.0
 42
6.283185307179586
  0
LINE
  5
C5
330
72
100
AcDbEntity
  8
$DDT_AUDIT_GENERATED_(C2)
  6
Continuous
 62
     7
100
AcDbLine
 10
66.85
 20
726.7499485876
 30
0.0
 11
65.85
 21
726.7499485876
 31
0.0
  0
LINE
  5
C6
330
72
100
AcDbEntity
  8
$DDT_AUDIT_GENERATED_(C2)
  6
Continuous
 62
     7
100
AcDbLine
 10
65.85
 20
726.7499485876
 30
0.0
 11
65.85
 21
726.9748996419
 31
0.0
  0
LINE
  5
C7
330
72
100
AcDbEntity
  8
$DDT_AUDIT_GENERATED_(C2)
  6
Continuous
 62
     7
100
AcDbLine
 10
65.65
 20
726.7499485876
 30
0.0
 11
64.65
 21
726.7499485876
 31
0.0
  0
LINE
  5
C8
330
72
100
AcDbEntity
  8
$DDT_AUDIT_GENERATED_(C2)
  6
Continuous
 62
     7
100
AcDbLine
 10
64.65
 20
726.7499485876
 30
0.0
 11
64.65
 21
726.9748996419
 31
0.0
  0
LINE
  5
C9
330
72
100
AcDbEntity
  8
$DDT_AUDIT_GENERATED_(C2)
  6
Continuous
 62
     7
100
AcDbLine
 10
65.65
 20
726.9748996419
 30
0.0
 11
65.65
 21
726.7499485876
 31
0.0
  0
LINE
  5
CA
330
72
100
AcDbEntity
  8
$DDT_AUDIT_GENERATED_(C2)
  6
Continuous
 62
     7
100
AcDbLine
 10
64.45
 20
726.7499485876
 30
0.0
 11
63.45
 21
726.7499485876
 31
0.0
  0
LINE
  5
CB
330
72
100
AcDbEntity
  8
$DDT_AUDIT_GENERATED_(C2)
  6
Continuous
 62
     7
100
AcDbLine
 10
63.45
 20
726.7499485876
 30
0.0
 11
63.45
 21
726.9748996419
 31
0.0
  0
LINE
  5
CC
330
72
100
AcDbEntity
  8
$DDT_AUDIT_GENERATED_(C2)
  6
Continuous
 62
     7
100
AcDbLine
 10
64.45
 20
726.9748996419
 30
0.0
 11
64.45
 21
726.7499485876
 31
0.0
  0
LINE
  5
CD
330
72
100
AcDbEntity
  8
$DDT_AUDIT_GENERATED_(C2)
  6
Continuous
 62
     7
100
AcDbLine
 10
63.25
 20
726.7499485876
 30
0.0
 11
62.25
 21
726.7499485876
 31
0.0
  0
LINE
  5
CE
330
72
100
AcDbEntity
  8
$DDT_AUDIT_GENERATED_(C2)
  6
Continuous
 62
     7
100
AcDbLine
 10
62.25
 20
726.7499485876
 30
0.0
 11
62.25
 21
726.9748996419
 31
0.0
  0
LINE
  5
CF
330
72
100
AcDbEntity
  8
$DDT_AUDIT_GENERATED_(C2)
  6
Continuous
 62
     7
100
AcDbLine
 10
63.25
 20
726.9748996419
 30
0.0
 11
63.25
 21
726.7499485876
 31
0.0
  0
LINE
  5
D0
330
72
100
AcDbEntity
  8
$DDT_AUDIT_GENERATED_(C2)
  6
Continuous
 62
     7
100
AcDbLine
 10
62.05
 20
726.7499485876
 30
0.0
 11
61.05
 21
726.7499485876
 31
0.0
  0
LINE
  5
D1
330
72
100
AcDbEntity
  8
$DDT_AUDIT_GENERATED_(C2)
  6
Continuous
 62
     7
100
AcDbLine
 10
61.05
 20
726.7499485876
 30
0.0
 11
61.05
 21
726.9748996419
 31
0.0
  0
LINE
  5
D2
330
72
100
AcDbEntity
  8
$DDT_AUDIT_GENERATED_(C2)
  6
Continuous
 62
     7
100
AcDbLine
 10
62.05
 20
726.9748996419
 30
0.0
 11
62.05
 21
726.7499485876
 31
0.0
  0
LINE
  5
D3
330
72
100
AcDbEntity
  8
$DDT_AUDIT_GENERATED_(C2)
  6
Continuous
 62
     7
100
AcDbLine
 10
60.85
 20
726.7499485876
 30
0.0
 11
59.85
 21
726.7499485876
 31
0.0
  0
LINE
  5
D4
330
72
100
AcDbEntity
  8
$DDT_AUDIT_GENERATED_(C2)
  6
Continuous
 62
     7
100
AcDbLine
 10
59.85
 20
726.7499485876
 30
0.0
 11
59.85
 21
726.9748996419
 31
0.0
  0
LINE
  5
D5
330
72
100
AcDbEntity
  8
$DDT_AUDIT_GENERATED_(C2)
  6
Continuous
 62
     7
100
AcDbLine
 10
60.85
 20
726.9748996419
 30
0.0
 11
60.85
 21
726.7499485876
 31
0.0
  0
LINE
  5
D6
330
72
100
AcDbEntity
  8
$DDT_AUDIT_GENERATED_(C2)
  6
Continuous
 62
     7
100
AcDbLine
 10
58.65
 20
726.7499485876
 30
0.0
 11
58.65
 21
726.9748996419
 31
0.0
  0
LINE
  5
D7
330
72
100
AcDbEntity
  8
$DDT_AUDIT_GENERATED_(C2)
  6
Continuous
 62
     7
100
AcDbLine
 10
59.65
 20
726.7499485876
 30
0.0
 11
58.65
 21
726.7499485876
 31
0.0
  0
LINE
  5
D8
330
72
100
AcDbEntity
  8
$DDT_AUDIT_GENERATED_(C2)
  6
Continuous
 62
     7
100
AcDbLine
 10
59.65
 20
726.9748996419
 30
0.0
 11
59.65
 21
726.7499485876
 31
0.0
  0
LINE
  5
D9
330
72
100
AcDbEntity
  8
$DDT_AUDIT_GENERATED_(C2)
  6
Continuous
 62
     7
100
AcDbLine
 10
66.85
 20
726.4800073223
 30
0.0
 11
65.85
 21
726.4800073223
 31
0.0
  0
LINE
  5
DA
330
72
100
AcDbEntity
  8
$DDT_AUDIT_GENERATED_(C2)
  6
Continuous
 62
     7
100
AcDbLine
 10
65.85
 20
726.4800073223
 30
0.0
 11
65.85
 21
726.7049583767
 31
0.0
  0
LINE
  5
DB
330
72
100
AcDbEntity
  8
$DDT_AUDIT_GENERATED_(C2)
  6
Continuous
 62
     7
100
AcDbLine
 10
65.85
 20
726.7049583767
 30
0.0
 11
66.85
 21
726.7049583767
 31
0.0
  0
LINE
  5
DC
330
72
100
AcDbEntity
  8
$DDT_AUDIT_GENERATED_(C2)
  6
Continuous
 62
     7
100
AcDbLine
 10
65.65
 20
726.4800073223
 30
0.0
 11
64.65
 21
726.4800073223
 31
0.0
  0
LINE
  5
DD
330
72
100
AcDbEntity
  8
$DDT_AUDIT_GENERATED_(C2)
  6
Continuous
 62
     7
100
AcDbLine
 10
64.65
 20
726.4800073223
 30
0.0
 11
64.65
 21
726.7049583767
 31
0.0
  0
LINE
  5
DE
330
72
100
AcDbEntity
  8
$DDT_AUDIT_GENERATED_(C2)
  6
Continuous
 62
     7
100
AcDbLine
 10
64.65
 20
726.7049583767
 30
0.0
 11
65.65
 21
726.7049583767
 31
0.0
  0
LINE
  5
DF
330
72
100
AcDbEntity
  8
$DDT_AUDIT_GENERATED_(C2)
  6
Continuous
 62
     7
100
AcDbLine
 10
65.65
 20
726.7049583767
 30
0.0
 11
65.65
 21
726.4800073223
 31
0.0
  0
LINE
  5
E0
330
72
100
AcDbEntity
  8
$DDT_AUDIT_GENERATED_(C2)
  6
Continuous
 62
     7
100
AcDbLine
 10
64.45
 20
726.4800073223
 30
0.0
 11
63.45
 21
726.4800073223
 31
0.0
  0
LINE
  5
E1
330
72
100
AcDbEntity
  8
$DDT_AUDIT_GENERATED_(C2)
  6
Continuous
 62
     7
100
AcDbLine
 10
63.45
 20
726.4800073223
 30
0.0
 11
63.45
 21
726.7049583767
 31
0.0
  0
LINE
  5
E2
330
72
100
AcDbEntity
  8
$DDT_AUDIT_GENERATED_(C2)
  6
Continuous
 62
     7
100
AcDbLine
 10
63.45
 20
726.7049583767
 30
0.0
 11
64.45
 21
726.7049583767
 31
0.0
  0
LINE
  5
E3
330
72
100
AcDbEntity
  8
$DDT_AUDIT_GENERATED_(C2)
  6
Continuous
 62
     7
100
AcDbLine
 10
64.45
 20
726.7049583767
 30
0.0
 11
64.45
 21
726.4800073223
 31
0.0
  0
LINE
  5
E4
330
72
100
AcDbEntity
  8
$DDT_AUDIT_GENERATED_(C2)
  6
Continuous
 62
     7
100
AcDbLine
 10
63.25
 20
726.4800073223
 30
0.0
 11
62.25
 21
726.4800073223
 31
0.0
  0
LINE
  5
E5
330
72
100
AcDbEntity
  8
$DDT_AUDIT_GENERATED_(C2)
  6
Continuous
 62
     7
100
AcDbLine
 10
62.25
 20
726.4800073223
 30
0.0
 11
62.25
 21
726.7049583767
 31
0.0
  0
LINE
  5
E6
330
72
100
AcDbEntity
  8
$DDT_AUDIT_GENERATED_(C2)
  6
Continuous
 62
     7
100
AcDbLine
 10
62.25
 20
726.7049583767
 30
0.0
 11
63.25
 21
726.7049583767
 31
0.0
  0
LINE
  5
E7
330
72
100
AcDbEntity
  8
$DDT_AUDIT_GENERATED_(C2)
  6
Continuous
 62
     7
100
AcDbLine
 10
63.25
 20
726.7049583767
 30
0.0
 11
63.25
 21
726.4800073223
 31
0.0
  0
LINE
  5
E8
330
72
100
AcDbEntity
  8
$DDT_AUDIT_GENERATED_(C2)
  6
Continuous
 62
     7
100
AcDbLine
 10
62.05
 20
726.4800073223
 30
0.0
 11
61.05
 21
726.4800073223
 31
0.0
  0
LINE
  5
E9
330
72
100
AcDbEntity
  8
$DDT_AUDIT_GENERATED_(C2)
  6
Continuous
 62
     7
100
AcDbLine
 10
61.05
 20
726.4800073223
 30
0.0
 11
61.05
 21
726.7049583767
 31
0.0
  0
LINE
  5
EA
330
72
100
AcDbEntity
  8
$DDT_AUDIT_GENERATED_(C2)
  6
Continuous
 62
     7
100
AcDbLine
 10
61.05
 20
726.7049583767
 30
0.0
 11
62.05
 21
726.7049583767
 31
0.0
  0
LINE
  5
EB
330
72
100
AcDbEntity
  8
$DDT_AUDIT_GENERATED_(C2)
  6
Continuous
 62
     7
100
AcDbLine
 10
62.05
 20
726.7049583767
 30
0.0
 11
62.05
 21
726.4800073223
 31
0.0
  0
LINE
  5
EC
330
72
100
AcDbEntity
  8
$DDT_AUDIT_GENERATED_(C2)
  6
Continuous
 62
     7
100
AcDbLine
 10
60.85
 20
726.4800073223
 30
0.0
 11
59.85
 21
726.4800073223
 31
0.0
  0
LINE
  5
ED
330
72
100
AcDbEntity
  8
$DDT_AUDIT_GENERATED_(C2)
  6
Continuous
 62
     7
100
AcDbLine
 10
59.85
 20
726.4800073223
 30
0.0
 11
59.85
 21
726.7049583767
 31
0.0
  0
LINE
  5
EE
330
72
100
AcDbEntity
  8
$DDT_AUDIT_GENERATED_(C2)
  6
Continuous
 62
     7
100
AcDbLine
 10
59.85
 20
726.7049583767
 30
0.0
 11
60.85
 21
726.7049583767
 31
0.0
  0
LINE
  5
EF
330
72
100
AcDbEntity
  8
$DDT_AUDIT_GENERATED_(C2)
  6
Continuous
 62
     7
100
AcDbLine
 10
60.85
 20
726.7049583767
 30
0.0
 11
60.85
 21
726.4800073223
 31
0.0
  0
LINE
  5
F0
330
72
100
AcDbEntity
  8
$DDT_AUDIT_GENERATED_(C2)
  6
Continuous
 62
     7
100
AcDbLine
 10
59.65
 20
726.4800073223
 30
0.0
 11
58.65
 21
726.4800073223
 31
0.0
  0
LINE
  5
F1
330
72
100
AcDbEntity
  8
$DDT_AUDIT_GENERATED_(C2)
  6
Continuous
 62
     7
100
AcDbLine
 10
58.65
 20
726.4800073223
 30
0.0
 11
58.65
 21
726.7049583767
 31
0.0
  0
LINE
  5
F2
330
72
100
AcDbEntity
  8
$DDT_AUDIT_GENERATED_(C2)
  6
Continuous
 62
     7
100
AcDbLine
 10
58.65
 20
726.7049583767
 30
0.0
 11
59.65
 21
726.7049583767
 31
0.0
  0
LINE
  5
F3
330
72
100
AcDbEntity
  8
$DDT_AUDIT_GENERATED_(C2)
  6
Continuous
 62
     7
100
AcDbLine
 10
59.65
 20
726.7049583767
 30
0.0
 11
59.65
 21
726.4800073223
 31
0.0
  0
LINE
  5
F4
330
72
100
AcDbEntity
  8
$DDT_AUDIT_GENERATED_(C2)
  6
Continuous
 62
     7
100
AcDbLine
 10
66.85
 20
726.2100660571
 30
0.0
 11
65.85
 21
726.2100660571
 31
0.0
  0
LINE
  5
F5
330
72
100
AcDbEntity
  8
$DDT_AUDIT_GENERATED_(C2)
  6
Continuous
 62
     7
100
AcDbLine
 10
65.85
 20
726.2100660571
 30
0.0
 11
65.85
 21
726.4350171115
 31
0.0
  0
LINE
  5
F6
330
72
100
AcDbEntity
  8
$DDT_AUDIT_GENERATED_(C2)
  6
Continuous
 62
     7
100
AcDbLine
 10
65.85
 20
726.4350171115
 30
0.0
 11
66.85
 21
726.4350171115
 31
0.0
  0
LINE
  5
F7
330
72
100
AcDbEntity
  8
$DDT_AUDIT_GENERATED_(C2)
  6
Continuous
 62
     7
100
AcDbLine
 10
65.65
 20
726.2100660571
 30
0.0
 11
64.65
 21
726.2100660571
 31
0.0
  0
LINE
  5
F8
330
72
100
AcDbEntity
  8
$DDT_AUDIT_GENERATED_(C2)
  6
Continuous
 62
     7
100
AcDbLine
 10
64.65
 20
726.2100660571
 30
0.0
 11
64.65
 21
726.4350171115
 31
0.0
  0
LINE
  5
F9
330
72
100
AcDbEntity
  8
$DDT_AUDIT_GENERATED_(C2)
  6
Continuous
 62
     7
100
AcDbLine
 10
64.65
 20
726.4350171115
 30
0.0
 11
65.65
 21
726.4350171115
 31
0.0
  0
LINE
  5
FA
330
72
100
AcDbEntity
  8
$DDT_AUDIT_GENERATED_(C2)
  6
Continuous
 62
     7
100
AcDbLine
 10
65.65
 20
726.4350171115
 30
0.0
 11
65.65
 21
726.2100660571
 31
0.0
  0
LINE
  5
FB
330
72
100
AcDbEntity
  8
$DDT_AUDIT_GENERATED_(C2)
  6
Continuous
 62
     7
100
AcDbLine
 10
64.45
 20
726.2100660571
 30
0.0
 11
63.45
 21
726.2100660571
 31
0.0
  0
LINE
  5
FC
330
72
100
AcDbEntity
  8
$DDT_AUDIT_GENERATED_(C2)
  6
Continuous
 62
     7
100
AcDbLine
 10
63.45
 20
726.2100660571
 30
0.0
 11
63.45
 21
726.4350171115
 31
0.0
  0
LINE
  5
FD
330
72
100
AcDbEntity
  8
$DDT_AUDIT_GENERATED_(C2)
  6
Continuous
 62
     7
100
AcDbLine
 10
63.45
 20
726.4350171115
 30
0.0
 11
64.45
 21
726.4350171115
 31
0.0
  0
LINE
  5
FE
330
72
100
AcDbEntity
  8
$DDT_AUDIT_GENERATED_(C2)
  6
Continuous
 62
     7
100
AcDbLine
 10
64.45
 20
726.4350171115
 30
0.0
 11
64.45
 21
726.2100660571
 31
0.0
  0
LINE
  5
FF
330
72
100
AcDbEntity
  8
$DDT_AUDIT_GENERATED_(C2)
  6
Continuous
 62
     7
100
AcDbLine
 10
63.25
 20
726.2100660571
 30
0.0
 11
62.25
 21
726.2100660571
 31
0.0
  0
LINE
  5
100
330
72
100
AcDbEntity
  8
$DDT_AUDIT_GENERATED_(C2)
  6
Continuous
 62
     7
100
AcDbLine
 10
62.25
 20
726.2100660571
 30
0.0
 11
62.25
 21
726.4350171115
 31
0.0
  0
LINE
  5
101
330
72
100
AcDbEntity
  8
$DDT_AUDIT_GENERATED_(C2)
  6
Continuous
 62
     7
100
AcDbLine
 10
62.25
 20
726.4350171115
 30
0.0
 11
63.25
 21
726.4350171115
 31
0.0
  0
LINE
  5
102
330
72
100
AcDbEntity
  8
$DDT_AUDIT_GENERATED_(C2)
  6
Continuous
 62
     7
100
AcDbLine
 10
63.25
 20
726.4350171115
 30
0.0
 11
63.25
 21
726.2100660571
 31
0.0
  0
LINE
  5
103
330
72
100
AcDbEntity
  8
$DDT_AUDIT_GENERATED_(C2)
  6
Continuous
 62
     7
100
AcDbLine
 10
62.05
 20
726.2100660571
 30
0.0
 11
61.05
 21
726.2100660571
 31
0.0
  0
LINE
  5
104
330
72
100
AcDbEntity
  8
$DDT_AUDIT_GENERATED_(C2)
  6
Continuous
 62
     7
100
AcDbLine
 10
61.05
 20
726.2100660571
 30
0.0
 11
61.05
 21
726.4350171115
 31
0.0
  0
LINE
  5
105
330
72
100
AcDbEntity
  8
$DDT_AUDIT_GENERATED_(C2)
  6
Continuous
 62
     7
100
AcDbLine
 10
61.05
 20
726.4350171115
 30
0.0
 11
62.05
 21
726.4350171115
 31
0.0
  0
LINE
  5
106
330
72
100
AcDbEntity
  8
$DDT_AUDIT_GENERATED_(C2)
  6
Continuous
 62
     7
100
AcDbLine
 10
62.05
 20
726.4350171115
 30
0.0
 11
62.05
 21
726.2100660571
 31
0.0
  0
LINE
  5
107
330
72
100
AcDbEntity
  8
$DDT_AUDIT_GENERATED_(C2)
  6
Continuous
 62
     7
100
AcDbLine
 10
60.85
 20
726.2100660571
 30
0.0
 11
59.85
 21
726.2100660571
 31
0.0
  0
LINE
  5
108
330
72
100
AcDbEntity
  8
$DDT_AUDIT_GENERATED_(C2)
  6
Continuous
 62
     7
100
AcDbLine
 10
59.85
 20
726.2100660571
 30
0.0
 11
59.85
 21
726.4350171115
 31
0.0
  0
LINE
  5
109
330
72
100
AcDbEntity
  8
$DDT_AUDIT_GENERATED_(C2)
  6
Continuous
 62
     7
100
AcDbLine
 10
59.85
 20
726.4350171115
 30
0.0
 11
60.85
 21
726.4350171115
 31
0.0
  0
LINE
  5
10A
330
72
100
AcDbEntity
  8
$DDT_AUDIT_GENERATED_(C2)
  6
Continuous
 62
     7
100
AcDbLine
 10
60.85
 20
726.4350171115
 30
0.0
 11
60.85
 21
726.2100660571
 31
0.0
  0
LINE
  5
10B
330
72
100
AcDbEntity
  8
$DDT_AUDIT_GENERATED_(C2)
  6
Continuous
 62
     7
100
AcDbLine
 10
66.85
 20
725.9401247919
 30
0.0
 11
65.85
 21
725.9401247919
 31
0.0
  0
LINE
  5
10C
330
72
100
AcDbEntity
  8
$DDT_AUDIT_GENERATED_(C2)
  6
Continuous
 62
     7
100
AcDbLine
 10
65.85
 20
725.9401247919
 30
0.0
 11
65.85
 21
726.1650758463
 31
0.0
  0
LINE
  5
10D
330
72
100
AcDbEntity
  8
$DDT_AUDIT_GENERATED_(C2)
  6
Continuous
 62
     7
100
AcDbLine
 10
65.85
 20
726.1650758463
 30
0.0
 11
66.85
 21
726.1650758463
 31
0.0
  0
LINE
  5
10E
330
72
100
AcDbEntity
  8
$DDT_AUDIT_GENERATED_(C2)
  6
Continuous
 62
     7
100
AcDbLine
 10
65.65
 20
725.9401247919
 30
0.0
 11
64.65
 21
725.9401247919
 31
0.0
  0
LINE
  5
10F
330
72
100
AcDbEntity
  8
$DDT_AUDIT_GENERATED_(C2)
  6
Continuous
 62
     7
100
AcDbLine
 10
64.65
 20
725.9401247919
 30
0.0
 11
64.65
 21
726.1650758463
 31
0.0
  0
LINE
  5
110
330
72
100
AcDbEntity
  8
$DDT_AUDIT_GENERATED_(C2)
  6
Continuous
 62
     7
100
AcDbLine
 10
64.65
 20
726.1650758463
 30
0.0
 11
65.65
 21
726.1650758463
 31
0.0
  0
LINE
  5
111
330
72
100
AcDbEntity
  8
$DDT_AUDIT_GENERATED_(C2)
  6
Continuous
 62
     7
100
AcDbLine
 10
65.65
 20
726.1650758463
 30
0.0
 11
65.65
 21
725.9401247919
 31
0.0
  0
LINE
  5
112
330
72
100
AcDbEntity
  8
$DDT_AUDIT_GENERATED_(C2)
  6
Continuous
 62
     7
100
AcDbLine
 10
64.45
 20
725.9401247919
 30
0.0
 11
63.45
 21
725.9401247919
 31
0.0
  0
LINE
  5
113
330
72
100
AcDbEntity
  8
$DDT_AUDIT_GENERATED_(C2)
  6
Continuous
 62
     7
100
AcDbLine
 10
63.45
 20
725.9401247919
 30
0.0
 11
63.45
 21
726.1650758463
 31
0.0
  0
LINE
  5
114
330
72
100
AcDbEntity
  8
$DDT_AUDIT_GENERATED_(C2)
  6
Continuous
 62
     7
100
AcDbLine
 10
63.45
 20
726.1650758463
 30
0.0
 11
64.45
 21
726.1650758463
 31
0.0
  0
LINE
  5
115
330
72
100
AcDbEntity
  8
$DDT_AUDIT_GENERATED_(C2)
  6
Continuous
 62
     7
100
AcDbLine
 10
64.45
 20
726.1650758463
 30
0.0
 11
64.45
 21
725.9401247919
 31
0.0
  0
LINE
  5
116
330
72
100
AcDbEntity
  8
$DDT_AUDIT_GENERATED_(C2)
  6
Continuous
 62
     7
100
AcDbLine
 10
63.25
 20
725.9401247919
 30
0.0
 11
62.25
 21
725.9401247919
 31
0.0
  0
LINE
  5
117
330
72
100
AcDbEntity
  8
$DDT_AUDIT_GENERATED_(C2)
  6
Continuous
 62
     7
100
AcDbLine
 10
62.25
 20
725.9401247919
 30
0.0
 11
62.25
 21
726.1650758463
 31
0.0
  0
LINE
  5
118
330
72
100
AcDbEntity
  8
$DDT_AUDIT_GENERATED_(C2)
  6
Continuous
 62
     7
100
AcDbLine
 10
62.25
 20
726.1650758463
 30
0.0
 11
63.25
 21
726.1650758463
 31
0.0
  0
LINE
  5
119
330
72
100
AcDbEntity
  8
$DDT_AUDIT_GENERATED_(C2)
  6
Continuous
 62
     7
100
AcDbLine
 10
63.25
 20
726.1650758463
 30
0.0
 11
63.25
 21
725.9401247919
 31
0.0
  0
LINE
  5
11A
330
72
100
AcDbEntity
  8
$DDT_AUDIT_GENERATED_(C2)
  6
Continuous
 62
     7
100
AcDbLine
 10
62.05
 20
725.9401247919
 30
0.0
 11
61.05
 21
725.9401247919
 31
0.0
  0
LINE
  5
11B
330
72
100
AcDbEntity
  8
$DDT_AUDIT_GENERATED_(C2)
  6
Continuous
 62
     7
100
AcDbLine
 10
61.05
 20
725.9401247919
 30
0.0
 11
61.05
 21
726.1650758463
 31
0.0
  0
LINE
  5
11C
330
72
100
AcDbEntity
  8
$DDT_AUDIT_GENERATED_(C2)
  6
Continuous
 62
     7
100
AcDbLine
 10
61.05
 20
726.1650758463
 30
0.0
 11
62.05
 21
726.1650758463
 31
0.0
  0
LINE
  5
11D
330
72
100
AcDbEntity
  8
$DDT_AUDIT_GENERATED_(C2)
  6
Continuous
 62
     7
100
AcDbLine
 10
62.05
 20
726.1650758463
 30
0.0
 11
62.05
 21
725.9401247919
 31
0.0
  0
LINE
  5
11E
330
72
100
AcDbEntity
  8
$DDT_AUDIT_GENERATED_(C2)
  6
Continuous
 62
     7
100
AcDbLine
 10
59.85
 20
725.9401247919
 30
0.0
 11
59.85
 21
726.1650758463
 31
0.0
  0
LINE
  5
11F
330
72
100
AcDbEntity
  8
$DDT_AUDIT_GENERATED_(C2)
  6
Continuous
 62
     7
100
AcDbLine
 10
60.85
 20
725.9401247919
 30
0.0
 11
59.85
 21
725.9401247919
 31
0.0
  0
LINE
  5
120
330
72
100
AcDbEntity
  8
$DDT_AUDIT_GENERATED_(C2)
  6
Continuous
 62
     7
100
AcDbLine
 10
59.85
 20
726.1650758463
 30
0.0
 11
60.85
 21
726.1650758463
 31
0.0
  0
LINE
  5
121
330
72
100
AcDbEntity
  8
$DDT_AUDIT_GENERATED_(C2)
  6
Continuous
 62
     7
100
AcDbLine
 10
60.85
 20
726.1650758463
 30
0.0
 11
60.85
 21
725.9401247919
 31
0.0
  0
LINE
  5
122
330
72
100
AcDbEntity
  8
$DDT_AUDIT_GENERATED_(C2)
  6
Continuous
 62
     7
100
AcDbLine
 10
66.85
 20
725.6701835267
 30
0.0
 11
65.85
 21
725.6701835267
 31
0.0
  0
LINE
  5
123
330
72
100
AcDbEntity
  8
$DDT_AUDIT_GENERATED_(C2)
  6
Continuous
 62
     7
100
AcDbLine
 10
65.85
 20
725.6701835267
 30
0.0
 11
65.85
 21
725.8951345811
 31
0.0
  0
LINE
  5
124
330
72
100
AcDbEntity
  8
$DDT_AUDIT_GENERATED_(C2)
  6
Continuous
 62
     7
100
AcDbLine
 10
65.85
 20
725.8951345811
 30
0.0
 11
66.85
 21
725.8951345811
 31
0.0
  0
LINE
  5
125
330
72
100
AcDbEntity
  8
$DDT_AUDIT_GENERATED_(C2)
  6
Continuous
 62
     7
100
AcDbLine
 10
65.65
 20
725.6701835267
 30
0.0
 11
64.65
 21
725.6701835267
 31
0.0
  0
LINE
  5
126
330
72
100
AcDbEntity
  8
$DDT_AUDIT_GENERATED_(C2)
  6
Continuous
 62
     7
100
AcDbLine
 10
64.65
 20
725.6701835267
 30
0.0
 11
64.65
 21
725.8951345811
 31
0.0
  0
LINE
  5
127
330
72
100
AcDbEntity
  8
$DDT_AUDIT_GENERATED_(C2)
  6
Continuous
 62
     7
100
AcDbLine
 10
64.65
 20
725.8951345811
 30
0.0
 11
65.65
 21
725.8951345811
 31
0.0
  0
LINE
  5
128
330
72
100
AcDbEntity
  8
$DDT_AUDIT_GENERATED_(C2)
  6
Continuous
 62
     7
100
AcDbLine
 10
65.65
 20
725.8951345811
 30
0.0
 11
65.65
 21
725.6701835267
 31
0.0
  0
LINE
  5
129
330
72
100
AcDbEntity
  8
$DDT_AUDIT_GENERATED_(C2)
  6
Continuous
 62
     7
100
AcDbLine
 10
64.45
 20
725.6701835267
 30
0.0
 11
63.45
 21
725.6701835267
 31
0.0
  0
LINE
  5
12A
330
72
100
AcDbEntity
  8
$DDT_AUDIT_GENERATED_(C2)
  6
Continuous
 62
     7
100
AcDbLine
 10
63.45
 20
725.6701835267
 30
0.0
 11
63.45
 21
725.8951345811
 31
0.0
  0
LINE
  5
12B
330
72
100
AcDbEntity
  8
$DDT_AUDIT_GENERATED_(C2)
  6
Continuous
 62
     7
100
AcDbLine
 10
63.45
 20
725.8951345811
 30
0.0
 11
64.45
 21
725.8951345811
 31
0.0
  0
LINE
  5
12C
330
72
100
AcDbEntity
  8
$DDT_AUDIT_GENERATED_(C2)
  6
Continuous
 62
     7
100
AcDbLine
 10
64.45
 20
725.8951345811
 30
0.0
 11
64.45
 21
725.6701835267
 31
0.0
  0
LINE
  5
12D
330
72
100
AcDbEntity
  8
$DDT_AUDIT_GENERATED_(C2)
  6
Continuous
 62
     7
100
AcDbLine
 10
63.25
 20
725.6701835267
 30
0.0
 11
62.25
 21
725.6701835267
 31
0.0
  0
LINE
  5
12E
330
72
100
AcDbEntity
  8
$DDT_AUDIT_GENERATED_(C2)
  6
Continuous
 62
     7
100
AcDbLine
 10
62.25
 20
725.6701835267
 30
0.0
 11
62.25
 21
725.8951345811
 31
0.0
  0
LINE
  5
12F
330
72
100
AcDbEntity
  8
$DDT_AUDIT_GENERATED_(C2)
  6
Continuous
 62
     7
100
AcDbLine
 10
62.25
 20
725.8951345811
 30
0.0
 11
63.25
 21
725.8951345811
 31
0.0
  0
LINE
  5
130
330
72
100
AcDbEntity
  8
$DDT_AUDIT_GENERATED_(C2)
  6
Continuous
 62
     7
100
AcDbLine
 10
63.25
 20
725.8951345811
 30
0.0
 11
63.25
 21
725.6701835267
 31
0.0
  0
LINE
  5
131
330
72
100
AcDbEntity
  8
$DDT_AUDIT_GENERATED_(C2)
  6
Continuous
 62
     7
100
AcDbLine
 10
62.05
 20
725.6701835267
 30
0.0
 11
61.05
 21
725.6701835267
 31
0.0
  0
LINE
  5
132
330
72
100
AcDbEntity
  8
$DDT_AUDIT_GENERATED_(C2)
  6
Continuous
 62
     7
100
AcDbLine
 10
61.05
 20
725.6701835267
 30
0.0
 11
61.05
 21
725.8951345811
 31
0.0
  0
LINE
  5
133
330
72
100
AcDbEntity
  8
$DDT_AUDIT_GENERATED_(C2)
  6
Continuous
 62
     7
100
AcDbLine
 10
61.05
 20
725.8951345811
 30
0.0
 11
62.05
 21
725.8951345811
 31
0.0
  0
LINE
  5
134
330
72
100
AcDbEntity
  8
$DDT_AUDIT_GENERATED_(C2)
  6
Continuous
 62
     7
100
AcDbLine
 10
62.05
 20
725.8951345811
 30
0.0
 11
62.05
 21
725.6701835267
 31
0.0
  0
LINE
  5
135
330
72
100
AcDbEntity
  8
$DDT_AUDIT_GENERATED_(C2)
  6
Continuous
 62
     7
100
AcDbLine
 10
66.85
 20
725.4002422615
 30
0.0
 11
65.85
 21
725.4002422615
 31
0.0
  0
LINE
  5
136
330
72
100
AcDbEntity
  8
$DDT_AUDIT_GENERATED_(C2)
  6
Continuous
 62
     7
100
AcDbLine
 10
65.85
 20
725.4002422615
 30
0.0
 11
65.85
 21
725.6251933158
 31
0.0
  0
LINE
  5
137
330
72
100
AcDbEntity
  8
$DDT_AUDIT_GENERATED_(C2)
  6
Continuous
 62
     7
100
AcDbLine
 10
65.85
 20
725.6251933158
 30
0.0
 11
66.85
 21
725.6251933158
 31
0.0
  0
LINE
  5
138
330
72
100
AcDbEntity
  8
$DDT_AUDIT_GENERATED_(C2)
  6
Continuous
 62
     7
100
AcDbLine
 10
65.65
 20
725.4002422615
 30
0.0
 11
64.65
 21
725.4002422615
 31
0.0
  0
LINE
  5
139
330
72
100
AcDbEntity
  8
$DDT_AUDIT_GENERATED_(C2)
  6
Continuous
 62
     7
100
AcDbLine
 10
64.65
 20
725.4002422615
 30
0.0
 11
64.65
 21
725.6251933158
 31
0.0
  0
LINE
  5
13A
330
72
100
AcDbEntity
  8
$DDT_AUDIT_GENERATED_(C2)
  6
Continuous
 62
     7
100
AcDbLine
 10
64.65
 20
725.6251933158
 30
0.0
 11
65.65
 21
725.6251933158
 31
0.0
  0
LINE
  5
13B
330
72
100
AcDbEntity
  8
$DDT_AUDIT_GENERATED_(C2)
  6
Continuous
 62
     7
100
AcDbLine
 10
65.65
 20
725.6251933158
 30
0.0
 11
65.65
 21
725.4002422615
 31
0.0
  0
LINE
  5
13C
330
72
100
AcDbEntity
  8
$DDT_AUDIT_GENERATED_(C2)
  6
Continuous
 62
     7
100
AcDbLine
 10
64.45
 20
725.4002422615
 30
0.0
 11
63.45
 21
725.4002422615
 31
0.0
  0
LINE
  5
13D
330
72
100
AcDbEntity
  8
$DDT_AUDIT_GENERATED_(C2)
  6
Continuous
 62
     7
100
AcDbLine
 10
63.45
 20
725.4002422615
 30
0.0
 11
63.45
 21
725.6251933158
 31
0.0
  0
LINE
  5
13E
330
72
100
AcDbEntity
  8
$DDT_AUDIT_GENERATED_(C2)
  6
Continuous
 62
     7
100
AcDbLine
 10
63.45
 20
725.6251933158
 30
0.0
 11
64.45
 21
725.6251933158
 31
0.0
  0
LINE
  5
13F
330
72
100
AcDbEntity
  8
$DDT_AUDIT_GENERATED_(C2)
  6
Continuous
 62
     7
100
AcDbLine
 10
64.45
 20
725.6251933158
 30
0.0
 11
64.45
 21
725.4002422615
 31
0.0
  0
LINE
  5
140
330
72
100
AcDbEntity
  8
$DDT_AUDIT_GENERATED_(C2)
  6
Continuous
 62
     7
100
AcDbLine
 10
63.25
 20
725.4002422615
 30
0.0
 11
62.25
 21
725.4002422615
 31
0.0
  0
LINE
  5
141
330
72
100
AcDbEntity
  8
$DDT_AUDIT_GENERATED_(C2)
  6
Continuous
 62
     7
100
AcDbLine
 10
62.25
 20
725.4002422615
 30
0.0
 11
62.25
 21
725.6251933158
 31
0.0
  0
LINE
  5
142
330
72
100
AcDbEntity
  8
$DDT_AUDIT_GENERATED_(C2)
  6
Continuous
 62
     7
100
AcDbLine
 10
62.25
 20
725.6251933158
 30
0.0
 11
63.25
 21
725.6251933158
 31
0.0
  0
LINE
  5
143
330
72
100
AcDbEntity
  8
$DDT_AUDIT_GENERATED_(C2)
  6
Continuous
 62
     7
100
AcDbLine
 10
63.25
 20
725.6251933158
 30
0.0
 11
63.25
 21
725.4002422615
 31
0.0
  0
LINE
  5
144
330
72
100
AcDbEntity
  8
$DDT_AUDIT_GENERATED_(C2)
  6
Continuous
 62
     7
100
AcDbLine
 10
66.85
 20
725.1303009963
 30
0.0
 11
65.85
 21
725.1303009963
 31
0.0
  0
LINE
  5
145
330
72
100
AcDbEntity
  8
$DDT_AUDIT_GENERATED_(C2)
  6
Continuous
 62
     7
100
AcDbLine
 10
65.85
 20
725.1303009963
 30
0.0
 11
65.85
 21
725.3552520506
 31
0.0
  0
LINE
  5
146
330
72
100
AcDbEntity
  8
$DDT_AUDIT_GENERATED_(C2)
  6
Continuous
 62
     7
100
AcDbLine
 10
65.85
 20
725.3552520506
 30
0.0
 11
66.85
 21
725.3552520506
 31
0.0
  0
LINE
  5
147
330
72
100
AcDbEntity
  8
$DDT_AUDIT_GENERATED_(C2)
  6
Continuous
 62
     7
100
AcDbLine
 10
65.65
 20
725.1303009963
 30
0.0
 11
64.65
 21
725.1303009963
 31
0.0
  0
LINE
  5
148
330
72
100
AcDbEntity
  8
$DDT_AUDIT_GENERATED_(C2)
  6
Continuous
 62
     7
100
AcDbLine
 10
64.65
 20
725.1303009963
 30
0.0
 11
64.65
 21
725.3552520506
 31
0.0
  0
LINE
  5
149
330
72
100
AcDbEntity
  8
$DDT_AUDIT_GENERATED_(C2)
  6
Continuous
 62
     7
100
AcDbLine
 10
64.65
 20
725.3552520506
 30
0.0
 11
65.65
 21
725.3552520506
 31
0.0
  0
LINE
  5
14A
330
72
100
AcDbEntity
  8
$DDT_AUDIT_GENERATED_(C2)
  6
Continuous
 62
     7
100
AcDbLine
 10
65.65
 20
725.3552520506
 30
0.0
 11
65.65
 21
725.1303009963
 31
0.0
  0
LINE
  5
14B
330
72
100
AcDbEntity
  8
$DDT_AUDIT_GENERATED_(C2)
  6
Continuous
 62
     7
100
AcDbLine
 10
64.45
 20
725.1303009963
 30
0.0
 11
63.45
 21
725.1303009963
 31
0.0
  0
LINE
  5
14C
330
72
100
AcDbEntity
  8
$DDT_AUDIT_GENERATED_(C2)
  6
Continuous
 62
     7
100
AcDbLine
 10
63.45
 20
725.1303009963
 30
0.0
 11
63.45
 21
725.3552520506
 31
0.0
  0
LINE
  5
14D
330
72
100
AcDbEntity
  8
$DDT_AUDIT_GENERATED_(C2)
  6
Continuous
 62
     7
100
AcDbLine
 10
63.45
 20
725.3552520506
 30
0.0
 11
64.45
 21
725.3552520506
 31
0.0
  0
LINE
  5
14E
330
72
100
AcDbEntity
  8
$DDT_AUDIT_GENERATED_(C2)
  6
Continuous
 62
     7
100
AcDbLine
 10
64.45
 20
725.3552520506
 30
0.0
 11
64.45
 21
725.1303009963
 31
0.0
  0
LINE
  5
14F
330
72
100
AcDbEntity
  8
$DDT_AUDIT_GENERATED_(C2)
  6
Continuous
 62
     7
100
AcDbLine
 10
65.85
 20
725.0099894013
 30
0.0
 11
65.85
 21
725.0853107854
 31
0.0
  0
LINE
  5
150
330
72
100
AcDbEntity
  8
$DDT_AUDIT_GENERATED_(C2)
  6
Continuous
 62
     7
100
AcDbLine
 10
65.85
 20
725.0853107854
 30
0.0
 11
66.85
 21
725.0853107854
 31
0.0
  0
ELLIPSE
  5
151
330
72
100
AcDbEntity
  8
$DDT_AUDIT_GENERATED_(C2)
  6
Continuous
 62
     7
100
AcDbEllipse
 10
66.3500000227
 20
726.8624241847
 30
0.0
 11
-8.250000156713737
 21
-5.354555340786327E-9
 31
0.0
210
0.0
220
0.0
230
1.0
 40
0.2249510585
 41
1.48584570161776
 42
1.510153101012487
  0
LINE
  5
152
330
72
100
AcDbEntity
  8
$DDT_AUDIT_GENERATED_(C2)
  6
Continuous
 62
     7
100
AcDbLine
 10
64.65
 20
725.0464058029
 30
0.0
 11
64.65
 21
725.0853107854
 31
0.0
  0
LINE
  5
153
330
72
100
AcDbEntity
  8
$DDT_AUDIT_GENERATED_(C2)
  6
Continuous
 62
     7
100
AcDbLine
 10
64.65
 20
725.0853107854
 30
0.0
 11
65.65
 21
725.0853107854
 31
0.0
  0
LINE
  5
154
330
72
100
AcDbEntity
  8
$DDT_AUDIT_GENERATED_(C2)
  6
Continuous
 62
     7
100
AcDbLine
 10
65.65
 20
725.0853107854
 30
0.0
 11
65.65
 21
725.0132703479
 31
0.0
  0
ELLIPSE
  5
155
330
72
100
AcDbEntity
  8
$DDT_AUDIT_GENERATED_(C2)
  6
Continuous
 62
     7
100
AcDbEllipse
 10
66.3500000716
 20
726.8624241865
 30
0.0
 11
-8.25000017136909
 21
-1.655653912580046E-8
 31
0.0
210
0.0
220
0.0
230
1.0
 40
0.2249510584
 41
1.33840724985708
 42
1.363248871362912
  0
LINE
  5
156
330
72
100
AcDbEntity
  8
$DDT_AUDIT_GENERATED_(C2)
  6
Continuous
 62
     7
100
AcDbLine
 10
63.9725013144
 20
725.0853107854
 30
0.0
 11
64.45
 21
725.0853107854
 31
0.0
  0
LINE
  5
157
330
72
100
AcDbEntity
  8
$DDT_AUDIT_GENERATED_(C2)
  6
Continuous
 62
     7
100
AcDbLine
 10
64.45
 20
725.0853107854
 30
0.0
 11
64.45
 21
725.0564649885
 31
0.0
  0
ELLIPSE
  5
158
330
72
100
AcDbEntity
  8
$DDT_AUDIT_GENERATED_(C2)
  6
Continuous
 62
     7
100
AcDbEllipse
 10
66.3499999993
 20
726.8624241143
 30
0.0
 11
-8.24999999887569
 21
1.509365549212660E-10
 31
0.0
210
0.0
220
0.0
230
1.0
 40
0.2249510543
 41
1.185582205169984
 42
1.278468933690111
  0
LINE
  5
159
330
72
100
AcDbEntity
  8
$DDT_AUDIT_GENERATED_(C2)
  6
Continuous
 62
     7
100
AcDbLine
 10
62.25
 20
725.251980365
 30
0.0
 11
62.25
 21
725.3552520506
 31
0.0
  0
LINE
  5
15A
330
72
100
AcDbEntity
  8
$DDT_AUDIT_GENERATED_(C2)
  6
Continuous
 62
     7
100
AcDbLine
 10
62.25
 20
725.3552520506
 30
0.0
 11
63.25
 21
725.3552520506
 31
0.0
  0
LINE
  5
15B
330
72
100
AcDbEntity
  8
$DDT_AUDIT_GENERATED_(C2)
  6
Continuous
 62
     7
100
AcDbLine
 10
63.25
 20
725.3552520506
 30
0.0
 11
63.25
 21
725.1425780448
 31
0.0
  0
ELLIPSE
  5
15C
330
72
100
AcDbEntity
  8
$DDT_AUDIT_GENERATED_(C2)
  6
Continuous
 62
     7
100
AcDbEllipse
 10
66.349999993
 20
726.8624241127
 30
0.0
 11
-8.249999992063636
 21
1.326522225397753E-9
 31
0.0
210
0.0
220
0.0
230
1.0
 40
0.2249510543
 41
0.9073568929230698
 42
0.9477783673657398
  0
LINE
  5
15D
330
72
100
AcDbEntity
  8
$DDT_AUDIT_GENERATED_(C2)
  6
Continuous
 62
     7
100
AcDbLine
 10
61.05
 20
725.4401978697
 30
0.0
 11
61.05
 21
725.6251933158
 31
0.0
  0
LINE
  5
15E
330
72
100
AcDbEntity
  8
$DDT_AUDIT_GENERATED_(C2)
  6
Continuous
 62
     7
100
AcDbLine
 10
61.05
 20
725.6251933158
 30
0.0
 11
62.05
 21
725.6251933158
 31
0.0
  0
LINE
  5
15F
330
72
100
AcDbEntity
  8
$DDT_AUDIT_GENERATED_(C2)
  6
Continuous
 62
     7
100
AcDbLine
 10
62.05
 20
725.6251933158
 30
0.0
 11
62.05
 21
725.4002422615
 31
0.0
  0
LINE
  5
160
330
72
100
AcDbEntity
  8
$DDT_AUDIT_GENERATED_(C2)
  6
Continuous
 62
     7
100
AcDbLine
 10
62.05
 20
725.4002422615
 30
0.0
 11
61.2693996418
 21
725.4002422615
 31
0.0
  0
LINE
  5
161
330
72
100
AcDbEntity
  8
$DDT_AUDIT_GENERATED_(C2)
  6
Continuous
 62
     7
100
AcDbLine
 10
61.2693996418
 20
725.4002422615
 30
0.0
 11
61.2693996418
 21
725.6251933158
 31
0.0
  0
ELLIPSE
  5
162
330
72
100
AcDbEntity
  8
$DDT_AUDIT_GENERATED_(C2)
  6
Continuous
 62
     7
100
AcDbEllipse
 10
66.3500000813
 20
726.8624241456
 30
0.0
 11
-8.250000100446581
 21
-1.657158438250761E-8
 31
0.0
210
0.0
220
0.0
230
1.0
 40
0.2249510554
 41
1.022525688154918
 42
1.050693118701555
  0
LINE
  5
163
330
72
100
AcDbEntity
  8
$DDT_AUDIT_GENERATED_(C2)
  6
Continuous
 62
     7
100
AcDbLine
 10
61.5362177033
 20
725.3552520506
 30
0.0
 11
62.05
 21
725.3552520506
 31
0.0
  0
LINE
  5
164
330
72
100
AcDbEntity
  8
$DDT_AUDIT_GENERATED_(C2)
  6
Continuous
 62
     7
100
AcDbLine
 10
62.05
 20
725.3552520506
 30
0.0
 11
62.05
 21
725.2785945564
 31
0.0
  0
ELLIPSE
  5
165
330
72
100
AcDbEntity
  8
$DDT_AUDIT_GENERATED_(C2)
  6
Continuous
 62
     7
100
AcDbEllipse
 10
66.3499999723
 20
726.8624241094
 30
0.0
 11
-8.249999971239374
 21
4.285904964262954E-9
 31
0.0
210
0.0
220
0.0
230
1.0
 40
0.2249510544
 41
0.6976574540497181
 42
0.7297276574793251
  0
LINE
  5
166
330
72
100
AcDbEntity
  8
$DDT_AUDIT_GENERATED_(C2)
  6
Continuous
 62
     7
100
AcDbLine
 10
59.85
 20
725.7195377075
 30
0.0
 11
59.85
 21
725.8951345811
 31
0.0
  0
LINE
  5
167
330
72
100
AcDbEntity
  8
$DDT_AUDIT_GENERATED_(C2)
  6
Continuous
 62
     7
100
AcDbLine
 10
59.85
 20
725.8951345811
 30
0.0
 11
60.85
 21
725.8951345811
 31
0.0
  0
LINE
  5
168
330
72
100
AcDbEntity
  8
$DDT_AUDIT_GENERATED_(C2)
  6
Continuous
 62
     7
100
AcDbLine
 10
60.85
 20
725.8951345811
 30
0.0
 11
60.85
 21
725.6701835267
 31
0.0
  0
LINE
  5
169
330
72
100
AcDbEntity
  8
$DDT_AUDIT_GENERATED_(C2)
  6
Continuous
 62
     7
100
AcDbLine
 10
60.85
 20
725.6701835267
 30
0.0
 11
60.0276191194
 21
725.6701835267
 31
0.0
  0
LINE
  5
16A
330
72
100
AcDbEntity
  8
$DDT_AUDIT_GENERATED_(C2)
  6
Continuous
 62
     7
100
AcDbLine
 10
60.0276191194
 20
725.6701835267
 30
0.0
 11
60.0276191194
 21
725.8951345811
 31
0.0
  0
ELLIPSE
  5
16B
330
72
100
AcDbEntity
  8
$DDT_AUDIT_GENERATED_(C2)
  6
Continuous
 62
     7
100
AcDbEllipse
 10
66.3499999938
 20
726.8624241131
 30
0.0
 11
-8.249999993173263
 21
1.123993259577460E-9
 31
0.0
210
0.0
220
0.0
230
1.0
 40
0.2249510543
 41
0.8410686708731514
 42
0.873138874250316
  0
LINE
  5
16C
330
72
100
AcDbEntity
  8
$DDT_AUDIT_GENERATED_(C2)
  6
Continuous
 62
     7
100
AcDbLine
 10
60.2008130619
 20
725.6251933158
 30
0.0
 11
60.85
 21
725.6251933158
 31
0.0
  0
LINE
  5
16D
330
72
100
AcDbEntity
  8
$DDT_AUDIT_GENERATED_(C2)
  6
Continuous
 62
     7
100
AcDbLine
 10
60.85
 20
725.6251933158
 30
0.0
 11
60.85
 21
725.4791580296
 31
0.0
  0
LINE
  5
16E
330
72
100
AcDbEntity
  8
$DDT_AUDIT_GENERATED_(C2)
  6
Continuous
 62
     7
100
AcDbLine
 10
59.65
 20
726.2100660571
 30
0.0
 11
58.65
 21
726.2100660571
 31
0.0
  0
LINE
  5
16F
330
72
100
AcDbEntity
  8
$DDT_AUDIT_GENERATED_(C2)
  6
Continuous
 62
     7
100
AcDbLine
 10
58.65
 20
726.2100660571
 30
0.0
 11
58.65
 21
726.4350171115
 31
0.0
  0
LINE
  5
170
330
72
100
AcDbEntity
  8
$DDT_AUDIT_GENERATED_(C2)
  6
Continuous
 62
     7
100
AcDbLine
 10
58.65
 20
726.4350171115
 30
0.0
 11
59.65
 21
726.4350171115
 31
0.0
  0
LINE
  5
171
330
72
100
AcDbEntity
  8
$DDT_AUDIT_GENERATED_(C2)
  6
Continuous
 62
     7
100
AcDbLine
 10
59.65
 20
726.4350171115
 30
0.0
 11
59.65
 21
726.2100660571
 31
0.0
  0
ELLIPSE
  5
172
330
72
100
AcDbEntity
  8
$DDT_AUDIT_GENERATED_(C2)
  6
Continuous
 62
     7
100
AcDbEllipse
 10
66.3500000357
 20
726.8624241195
 30
0.0
 11
-8.250000036072024
 21
-4.318965324268120E-9
 31
0.0
210
0.0
220
0.0
230
1.0
 40
0.2249510541
 41
0.5201032020821656
 42
0.5482706328303236
  0
LINE
  5
173
330
72
100
AcDbEntity
  8
$DDT_AUDIT_GENERATED_(C2)
  6
Continuous
 62
     7
100
AcDbLine
 10
58.7045765323
 20
726.1650758463
 30
0.0
 11
59.65
 21
726.1650758463
 31
0.0
  0
LINE
  5
174
330
72
100
AcDbEntity
  8
$DDT_AUDIT_GENERATED_(C2)
  6
Continuous
 62
     7
100
AcDbLine
 10
59.65
 20
726.1650758463
 30
0.0
 11
59.65
 21
725.9401247919
 31
0.0
  0
LINE
  5
175
330
72
100
AcDbEntity
  8
$DDT_AUDIT_GENERATED_(C2)
  6
Continuous
 62
     7
100
AcDbLine
 10
59.65
 20
725.9401247919
 30
0.0
 11
59.1909148629
 21
725.9401247919
 31
0.0
  0
LINE
  5
176
330
72
100
AcDbEntity
  8
$DDT_AUDIT_GENERATED_(C2)
  6
Continuous
 62
     7
100
AcDbLine
 10
59.1909148629
 20
725.9401247919
 30
0.0
 11
59.1909148629
 21
726.1650758463
 31
0.0
  0
ELLIPSE
  5
177
330
72
100
AcDbEntity
  8
$DDT_AUDIT_GENERATED_(C2)
  6
Continuous
 62
     7
100
AcDbEllipse
 10
66.3500000135
 20
726.862424117
 30
0.0
 11
-8.250000013810578
 21
-1.921735340304487E-9
 31
0.0
210
0.0
220
0.0
230
1.0
 40
0.2249510543
 41
0.6230179593020543
 42
0.6634394336749666
  0
LINE
  5
178
330
72
100
AcDbEntity
  8
$DDT_AUDIT_GENERATED_(C2)
  6
Continuous
 62
     7
100
AcDbLine
 10
59.3092258948
 20
725.8951345811
 30
0.0
 11
59.65
 21
725.8951345811
 31
0.0
  0
LINE
  5
179
330
72
100
AcDbEntity
  8
$DDT_AUDIT_GENERATED_(C2)
  6
Continuous
 62
     7
100
AcDbLine
 10
59.65
 20
725.8951345811
 30
0.0
 11
59.65
 21
725.7795587117
 31
0.0
  0
LINE
  5
17A
330
72
100
AcDbEntity
  8
$DDT_AUDIT_GENERATED_(C2)
  6
Continuous
 62
     7
100
AcDbLine
 10
58.45
 20
726.9100599184
 30
0.0
 11
58.45
 21
726.7499485876
 31
0.0
  0
LINE
  5
17B
330
72
100
AcDbEntity
  8
$DDT_AUDIT_GENERATED_(C2)
  6
Continuous
 62
     7
100
AcDbLine
 10
58.45
 20
726.7499485876
 30
0.0
 11
58.2699123071
 21
726.7499485876
 31
0.0
  0
ELLIPSE
  5
17C
330
72
100
AcDbEntity
  8
$DDT_AUDIT_GENERATED_(C2)
  6
Continuous
 62
     7
100
AcDbEllipse
 10
66.3500003064
 20
726.8624241301
 30
0.0
 11
-8.250000306513023
 21
-1.579536328122355E-8
 31
0.0
210
0.0
220
0.0
230
1.0
 40
0.2249510505
 41
0.2075474462356225
 42
0.2323890677611837
  0
LINE
  5
17D
330
72
100
AcDbEntity
  8
$DDT_AUDIT_GENERATED_(C2)
  6
Continuous
 62
     7
100
AcDbLine
 10
58.2312493387
 20
726.7049583767
 30
0.0
 11
58.45
 21
726.7049583767
 31
0.0
  0
LINE
  5
17E
330
72
100
AcDbEntity
  8
$DDT_AUDIT_GENERATED_(C2)
  6
Continuous
 62
     7
100
AcDbLine
 10
58.45
 20
726.7049583767
 30
0.0
 11
58.45
 21
726.4800073223
 31
0.0
  0
LINE
  5
17F
330
72
100
AcDbEntity
  8
$DDT_AUDIT_GENERATED_(C2)
  6
Continuous
 62
     7
100
AcDbLine
 10
58.45
 20
726.4800073223
 30
0.0
 11
58.2770513441
 21
726.4800073223
 31
0.0
  0
LINE
  5
180
330
72
100
AcDbEntity
  8
$DDT_AUDIT_GENERATED_(C2)
  6
Continuous
 62
     7
100
AcDbLine
 10
58.2770513441
 20
726.4800073223
 30
0.0
 11
58.2770513441
 21
726.7049583767
 31
0.0
  0
ELLIPSE
  5
181
330
72
100
AcDbEntity
  8
$DDT_AUDIT_GENERATED_(C2)
  6
Continuous
 62
     7
100
AcDbEllipse
 10
66.3499999991
 20
726.8624241147
 30
0.0
 11
-8.249999999060959
 21
7.356441844574846E-11
 31
0.0
210
0.0
220
0.0
230
1.0
 40
0.2249510544
 41
0.2923273931715762
 42
0.3852141216858992
  0
LINE
  5
182
330
72
100
AcDbEntity
  8
$DDT_AUDIT_GENERATED_(C2)
  6
Continuous
 62
     7
100
AcDbLine
 10
58.3217685634
 20
726.4350171115
 30
0.0
 11
58.45
 21
726.4350171115
 31
0.0
  0
LINE
  5
183
330
72
100
AcDbEntity
  8
$DDT_AUDIT_GENERATED_(C2)
  6
Continuous
 62
     7
100
AcDbLine
 10
58.45
 20
726.4350171115
 30
0.0
 11
58.45
 21
726.3276032787
 31
0.0
  0
LINE
  5
184
330
72
100
AcDbEntity
  8
$DDT_AUDIT_GENERATED_(C2)
  6
Continuous
 62
     7
100
AcDbLine
 10
65.85
 20
726.9748996419
 30
0.0
 11
66.85
 21
726.9748996419
 31
0.0
  0
LINE
  5
185
330
72
100
AcDbEntity
  8
$DDT_AUDIT_GENERATED_(C2)
  6
Continuous
 62
     7
100
AcDbLine
 10
65.85
 20
727.0198898528
 30
0.0
 11
65.85
 21
727.2448409071
 31
0.0
  0
LINE
  5
186
330
72
100
AcDbEntity
  8
$DDT_AUDIT_GENERATED_(C2)
  6
Continuous
 62
     7
100
AcDbLine
 10
65.85
 20
727.2448409071
 30
0.0
 11
66.85
 21
727.2448409071
 31
0.0
  0
LINE
  5
187
330
72
100
AcDbEntity
  8
$DDT_AUDIT_GENERATED_(C2)
  6
Continuous
 62
     7
100
AcDbLine
 10
66.85
 20
727.0198898528
 30
0.0
 11
65.85
 21
727.0198898528
 31
0.0
  0
LINE
  5
188
330
72
100
AcDbEntity
  8
$DDT_AUDIT_GENERATED_(C2)
  6
Continuous
 62
     7
100
AcDbLine
 10
65.85
 20
727.289831118
 30
0.0
 11
65.85
 21
727.5147821723
 31
0.0
  0
LINE
  5
189
330
72
100
AcDbEntity
  8
$DDT_AUDIT_GENERATED_(C2)
  6
Continuous
 62
     7
100
AcDbLine
 10
65.85
 20
727.5147821723
 30
0.0
 11
66.85
 21
727.5147821723
 31
0.0
  0
LINE
  5
18A
330
72
100
AcDbEntity
  8
$DDT_AUDIT_GENERATED_(C2)
  6
Continuous
 62
     7
100
AcDbLine
 10
66.85
 20
727.289831118
 30
0.0
 11
65.85
 21
727.289831118
 31
0.0
  0
LINE
  5
18B
330
72
100
AcDbEntity
  8
$DDT_AUDIT_GENERATED_(C2)
  6
Continuous
 62
     7
100
AcDbLine
 10
65.85
 20
727.5597723832
 30
0.0
 11
65.85
 21
727.7847234375
 31
0.0
  0
LINE
  5
18C
330
72
100
AcDbEntity
  8
$DDT_AUDIT_GENERATED_(C2)
  6
Continuous
 62
     7
100
AcDbLine
 10
65.85
 20
727.7847234375
 30
0.0
 11
66.85
 21
727.7847234375
 31
0.0
  0
LINE
  5
18D
330
72
100
AcDbEntity
  8
$DDT_AUDIT_GENERATED_(C2)
  6
Continuous
 62
     7
100
AcDbLine
 10
66.85
 20
727.5597723832
 30
0.0
 11
65.85
 21
727.5597723832
 31
0.0
  0
LINE
  5
18E
330
72
100
AcDbEntity
  8
$DDT_AUDIT_GENERATED_(C2)
  6
Continuous
 62
     7
100
AcDbLine
 10
65.85
 20
727.8297136484
 30
0.0
 11
65.85
 21
728.0546647028
 31
0.0
  0
LINE
  5
18F
330
72
100
AcDbEntity
  8
$DDT_AUDIT_GENERATED_(C2)
  6
Continuous
 62
     7
100
AcDbLine
 10
65.85
 20
728.0546647028
 30
0.0
 11
66.85
 21
728.0546647028
 31
0.0
  0
LINE
  5
190
330
72
100
AcDbEntity
  8
$DDT_AUDIT_GENERATED_(C2)
  6
Continuous
 62
     7
100
AcDbLine
 10
66.85
 20
727.8297136484
 30
0.0
 11
65.85
 21
727.8297136484
 31
0.0
  0
LINE
  5
191
330
72
100
AcDbEntity
  8
$DDT_AUDIT_GENERATED_(C2)
  6
Continuous
 62
     7
100
AcDbLine
 10
65.85
 20
728.0996549136
 30
0.0
 11
65.85
 21
728.2276737958
 31
0.0
  0
LINE
  5
192
330
72
100
AcDbEntity
  8
$DDT_AUDIT_GENERATED_(C2)
  6
Continuous
 62
     7
100
AcDbLine
 10
66.85
 20
728.0996549136
 30
0.0
 11
65.85
 21
728.0996549136
 31
0.0
  0
LINE
  5
193
330
72
100
AcDbEntity
  8
$DDT_AUDIT_GENERATED_(C2)
  6
Continuous
 62
     7
100
AcDbLine
 10
64.65
 20
726.9748996419
 30
0.0
 11
65.65
 21
726.9748996419
 31
0.0
  0
LINE
  5
194
330
72
100
AcDbEntity
  8
$DDT_AUDIT_GENERATED_(C2)
  6
Continuous
 62
     7
100
AcDbLine
 10
64.65
 20
727.0198898528
 30
0.0
 11
64.65
 21
727.2448409071
 31
0.0
  0
LINE
  5
195
330
72
100
AcDbEntity
  8
$DDT_AUDIT_GENERATED_(C2)
  6
Continuous
 62
     7
100
AcDbLine
 10
64.65
 20
727.2448409071
 30
0.0
 11
65.65
 21
727.2448409071
 31
0.0
  0
LINE
  5
196
330
72
100
AcDbEntity
  8
$DDT_AUDIT_GENERATED_(C2)
  6
Continuous
 62
     7
100
AcDbLine
 10
65.65
 20
727.2448409071
 30
0.0
 11
65.65
 21
727.0198898528
 31
0.0
  0
LINE
  5
197
330
72
100
AcDbEntity
  8
$DDT_AUDIT_GENERATED_(C2)
  6
Continuous
 62
     7
100
AcDbLine
 10
65.65
 20
727.0198898528
 30
0.0
 11
64.65
 21
727.0198898528
 31
0.0
  0
LINE
  5
198
330
72
100
AcDbEntity
  8
$DDT_AUDIT_GENERATED_(C2)
  6
Continuous
 62
     7
100
AcDbLine
 10
64.65
 20
727.289831118
 30
0.0
 11
64.65
 21
727.5147821723
 31
0.0
  0
LINE
  5
199
330
72
100
AcDbEntity
  8
$DDT_AUDIT_GENERATED_(C2)
  6
Continuous
 62
     7
100
AcDbLine
 10
64.65
 20
727.5147821723
 30
0.0
 11
65.65
 21
727.5147821723
 31
0.0
  0
LINE
  5
19A
330
72
100
AcDbEntity
  8
$DDT_AUDIT_GENERATED_(C2)
  6
Continuous
 62
     7
100
AcDbLine
 10
65.65
 20
727.5147821723
 30
0.0
 11
65.65
 21
727.289831118
 31
0.0
  0
LINE
  5
19B
330
72
100
AcDbEntity
  8
$DDT_AUDIT_GENERATED_(C2)
  6
Continuous
 62
     7
100
AcDbLine
 10
65.65
 20
727.289831118
 30
0.0
 11
64.65
 21
727.289831118
 31
0.0
  0
LINE
  5
19C
330
72
100
AcDbEntity
  8
$DDT_AUDIT_GENERATED_(C2)
  6
Continuous
 62
     7
100
AcDbLine
 10
64.65
 20
727.5597723832
 30
0.0
 11
64.65
 21
727.7847234375
 31
0.0
  0
LINE
  5
19D
330
72
100
AcDbEntity
  8
$DDT_AUDIT_GENERATED_(C2)
  6
Continuous
 62
     7
100
AcDbLine
 10
64.65
 20
727.7847234375
 30
0.0
 11
65.65
 21
727.7847234375
 31
0.0
  0
LINE
  5
19E
330
72
100
AcDbEntity
  8
$DDT_AUDIT_GENERATED_(C2)
  6
Continuous
 62
     7
100
AcDbLine
 10
65.65
 20
727.7847234375
 30
0.0
 11
65.65
 21
727.5597723832
 31
0.0
  0
LINE
  5
19F
330
72
100
AcDbEntity
  8
$DDT_AUDIT_GENERATED_(C2)
  6
Continuous
 62
     7
100
AcDbLine
 10
65.65
 20
727.5597723832
 30
0.0
 11
64.65
 21
727.5597723832
 31
0.0
  0
LINE
  5
1A0
330
72
100
AcDbEntity
  8
$DDT_AUDIT_GENERATED_(C2)
  6
Continuous
 62
     7
100
AcDbLine
 10
64.65
 20
727.8297136484
 30
0.0
 11
64.65
 21
728.0546647028
 31
0.0
  0
LINE
  5
1A1
330
72
100
AcDbEntity
  8
$DDT_AUDIT_GENERATED_(C2)
  6
Continuous
 62
     7
100
AcDbLine
 10
64.65
 20
728.0546647028
 30
0.0
 11
65.65
 21
728.0546647028
 31
0.0
  0
LINE
  5
1A2
330
72
100
AcDbEntity
  8
$DDT_AUDIT_GENERATED_(C2)
  6
Continuous
 62
     7
100
AcDbLine
 10
65.65
 20
728.0546647028
 30
0.0
 11
65.65
 21
727.8297136484
 31
0.0
  0
LINE
  5
1A3
330
72
100
AcDbEntity
  8
$DDT_AUDIT_GENERATED_(C2)
  6
Continuous
 62
     7
100
AcDbLine
 10
65.65
 20
727.8297136484
 30
0.0
 11
64.65
 21
727.8297136484
 31
0.0
  0
LINE
  5
1A4
330
72
100
AcDbEntity
  8
$DDT_AUDIT_GENERATED_(C2)
  6
Continuous
 62
     7
100
AcDbLine
 10
64.65
 20
728.0996549136
 30
0.0
 11
64.65
 21
728.1912573941
 31
0.0
  0
LINE
  5
1A5
330
72
100
AcDbEntity
  8
$DDT_AUDIT_GENERATED_(C2)
  6
Continuous
 62
     7
100
AcDbLine
 10
65.65
 20
728.2243928491
 30
0.0
 11
65.65
 21
728.0996549136
 31
0.0
  0
LINE
  5
1A6
330
72
100
AcDbEntity
  8
$DDT_AUDIT_GENERATED_(C2)
  6
Continuous
 62
     7
100
AcDbLine
 10
65.65
 20
728.0996549136
 30
0.0
 11
64.65
 21
728.0996549136
 31
0.0
  0
LINE
  5
1A7
330
72
100
AcDbEntity
  8
$DDT_AUDIT_GENERATED_(C2)
  6
Continuous
 62
     7
100
AcDbLine
 10
63.45
 20
726.9748996419
 30
0.0
 11
64.45
 21
726.9748996419
 31
0.0
  0
LINE
  5
1A8
330
72
100
AcDbEntity
  8
$DDT_AUDIT_GENERATED_(C2)
  6
Continuous
 62
     7
100
AcDbLine
 10
63.45
 20
727.0198898528
 30
0.0
 11
63.45
 21
727.2448409071
 31
0.0
  0
LINE
  5
1A9
330
72
100
AcDbEntity
  8
$DDT_AUDIT_GENERATED_(C2)
  6
Continuous
 62
     7
100
AcDbLine
 10
63.45
 20
727.2448409071
 30
0.0
 11
64.45
 21
727.2448409071
 31
0.0
  0
LINE
  5
1AA
330
72
100
AcDbEntity
  8
$DDT_AUDIT_GENERATED_(C2)
  6
Continuous
 62
     7
100
AcDbLine
 10
64.45
 20
727.2448409071
 30
0.0
 11
64.45
 21
727.0198898528
 31
0.0
  0
LINE
  5
1AB
330
72
100
AcDbEntity
  8
$DDT_AUDIT_GENERATED_(C2)
  6
Continuous
 62
     7
100
AcDbLine
 10
64.45
 20
727.0198898528
 30
0.0
 11
63.45
 21
727.0198898528
 31
0.0
  0
LINE
  5
1AC
330
72
100
AcDbEntity
  8
$DDT_AUDIT_GENERATED_(C2)
  6
Continuous
 62
     7
100
AcDbLine
 10
63.45
 20
727.289831118
 30
0.0
 11
63.45
 21
727.5147821723
 31
0.0
  0
LINE
  5
1AD
330
72
100
AcDbEntity
  8
$DDT_AUDIT_GENERATED_(C2)
  6
Continuous
 62
     7
100
AcDbLine
 10
63.45
 20
727.5147821723
 30
0.0
 11
64.45
 21
727.5147821723
 31
0.0
  0
LINE
  5
1AE
330
72
100
AcDbEntity
  8
$DDT_AUDIT_GENERATED_(C2)
  6
Continuous
 62
     7
100
AcDbLine
 10
64.45
 20
727.5147821723
 30
0.0
 11
64.45
 21
727.289831118
 31
0.0
  0
LINE
  5
1AF
330
72
100
AcDbEntity
  8
$DDT_AUDIT_GENERATED_(C2)
  6
Continuous
 62
     7
100
AcDbLine
 10
64.45
 20
727.289831118
 30
0.0
 11
63.45
 21
727.289831118
 31
0.0
  0
LINE
  5
1B0
330
72
100
AcDbEntity
  8
$DDT_AUDIT_GENERATED_(C2)
  6
Continuous
 62
     7
100
AcDbLine
 10
63.45
 20
727.5597723832
 30
0.0
 11
63.45
 21
727.7847234375
 31
0.0
  0
LINE
  5
1B1
330
72
100
AcDbEntity
  8
$DDT_AUDIT_GENERATED_(C2)
  6
Continuous
 62
     7
100
AcDbLine
 10
63.45
 20
727.7847234375
 30
0.0
 11
64.45
 21
727.7847234375
 31
0.0
  0
LINE
  5
1B2
330
72
100
AcDbEntity
  8
$DDT_AUDIT_GENERATED_(C2)
  6
Continuous
 62
     7
100
AcDbLine
 10
64.45
 20
727.7847234375
 30
0.0
 11
64.45
 21
727.5597723832
 31
0.0
  0
LINE
  5
1B3
330
72
100
AcDbEntity
  8
$DDT_AUDIT_GENERATED_(C2)
  6
Continuous
 62
     7
100
AcDbLine
 10
64.45
 20
727.5597723832
 30
0.0
 11
63.45
 21
727.5597723832
 31
0.0
  0
LINE
  5
1B4
330
72
100
AcDbEntity
  8
$DDT_AUDIT_GENERATED_(C2)
  6
Continuous
 62
     7
100
AcDbLine
 10
63.45
 20
727.8297136484
 30
0.0
 11
63.45
 21
728.0546647028
 31
0.0
  0
LINE
  5
1B5
330
72
100
AcDbEntity
  8
$DDT_AUDIT_GENERATED_(C2)
  6
Continuous
 62
     7
100
AcDbLine
 10
63.45
 20
728.0546647028
 30
0.0
 11
64.45
 21
728.0546647028
 31
0.0
  0
LINE
  5
1B6
330
72
100
AcDbEntity
  8
$DDT_AUDIT_GENERATED_(C2)
  6
Continuous
 62
     7
100
AcDbLine
 10
64.45
 20
728.0546647028
 30
0.0
 11
64.45
 21
727.8297136484
 31
0.0
  0
LINE
  5
1B7
330
72
100
AcDbEntity
  8
$DDT_AUDIT_GENERATED_(C2)
  6
Continuous
 62
     7
100
AcDbLine
 10
64.45
 20
727.8297136484
 30
0.0
 11
63.45
 21
727.8297136484
 31
0.0
  0
LINE
  5
1B8
330
72
100
AcDbEntity
  8
$DDT_AUDIT_GENERATED_(C2)
  6
Continuous
 62
     7
100
AcDbLine
 10
63.45
 20
728.0996549136
 30
0.0
 11
63.45
 21
728.1126492459
 31
0.0
  0
LINE
  5
1B9
330
72
100
AcDbEntity
  8
$DDT_AUDIT_GENERATED_(C2)
  6
Continuous
 62
     7
100
AcDbLine
 10
64.45
 20
728.1811982085
 30
0.0
 11
64.45
 21
728.0996549136
 31
0.0
  0
LINE
  5
1BA
330
72
100
AcDbEntity
  8
$DDT_AUDIT_GENERATED_(C2)
  6
Continuous
 62
     7
100
AcDbLine
 10
64.45
 20
728.0996549136
 30
0.0
 11
63.45
 21
728.0996549136
 31
0.0
  0
LINE
  5
1BB
330
72
100
AcDbEntity
  8
$DDT_AUDIT_GENERATED_(C2)
  6
Continuous
 62
     7
100
AcDbLine
 10
62.25
 20
726.9748996419
 30
0.0
 11
63.25
 21
726.9748996419
 31
0.0
  0
LINE
  5
1BC
330
72
100
AcDbEntity
  8
$DDT_AUDIT_GENERATED_(C2)
  6
Continuous
 62
     7
100
AcDbLine
 10
62.25
 20
727.0198898528
 30
0.0
 11
62.25
 21
727.2448409071
 31
0.0
  0
LINE
  5
1BD
330
72
100
AcDbEntity
  8
$DDT_AUDIT_GENERATED_(C2)
  6
Continuous
 62
     7
100
AcDbLine
 10
62.25
 20
727.2448409071
 30
0.0
 11
63.25
 21
727.2448409071
 31
0.0
  0
LINE
  5
1BE
330
72
100
AcDbEntity
  8
$DDT_AUDIT_GENERATED_(C2)
  6
Continuous
 62
     7
100
AcDbLine
 10
63.25
 20
727.2448409071
 30
0.0
 11
63.25
 21
727.0198898528
 31
0.0
  0
LINE
  5
1BF
330
72
100
AcDbEntity
  8
$DDT_AUDIT_GENERATED_(C2)
  6
Continuous
 62
     7
100
AcDbLine
 10
63.25
 20
727.0198898528
 30
0.0
 11
62.25
 21
727.0198898528
 31
0.0
  0
LINE
  5
1C0
330
72
100
AcDbEntity
  8
$DDT_AUDIT_GENERATED_(C2)
  6
Continuous
 62
     7
100
AcDbLine
 10
62.25
 20
727.289831118
 30
0.0
 11
62.25
 21
727.5147821723
 31
0.0
  0
LINE
  5
1C1
330
72
100
AcDbEntity
  8
$DDT_AUDIT_GENERATED_(C2)
  6
Continuous
 62
     7
100
AcDbLine
 10
62.25
 20
727.5147821723
 30
0.0
 11
63.25
 21
727.5147821723
 31
0.0
  0
LINE
  5
1C2
330
72
100
AcDbEntity
  8
$DDT_AUDIT_GENERATED_(C2)
  6
Continuous
 62
     7
100
AcDbLine
 10
63.25
 20
727.5147821723
 30
0.0
 11
63.25
 21
727.289831118
 31
0.0
  0
LINE
  5
1C3
330
72
100
AcDbEntity
  8
$DDT_AUDIT_GENERATED_(C2)
  6
Continuous
 62
     7
100
AcDbLine
 10
63.25
 20
727.289831118
 30
0.0
 11
62.25
 21
727.289831118
 31
0.0
  0
LINE
  5
1C4
330
72
100
AcDbEntity
  8
$DDT_AUDIT_GENERATED_(C2)
  6
Continuous
 62
     7
100
AcDbLine
 10
62.25
 20
727.5597723832
 30
0.0
 11
62.25
 21
727.7847234375
 31
0.0
  0
LINE
  5
1C5
330
72
100
AcDbEntity
  8
$DDT_AUDIT_GENERATED_(C2)
  6
Continuous
 62
     7
100
AcDbLine
 10
62.25
 20
727.7847234375
 30
0.0
 11
63.25
 21
727.7847234375
 31
0.0
  0
LINE
  5
1C6
330
72
100
AcDbEntity
  8
$DDT_AUDIT_GENERATED_(C2)
  6
Continuous
 62
     7
100
AcDbLine
 10
63.25
 20
727.7847234375
 30
0.0
 11
63.25
 21
727.5597723832
 31
0.0
  0
LINE
  5
1C7
330
72
100
AcDbEntity
  8
$DDT_AUDIT_GENERATED_(C2)
  6
Continuous
 62
     7
100
AcDbLine
 10
63.25
 20
727.5597723832
 30
0.0
 11
62.25
 21
727.5597723832
 31
0.0
  0
LINE
  5
1C8
330
72
100
AcDbEntity
  8
$DDT_AUDIT_GENERATED_(C2)
  6
Continuous
 62
     7
100
AcDbLine
 10
62.25
 20
727.8297136484
 30
0.0
 11
62.25
 21
727.9856828321
 31
0.0
  0
LINE
  5
1C9
330
72
100
AcDbEntity
  8
$DDT_AUDIT_GENERATED_(C2)
  6
Continuous
 62
     7
100
AcDbLine
 10
62.8392654538
 20
728.0546647028
 30
0.0
 11
63.25
 21
728.0546647028
 31
0.0
  0
LINE
  5
1CA
330
72
100
AcDbEntity
  8
$DDT_AUDIT_GENERATED_(C2)
  6
Continuous
 62
     7
100
AcDbLine
 10
63.25
 20
728.0546647028
 30
0.0
 11
63.25
 21
727.8297136484
 31
0.0
  0
LINE
  5
1CB
330
72
100
AcDbEntity
  8
$DDT_AUDIT_GENERATED_(C2)
  6
Continuous
 62
     7
100
AcDbLine
 10
63.25
 20
727.8297136484
 30
0.0
 11
62.25
 21
727.8297136484
 31
0.0
  0
LINE
  5
1CC
330
72
100
AcDbEntity
  8
$DDT_AUDIT_GENERATED_(C2)
  6
Continuous
 62
     7
100
AcDbLine
 10
61.05
 20
726.9748996419
 30
0.0
 11
62.05
 21
726.9748996419
 31
0.0
  0
LINE
  5
1CD
330
72
100
AcDbEntity
  8
$DDT_AUDIT_GENERATED_(C2)
  6
Continuous
 62
     7
100
AcDbLine
 10
61.05
 20
727.0198898528
 30
0.0
 11
61.05
 21
727.2448409071
 31
0.0
  0
LINE
  5
1CE
330
72
100
AcDbEntity
  8
$DDT_AUDIT_GENERATED_(C2)
  6
Continuous
 62
     7
100
AcDbLine
 10
61.05
 20
727.2448409071
 30
0.0
 11
62.05
 21
727.2448409071
 31
0.0
  0
LINE
  5
1CF
330
72
100
AcDbEntity
  8
$DDT_AUDIT_GENERATED_(C2)
  6
Continuous
 62
     7
100
AcDbLine
 10
62.05
 20
727.2448409071
 30
0.0
 11
62.05
 21
727.0198898528
 31
0.0
  0
LINE
  5
1D0
330
72
100
AcDbEntity
  8
$DDT_AUDIT_GENERATED_(C2)
  6
Continuous
 62
     7
100
AcDbLine
 10
62.05
 20
727.0198898528
 30
0.0
 11
61.05
 21
727.0198898528
 31
0.0
  0
LINE
  5
1D1
330
72
100
AcDbEntity
  8
$DDT_AUDIT_GENERATED_(C2)
  6
Continuous
 62
     7
100
AcDbLine
 10
61.05
 20
727.289831118
 30
0.0
 11
61.05
 21
727.5147821723
 31
0.0
  0
LINE
  5
1D2
330
72
100
AcDbEntity
  8
$DDT_AUDIT_GENERATED_(C2)
  6
Continuous
 62
     7
100
AcDbLine
 10
61.05
 20
727.5147821723
 30
0.0
 11
62.05
 21
727.5147821723
 31
0.0
  0
LINE
  5
1D3
330
72
100
AcDbEntity
  8
$DDT_AUDIT_GENERATED_(C2)
  6
Continuous
 62
     7
100
AcDbLine
 10
62.05
 20
727.5147821723
 30
0.0
 11
62.05
 21
727.289831118
 31
0.0
  0
LINE
  5
1D4
330
72
100
AcDbEntity
  8
$DDT_AUDIT_GENERATED_(C2)
  6
Continuous
 62
     7
100
AcDbLine
 10
62.05
 20
727.289831118
 30
0.0
 11
61.05
 21
727.289831118
 31
0.0
  0
LINE
  5
1D5
330
72
100
AcDbEntity
  8
$DDT_AUDIT_GENERATED_(C2)
  6
Continuous
 62
     7
100
AcDbLine
 10
61.05
 20
727.5597723832
 30
0.0
 11
61.05
 21
727.7847234375
 31
0.0
  0
LINE
  5
1D6
330
72
100
AcDbEntity
  8
$DDT_AUDIT_GENERATED_(C2)
  6
Continuous
 62
     7
100
AcDbLine
 10
61.05
 20
727.7847234375
 30
0.0
 11
62.05
 21
727.7847234375
 31
0.0
  0
LINE
  5
1D7
330
72
100
AcDbEntity
  8
$DDT_AUDIT_GENERATED_(C2)
  6
Continuous
 62
     7
100
AcDbLine
 10
62.05
 20
727.7847234375
 30
0.0
 11
62.05
 21
727.5597723832
 31
0.0
  0
LINE
  5
1D8
330
72
100
AcDbEntity
  8
$DDT_AUDIT_GENERATED_(C2)
  6
Continuous
 62
     7
100
AcDbLine
 10
62.05
 20
727.5597723832
 30
0.0
 11
61.05
 21
727.5597723832
 31
0.0
  0
LINE
  5
1D9
330
72
100
AcDbEntity
  8
$DDT_AUDIT_GENERATED_(C2)
  6
Continuous
 62
     7
100
AcDbLine
 10
62.05
 20
727.9590686407
 30
0.0
 11
62.05
 21
727.8297136484
 31
0.0
  0
LINE
  5
1DA
330
72
100
AcDbEntity
  8
$DDT_AUDIT_GENERATED_(C2)
  6
Continuous
 62
     7
100
AcDbLine
 10
62.05
 20
727.8297136484
 30
0.0
 11
61.2258675926
 21
727.8297136484
 31
0.0
  0
LINE
  5
1DB
330
72
100
AcDbEntity
  8
$DDT_AUDIT_GENERATED_(C2)
  6
Continuous
 62
     7
100
AcDbLine
 10
59.85
 20
726.9748996419
 30
0.0
 11
60.85
 21
726.9748996419
 31
0.0
  0
LINE
  5
1DC
330
72
100
AcDbEntity
  8
$DDT_AUDIT_GENERATED_(C2)
  6
Continuous
 62
     7
100
AcDbLine
 10
59.85
 20
727.0198898528
 30
0.0
 11
59.85
 21
727.2448409071
 31
0.0
  0
LINE
  5
1DD
330
72
100
AcDbEntity
  8
$DDT_AUDIT_GENERATED_(C2)
  6
Continuous
 62
     7
100
AcDbLine
 10
59.85
 20
727.2448409071
 30
0.0
 11
60.85
 21
727.2448409071
 31
0.0
  0
LINE
  5
1DE
330
72
100
AcDbEntity
  8
$DDT_AUDIT_GENERATED_(C2)
  6
Continuous
 62
     7
100
AcDbLine
 10
60.85
 20
727.2448409071
 30
0.0
 11
60.85
 21
727.0198898528
 31
0.0
  0
LINE
  5
1DF
330
72
100
AcDbEntity
  8
$DDT_AUDIT_GENERATED_(C2)
  6
Continuous
 62
     7
100
AcDbLine
 10
60.85
 20
727.0198898528
 30
0.0
 11
59.85
 21
727.0198898528
 31
0.0
  0
LINE
  5
1E0
330
72
100
AcDbEntity
  8
$DDT_AUDIT_GENERATED_(C2)
  6
Continuous
 62
     7
100
AcDbLine
 10
59.85
 20
727.289831118
 30
0.0
 11
59.85
 21
727.5147821723
 31
0.0
  0
LINE
  5
1E1
330
72
100
AcDbEntity
  8
$DDT_AUDIT_GENERATED_(C2)
  6
Continuous
 62
     7
100
AcDbLine
 10
59.85
 20
727.5147821723
 30
0.0
 11
60.85
 21
727.5147821723
 31
0.0
  0
LINE
  5
1E2
330
72
100
AcDbEntity
  8
$DDT_AUDIT_GENERATED_(C2)
  6
Continuous
 62
     7
100
AcDbLine
 10
60.85
 20
727.5147821723
 30
0.0
 11
60.85
 21
727.289831118
 31
0.0
  0
LINE
  5
1E3
330
72
100
AcDbEntity
  8
$DDT_AUDIT_GENERATED_(C2)
  6
Continuous
 62
     7
100
AcDbLine
 10
60.85
 20
727.289831118
 30
0.0
 11
59.85
 21
727.289831118
 31
0.0
  0
LINE
  5
1E4
330
72
100
AcDbEntity
  8
$DDT_AUDIT_GENERATED_(C2)
  6
Continuous
 62
     7
100
AcDbLine
 10
60.85
 20
727.7585051674
 30
0.0
 11
60.85
 21
727.5597723832
 31
0.0
  0
LINE
  5
1E5
330
72
100
AcDbEntity
  8
$DDT_AUDIT_GENERATED_(C2)
  6
Continuous
 62
     7
100
AcDbLine
 10
60.85
 20
727.5597723832
 30
0.0
 11
59.9990548753
 21
727.5597723832
 31
0.0
  0
LINE
  5
1E6
330
72
100
AcDbEntity
  8
$DDT_AUDIT_GENERATED_(C2)
  6
Continuous
 62
     7
100
AcDbLine
 10
58.65
 20
726.9748996419
 30
0.0
 11
59.65
 21
726.9748996419
 31
0.0
  0
LINE
  5
1E7
330
72
100
AcDbEntity
  8
$DDT_AUDIT_GENERATED_(C2)
  6
Continuous
 62
     7
100
AcDbLine
 10
58.65
 20
727.0198898528
 30
0.0
 11
58.65
 21
727.041508258
 31
0.0
  0
LINE
  5
1E8
330
72
100
AcDbEntity
  8
$DDT_AUDIT_GENERATED_(C2)
  6
Continuous
 62
     7
100
AcDbLine
 10
59.0617512253
 20
727.2448409071
 30
0.0
 11
59.65
 21
727.2448409071
 31
0.0
  0
LINE
  5
1E9
330
72
100
AcDbEntity
  8
$DDT_AUDIT_GENERATED_(C2)
  6
Continuous
 62
     7
100
AcDbLine
 10
59.65
 20
727.2448409071
 30
0.0
 11
59.65
 21
727.0198898528
 31
0.0
  0
LINE
  5
1EA
330
72
100
AcDbEntity
  8
$DDT_AUDIT_GENERATED_(C2)
  6
Continuous
 62
     7
100
AcDbLine
 10
59.65
 20
727.0198898528
 30
0.0
 11
58.65
 21
727.0198898528
 31
0.0
  0
LINE
  5
1EB
330
72
100
AcDbEntity
  8
$DDT_AUDIT_GENERATED_(C2)
  6
Continuous
 62
     7
100
AcDbLine
 10
59.65
 20
727.4581044854
 30
0.0
 11
59.65
 21
727.289831118
 31
0.0
  0
LINE
  5
1EC
330
72
100
AcDbEntity
  8
$DDT_AUDIT_GENERATED_(C2)
  6
Continuous
 62
     7
100
AcDbLine
 10
59.65
 20
727.289831118
 30
0.0
 11
59.1714015974
 21
727.289831118
 31
0.0
  0
LINE
  5
1ED
330
72
100
AcDbEntity
  8
$DDT_AUDIT_GENERATED_(C2)
  6
Continuous
 62
     7
100
AcDbLine
 10
66.85
 20
726.9748996419
 30
0.0
 11
66.85
 21
726.7499485876
 31
0.0
  0
LINE
  5
1EE
330
72
100
AcDbEntity
  8
$DDT_AUDIT_GENERATED_(C2)
  6
Continuous
 62
     7
100
AcDbLine
 10
67.05
 20
726.9748996419
 30
0.0
 11
68.05
 21
726.9748996419
 31
0.0
  0
LINE
  5
1EF
330
72
100
AcDbEntity
  8
$DDT_AUDIT_GENERATED_(C2)
  6
Continuous
 62
     7
100
AcDbLine
 10
68.05
 20
726.9748996419
 30
0.0
 11
68.05
 21
726.7499485876
 31
0.0
  0
LINE
  5
1F0
330
72
100
AcDbEntity
  8
$DDT_AUDIT_GENERATED_(C2)
  6
Continuous
 62
     7
100
AcDbLine
 10
67.05
 20
726.7499485876
 30
0.0
 11
67.05
 21
726.9748996419
 31
0.0
  0
LINE
  5
1F1
330
72
100
AcDbEntity
  8
$DDT_AUDIT_GENERATED_(C2)
  6
Continuous
 62
     7
100
AcDbLine
 10
68.25
 20
726.9748996419
 30
0.0
 11
69.25
 21
726.9748996419
 31
0.0
  0
LINE
  5
1F2
330
72
100
AcDbEntity
  8
$DDT_AUDIT_GENERATED_(C2)
  6
Continuous
 62
     7
100
AcDbLine
 10
69.25
 20
726.9748996419
 30
0.0
 11
69.25
 21
726.7499485876
 31
0.0
  0
LINE
  5
1F3
330
72
100
AcDbEntity
  8
$DDT_AUDIT_GENERATED_(C2)
  6
Continuous
 62
     7
100
AcDbLine
 10
68.25
 20
726.7499485876
 30
0.0
 11
68.25
 21
726.9748996419
 31
0.0
  0
LINE
  5
1F4
330
72
100
AcDbEntity
  8
$DDT_AUDIT_GENERATED_(C2)
  6
Continuous
 62
     7
100
AcDbLine
 10
69.45
 20
726.9748996419
 30
0.0
 11
70.45
 21
726.9748996419
 31
0.0
  0
LINE
  5
1F5
330
72
100
AcDbEntity
  8
$DDT_AUDIT_GENERATED_(C2)
  6
Continuous
 62
     7
100
AcDbLine
 10
70.45
 20
726.9748996419
 30
0.0
 11
70.45
 21
726.7499485876
 31
0.0
  0
LINE
  5
1F6
330
72
100
AcDbEntity
  8
$DDT_AUDIT_GENERATED_(C2)
  6
Continuous
 62
     7
100
AcDbLine
 10
69.45
 20
726.7499485876
 30
0.0
 11
69.45
 21
726.9748996419
 31
0.0
  0
LINE
  5
1F7
330
72
100
AcDbEntity
  8
$DDT_AUDIT_GENERATED_(C2)
  6
Continuous
 62
     7
100
AcDbLine
 10
70.65
 20
726.9748996419
 30
0.0
 11
71.65
 21
726.9748996419
 31
0.0
  0
LINE
  5
1F8
330
72
100
AcDbEntity
  8
$DDT_AUDIT_GENERATED_(C2)
  6
Continuous
 62
     7
100
AcDbLine
 10
71.65
 20
726.9748996419
 30
0.0
 11
71.65
 21
726.7499485876
 31
0.0
  0
LINE
  5
1F9
330
72
100
AcDbEntity
  8
$DDT_AUDIT_GENERATED_(C2)
  6
Continuous
 62
     7
100
AcDbLine
 10
70.65
 20
726.7499485876
 30
0.0
 11
70.65
 21
726.9748996419
 31
0.0
  0
LINE
  5
1FA
330
72
100
AcDbEntity
  8
$DDT_AUDIT_GENERATED_(C2)
  6
Continuous
 62
     7
100
AcDbLine
 10
71.85
 20
726.9748996419
 30
0.0
 11
72.85
 21
726.9748996419
 31
0.0
  0
LINE
  5
1FB
330
72
100
AcDbEntity
  8
$DDT_AUDIT_GENERATED_(C2)
  6
Continuous
 62
     7
100
AcDbLine
 10
72.85
 20
726.9748996419
 30
0.0
 11
72.85
 21
726.7499485876
 31
0.0
  0
LINE
  5
1FC
330
72
100
AcDbEntity
  8
$DDT_AUDIT_GENERATED_(C2)
  6
Continuous
 62
     7
100
AcDbLine
 10
71.85
 20
726.7499485876
 30
0.0
 11
71.85
 21
726.9748996419
 31
0.0
  0
LINE
  5
1FD
330
72
100
AcDbEntity
  8
$DDT_AUDIT_GENERATED_(C2)
  6
Continuous
 62
     7
100
AcDbLine
 10
74.05
 20
726.9748996419
 30
0.0
 11
74.05
 21
726.7499485876
 31
0.0
  0
LINE
  5
1FE
330
72
100
AcDbEntity
  8
$DDT_AUDIT_GENERATED_(C2)
  6
Continuous
 62
     7
100
AcDbLine
 10
73.05
 20
726.9748996419
 30
0.0
 11
74.05
 21
726.9748996419
 31
0.0
  0
LINE
  5
1FF
330
72
100
AcDbEntity
  8
$DDT_AUDIT_GENERATED_(C2)
  6
Continuous
 62
     7
100
AcDbLine
 10
73.05
 20
726.7499485876
 30
0.0
 11
73.05
 21
726.9748996419
 31
0.0
  0
LINE
  5
200
330
72
100
AcDbEntity
  8
$DDT_AUDIT_GENERATED_(C2)
  6
Continuous
 62
     7
100
AcDbLine
 10
66.85
 20
727.2448409071
 30
0.0
 11
66.85
 21
727.0198898528
 31
0.0
  0
LINE
  5
201
330
72
100
AcDbEntity
  8
$DDT_AUDIT_GENERATED_(C2)
  6
Continuous
 62
     7
100
AcDbLine
 10
67.05
 20
727.2448409071
 30
0.0
 11
68.05
 21
727.2448409071
 31
0.0
  0
LINE
  5
202
330
72
100
AcDbEntity
  8
$DDT_AUDIT_GENERATED_(C2)
  6
Continuous
 62
     7
100
AcDbLine
 10
68.05
 20
727.2448409071
 30
0.0
 11
68.05
 21
727.0198898528
 31
0.0
  0
LINE
  5
203
330
72
100
AcDbEntity
  8
$DDT_AUDIT_GENERATED_(C2)
  6
Continuous
 62
     7
100
AcDbLine
 10
68.05
 20
727.0198898528
 30
0.0
 11
67.05
 21
727.0198898528
 31
0.0
  0
LINE
  5
204
330
72
100
AcDbEntity
  8
$DDT_AUDIT_GENERATED_(C2)
  6
Continuous
 62
     7
100
AcDbLine
 10
67.05
 20
727.0198898528
 30
0.0
 11
67.05
 21
727.2448409071
 31
0.0
  0
LINE
  5
205
330
72
100
AcDbEntity
  8
$DDT_AUDIT_GENERATED_(C2)
  6
Continuous
 62
     7
100
AcDbLine
 10
68.25
 20
727.2448409071
 30
0.0
 11
69.25
 21
727.2448409071
 31
0.0
  0
LINE
  5
206
330
72
100
AcDbEntity
  8
$DDT_AUDIT_GENERATED_(C2)
  6
Continuous
 62
     7
100
AcDbLine
 10
69.25
 20
727.2448409071
 30
0.0
 11
69.25
 21
727.0198898528
 31
0.0
  0
LINE
  5
207
330
72
100
AcDbEntity
  8
$DDT_AUDIT_GENERATED_(C2)
  6
Continuous
 62
     7
100
AcDbLine
 10
69.25
 20
727.0198898528
 30
0.0
 11
68.25
 21
727.0198898528
 31
0.0
  0
LINE
  5
208
330
72
100
AcDbEntity
  8
$DDT_AUDIT_GENERATED_(C2)
  6
Continuous
 62
     7
100
AcDbLine
 10
68.25
 20
727.0198898528
 30
0.0
 11
68.25
 21
727.2448409071
 31
0.0
  0
LINE
  5
209
330
72
100
AcDbEntity
  8
$DDT_AUDIT_GENERATED_(C2)
  6
Continuous
 62
     7
100
AcDbLine
 10
69.45
 20
727.2448409071
 30
0.0
 11
70.45
 21
727.2448409071
 31
0.0
  0
LINE
  5
20A
330
72
100
AcDbEntity
  8
$DDT_AUDIT_GENERATED_(C2)
  6
Continuous
 62
     7
100
AcDbLine
 10
70.45
 20
727.2448409071
 30
0.0
 11
70.45
 21
727.0198898528
 31
0.0
  0
LINE
  5
20B
330
72
100
AcDbEntity
  8
$DDT_AUDIT_GENERATED_(C2)
  6
Continuous
 62
     7
100
AcDbLine
 10
70.45
 20
727.0198898528
 30
0.0
 11
69.45
 21
727.0198898528
 31
0.0
  0
LINE
  5
20C
330
72
100
AcDbEntity
  8
$DDT_AUDIT_GENERATED_(C2)
  6
Continuous
 62
     7
100
AcDbLine
 10
69.45
 20
727.0198898528
 30
0.0
 11
69.45
 21
727.2448409071
 31
0.0
  0
LINE
  5
20D
330
72
100
AcDbEntity
  8
$DDT_AUDIT_GENERATED_(C2)
  6
Continuous
 62
     7
100
AcDbLine
 10
70.65
 20
727.2448409071
 30
0.0
 11
71.65
 21
727.2448409071
 31
0.0
  0
LINE
  5
20E
330
72
100
AcDbEntity
  8
$DDT_AUDIT_GENERATED_(C2)
  6
Continuous
 62
     7
100
AcDbLine
 10
71.65
 20
727.2448409071
 30
0.0
 11
71.65
 21
727.0198898528
 31
0.0
  0
LINE
  5
20F
330
72
100
AcDbEntity
  8
$DDT_AUDIT_GENERATED_(C2)
  6
Continuous
 62
     7
100
AcDbLine
 10
71.65
 20
727.0198898528
 30
0.0
 11
70.65
 21
727.0198898528
 31
0.0
  0
LINE
  5
210
330
72
100
AcDbEntity
  8
$DDT_AUDIT_GENERATED_(C2)
  6
Continuous
 62
     7
100
AcDbLine
 10
70.65
 20
727.0198898528
 30
0.0
 11
70.65
 21
727.2448409071
 31
0.0
  0
LINE
  5
211
330
72
100
AcDbEntity
  8
$DDT_AUDIT_GENERATED_(C2)
  6
Continuous
 62
     7
100
AcDbLine
 10
71.85
 20
727.2448409071
 30
0.0
 11
72.85
 21
727.2448409071
 31
0.0
  0
LINE
  5
212
330
72
100
AcDbEntity
  8
$DDT_AUDIT_GENERATED_(C2)
  6
Continuous
 62
     7
100
AcDbLine
 10
72.85
 20
727.2448409071
 30
0.0
 11
72.85
 21
727.0198898528
 31
0.0
  0
LINE
  5
213
330
72
100
AcDbEntity
  8
$DDT_AUDIT_GENERATED_(C2)
  6
Continuous
 62
     7
100
AcDbLine
 10
72.85
 20
727.0198898528
 30
0.0
 11
71.85
 21
727.0198898528
 31
0.0
  0
LINE
  5
214
330
72
100
AcDbEntity
  8
$DDT_AUDIT_GENERATED_(C2)
  6
Continuous
 62
     7
100
AcDbLine
 10
71.85
 20
727.0198898528
 30
0.0
 11
71.85
 21
727.2448409071
 31
0.0
  0
LINE
  5
215
330
72
100
AcDbEntity
  8
$DDT_AUDIT_GENERATED_(C2)
  6
Continuous
 62
     7
100
AcDbLine
 10
73.05
 20
727.2448409071
 30
0.0
 11
73.6382487747
 21
727.2448409071
 31
0.0
  0
LINE
  5
216
330
72
100
AcDbEntity
  8
$DDT_AUDIT_GENERATED_(C2)
  6
Continuous
 62
     7
100
AcDbLine
 10
74.05
 20
727.041508258
 30
0.0
 11
74.05
 21
727.0198898528
 31
0.0
  0
LINE
  5
217
330
72
100
AcDbEntity
  8
$DDT_AUDIT_GENERATED_(C2)
  6
Continuous
 62
     7
100
AcDbLine
 10
74.05
 20
727.0198898528
 30
0.0
 11
73.05
 21
727.0198898528
 31
0.0
  0
LINE
  5
218
330
72
100
AcDbEntity
  8
$DDT_AUDIT_GENERATED_(C2)
  6
Continuous
 62
     7
100
AcDbLine
 10
73.05
 20
727.0198898528
 30
0.0
 11
73.05
 21
727.2448409071
 31
0.0
  0
LINE
  5
219
330
72
100
AcDbEntity
  8
$DDT_AUDIT_GENERATED_(C2)
  6
Continuous
 62
     7
100
AcDbLine
 10
66.85
 20
727.5147821723
 30
0.0
 11
66.85
 21
727.289831118
 31
0.0
  0
LINE
  5
21A
330
72
100
AcDbEntity
  8
$DDT_AUDIT_GENERATED_(C2)
  6
Continuous
 62
     7
100
AcDbLine
 10
67.05
 20
727.5147821723
 30
0.0
 11
68.05
 21
727.5147821723
 31
0.0
  0
LINE
  5
21B
330
72
100
AcDbEntity
  8
$DDT_AUDIT_GENERATED_(C2)
  6
Continuous
 62
     7
100
AcDbLine
 10
68.05
 20
727.5147821723
 30
0.0
 11
68.05
 21
727.289831118
 31
0.0
  0
LINE
  5
21C
330
72
100
AcDbEntity
  8
$DDT_AUDIT_GENERATED_(C2)
  6
Continuous
 62
     7
100
AcDbLine
 10
68.05
 20
727.289831118
 30
0.0
 11
67.05
 21
727.289831118
 31
0.0
  0
LINE
  5
21D
330
72
100
AcDbEntity
  8
$DDT_AUDIT_GENERATED_(C2)
  6
Continuous
 62
     7
100
AcDbLine
 10
67.05
 20
727.289831118
 30
0.0
 11
67.05
 21
727.5147821723
 31
0.0
  0
LINE
  5
21E
330
72
100
AcDbEntity
  8
$DDT_AUDIT_GENERATED_(C2)
  6
Continuous
 62
     7
100
AcDbLine
 10
68.25
 20
727.5147821723
 30
0.0
 11
69.25
 21
727.5147821723
 31
0.0
  0
LINE
  5
21F
330
72
100
AcDbEntity
  8
$DDT_AUDIT_GENERATED_(C2)
  6
Continuous
 62
     7
100
AcDbLine
 10
69.25
 20
727.5147821723
 30
0.0
 11
69.25
 21
727.289831118
 31
0.0
  0
LINE
  5
220
330
72
100
AcDbEntity
  8
$DDT_AUDIT_GENERATED_(C2)
  6
Continuous
 62
     7
100
AcDbLine
 10
69.25
 20
727.289831118
 30
0.0
 11
68.25
 21
727.289831118
 31
0.0
  0
LINE
  5
221
330
72
100
AcDbEntity
  8
$DDT_AUDIT_GENERATED_(C2)
  6
Continuous
 62
     7
100
AcDbLine
 10
68.25
 20
727.289831118
 30
0.0
 11
68.25
 21
727.5147821723
 31
0.0
  0
LINE
  5
222
330
72
100
AcDbEntity
  8
$DDT_AUDIT_GENERATED_(C2)
  6
Continuous
 62
     7
100
AcDbLine
 10
69.45
 20
727.5147821723
 30
0.0
 11
70.45
 21
727.5147821723
 31
0.0
  0
LINE
  5
223
330
72
100
AcDbEntity
  8
$DDT_AUDIT_GENERATED_(C2)
  6
Continuous
 62
     7
100
AcDbLine
 10
70.45
 20
727.5147821723
 30
0.0
 11
70.45
 21
727.289831118
 31
0.0
  0
LINE
  5
224
330
72
100
AcDbEntity
  8
$DDT_AUDIT_GENERATED_(C2)
  6
Continuous
 62
     7
100
AcDbLine
 10
70.45
 20
727.289831118
 30
0.0
 11
69.45
 21
727.289831118
 31
0.0
  0
LINE
  5
225
330
72
100
AcDbEntity
  8
$DDT_AUDIT_GENERATED_(C2)
  6
Continuous
 62
     7
100
AcDbLine
 10
69.45
 20
727.289831118
 30
0.0
 11
69.45
 21
727.5147821723
 31
0.0
  0
LINE
  5
226
330
72
100
AcDbEntity
  8
$DDT_AUDIT_GENERATED_(C2)
  6
Continuous
 62
     7
100
AcDbLine
 10
70.65
 20
727.5147821723
 30
0.0
 11
71.65
 21
727.5147821723
 31
0.0
  0
LINE
  5
227
330
72
100
AcDbEntity
  8
$DDT_AUDIT_GENERATED_(C2)
  6
Continuous
 62
     7
100
AcDbLine
 10
71.65
 20
727.5147821723
 30
0.0
 11
71.65
 21
727.289831118
 31
0.0
  0
LINE
  5
228
330
72
100
AcDbEntity
  8
$DDT_AUDIT_GENERATED_(C2)
  6
Continuous
 62
     7
100
AcDbLine
 10
71.65
 20
727.289831118
 30
0.0
 11
70.65
 21
727.289831118
 31
0.0
  0
LINE
  5
229
330
72
100
AcDbEntity
  8
$DDT_AUDIT_GENERATED_(C2)
  6
Continuous
 62
     7
100
AcDbLine
 10
70.65
 20
727.289831118
 30
0.0
 11
70.65
 21
727.5147821723
 31
0.0
  0
LINE
  5
22A
330
72
100
AcDbEntity
  8
$DDT_AUDIT_GENERATED_(C2)
  6
Continuous
 62
     7
100
AcDbLine
 10
71.85
 20
727.5147821723
 30
0.0
 11
72.85
 21
727.5147821723
 31
0.0
  0
LINE
  5
22B
330
72
100
AcDbEntity
  8
$DDT_AUDIT_GENERATED_(C2)
  6
Continuous
 62
     7
100
AcDbLine
 10
72.85
 20
727.5147821723
 30
0.0
 11
72.85
 21
727.289831118
 31
0.0
  0
LINE
  5
22C
330
72
100
AcDbEntity
  8
$DDT_AUDIT_GENERATED_(C2)
  6
Continuous
 62
     7
100
AcDbLine
 10
72.85
 20
727.289831118
 30
0.0
 11
71.85
 21
727.289831118
 31
0.0
  0
LINE
  5
22D
330
72
100
AcDbEntity
  8
$DDT_AUDIT_GENERATED_(C2)
  6
Continuous
 62
     7
100
AcDbLine
 10
71.85
 20
727.289831118
 30
0.0
 11
71.85
 21
727.5147821723
 31
0.0
  0
LINE
  5
22E
330
72
100
AcDbEntity
  8
$DDT_AUDIT_GENERATED_(C2)
  6
Continuous
 62
     7
100
AcDbLine
 10
66.85
 20
727.7847234375
 30
0.0
 11
66.85
 21
727.5597723832
 31
0.0
  0
LINE
  5
22F
330
72
100
AcDbEntity
  8
$DDT_AUDIT_GENERATED_(C2)
  6
Continuous
 62
     7
100
AcDbLine
 10
67.05
 20
727.7847234375
 30
0.0
 11
68.05
 21
727.7847234375
 31
0.0
  0
LINE
  5
230
330
72
100
AcDbEntity
  8
$DDT_AUDIT_GENERATED_(C2)
  6
Continuous
 62
     7
100
AcDbLine
 10
68.05
 20
727.7847234375
 30
0.0
 11
68.05
 21
727.5597723832
 31
0.0
  0
LINE
  5
231
330
72
100
AcDbEntity
  8
$DDT_AUDIT_GENERATED_(C2)
  6
Continuous
 62
     7
100
AcDbLine
 10
68.05
 20
727.5597723832
 30
0.0
 11
67.05
 21
727.5597723832
 31
0.0
  0
LINE
  5
232
330
72
100
AcDbEntity
  8
$DDT_AUDIT_GENERATED_(C2)
  6
Continuous
 62
     7
100
AcDbLine
 10
67.05
 20
727.5597723832
 30
0.0
 11
67.05
 21
727.7847234375
 31
0.0
  0
LINE
  5
233
330
72
100
AcDbEntity
  8
$DDT_AUDIT_GENERATED_(C2)
  6
Continuous
 62
     7
100
AcDbLine
 10
68.25
 20
727.7847234375
 30
0.0
 11
69.25
 21
727.7847234375
 31
0.0
  0
LINE
  5
234
330
72
100
AcDbEntity
  8
$DDT_AUDIT_GENERATED_(C2)
  6
Continuous
 62
     7
100
AcDbLine
 10
69.25
 20
727.7847234375
 30
0.0
 11
69.25
 21
727.5597723832
 31
0.0
  0
LINE
  5
235
330
72
100
AcDbEntity
  8
$DDT_AUDIT_GENERATED_(C2)
  6
Continuous
 62
     7
100
AcDbLine
 10
69.25
 20
727.5597723832
 30
0.0
 11
68.25
 21
727.5597723832
 31
0.0
  0
LINE
  5
236
330
72
100
AcDbEntity
  8
$DDT_AUDIT_GENERATED_(C2)
  6
Continuous
 62
     7
100
AcDbLine
 10
68.25
 20
727.5597723832
 30
0.0
 11
68.25
 21
727.7847234375
 31
0.0
  0
LINE
  5
237
330
72
100
AcDbEntity
  8
$DDT_AUDIT_GENERATED_(C2)
  6
Continuous
 62
     7
100
AcDbLine
 10
69.45
 20
727.7847234375
 30
0.0
 11
70.45
 21
727.7847234375
 31
0.0
  0
LINE
  5
238
330
72
100
AcDbEntity
  8
$DDT_AUDIT_GENERATED_(C2)
  6
Continuous
 62
     7
100
AcDbLine
 10
70.45
 20
727.7847234375
 30
0.0
 11
70.45
 21
727.5597723832
 31
0.0
  0
LINE
  5
239
330
72
100
AcDbEntity
  8
$DDT_AUDIT_GENERATED_(C2)
  6
Continuous
 62
     7
100
AcDbLine
 10
70.45
 20
727.5597723832
 30
0.0
 11
69.45
 21
727.5597723832
 31
0.0
  0
LINE
  5
23A
330
72
100
AcDbEntity
  8
$DDT_AUDIT_GENERATED_(C2)
  6
Continuous
 62
     7
100
AcDbLine
 10
69.45
 20
727.5597723832
 30
0.0
 11
69.45
 21
727.7847234375
 31
0.0
  0
LINE
  5
23B
330
72
100
AcDbEntity
  8
$DDT_AUDIT_GENERATED_(C2)
  6
Continuous
 62
     7
100
AcDbLine
 10
70.65
 20
727.7847234375
 30
0.0
 11
71.65
 21
727.7847234375
 31
0.0
  0
LINE
  5
23C
330
72
100
AcDbEntity
  8
$DDT_AUDIT_GENERATED_(C2)
  6
Continuous
 62
     7
100
AcDbLine
 10
71.65
 20
727.7847234375
 30
0.0
 11
71.65
 21
727.5597723832
 31
0.0
  0
LINE
  5
23D
330
72
100
AcDbEntity
  8
$DDT_AUDIT_GENERATED_(C2)
  6
Continuous
 62
     7
100
AcDbLine
 10
71.65
 20
727.5597723832
 30
0.0
 11
70.65
 21
727.5597723832
 31
0.0
  0
LINE
  5
23E
330
72
100
AcDbEntity
  8
$DDT_AUDIT_GENERATED_(C2)
  6
Continuous
 62
     7
100
AcDbLine
 10
70.65
 20
727.5597723832
 30
0.0
 11
70.65
 21
727.7847234375
 31
0.0
  0
LINE
  5
23F
330
72
100
AcDbEntity
  8
$DDT_AUDIT_GENERATED_(C2)
  6
Continuous
 62
     7
100
AcDbLine
 10
72.7009451247
 20
727.5597723832
 30
0.0
 11
71.85
 21
727.5597723832
 31
0.0
  0
LINE
  5
240
330
72
100
AcDbEntity
  8
$DDT_AUDIT_GENERATED_(C2)
  6
Continuous
 62
     7
100
AcDbLine
 10
71.85
 20
727.5597723832
 30
0.0
 11
71.85
 21
727.7585051674
 31
0.0
  0
LINE
  5
241
330
72
100
AcDbEntity
  8
$DDT_AUDIT_GENERATED_(C2)
  6
Continuous
 62
     7
100
AcDbLine
 10
66.85
 20
728.0546647028
 30
0.0
 11
66.85
 21
727.8297136484
 31
0.0
  0
LINE
  5
242
330
72
100
AcDbEntity
  8
$DDT_AUDIT_GENERATED_(C2)
  6
Continuous
 62
     7
100
AcDbLine
 10
67.05
 20
728.0546647028
 30
0.0
 11
68.05
 21
728.0546647028
 31
0.0
  0
LINE
  5
243
330
72
100
AcDbEntity
  8
$DDT_AUDIT_GENERATED_(C2)
  6
Continuous
 62
     7
100
AcDbLine
 10
68.05
 20
728.0546647028
 30
0.0
 11
68.05
 21
727.8297136484
 31
0.0
  0
LINE
  5
244
330
72
100
AcDbEntity
  8
$DDT_AUDIT_GENERATED_(C2)
  6
Continuous
 62
     7
100
AcDbLine
 10
68.05
 20
727.8297136484
 30
0.0
 11
67.05
 21
727.8297136484
 31
0.0
  0
LINE
  5
245
330
72
100
AcDbEntity
  8
$DDT_AUDIT_GENERATED_(C2)
  6
Continuous
 62
     7
100
AcDbLine
 10
67.05
 20
727.8297136484
 30
0.0
 11
67.05
 21
728.0546647028
 31
0.0
  0
LINE
  5
246
330
72
100
AcDbEntity
  8
$DDT_AUDIT_GENERATED_(C2)
  6
Continuous
 62
     7
100
AcDbLine
 10
68.25
 20
728.0546647028
 30
0.0
 11
69.25
 21
728.0546647028
 31
0.0
  0
LINE
  5
247
330
72
100
AcDbEntity
  8
$DDT_AUDIT_GENERATED_(C2)
  6
Continuous
 62
     7
100
AcDbLine
 10
69.25
 20
728.0546647028
 30
0.0
 11
69.25
 21
727.8297136484
 31
0.0
  0
LINE
  5
248
330
72
100
AcDbEntity
  8
$DDT_AUDIT_GENERATED_(C2)
  6
Continuous
 62
     7
100
AcDbLine
 10
69.25
 20
727.8297136484
 30
0.0
 11
68.25
 21
727.8297136484
 31
0.0
  0
LINE
  5
249
330
72
100
AcDbEntity
  8
$DDT_AUDIT_GENERATED_(C2)
  6
Continuous
 62
     7
100
AcDbLine
 10
68.25
 20
727.8297136484
 30
0.0
 11
68.25
 21
728.0546647028
 31
0.0
  0
LINE
  5
24A
330
72
100
AcDbEntity
  8
$DDT_AUDIT_GENERATED_(C2)
  6
Continuous
 62
     7
100
AcDbLine
 10
69.45
 20
728.0546647028
 30
0.0
 11
69.8607345462
 21
728.0546647028
 31
0.0
  0
LINE
  5
24B
330
72
100
AcDbEntity
  8
$DDT_AUDIT_GENERATED_(C2)
  6
Continuous
 62
     7
100
AcDbLine
 10
70.45
 20
727.9856828321
 30
0.0
 11
70.45
 21
727.8297136484
 31
0.0
  0
LINE
  5
24C
330
72
100
AcDbEntity
  8
$DDT_AUDIT_GENERATED_(C2)
  6
Continuous
 62
     7
100
AcDbLine
 10
70.45
 20
727.8297136484
 30
0.0
 11
69.45
 21
727.8297136484
 31
0.0
  0
LINE
  5
24D
330
72
100
AcDbEntity
  8
$DDT_AUDIT_GENERATED_(C2)
  6
Continuous
 62
     7
100
AcDbLine
 10
69.45
 20
727.8297136484
 30
0.0
 11
69.45
 21
728.0546647028
 31
0.0
  0
LINE
  5
24E
330
72
100
AcDbEntity
  8
$DDT_AUDIT_GENERATED_(C2)
  6
Continuous
 62
     7
100
AcDbLine
 10
71.4741324074
 20
727.8297136484
 30
0.0
 11
70.65
 21
727.8297136484
 31
0.0
  0
LINE
  5
24F
330
72
100
AcDbEntity
  8
$DDT_AUDIT_GENERATED_(C2)
  6
Continuous
 62
     7
100
AcDbLine
 10
70.65
 20
727.8297136484
 30
0.0
 11
70.65
 21
727.9590686407
 31
0.0
  0
LINE
  5
250
330
72
100
AcDbEntity
  8
$DDT_AUDIT_GENERATED_(C2)
  6
Continuous
 62
     7
100
AcDbLine
 10
66.85
 20
728.2276737958
 30
0.0
 11
66.85
 21
728.0996549136
 31
0.0
  0
LINE
  5
251
330
72
100
AcDbEntity
  8
$DDT_AUDIT_GENERATED_(C2)
  6
Continuous
 62
     7
100
AcDbLine
 10
68.05
 20
728.1912573941
 30
0.0
 11
68.05
 21
728.0996549136
 31
0.0
  0
LINE
  5
252
330
72
100
AcDbEntity
  8
$DDT_AUDIT_GENERATED_(C2)
  6
Continuous
 62
     7
100
AcDbLine
 10
68.05
 20
728.0996549136
 30
0.0
 11
67.05
 21
728.0996549136
 31
0.0
  0
LINE
  5
253
330
72
100
AcDbEntity
  8
$DDT_AUDIT_GENERATED_(C2)
  6
Continuous
 62
     7
100
AcDbLine
 10
67.05
 20
728.0996549136
 30
0.0
 11
67.05
 21
728.2243928491
 31
0.0
  0
LINE
  5
254
330
72
100
AcDbEntity
  8
$DDT_AUDIT_GENERATED_(C2)
  6
Continuous
 62
     7
100
AcDbLine
 10
69.25
 20
728.1126492459
 30
0.0
 11
69.25
 21
728.0996549136
 31
0.0
  0
LINE
  5
255
330
72
100
AcDbEntity
  8
$DDT_AUDIT_GENERATED_(C2)
  6
Continuous
 62
     7
100
AcDbLine
 10
69.25
 20
728.0996549136
 30
0.0
 11
68.25
 21
728.0996549136
 31
0.0
  0
LINE
  5
256
330
72
100
AcDbEntity
  8
$DDT_AUDIT_GENERATED_(C2)
  6
Continuous
 62
     7
100
AcDbLine
 10
68.25
 20
728.0996549136
 30
0.0
 11
68.25
 21
728.1811982085
 31
0.0
  0
LINE
  5
257
330
72
100
AcDbEntity
  8
$DDT_AUDIT_GENERATED_(C2)
  6
Continuous
 62
     7
100
AcDbLine
 10
73.5285984026
 20
727.289831118
 30
0.0
 11
73.05
 21
727.289831118
 31
0.0
  0
LINE
  5
258
330
72
100
AcDbEntity
  8
$DDT_AUDIT_GENERATED_(C2)
  6
Continuous
 62
     7
100
AcDbLine
 10
73.05
 20
727.289831118
 30
0.0
 11
73.05
 21
727.4581044854
 31
0.0
  0
LINE
  5
259
330
72
100
AcDbEntity
  8
$DDT_AUDIT_GENERATED_(C2)
  6
Continuous
 62
     7
100
AcDbLine
 10
74.25
 20
726.7499485876
 30
0.0
 11
74.25
 21
726.9100599184
 31
0.0
  0
LINE
  5
25A
330
72
100
AcDbEntity
  8
$DDT_AUDIT_GENERATED_(C2)
  6
Continuous
 62
     7
100
AcDbLine
 10
66.85
 20
726.7049583767
 30
0.0
 11
66.85
 21
726.4800073223
 31
0.0
  0
LINE
  5
25B
330
72
100
AcDbEntity
  8
$DDT_AUDIT_GENERATED_(C2)
  6
Continuous
 62
     7
100
AcDbLine
 10
66.85
 20
726.4350171115
 30
0.0
 11
66.85
 21
726.2100660571
 31
0.0
  0
LINE
  5
25C
330
72
100
AcDbEntity
  8
$DDT_AUDIT_GENERATED_(C2)
  6
Continuous
 62
     7
100
AcDbLine
 10
66.85
 20
726.1650758463
 30
0.0
 11
66.85
 21
725.9401247919
 31
0.0
  0
LINE
  5
25D
330
72
100
AcDbEntity
  8
$DDT_AUDIT_GENERATED_(C2)
  6
Continuous
 62
     7
100
AcDbLine
 10
66.85
 20
725.8951345811
 30
0.0
 11
66.85
 21
725.6701835267
 31
0.0
  0
LINE
  5
25E
330
72
100
AcDbEntity
  8
$DDT_AUDIT_GENERATED_(C2)
  6
Continuous
 62
     7
100
AcDbLine
 10
66.85
 20
725.6251933158
 30
0.0
 11
66.85
 21
725.4002422615
 31
0.0
  0
LINE
  5
25F
330
72
100
AcDbEntity
  8
$DDT_AUDIT_GENERATED_(C2)
  6
Continuous
 62
     7
100
AcDbLine
 10
66.85
 20
725.3552520506
 30
0.0
 11
66.85
 21
725.1303009963
 31
0.0
  0
LINE
  5
260
330
72
100
AcDbEntity
  8
$DDT_AUDIT_GENERATED_(C2)
  6
Continuous
 62
     7
100
AcDbLine
 10
68.05
 20
726.7499485876
 30
0.0
 11
67.05
 21
726.7499485876
 31
0.0
  0
LINE
  5
261
330
72
100
AcDbEntity
  8
$DDT_AUDIT_GENERATED_(C2)
  6
Continuous
 62
     7
100
AcDbLine
 10
68.05
 20
726.7049583767
 30
0.0
 11
68.05
 21
726.4800073223
 31
0.0
  0
LINE
  5
262
330
72
100
AcDbEntity
  8
$DDT_AUDIT_GENERATED_(C2)
  6
Continuous
 62
     7
100
AcDbLine
 10
68.05
 20
726.4800073223
 30
0.0
 11
67.05
 21
726.4800073223
 31
0.0
  0
LINE
  5
263
330
72
100
AcDbEntity
  8
$DDT_AUDIT_GENERATED_(C2)
  6
Continuous
 62
     7
100
AcDbLine
 10
67.05
 20
726.4800073223
 30
0.0
 11
67.05
 21
726.7049583767
 31
0.0
  0
LINE
  5
264
330
72
100
AcDbEntity
  8
$DDT_AUDIT_GENERATED_(C2)
  6
Continuous
 62
     7
100
AcDbLine
 10
67.05
 20
726.7049583767
 30
0.0
 11
68.05
 21
726.7049583767
 31
0.0
  0
LINE
  5
265
330
72
100
AcDbEntity
  8
$DDT_AUDIT_GENERATED_(C2)
  6
Continuous
 62
     7
100
AcDbLine
 10
68.05
 20
726.4350171115
 30
0.0
 11
68.05
 21
726.2100660571
 31
0.0
  0
LINE
  5
266
330
72
100
AcDbEntity
  8
$DDT_AUDIT_GENERATED_(C2)
  6
Continuous
 62
     7
100
AcDbLine
 10
68.05
 20
726.2100660571
 30
0.0
 11
67.05
 21
726.2100660571
 31
0.0
  0
LINE
  5
267
330
72
100
AcDbEntity
  8
$DDT_AUDIT_GENERATED_(C2)
  6
Continuous
 62
     7
100
AcDbLine
 10
67.05
 20
726.2100660571
 30
0.0
 11
67.05
 21
726.4350171115
 31
0.0
  0
LINE
  5
268
330
72
100
AcDbEntity
  8
$DDT_AUDIT_GENERATED_(C2)
  6
Continuous
 62
     7
100
AcDbLine
 10
67.05
 20
726.4350171115
 30
0.0
 11
68.05
 21
726.4350171115
 31
0.0
  0
LINE
  5
269
330
72
100
AcDbEntity
  8
$DDT_AUDIT_GENERATED_(C2)
  6
Continuous
 62
     7
100
AcDbLine
 10
68.05
 20
726.1650758463
 30
0.0
 11
68.05
 21
725.9401247919
 31
0.0
  0
LINE
  5
26A
330
72
100
AcDbEntity
  8
$DDT_AUDIT_GENERATED_(C2)
  6
Continuous
 62
     7
100
AcDbLine
 10
68.05
 20
725.9401247919
 30
0.0
 11
67.05
 21
725.9401247919
 31
0.0
  0
LINE
  5
26B
330
72
100
AcDbEntity
  8
$DDT_AUDIT_GENERATED_(C2)
  6
Continuous
 62
     7
100
AcDbLine
 10
67.05
 20
725.9401247919
 30
0.0
 11
67.05
 21
726.1650758463
 31
0.0
  0
LINE
  5
26C
330
72
100
AcDbEntity
  8
$DDT_AUDIT_GENERATED_(C2)
  6
Continuous
 62
     7
100
AcDbLine
 10
67.05
 20
726.1650758463
 30
0.0
 11
68.05
 21
726.1650758463
 31
0.0
  0
LINE
  5
26D
330
72
100
AcDbEntity
  8
$DDT_AUDIT_GENERATED_(C2)
  6
Continuous
 62
     7
100
AcDbLine
 10
68.05
 20
725.8951345811
 30
0.0
 11
68.05
 21
725.6701835267
 31
0.0
  0
LINE
  5
26E
330
72
100
AcDbEntity
  8
$DDT_AUDIT_GENERATED_(C2)
  6
Continuous
 62
     7
100
AcDbLine
 10
68.05
 20
725.6701835267
 30
0.0
 11
67.05
 21
725.6701835267
 31
0.0
  0
LINE
  5
26F
330
72
100
AcDbEntity
  8
$DDT_AUDIT_GENERATED_(C2)
  6
Continuous
 62
     7
100
AcDbLine
 10
67.05
 20
725.6701835267
 30
0.0
 11
67.05
 21
725.8951345811
 31
0.0
  0
LINE
  5
270
330
72
100
AcDbEntity
  8
$DDT_AUDIT_GENERATED_(C2)
  6
Continuous
 62
     7
100
AcDbLine
 10
67.05
 20
725.8951345811
 30
0.0
 11
68.05
 21
725.8951345811
 31
0.0
  0
LINE
  5
271
330
72
100
AcDbEntity
  8
$DDT_AUDIT_GENERATED_(C2)
  6
Continuous
 62
     7
100
AcDbLine
 10
68.05
 20
725.6251933158
 30
0.0
 11
68.05
 21
725.4002422615
 31
0.0
  0
LINE
  5
272
330
72
100
AcDbEntity
  8
$DDT_AUDIT_GENERATED_(C2)
  6
Continuous
 62
     7
100
AcDbLine
 10
68.05
 20
725.4002422615
 30
0.0
 11
67.05
 21
725.4002422615
 31
0.0
  0
LINE
  5
273
330
72
100
AcDbEntity
  8
$DDT_AUDIT_GENERATED_(C2)
  6
Continuous
 62
     7
100
AcDbLine
 10
67.05
 20
725.4002422615
 30
0.0
 11
67.05
 21
725.6251933158
 31
0.0
  0
LINE
  5
274
330
72
100
AcDbEntity
  8
$DDT_AUDIT_GENERATED_(C2)
  6
Continuous
 62
     7
100
AcDbLine
 10
67.05
 20
725.6251933158
 30
0.0
 11
68.05
 21
725.6251933158
 31
0.0
  0
LINE
  5
275
330
72
100
AcDbEntity
  8
$DDT_AUDIT_GENERATED_(C2)
  6
Continuous
 62
     7
100
AcDbLine
 10
68.05
 20
725.3552520506
 30
0.0
 11
68.05
 21
725.1303009963
 31
0.0
  0
LINE
  5
276
330
72
100
AcDbEntity
  8
$DDT_AUDIT_GENERATED_(C2)
  6
Continuous
 62
     7
100
AcDbLine
 10
68.05
 20
725.1303009963
 30
0.0
 11
67.05
 21
725.1303009963
 31
0.0
  0
LINE
  5
277
330
72
100
AcDbEntity
  8
$DDT_AUDIT_GENERATED_(C2)
  6
Continuous
 62
     7
100
AcDbLine
 10
67.05
 20
725.1303009963
 30
0.0
 11
67.05
 21
725.3552520506
 31
0.0
  0
LINE
  5
278
330
72
100
AcDbEntity
  8
$DDT_AUDIT_GENERATED_(C2)
  6
Continuous
 62
     7
100
AcDbLine
 10
67.05
 20
725.3552520506
 30
0.0
 11
68.05
 21
725.3552520506
 31
0.0
  0
LINE
  5
279
330
72
100
AcDbEntity
  8
$DDT_AUDIT_GENERATED_(C2)
  6
Continuous
 62
     7
100
AcDbLine
 10
69.25
 20
726.7499485876
 30
0.0
 11
68.25
 21
726.7499485876
 31
0.0
  0
LINE
  5
27A
330
72
100
AcDbEntity
  8
$DDT_AUDIT_GENERATED_(C2)
  6
Continuous
 62
     7
100
AcDbLine
 10
69.25
 20
726.7049583767
 30
0.0
 11
69.25
 21
726.4800073223
 31
0.0
  0
LINE
  5
27B
330
72
100
AcDbEntity
  8
$DDT_AUDIT_GENERATED_(C2)
  6
Continuous
 62
     7
100
AcDbLine
 10
69.25
 20
726.4800073223
 30
0.0
 11
68.25
 21
726.4800073223
 31
0.0
  0
LINE
  5
27C
330
72
100
AcDbEntity
  8
$DDT_AUDIT_GENERATED_(C2)
  6
Continuous
 62
     7
100
AcDbLine
 10
68.25
 20
726.4800073223
 30
0.0
 11
68.25
 21
726.7049583767
 31
0.0
  0
LINE
  5
27D
330
72
100
AcDbEntity
  8
$DDT_AUDIT_GENERATED_(C2)
  6
Continuous
 62
     7
100
AcDbLine
 10
68.25
 20
726.7049583767
 30
0.0
 11
69.25
 21
726.7049583767
 31
0.0
  0
LINE
  5
27E
330
72
100
AcDbEntity
  8
$DDT_AUDIT_GENERATED_(C2)
  6
Continuous
 62
     7
100
AcDbLine
 10
69.25
 20
726.4350171115
 30
0.0
 11
69.25
 21
726.2100660571
 31
0.0
  0
LINE
  5
27F
330
72
100
AcDbEntity
  8
$DDT_AUDIT_GENERATED_(C2)
  6
Continuous
 62
     7
100
AcDbLine
 10
69.25
 20
726.2100660571
 30
0.0
 11
68.25
 21
726.2100660571
 31
0.0
  0
LINE
  5
280
330
72
100
AcDbEntity
  8
$DDT_AUDIT_GENERATED_(C2)
  6
Continuous
 62
     7
100
AcDbLine
 10
68.25
 20
726.2100660571
 30
0.0
 11
68.25
 21
726.4350171115
 31
0.0
  0
LINE
  5
281
330
72
100
AcDbEntity
  8
$DDT_AUDIT_GENERATED_(C2)
  6
Continuous
 62
     7
100
AcDbLine
 10
68.25
 20
726.4350171115
 30
0.0
 11
69.25
 21
726.4350171115
 31
0.0
  0
LINE
  5
282
330
72
100
AcDbEntity
  8
$DDT_AUDIT_GENERATED_(C2)
  6
Continuous
 62
     7
100
AcDbLine
 10
69.25
 20
726.1650758463
 30
0.0
 11
69.25
 21
725.9401247919
 31
0.0
  0
LINE
  5
283
330
72
100
AcDbEntity
  8
$DDT_AUDIT_GENERATED_(C2)
  6
Continuous
 62
     7
100
AcDbLine
 10
69.25
 20
725.9401247919
 30
0.0
 11
68.25
 21
725.9401247919
 31
0.0
  0
LINE
  5
284
330
72
100
AcDbEntity
  8
$DDT_AUDIT_GENERATED_(C2)
  6
Continuous
 62
     7
100
AcDbLine
 10
68.25
 20
725.9401247919
 30
0.0
 11
68.25
 21
726.1650758463
 31
0.0
  0
LINE
  5
285
330
72
100
AcDbEntity
  8
$DDT_AUDIT_GENERATED_(C2)
  6
Continuous
 62
     7
100
AcDbLine
 10
68.25
 20
726.1650758463
 30
0.0
 11
69.25
 21
726.1650758463
 31
0.0
  0
LINE
  5
286
330
72
100
AcDbEntity
  8
$DDT_AUDIT_GENERATED_(C2)
  6
Continuous
 62
     7
100
AcDbLine
 10
69.25
 20
725.8951345811
 30
0.0
 11
69.25
 21
725.6701835267
 31
0.0
  0
LINE
  5
287
330
72
100
AcDbEntity
  8
$DDT_AUDIT_GENERATED_(C2)
  6
Continuous
 62
     7
100
AcDbLine
 10
69.25
 20
725.6701835267
 30
0.0
 11
68.25
 21
725.6701835267
 31
0.0
  0
LINE
  5
288
330
72
100
AcDbEntity
  8
$DDT_AUDIT_GENERATED_(C2)
  6
Continuous
 62
     7
100
AcDbLine
 10
68.25
 20
725.6701835267
 30
0.0
 11
68.25
 21
725.8951345811
 31
0.0
  0
LINE
  5
289
330
72
100
AcDbEntity
  8
$DDT_AUDIT_GENERATED_(C2)
  6
Continuous
 62
     7
100
AcDbLine
 10
68.25
 20
725.8951345811
 30
0.0
 11
69.25
 21
725.8951345811
 31
0.0
  0
LINE
  5
28A
330
72
100
AcDbEntity
  8
$DDT_AUDIT_GENERATED_(C2)
  6
Continuous
 62
     7
100
AcDbLine
 10
69.25
 20
725.6251933158
 30
0.0
 11
69.25
 21
725.4002422615
 31
0.0
  0
LINE
  5
28B
330
72
100
AcDbEntity
  8
$DDT_AUDIT_GENERATED_(C2)
  6
Continuous
 62
     7
100
AcDbLine
 10
69.25
 20
725.4002422615
 30
0.0
 11
68.25
 21
725.4002422615
 31
0.0
  0
LINE
  5
28C
330
72
100
AcDbEntity
  8
$DDT_AUDIT_GENERATED_(C2)
  6
Continuous
 62
     7
100
AcDbLine
 10
68.25
 20
725.4002422615
 30
0.0
 11
68.25
 21
725.6251933158
 31
0.0
  0
LINE
  5
28D
330
72
100
AcDbEntity
  8
$DDT_AUDIT_GENERATED_(C2)
  6
Continuous
 62
     7
100
AcDbLine
 10
68.25
 20
725.6251933158
 30
0.0
 11
69.25
 21
725.6251933158
 31
0.0
  0
LINE
  5
28E
330
72
100
AcDbEntity
  8
$DDT_AUDIT_GENERATED_(C2)
  6
Continuous
 62
     7
100
AcDbLine
 10
70.45
 20
726.7499485876
 30
0.0
 11
69.45
 21
726.7499485876
 31
0.0
  0
LINE
  5
28F
330
72
100
AcDbEntity
  8
$DDT_AUDIT_GENERATED_(C2)
  6
Continuous
 62
     7
100
AcDbLine
 10
70.45
 20
726.7049583767
 30
0.0
 11
70.45
 21
726.4800073223
 31
0.0
  0
LINE
  5
290
330
72
100
AcDbEntity
  8
$DDT_AUDIT_GENERATED_(C2)
  6
Continuous
 62
     7
100
AcDbLine
 10
70.45
 20
726.4800073223
 30
0.0
 11
69.45
 21
726.4800073223
 31
0.0
  0
LINE
  5
291
330
72
100
AcDbEntity
  8
$DDT_AUDIT_GENERATED_(C2)
  6
Continuous
 62
     7
100
AcDbLine
 10
69.45
 20
726.4800073223
 30
0.0
 11
69.45
 21
726.7049583767
 31
0.0
  0
LINE
  5
292
330
72
100
AcDbEntity
  8
$DDT_AUDIT_GENERATED_(C2)
  6
Continuous
 62
     7
100
AcDbLine
 10
69.45
 20
726.7049583767
 30
0.0
 11
70.45
 21
726.7049583767
 31
0.0
  0
LINE
  5
293
330
72
100
AcDbEntity
  8
$DDT_AUDIT_GENERATED_(C2)
  6
Continuous
 62
     7
100
AcDbLine
 10
70.45
 20
726.4350171115
 30
0.0
 11
70.45
 21
726.2100660571
 31
0.0
  0
LINE
  5
294
330
72
100
AcDbEntity
  8
$DDT_AUDIT_GENERATED_(C2)
  6
Continuous
 62
     7
100
AcDbLine
 10
70.45
 20
726.2100660571
 30
0.0
 11
69.45
 21
726.2100660571
 31
0.0
  0
LINE
  5
295
330
72
100
AcDbEntity
  8
$DDT_AUDIT_GENERATED_(C2)
  6
Continuous
 62
     7
100
AcDbLine
 10
69.45
 20
726.2100660571
 30
0.0
 11
69.45
 21
726.4350171115
 31
0.0
  0
LINE
  5
296
330
72
100
AcDbEntity
  8
$DDT_AUDIT_GENERATED_(C2)
  6
Continuous
 62
     7
100
AcDbLine
 10
69.45
 20
726.4350171115
 30
0.0
 11
70.45
 21
726.4350171115
 31
0.0
  0
LINE
  5
297
330
72
100
AcDbEntity
  8
$DDT_AUDIT_GENERATED_(C2)
  6
Continuous
 62
     7
100
AcDbLine
 10
70.45
 20
726.1650758463
 30
0.0
 11
70.45
 21
725.9401247919
 31
0.0
  0
LINE
  5
298
330
72
100
AcDbEntity
  8
$DDT_AUDIT_GENERATED_(C2)
  6
Continuous
 62
     7
100
AcDbLine
 10
70.45
 20
725.9401247919
 30
0.0
 11
69.45
 21
725.9401247919
 31
0.0
  0
LINE
  5
299
330
72
100
AcDbEntity
  8
$DDT_AUDIT_GENERATED_(C2)
  6
Continuous
 62
     7
100
AcDbLine
 10
69.45
 20
725.9401247919
 30
0.0
 11
69.45
 21
726.1650758463
 31
0.0
  0
LINE
  5
29A
330
72
100
AcDbEntity
  8
$DDT_AUDIT_GENERATED_(C2)
  6
Continuous
 62
     7
100
AcDbLine
 10
69.45
 20
726.1650758463
 30
0.0
 11
70.45
 21
726.1650758463
 31
0.0
  0
LINE
  5
29B
330
72
100
AcDbEntity
  8
$DDT_AUDIT_GENERATED_(C2)
  6
Continuous
 62
     7
100
AcDbLine
 10
70.45
 20
725.8951345811
 30
0.0
 11
70.45
 21
725.6701835267
 31
0.0
  0
LINE
  5
29C
330
72
100
AcDbEntity
  8
$DDT_AUDIT_GENERATED_(C2)
  6
Continuous
 62
     7
100
AcDbLine
 10
70.45
 20
725.6701835267
 30
0.0
 11
69.45
 21
725.6701835267
 31
0.0
  0
LINE
  5
29D
330
72
100
AcDbEntity
  8
$DDT_AUDIT_GENERATED_(C2)
  6
Continuous
 62
     7
100
AcDbLine
 10
69.45
 20
725.6701835267
 30
0.0
 11
69.45
 21
725.8951345811
 31
0.0
  0
LINE
  5
29E
330
72
100
AcDbEntity
  8
$DDT_AUDIT_GENERATED_(C2)
  6
Continuous
 62
     7
100
AcDbLine
 10
69.45
 20
725.8951345811
 30
0.0
 11
70.45
 21
725.8951345811
 31
0.0
  0
LINE
  5
29F
330
72
100
AcDbEntity
  8
$DDT_AUDIT_GENERATED_(C2)
  6
Continuous
 62
     7
100
AcDbLine
 10
70.45
 20
725.4002422615
 30
0.0
 11
69.45
 21
725.4002422615
 31
0.0
  0
LINE
  5
2A0
330
72
100
AcDbEntity
  8
$DDT_AUDIT_GENERATED_(C2)
  6
Continuous
 62
     7
100
AcDbLine
 10
70.45
 20
725.6251933158
 30
0.0
 11
70.45
 21
725.4002422615
 31
0.0
  0
LINE
  5
2A1
330
72
100
AcDbEntity
  8
$DDT_AUDIT_GENERATED_(C2)
  6
Continuous
 62
     7
100
AcDbLine
 10
69.45
 20
725.4002422615
 30
0.0
 11
69.45
 21
725.6251933158
 31
0.0
  0
LINE
  5
2A2
330
72
100
AcDbEntity
  8
$DDT_AUDIT_GENERATED_(C2)
  6
Continuous
 62
     7
100
AcDbLine
 10
69.45
 20
725.6251933158
 30
0.0
 11
70.45
 21
725.6251933158
 31
0.0
  0
LINE
  5
2A3
330
72
100
AcDbEntity
  8
$DDT_AUDIT_GENERATED_(C2)
  6
Continuous
 62
     7
100
AcDbLine
 10
71.65
 20
726.7499485876
 30
0.0
 11
70.65
 21
726.7499485876
 31
0.0
  0
LINE
  5
2A4
330
72
100
AcDbEntity
  8
$DDT_AUDIT_GENERATED_(C2)
  6
Continuous
 62
     7
100
AcDbLine
 10
71.65
 20
726.7049583767
 30
0.0
 11
71.65
 21
726.4800073223
 31
0.0
  0
LINE
  5
2A5
330
72
100
AcDbEntity
  8
$DDT_AUDIT_GENERATED_(C2)
  6
Continuous
 62
     7
100
AcDbLine
 10
71.65
 20
726.4800073223
 30
0.0
 11
70.65
 21
726.4800073223
 31
0.0
  0
LINE
  5
2A6
330
72
100
AcDbEntity
  8
$DDT_AUDIT_GENERATED_(C2)
  6
Continuous
 62
     7
100
AcDbLine
 10
70.65
 20
726.4800073223
 30
0.0
 11
70.65
 21
726.7049583767
 31
0.0
  0
LINE
  5
2A7
330
72
100
AcDbEntity
  8
$DDT_AUDIT_GENERATED_(C2)
  6
Continuous
 62
     7
100
AcDbLine
 10
70.65
 20
726.7049583767
 30
0.0
 11
71.65
 21
726.7049583767
 31
0.0
  0
LINE
  5
2A8
330
72
100
AcDbEntity
  8
$DDT_AUDIT_GENERATED_(C2)
  6
Continuous
 62
     7
100
AcDbLine
 10
71.65
 20
726.4350171115
 30
0.0
 11
71.65
 21
726.2100660571
 31
0.0
  0
LINE
  5
2A9
330
72
100
AcDbEntity
  8
$DDT_AUDIT_GENERATED_(C2)
  6
Continuous
 62
     7
100
AcDbLine
 10
71.65
 20
726.2100660571
 30
0.0
 11
70.65
 21
726.2100660571
 31
0.0
  0
LINE
  5
2AA
330
72
100
AcDbEntity
  8
$DDT_AUDIT_GENERATED_(C2)
  6
Continuous
 62
     7
100
AcDbLine
 10
70.65
 20
726.2100660571
 30
0.0
 11
70.65
 21
726.4350171115
 31
0.0
  0
LINE
  5
2AB
330
72
100
AcDbEntity
  8
$DDT_AUDIT_GENERATED_(C2)
  6
Continuous
 62
     7
100
AcDbLine
 10
70.65
 20
726.4350171115
 30
0.0
 11
71.65
 21
726.4350171115
 31
0.0
  0
LINE
  5
2AC
330
72
100
AcDbEntity
  8
$DDT_AUDIT_GENERATED_(C2)
  6
Continuous
 62
     7
100
AcDbLine
 10
71.65
 20
726.1650758463
 30
0.0
 11
71.65
 21
725.9401247919
 31
0.0
  0
LINE
  5
2AD
330
72
100
AcDbEntity
  8
$DDT_AUDIT_GENERATED_(C2)
  6
Continuous
 62
     7
100
AcDbLine
 10
71.65
 20
725.9401247919
 30
0.0
 11
70.65
 21
725.9401247919
 31
0.0
  0
LINE
  5
2AE
330
72
100
AcDbEntity
  8
$DDT_AUDIT_GENERATED_(C2)
  6
Continuous
 62
     7
100
AcDbLine
 10
70.65
 20
725.9401247919
 30
0.0
 11
70.65
 21
726.1650758463
 31
0.0
  0
LINE
  5
2AF
330
72
100
AcDbEntity
  8
$DDT_AUDIT_GENERATED_(C2)
  6
Continuous
 62
     7
100
AcDbLine
 10
70.65
 20
726.1650758463
 30
0.0
 11
71.65
 21
726.1650758463
 31
0.0
  0
LINE
  5
2B0
330
72
100
AcDbEntity
  8
$DDT_AUDIT_GENERATED_(C2)
  6
Continuous
 62
     7
100
AcDbLine
 10
71.65
 20
725.8951345811
 30
0.0
 11
71.65
 21
725.6701835267
 31
0.0
  0
LINE
  5
2B1
330
72
100
AcDbEntity
  8
$DDT_AUDIT_GENERATED_(C2)
  6
Continuous
 62
     7
100
AcDbLine
 10
71.65
 20
725.6701835267
 30
0.0
 11
70.65
 21
725.6701835267
 31
0.0
  0
LINE
  5
2B2
330
72
100
AcDbEntity
  8
$DDT_AUDIT_GENERATED_(C2)
  6
Continuous
 62
     7
100
AcDbLine
 10
70.65
 20
725.6701835267
 30
0.0
 11
70.65
 21
725.8951345811
 31
0.0
  0
LINE
  5
2B3
330
72
100
AcDbEntity
  8
$DDT_AUDIT_GENERATED_(C2)
  6
Continuous
 62
     7
100
AcDbLine
 10
70.65
 20
725.8951345811
 30
0.0
 11
71.65
 21
725.8951345811
 31
0.0
  0
LINE
  5
2B4
330
72
100
AcDbEntity
  8
$DDT_AUDIT_GENERATED_(C2)
  6
Continuous
 62
     7
100
AcDbLine
 10
72.85
 20
726.7499485876
 30
0.0
 11
71.85
 21
726.7499485876
 31
0.0
  0
LINE
  5
2B5
330
72
100
AcDbEntity
  8
$DDT_AUDIT_GENERATED_(C2)
  6
Continuous
 62
     7
100
AcDbLine
 10
72.85
 20
726.7049583767
 30
0.0
 11
72.85
 21
726.4800073223
 31
0.0
  0
LINE
  5
2B6
330
72
100
AcDbEntity
  8
$DDT_AUDIT_GENERATED_(C2)
  6
Continuous
 62
     7
100
AcDbLine
 10
72.85
 20
726.4800073223
 30
0.0
 11
71.85
 21
726.4800073223
 31
0.0
  0
LINE
  5
2B7
330
72
100
AcDbEntity
  8
$DDT_AUDIT_GENERATED_(C2)
  6
Continuous
 62
     7
100
AcDbLine
 10
71.85
 20
726.4800073223
 30
0.0
 11
71.85
 21
726.7049583767
 31
0.0
  0
LINE
  5
2B8
330
72
100
AcDbEntity
  8
$DDT_AUDIT_GENERATED_(C2)
  6
Continuous
 62
     7
100
AcDbLine
 10
71.85
 20
726.7049583767
 30
0.0
 11
72.85
 21
726.7049583767
 31
0.0
  0
LINE
  5
2B9
330
72
100
AcDbEntity
  8
$DDT_AUDIT_GENERATED_(C2)
  6
Continuous
 62
     7
100
AcDbLine
 10
72.85
 20
726.4350171115
 30
0.0
 11
72.85
 21
726.2100660571
 31
0.0
  0
LINE
  5
2BA
330
72
100
AcDbEntity
  8
$DDT_AUDIT_GENERATED_(C2)
  6
Continuous
 62
     7
100
AcDbLine
 10
72.85
 20
726.2100660571
 30
0.0
 11
71.85
 21
726.2100660571
 31
0.0
  0
LINE
  5
2BB
330
72
100
AcDbEntity
  8
$DDT_AUDIT_GENERATED_(C2)
  6
Continuous
 62
     7
100
AcDbLine
 10
71.85
 20
726.2100660571
 30
0.0
 11
71.85
 21
726.4350171115
 31
0.0
  0
LINE
  5
2BC
330
72
100
AcDbEntity
  8
$DDT_AUDIT_GENERATED_(C2)
  6
Continuous
 62
     7
100
AcDbLine
 10
71.85
 20
726.4350171115
 30
0.0
 11
72.85
 21
726.4350171115
 31
0.0
  0
LINE
  5
2BD
330
72
100
AcDbEntity
  8
$DDT_AUDIT_GENERATED_(C2)
  6
Continuous
 62
     7
100
AcDbLine
 10
72.85
 20
726.1650758463
 30
0.0
 11
72.85
 21
725.9401247919
 31
0.0
  0
LINE
  5
2BE
330
72
100
AcDbEntity
  8
$DDT_AUDIT_GENERATED_(C2)
  6
Continuous
 62
     7
100
AcDbLine
 10
72.85
 20
725.9401247919
 30
0.0
 11
71.85
 21
725.9401247919
 31
0.0
  0
LINE
  5
2BF
330
72
100
AcDbEntity
  8
$DDT_AUDIT_GENERATED_(C2)
  6
Continuous
 62
     7
100
AcDbLine
 10
71.85
 20
725.9401247919
 30
0.0
 11
71.85
 21
726.1650758463
 31
0.0
  0
LINE
  5
2C0
330
72
100
AcDbEntity
  8
$DDT_AUDIT_GENERATED_(C2)
  6
Continuous
 62
     7
100
AcDbLine
 10
71.85
 20
726.1650758463
 30
0.0
 11
72.85
 21
726.1650758463
 31
0.0
  0
LINE
  5
2C1
330
72
100
AcDbEntity
  8
$DDT_AUDIT_GENERATED_(C2)
  6
Continuous
 62
     7
100
AcDbLine
 10
74.05
 20
726.7499485876
 30
0.0
 11
73.05
 21
726.7499485876
 31
0.0
  0
LINE
  5
2C2
330
72
100
AcDbEntity
  8
$DDT_AUDIT_GENERATED_(C2)
  6
Continuous
 62
     7
100
AcDbLine
 10
74.05
 20
726.7049583767
 30
0.0
 11
74.05
 21
726.4800073223
 31
0.0
  0
LINE
  5
2C3
330
72
100
AcDbEntity
  8
$DDT_AUDIT_GENERATED_(C2)
  6
Continuous
 62
     7
100
AcDbLine
 10
74.05
 20
726.4800073223
 30
0.0
 11
73.05
 21
726.4800073223
 31
0.0
  0
LINE
  5
2C4
330
72
100
AcDbEntity
  8
$DDT_AUDIT_GENERATED_(C2)
  6
Continuous
 62
     7
100
AcDbLine
 10
73.05
 20
726.4800073223
 30
0.0
 11
73.05
 21
726.7049583767
 31
0.0
  0
LINE
  5
2C5
330
72
100
AcDbEntity
  8
$DDT_AUDIT_GENERATED_(C2)
  6
Continuous
 62
     7
100
AcDbLine
 10
73.05
 20
726.7049583767
 30
0.0
 11
74.05
 21
726.7049583767
 31
0.0
  0
LINE
  5
2C6
330
72
100
AcDbEntity
  8
$DDT_AUDIT_GENERATED_(C2)
  6
Continuous
 62
     7
100
AcDbLine
 10
74.05
 20
726.4350171115
 30
0.0
 11
74.05
 21
726.2100660571
 31
0.0
  0
LINE
  5
2C7
330
72
100
AcDbEntity
  8
$DDT_AUDIT_GENERATED_(C2)
  6
Continuous
 62
     7
100
AcDbLine
 10
74.05
 20
726.2100660571
 30
0.0
 11
73.05
 21
726.2100660571
 31
0.0
  0
LINE
  5
2C8
330
72
100
AcDbEntity
  8
$DDT_AUDIT_GENERATED_(C2)
  6
Continuous
 62
     7
100
AcDbLine
 10
73.05
 20
726.2100660571
 30
0.0
 11
73.05
 21
726.4350171115
 31
0.0
  0
LINE
  5
2C9
330
72
100
AcDbEntity
  8
$DDT_AUDIT_GENERATED_(C2)
  6
Continuous
 62
     7
100
AcDbLine
 10
73.05
 20
726.4350171115
 30
0.0
 11
74.05
 21
726.4350171115
 31
0.0
  0
LINE
  5
2CA
330
72
100
AcDbEntity
  8
$DDT_AUDIT_GENERATED_(C2)
  6
Continuous
 62
     7
100
AcDbLine
 10
74.4300876929
 20
726.7499485876
 30
0.0
 11
74.25
 21
726.7499485876
 31
0.0
  0
LINE
  5
2CB
330
72
100
AcDbEntity
  8
$DDT_AUDIT_GENERATED_(C2)
  6
Continuous
 62
     7
100
AcDbLine
 10
74.4229486559
 20
726.4800073223
 30
0.0
 11
74.4229486559
 21
726.7049583767
 31
0.0
  0
LINE
  5
2CC
330
72
100
AcDbEntity
  8
$DDT_AUDIT_GENERATED_(C2)
  6
Continuous
 62
     7
100
AcDbLine
 10
74.4229486559
 20
726.4800073223
 30
0.0
 11
74.25
 21
726.4800073223
 31
0.0
  0
LINE
  5
2CD
330
72
100
AcDbEntity
  8
$DDT_AUDIT_GENERATED_(C2)
  6
Continuous
 62
     7
100
AcDbLine
 10
74.25
 20
726.4800073223
 30
0.0
 11
74.25
 21
726.7049583767
 31
0.0
  0
LINE
  5
2CE
330
72
100
AcDbEntity
  8
$DDT_AUDIT_GENERATED_(C2)
  6
Continuous
 62
     7
100
AcDbLine
 10
74.25
 20
726.7049583767
 30
0.0
 11
74.4687506613
 21
726.7049583767
 31
0.0
  0
ELLIPSE
  5
2CF
330
72
100
AcDbEntity
  8
$DDT_AUDIT_GENERATED_(C2)
  6
Continuous
 62
     7
100
AcDbEllipse
 10
66.349999694
 20
726.8624241302
 30
0.0
 11
8.250000306094748
 21
-1.586623367411111E-8
 31
0.0
210
0.0
220
0.0
230
1.0
 40
0.2249510505
 41
-0.2323890677662837
 42
-0.2075474462402278
  0
LINE
  5
2D0
330
72
100
AcDbEntity
  8
$DDT_AUDIT_GENERATED_(C2)
  6
Continuous
 62
     7
100
AcDbLine
 10
74.25
 20
726.3276032787
 30
0.0
 11
74.25
 21
726.4350171115
 31
0.0
  0
LINE
  5
2D1
330
72
100
AcDbEntity
  8
$DDT_AUDIT_GENERATED_(C2)
  6
Continuous
 62
     7
100
AcDbLine
 10
74.25
 20
726.4350171115
 30
0.0
 11
74.3782314366
 21
726.4350171115
 31
0.0
  0
ELLIPSE
  5
2D2
330
72
100
AcDbEntity
  8
$DDT_AUDIT_GENERATED_(C2)
  6
Continuous
 62
     7
100
AcDbEllipse
 10
66.3499999995
 20
726.8624241148
 30
0.0
 11
8.250000000464906
 21
-3.649164304064811E-11
 31
0.0
210
0.0
220
0.0
230
1.0
 40
0.2249510543
 41
-0.3852141216504528
 42
-0.2923273931444914
  0
LINE
  5
2D3
330
72
100
AcDbEntity
  8
$DDT_AUDIT_GENERATED_(C2)
  6
Continuous
 62
     7
100
AcDbLine
 10
73.5090851371
 20
725.9401247919
 30
0.0
 11
73.5090851371
 21
726.1650758463
 31
0.0
  0
LINE
  5
2D4
330
72
100
AcDbEntity
  8
$DDT_AUDIT_GENERATED_(C2)
  6
Continuous
 62
     7
100
AcDbLine
 10
73.5090851371
 20
725.9401247919
 30
0.0
 11
73.05
 21
725.9401247919
 31
0.0
  0
LINE
  5
2D5
330
72
100
AcDbEntity
  8
$DDT_AUDIT_GENERATED_(C2)
  6
Continuous
 62
     7
100
AcDbLine
 10
73.05
 20
725.9401247919
 30
0.0
 11
73.05
 21
726.1650758463
 31
0.0
  0
LINE
  5
2D6
330
72
100
AcDbEntity
  8
$DDT_AUDIT_GENERATED_(C2)
  6
Continuous
 62
     7
100
AcDbLine
 10
73.05
 20
726.1650758463
 30
0.0
 11
73.9954234677
 21
726.1650758463
 31
0.0
  0
ELLIPSE
  5
2D7
330
72
100
AcDbEntity
  8
$DDT_AUDIT_GENERATED_(C2)
  6
Continuous
 62
     7
100
AcDbEllipse
 10
66.3500000533
 20
726.8624241057
 30
0.0
 11
8.249999945348987
 21
7.584401856552958E-9
 31
0.0
210
0.0
220
0.0
230
1.0
 40
0.2249510546
 41
-0.6634394364637775
 42
-0.6230179618862826
  0
LINE
  5
2D8
330
72
100
AcDbEntity
  8
$DDT_AUDIT_GENERATED_(C2)
  6
Continuous
 62
     7
100
AcDbLine
 10
72.6723808806
 20
725.6701835267
 30
0.0
 11
72.6723808806
 21
725.8951345811
 31
0.0
  0
LINE
  5
2D9
330
72
100
AcDbEntity
  8
$DDT_AUDIT_GENERATED_(C2)
  6
Continuous
 62
     7
100
AcDbLine
 10
72.6723808806
 20
725.6701835267
 30
0.0
 11
71.85
 21
725.6701835267
 31
0.0
  0
LINE
  5
2DA
330
72
100
AcDbEntity
  8
$DDT_AUDIT_GENERATED_(C2)
  6
Continuous
 62
     7
100
AcDbLine
 10
71.85
 20
725.6701835267
 30
0.0
 11
71.85
 21
725.8951345811
 31
0.0
  0
LINE
  5
2DB
330
72
100
AcDbEntity
  8
$DDT_AUDIT_GENERATED_(C2)
  6
Continuous
 62
     7
100
AcDbLine
 10
71.85
 20
725.8951345811
 30
0.0
 11
72.85
 21
725.8951345811
 31
0.0
  0
LINE
  5
2DC
330
72
100
AcDbEntity
  8
$DDT_AUDIT_GENERATED_(C2)
  6
Continuous
 62
     7
100
AcDbLine
 10
72.85
 20
725.8951345811
 30
0.0
 11
72.85
 21
725.7195377075
 31
0.0
  0
ELLIPSE
  5
2DD
330
72
100
AcDbEntity
  8
$DDT_AUDIT_GENERATED_(C2)
  6
Continuous
 62
     7
100
AcDbEllipse
 10
66.3499999642
 20
726.8624241195
 30
0.0
 11
8.250000036203625
 21
-4.311960510872126E-9
 31
0.0
210
0.0
220
0.0
230
1.0
 40
0.2249510541
 41
-0.5482706328242548
 42
-0.520103202076255
  0
LINE
  5
2DE
330
72
100
AcDbEntity
  8
$DDT_AUDIT_GENERATED_(C2)
  6
Continuous
 62
     7
100
AcDbLine
 10
73.05
 20
725.7795587117
 30
0.0
 11
73.05
 21
725.8951345811
 31
0.0
  0
LINE
  5
2DF
330
72
100
AcDbEntity
  8
$DDT_AUDIT_GENERATED_(C2)
  6
Continuous
 62
     7
100
AcDbLine
 10
73.05
 20
725.8951345811
 30
0.0
 11
73.3907741052
 21
725.8951345811
 31
0.0
  0
ELLIPSE
  5
2E0
330
72
100
AcDbEntity
  8
$DDT_AUDIT_GENERATED_(C2)
  6
Continuous
 62
     7
100
AcDbEllipse
 10
66.350000007
 20
726.8624241129
 30
0.0
 11
8.24999999236038
 21
1.254196399513852E-9
 31
0.0
210
0.0
220
0.0
230
1.0
 40
0.2249510543
 41
-0.8731388742945381
 42
-0.8410686709153197
  0
LINE
  5
2E1
330
72
100
AcDbEntity
  8
$DDT_AUDIT_GENERATED_(C2)
  6
Continuous
 62
     7
100
AcDbLine
 10
71.4306003582
 20
725.4002422615
 30
0.0
 11
71.4306003582
 21
725.6251933158
 31
0.0
  0
LINE
  5
2E2
330
72
100
AcDbEntity
  8
$DDT_AUDIT_GENERATED_(C2)
  6
Continuous
 62
     7
100
AcDbLine
 10
71.4306003582
 20
725.4002422615
 30
0.0
 11
70.65
 21
725.4002422615
 31
0.0
  0
LINE
  5
2E3
330
72
100
AcDbEntity
  8
$DDT_AUDIT_GENERATED_(C2)
  6
Continuous
 62
     7
100
AcDbLine
 10
70.65
 20
725.4002422615
 30
0.0
 11
70.65
 21
725.6251933158
 31
0.0
  0
LINE
  5
2E4
330
72
100
AcDbEntity
  8
$DDT_AUDIT_GENERATED_(C2)
  6
Continuous
 62
     7
100
AcDbLine
 10
70.65
 20
725.6251933158
 30
0.0
 11
71.65
 21
725.6251933158
 31
0.0
  0
LINE
  5
2E5
330
72
100
AcDbEntity
  8
$DDT_AUDIT_GENERATED_(C2)
  6
Continuous
 62
     7
100
AcDbLine
 10
71.65
 20
725.6251933158
 30
0.0
 11
71.65
 21
725.4401978697
 31
0.0
  0
ELLIPSE
  5
2E6
330
72
100
AcDbEntity
  8
$DDT_AUDIT_GENERATED_(C2)
  6
Continuous
 62
     7
100
AcDbEllipse
 10
66.3499999077
 20
726.8624241327
 30
0.0
 11
8.250000095886211
 21
-1.430761412124504E-8
 31
0.0
210
0.0
220
0.0
230
1.0
 40
0.2249510541
 41
-0.7297276520558098
 42
-0.6976574489344305
  0
LINE
  5
2E7
330
72
100
AcDbEntity
  8
$DDT_AUDIT_GENERATED_(C2)
  6
Continuous
 62
     7
100
AcDbLine
 10
71.85
 20
725.4791580296
 30
0.0
 11
71.85
 21
725.6251933158
 31
0.0
  0
LINE
  5
2E8
330
72
100
AcDbEntity
  8
$DDT_AUDIT_GENERATED_(C2)
  6
Continuous
 62
     7
100
AcDbLine
 10
71.85
 20
725.6251933158
 30
0.0
 11
72.4991869381
 21
725.6251933158
 31
0.0
  0
LINE
  5
2E9
330
72
100
AcDbEntity
  8
$DDT_AUDIT_GENERATED_(C2)
  6
Continuous
 62
     7
100
AcDbLine
 10
69.25
 20
725.3552520506
 30
0.0
 11
69.25
 21
725.1303009963
 31
0.0
  0
LINE
  5
2EA
330
72
100
AcDbEntity
  8
$DDT_AUDIT_GENERATED_(C2)
  6
Continuous
 62
     7
100
AcDbLine
 10
69.25
 20
725.1303009963
 30
0.0
 11
68.25
 21
725.1303009963
 31
0.0
  0
LINE
  5
2EB
330
72
100
AcDbEntity
  8
$DDT_AUDIT_GENERATED_(C2)
  6
Continuous
 62
     7
100
AcDbLine
 10
68.25
 20
725.1303009963
 30
0.0
 11
68.25
 21
725.3552520506
 31
0.0
  0
LINE
  5
2EC
330
72
100
AcDbEntity
  8
$DDT_AUDIT_GENERATED_(C2)
  6
Continuous
 62
     7
100
AcDbLine
 10
68.25
 20
725.3552520506
 30
0.0
 11
69.25
 21
725.3552520506
 31
0.0
  0
ELLIPSE
  5
2ED
330
72
100
AcDbEntity
  8
$DDT_AUDIT_GENERATED_(C2)
  6
Continuous
 62
     7
100
AcDbEllipse
 10
66.3499999887
 20
726.862424119
 30
0.0
 11
8.250000013837781
 21
-2.286618810964924E-9
 31
0.0
210
0.0
220
0.0
230
1.0
 40
0.2249510545
 41
-1.050693122856496
 42
-1.022525692074904
  0
LINE
  5
2EE
330
72
100
AcDbEntity
  8
$DDT_AUDIT_GENERATED_(C2)
  6
Continuous
 62
     7
100
AcDbLine
 10
69.45
 20
725.1425780448
 30
0.0
 11
69.45
 21
725.3552520506
 31
0.0
  0
LINE
  5
2EF
330
72
100
AcDbEntity
  8
$DDT_AUDIT_GENERATED_(C2)
  6
Continuous
 62
     7
100
AcDbLine
 10
69.45
 20
725.3552520506
 30
0.0
 11
70.45
 21
725.3552520506
 31
0.0
  0
LINE
  5
2F0
330
72
100
AcDbEntity
  8
$DDT_AUDIT_GENERATED_(C2)
  6
Continuous
 62
     7
100
AcDbLine
 10
70.45
 20
725.3552520506
 30
0.0
 11
70.45
 21
725.251980365
 31
0.0
  0
ELLIPSE
  5
2F1
330
72
100
AcDbEntity
  8
$DDT_AUDIT_GENERATED_(C2)
  6
Continuous
 62
     7
100
AcDbEllipse
 10
66.3500000069
 20
726.8624241126
 30
0.0
 11
8.249999992149888
 21
1.312895972493955E-9
 31
0.0
210
0.0
220
0.0
230
1.0
 40
0.2249510543
 41
-0.9477783673537745
 42
-0.9073568929111637
  0
LINE
  5
2F2
330
72
100
AcDbEntity
  8
$DDT_AUDIT_GENERATED_(C2)
  6
Continuous
 62
     7
100
AcDbLine
 10
70.65
 20
725.2785945564
 30
0.0
 11
70.65
 21
725.3552520506
 31
0.0
  0
LINE
  5
2F3
330
72
100
AcDbEntity
  8
$DDT_AUDIT_GENERATED_(C2)
  6
Continuous
 62
     7
100
AcDbLine
 10
70.65
 20
725.3552520506
 30
0.0
 11
71.1637822967
 21
725.3552520506
 31
0.0
  0
ELLIPSE
  5
2F4
330
72
100
AcDbEntity
  8
$DDT_AUDIT_GENERATED_(C2)
  6
Continuous
 62
     7
100
AcDbEllipse
 10
66.3499999772
 20
726.8624241853
 30
0.0
 11
8.250000158149085
 21
-5.429377433752158E-9
 31
0.0
210
0.0
220
0.0
230
1.0
 40
0.2249510586
 41
-1.51015310100584
 42
-1.485845701615167
  0
LINE
  5
2F5
330
72
100
AcDbEntity
  8
$DDT_AUDIT_GENERATED_(C2)
  6
Continuous
 62
     7
100
AcDbLine
 10
66.85
 20
725.0853107854
 30
0.0
 11
66.85
 21
725.0099894013
 31
0.0
  0
ELLIPSE
  5
2F6
330
72
100
AcDbEntity
  8
$DDT_AUDIT_GENERATED_(C2)
  6
Continuous
 62
     7
100
AcDbEllipse
 10
66.3499999349
 20
726.8624241804
 30
0.0
 11
8.250000156635533
 21
-1.505170987847748E-8
 31
0.0
210
0.0
220
0.0
230
1.0
 40
0.224951058
 41
-1.363248871834315
 42
-1.33840725028641
  0
LINE
  5
2F7
330
72
100
AcDbEntity
  8
$DDT_AUDIT_GENERATED_(C2)
  6
Continuous
 62
     7
100
AcDbLine
 10
67.05
 20
725.0132703479
 30
0.0
 11
67.05
 21
725.0853107854
 31
0.0
  0
LINE
  5
2F8
330
72
100
AcDbEntity
  8
$DDT_AUDIT_GENERATED_(C2)
  6
Continuous
 62
     7
100
AcDbLine
 10
67.05
 20
725.0853107854
 30
0.0
 11
68.05
 21
725.0853107854
 31
0.0
  0
LINE
  5
2F9
330
72
100
AcDbEntity
  8
$DDT_AUDIT_GENERATED_(C2)
  6
Continuous
 62
     7
100
AcDbLine
 10
68.05
 20
725.0853107854
 30
0.0
 11
68.05
 21
725.0464058029
 31
0.0
  0
ELLIPSE
  5
2FA
330
72
100
AcDbEntity
  8
$DDT_AUDIT_GENERATED_(C2)
  6
Continuous
 62
     7
100
AcDbEllipse
 10
66.3500000006
 20
726.8624241144
 30
0.0
 11
8.249999999078147
 21
1.238766034195038E-10
 31
0.0
210
0.0
220
0.0
230
1.0
 40
0.2249510543
 41
-1.278468933681319
 42
-1.185582205163254
  0
LINE
  5
2FB
330
72
100
AcDbEntity
  8
$DDT_AUDIT_GENERATED_(C2)
  6
Continuous
 62
     7
100
AcDbLine
 10
68.25
 20
725.0564649885
 30
0.0
 11
68.25
 21
725.0853107854
 31
0.0
  0
LINE
  5
2FC
330
72
100
AcDbEntity
  8
$DDT_AUDIT_GENERATED_(C2)
  6
Continuous
 62
     7
100
AcDbLine
 10
68.25
 20
725.0853107854
 30
0.0
 11
68.7274986856
 21
725.0853107854
 31
0.0
  0
LINE
  5
2FD
330
72
100
AcDbEntity
  8
$DDT_AUDIT_GENERATED_(C2)
  6
Continuous
 62
     7
100
AcDbLine
 10
75.75
 20
726.3752390823
 30
0.0
 11
75.75
 21
727.0601748116
 31
0.0
  0
LINE
  5
2FE
330
72
100
AcDbEntity
  8
$DDT_AUDIT_GENERATED_(C2)
  6
Continuous
 62
     7
100
AcDbLine
 10
56.95
 20
727.0601748116
 30
0.0
 11
56.95
 21
726.3752390823
 31
0.0
  0
ENDBLK
  5
300
330
72
100
AcDbEntity
  8
0
100
AcDbBlockEnd
  0
BLOCK
  5
342
330
301
100
AcDbEntity
  8
0
100
AcDbBlockBegin
  2
SE1
 70
     0
 10
0.0
 20
0.0
 30
0.0
  3
SE1
  1

  0
LINE
  5
303
330
301
100
AcDbEntity
  8
$DDT_AUDIT_GENERATED_(74)
  6
Continuous
 62
     7
100
AcDbLine
 10
248.2265337795
 20
701.8599476265
 30
0.0
 11
248.2265337795
 21
641.9621179497
 31
0.0
  0
LINE
  5
304
330
301
100
AcDbEntity
  8
$DDT_AUDIT_GENERATED_(74)
  6
Continuous
 62
     7
100
AcDbLine
 10
248.2265337795
 20
776.8599476265
 30
0.0
 11
248.2265337795
 21
701.8599476265
 31
0.0
  0
LINE
  5
305
330
301
100
AcDbEntity
  8
$DDT_AUDIT_GENERATED_(74)
  6
Continuous
 62
     7
100
AcDbLine
 10
248.2265337795
 20
836.8599476265
 30
0.0
 11
248.2265337795
 21
776.8599476265
 31
0.0
  0
SPLINE
  5
306
330
301
100
AcDbEntity
  8
$DDT_AUDIT_GENERATED_(74)
  6
Continuous
 62
     7
100
AcDbSpline
210
0.0
220
0.0
230
1.0
 70
     8
 71
     3
 72
    28
 73
    24
 74
     0
 42
0.0000000000850086
 43
0.0000000001
 40
0.0
 40
0.0
 40
0.0
 40
0.0
 40
0.0625000000000001
 40
0.0625000000000001
 40
0.0937500000000001
 40
0.0937500000000001
 40
0.1250000000000001
 40
0.1250000000000001
 40
0.1875000000000001
 40
0.1875000000000001
 40
0.2500000000000001
 40
0.2500000000000001
 40
0.3125000000000001
 40
0.3125000000000001
 40
0.3437500000000001
 40
0.3437500000000001
 40
0.3750000000000001
 40
0.3750000000000001
 40
0.4375
 40
0.4375
 40
0.4999999999999999
 40
0.4999999999999999
 40
0.5002156706147566
 40
0.5002156706147566
 40
0.5002156706147566
 40
0.5002156706147566
 10
258.7579927258731
 20
701.8589060195865
 30
0.0
 10
258.7539478385312
 20
697.9716917555955
 30
0.0
 10
258.7519516288677
 20
694.1494891586759
 30
0.0
 10
258.7495523695027
 20
688.5096660125132
 30
0.0
 10
258.7488828308526
 20
686.6454217423785
 30
0.0
 10
258.7476580659837
 20
682.949042394422
 30
0.0
 10
258.7471038781596
 20
681.1118734118238
 30
0.0
 10
258.7455403948571
 20
675.7677383018739
 30
0.0
 10
258.7445932971042
 20
672.3881886986084
 30
0.0
 10
258.7428819587124
 20
665.9922241585488
 30
0.0
 10
258.7420950531901
 20
662.9638670664174
 30
0.0
 10
258.7407561178367
 20
657.5357172751293
 30
0.0
 10
258.7402141915457
 20
655.0999463377874
 30
0.0
 10
258.7395325961851
 20
651.8736670539631
 30
0.0
 10
258.7393353957766
 20
650.8718927751635
 30
0.0
 10
258.7390084477848
 20
649.056307240853
 30
0.0
 10
258.7388748321057
 20
648.2361893255891
 30
0.0
 10
258.7385307459405
 20
646.0348612161549
 30
0.0
 10
258.7384135543274
 20
644.9052276129886
 30
0.0
 10
258.7383029182892
 20
643.3928665189352
 30
0.0
 10
258.7383203442779
 20
643.0185989240057
 30
0.0
 10
258.7383206374207
 20
643.0159996518912
 30
0.0
 10
258.7383206382136
 20
643.0159952826879
 30
0.0
 10
258.738320638795
 20
643.0159954822008
 30
0.0
  0
SPLINE
  5
307
330
301
100
AcDbEntity
  8
$DDT_AUDIT_GENERATED_(74)
  6
Continuous
 62
     7
100
AcDbSpline
210
0.0
220
0.0
230
1.0
 70
     8
 71
     3
 72
    26
 73
    22
 74
     0
 42
0.0000000000849353
 43
0.0000000001
 40
0.5002156706147584
 40
0.5002156706147584
 40
0.5002156706147584
 40
0.5002156706147584
 40
0.5625000000000007
 40
0.5625000000000007
 40
0.6250000000000007
 40
0.6250000000000007
 40
0.6562500000000007
 40
0.6562500000000007
 40
0.6875000000000006
 40
0.6875000000000006
 40
0.7500000000000004
 40
0.7500000000000004
 40
0.8125000000000004
 40
0.8125000000000004
 40
0.8437500000000003
 40
0.8437500000000003
 40
0.8750000000000003
 40
0.8750000000000003
 40
0.9375000000000002
 40
0.9375000000000002
 40
1.0
 40
1.0
 40
1.0
 40
1.0
 10
258.738320638795
 20
835.7038997708742
 30
0.0
 10
258.7383208067077
 20
835.7038421527667
 30
0.0
 10
258.738303338134
 20
835.3227451847672
 30
0.0
 10
258.7384126314453
 20
833.8258317171177
 30
0.0
 10
258.7385263666158
 20
832.7160569571395
 30
0.0
 10
258.7388707361804
 20
830.5084477955778
 30
0.0
 10
258.7390063257446
 20
829.6759738814329
 30
0.0
 10
258.7393340201197
 20
827.8550461736227
 30
0.0
 10
258.7395285191321
 20
826.8667262460451
 30
0.0
 10
258.7402023124405
 20
823.6738310839063
 30
0.0
 10
258.7407418890617
 20
821.2435448363447
 30
0.0
 10
258.742094606723
 20
815.7561740540259
 30
0.0
 10
258.7428689673961
 20
812.7783903093633
 30
0.0
 10
258.7441464234559
 20
808.0008037757907
 30
0.0
 10
258.7445980941292
 20
806.3546698715388
 30
0.0
 10
258.7455535236605
 20
802.9529545216902
 30
0.0
 10
258.7460562215255
 20
801.1894169603929
 30
0.0
 10
258.7476202752841
 20
795.842123603298
 30
0.0
 10
258.7487235817341
 20
792.174824860409
 30
0.0
 10
258.7519160578262
 20
784.6379454964788
 30
0.0
 10
258.7539478518972
 20
780.7481906524935
 30
0.0
 10
258.7579927258731
 20
776.8609892334885
 30
0.0
  0
ARC
  5
308
330
301
100
AcDbEntity
  8
$DDT_AUDIT_GENERATED_(74)
  6
Continuous
 62
     7
100
AcDbCircle
 10
7463.9727162874
 20
805.2808833457
 30
0.0
 40
7204.884404573694
100
AcDbArc
 50
180.160804217
 51
180.2912238346
  0
SPLINE
  5
309
330
301
100
AcDbEntity
  8
$DDT_AUDIT_GENERATED_(74)
  6
Continuous
 62
     7
100
AcDbSpline
210
0.0
220
0.0
230
1.0
 70
     8
 71
     3
 72
    38
 73
    34
 74
     0
 42
0.0000000001080033
 43
0.0000000001
 40
0.0
 40
0.0
 40
0.0
 40
0.0
 40
0.03125
 40
0.03125
 40
0.0624999999999999
 40
0.0624999999999999
 40
0.0937499999999999
 40
0.0937499999999999
 40
0.1249999999999999
 40
0.1249999999999999
 40
0.15625
 40
0.15625
 40
0.1875
 40
0.1875
 40
0.2500000000000001
 40
0.2500000000000001
 40
0.2812500000000001
 40
0.2812500000000001
 40
0.3125000000000001
 40
0.3125000000000001
 40
0.3437500000000001
 40
0.3437500000000001
 40
0.3750000000000002
 40
0.3750000000000002
 40
0.4062500000000001
 40
0.4062500000000001
 40
0.4375000000000001
 40
0.4375000000000001
 40
0.4687500000000001
 40
0.4687500000000001
 40
0.5000000000000001
 40
0.5000000000000001
 40
0.5000563943211683
 40
0.5000563943211683
 40
0.5000563943211683
 40
0.5000563943211683
 10
259.1983463944451
 20
762.5099476265375
 30
0.0
 10
259.1983463944451
 20
762.5099476265375
 30
0.0
 10
259.1977805283113
 20
762.3598772977119
 30
0.0
 10
259.1956464700459
 20
761.7718710149845
 30
0.0
 10
259.1940531652937
 20
761.3268027426412
 30
0.0
 10
259.1900697129186
 20
760.1648234794407
 30
0.0
 10
259.1876982488918
 20
759.4537589951593
 30
0.0
 10
259.1824043259695
 20
757.7738109814375
 30
0.0
 10
259.17945812367
 20
756.7959863253966
 30
0.0
 10
259.1735191662357
 20
754.6600119852274
 30
0.0
 10
259.1704987500993
 20
753.4945454187282
 30
0.0
 10
259.1646968619868
 20
750.9639996182295
 30
0.0
 10
259.1619654979731
 20
749.6165060237347
 30
0.0
 10
259.155033707311
 20
745.4380810986985
 30
0.0
 10
259.1521118707797
 20
742.3917294396243
 30
0.0
 10
259.1521008341028
 20
737.8624962082381
 30
0.0
 10
259.1528005288961
 20
736.3290498013668
 30
0.0
 10
259.155410462887
 20
733.3599770055357
 30
0.0
 10
259.1573026303843
 20
731.91690294893
 30
0.0
 10
259.1619431184506
 20
729.114140957782
 30
0.0
 10
259.1646940022123
 20
727.7582036679834
 30
0.0
 10
259.1704417569896
 20
725.249158159
 30
0.0
 10
259.1734648727207
 20
724.0797674080923
 30
0.0
 10
259.1794738691262
 20
721.9178910642204
 30
0.0
 10
259.18236903439
 20
720.957726688587
 30
0.0
 10
259.1876513926013
 20
719.2805690873449
 30
0.0
 10
259.1900672080303
 20
718.5558092841006
 30
0.0
 10
259.1940536521271
 20
717.3929436731644
 30
0.0
 10
259.19562151631
 20
716.954970336935
 30
0.0
 10
259.1977716493525
 20
716.362395025695
 30
0.0
 10
259.1983443855249
 20
716.2104831278598
 30
0.0
 10
259.1983463926343
 20
716.2099481092068
 30
0.0
 10
259.1983463944498
 20
716.2099476224441
 30
0.0
 10
259.1983463944653
 20
716.2099476127015
 30
0.0
  0
SPLINE
  5
30A
330
301
100
AcDbEntity
  8
$DDT_AUDIT_GENERATED_(74)
  6
Continuous
 62
     7
100
AcDbSpline
210
0.0
220
0.0
230
1.0
 70
     8
 71
     3
 72
    12
 73
     8
 74
     0
 42
0.0000000010421067
 43
0.0000000001
 40
0.0
 40
0.0
 40
0.0
 40
0.0
 40
0.25
 40
0.25
 40
0.5
 40
0.5
 40
0.5002158422110231
 40
0.5002158422110231
 40
0.5002158422110231
 40
0.5002158422110231
 10
259.1497334056303
 20
701.8599476265375
 30
0.0
 10
259.1547150098381
 20
703.1282716009471
 30
0.0
 10
259.1599767080454
 20
704.3685217986706
 30
0.0
 10
259.1678256885987
 20
706.1397018258845
 30
0.0
 10
259.1702894294699
 20
706.6591003178978
 30
0.0
 10
259.1702933855882
 20
706.659947260787
 30
0.0
 10
259.1702933871957
 20
706.659947611352
 30
0.0
 10
259.1702933869988
 20
706.6599475819679
 30
0.0
  0
LINE
  5
30B
330
301
100
AcDbEntity
  8
$DDT_AUDIT_GENERATED_(74)
  6
Continuous
 62
     7
100
AcDbLine
 10
259.1125530091
 20
693.3599476265
 30
0.0
 11
259.1497334056
 21
701.8599476265
 31
0.0
  0
SPLINE
  5
30C
330
301
100
AcDbEntity
  8
$DDT_AUDIT_GENERATED_(74)
  6
Continuous
 62
     7
100
AcDbSpline
210
0.0
220
0.0
230
1.0
 70
     8
 71
     3
 72
    10
 73
     6
 74
     0
 42
0.000000001041206
 43
0.0000000001
 40
0.5002159921168803
 40
0.5002159921168803
 40
0.5002159921168803
 40
0.5002159921168803
 40
0.75
 40
0.75
 40
1.0
 40
1.0
 40
1.0
 40
1.0
 10
259.090802128308
 20
688.5599476711693
 30
0.0
 10
259.0908022268732
 20
688.5599822735204
 30
0.0
 10
259.0929321980414
 20
689.0688584034197
 30
0.0
 10
259.1008317856177
 20
690.8586294493936
 30
0.0
 10
259.1064386559029
 20
692.0916277202099
 30
0.0
 10
259.1125530091452
 20
693.3599476265374
 30
0.0
  0
ARC
  5
30D
330
301
100
AcDbEntity
  8
$DDT_AUDIT_GENERATED_(74)
  6
Continuous
 62
     7
100
AcDbCircle
 10
252.7723059806
 20
582.1512688018
 30
0.0
 40
59.8811786330585
100
AcDbArc
 50
87.6510775421
 51
91.0006713469
  0
LINE
  5
30E
330
301
100
AcDbEntity
  8
$DDT_AUDIT_GENERATED_(74)
  6
Continuous
 62
     7
100
AcDbLine
 10
251.7265337795
 20
642.0233149919
 30
0.0
 11
248.2265337795
 21
641.9621179497
 31
0.0
  0
LINE
  5
30F
330
301
100
AcDbEntity
  8
$DDT_AUDIT_GENERATED_(74)
  6
Continuous
 62
     7
100
AcDbLine
 10
257.7566989651
 20
836.6935979744
 30
0.0
 11
248.2265337795
 21
836.8599476265
 31
0.0
  0
ARC
  5
310
330
301
100
AcDbEntity
  8
$DDT_AUDIT_GENERATED_(74)
  6
Continuous
 62
     7
100
AcDbCircle
 10
257.7383719936
 20
643.0261297121
 30
0.0
 40
0.9999999999966366
100
AcDbArc
 50
271.4625919909
 51
359.9993663246
  0
ARC
  5
311
330
301
100
AcDbEntity
  8
$DDT_AUDIT_GENERATED_(74)
  6
Continuous
 62
     7
100
AcDbCircle
 10
257.7383719936
 20
835.693765541
 30
0.0
 40
0.999999999933471
100
AcDbArc
 50
0.0006336754
 51
89.4784884992
  0
SPLINE
  5
312
330
301
100
AcDbEntity
  8
$DDT_AUDIT_GENERATED_(74)
  6
Continuous
 62
     7
100
AcDbSpline
210
0.0
220
0.0
230
1.0
 70
     8
 71
     3
 72
     8
 73
     4
 74
     0
 42
0.0000000001982871
 43
0.0000000001
 40
0.0
 40
0.0
 40
0.0
 40
0.0
 40
0.9963092514053207
 40
0.9963092514053207
 40
0.9963092514053207
 40
0.9963092514053207
 10
259.1092637531259
 20
785.0599286027657
 30
0.0
 10
259.1246448608305
 20
787.1114463172053
 30
0.0
 10
259.0010721329185
 20
803.8595048904684
 30
0.0
 10
258.7385455693895
 20
835.3041043225553
 30
0.0
  0
LINE
  5
313
330
301
100
AcDbEntity
  8
$DDT_AUDIT_GENERATED_(74)
  6
Continuous
 62
     7
100
AcDbLine
 10
259.1671291235
 20
762.5098669698
 30
0.0
 11
259.1510908155
 21
768.7599752903
 31
0.0
  0
LINE
  5
314
330
301
100
AcDbEntity
  8
$DDT_AUDIT_GENERATED_(74)
  6
Continuous
 62
     7
100
AcDbLine
 10
259.1424649993
 20
706.5984502784
 30
0.0
 11
259.1673197604
 21
716.2843192687
 31
0.0
  0
LINE
  5
315
330
301
100
AcDbEntity
  8
$DDT_AUDIT_GENERATED_(74)
  6
Continuous
 62
     7
100
AcDbLine
 10
258.7383217284
 20
643.4163807864
 30
0.0
 11
259.0863273438
 21
688.6215520714
 31
0.0
  0
LINE
  5
316
330
301
100
AcDbEntity
  8
$DDT_AUDIT_GENERATED_(74)
  6
Continuous
 62
     7
100
AcDbLine
 10
255.1819284678
 20
641.9813544924
 30
0.0
 11
257.7566989651
 21
642.0262972786
 31
0.0
  0
LINE
  5
317
330
301
100
AcDbEntity
  8
$DDT_AUDIT_GENERATED_(8A)
  6
Continuous
 62
     7
100
AcDbLine
 10
277.9765337795
 20
784.2318402152
 30
0.0
 11
277.9765337795
 21
769.3501823028
 31
0.0
  0
ARC
  5
318
330
301
100
AcDbEntity
  8
$DDT_AUDIT_GENERATED_(8A)
  6
Continuous
 62
     7
100
AcDbCircle
 10
272.2265337795
 20
804.9084670479
 30
0.0
 40
5.749999999999991
100
AcDbArc
 50
0.0
 51
90.0
  0
ARC
  5
319
330
301
100
AcDbEntity
  8
$DDT_AUDIT_GENERATED_(8A)
  6
Continuous
 62
     7
100
AcDbCircle
 10
272.2265337795
 20
804.9084670479
 30
0.0
 40
5.749999999999991
100
AcDbArc
 50
90.0
 51
180.0
  0
LINE
  5
31A
330
301
100
AcDbEntity
  8
$DDT_AUDIT_GENERATED_(8A)
  6
Continuous
 62
     7
100
AcDbLine
 10
277.9765337795
 20
804.9084670479
 30
0.0
 11
277.9765337795
 21
784.2318402152
 31
0.0
  0
LINE
  5
31B
330
301
100
AcDbEntity
  8
$DDT_AUDIT_GENERATED_(8A)
  6
Continuous
 62
     7
100
AcDbLine
 10
272.2265337795
 20
809.6584349861
 30
0.0
 11
272.2265337795
 21
810.6584670479
 31
0.0
  0
LINE
  5
31C
330
301
100
AcDbEntity
  8
$DDT_AUDIT_GENERATED_(8A)
  6
Continuous
 62
     7
100
AcDbLine
 10
272.2265337795
 20
784.4496694371
 30
0.0
 11
272.2265337795
 21
768.7584670479
 31
0.0
  0
LINE
  5
31D
330
301
100
AcDbEntity
  8
$DDT_AUDIT_GENERATED_(8A)
  6
Continuous
 62
     7
100
AcDbLine
 10
266.4765337795
 20
785.2303884232
 30
0.0
 11
266.4765337795
 21
804.9084670479
 31
0.0
  0
LINE
  5
31E
330
301
100
AcDbEntity
  8
$DDT_AUDIT_GENERATED_(8A)
  6
Continuous
 62
     7
100
AcDbLine
 10
272.2265337795
 20
784.9181908082
 30
0.0
 11
272.2265337795
 21
809.6584349861
 31
0.0
  0
LINE
  5
31F
330
301
100
AcDbEntity
  8
$DDT_AUDIT_GENERATED_(8A)
  6
Continuous
 62
     7
100
AcDbLine
 10
272.2265337795
 20
784.4496694371
 30
0.0
 11
272.2265337795
 21
784.9181908082
 31
0.0
  0
ARC
  5
320
330
301
100
AcDbEntity
  8
$DDT_AUDIT_GENERATED_(8A)
  6
Continuous
 62
     7
100
AcDbCircle
 10
270.1385904396
 20
760.889852756
 30
0.0
 40
8.068428449350183
100
AcDbArc
 50
98.5052116849
 51
100.5913021276
  0
ARC
  5
321
330
301
100
AcDbEntity
  8
$DDT_AUDIT_GENERATED_(8A)
  6
Continuous
 62
     7
100
AcDbCircle
 10
270.1385904396
 20
760.889852756
 30
0.0
 40
8.068428449350183
100
AcDbArc
 50
77.4086691365
 51
80.6478085921
  0
LINE
  5
322
330
301
100
AcDbEntity
  8
$DDT_AUDIT_GENERATED_(8A)
  6
Continuous
 62
     7
100
AcDbLine
 10
272.2265337795
 20
768.7584670479
 30
0.0
 11
277.4852599828
 21
768.8502584552
 31
0.0
  0
LINE
  5
323
330
301
100
AcDbEntity
  8
$DDT_AUDIT_GENERATED_(8A)
  6
Continuous
 62
     7
100
AcDbLine
 10
265.9852599828
 20
784.8495252085
 30
0.0
 11
259.117650825
 21
784.7296506448
 31
0.0
  0
LINE
  5
324
330
301
100
AcDbEntity
  8
$DDT_AUDIT_GENERATED_(8A)
  6
Continuous
 62
     7
100
AcDbLine
 10
271.8837835557
 20
768.7644497753
 30
0.0
 11
272.2265337795
 21
768.7584670479
 31
0.0
  0
LINE
  5
325
330
301
100
AcDbEntity
  8
$DDT_AUDIT_GENERATED_(8A)
  6
Continuous
 62
     7
100
AcDbLine
 10
259.1797006337
 20
768.9862003676
 30
0.0
 11
268.6694273181
 21
768.8205565721
 31
0.0
  0
ARC
  5
326
330
301
100
AcDbEntity
  8
$DDT_AUDIT_GENERATED_(8A)
  6
Continuous
 62
     7
100
AcDbCircle
 10
277.4765337795
 20
769.3501823028
 30
0.0
 40
0.5000000000000023
100
AcDbArc
 50
271.0
 51
0.0
  0
ARC
  5
327
330
301
100
AcDbEntity
  8
$DDT_AUDIT_GENERATED_(8A)
  6
Continuous
 62
     7
100
AcDbCircle
 10
265.9765337795
 20
785.3494490561
 30
0.0
 40
0.5000000000000004
100
AcDbArc
 50
271.0
 51
0.0
  0
LINE
  5
328
330
301
100
AcDbEntity
  8
$DDT_AUDIT_GENERATED_(94)
  6
Continuous
 62
     7
100
AcDbLine
 10
271.4600184685
 20
768.8503173788
 30
0.0
 11
268.8077910091
 21
768.8503173788
 31
0.0
  0
LINE
  5
329
330
301
100
AcDbEntity
  8
490580DC5_AUSLAU
  6
Continuous
 62
     7
100
AcDbLine
 10
259.0765337795
 20
749.159947627
 30
0.0
 11
496.5739345311
 21
749.159947627
 31
0.0
  0
ARC
  5
32A
330
301
100
AcDbEntity
  8
490580DC5_AUSLAU
  6
Continuous
 62
     7
100
AcDbCircle
 10
478.4154618901
 20
709.5160310727
 30
0.0
 40
23.33932208421672
100
AcDbArc
 50
85.9251554308
 51
120.8173756975
  0
ARC
  5
32B
330
301
100
AcDbEntity
  8
490580DC5_AUSLAU
  6
Continuous
 62
     7
100
AcDbCircle
 10
509.276758972
 20
972.0096421868
 30
0.0
 40
240.9727481730709
100
AcDbArc
 50
263.7574501993
 51
265.6749049299
  0
ARC
  5
32C
330
301
100
AcDbEntity
  8
490580DC5_AUSLAU
  6
Continuous
 62
     7
100
AcDbCircle
 10
475.482045689
 20
677.355025874
 30
0.0
 40
55.63116294105097
100
AcDbArc
 50
82.1564467021
 51
85.2653156278
  0
ARC
  5
32D
330
301
100
AcDbEntity
  8
490580DC5_AUSLAU
  6
Continuous
 62
     7
100
AcDbCircle
 10
481.0739428204
 20
753.8932809603
 30
0.0
 40
24.33333333333422
100
AcDbArc
 50
294.3334184493
 51
308.8150881413
  0
LINE
  5
32E
330
301
100
AcDbEntity
  8
490580DC5_AUSLAU
  6
Continuous
 62
     7
100
AcDbLine
 10
497.0739428701
 20
736.4196281972
 30
0.0
 11
497.0739428701
 21
748.659947627
 31
0.0
  0
ARC
  5
32F
330
301
100
AcDbEntity
  8
490580DC5_AUSLAU
  6
Continuous
 62
     7
100
AcDbCircle
 10
495.0738826153
 20
736.4926940877
 30
0.0
 40
1.999999582296666
100
AcDbArc
 50
308.8188142773
 51
359.9999354869
  0
LINE
  5
330
330
301
100
AcDbEntity
  8
490580DC5_AUSLAU
  6
Continuous
 62
     7
100
AcDbLine
 10
259.0765337795
 20
729.5599476252
 30
0.0
 11
466.4679265691
 21
729.5599476252
 31
0.0
  0
ELLIPSE
  5
331
330
301
100
AcDbEntity
  8
490580DC5_AUSLAU
  6
Continuous
 62
     7
100
AcDbEllipse
 10
496.573521909
 20
748.659947627
 30
0.0
 11
6.036560140643132E-10
 21
-0.5000000000008192
 31
0.0
210
0.0
220
0.0
230
1.0
 40
0.9999726989
 41
1.581406001396423
 42
3.143276932443015
  0
LINE
  5
332
330
301
100
AcDbEntity
  8
$DDT_AUDIT_GENERATED_(AA)
  6
Continuous
 62
     7
100
AcDbLine
 10
259.0765337795
 20
716.6099476265
 30
0.0
 11
259.0765337795
 21
762.1099476265
 31
0.0
  0
LINE
  5
333
330
301
100
AcDbEntity
  8
$DDT_AUDIT_GENERATED_(AC)
  6
Continuous
 62
     7
100
AcDbLine
 10
259.0265337795
 20
693.3599476265
 30
0.0
 11
259.0265337795
 21
688.819000236
 31
0.0
  0
ARC
  5
334
330
301
100
AcDbEntity
  8
$DDT_AUDIT_GENERATED_(AC)
  6
Continuous
 62
     7
100
AcDbCircle
 10
258.9265337795
 20
688.819000236
 30
0.0
 40
0.099999999999997
100
AcDbArc
 50
271.0
 51
0.0
  0
LINE
  5
335
330
301
100
AcDbEntity
  8
$DDT_AUDIT_GENERATED_(B1)
  6
Continuous
 62
     7
100
AcDbLine
 10
490.2630959379
 20
728.6960259101
 30
0.0
 11
469.314139545
 21
723.8595782417
 31
0.0
  0
SPLINE
  5
336
330
301
100
AcDbEntity
  8
$DDT_AUDIT_GENERATED_(B1)
  6
Continuous
 62
     7
100
AcDbSpline
210
0.0
220
0.0
230
1.0
 70
     8
 71
     3
 72
    10
 73
     6
 74
     0
 42
0.0000000019260163
 43
0.0000000001
 40
0.0
 40
0.0
 40
0.0
 40
0.0
 40
0.5
 40
0.5
 40
1.0
 40
1.0
 40
1.0
 40
1.0
 10
477.1969746720926
 20
726.0053694524902
 30
0.0
 10
478.0640917699617
 20
726.0884336205206
 30
0.0
 10
478.9214390145657
 20
726.2254788419617
 30
0.0
 10
480.6015282953602
 20
726.6138666061566
 30
0.0
 10
481.4263808342806
 20
726.8653620276747
 30
0.0
 10
482.2373977038909
 20
727.1690428003491
 30
0.0
  0
LINE
  5
337
330
301
100
AcDbEntity
  8
$DDT_AUDIT_GENERATED_(B1)
  6
Continuous
 62
     7
100
AcDbLine
 10
474.9523944072
 20
728.2401842662
 30
0.0
 11
483.2751347497
 21
730.1616402743
 31
0.0
  0
LINE
  5
338
330
301
100
AcDbEntity
  8
$DDT_AUDIT_GENERATED_(B1)
  6
Continuous
 62
     7
100
AcDbLine
 10
474.9523944072
 20
728.2401842662
 30
0.0
 11
475.3610026891
 21
726.4703073512
 31
0.0
  0
SPLINE
  5
339
330
301
100
AcDbEntity
  8
$DDT_AUDIT_GENERATED_(B1)
  6
Continuous
 62
     7
100
AcDbSpline
210
0.0
220
0.0
230
1.0
 70
     8
 71
     3
 72
    16
 73
    12
 74
     0
 42
0.0000000049361374
 43
0.0000000001
 40
0.0
 40
0.0
 40
0.0
 40
0.0
 40
0.1250000000000004
 40
0.1250000000000004
 40
0.2500000000000008
 40
0.2500000000000008
 40
0.5000000000000004
 40
0.5000000000000004
 40
0.7500000000000002
 40
0.7500000000000002
 40
1.0
 40
1.0
 40
1.0
 40
1.0
 10
475.3610026890623
 20
726.4703073511682
 30
0.0
 10
475.3803501951469
 20
726.3865040953351
 30
0.0
 10
475.4299055911308
 20
726.3136937120939
 30
0.0
 10
475.5553906100915
 20
726.198927115364
 30
0.0
 10
475.6295265308204
 20
726.1560833126417
 30
0.0
 10
475.862582524189
 20
726.053644854056
 30
0.0
 10
476.0287913223877
 20
726.0197424998389
 30
0.0
 10
476.3643130489409
 20
725.9787810601729
 30
0.0
 10
476.5325259039371
 20
725.9734749624379
 30
0.0
 10
476.8657542569591
 20
725.9787083569311
 30
0.0
 10
477.0315997912567
 20
725.9895276164527
 30
0.0
 10
477.1969746720926
 20
726.0053694524902
 30
0.0
  0
SPLINE
  5
33A
330
301
100
AcDbEntity
  8
$DDT_AUDIT_GENERATED_(B1)
  6
Continuous
 62
     7
100
AcDbSpline
210
0.0
220
0.0
230
1.0
 70
     8
 71
     3
 72
    18
 73
    14
 74
     0
 42
0.0000000049401278
 43
0.0000000001
 40
0.0
 40
0.0
 40
0.0
 40
0.0
 40
0.25
 40
0.25
 40
0.5
 40
0.5
 40
0.625
 40
0.625
 40
0.75
 40
0.75
 40
0.875
 40
0.875
 40
1.0
 40
1.0
 40
1.0
 40
1.0
 10
482.2373977038909
 20
727.1690428003491
 30
0.0
 10
482.3941503547646
 20
727.2277379618431
 30
0.0
 10
482.5490148954245
 20
727.2911948615942
 30
0.0
 10
482.8525798335366
 20
727.4336543831191
 30
0.0
 10
483.0020777097429
 20
727.5128923125759
 30
0.0
 10
483.2125396772869
 20
727.649773823189
 30
0.0
 10
483.2805093533136
 20
727.6984894945977
 30
0.0
 10
483.4098896619345
 20
727.8051949717116
 30
0.0
 10
483.4720355189107
 20
727.8638511504125
 30
0.0
 10
483.5804718328433
 20
727.9921966490689
 30
0.0
 10
483.6277887126864
 20
728.0621473490362
 30
0.0
 10
483.6906167612497
 20
728.2211388387432
 30
0.0
 10
483.7030041959844
 20
728.3083340903312
 30
0.0
 10
483.6837430315813
 20
728.3917633592533
 30
0.0
  0
LINE
  5
33B
330
301
100
AcDbEntity
  8
$DDT_AUDIT_GENERATED_(B1)
  6
Continuous
 62
     7
100
AcDbLine
 10
483.6837430316
 20
728.3917633593
 30
0.0
 11
483.2751347497
 21
730.1616402743
 31
0.0
  0
LINE
  5
33C
330
301
100
AcDbEntity
  8
$DDT_AUDIT_GENERATED_(B1)
  6
Continuous
 62
     7
100
AcDbLine
 10
468.7068044559
 20
724.0452592123
 30
0.0
 11
469.314139545
 21
723.8595782417
 31
0.0
  0
LINE
  5
33D
330
301
100
AcDbEntity
  8
$DDT_AUDIT_GENERATED_(B1)
  6
Continuous
 62
     7
100
AcDbLine
 10
490.2630959379
 20
728.6960259101
 30
0.0
 11
490.7275679201
 21
729.1291530405
 31
0.0
  0
ARC
  5
33E
330
301
100
AcDbEntity
  8
$DDT_AUDIT_GENERATED_(B1)
  6
Continuous
 62
     7
100
AcDbCircle
 10
468.9991761606
 20
725.0015639683
 30
0.0
 40
0.9999999999999993
100
AcDbArc
 50
193.0
 51
253.0
  0
LINE
  5
33F
330
301
100
AcDbEntity
  8
$DDT_AUDIT_GENERATED_(B1)
  6
Continuous
 62
     7
100
AcDbLine
 10
466.8690698846
 20
729.7826564299
 30
0.0
 11
468.0248060959
 21
724.776612914
 31
0.0
  0
LINE
  5
340
330
301
100
AcDbEntity
  8
$DDT_AUDIT_GENERATED_(B1)
  6
Continuous
 62
     7
100
AcDbLine
 10
491.0199396248
 20
730.0854577965
 30
0.0
 11
490.6334327716
 21
731.7596029062
 31
0.0
  0
ARC
  5
341
330
301
100
AcDbEntity
  8
$DDT_AUDIT_GENERATED_(B1)
  6
Continuous
 62
     7
100
AcDbCircle
 10
490.04556956
 20
729.8605067421
 30
0.0
 40
0.9999999999999981
100
AcDbArc
 50
313.0
 51
13.0
  0
ENDBLK
  5
343
330
301
100
AcDbEntity
  8
0
100
AcDbBlockEnd
  0
BLOCK
  5
36E
330
344
100
AcDbEntity
  8
0
100
AcDbBlockBegin
  2
SE2
 70
     0
 10
0.0
 20
0.0
 30
0.0
  3
SE2
  1

  0
LINE
  5
346
330
344
100
AcDbEntity
  8
$DDT_AUDIT_GENERATED_(74)
  6
Continuous
 62
     7
100
AcDbLine
 10
126.35
 20
355.3810246095
 30
0.0
 11
6.35
 21
355.3810246095
 31
0.0
  0
LINE
  5
347
330
344
100
AcDbEntity
  8
$DDT_AUDIT_GENERATED_(74)
  6
Continuous
 62
     7
100
AcDbLine
 10
6.5166787213
 20
345.8320070632
 30
0.0
 11
6.35
 21
355.3810246095
 31
0.0
  0
LINE
  5
348
330
344
100
AcDbEntity
  8
$DDT_AUDIT_GENERATED_(74)
  6
Continuous
 62
     7
100
AcDbLine
 10
126.1833212787
 20
345.8320070632
 30
0.0
 11
126.35
 21
355.3810246095
 31
0.0
  0
SPLINE
  5
349
330
344
100
AcDbEntity
  8
$DDT_AUDIT_GENERATED_(74)
  6
Continuous
 62
     7
100
AcDbSpline
210
0.0
220
0.0
230
1.0
 70
     8
 71
     3
 72
    14
 73
    10
 74
     0
 42
0.0000000003046898
 43
0.0000000001
 40
0.0
 40
0.0
 40
0.0
 40
0.0
 40
0.0625000000000002
 40
0.0625000000000002
 40
0.1250000000000003
 40
0.1250000000000003
 40
0.2500000000000004
 40
0.2500000000000004
 40
0.2500689683171778
 40
0.2500689683171778
 40
0.2500689683171778
 40
0.2500689683171778
 10
66.35
 20
344.4908709913529
 30
0.0
 10
65.26653174816329
 20
344.4908709913529
 30
0.0
 10
64.20336703624818
 20
344.4902675997303
 30
0.0
 10
62.21727949905177
 20
344.4878347472365
 30
0.0
 10
61.30764081625889
 20
344.4860037227403
 30
0.0
 10
59.03828762022054
 20
344.4788107063815
 30
0.0
 10
58.15113355995878
 20
344.4715310797427
 30
0.0
 10
58.15000052425684
 20
344.4631986624556
 30
0.0
 10
58.15000015851313
 20
344.4631940672824
 30
0.0
 10
58.15000005181004
 20
344.4631894717837
 30
0.0
  0
SPLINE
  5
34A
330
344
100
AcDbEntity
  8
$DDT_AUDIT_GENERATED_(74)
  6
Continuous
 62
     7
100
AcDbSpline
210
0.0
220
0.0
230
1.0
 70
     8
 71
     3
 72
     8
 73
     4
 74
     0
 42
0.0000000009779154
 43
0.0000000001
 40
0.2685946132610609
 40
0.2685946132610609
 40
0.2685946132610609
 40
0.2685946132610609
 40
0.2953222280104968
 40
0.2953222280104968
 40
0.2953222280104968
 40
0.2953222280104968
 10
58.20560702863194
 20
344.4594258537073
 30
0.0
 10
58.25895081299065
 20
344.4575916572304
 30
0.0
 10
58.35041172650564
 20
344.4557294705257
 30
0.0
 10
58.47885520423526
 20
344.4538694330669
 30
0.0
  0
SPLINE
  5
34B
330
344
100
AcDbEntity
  8
$DDT_AUDIT_GENERATED_(74)
  6
Continuous
 62
     7
100
AcDbSpline
210
0.0
220
0.0
230
1.0
 70
     8
 71
     3
 72
     8
 73
     4
 74
     0
 42
0.0000000009052475
 43
0.0000000001
 40
0.7068147525716864
 40
0.7068147525716864
 40
0.7068147525716864
 40
0.7068147525716864
 40
0.7247166839637338
 40
0.7247166839637338
 40
0.7247166839637338
 40
0.7247166839637338
 10
74.24714863838516
 20
344.4542464002682
 30
0.0
 10
74.32978278166482
 20
344.45548907602
 30
0.0
 10
74.39581747619859
 20
344.4567320286933
 30
0.0
 10
74.44486933309008
 20
344.4579687952016
 30
0.0
  0
SPLINE
  5
34C
330
344
100
AcDbEntity
  8
$DDT_AUDIT_GENERATED_(74)
  6
Continuous
 62
     7
100
AcDbSpline
210
0.0
220
0.0
230
1.0
 70
     8
 71
     3
 72
    12
 73
     8
 74
     0
 42
0.000000000304512
 43
0.0000000001
 40
0.7501716801911331
 40
0.7501716801911331
 40
0.7501716801911331
 40
0.7501716801911331
 40
0.8125000000000002
 40
0.8125000000000002
 40
0.8750000000000002
 40
0.8750000000000002
 40
1.0
 40
1.0
 40
1.0
 40
1.0
 10
74.55000000630078
 20
344.4631884141971
 30
0.0
 10
74.54993610975951
 20
344.4673869862573
 30
0.0
 10
74.33819224344273
 20
344.471277068585
 30
0.0
 10
73.51688582778276
 20
344.4782079681078
 30
0.0
 10
72.9093976715746
 20
344.4811914881726
 30
0.0
 10
70.63996415331815
 20
344.4883960672051
 30
0.0
 10
68.51693650367339
 20
344.4908709913529
 30
0.0
 10
66.35
 20
344.4908709913529
 30
0.0
  0
SPLINE
  5
34D
330
344
100
AcDbEntity
  8
$DDT_AUDIT_GENERATED_(74)
  6
Continuous
 62
     7
100
AcDbSpline
210
0.0
220
0.0
230
1.0
 70
     8
 71
     3
 72
    20
 73
    16
 74
     0
 42
0.0000000001275722
 43
0.0000000001
 40
0.0552442132672627
 40
0.0552442132672627
 40
0.0552442132672627
 40
0.0552442132672627
 40
0.0624999999999999
 40
0.0624999999999999
 40
0.0937499999999999
 40
0.0937499999999999
 40
0.1249999999999999
 40
0.1249999999999999
 40
0.15625
 40
0.15625
 40
0.1875
 40
0.1875
 40
0.2500000000000001
 40
0.2500000000000001
 40
0.2500848204439313
 40
0.2500848204439313
 40
0.2500848204439313
 40
0.2500848204439313
 10
58.47290580317622
 20
344.4141756391132
 30
0.0
 10
58.14080577416427
 20
344.414593530281
 30
0.0
 10
57.81165113605441
 20
344.4150345006934
 30
0.0
 10
56.0844202497501
 20
344.4174886761752
 30
0.0
 10
54.75474414834709
 20
344.4198601402021
 30
0.0
 10
52.23827260998437
 20
344.4251540631244
 30
0.0
 10
51.04680301568285
 20
344.4281002654238
 30
0.0
 10
48.91121236814688
 20
344.4340392228581
 30
0.0
 10
47.95291934068447
 20
344.4370596389946
 30
0.0
 10
46.2605647439638
 20
344.4428615271071
 30
0.0
 10
45.54137992882018
 20
344.4455928911208
 30
0.0
 10
43.80956009342545
 20
344.4525246817829
 30
0.0
 10
43.20160665729923
 20
344.4554465183141
 30
0.0
 10
43.20000108787181
 20
344.4554538860842
 30
0.0
 10
43.20000002437689
 20
344.4554538908878
 30
0.0
 10
43.20000007327603
 20
344.4554538905115
 30
0.0
  0
SPLINE
  5
34E
330
344
100
AcDbEntity
  8
$DDT_AUDIT_GENERATED_(74)
  6
Continuous
 62
     7
100
AcDbSpline
210
0.0
220
0.0
230
1.0
 70
     8
 71
     3
 72
    20
 73
    16
 74
     0
 42
0.0000000001275861
 43
0.0000000001
 40
0.7501610874929201
 40
0.7501610874929201
 40
0.7501610874929201
 40
0.7501610874929201
 40
0.7812500000000001
 40
0.7812500000000001
 40
0.8125
 40
0.8125
 40
0.84375
 40
0.84375
 40
0.875
 40
0.875
 40
0.90625
 40
0.90625
 40
0.9374999999999999
 40
0.9374999999999999
 40
0.944831781221762
 40
0.944831781221762
 40
0.944831781221762
 40
0.944831781221762
 10
89.50000002877243
 20
344.4554538903981
 30
0.0
 10
89.500005487526
 20
344.4554538118617
 30
0.0
 10
89.35097057420805
 20
344.4547599941771
 30
0.0
 10
88.76718797441639
 20
344.4521786800508
 30
0.0
 10
88.32472996030016
 20
344.4502618048151
 30
0.0
 10
87.16378433030519
 20
344.4456121456878
 30
0.0
 10
86.45347963067744
 20
344.4429143087908
 30
0.0
 10
84.77729988932764
 20
344.437158726667
 30
0.0
 10
83.80042649918428
 20
344.4340741773967
 30
0.0
 10
81.66476300816473
 20
344.4281298703418
 30
0.0
 10
80.5004162385594
 20
344.4252433957978
 30
0.0
 10
77.97544506136622
 20
344.4199159206057
 30
0.0
 10
76.62470460479375
 20
344.4175058890301
 30
0.0
 10
74.90556235137325
 20
344.4150579968011
 30
0.0
 10
74.57537941595969
 20
344.4146151072327
 30
0.0
 10
74.24208271536682
 20
344.4141956785896
 30
0.0
  0
ARC
  5
34F
330
344
100
AcDbEntity
  8
$DDT_AUDIT_GENERATED_(74)
  6
Continuous
 62
     7
100
AcDbCircle
 10
125.1834072755
 20
345.8456606821
 30
0.0
 40
0.9999999999998619
100
AcDbArc
 50
270.891568996
 51
359.0052066218
  0
ARC
  5
350
330
344
100
AcDbEntity
  8
$DDT_AUDIT_GENERATED_(74)
  6
Continuous
 62
     7
100
AcDbCircle
 10
7.5165927245
 20
345.8456606821
 30
0.0
 40
0.9999999999978353
100
AcDbArc
 50
180.9947933781
 51
269.057467163
  0
ARC
  5
351
330
344
100
AcDbEntity
  8
$DDT_AUDIT_GENERATED_(74)
  6
Continuous
 62
     7
100
AcDbCircle
 10
59.5854231577
 20
4714.4603898542
 30
0.0
 40
4370.106961707011
100
AcDbArc
 50
270.3919458808
 51
270.8602793375
  0
ARC
  5
352
330
344
100
AcDbEntity
  8
$DDT_AUDIT_GENERATED_(74)
  6
Continuous
 62
     7
100
AcDbCircle
 10
71.1623685954
 20
4559.8656599354
 30
0.0
 40
4215.500404808725
100
AcDbArc
 50
269.1347037159
 51
269.6209464742
  0
LINE
  5
353
330
344
100
AcDbEntity
  8
$DDT_AUDIT_GENERATED_(8A)
  6
Continuous
 62
     7
100
AcDbLine
 10
73.8596754988
 20
325.6310246095
 30
0.0
 11
67.7683268672
 21
325.6310246095
 31
0.0
  0
LINE
  5
354
330
344
100
AcDbEntity
  8
$DDT_AUDIT_GENERATED_(8A)
  6
Continuous
 62
     7
100
AcDbLine
 10
64.9344546401
 20
325.6310246095
 30
0.0
 11
58.8431060086
 21
325.6310246095
 31
0.0
  0
LINE
  5
355
330
344
100
AcDbEntity
  8
$DDT_AUDIT_GENERATED_(8A)
  6
Continuous
 62
     7
100
AcDbLine
 10
68.7681745624
 20
336.148477016
 30
0.0
 11
68.8513907537
 21
331.3810246095
 31
0.0
  0
LINE
  5
356
330
344
100
AcDbEntity
  8
$DDT_AUDIT_GENERATED_(8A)
  6
Continuous
 62
     7
100
AcDbLine
 10
68.8513907537
 20
331.3810246095
 30
0.0
 11
68.7681745624
 21
326.6135722031
 31
0.0
  0
ARC
  5
357
330
344
100
AcDbEntity
  8
$DDT_AUDIT_GENERATED_(8A)
  6
Continuous
 62
     7
100
AcDbCircle
 10
67.7683268672
 20
326.6310246095
 30
0.0
 40
0.9999999999999974
100
AcDbArc
 50
270.0
 51
359.0
  0
LINE
  5
358
330
344
100
AcDbEntity
  8
$DDT_AUDIT_GENERATED_(8A)
  6
Continuous
 62
     7
100
AcDbLine
 10
67.8512384256
 20
331.3810246095
 30
0.0
 11
68.8513907537
 21
331.3810246095
 31
0.0
  0
ARC
  5
359
330
344
100
AcDbEntity
  8
$DDT_AUDIT_GENERATED_(8A)
  6
Continuous
 62
     7
100
AcDbCircle
 10
67.7683268672
 20
336.1310246095
 30
0.0
 40
0.9999999999999974
100
AcDbArc
 50
1.0
 51
90.0
  0
LINE
  5
35A
330
344
100
AcDbEntity
  8
$DDT_AUDIT_GENERATED_(8A)
  6
Continuous
 62
     7
100
AcDbLine
 10
63.8513907537
 20
331.3810246095
 30
0.0
 11
63.934606945
 21
336.148477016
 31
0.0
  0
LINE
  5
35B
330
344
100
AcDbEntity
  8
$DDT_AUDIT_GENERATED_(8A)
  6
Continuous
 62
     7
100
AcDbLine
 10
64.9344546401
 20
337.1310246095
 30
0.0
 11
67.7683268672
 21
337.1310246095
 31
0.0
  0
LINE
  5
35C
330
344
100
AcDbEntity
  8
$DDT_AUDIT_GENERATED_(8A)
  6
Continuous
 62
     7
100
AcDbLine
 10
64.9344546401
 20
325.6310246095
 30
0.0
 11
67.7683268672
 21
325.6310246095
 31
0.0
  0
LINE
  5
35D
330
344
100
AcDbEntity
  8
$DDT_AUDIT_GENERATED_(8A)
  6
Continuous
 62
     7
100
AcDbLine
 10
63.934606945
 20
326.6135722031
 30
0.0
 11
63.8513907537
 21
331.3810246095
 31
0.0
  0
ARC
  5
35E
330
344
100
AcDbEntity
  8
$DDT_AUDIT_GENERATED_(8A)
  6
Continuous
 62
     7
100
AcDbCircle
 10
64.9344546401
 20
326.6310246095
 30
0.0
 40
1.0
100
AcDbArc
 50
181.0
 51
270.0
  0
LINE
  5
35F
330
344
100
AcDbEntity
  8
$DDT_AUDIT_GENERATED_(8A)
  6
Continuous
 62
     7
100
AcDbLine
 10
63.8513907537
 20
331.3810246095
 30
0.0
 11
64.8515430817
 21
331.3810246095
 31
0.0
  0
ARC
  5
360
330
344
100
AcDbEntity
  8
$DDT_AUDIT_GENERATED_(8A)
  6
Continuous
 62
     7
100
AcDbCircle
 10
64.9344546401
 20
336.1310246095
 30
0.0
 40
1.0
100
AcDbArc
 50
90.0
 51
179.0
  0
LINE
  5
361
330
344
100
AcDbEntity
  8
$DDT_AUDIT_GENERATED_(8A)
  6
Continuous
 62
     7
100
AcDbLine
 10
74.4513907537
 20
331.3810246095
 30
0.0
 11
69.176925444
 21
331.3810246095
 31
0.0
  0
LINE
  5
362
330
344
100
AcDbEntity
  8
$DDT_AUDIT_GENERATED_(8A)
  6
Continuous
 62
     7
100
AcDbLine
 10
63.5258560633
 20
331.3810246095
 30
0.0
 11
58.2513907537
 21
331.3810246095
 31
0.0
  0
LINE
  5
363
330
344
100
AcDbEntity
  8
$DDT_AUDIT_GENERATED_(8A)
  6
Continuous
 62
     7
100
AcDbLine
 10
63.5258560633
 20
331.3810246095
 30
0.0
 11
63.8513907537
 21
331.3810246095
 31
0.0
  0
LINE
  5
364
330
344
100
AcDbEntity
  8
$DDT_AUDIT_GENERATED_(8A)
  6
Continuous
 62
     7
100
AcDbLine
 10
69.176925444
 20
331.3810246095
 30
0.0
 11
68.8513907537
 21
331.3810246095
 31
0.0
  0
LINE
  5
365
330
344
100
AcDbEntity
  8
$DDT_AUDIT_GENERATED_(8A)
  6
Continuous
 62
     7
100
AcDbLine
 10
58.2513907537
 20
331.3810246095
 30
0.0
 11
58.343182161
 21
326.1222984063
 31
0.0
  0
LINE
  5
366
330
344
100
AcDbEntity
  8
$DDT_AUDIT_GENERATED_(8A)
  6
Continuous
 62
     7
100
AcDbLine
 10
74.3595993463
 20
326.1222984063
 30
0.0
 11
74.4513907537
 21
331.3810246095
 31
0.0
  0
LINE
  5
367
330
344
100
AcDbEntity
  8
$DDT_AUDIT_GENERATED_(8A)
  6
Continuous
 62
     7
100
AcDbLine
 10
74.4513907537
 20
331.3810246095
 30
0.0
 11
74.2228983563
 21
344.4713452861
 31
0.0
  0
LINE
  5
368
330
344
100
AcDbEntity
  8
$DDT_AUDIT_GENERATED_(8A)
  6
Continuous
 62
     7
100
AcDbLine
 10
58.4798848522
 20
344.471442749
 30
0.0
 11
58.2513907537
 21
331.3810246095
 31
0.0
  0
ARC
  5
369
330
344
100
AcDbEntity
  8
$DDT_AUDIT_GENERATED_(8A)
  6
Continuous
 62
     7
100
AcDbCircle
 10
58.8431060086
 20
326.1310246095
 30
0.0
 40
0.5000000000000006
100
AcDbArc
 50
181.0
 51
270.0
  0
ARC
  5
36A
330
344
100
AcDbEntity
  8
$DDT_AUDIT_GENERATED_(8A)
  6
Continuous
 62
     7
100
AcDbCircle
 10
73.8596754988
 20
326.1310246095
 30
0.0
 40
0.5000000000000004
100
AcDbArc
 50
270.0
 51
359.0
  0
SPLINE
  5
36B
330
344
100
AcDbEntity
  8
490580DC5_AUSLAU
  6
Continuous
 62
     7
100
AcDbSpline
210
0.0
220
0.0
230
1.0
 70
     8
 71
     3
 72
    37
 73
    33
 74
     0
 42
0.0000000000202174
 43
0.0000000001
 40
0.0
 40
0.0
 40
0.0
 40
0.0
 40
0.122387727450401
 40
0.122387727450401
 40
0.122387727450401
 40
0.4507895110822638
 40
0.4507895110822638
 40
0.4507895110822638
 40
0.4528293065397705
 40
0.4528293065397705
 40
0.4528293065397705
 40
0.4572791254107889
 40
0.4658236046551137
 40
0.4743680838994406
 40
0.4829125631437654
 40
0.4914570423880923
 40
0.5000015216324172
 40
0.508546000876744
 40
0.517090480121071
 40
0.5256349593653957
 40
0.5341794386097226
 40
0.5427239178540474
 40
0.5471706934602351
 40
0.5471706934602351
 40
0.5471706934602351
 40
0.5492104889177418
 40
0.5492104889177418
 40
0.5492104889177418
 40
0.8776122725496007
 40
0.8776122725496007
 40
0.8776122725496007
 40
1.0
 40
1.0
 40
1.0
 40
1.0
 10
82.35000052092309
 20
344.531024609546
 30
0.0
 10
82.35000052092309
 20
324.5310246095461
 30
0.0
 10
82.35000052092309
 20
304.5310246095461
 30
0.0
 10
82.35000052092309
 20
284.5310246095461
 30
0.0
 10
82.35000052092309
 20
230.8652215959308
 30
0.0
 10
82.35000052092309
 20
177.199418582316
 30
0.0
 10
82.35000052092309
 20
123.5336155687
 30
0.0
 10
82.35000052092309
 20
122.53273475627
 30
0.0
 10
82.34925693243008
 20
121.526634974798
 30
0.0
 10
82.22405765206769
 20
120.5336155687
 30
0.0
 10
82.13306454873089
 20
119.8119028146581
 30
0.0
 10
81.7241624293704
 20
117.7202687591611
 30
0.0
 10
80.36590454250948
 20
114.4420200796361
 30
0.0
 10
77.78981579234859
 20
111.085569804544
 30
0.0
 10
74.43766395223109
 20
108.515726220726
 30
0.0
 10
70.53481662111231
 20
106.900515702683
 30
0.0
 10
66.3509396593275
 20
106.3500000000001
 30
0.0
 10
62.16142786711612
 20
106.901177709516
 30
0.0
 10
58.25798848274793
 20
108.517764353514
 30
0.0
 10
54.90206299669999
 20
111.0936514454171
 30
0.0
 10
52.33209476232958
 20
114.4464947384211
 30
0.0
 10
50.97506616012548
 20
117.7232874295661
 30
0.0
 10
50.56675699219809
 20
119.81293486202
 30
0.0
 10
50.47590630298028
 20
120.5336155687
 30
0.0
 10
50.35072376253888
 20
121.5266365626641
 30
0.0
 10
50.35000052092309
 20
122.532735274717
 30
0.0
 10
50.35000052092309
 20
123.5336155687
 30
0.0
 10
50.35000052092309
 20
177.199418582316
 30
0.0
 10
50.35000052092309
 20
230.8652215959308
 30
0.0
 10
50.35000052092309
 20
284.5310246095461
 30
0.0
 10
50.35000052092309
 20
304.5310246095461
 30
0.0
 10
50.35000052092309
 20
324.5310246095461
 30
0.0
 10
50.35000052092309
 20
344.531024609546
 30
0.0
  0
LINE
  5
36C
330
344
100
AcDbEntity
  8
$DDT_AUDIT_GENERATED_(AA)
  6
Continuous
 62
     7
100
AcDbLine
 10
43.6
 20
344.5310246095
 30
0.0
 11
58.4809248575
 21
344.5310246095
 31
0.0
  0
LINE
  5
36D
330
344
100
AcDbEntity
  8
$DDT_AUDIT_GENERATED_(AA)
  6
Continuous
 62
     7
100
AcDbLine
 10
74.5778190035
 20
344.5310246095
 30
0.0
 11
89.1
 21
344.5310246095
 31
0.0
  0
ENDBLK
  5
36F
330
344
100
AcDbEntity
  8
0
100
AcDbBlockEnd
  0
ENDSEC
  0
SECTION
  2
ENTITIES
  0
INSERT
  5
5F
330
1F
100
AcDbEntity
  8
Default
100
AcDbBlockReference
  2
SEANNOT_GROUP
 10
0.0
 20
0.0
 30
0.0
  0
INSERT
  5
66
330
1F
100
AcDbEntity
  8
Default
100
AcDbBlockReference
  2
SEANNOT_GROUP1
 10
0.0
 20
0.0
 30
0.0
  0
LINE
  5
6B
330
1F
100
AcDbEntity
  8
Default
  6
Continuous
 62
     7
100
AcDbLine
 10
482.4594815914
 20
714.7090197464
 30
0.0
 11
477.0854356288
 21
737.9865701808
 31
0.0
  0
INSERT
  5
6D
330
1F
100
AcDbEntity
  8
Default
100
AcDbBlockReference
  2
SEANNOT_GROUP2
 10
0.0
 20
0.0
 30
0.0
  0
INSERT
  5
73
330
1F
100
AcDbEntity
  8
Default
100
AcDbBlockReference
  2
SE
 10
0.0
 20
0.0
 30
0.0
  0
INSERT
  5
302
330
1F
100
AcDbEntity
  8
Default
100
AcDbBlockReference
  2
SE1
 10
0.0
 20
0.0
 30
0.0
  0
INSERT
  5
345
330
1F
100
AcDbEntity
  8
Default
100
AcDbBlockReference
  2
SE2
 10
0.0
 20
0.0
 30
0.0
  0
TEXT
  5
371
330
1F
100
AcDbEntity
  8
Default
  6
Continuous
 62
     7
100
AcDbText
 10
5.9362635081
 20
53.4225120485
 30
0.0
 40
10.0
  1
Grohe AG^J
  7
SEACAD_seiso_ttf
 11
5.9362635081
 21
63.4225120485
 31
0.0
100
AcDbText
 73
     3
  0
TEXT
  5
372
330
1F
100
AcDbEntity
  8
Default
  6
Continuous
 62
     7
100
AcDbText
 10
5.9362635081
 20
37.0588756849
 30
0.0
 40
10.0
  1
 
  7
SEACAD_seiso_ttf
 11
5.9362635081
 21
47.0588756849
 31
0.0
100
AcDbText
 73
     3
  0
TEXT
  5
373
330
1F
100
AcDbEntity
  8
Default
  6
Continuous
 62
     7
100
AcDbText
 10
5.9362635081
 20
20.6952393213
 30
0.0
 40
10.0
  1
ecn:
  7
SEACAD_seiso_ttf
 11
5.9362635081
 21
30.6952393213
 31
0.0
100
AcDbText
 73
     3
  0
TEXT
  5
374
330
1F
100
AcDbEntity
  8
Default
  6
Continuous
 62
     7
100
AcDbText
 10
5.9362635081
 20
4.3316029576
 30
0.0
 40
10.0
  1
unit: mm
  7
SEACAD_seiso_ttf
 11
5.9362635081
 21
14.3316029576
 31
0.0
100
AcDbText
 73
     3
  0
LINE
  5
375
330
1F
100
AcDbEntity
  8
Default
  6
Continuous
 62
     7
100
AcDbLine
 10
0.0
 20
0.0
 30
0.0
 11
100.0
 21
0.0
 31
0.0
  0
LINE
  5
376
330
1F
100
AcDbEntity
  8
Default
  6
Continuous
 62
     7
100
AcDbLine
 10
0.0
 20
0.0
 30
0.0
 11
0.0
 21
100.0
 31
0.0
  0
TEXT
  5
377
330
1F
100
AcDbEntity
  8
Default
  6
Continuous
 62
     7
100
AcDbText
 10
24.3923665681
 20
-18.2375342018
 30
0.0
 40
10.0
  1
100 mm
  7
SEACAD_seiso_ttf
 11
24.3923665681
 21
-8.2375342018
 31
0.0
100
AcDbText
 73
     3
  0
TEXT
  5
378
330
1F
100
AcDbEntity
  8
Default
  6
Continuous
 62
     7
100
AcDbText
 10
-7.6150308803
 20
24.6231930421
 30
0.0
 40
10.0
  1
100 mm
 50
90.0
  7
SEACAD_seiso_ttf
 11
-17.6150308803
 21
24.6231930421
 31
0.0
100
AcDbText
 73
     3
  0
TEXT
  5
379
330
1F
100
AcDbEntity
  8
Default
  6
Continuous
 62
     7
100
AcDbText
 10
28.4878128572
 20
20.0907663715
 30
0.0
 40
10.0
  1
228471
  7
SEACAD_seiso_ttf
 11
28.4878128572
 21
30.0907663715
 31
0.0
100
AcDbText
 73
     3
  0
TEXT
  5
37A
330
1F
100
AcDbEntity
  8
Default
  6
Continuous
 62
     7
100
AcDbText
 10
5.9012241913
 20
36.7242780188
 30
0.0
 40
10.0
  1
36376000
  7
SEACAD_seiso_ttf
 11
5.9012241913
 21
46.7242780188
 31
0.0
100
AcDbText
 73
     3
  0
ENDSEC
  0
SECTION
  2
OBJECTS
  0
DICTIONARY
  5
C
330
0
100
AcDbDictionary
281
     1
  3
ACAD_GROUP
350
D
  3
ACAD_LAYOUT
350
1A
  3
ACAD_MLEADERSTYLE
350
37E
  3
ACAD_MLINESTYLE
350
17
  3
ACAD_PLOTSETTINGS
350
19
  3
ACAD_PLOTSTYLENAME
350
E
  3
ACAD_SCALELIST
350
3B
  3
ACAD_TABLESTYLE
350
37D
  3
ACAD_VISUALSTYLE
350
2A
  3
AcDbVariableDictionary
350
37B
  0
DICTIONARY
  5
D
102
{ACAD_REACTORS
330
C
102
}
330
C
100
AcDbDictionary
281
     1
  0
DICTIONARY
  5
1A
102
{ACAD_REACTORS
330
C
102
}
330
C
100
AcDbDictionary
281
     1
  3
Layout1
350
1E
  3
Model
350
22
  0
DICTIONARY
  5
37E
102
{ACAD_REACTORS
330
C
102
}
330
C
100
AcDbDictionary
281
     1
  0
DICTIONARY
  5
17
102
{ACAD_REACTORS
330
C
102
}
330
C
100
AcDbDictionary
281
     1
  3
Standard
350
18
  0
DICTIONARY
  5
19
102
{ACAD_REACTORS
330
C
102
}
330
C
100
AcDbDictionary
281
     1
  0
ACDBDICTIONARYWDFLT
  5
E
102
{ACAD_REACTORS
330
C
102
}
330
C
100
AcDbDictionary
281
     1
  3
Normal
350
F
100
AcDbDictionaryWithDefault
340
F
  0
DICTIONARY
  5
3B
102
{ACAD_REACTORS
330
C
102
}
330
C
100
AcDbDictionary
281
     1
  3
A0
350
3C
  3
A1
350
3D
  3
A2
350
3E
  3
A3
350
3F
  3
A4
350
40
  3
A5
350
41
  3
A6
350
42
  3
A7
350
43
  3
A8
350
44
  3
A9
350
45
  3
B0
350
46
  3
B1
350
47
  3
B2
350
48
  3
B3
350
49
  3
B4
350
4A
  3
B5
350
4B
  3
B6
350
4C
  3
B7
350
4D
  3
B8
350
4E
  3
B9
350
4F
  3
C0
350
50
  3
C1
350
51
  3
C2
350
52
  3
C3
350
53
  3
C4
350
54
  3
C5
350
55
  3
C6
350
56
  3
C7
350
57
  3
C8
350
58
  3
C9
350
59
  3
D0
350
5A
  3
D1
350
5B
  3
D2
350
5C
  0
DICTIONARY
  5
37D
102
{ACAD_REACTORS
330
C
102
}
330
C
100
AcDbDictionary
281
     1
  0
DICTIONARY
  5
2A
102
{ACAD_REACTORS
330
C
102
}
330
C
100
AcDbDictionary
281
     1
  3
2dWireframe
350
2F
  3
3D Hidden
350
31
  3
3dWireframe
350
30
  3
Basic
350
32
  3
Brighten
350
36
  3
ColorChange
350
3A
  3
Conceptual
350
34
  3
Dim
350
35
  3
Facepattern
350
39
  3
Flat
350
2B
  3
FlatWithEdges
350
2C
  3
Gouraud
350
2D
  3
GouraudWithEdges
350
2E
  3
Linepattern
350
38
  3
Realistic
350
33
  3
Thicken
350
37
  0
DICTIONARY
  5
37B
102
{ACAD_REACTORS
330
C
102
}
330
C
100
AcDbDictionary
281
     1
  3
CANNOSCALE
350
37C
  3
PSOLHEIGHT
350
380
  3
PSOLWIDTH
350
37F
  0
LAYOUT
  5
1E
102
{ACAD_REACTORS
330
1A
102
}
330
1A
100
AcDbPlotSettings
  1

  2
none_device
  4

  6

 40
0.0
 41
0.0
 42
0.0
 43
0.0
 44
0.0
 45
0.0
 46
0.0
 47
0.0
 48
0.0
 49
0.0
140
0.0
141
0.0
142
1.0
143
1.0
 70
   688
 72
     0
 73
     0
 74
     5
  7

 75
    16
147
1.0
148
0.0
149
0.0
100
AcDbLayout
  1
Layout1
 70
     1
 71
     1
 10
0.0
 20
0.0
 11
3000.0
 21
4500.0
 12
0.0
 22
0.0
 32
0.0
 14
0.0
 24
0.0
 34
0.0
 15
3000.0
 25
4500.0
 35
0.0
146
0.0
 13
0.0
 23
0.0
 33
0.0
 16
1.0
 26
0.0
 36
0.0
 17
0.0
 27
1.0
 37
0.0
 76
     0
330
1B
  0
LAYOUT
  5
22
102
{ACAD_REACTORS
330
1A
102
}
330
1A
100
AcDbPlotSettings
  1

  2
none_device
  4

  6

 40
0.0
 41
0.0
 42
0.0
 43
0.0
 44
0.0
 45
0.0
 46
0.0
 47
0.0
 48
0.0
 49
0.0
140
0.0
141
0.0
142
1.0
143
1.0
 70
  1712
 72
     0
 73
     0
 74
     0
  7

 75
     0
147
1.0
148
0.0
149
0.0
100
AcDbLayout
  1
Model
 70
     1
 71
     0
 10
0.0
 20
0.0
 11
3000.0
 21
4500.0
 12
0.0
 22
0.0
 32
0.0
 14
0.0
 24
0.0
 34
0.0
 15
3000.0
 25
4500.0
 35
0.0
146
0.0
 13
0.0
 23
0.0
 33
0.0
 16
1.0
 26
0.0
 36
0.0
 17
0.0
 27
1.0
 37
0.0
 76
     0
330
1F
331
29
  0
MLINESTYLE
  5
18
102
{ACAD_REACTORS
330
17
102
}
330
17
100
AcDbMlineStyle
  2
Standard
 70
     0
  3

 62
   256
 51
90.0
 52
90.0
 71
     2
 49
0.5
 62
   256
  6
BYLAYER
 49
-0.5
 62
   256
  6
BYLAYER
  0
ACDBPLACEHOLDER
  5
F
102
{ACAD_REACTORS
330
E
102
}
330
E
  0
SCALE
  5
3C
102
{ACAD_REACTORS
330
3B
102
}
330
3B
100
AcDbScale
 70
     0
300
1:1
140
1.0
141
1.0
290
     1
  0
SCALE
  5
3D
102
{ACAD_REACTORS
330
3B
102
}
330
3B
100
AcDbScale
 70
     0
300
1:2
140
1.0
141
2.0
290
     0
  0
SCALE
  5
3E
102
{ACAD_REACTORS
330
3B
102
}
330
3B
100
AcDbScale
 70
     0
300
1:4
140
1.0
141
4.0
290
     0
  0
SCALE
  5
3F
102
{ACAD_REACTORS
330
3B
102
}
330
3B
100
AcDbScale
 70
     0
300
1:5
140
1.0
141
5.0
290
     0
  0
SCALE
  5
40
102
{ACAD_REACTORS
330
3B
102
}
330
3B
100
AcDbScale
 70
     0
300
1:8
140
1.0
141
8.0
290
     0
  0
SCALE
  5
41
102
{ACAD_REACTORS
330
3B
102
}
330
3B
100
AcDbScale
 70
     0
300
1:10
140
1.0
141
10.0
290
     0
  0
SCALE
  5
42
102
{ACAD_REACTORS
330
3B
102
}
330
3B
100
AcDbScale
 70
     0
300
1:16
140
1.0
141
16.0
290
     0
  0
SCALE
  5
43
102
{ACAD_REACTORS
330
3B
102
}
330
3B
100
AcDbScale
 70
     0
300
1:20
140
1.0
141
20.0
290
     0
  0
SCALE
  5
44
102
{ACAD_REACTORS
330
3B
102
}
330
3B
100
AcDbScale
 70
     0
300
1:30
140
1.0
141
30.0
290
     0
  0
SCALE
  5
45
102
{ACAD_REACTORS
330
3B
102
}
330
3B
100
AcDbScale
 70
     0
300
1:40
140
1.0
141
40.0
290
     0
  0
SCALE
  5
46
102
{ACAD_REACTORS
330
3B
102
}
330
3B
100
AcDbScale
 70
     0
300
1:50
140
1.0
141
50.0
290
     0
  0
SCALE
  5
47
102
{ACAD_REACTORS
330
3B
102
}
330
3B
100
AcDbScale
 70
     0
300
1:100
140
1.0
141
100.0
290
     0
  0
SCALE
  5
48
102
{ACAD_REACTORS
330
3B
102
}
330
3B
100
AcDbScale
 70
     0
300
2:1
140
2.0
141
1.0
290
     0
  0
SCALE
  5
49
102
{ACAD_REACTORS
330
3B
102
}
330
3B
100
AcDbScale
 70
     0
300
4:1
140
4.0
141
1.0
290
     0
  0
SCALE
  5
4A
102
{ACAD_REACTORS
330
3B
102
}
330
3B
100
AcDbScale
 70
     0
300
8:1
140
8.0
141
1.0
290
     0
  0
SCALE
  5
4B
102
{ACAD_REACTORS
330
3B
102
}
330
3B
100
AcDbScale
 70
     0
300
10:1
140
10.0
141
1.0
290
     0
  0
SCALE
  5
4C
102
{ACAD_REACTORS
330
3B
102
}
330
3B
100
AcDbScale
 70
     0
300
100:1
140
100.0
141
1.0
290
     0
  0
SCALE
  5
4D
102
{ACAD_REACTORS
330
3B
102
}
330
3B
100
AcDbScale
 70
     0
300
1/128" = 1'-0"
140
0.0078125
141
12.0
290
     0
  0
SCALE
  5
4E
102
{ACAD_REACTORS
330
3B
102
}
330
3B
100
AcDbScale
 70
     0
300
1/64" = 1'-0"
140
0.015625
141
12.0
290
     0
  0
SCALE
  5
4F
102
{ACAD_REACTORS
330
3B
102
}
330
3B
100
AcDbScale
 70
     0
300
1/32" = 1'-0"
140
0.03125
141
12.0
290
     0
  0
SCALE
  5
50
102
{ACAD_REACTORS
330
3B
102
}
330
3B
100
AcDbScale
 70
     0
300
1/16" = 1'-0"
140
0.0625
141
12.0
290
     0
  0
SCALE
  5
51
102
{ACAD_REACTORS
330
3B
102
}
330
3B
100
AcDbScale
 70
     0
300
3/32" = 1'-0"
140
0.09375
141
12.0
290
     0
  0
SCALE
  5
52
102
{ACAD_REACTORS
330
3B
102
}
330
3B
100
AcDbScale
 70
     0
300
1/8" = 1'-0"
140
0.125
141
12.0
290
     0
  0
SCALE
  5
53
102
{ACAD_REACTORS
330
3B
102
}
330
3B
100
AcDbScale
 70
     0
300
3/16" = 1'-0"
140
0.1875
141
12.0
290
     0
  0
SCALE
  5
54
102
{ACAD_REACTORS
330
3B
102
}
330
3B
100
AcDbScale
 70
     0
300
1/4" = 1'-0"
140
0.25
141
12.0
290
     0
  0
SCALE
  5
55
102
{ACAD_REACTORS
330
3B
102
}
330
3B
100
AcDbScale
 70
     0
300
3/8" = 1'-0"
140
0.375
141
12.0
290
     0
  0
SCALE
  5
56
102
{ACAD_REACTORS
330
3B
102
}
330
3B
100
AcDbScale
 70
     0
300
1/2" = 1'-0"
140
0.5
141
12.0
290
     0
  0
SCALE
  5
57
102
{ACAD_REACTORS
330
3B
102
}
330
3B
100
AcDbScale
 70
     0
300
3/4" = 1'-0"
140
0.75
141
12.0
290
     0
  0
SCALE
  5
58
102
{ACAD_REACTORS
330
3B
102
}
330
3B
100
AcDbScale
 70
     0
300
1" = 1'-0"
140
1.0
141
12.0
290
     0
  0
SCALE
  5
59
102
{ACAD_REACTORS
330
3B
102
}
330
3B
100
AcDbScale
 70
     0
300
1-1/2" = 1'-0"
140
1.5
141
12.0
290
     0
  0
SCALE
  5
5A
102
{ACAD_REACTORS
330
3B
102
}
330
3B
100
AcDbScale
 70
     0
300
3" = 1'-0"
140
3.0
141
12.0
290
     0
  0
SCALE
  5
5B
102
{ACAD_REACTORS
330
3B
102
}
330
3B
100
AcDbScale
 70
     0
300
6" = 1'-0"
140
6.0
141
12.0
290
     0
  0
SCALE
  5
5C
102
{ACAD_REACTORS
330
3B
102
}
330
3B
100
AcDbScale
 70
     0
300
1'-0" = 1'-0"
140
12.0
141
12.0
290
     0
  0
VISUALSTYLE
  5
2F
102
{ACAD_REACTORS
330
2A
102
}
330
2A
100
AcDbVisualStyle
  2
2dWireframe
 70
     4
 71
     0
 72
     2
 73
     0
 90
        0
 40
-0.6
 41
-30.0
 62
     5
 63
     7
 74
     1
 91
        4
 64
     7
 65
   257
 75
     1
175
     1
 42
1.0
 92
        0
 66
   257
 43
1.0
 76
     1
 77
     6
 78
     2
 67
     7
 79
     5
170
     0
171
     0
290
     0
174
     0
 93
        1
 44
0.0
173
     0
291
     0
 45
0.0
1001
ACAD
1000
AcDbSavedByObjectVersion
1070
     0
  0
VISUALSTYLE
  5
31
102
{ACAD_REACTORS
330
2A
102
}
330
2A
100
AcDbVisualStyle
  2
3D Hidden
 70
     6
 71
     1
 72
     2
 73
     2
 90
        0
 40
-0.6
 41
-30.0
 62
     5
 63
     7
 74
     2
 91
        2
 64
     7
 65
   257
 75
     2
175
     1
 42
40.0
 92
        0
 66
   257
 43
1.0
 76
     1
 77
     6
 78
     2
 67
     7
 79
     3
170
     0
171
     0
290
     0
174
     0
 93
        1
 44
0.0
173
     0
291
     0
 45
0.0
1001
ACAD
1000
AcDbSavedByObjectVersion
1070
     0
  0
VISUALSTYLE
  5
30
102
{ACAD_REACTORS
330
2A
102
}
330
2A
100
AcDbVisualStyle
  2
3dWireframe
 70
     5
 71
     0
 72
     2
 73
     0
 90
        0
 40
-0.6
 41
-30.0
 62
     5
 63
     7
 74
     1
 91
        4
 64
     7
 65
   257
 75
     1
175
     1
 42
1.0
 92
        0
 66
   257
 43
1.0
 76
     1
 77
     6
 78
     2
 67
     7
 79
     5
170
     0
171
     0
290
     0
174
     0
 93
        1
 44
0.0
173
     0
291
     0
 45
0.0
1001
ACAD
1000
AcDbSavedByObjectVersion
1070
     0
  0
VISUALSTYLE
  5
32
102
{ACAD_REACTORS
330
2A
102
}
330
2A
100
AcDbVisualStyle
  2
Basic
 70
     7
 71
     1
 72
     0
 73
     1
 90
        0
 40
-0.6
 41
-30.0
 62
     5
 63
     7
 74
     0
 91
        4
 64
     7
 65
   257
 75
     1
175
     1
 42
1.0
 92
        8
 66
     7
 43
1.0
 76
     1
 77
     6
 78
     2
 67
     7
 79
     5
170
     0
171
     0
290
     0
174
     0
 93
        1
 44
0.0
173
     0
291
     1
 45
0.0
1001
ACAD
1000
AcDbSavedByObjectVersion
1070
     0
  0
VISUALSTYLE
  5
36
102
{ACAD_REACTORS
330
2A
102
}
330
2A
100
AcDbVisualStyle
  2
Brighten
 70
    12
 71
     2
 72
     2
 73
     0
 90
        0
 40
-0.6
 41
-30.0
 62
     5
 63
     7
 74
     1
 91
        4
 64
     7
 65
   257
 75
     1
175
     1
 42
1.0
 92
        8
 66
     7
 43
1.0
 76
     1
 77
     6
 78
     2
 67
     7
 79
     5
170
     0
171
     0
290
     0
174
     0
 93
        1
 44
50.0
173
     0
291
     1
 45
0.0
1001
ACAD
1000
AcDbSavedByObjectVersion
1070
     0
  0
VISUALSTYLE
  5
3A
102
{ACAD_REACTORS
330
2A
102
}
330
2A
100
AcDbVisualStyle
  2
ColorChange
 70
    16
 71
     2
 72
     2
 73
     3
 90
        0
 40
-0.6
 41
-30.0
 62
     5
 63
     8
 74
     1
 91
        4
 64
     7
 65
   257
 75
     1
175
     1
 42
1.0
 92
        8
 66
     8
 43
1.0
 76
     1
 77
     6
 78
     2
 67
     7
 79
     5
170
     0
171
     0
290
     0
174
     0
 93
        1
 44
0.0
173
     0
291
     1
 45
0.0
1001
ACAD
1000
AcDbSavedByObjectVersion
1070
     0
  0
VISUALSTYLE
  5
34
102
{ACAD_REACTORS
330
2A
102
}
330
2A
100
AcDbVisualStyle
  2
Conceptual
 70
     9
 71
     3
 72
     2
 73
     0
 90
        0
 40
-0.6
 41
-30.0
 62
     5
 63
     7
 74
     2
 91
        2
 64
     7
 65
   257
 75
     1
175
     1
 42
40.0
 92
        8
 66
     7
 43
1.0
 76
     1
 77
     6
 78
     2
 67
     7
 79
     3
170
     0
171
     0
290
     0
174
     0
 93
        1
 44
0.0
173
     0
291
     0
 45
0.0
1001
ACAD
1000
AcDbSavedByObjectVersion
1070
     0
  0
VISUALSTYLE
  5
35
102
{ACAD_REACTORS
330
2A
102
}
330
2A
100
AcDbVisualStyle
  2
Dim
 70
    11
 71
     2
 72
     2
 73
     0
 90
        0
 40
-0.6
 41
-30.0
 62
     5
 63
     7
 74
     1
 91
        4
 64
     7
 65
   257
 75
     1
175
     1
 42
1.0
 92
        8
 66
     7
 43
1.0
 76
     1
 77
     6
 78
     2
 67
     7
 79
     5
170
     0
171
     0
290
     0
174
     0
 93
        1
 44
-50.0
173
     0
291
     1
 45
0.0
1001
ACAD
1000
AcDbSavedByObjectVersion
1070
     0
  0
VISUALSTYLE
  5
39
102
{ACAD_REACTORS
330
2A
102
}
330
2A
100
AcDbVisualStyle
  2
Facepattern
 70
    15
 71
     2
 72
     2
 73
     0
 90
        0
 40
-0.6
 41
-30.0
 62
     5
 63
     7
 74
     1
 91
        4
 64
     7
 65
   257
 75
     1
175
     1
 42
1.0
 92
        8
 66
     7
 43
1.0
 76
     1
 77
     6
 78
     2
 67
     7
 79
     5
170
     0
171
     0
290
     0
174
     0
 93
        1
 44
0.0
173
     0
291
     1
 45
0.0
1001
ACAD
1000
AcDbSavedByObjectVersion
1070
     0
  0
VISUALSTYLE
  5
2B
102
{ACAD_REACTORS
330
2A
102
}
330
2A
100
AcDbVisualStyle
  2
Flat
 70
     0
 71
     2
 72
     1
 73
     1
 90
        2
 40
-0.6
 41
30.0
 62
     5
 63
     7
 74
     0
 91
        4
 64
     7
 65
   257
 75
     1
175
     1
 42
1.0
 92
        8
 66
     7
 43
1.0
 76
     1
 77
     6
 78
     2
 67
     7
 79
     5
170
     0
171
     0
290
     0
174
     0
 93
       13
 44
0.0
173
     0
291
     1
 45
0.0
1001
ACAD
1000
AcDbSavedByObjectVersion
1070
     0
  0
VISUALSTYLE
  5
2C
102
{ACAD_REACTORS
330
2A
102
}
330
2A
100
AcDbVisualStyle
  2
FlatWithEdges
 70
     1
 71
     2
 72
     1
 73
     1
 90
        2
 40
-0.6
 41
30.0
 62
     5
 63
     7
 74
     1
 91
        4
 64
     7
 65
   257
 75
     1
175
     1
 42
1.0
 92
        0
 66
   257
 43
1.0
 76
     1
 77
     6
 78
     2
 67
     7
 79
     5
170
     0
171
     0
290
     0
174
     0
 93
       13
 44
0.0
173
     0
291
     1
 45
0.0
1001
ACAD
1000
AcDbSavedByObjectVersion
1070
     0
  0
VISUALSTYLE
  5
2D
102
{ACAD_REACTORS
330
2A
102
}
330
2A
100
AcDbVisualStyle
  2
Gouraud
 70
     2
 71
     2
 72
     2
 73
     1
 90
        2
 40
-0.6
 41
30.0
 62
     5
 63
     7
 74
     0
 91
        4
 64
     7
 65
   257
 75
     1
175
     1
 42
1.0
 92
        0
 66
     7
 43
1.0
 76
     1
 77
     6
 78
     2
 67
     7
 79
     5
170
     0
171
     0
290
     0
174
     0
 93
       13
 44
0.0
173
     0
291
     1
 45
0.0
1001
ACAD
1000
AcDbSavedByObjectVersion
1070
     0
  0
VISUALSTYLE
  5
2E
102
{ACAD_REACTORS
330
2A
102
}
330
2A
100
AcDbVisualStyle
  2
GouraudWithEdges
 70
     3
 71
     2
 72
     2
 73
     1
 90
        2
 40
-0.6
 41
30.0
 62
     5
 63
     7
 74
     1
 91
        4
 64
     7
 65
   257
 75
     1
175
     1
 42
1.0
 92
        0
 66
   257
 43
1.0
 76
     1
 77
     6
 78
     2
 67
     7
 79
     5
170
     0
171
     0
290
     0
174
     0
 93
       13
 44
0.0
173
     0
291
     1
 45
0.0
1001
ACAD
1000
AcDbSavedByObjectVersion
1070
     0
  0
VISUALSTYLE
  5
38
102
{ACAD_REACTORS
330
2A
102
}
330
2A
100
AcDbVisualStyle
  2
Linepattern
 70
    14
 71
     2
 72
     2
 73
     0
 90
        0
 40
-0.6
 41
-30.0
 62
     5
 63
     7
 74
     1
 91
        4
 64
     7
 65
   257
 75
     7
175
     7
 42
1.0
 92
        8
 66
     7
 43
1.0
 76
     1
 77
     6
 78
     2
 67
     7
 79
     5
170
     0
171
     0
290
     0
174
     0
 93
        1
 44
0.0
173
     0
291
     1
 45
0.0
1001
ACAD
1000
AcDbSavedByObjectVersion
1070
     0
  0
VISUALSTYLE
  5
33
102
{ACAD_REACTORS
330
2A
102
}
330
2A
100
AcDbVisualStyle
  2
Realistic
 70
     8
 71
     2
 72
     2
 73
     0
 90
        0
 40
-0.6
 41
-30.0
 62
     5
 63
     7
 74
     1
 91
        0
 64
     7
 65
   257
 75
     1
175
     1
 42
1.0
 92
        8
 66
     8
 43
1.0
 76
     1
 77
     6
 78
     2
 67
     7
 79
     5
170
     0
171
     0
290
     0
174
     0
 93
       13
 44
0.0
173
     0
291
     0
 45
0.0
1001
ACAD
1000
AcDbSavedByObjectVersion
1070
     0
  0
VISUALSTYLE
  5
37
102
{ACAD_REACTORS
330
2A
102
}
330
2A
100
AcDbVisualStyle
  2
Thicken
 70
    13
 71
     2
 72
     2
 73
     0
 90
        0
 40
-0.6
 41
-30.0
 62
     5
 63
     7
 74
     1
 91
        4
 64
     7
 65
   257
 75
     1
175
     1
 42
1.0
 92
       12
 66
     7
 43
1.0
 76
     1
 77
     6
 78
     2
 67
     7
 79
     5
170
     0
171
     0
290
     0
174
     0
 93
        1
 44
0.0
173
     0
291
     1
 45
0.0
1001
ACAD
1000
AcDbSavedByObjectVersion
1070
     0
  0
DICTIONARYVAR
  5
37C
102
{ACAD_REACTORS
330
37B
102
}
330
37B
100
DictionaryVariables
280
     0
  1
1:1
  0
DICTIONARYVAR
  5
380
102
{ACAD_REACTORS
330
37B
102
}
330
37B
100
DictionaryVariables
280
     0
  1
80.000000
  0
DICTIONARYVAR
  5
37F
102
{ACAD_REACTORS
330
37B
102
}
330
37B
100
DictionaryVariables
280
     0
  1
5.000000
  0
ENDSEC
  0
EOF
