  0
SECTION
  2
HEADER
  9
$ACADVER
  1
AC1015
  9
$ACADMAINTVER
 70
     6
  9
$DWGCODEPAGE
  3
ANSI_1252
  9
$INSBASE
 10
0.0
 20
0.0
 30
0.0
  9
$EXTMIN
 10
0.0
 20
0.0
 30
0.0
  9
$EXTMAX
 10
3000.0
 20
4500.0
 30
0.0
  9
$LIMMIN
 10
0.0
 20
0.0
  9
$LIMMAX
 10
3000.0
 20
4500.0
  9
$ORTHOMODE
 70
     0
  9
$REGENMODE
 70
     1
  9
$FILLMODE
 70
     1
  9
$QTEXTMODE
 70
     0
  9
$MIRRTEXT
 70
     1
  9
$LTSCALE
 40
1.0
  9
$ATTMODE
 70
     1
  9
$TEXTSIZE
 40
2.5
  9
$TRACEWID
 40
1.0
  9
$TEXTSTYLE
  7
Standard
  9
$CLAYER
  8
0
  9
$CELTYPE
  6
ByLayer
  9
$CECOLOR
 62
   256
  9
$CELTSCALE
 40
1.0
  9
$DISPSILH
 70
     0
  9
$DIMSCALE
 40
1.0
  9
$DIMASZ
 40
2.5
  9
$DIMEXO
 40
0.625
  9
$DIMDLI
 40
3.75
  9
$DIMRND
 40
0.0
  9
$DIMDLE
 40
0.0
  9
$DIMEXE
 40
1.25
  9
$DIMTP
 40
0.0
  9
$DIMTM
 40
0.0
  9
$DIMTXT
 40
2.5
  9
$DIMCEN
 40
2.5
  9
$DIMTSZ
 40
0.0
  9
$DIMTOL
 70
     0
  9
$DIMLIM
 70
     0
  9
$DIMTIH
 70
     0
  9
$DIMTOH
 70
     0
  9
$DIMSE1
 70
     0
  9
$DIMSE2
 70
     0
  9
$DIMTAD
 70
     1
  9
$DIMZIN
 70
     8
  9
$DIMBLK
  1

  9
$DIMASO
 70
     1
  9
$DIMSHO
 70
     1
  9
$DIMPOST
  1

  9
$DIMAPOST
  1

  9
$DIMALT
 70
     0
  9
$DIMALTD
 70
     3
  9
$DIMALTF
 40
0.0393700787
  9
$DIMLFAC
 40
1.0
  9
$DIMTOFL
 70
     1
  9
$DIMTVP
 40
0.0
  9
$DIMTIX
 70
     0
  9
$DIMSOXD
 70
     0
  9
$DIMSAH
 70
     0
  9
$DIMBLK1
  1

  9
$DIMBLK2
  1

  9
$DIMSTYLE
  2
ISO-25
  9
$DIMCLRD
 70
     0
  9
$DIMCLRE
 70
     0
  9
$DIMCLRT
 70
     0
  9
$DIMTFAC
 40
1.0
  9
$DIMGAP
 40
0.625
  9
$DIMJUST
 70
     0
  9
$DIMSD1
 70
     0
  9
$DIMSD2
 70
     0
  9
$DIMTOLJ
 70
     0
  9
$DIMTZIN
 70
     8
  9
$DIMALTZ
 70
     0
  9
$DIMALTTZ
 70
     0
  9
$DIMUPT
 70
     0
  9
$DIMDEC
 70
     2
  9
$DIMTDEC
 70
     2
  9
$DIMALTU
 70
     2
  9
$DIMALTTD
 70
     3
  9
$DIMTXSTY
  7
Standard
  9
$DIMAUNIT
 70
     0
  9
$DIMADEC
 70
     0
  9
$DIMALTRND
 40
0.0
  9
$DIMAZIN
 70
     0
  9
$DIMDSEP
 70
    44
  9
$DIMATFIT
 70
     3
  9
$DIMFRAC
 70
     0
  9
$DIMLDRBLK
  1

  9
$DIMLUNIT
 70
     2
  9
$DIMLWD
 70
    -2
  9
$DIMLWE
 70
    -2
  9
$DIMTMOVE
 70
     0
  9
$LUNITS
 70
     2
  9
$LUPREC
 70
     4
  9
$SKETCHINC
 40
1.0
  9
$FILLETRAD
 40
10.0
  9
$AUNITS
 70
     0
  9
$AUPREC
 70
     0
  9
$MENU
  1
.
  9
$ELEVATION
 40
0.0
  9
$PELEVATION
 40
0.0
  9
$THICKNESS
 40
0.0
  9
$LIMCHECK
 70
     0
  9
$CHAMFERA
 40
10.0
  9
$CHAMFERB
 40
10.0
  9
$CHAMFERC
 40
20.0
  9
$CHAMFERD
 40
0.0
  9
$SKPOLY
 70
     0
  9
$TDCREATE
 40
2456609.545918692
  9
$TDUCREATE
 40
2456609.504252025
  9
$TDUPDATE
 40
2456609.545918704
  9
$TDUUPDATE
 40
2456609.504252037
  9
$TDINDWG
 40
0.0000000116
  9
$TDUSRTIMER
 40
0.0000000116
  9
$USRTIMER
 70
     1
  9
$ANGBASE
 50
0.0
  9
$ANGDIR
 70
     0
  9
$PDMODE
 70
     0
  9
$PDSIZE
 40
0.0
  9
$PLINEWID
 40
0.0
  9
$SPLFRAME
 70
     0
  9
$SPLINETYPE
 70
     6
  9
$SPLINESEGS
 70
     8
  9
$HANDSEED
  5
336
  9
$SURFTAB1
 70
     6
  9
$SURFTAB2
 70
     6
  9
$SURFTYPE
 70
     6
  9
$SURFU
 70
     6
  9
$SURFV
 70
     6
  9
$UCSBASE
  2

  9
$UCSNAME
  2

  9
$UCSORG
 10
0.0
 20
0.0
 30
0.0
  9
$UCSXDIR
 10
1.0
 20
0.0
 30
0.0
  9
$UCSYDIR
 10
0.0
 20
1.0
 30
0.0
  9
$UCSORTHOREF
  2

  9
$UCSORTHOVIEW
 70
     0
  9
$UCSORGTOP
 10
0.0
 20
0.0
 30
0.0
  9
$UCSORGBOTTOM
 10
0.0
 20
0.0
 30
0.0
  9
$UCSORGLEFT
 10
0.0
 20
0.0
 30
0.0
  9
$UCSORGRIGHT
 10
0.0
 20
0.0
 30
0.0
  9
$UCSORGFRONT
 10
0.0
 20
0.0
 30
0.0
  9
$UCSORGBACK
 10
0.0
 20
0.0
 30
0.0
  9
$PUCSBASE
  2

  9
$PUCSNAME
  2

  9
$PUCSORG
 10
0.0
 20
0.0
 30
0.0
  9
$PUCSXDIR
 10
1.0
 20
0.0
 30
0.0
  9
$PUCSYDIR
 10
0.0
 20
1.0
 30
0.0
  9
$PUCSORTHOREF
  2

  9
$PUCSORTHOVIEW
 70
     0
  9
$PUCSORGTOP
 10
0.0
 20
0.0
 30
0.0
  9
$PUCSORGBOTTOM
 10
0.0
 20
0.0
 30
0.0
  9
$PUCSORGLEFT
 10
0.0
 20
0.0
 30
0.0
  9
$PUCSORGRIGHT
 10
0.0
 20
0.0
 30
0.0
  9
$PUCSORGFRONT
 10
0.0
 20
0.0
 30
0.0
  9
$PUCSORGBACK
 10
0.0
 20
0.0
 30
0.0
  9
$USERI1
 70
     0
  9
$USERI2
 70
     0
  9
$USERI3
 70
     0
  9
$USERI4
 70
     0
  9
$USERI5
 70
     0
  9
$USERR1
 40
0.0
  9
$USERR2
 40
0.0
  9
$USERR3
 40
0.0
  9
$USERR4
 40
0.0
  9
$USERR5
 40
0.0
  9
$WORLDVIEW
 70
     1
  9
$SHADEDGE
 70
     3
  9
$SHADEDIF
 70
    70
  9
$TILEMODE
 70
     1
  9
$MAXACTVP
 70
    64
  9
$PINSBASE
 10
0.0
 20
0.0
 30
0.0
  9
$PLIMCHECK
 70
     0
  9
$PEXTMIN
 10
0.0
 20
0.0
 30
0.0
  9
$PEXTMAX
 10
3000.0
 20
4500.0
 30
0.0
  9
$PLIMMIN
 10
0.0
 20
0.0
  9
$PLIMMAX
 10
3000.0
 20
4500.0
  9
$UNITMODE
 70
     0
  9
$VISRETAIN
 70
     1
  9
$PLINEGEN
 70
     0
  9
$PSLTSCALE
 70
     1
  9
$TREEDEPTH
 70
  3020
  9
$CMLSTYLE
  2
Standard
  9
$CMLJUST
 70
     0
  9
$CMLSCALE
 40
20.0
  9
$PROXYGRAPHICS
 70
     1
  9
$MEASUREMENT
 70
     1
  9
$CELWEIGHT
370
    -1
  9
$ENDCAPS
280
     0
  9
$JOINSTYLE
280
     0
  9
$LWDISPLAY
290
     0
  9
$INSUNITS
 70
     4
  9
$HYPERLINKBASE
  1

  9
$STYLESHEET
  1

  9
$XEDIT
290
     1
  9
$CEPSNTYPE
380
     0
  9
$PSTYLEMODE
290
     1
  9
$FINGERPRINTGUID
  2
{52C2CA5A-20C1-4069-BA62-65F3C3A866A1}
  9
$VERSIONGUID
  2
{FAEB1C32-E019-11D5-929B-00C0DF256EC4}
  9
$EXTNAMES
290
     1
  9
$PSVPSCALE
 40
0.0
  9
$OLESTARTUP
290
     0
  0
ENDSEC
  0
SECTION
  2
CLASSES
  0
CLASS
  1
ACDBDICTIONARYWDFLT
  2
AcDbDictionaryWithDefault
  3
ObjectDBX Classes
 90
        0
280
     0
281
     0
  0
CLASS
  1
VISUALSTYLE
  2
AcDbVisualStyle
  3
ObjectDBX Classes
 90
     4095
280
     0
281
     0
  0
CLASS
  1
SCALE
  2
AcDbScale
  3
ObjectDBX Classes
 90
     1153
280
     0
281
     0
  0
CLASS
  1
DICTIONARYVAR
  2
AcDbDictionaryVar
  3
ObjectDBX Classes
 90
        0
280
     0
281
     0
  0
CLASS
  1
ACDBPLACEHOLDER
  2
AcDbPlaceHolder
  3
ObjectDBX Classes
 90
        0
280
     0
281
     0
  0
CLASS
  1
LAYOUT
  2
AcDbLayout
  3
ObjectDBX Classes
 90
        0
280
     0
281
     0
  0
ENDSEC
  0
SECTION
  2
TABLES
  0
TABLE
  2
VPORT
  5
8
330
0
100
AcDbSymbolTable
 70
     1
  0
VPORT
  5
29
330
8
100
AcDbSymbolTableRecord
100
AcDbViewportTableRecord
  2
*Active
 70
     0
 10
0.0
 20
0.0
 11
1.0
 21
1.0
 12
344.1869158879
 22
148.5
 13
0.0
 23
0.0
 14
10.0
 24
10.0
 15
10.0
 25
10.0
 16
0.0
 26
0.0
 36
1.0
 17
0.0
 27
0.0
 37
0.0
 40
297.0
 41
1.9729729729
 42
50.0
 43
0.0
 44
0.0
 50
0.0
 51
0.0
 71
     0
 72
   100
 73
     1
 74
     3
 75
     0
 76
     0
 77
     0
 78
     0
281
     0
 65
     1
110
0.0
120
0.0
130
0.0
111
1.0
121
0.0
131
0.0
112
0.0
122
1.0
132
0.0
 79
     0
146
0.0
  0
ENDTAB
  0
TABLE
  2
LTYPE
  5
5
330
0
100
AcDbSymbolTable
 70
     2
  0
LTYPE
  5
14
330
5
100
AcDbSymbolTableRecord
100
AcDbLinetypeTableRecord
  2
ByBlock
 70
     0
  3

 72
    65
 73
     0
 40
0.0
  0
LTYPE
  5
15
330
5
100
AcDbSymbolTableRecord
100
AcDbLinetypeTableRecord
  2
ByLayer
 70
     0
  3

 72
    65
 73
     0
 40
0.0
  0
LTYPE
  5
16
330
5
100
AcDbSymbolTableRecord
100
AcDbLinetypeTableRecord
  2
Continuous
 70
     0
  3
Solid line
 72
    65
 73
     0
 40
0.0
  0
LTYPE
  5
60
330
5
100
AcDbSymbolTableRecord
100
AcDbLinetypeTableRecord
  2
CENTER2
 70
     0
  3
Center (.5x) ___ _ ___ _ ___ _ ___ _ ___ _ ___
 72
    65
 73
     4
 40
28.575
 49
19.05
 74
     4
 75
     0
340
0
 46
0.0
 50
0.0
 44
0.0
 45
0.0
 49
-3.175
 74
     4
 75
     0
340
0
 46
0.0
 50
0.0
 44
0.0
 45
0.0
 49
3.175
 74
     4
 75
     0
340
0
 46
0.0
 50
0.0
 44
0.0
 45
0.0
 49
-3.175
 74
     4
 75
     0
340
0
 46
0.0
 50
0.0
 44
0.0
 45
0.0
  0
ENDTAB
  0
TABLE
  2
LAYER
  5
2
330
0
100
AcDbSymbolTable
 70
     7
  0
LAYER
  5
10
330
2
100
AcDbSymbolTableRecord
100
AcDbLayerTableRecord
  2
0
 70
     0
 62
     7
  6
Continuous
370
    -3
390
F
  0
LAYER
  5
5D
330
2
100
AcDbSymbolTableRecord
100
AcDbLayerTableRecord
  2
Default
 70
     0
 62
     7
  6
Continuous
370
    -3
390
F
  0
LAYER
  5
7F
330
2
100
AcDbSymbolTableRecord
100
AcDbLayerTableRecord
  2
$DDT_AUDIT_GENERATED_(7F)
 70
     0
 62
     7
  6
Continuous
370
    -3
390
F
  0
LAYER
  5
D0
330
2
100
AcDbSymbolTableRecord
100
AcDbLayerTableRecord
  2
$DDT_AUDIT_GENERATED_(D0)
 70
     0
 62
     7
  6
Continuous
370
    -3
390
F
  0
LAYER
  5
D5
330
2
100
AcDbSymbolTableRecord
100
AcDbLayerTableRecord
  2
67962040_TRAFO_2
 70
     0
 62
     7
  6
Continuous
370
    -3
390
F
  0
LAYER
  5
2EF
330
2
100
AcDbSymbolTableRecord
100
AcDbLayerTableRecord
  2
491294038_PLATTE
 70
     0
 62
     7
  6
Continuous
370
    -3
390
F
  0
LAYER
  5
2FC
330
2
100
AcDbSymbolTableRecord
100
AcDbLayerTableRecord
  2
491049040_IR-ELE
 70
     0
 62
     7
  6
Continuous
370
    -3
390
F
  0
ENDTAB
  0
TABLE
  2
STYLE
  5
3
330
0
100
AcDbSymbolTable
 70
     2
  0
STYLE
  5
11
330
3
100
AcDbSymbolTableRecord
100
AcDbTextStyleTableRecord
  2
Standard
 70
     0
 40
0.0
 41
1.0
 50
0.0
 71
     0
 42
2.5
  3
txt
  4

  0
STYLE
  5
325
330
3
100
AcDbSymbolTableRecord
100
AcDbTextStyleTableRecord
  2
SEACAD_seiso_ttf
 70
     0
 40
0.0
 41
1.0
 50
0.0
 71
     0
 42
0.2
  3
seiso.ttf
  4

  0
ENDTAB
  0
TABLE
  2
VIEW
  5
6
330
0
100
AcDbSymbolTable
 70
     0
  0
ENDTAB
  0
TABLE
  2
UCS
  5
7
330
0
100
AcDbSymbolTable
 70
     0
  0
ENDTAB
  0
TABLE
  2
APPID
  5
9
330
0
100
AcDbSymbolTable
 70
     1
  0
APPID
  5
12
330
9
100
AcDbSymbolTableRecord
100
AcDbRegAppTableRecord
  2
ACAD
 70
     0
  0
ENDTAB
  0
TABLE
  2
DIMSTYLE
  5
A
330
0
100
AcDbSymbolTable
 70
     1
100
AcDbDimStyleTable
  0
DIMSTYLE
105
27
330
A
100
AcDbSymbolTableRecord
100
AcDbDimStyleTableRecord
  2
ISO-25
 70
     0
 41
2.5
 42
0.625
 43
3.75
 44
1.25
 73
     0
 74
     0
 77
     1
 78
     8
140
2.5
141
2.5
143
0.0393700787
147
0.625
171
     3
172
     1
271
     2
272
     2
274
     3
278
    44
283
     0
284
     8
340
11
  0
ENDTAB
  0
TABLE
  2
BLOCK_RECORD
  5
1
330
0
100
AcDbSymbolTable
 70
    12
  0
BLOCK_RECORD
  5
1F
330
1
100
AcDbSymbolTableRecord
100
AcDbBlockTableRecord
  2
*Model_Space
340
22
  0
BLOCK_RECORD
  5
1B
330
1
100
AcDbSymbolTableRecord
100
AcDbBlockTableRecord
  2
*Paper_Space
340
1E
  0
BLOCK_RECORD
  5
5E
330
1
100
AcDbSymbolTableRecord
100
AcDbBlockTableRecord
  2
SEANNOT_GROUP
340
0
102
{BLKREFS
331
5F
102
}
  0
BLOCK_RECORD
  5
65
330
1
100
AcDbSymbolTableRecord
100
AcDbBlockTableRecord
  2
SEANNOT_GROUP1
340
0
102
{BLKREFS
331
66
102
}
  0
BLOCK_RECORD
  5
6B
330
1
100
AcDbSymbolTableRecord
100
AcDbBlockTableRecord
  2
SEANNOT_GROUP2
340
0
102
{BLKREFS
331
6C
102
}
  0
BLOCK_RECORD
  5
71
330
1
100
AcDbSymbolTableRecord
100
AcDbBlockTableRecord
  2
SEANNOT_GROUP3
340
0
102
{BLKREFS
331
72
102
}
  0
BLOCK_RECORD
  5
77
330
1
100
AcDbSymbolTableRecord
100
AcDbBlockTableRecord
  2
SEANNOT_GROUP4
340
0
102
{BLKREFS
331
78
102
}
  0
BLOCK_RECORD
  5
7D
330
1
100
AcDbSymbolTableRecord
100
AcDbBlockTableRecord
  2
SE
340
0
102
{BLKREFS
331
7E
102
}
  0
BLOCK_RECORD
  5
183
330
1
100
AcDbSymbolTableRecord
100
AcDbBlockTableRecord
  2
SE1
340
0
102
{BLKREFS
331
184
102
}
  0
BLOCK_RECORD
  5
232
330
1
100
AcDbSymbolTableRecord
100
AcDbBlockTableRecord
  2
SE2
340
0
102
{BLKREFS
331
233
102
}
  0
BLOCK_RECORD
  5
2ED
330
1
100
AcDbSymbolTableRecord
100
AcDbBlockTableRecord
  2
SE3
340
0
102
{BLKREFS
331
2EE
102
}
  0
BLOCK_RECORD
  5
305
330
1
100
AcDbSymbolTableRecord
100
AcDbBlockTableRecord
  2
SE4
340
0
102
{BLKREFS
331
306
102
}
  0
BLOCK_RECORD
  5
317
330
1
100
AcDbSymbolTableRecord
100
AcDbBlockTableRecord
  2
SE5
340
0
102
{BLKREFS
331
318
102
}
  0
ENDTAB
  0
ENDSEC
  0
SECTION
  2
BLOCKS
  0
BLOCK
  5
20
330
1F
100
AcDbEntity
  8
0
100
AcDbBlockBegin
  2
*Model_Space
 70
     0
 10
0.0
 20
0.0
 30
0.0
  3
*Model_Space
  1

  0
ENDBLK
  5
21
330
1F
100
AcDbEntity
  8
0
100
AcDbBlockEnd
  0
BLOCK
  5
1C
330
1B
100
AcDbEntity
 67
     1
  8
0
100
AcDbBlockBegin
  2
*Paper_Space
 70
     0
 10
0.0
 20
0.0
 30
0.0
  3
*Paper_Space
  1

  0
ENDBLK
  5
1D
330
1B
100
AcDbEntity
 67
     1
  8
0
100
AcDbBlockEnd
  0
BLOCK
  5
63
330
5E
100
AcDbEntity
  8
0
100
AcDbBlockBegin
  2
SEANNOT_GROUP
 70
     0
 10
0.0
 20
0.0
 30
0.0
  3
SEANNOT_GROUP
  1

  0
LINE
  5
61
330
5E
100
AcDbEntity
  8
Default
  6
CENTER2
 62
     7
100
AcDbLine
 10
225.5137359402
 20
272.5285449085
 30
0.0
 11
185.5137368343
 21
272.5285449085
 31
0.0
  0
LINE
  5
62
330
5E
100
AcDbEntity
  8
Default
  6
CENTER2
 62
     7
100
AcDbLine
 10
205.5137363872
 20
292.5285444614
 30
0.0
 11
205.5137363872
 21
252.5285453555
 31
0.0
  0
ENDBLK
  5
64
330
5E
100
AcDbEntity
  8
0
100
AcDbBlockEnd
  0
BLOCK
  5
69
330
65
100
AcDbEntity
  8
0
100
AcDbBlockBegin
  2
SEANNOT_GROUP1
 70
     0
 10
0.0
 20
0.0
 30
0.0
  3
SEANNOT_GROUP1
  1

  0
LINE
  5
67
330
65
100
AcDbEntity
  8
Default
  6
CENTER2
 62
     7
100
AcDbLine
 10
84.349999553
 20
117.3650102808
 30
0.0
 11
44.350000447
 21
117.3650102808
 31
0.0
  0
LINE
  5
68
330
65
100
AcDbEntity
  8
Default
  6
CENTER2
 62
     7
100
AcDbLine
 10
64.35
 20
137.3650098338
 30
0.0
 11
64.35
 21
97.3650107278
 31
0.0
  0
ENDBLK
  5
6A
330
65
100
AcDbEntity
  8
0
100
AcDbBlockEnd
  0
BLOCK
  5
6F
330
6B
100
AcDbEntity
  8
0
100
AcDbBlockBegin
  2
SEANNOT_GROUP2
 70
     0
 10
0.0
 20
0.0
 30
0.0
  3
SEANNOT_GROUP2
  1

  0
LINE
  5
6D
330
6B
100
AcDbEntity
  8
Default
  6
CENTER2
 62
     7
100
AcDbLine
 10
462.0148553378
 20
165.8277208832
 30
0.0
 11
422.0148562319
 21
165.8277208832
 31
0.0
  0
LINE
  5
6E
330
6B
100
AcDbEntity
  8
Default
  6
CENTER2
 62
     7
100
AcDbLine
 10
442.0148557848
 20
185.8277204362
 30
0.0
 11
442.0148557848
 21
145.8277213303
 31
0.0
  0
ENDBLK
  5
70
330
6B
100
AcDbEntity
  8
0
100
AcDbBlockEnd
  0
BLOCK
  5
75
330
71
100
AcDbEntity
  8
0
100
AcDbBlockBegin
  2
SEANNOT_GROUP3
 70
     0
 10
0.0
 20
0.0
 30
0.0
  3
SEANNOT_GROUP3
  1

  0
LINE
  5
73
330
71
100
AcDbEntity
  8
Default
  6
CENTER2
 62
     7
100
AcDbLine
 10
443.0148553378
 20
301.7021192857
 30
0.0
 11
403.0148562319
 21
301.7021192857
 31
0.0
  0
LINE
  5
74
330
71
100
AcDbEntity
  8
Default
  6
CENTER2
 62
     7
100
AcDbLine
 10
423.0148557848
 20
321.7021188387
 30
0.0
 11
423.0148557848
 21
281.7021197328
 31
0.0
  0
ENDBLK
  5
76
330
71
100
AcDbEntity
  8
0
100
AcDbBlockEnd
  0
BLOCK
  5
7B
330
77
100
AcDbEntity
  8
0
100
AcDbBlockBegin
  2
SEANNOT_GROUP4
 70
     0
 10
0.0
 20
0.0
 30
0.0
  3
SEANNOT_GROUP4
  1

  0
LINE
  5
79
330
77
100
AcDbEntity
  8
Default
  6
CENTER2
 62
     7
100
AcDbLine
 10
503.0148553378
 20
301.7021192857
 30
0.0
 11
463.0148562319
 21
301.7021192857
 31
0.0
  0
LINE
  5
7A
330
77
100
AcDbEntity
  8
Default
  6
CENTER2
 62
     7
100
AcDbLine
 10
483.0148557848
 20
321.7021188387
 30
0.0
 11
483.0148557848
 21
281.7021197328
 31
0.0
  0
ENDBLK
  5
7C
330
77
100
AcDbEntity
  8
0
100
AcDbBlockEnd
  0
BLOCK
  5
181
330
7D
100
AcDbEntity
  8
0
100
AcDbBlockBegin
  2
SE
 70
     0
 10
0.0
 20
0.0
 30
0.0
  3
SE
  1

  0
ARC
  5
80
330
7D
100
AcDbEntity
  8
$DDT_AUDIT_GENERATED_(7F)
  6
Continuous
 62
     7
100
AcDbCircle
 10
423.4148557848
 20
303.4021192857
 30
0.0
 40
0.1999999999999997
100
AcDbArc
 50
179.9999999882
 51
269.9999999941
  0
LINE
  5
81
330
7D
100
AcDbEntity
  8
$DDT_AUDIT_GENERATED_(7F)
  6
Continuous
 62
     7
100
AcDbLine
 10
426.8148557848
 20
303.2021192857
 30
0.0
 11
423.4148557848
 21
303.2021192857
 31
0.0
  0
LINE
  5
82
330
7D
100
AcDbEntity
  8
$DDT_AUDIT_GENERATED_(7F)
  6
Continuous
 62
     7
100
AcDbLine
 10
423.4148557848
 20
312.2021192857
 30
0.0
 11
426.8148557849
 21
312.2021192857
 31
0.0
  0
ARC
  5
83
330
7D
100
AcDbEntity
  8
$DDT_AUDIT_GENERATED_(7F)
  6
Continuous
 62
     7
100
AcDbCircle
 10
423.4148557848
 20
312.0021192857
 30
0.0
 40
0.1999999999999988
100
AcDbArc
 50
90.000000011
 51
179.9999999882
  0
LINE
  5
84
330
7D
100
AcDbEntity
  8
$DDT_AUDIT_GENERATED_(7F)
  6
Continuous
 62
     7
100
AcDbLine
 10
423.2148557848
 20
303.4021192858
 30
0.0
 11
423.2148557848
 21
303.7021192858
 31
0.0
  0
LINE
  5
85
330
7D
100
AcDbEntity
  8
$DDT_AUDIT_GENERATED_(7F)
  6
Continuous
 62
     7
100
AcDbLine
 10
423.2148557848
 20
311.7021192857
 30
0.0
 11
423.2148557848
 21
312.0021192858
 31
0.0
  0
ARC
  5
86
330
7D
100
AcDbEntity
  8
$DDT_AUDIT_GENERATED_(7F)
  6
Continuous
 62
     7
100
AcDbCircle
 10
482.6148557848
 20
303.4021192857
 30
0.0
 40
0.1999999999999988
100
AcDbArc
 50
269.9999999941
 51
0.0
  0
LINE
  5
87
330
7D
100
AcDbEntity
  8
$DDT_AUDIT_GENERATED_(7F)
  6
Continuous
 62
     7
100
AcDbLine
 10
482.8148557848
 20
312.0021192857
 30
0.0
 11
482.8148557848
 21
311.7021192857
 31
0.0
  0
LINE
  5
88
330
7D
100
AcDbEntity
  8
$DDT_AUDIT_GENERATED_(7F)
  6
Continuous
 62
     7
100
AcDbLine
 10
482.8148557848
 20
303.7021192855
 30
0.0
 11
482.8148557848
 21
303.4021192857
 31
0.0
  0
ARC
  5
89
330
7D
100
AcDbEntity
  8
$DDT_AUDIT_GENERATED_(7F)
  6
Continuous
 62
     7
100
AcDbCircle
 10
482.6148557848
 20
312.0021192857
 30
0.0
 40
0.1999999999999997
100
AcDbArc
 50
0.0000000051
 51
90.000000011
  0
LINE
  5
8A
330
7D
100
AcDbEntity
  8
$DDT_AUDIT_GENERATED_(7F)
  6
Continuous
 62
     7
100
AcDbLine
 10
479.2148557849
 20
312.2021192857
 30
0.0
 11
482.6148557848
 21
312.2021192857
 31
0.0
  0
LINE
  5
8B
330
7D
100
AcDbEntity
  8
$DDT_AUDIT_GENERATED_(7F)
  6
Continuous
 62
     7
100
AcDbLine
 10
482.6148557848
 20
303.2021192857
 30
0.0
 11
479.2148557848
 21
303.2021192857
 31
0.0
  0
ARC
  5
8C
330
7D
100
AcDbEntity
  8
$DDT_AUDIT_GENERATED_(7F)
  6
Continuous
 62
     7
100
AcDbCircle
 10
483.0148557848
 20
320.2295854927
 30
0.0
 40
3.999999999940356
100
AcDbArc
 50
180.0
 51
239.9999999966
  0
LINE
  5
8D
330
7D
100
AcDbEntity
  8
$DDT_AUDIT_GENERATED_(7F)
  6
Continuous
 62
     7
100
AcDbLine
 10
483.3762725273
 20
315.402119286
 30
0.0
 11
481.0148557846
 21
316.7654838778
 31
0.0
  0
ARC
  5
8E
330
7D
100
AcDbEntity
  8
$DDT_AUDIT_GENERATED_(7F)
  6
Continuous
 62
     7
100
AcDbCircle
 10
481.8762725278
 20
312.8040430747
 30
0.0
 40
2.999999999710737
100
AcDbArc
 50
25.1608112704
 51
60.0000000083
  0
ARC
  5
8F
330
7D
100
AcDbEntity
  8
$DDT_AUDIT_GENERATED_(7F)
  6
Continuous
 62
     7
100
AcDbCircle
 10
471.0148557848
 20
307.7021192857
 30
0.0
 40
15.00000000028926
100
AcDbArc
 50
334.8391887039
 51
25.1608112909
  0
ARC
  5
90
330
7D
100
AcDbEntity
  8
$DDT_AUDIT_GENERATED_(7F)
  6
Continuous
 62
     7
100
AcDbCircle
 10
481.8762725278
 20
302.6001954967
 30
0.0
 40
2.999999999694026
100
AcDbArc
 50
299.9999999866
 51
334.8391887039
  0
LINE
  5
91
330
7D
100
AcDbEntity
  8
$DDT_AUDIT_GENERATED_(7F)
  6
Continuous
 62
     7
100
AcDbLine
 10
481.014855785
 20
298.6387546938
 30
0.0
 11
483.3762725271
 21
300.0021192853
 31
0.0
  0
ARC
  5
92
330
7D
100
AcDbEntity
  8
$DDT_AUDIT_GENERATED_(7F)
  6
Continuous
 62
     7
100
AcDbCircle
 10
483.0148557848
 20
295.1746530787
 30
0.0
 40
4.0
100
AcDbArc
 50
119.9999999983
 51
180.0
  0
ARC
  5
93
330
7D
100
AcDbEntity
  8
$DDT_AUDIT_GENERATED_(7F)
  6
Continuous
 62
     7
100
AcDbCircle
 10
423.0148557848
 20
295.1746530787
 30
0.0
 40
3.999999999940348
100
AcDbArc
 50
0.0000000118
 51
60.0000000083
  0
LINE
  5
94
330
7D
100
AcDbEntity
  8
$DDT_AUDIT_GENERATED_(7F)
  6
Continuous
 62
     7
100
AcDbLine
 10
422.6534390418
 20
300.0021192857
 30
0.0
 11
425.0148557843
 21
298.6387546941
 31
0.0
  0
ARC
  5
95
330
7D
100
AcDbEntity
  8
$DDT_AUDIT_GENERATED_(7F)
  6
Continuous
 62
     7
100
AcDbCircle
 10
424.1534390418
 20
302.6001954967
 30
0.0
 40
2.999999999710756
100
AcDbArc
 50
205.1608113549
 51
239.9999999966
  0
ARC
  5
96
330
7D
100
AcDbEntity
  8
$DDT_AUDIT_GENERATED_(7F)
  6
Continuous
 62
     7
100
AcDbCircle
 10
435.0148557848
 20
307.7021192857
 30
0.0
 40
15.0
100
AcDbArc
 50
180.0
 51
205.1608113078
  0
ARC
  5
97
330
7D
100
AcDbEntity
  8
$DDT_AUDIT_GENERATED_(7F)
  6
Continuous
 62
     7
100
AcDbCircle
 10
435.0148557848
 20
307.7021192857
 30
0.0
 40
15.00000000028925
100
AcDbArc
 50
154.8391887063
 51
180.0
  0
ARC
  5
98
330
7D
100
AcDbEntity
  8
$DDT_AUDIT_GENERATED_(7F)
  6
Continuous
 62
     7
100
AcDbCircle
 10
424.1534390418
 20
312.8040430747
 30
0.0
 40
2.999999999694017
100
AcDbArc
 50
119.9999999983
 51
154.8391887157
  0
LINE
  5
99
330
7D
100
AcDbEntity
  8
$DDT_AUDIT_GENERATED_(7F)
  6
Continuous
 62
     7
100
AcDbLine
 10
425.0148557839
 20
316.7654838772
 30
0.0
 11
422.653439042
 21
315.4021192859
 31
0.0
  0
ARC
  5
9A
330
7D
100
AcDbEntity
  8
$DDT_AUDIT_GENERATED_(7F)
  6
Continuous
 62
     7
100
AcDbCircle
 10
423.0148557848
 20
320.2295854927
 30
0.0
 40
4.0
100
AcDbArc
 50
299.9999999866
 51
0.0
  0
LINE
  5
9B
330
7D
100
AcDbEntity
  8
$DDT_AUDIT_GENERATED_(7F)
  6
Continuous
 62
     7
100
AcDbLine
 10
431.5148557848
 20
333.2243749755
 30
0.0
 11
431.5148557848
 21
335.5021192857
 31
0.0
  0
ARC
  5
9C
330
7D
100
AcDbEntity
  8
$DDT_AUDIT_GENERATED_(7F)
  6
Continuous
 62
     7
100
AcDbCircle
 10
479.2148557848
 20
296.0021192857
 30
0.0
 40
0.2000000000000005
100
AcDbArc
 50
90.000000022
 51
110.1920496725
  0
ARC
  5
9D
330
7D
100
AcDbEntity
  8
$DDT_AUDIT_GENERATED_(7F)
  6
Continuous
 62
     7
100
AcDbCircle
 10
483.0148557848
 20
301.7021192857
 30
0.0
 40
2.099999999999998
100
AcDbArc
 50
261.9171601376
 51
0.0
  0
ARC
  5
9E
330
7D
100
AcDbEntity
  8
$DDT_AUDIT_GENERATED_(7F)
  6
Continuous
 62
     7
100
AcDbCircle
 10
483.0148557848
 20
301.7021192857
 30
0.0
 40
2.100000000000001
100
AcDbArc
 50
0.0
 51
17.3529414283
  0
ARC
  5
9F
330
7D
100
AcDbEntity
  8
$DDT_AUDIT_GENERATED_(7F)
  6
Continuous
 62
     7
100
AcDbCircle
 10
483.0148557848
 20
301.7021192857
 30
0.0
 40
2.100000000000001
100
AcDbArc
 50
107.7527901742
 51
134.4153085972
  0
LINE
  5
A0
330
7D
100
AcDbEntity
  8
$DDT_AUDIT_GENERATED_(7F)
  6
Continuous
 62
     7
100
AcDbLine
 10
485.8526453776
 20
305.5021192857
 30
0.0
 11
487.0178129697
 21
305.5021192857
 31
0.0
  0
LINE
  5
A1
330
7D
100
AcDbEntity
  8
$DDT_AUDIT_GENERATED_(7F)
  6
Continuous
 62
     7
100
AcDbLine
 10
486.0065201354
 20
307.2021192858
 30
0.0
 11
487.3665023282
 21
307.2021192858
 31
0.0
  0
ARC
  5
A2
330
7D
100
AcDbEntity
  8
$DDT_AUDIT_GENERATED_(7F)
  6
Continuous
 62
     7
100
AcDbCircle
 10
479.2148557848
 20
312.0021192857
 30
0.0
 40
0.1999999999999997
100
AcDbArc
 50
89.999999989
 51
180.0
  0
ARC
  5
A3
330
7D
100
AcDbEntity
  8
$DDT_AUDIT_GENERATED_(7F)
  6
Continuous
 62
     7
100
AcDbCircle
 10
479.2148557848
 20
303.4021192857
 30
0.0
 40
0.2000000000000023
100
AcDbArc
 50
180.0
 51
270.0000000059
  0
ARC
  5
A4
330
7D
100
AcDbEntity
  8
$DDT_AUDIT_GENERATED_(7F)
  6
Continuous
 62
     7
100
AcDbCircle
 10
426.7148557848
 20
295.9021192857
 30
0.0
 40
0.3000000000000017
100
AcDbArc
 50
52.7651885484
 51
90.000000022
  0
ARC
  5
A5
330
7D
100
AcDbEntity
  8
$DDT_AUDIT_GENERATED_(7F)
  6
Continuous
 62
     7
100
AcDbCircle
 10
426.8148557848
 20
303.4021192857
 30
0.0
 40
0.1999999999999997
100
AcDbArc
 50
270.0000000059
 51
0.0
  0
ARC
  5
A6
330
7D
100
AcDbEntity
  8
$DDT_AUDIT_GENERATED_(7F)
  6
Continuous
 62
     7
100
AcDbCircle
 10
426.8148557848
 20
312.0021192857
 30
0.0
 40
0.2000000000000023
100
AcDbArc
 50
0.0000000118
 51
89.999999989
  0
LINE
  5
A7
330
7D
100
AcDbEntity
  8
$DDT_AUDIT_GENERATED_(7F)
  6
Continuous
 62
     7
100
AcDbLine
 10
487.3665023286
 20
296.2021192856
 30
0.0
 11
479.214855788
 21
296.2021192857
 31
0.0
  0
LINE
  5
A8
330
7D
100
AcDbEntity
  8
$DDT_AUDIT_GENERATED_(7F)
  6
Continuous
 62
     7
100
AcDbLine
 10
486.7321833657
 20
297.9021192862
 30
0.0
 11
480.0889494142
 21
297.9021192857
 31
0.0
  0
LINE
  5
A9
330
7D
100
AcDbEntity
  8
$DDT_AUDIT_GENERATED_(7F)
  6
Continuous
 62
     7
100
AcDbLine
 10
486.7321833688
 20
297.9021192857
 30
0.0
 11
486.7321833688
 21
298.1021192857
 31
0.0
  0
SPLINE
  5
AA
330
7D
100
AcDbEntity
  8
$DDT_AUDIT_GENERATED_(7F)
  6
Continuous
 62
     7
100
AcDbSpline
210
0.0
220
0.0
230
1.0
 70
     8
 71
     3
 72
    17
 73
    13
 74
     0
 42
0.0000000153053794
 43
0.0000000001
 40
0.0
 40
0.0
 40
0.0
 40
0.0
 40
0.0291675170312381
 40
0.0606736346416782
 40
0.096243290190606
 40
0.1370898187069181
 40
0.2324881809459601
 40
0.3554775130288708
 40
0.489471777658065
 40
0.65472651314402
 40
0.7961758377241258
 40
1.0
 40
1.0
 40
1.0
 40
1.0
 10
487.3148467982361
 20
297.7021192857487
 30
0.0
 10
487.3142790096894
 20
297.7086780923573
 30
0.0
 10
487.3130979091019
 20
297.7223215795498
 30
0.0
 10
487.3039192140587
 20
297.7421180455989
 30
0.0
 10
487.2896885228046
 20
297.7613832143792
 30
0.0
 10
487.262042360677
 20
297.7873488439403
 30
0.0
 10
487.2134297926948
 20
297.8170277792281
 30
0.0
 10
487.142396160731
 20
297.8458445192809
 30
0.0
 10
487.0542255191515
 20
297.8703028994441
 30
0.0
 10
486.9603823363079
 20
297.8872705766444
 30
0.0
 10
486.8507855972582
 20
297.8995193181648
 30
0.0
 10
486.7762083240455
 20
297.9011541819714
 30
0.0
 10
486.7321833673016
 20
297.9021192857164
 30
0.0
  0
ARC
  5
AB
330
7D
100
AcDbEntity
  8
$DDT_AUDIT_GENERATED_(7F)
  6
Continuous
 62
     7
100
AcDbCircle
 10
479.0148557848
 20
301.7021192857
 30
0.0
 40
10.00000000000001
100
AcDbArc
 50
327.7549760496
 51
0.0
  0
SPLINE
  5
AC
330
7D
100
AcDbEntity
  8
$DDT_AUDIT_GENERATED_(7F)
  6
Continuous
 62
     7
100
AcDbSpline
210
0.0
220
0.0
230
1.0
 70
     8
 71
     3
 72
    12
 73
     8
 74
     0
 42
0.0000000892175993
 43
0.0000000001
 40
0.0
 40
0.0
 40
0.0
 40
0.0
 40
0.1044948955439991
 40
0.2498280818090479
 40
0.5000827209789688
 40
0.767910771441023
 40
1.0
 40
1.0
 40
1.0
 40
1.0
 10
487.4725974025953
 20
307.0375299287544
 30
0.0
 10
487.4731052836826
 20
307.036271260932
 30
0.0
 10
487.4743195289407
 20
307.0332620261631
 30
0.0
 10
487.4719043892199
 20
307.0243212501636
 30
0.0
 10
487.4606487110605
 20
307.007860036078
 30
0.0
 10
487.4366543710036
 20
306.9836173678147
 30
0.0
 10
487.4132388989174
 20
306.9645981395012
 30
0.0
 10
487.4023681415509
 20
306.9557683637514
 30
0.0
  0
ARC
  5
AD
330
7D
100
AcDbEntity
  8
$DDT_AUDIT_GENERATED_(7F)
  6
Continuous
 62
     7
100
AcDbCircle
 10
479.0148557848
 20
301.7021192857
 30
0.0
 40
10.0
100
AcDbArc
 50
0.0000000024
 51
32.2450239871
  0
ELLIPSE
  5
AE
330
7D
100
AcDbEntity
  8
$DDT_AUDIT_GENERATED_(7F)
  6
Continuous
 62
     7
100
AcDbEllipse
 10
487.0178129698
 20
305.7021192859
 30
0.0
 11
-0.3486893593209255
 21
-1.315232122532135E-11
 31
0.0
210
0.0
220
0.0
230
1.0
 40
0.5735764364
 41
1.570796326437929
 42
3.14159265358997
  0
SPLINE
  5
AF
330
7D
100
AcDbEntity
  8
$DDT_AUDIT_GENERATED_(7F)
  6
Continuous
 62
     7
100
AcDbSpline
210
0.0
220
0.0
230
1.0
 70
     8
 71
     3
 72
    12
 73
     8
 74
     0
 42
0.0000000548674808
 43
0.0000000001
 40
0.0
 40
0.0
 40
0.0
 40
0.0
 40
0.1536200654038985
 40
0.3201871066908472
 40
0.5002275478025799
 40
0.7242887411129786
 40
1.0
 40
1.0
 40
1.0
 40
1.0
 10
487.382612512812
 20
307.1775779285856
 30
0.0
 10
487.3862873151364
 20
307.171845832229
 30
0.0
 10
487.3929088424774
 20
307.1592344370546
 30
0.0
 10
487.397666757632
 20
307.1334756452165
 30
0.0
 10
487.3979487893401
 20
307.100124061758
 30
0.0
 10
487.3915485407144
 20
307.055882485385
 30
0.0
 10
487.3794716604175
 20
307.021234140918
 30
0.0
 10
487.372750072983
 20
307.0021192854172
 30
0.0
  0
LINE
  5
B0
330
7D
100
AcDbEntity
  8
$DDT_AUDIT_GENERATED_(7F)
  6
Continuous
 62
     7
100
AcDbLine
 10
487.3665023282
 20
307.2021192858
 30
0.0
 11
487.3826125128
 21
307.1775779286
 31
0.0
  0
ARC
  5
B1
330
7D
100
AcDbEntity
  8
$DDT_AUDIT_GENERATED_(7F)
  6
Continuous
 62
     7
100
AcDbCircle
 10
423.0148557848
 20
301.7021192857
 30
0.0
 40
2.099999999999994
100
AcDbArc
 50
179.9999999765
 51
278.0828398624
  0
ARC
  5
B2
330
7D
100
AcDbEntity
  8
$DDT_AUDIT_GENERATED_(7F)
  6
Continuous
 62
     7
100
AcDbCircle
 10
423.0148557848
 20
301.7021192857
 30
0.0
 40
2.099999999999998
100
AcDbArc
 50
45.5846914028
 51
72.2472098381
  0
ARC
  5
B3
330
7D
100
AcDbEntity
  8
$DDT_AUDIT_GENERATED_(7F)
  6
Continuous
 62
     7
100
AcDbCircle
 10
423.0148557848
 20
301.7021192857
 30
0.0
 40
2.099999999999998
100
AcDbArc
 50
162.6470585717
 51
179.9999999765
  0
LINE
  5
B4
330
7D
100
AcDbEntity
  8
$DDT_AUDIT_GENERATED_(7F)
  6
Continuous
 62
     7
100
AcDbLine
 10
487.3829063541
 20
296.2264712091
 30
0.0
 11
487.4730894888
 21
296.3663934389
 31
0.0
  0
LINE
  5
B5
330
7D
100
AcDbEntity
  8
$DDT_AUDIT_GENERATED_(7F)
  6
Continuous
 62
     7
100
AcDbLine
 10
487.3665023286
 20
296.2021192856
 30
0.0
 11
487.3826125139
 21
296.2266606439
 31
0.0
  0
LINE
  5
B6
330
7D
100
AcDbEntity
  8
$DDT_AUDIT_GENERATED_(7F)
  6
Continuous
 62
     7
100
AcDbLine
 10
487.4728900075
 20
307.0377166653
 30
0.0
 11
487.3831104244
 21
307.1778965547
 31
0.0
  0
LINE
  5
B7
330
7D
100
AcDbEntity
  8
$DDT_AUDIT_GENERATED_(7F)
  6
Continuous
 62
     7
100
AcDbLine
 10
426.7148557825
 20
296.2021192857
 30
0.0
 11
418.6632092398
 21
296.2021192857
 31
0.0
  0
SPLINE
  5
B8
330
7D
100
AcDbEntity
  8
$DDT_AUDIT_GENERATED_(7F)
  6
Continuous
 62
     7
100
AcDbSpline
210
0.0
220
0.0
230
1.0
 70
     8
 71
     3
 72
     8
 73
     4
 74
     0
 42
0.0000003406367568
 43
0.0000000001
 40
0.0
 40
0.0
 40
0.0
 40
0.0
 40
1.0
 40
1.0
 40
1.0
 40
1.0
 10
418.6470990588081
 20
296.2266606417351
 30
0.0
 10
418.65860098723
 20
296.2090830557599
 30
0.0
 10
418.6632092405277
 20
296.2021192857965
 30
0.0
 10
418.6632092398118
 20
296.2021192857188
 30
0.0
  0
LINE
  5
B9
330
7D
100
AcDbEntity
  8
$DDT_AUDIT_GENERATED_(7F)
  6
Continuous
 62
     7
100
AcDbLine
 10
418.5568215621
 20
296.3665219062
 30
0.0
 11
418.6466011453
 21
296.2263420167
 31
0.0
  0
ARC
  5
BA
330
7D
100
AcDbEntity
  8
$DDT_AUDIT_GENERATED_(7F)
  6
Continuous
 62
     7
100
AcDbCircle
 10
427.0148557848
 20
301.7021192857
 30
0.0
 40
9.999999999999995
100
AcDbArc
 50
179.9999999922
 51
212.2450239527
  0
ARC
  5
BB
330
7D
100
AcDbEntity
  8
$DDT_AUDIT_GENERATED_(7F)
  6
Continuous
 62
     7
100
AcDbCircle
 10
427.0148557848
 20
301.7021192857
 30
0.0
 40
9.999999999999988
100
AcDbArc
 50
147.7549760524
 51
179.9999999765
  0
LINE
  5
BC
330
7D
100
AcDbEntity
  8
$DDT_AUDIT_GENERATED_(7F)
  6
Continuous
 62
     7
100
AcDbLine
 10
418.6468052155
 20
307.1777673624
 30
0.0
 11
418.5566220809
 21
307.0378451326
 31
0.0
  0
LINE
  5
BD
330
7D
100
AcDbEntity
  8
$DDT_AUDIT_GENERATED_(7F)
  6
Continuous
 62
     7
100
AcDbLine
 10
418.6632092394
 20
307.2021192858
 30
0.0
 11
420.0231914343
 21
307.2021192858
 31
0.0
  0
LINE
  5
BE
330
7D
100
AcDbEntity
  8
$DDT_AUDIT_GENERATED_(7F)
  6
Continuous
 62
     7
100
AcDbLine
 10
419.4403430022
 20
305.502119286
 30
0.0
 11
420.177066192
 21
305.502119286
 31
0.0
  0
LINE
  5
BF
330
7D
100
AcDbEntity
  8
$DDT_AUDIT_GENERATED_(7F)
  6
Continuous
 62
     7
100
AcDbLine
 10
425.9407621553
 20
297.9021192859
 30
0.0
 11
419.4403430023
 21
297.9021192862
 31
0.0
  0
SPLINE
  5
C0
330
7D
100
AcDbEntity
  8
$DDT_AUDIT_GENERATED_(7F)
  6
Continuous
 62
     7
100
AcDbSpline
210
0.0
220
0.0
230
1.0
 70
     8
 71
     3
 72
    12
 73
     8
 74
     0
 42
0.0000000547797663
 43
0.0000000001
 40
0.0
 40
0.0
 40
0.0
 40
0.0
 40
0.1028132783725944
 40
0.250438866205999
 40
0.5005599481183475
 40
0.7649763141296329
 40
1.0
 40
1.0
 40
1.0
 40
1.0
 10
487.3727500684543
 20
296.402119286577
 30
0.0
 10
487.375523197668
 20
296.3950274194328
 30
0.0
 10
487.3821198400378
 20
296.3777526530463
 30
0.0
 10
487.3918822873433
 20
296.343474614411
 30
0.0
 10
487.3988249047095
 20
296.3002973092217
 30
0.0
 10
487.3972823595691
 20
296.2565868580335
 30
0.0
 10
487.3875065836871
 20
296.2361080236124
 30
0.0
 10
487.3826125138697
 20
296.2266606438579
 30
0.0
  0
ARC
  5
C1
330
7D
100
AcDbEntity
  8
$DDT_AUDIT_GENERATED_(7F)
  6
Continuous
 62
     7
100
AcDbCircle
 10
486.8690885529
 20
295.5493766384
 30
0.0
 40
1.015999286334954
100
AcDbArc
 50
53.5582529223
 51
59.379423483
  0
LINE
  5
C2
330
7D
100
AcDbEntity
  8
$DDT_AUDIT_GENERATED_(7F)
  6
Continuous
 62
     7
100
AcDbLine
 10
487.3728091645
 20
307.0021195643
 30
0.0
 11
487.4024834891
 21
306.9557689028
 31
0.0
  0
SPLINE
  5
C3
330
7D
100
AcDbEntity
  8
$DDT_AUDIT_GENERATED_(7F)
  6
Continuous
 62
     7
100
AcDbSpline
210
0.0
220
0.0
230
1.0
 70
     8
 71
     3
 72
    12
 73
     8
 74
     0
 42
0.0000000737380766
 43
0.0000000001
 40
0.0
 40
0.0
 40
0.0
 40
0.0
 40
0.1464763154465606
 40
0.3105209709858231
 40
0.500330850924359
 40
0.7288845832389856
 40
1.0
 40
1.0
 40
1.0
 40
1.0
 10
487.4023681415509
 20
306.9557683637514
 30
0.0
 10
487.3979893593091
 20
306.9515334365098
 30
0.0
 10
487.3887066020507
 20
306.9425556480712
 30
0.0
 10
487.3789539510605
 20
306.9222073577225
 30
0.0
 10
487.3716823459818
 20
306.8967317588467
 30
0.0
 10
487.3672545901784
 20
306.8651444024606
 30
0.0
 10
487.3667669280588
 20
306.8420354623243
 30
0.0
 10
487.3665023293579
 20
306.8294967829926
 30
0.0
  0
LINE
  5
C4
330
7D
100
AcDbEntity
  8
$DDT_AUDIT_GENERATED_(7F)
  6
Continuous
 62
     7
100
AcDbLine
 10
487.3665023319
 20
306.829496781
 30
0.0
 11
487.3665023303
 21
305.7021192858
 31
0.0
  0
LINE
  5
C5
330
7D
100
AcDbEntity
  8
$DDT_AUDIT_GENERATED_(7F)
  6
Continuous
 62
     7
100
AcDbLine
 10
487.3866271641
 20
296.4237041413
 30
0.0
 11
487.372815062
 21
296.4021192714
 31
0.0
  0
SPLINE
  5
C6
330
7D
100
AcDbEntity
  8
$DDT_AUDIT_GENERATED_(7F)
  6
Continuous
 62
     7
100
AcDbSpline
210
0.0
220
0.0
230
1.0
 70
     8
 71
     3
 72
    12
 73
     8
 74
     0
 42
0.0000000548674799
 43
0.0000000001
 40
0.0
 40
0.0
 40
0.0
 40
0.0
 40
0.1536200647215605
 40
0.3201871057489101
 40
0.5002275470052808
 40
0.7242887382867661
 40
1.0
 40
1.0
 40
1.0
 40
1.0
 10
418.6470990588081
 20
296.2266606417351
 30
0.0
 10
418.6434242545001
 20
296.2323927392185
 30
0.0
 10
418.6368027271533
 20
296.2450041343902
 30
0.0
 10
418.6320448119768
 20
296.2707629262211
 30
0.0
 10
418.6317627802951
 20
296.3041145095708
 30
0.0
 10
418.6381630289173
 20
296.3483560860557
 30
0.0
 10
418.6502399092623
 20
296.3830044306472
 30
0.0
 10
418.6569614992086
 20
296.4021192860836
 30
0.0
  0
SPLINE
  5
C7
330
7D
100
AcDbEntity
  8
$DDT_AUDIT_GENERATED_(7F)
  6
Continuous
 62
     7
100
AcDbSpline
210
0.0
220
0.0
230
1.0
 70
     8
 71
     3
 72
    13
 73
     9
 74
     0
 42
0.0000000952509887
 43
0.0000000001
 40
0.0
 40
0.0
 40
0.0
 40
0.0
 40
0.1527935347322618
 40
0.3192566308745386
 40
0.4997560266299931
 40
0.7498755894917647
 40
0.8478560380864905
 40
1.0
 40
1.0
 40
1.0
 40
1.0
 10
418.6510095326909
 20
296.4113880062808
 30
0.0
 10
418.6425737624684
 20
296.4067371908567
 30
0.0
 10
418.6250945651663
 20
296.3970202435783
 30
0.0
 10
418.6021010415501
 20
296.3848548302152
 30
0.0
 10
418.5797355057271
 20
296.3736442068659
 30
0.0
 10
418.5664766406247
 20
296.3680101165808
 30
0.0
 10
418.5588951446627
 20
296.3658253536125
 30
0.0
 10
418.5576058227364
 20
296.3662584589178
 30
0.0
 10
418.5571141638473
 20
296.3667086477855
 30
0.0
  0
LINE
  5
C8
330
7D
100
AcDbEntity
  8
$DDT_AUDIT_GENERATED_(7F)
  6
Continuous
 62
     7
100
AcDbLine
 10
418.6569024052
 20
296.4021190072
 30
0.0
 11
418.6509391632
 21
296.4113876336
 31
0.0
  0
SPLINE
  5
C9
330
7D
100
AcDbEntity
  8
$DDT_AUDIT_GENERATED_(7F)
  6
Continuous
 62
     7
100
AcDbSpline
210
0.0
220
0.0
230
1.0
 70
     8
 71
     3
 72
    12
 73
     8
 74
     0
 42
0.0000000547797659
 43
0.0000000001
 40
0.0
 40
0.0
 40
0.0
 40
0.0
 40
0.1028132808231949
 40
0.2504388662085786
 40
0.5005599481204557
 40
0.7649763143187404
 40
1.0
 40
1.0
 40
1.0
 40
1.0
 10
418.6569614991027
 20
307.0021192849237
 30
0.0
 10
418.6541883719024
 20
307.0092111521979
 30
0.0
 10
418.6475917295391
 20
307.0264859185851
 30
0.0
 10
418.6378292822644
 20
307.0607639572098
 30
0.0
 10
418.6308866649209
 20
307.1039412622528
 30
0.0
 10
418.6324292100628
 20
307.1476517134359
 30
0.0
 10
418.6422049859476
 20
307.1681305478568
 30
0.0
 10
418.647099058326
 20
307.1775779286347
 30
0.0
  0
SPLINE
  5
CA
330
7D
100
AcDbEntity
  8
$DDT_AUDIT_GENERATED_(7F)
  6
Continuous
 62
     7
100
AcDbSpline
210
0.0
220
0.0
230
1.0
 70
     8
 71
     3
 72
    12
 73
     8
 74
     0
 42
0.0000000951277907
 43
0.0000000001
 40
0.0
 40
0.0
 40
0.0
 40
0.0
 40
0.1558414638850332
 40
0.2504543395404047
 40
0.5007859334294137
 40
0.7660870660209693
 40
1.0
 40
1.0
 40
1.0
 40
1.0
 10
418.5571141633682
 20
307.0375299229166
 30
0.0
 10
418.5574611537349
 20
307.0380851865826
 30
0.0
 10
418.5588096352425
 20
307.0384709790441
 30
0.0
 10
418.5665123250722
 20
307.0362195324561
 30
0.0
 10
418.5819654950306
 20
307.0296108508563
 30
0.0
 10
418.6114594935248
 20
307.0146826212889
 30
0.0
 10
418.6383539932543
 20
306.9998163677071
 30
0.0
 10
418.6510094997669
 20
306.9928505934648
 30
0.0
  0
SPLINE
  5
CB
330
7D
100
AcDbEntity
  8
$DDT_AUDIT_GENERATED_(7F)
  6
Continuous
 62
     7
100
AcDbSpline
210
0.0
220
0.0
230
1.0
 70
     8
 71
     3
 72
     8
 73
     4
 74
     0
 42
0.0000003406367351
 43
0.0000000001
 40
0.0
 40
0.0
 40
0.0
 40
0.0
 40
1.0
 40
1.0
 40
1.0
 40
1.0
 10
418.647099058326
 20
307.1775779286347
 30
0.0
 10
418.6586009873243
 20
307.1951555158461
 30
0.0
 10
418.6632092406139
 20
307.2021192857957
 30
0.0
 10
418.6632092393522
 20
307.2021192857948
 30
0.0
  0
LINE
  5
CC
330
7D
100
AcDbEntity
  8
$DDT_AUDIT_GENERATED_(7F)
  6
Continuous
 62
     7
100
AcDbLine
 10
419.4403430018
 20
305.5021192857
 30
0.0
 11
419.4403430018
 21
305.202119286
 31
0.0
  0
LINE
  5
CD
330
7D
100
AcDbEntity
  8
$DDT_AUDIT_GENERATED_(7F)
  6
Continuous
 62
     7
100
AcDbLine
 10
419.4403430018
 20
298.2021192855
 30
0.0
 11
419.4403430018
 21
297.9021192857
 31
0.0
  0
LINE
  5
CE
330
7D
100
AcDbEntity
  8
$DDT_AUDIT_GENERATED_(7F)
  6
Continuous
 62
     7
100
AcDbLine
 10
418.6509557442
 20
306.9928506005
 30
0.0
 11
418.6568965076
 21
307.0021193001
 31
0.0
  0
ARC
  5
CF
330
7D
100
AcDbEntity
  8
$DDT_AUDIT_GENERATED_(7F)
  6
Continuous
 62
     7
100
AcDbCircle
 10
431.7148557847
 20
335.5021192938
 30
0.0
 40
0.1999999958337308
100
AcDbArc
 50
89.9999999104
 51
180.0000023197
  0
LINE
  5
D1
330
7D
100
AcDbEntity
  8
$DDT_AUDIT_GENERATED_(D0)
  6
Continuous
 62
     7
100
AcDbLine
 10
431.2648557848
 20
337.1021192857
 30
0.0
 11
452.7648557848
 21
337.1021192857
 31
0.0
  0
LINE
  5
D2
330
7D
100
AcDbEntity
  8
$DDT_AUDIT_GENERATED_(D0)
  6
Continuous
 62
     7
100
AcDbLine
 10
431.2648557848
 20
335.7021192857
 30
0.0
 11
431.2648557848
 21
337.1021192857
 31
0.0
  0
LINE
  5
D3
330
7D
100
AcDbEntity
  8
$DDT_AUDIT_GENERATED_(D0)
  6
Continuous
 62
     7
100
AcDbLine
 10
438.7148557848
 20
335.7021192857
 30
0.0
 11
431.2648557848
 21
335.7021192857
 31
0.0
  0
LINE
  5
D4
330
7D
100
AcDbEntity
  8
$DDT_AUDIT_GENERATED_(D0)
  6
Continuous
 62
     7
100
AcDbLine
 10
452.7648557848
 20
337.1021192857
 30
0.0
 11
452.7648557848
 21
335.7021192857
 31
0.0
  0
LINE
  5
D6
330
7D
100
AcDbEntity
  8
67962040_TRAFO_2
  6
Continuous
 62
     7
100
AcDbLine
 10
469.8648557848
 20
294.8021192855
 30
0.0
 11
469.8648557848
 21
320.9021192855
 31
0.0
  0
LINE
  5
D7
330
7D
100
AcDbEntity
  8
67962040_TRAFO_2
  6
Continuous
 62
     7
100
AcDbLine
 10
468.8648557848
 20
321.9021192857
 30
0.0
 11
438.2648557848
 21
321.9021192857
 31
0.0
  0
LINE
  5
D8
330
7D
100
AcDbEntity
  8
67962040_TRAFO_2
  6
Continuous
 62
     7
100
AcDbLine
 10
437.2648557848
 20
320.9021192857
 30
0.0
 11
437.2648557848
 21
294.8021192856
 31
0.0
  0
LINE
  5
D9
330
7D
100
AcDbEntity
  8
67962040_TRAFO_2
  6
Continuous
 62
     7
100
AcDbLine
 10
438.2648557838
 20
293.8021192857
 30
0.0
 11
468.8648557882
 21
293.8021192857
 31
0.0
  0
LINE
  5
DA
330
7D
100
AcDbEntity
  8
67962040_TRAFO_2
  6
Continuous
 62
     7
100
AcDbLine
 10
474.814855785
 20
289.2021192857
 30
0.0
 11
432.3148557838
 21
289.2021192857
 31
0.0
  0
LINE
  5
DB
330
7D
100
AcDbEntity
  8
67962040_TRAFO_2
  6
Continuous
 62
     7
100
AcDbLine
 10
431.3148557848
 20
290.2021192856
 30
0.0
 11
431.3148557848
 21
325.5021192857
 31
0.0
  0
LINE
  5
DC
330
7D
100
AcDbEntity
  8
67962040_TRAFO_2
  6
Continuous
 62
     7
100
AcDbLine
 10
432.3148557837
 20
326.5021192857
 30
0.0
 11
474.8148557837
 21
326.5021192857
 31
0.0
  0
LINE
  5
DD
330
7D
100
AcDbEntity
  8
67962040_TRAFO_2
  6
Continuous
 62
     7
100
AcDbLine
 10
475.8148557848
 20
325.5021192855
 30
0.0
 11
475.8148557848
 21
290.2021192855
 31
0.0
  0
ARC
  5
DE
330
7D
100
AcDbEntity
  8
67962040_TRAFO_2
  6
Continuous
 62
     7
100
AcDbCircle
 10
468.8648557848
 20
320.9021192857
 30
0.0
 40
0.9999999999999974
100
AcDbArc
 50
0.0
 51
90.0
  0
ARC
  5
DF
330
7D
100
AcDbEntity
  8
67962040_TRAFO_2
  6
Continuous
 62
     7
100
AcDbCircle
 10
468.8648557848
 20
294.8021192857
 30
0.0
 40
0.9999999999999991
100
AcDbArc
 50
270.0000001938
 51
359.9999999883
  0
ARC
  5
E0
330
7D
100
AcDbEntity
  8
67962040_TRAFO_2
  6
Continuous
 62
     7
100
AcDbCircle
 10
438.2648557848
 20
320.9021192857
 30
0.0
 40
0.9999999999999991
100
AcDbArc
 50
90.0
 51
180.0
  0
ARC
  5
E1
330
7D
100
AcDbEntity
  8
67962040_TRAFO_2
  6
Continuous
 62
     7
100
AcDbCircle
 10
438.2648557848
 20
294.8021192857
 30
0.0
 40
1.000000000000001
100
AcDbArc
 50
180.0000000059
 51
269.9999999436
  0
ARC
  5
E2
330
7D
100
AcDbEntity
  8
67962040_TRAFO_2
  6
Continuous
 62
     7
100
AcDbCircle
 10
474.8148557848
 20
290.2021192857
 30
0.0
 40
1.000000000000001
100
AcDbArc
 50
270.000000011
 51
359.9999999882
  0
ARC
  5
E3
330
7D
100
AcDbEntity
  8
67962040_TRAFO_2
  6
Continuous
 62
     7
100
AcDbCircle
 10
432.3148557848
 20
290.2021192857
 30
0.0
 40
0.9999999999999974
100
AcDbArc
 50
180.0000000059
 51
269.9999999436
  0
ARC
  5
E4
330
7D
100
AcDbEntity
  8
67962040_TRAFO_2
  6
Continuous
 62
     7
100
AcDbCircle
 10
432.3148557848
 20
325.5021192857
 30
0.0
 40
1.000000000000001
100
AcDbArc
 50
90.0000000628
 51
180.0
  0
ARC
  5
E5
330
7D
100
AcDbEntity
  8
67962040_TRAFO_2
  6
Continuous
 62
     7
100
AcDbCircle
 10
474.8148557848
 20
325.5021192857
 30
0.0
 40
0.9999999999999974
100
AcDbArc
 50
0.0
 51
90.0000000651
  0
LINE
  5
E6
330
7D
100
AcDbEntity
  8
67962040_TRAFO_2
  6
Continuous
 62
     7
100
AcDbLine
 10
441.7847428934
 20
283.058786046
 30
0.0
 11
412.31955604
 21
260.6801631194
 31
0.0
  0
LINE
  5
E7
330
7D
100
AcDbEntity
  8
67962040_TRAFO_2
  6
Continuous
 62
     7
100
AcDbLine
 10
414.6179010984
 20
257.6540087954
 30
0.0
 11
444.0830879504
 21
280.032631721
 31
0.0
  0
LINE
  5
E8
330
7D
100
AcDbEntity
  8
67962040_TRAFO_2
  6
Continuous
 62
     7
100
AcDbLine
 10
414.6179010989
 20
257.6540087966
 30
0.0
 11
412.3195560361
 21
260.6801631231
 31
0.0
  0
ARC
  5
E9
330
7D
100
AcDbEntity
  8
67962040_TRAFO_2
  6
Continuous
 62
     7
100
AcDbCircle
 10
411.6914298266
 20
259.9020516489
 30
0.0
 40
1.000000000689358
100
AcDbArc
 50
51.0879872699
 51
127.2164399762
  0
ARC
  5
EA
330
7D
100
AcDbEntity
  8
67962040_TRAFO_2
  6
Continuous
 62
     7
100
AcDbCircle
 10
413.699764925
 20
257.2577437747
 30
0.0
 40
1.000000000689351
100
AcDbArc
 50
307.2164407863
 51
23.3448935807
  0
LINE
  5
EB
330
7D
100
AcDbEntity
  8
67962040_TRAFO_2
  6
Continuous
 62
     7
100
AcDbLine
 10
411.0866021935
 20
260.6984080468
 30
0.0
 11
407.0815949757
 21
257.656630413
 31
0.0
  0
LINE
  5
EC
330
7D
100
AcDbEntity
  8
67962040_TRAFO_2
  6
Continuous
 62
     7
100
AcDbLine
 10
410.2995853539
 20
253.4196097483
 30
0.0
 11
414.3045925718
 21
256.4613873821
 31
0.0
  0
LINE
  5
ED
330
7D
100
AcDbEntity
  8
67962040_TRAFO_2
  6
Continuous
 62
     7
100
AcDbLine
 10
410.2995853539
 20
253.4196097483
 30
0.0
 11
407.0815949757
 21
257.656630413
 31
0.0
  0
LINE
  5
EE
330
7D
100
AcDbEntity
  8
67962040_TRAFO_2
  6
Continuous
 62
     7
100
AcDbLine
 10
407.0815949757
 20
257.656630413
 30
0.0
 11
402.2894975718
 21
255.6994074531
 31
0.0
  0
LINE
  5
EF
330
7D
100
AcDbEntity
  8
67962040_TRAFO_2
  6
Continuous
 62
     7
100
AcDbLine
 10
407.1281187444
 20
249.3285562424
 30
0.0
 11
410.2995853539
 21
253.4196097483
 31
0.0
  0
LINE
  5
F0
330
7D
100
AcDbEntity
  8
67962040_TRAFO_2
  6
Continuous
 62
     7
100
AcDbLine
 10
407.1281187444
 20
249.3285562424
 30
0.0
 11
402.2894975718
 21
255.6994074531
 31
0.0
  0
LINE
  5
F1
330
7D
100
AcDbEntity
  8
67962040_TRAFO_2
  6
Continuous
 62
     7
100
AcDbLine
 10
402.2894975718
 20
255.6994074531
 30
0.0
 11
389.3885238703
 21
245.9011995785
 31
0.0
  0
LINE
  5
F2
330
7D
100
AcDbEntity
  8
67962040_TRAFO_2
  6
Continuous
 62
     7
100
AcDbLine
 10
394.2271450429
 20
239.5303483679
 30
0.0
 11
407.1281187444
 21
249.3285562424
 31
0.0
  0
LINE
  5
F3
330
7D
100
AcDbEntity
  8
67962040_TRAFO_2
  6
Continuous
 62
     7
100
AcDbLine
 10
394.2271450429
 20
239.5303483679
 30
0.0
 11
389.3885238703
 21
245.9011995785
 31
0.0
  0
LINE
  5
F4
330
7D
100
AcDbEntity
  8
67962040_TRAFO_2
  6
Continuous
 62
     7
100
AcDbLine
 10
443.0048316851
 20
283.9854357613
 30
0.0
 11
441.7847428934
 21
283.058786046
 31
0.0
  0
LINE
  5
F5
330
7D
100
AcDbEntity
  8
67962040_TRAFO_2
  6
Continuous
 62
     7
100
AcDbLine
 10
448.663695489
 20
288.283307005
 30
0.0
 11
443.004831685
 21
283.9854357609
 31
0.0
  0
LINE
  5
F6
330
7D
100
AcDbEntity
  8
67962040_TRAFO_2
  6
Continuous
 62
     7
100
AcDbLine
 10
444.0830879504
 20
280.032631721
 30
0.0
 11
445.3031767421
 21
280.9592814362
 31
0.0
  0
LINE
  5
F7
330
7D
100
AcDbEntity
  8
67962040_TRAFO_2
  6
Continuous
 62
     7
100
AcDbLine
 10
445.3031767421
 20
280.9592814361
 30
0.0
 11
450.9620405461
 21
285.2571526801
 31
0.0
  0
LINE
  5
F8
330
7D
100
AcDbEntity
  8
67962040_TRAFO_2
  6
Continuous
 62
     7
100
AcDbLine
 10
449.8837842816
 20
289.2099567206
 30
0.0
 11
448.6636954891
 21
288.2833070048
 31
0.0
  0
LINE
  5
F9
330
7D
100
AcDbEntity
  8
67962040_TRAFO_2
  6
Continuous
 62
     7
100
AcDbLine
 10
450.9620405461
 20
285.2571526797
 30
0.0
 11
452.1821293386
 21
286.1838023956
 31
0.0
  0
LINE
  5
FA
330
7D
100
AcDbEntity
  8
67962040_TRAFO_2
  6
Continuous
 62
     7
100
AcDbLine
 10
452.1821293386
 20
286.1838023956
 30
0.0
 11
456.1562465773
 21
289.2021192857
 31
0.0
  0
LINE
  5
FB
330
7D
100
AcDbEntity
  8
67962040_TRAFO_2
  6
Continuous
 62
     7
100
AcDbLine
 10
456.267956787
 20
289.1613905655
 30
0.0
 11
456.0648557841
 21
289.0071366416
 31
0.0
  0
LINE
  5
FC
330
7D
100
AcDbEntity
  8
67962040_TRAFO_2
  6
Continuous
 62
     7
100
AcDbLine
 10
456.3218809686
 20
289.2023456404
 30
0.0
 11
456.2679567885
 21
289.1613905668
 31
0.0
  0
LINE
  5
FD
330
7D
100
AcDbEntity
  8
67962040_TRAFO_2
  6
Continuous
 62
     7
100
AcDbLine
 10
475.8148557848
 20
311.6021192857
 30
0.0
 11
475.8707039408
 21
311.6300433637
 31
0.0
  0
LINE
  5
FE
330
7D
100
AcDbEntity
  8
67962040_TRAFO_2
  6
Continuous
 62
     7
100
AcDbLine
 10
475.8707039408
 20
303.7741952077
 30
0.0
 11
475.8148557848
 21
303.8021192857
 31
0.0
  0
SPLINE
  5
FF
330
7D
100
AcDbEntity
  8
67962040_TRAFO_2
  6
Continuous
 62
     7
100
AcDbSpline
210
0.0
220
0.0
230
1.0
 70
     8
 71
     3
 72
    14
 73
    10
 74
     0
 42
0.0000000415268115
 43
0.0000000001
 40
0.0
 40
0.0
 40
0.0
 40
0.0
 40
0.1712021264195767
 40
0.3095909427607406
 40
0.4189584362407062
 40
0.529839609565804
 40
0.625259861234932
 40
0.7928110178416817
 40
1.0
 40
1.0
 40
1.0
 40
1.0
 10
431.2298709732077
 20
303.8852270014962
 30
0.0
 10
431.231768419424
 20
303.8702669307629
 30
0.0
 10
431.2351996460349
 20
303.8432140996676
 30
0.0
 10
431.2330628021595
 20
303.8075744566522
 30
0.0
 10
431.2272624478991
 20
303.7795680030842
 30
0.0
 10
431.2172684473197
 20
303.7586406485206
 30
0.0
 10
431.1991510343548
 20
303.7404519161109
 30
0.0
 10
431.1643646995142
 20
303.7327153440413
 30
0.0
 10
431.1324832518214
 20
303.7302676032293
 30
0.0
 10
431.1148559413946
 20
303.728914223311
 30
0.0
  0
LINE
  5
100
330
7D
100
AcDbEntity
  8
67962040_TRAFO_2
  6
Continuous
 62
     7
100
AcDbLine
 10
431.2298709732
 20
303.8852270015
 30
0.0
 11
431.0568524491
 21
303.8936731529
 31
0.0
  0
LINE
  5
101
330
7D
100
AcDbEntity
  8
67962040_TRAFO_2
  6
Continuous
 62
     7
100
AcDbLine
 10
431.0571100852
 20
303.9021192857
 30
0.0
 11
431.230283104
 21
303.9021192915
 31
0.0
  0
LINE
  5
102
330
7D
100
AcDbEntity
  8
67962040_TRAFO_2
  6
Continuous
 62
     7
100
AcDbLine
 10
431.230283104
 20
304.502119284
 30
0.0
 11
431.0571100851
 21
304.5021192857
 31
0.0
  0
LINE
  5
103
330
7D
100
AcDbEntity
  8
67962040_TRAFO_2
  6
Continuous
 62
     7
100
AcDbLine
 10
431.0568524526
 20
304.5105653572
 30
0.0
 11
431.2298709648
 21
304.5190115237
 31
0.0
  0
SPLINE
  5
104
330
7D
100
AcDbEntity
  8
67962040_TRAFO_2
  6
Continuous
 62
     7
100
AcDbSpline
210
0.0
220
0.0
230
1.0
 70
     8
 71
     3
 72
    14
 73
    10
 74
     0
 42
0.0000000415263079
 43
0.0000000001
 40
0.0
 40
0.0
 40
0.0
 40
0.0
 40
0.1710116465248194
 40
0.309275826555105
 40
0.4185716273850806
 40
0.5295846680506899
 40
0.6250881408590713
 40
0.7927162711789647
 40
1.0
 40
1.0
 40
1.0
 40
1.0
 10
431.2298709648433
 20
310.8852270505162
 30
0.0
 10
431.2317670665263
 20
310.8702838698651
 30
0.0
 10
431.2351961869797
 20
310.8432590183374
 30
0.0
 10
431.2330712440368
 20
310.8076491838785
 30
0.0
 10
431.2272852490319
 20
310.7796388133561
 30
0.0
 10
431.217302227748
 20
310.7586870765003
 30
0.0
 10
431.1991862881667
 20
310.7404659826289
 30
0.0
 10
431.1643869162909
 20
310.7327152975701
 30
0.0
 10
431.1324906647063
 20
310.7302675283879
 30
0.0
 10
431.1148556558326
 20
310.7289141895632
 30
0.0
  0
LINE
  5
105
330
7D
100
AcDbEntity
  8
67962040_TRAFO_2
  6
Continuous
 62
     7
100
AcDbLine
 10
431.0571100852
 20
310.9021192857
 30
0.0
 11
431.230283104
 21
310.9021192912
 31
0.0
  0
LINE
  5
106
330
7D
100
AcDbEntity
  8
67962040_TRAFO_2
  6
Continuous
 62
     7
100
AcDbLine
 10
431.2298709648
 20
310.8852270505
 30
0.0
 11
431.0568524528
 21
310.8936732143
 31
0.0
  0
LINE
  5
107
330
7D
100
AcDbEntity
  8
67962040_TRAFO_2
  6
Continuous
 62
     7
100
AcDbLine
 10
431.230283104
 20
311.5021192838
 30
0.0
 11
431.0571100848
 21
311.5021192858
 31
0.0
  0
LINE
  5
108
330
7D
100
AcDbEntity
  8
67962040_TRAFO_2
  6
Continuous
 62
     7
100
AcDbLine
 10
431.0568524491
 20
311.5105654185
 30
0.0
 11
431.2298709732
 21
311.5190115727
 31
0.0
  0
LINE
  5
109
330
7D
100
AcDbEntity
  8
67962040_TRAFO_2
  6
Continuous
 62
     7
100
AcDbLine
 10
456.2679567868
 20
289.1613905658
 30
0.0
 11
456.3889223163
 21
289.0021192852
 31
0.0
  0
ARC
  5
10A
330
7D
100
AcDbEntity
  8
67962040_TRAFO_2
  6
Continuous
 62
     7
100
AcDbCircle
 10
476.0666620023
 20
311.9539256183
 30
0.0
 40
0.3785487763491511
100
AcDbArc
 50
228.2266122789
 51
238.8248802381
  0
SPLINE
  5
10B
330
7D
100
AcDbEntity
  8
67962040_TRAFO_2
  6
Continuous
 62
     7
100
AcDbSpline
210
0.0
220
0.0
230
1.0
 70
     8
 71
     3
 72
    13
 73
     9
 74
     0
 42
0.0000000580314635
 43
0.0000000001
 40
0.0
 40
0.0
 40
0.0
 40
0.0
 40
0.1385184977638424
 40
0.2503948005599144
 40
0.3819503108953706
 40
0.5004836715936937
 40
0.7852268761134575
 40
1.0
 40
1.0
 40
1.0
 40
1.0
 10
476.0139744446935
 20
311.7021192857308
 30
0.0
 10
476.0154833311863
 20
311.701726089149
 30
0.0
 10
476.0182108708684
 20
311.7010153221306
 30
0.0
 10
476.0145930979817
 20
311.6945873656475
 30
0.0
 10
476.0034975393064
 20
311.6840353827799
 30
0.0
 10
475.974444981525
 20
311.6632019712277
 30
0.0
 10
475.9266894259943
 20
311.6419708986427
 30
0.0
 10
475.8875378381815
 20
311.633629770378
 30
0.0
 10
475.8707041365737
 20
311.6300434005743
 30
0.0
  0
SPLINE
  5
10C
330
7D
100
AcDbEntity
  8
67962040_TRAFO_2
  6
Continuous
 62
     7
100
AcDbSpline
210
0.0
220
0.0
230
1.0
 70
     8
 71
     3
 72
    12
 73
     8
 74
     0
 42
0.0000000314067524
 43
0.0000000001
 40
0.0
 40
0.0
 40
0.0
 40
0.0
 40
0.000912799112246
 40
0.2376463826612086
 40
0.5009145215000831
 40
0.6649698967716936
 40
1.0
 40
1.0
 40
1.0
 40
1.0
 10
475.8144151243445
 20
311.9021192850334
 30
0.0
 10
475.8146588682176
 20
311.9020241175389
 30
0.0
 10
475.8146354668112
 20
311.8773376334597
 30
0.0
 10
475.8243983388539
 20
311.82472189651
 30
0.0
 10
475.8633153402346
 20
311.7657565449801
 30
0.0
 10
475.9263555871
 20
311.7154265934316
 30
0.0
 10
475.978781527599
 20
311.7074423600622
 30
0.0
 10
476.0139744446935
 20
311.7021192857308
 30
0.0
  0
SPLINE
  5
10D
330
7D
100
AcDbEntity
  8
67962040_TRAFO_2
  6
Continuous
 62
     7
100
AcDbSpline
210
0.0
220
0.0
230
1.0
 70
     8
 71
     3
 72
    10
 73
     6
 74
     0
 42
0.0000000310472827
 43
0.0000000001
 40
0.0
 40
0.0
 40
0.0
 40
0.0
 40
0.5
 40
0.5
 40
1.0
 40
1.0
 40
1.0
 40
1.0
 10
475.8148557848161
 20
311.902119285227
 30
0.0
 10
475.814855784948
 20
311.8497594077511
 30
0.0
 10
475.836410404285
 20
311.797721953694
 30
0.0
 10
475.9104584532288
 20
311.7236739049367
 30
0.0
 10
475.9624959073403
 20
311.7021192857307
 30
0.0
 10
476.0148557851534
 20
311.7021192857308
 30
0.0
  0
SPLINE
  5
10E
330
7D
100
AcDbEntity
  8
67962040_TRAFO_2
  6
Continuous
 62
     7
100
AcDbSpline
210
0.0
220
0.0
230
1.0
 70
     8
 71
     3
 72
    14
 73
    10
 74
     0
 42
0.0000000581304455
 43
0.0000000001
 40
0.0
 40
0.0
 40
0.0
 40
0.0
 40
0.1776979609818728
 40
0.3314212463062936
 40
0.4985346155647916
 40
0.6170324949725565
 40
0.7483306620014767
 40
0.8606975011836213
 40
1.0
 40
1.0
 40
1.0
 40
1.0
 10
475.8707040631959
 20
303.7741951846865
 30
0.0
 10
475.8847324425912
 20
303.771225940525
 30
0.0
 10
475.910896518746
 20
303.7656880574651
 30
0.0
 10
475.949030706373
 20
303.752550604518
 30
0.0
 10
475.9805535192909
 20
303.7366240455848
 30
0.0
 10
476.003267104014
 20
303.7203909733908
 30
0.0
 10
476.0145223715984
 20
303.7097421368489
 30
0.0
 10
476.0182258902907
 20
303.703239363454
 30
0.0
 10
476.0154892331923
 20
303.7025183672272
 30
0.0
 10
476.0139744492579
 20
303.7021192857308
 30
0.0
  0
ELLIPSE
  5
10F
330
7D
100
AcDbEntity
  8
67962040_TRAFO_2
  6
Continuous
 62
     7
100
AcDbEllipse
 10
475.8707030968
 20
303.6462714071
 30
0.0
 11
0.1414209639119188
 21
0.1414213472332735
 31
0.0
210
0.0
220
0.0
230
1.0
 40
0.5071067849
 41
1.101472279124639
 42
1.464055139133568
  0
ARC
  5
110
330
7D
100
AcDbEntity
  8
67962040_TRAFO_2
  6
Continuous
 62
     7
100
AcDbCircle
 10
476.0141950374
 20
303.5023393713
 30
0.0
 40
0.1997800362073724
100
AcDbArc
 50
90.0632634377
 51
180.0631188469
  0
SPLINE
  5
111
330
7D
100
AcDbEntity
  8
67962040_TRAFO_2
  6
Continuous
 62
     7
100
AcDbSpline
210
0.0
220
0.0
230
1.0
 70
     8
 71
     3
 72
    10
 73
     6
 74
     0
 42
0.0000000312435907
 43
0.0000000001
 40
0.2500000001488826
 40
0.2500000001488826
 40
0.2500000001488826
 40
0.2500000001488826
 40
0.5
 40
0.5
 40
1.0
 40
1.0
 40
1.0
 40
1.0
 10
475.9383941620246
 20
303.6867139731091
 30
0.0
 10
475.9142118107748
 20
303.6766973153003
 30
0.0
 10
475.8919464411877
 20
303.6620526544718
 30
0.0
 10
475.8364104045438
 20
303.6065166181433
 30
0.0
 10
475.8148557851349
 20
303.5544791642918
 30
0.0
 10
475.8148557848161
 20
303.5021192869486
 30
0.0
  0
LINE
  5
112
330
7D
100
AcDbEntity
  8
67962040_TRAFO_2
  6
Continuous
 62
     7
100
AcDbLine
 10
430.9994284702
 20
303.7021192857
 30
0.0
 11
431.1148557848
 21
303.728914205
 31
0.0
  0
LINE
  5
113
330
7D
100
AcDbEntity
  8
67962040_TRAFO_2
  6
Continuous
 62
     7
100
AcDbLine
 10
431.1148557051
 20
304.6753244064
 30
0.0
 11
430.9994284697
 21
304.7021192857
 31
0.0
  0
LINE
  5
114
330
7D
100
AcDbEntity
  8
67962040_TRAFO_2
  6
Continuous
 62
     7
100
AcDbLine
 10
430.9994284697
 20
310.7021192857
 30
0.0
 11
431.1148557051
 21
310.7289141651
 31
0.0
  0
LINE
  5
115
330
7D
100
AcDbEntity
  8
67962040_TRAFO_2
  6
Continuous
 62
     7
100
AcDbLine
 10
431.1148557848
 20
311.6753243665
 30
0.0
 11
430.9994284704
 21
311.7021192857
 31
0.0
  0
LINE
  5
116
330
7D
100
AcDbEntity
  8
67962040_TRAFO_2
  6
Continuous
 62
     7
100
AcDbLine
 10
443.2042606088
 20
289.2021192857
 30
0.0
 11
443.4042606088
 21
289.0021192858
 31
0.0
  0
LINE
  5
117
330
7D
100
AcDbEntity
  8
67962040_TRAFO_2
  6
Continuous
 62
     7
100
AcDbLine
 10
443.2042606088
 20
284.5021192857
 30
0.0
 11
443.4042606087
 21
284.7021192856
 31
0.0
  0
LINE
  5
118
330
7D
100
AcDbEntity
  8
67962040_TRAFO_2
  6
Continuous
 62
     7
100
AcDbLine
 10
443.2052563904
 20
284.7021192857
 30
0.0
 11
443.2042606088
 21
284.5582176908
 31
0.0
  0
LINE
  5
119
330
7D
100
AcDbEntity
  8
67962040_TRAFO_2
  6
Continuous
 62
     7
100
AcDbLine
 10
443.2042606088
 20
289.1460209512
 30
0.0
 11
443.2052563904
 21
289.0021192855
 31
0.0
  0
LINE
  5
11A
330
7D
100
AcDbEntity
  8
67962040_TRAFO_2
  6
Continuous
 62
     7
100
AcDbLine
 10
456.0648557847
 20
289.00713664
 30
0.0
 11
455.9648557847
 21
289.0567591901
 31
0.0
  0
SPLINE
  5
11B
330
7D
100
AcDbEntity
  8
67962040_TRAFO_2
  6
Continuous
 62
     7
100
AcDbSpline
210
0.0
220
0.0
230
1.0
 70
     8
 71
     3
 72
    15
 73
    11
 74
     0
 42
0.0000000505309701
 43
0.0000000001
 40
0.0
 40
0.0
 40
0.0
 40
0.0
 40
0.0830678101236746
 40
0.1811796481721722
 40
0.2955144742598729
 40
0.4268149208737829
 40
0.5538971670939524
 40
0.7029265100946327
 40
0.8256353178510776
 40
1.0
 40
1.0
 40
1.0
 40
1.0
 10
443.1362133991603
 20
289.0740701186301
 30
0.0
 10
443.1334425329037
 20
289.0829144447792
 30
0.0
 10
443.1273989805715
 20
289.102204850834
 30
0.0
 10
443.1155518950488
 20
289.1262330098392
 30
0.0
 10
443.1010738820106
 20
289.1489529801555
 30
0.0
 10
443.0845622631954
 20
289.1676663628202
 30
0.0
 10
443.0659065706717
 20
289.1829342636359
 30
0.0
 10
443.0474297891536
 20
289.1932307580618
 30
0.0
 10
443.0264206421884
 20
289.2005725022182
 30
0.0
 10
443.0124566512806
 20
289.2015471973307
 30
0.0
 10
443.0042606103661
 20
289.2021192735745
 30
0.0
  0
LINE
  5
11C
330
7D
100
AcDbEntity
  8
67962040_TRAFO_2
  6
Continuous
 62
     7
100
AcDbLine
 10
443.2042606088
 20
289.146020951
 30
0.0
 11
443.2042606088
 21
289.2021121811
 31
0.0
  0
ARC
  5
11D
330
7D
100
AcDbEntity
  8
67962040_TRAFO_2
  6
Continuous
 62
     7
100
AcDbCircle
 10
431.1148557848
 20
311.9021192857
 30
0.0
 40
0.1999999999999997
100
AcDbArc
 50
270.0
 51
0.0
  0
ARC
  5
11E
330
7D
100
AcDbEntity
  8
67962040_TRAFO_2
  6
Continuous
 62
     7
100
AcDbCircle
 10
474.6148557848
 20
326.7021192857
 30
0.0
 40
0.1999999999999989
100
AcDbArc
 50
270.0000014246
 51
0.0
  0
ARC
  5
11F
330
7D
100
AcDbEntity
  8
67962040_TRAFO_2
  6
Continuous
 62
     7
100
AcDbCircle
 10
474.6148557848
 20
289.0021192857
 30
0.0
 40
0.1999999990000001
100
AcDbArc
 50
0.0
 51
89.9999999418
  0
ARC
  5
120
330
7D
100
AcDbEntity
  8
67962040_TRAFO_2
  6
Continuous
 62
     7
100
AcDbCircle
 10
518.3651795073
 20
126.5914205478
 30
0.0
 40
173.8340919370208
100
AcDbArc
 50
110.7154070798
 51
110.8869573942
  0
ARC
  5
121
330
7D
100
AcDbEntity
  8
67962040_TRAFO_2
  6
Continuous
 62
     7
100
AcDbCircle
 10
431.1148557848
 20
303.5021192857
 30
0.0
 40
0.2000000000000023
100
AcDbArc
 50
0.0000000059
 51
90.0000000118
  0
ARC
  5
122
330
7D
100
AcDbEntity
  8
67962040_TRAFO_2
  6
Continuous
 62
     7
100
AcDbCircle
 10
431.1148557848
 20
304.9021192857
 30
0.0
 40
0.2000000000000001
100
AcDbArc
 50
269.9999999882
 51
359.9999999941
  0
ARC
  5
123
330
7D
100
AcDbEntity
  8
67962040_TRAFO_2
  6
Continuous
 62
     7
100
AcDbCircle
 10
431.1148557848
 20
310.5021192857
 30
0.0
 40
0.2000000000000023
100
AcDbArc
 50
0.0000000059
 51
90.0000000118
  0
LINE
  5
124
330
7D
100
AcDbEntity
  8
67962040_TRAFO_2
  6
Continuous
 62
     7
100
AcDbLine
 10
443.2042606088
 20
284.5021263902
 30
0.0
 11
443.2042606088
 21
284.5582176207
 31
0.0
  0
LINE
  5
125
330
7D
100
AcDbEntity
  8
67962040_TRAFO_2
  6
Continuous
 62
     7
100
AcDbLine
 10
455.8648557898
 20
284.5021192857
 30
0.0
 11
449.9679132436
 21
284.5021192857
 31
0.0
  0
LINE
  5
126
330
7D
100
AcDbEntity
  8
67962040_TRAFO_2
  6
Continuous
 62
     7
100
AcDbLine
 10
443.6851316593
 20
284.5021192857
 30
0.0
 11
441.8844868897
 21
284.5021192857
 31
0.0
  0
LINE
  5
127
330
7D
100
AcDbEntity
  8
67962040_TRAFO_2
  6
Continuous
 62
     7
100
AcDbLine
 10
456.0648557841
 20
289.0071366416
 30
0.0
 11
456.0648557848
 21
284.576594185
 31
0.0
  0
LINE
  5
128
330
7D
100
AcDbEntity
  8
67962040_TRAFO_2
  6
Continuous
 62
     7
100
AcDbLine
 10
432.1379338427
 20
289.2178946335
 30
0.0
 11
432.1025494135
 21
289.2192759813
 31
0.0
  0
LINE
  5
129
330
7D
100
AcDbEntity
  8
67962040_TRAFO_2
  6
Continuous
 62
     7
100
AcDbLine
 10
430.9994284693
 20
311.7021192858
 30
0.0
 11
428.3148557855
 21
311.7021192863
 31
0.0
  0
LINE
  5
12A
330
7D
100
AcDbEntity
  8
67962040_TRAFO_2
  6
Continuous
 62
     7
100
AcDbLine
 10
431.1148557848
 20
311.7021192857
 30
0.0
 11
430.9994284697
 21
311.7021192857
 31
0.0
  0
LINE
  5
12B
330
7D
100
AcDbEntity
  8
67962040_TRAFO_2
  6
Continuous
 62
     7
100
AcDbLine
 10
423.7236079807
 20
311.7021192859
 30
0.0
 11
422.3465472432
 21
311.7021192854
 31
0.0
  0
LINE
  5
12C
330
7D
100
AcDbEntity
  8
67962040_TRAFO_2
  6
Continuous
 62
     7
100
AcDbLine
 10
428.3148557854
 20
311.7021192857
 30
0.0
 11
423.7236079832
 21
311.7021192857
 31
0.0
  0
LINE
  5
12D
330
7D
100
AcDbEntity
  8
67962040_TRAFO_2
  6
Continuous
 62
     7
100
AcDbLine
 10
474.8148557848
 20
328.9766738377
 30
0.0
 11
474.8148557848
 21
326.702119286
 31
0.0
  0
LINE
  5
12E
330
7D
100
AcDbEntity
  8
67962040_TRAFO_2
  6
Continuous
 62
     7
100
AcDbLine
 10
474.8148557848
 20
286.4275648086
 30
0.0
 11
474.8148557838
 21
289.0021192854
 31
0.0
  0
LINE
  5
12F
330
7D
100
AcDbEntity
  8
67962040_TRAFO_2
  6
Continuous
 62
     7
100
AcDbLine
 10
430.999428469
 20
303.7021192857
 30
0.0
 11
428.3685097555
 21
303.7021192857
 31
0.0
  0
LINE
  5
130
330
7D
100
AcDbEntity
  8
67962040_TRAFO_2
  6
Continuous
 62
     7
100
AcDbLine
 10
431.1148557848
 20
303.7021192857
 30
0.0
 11
430.9994284697
 21
303.7021192857
 31
0.0
  0
LINE
  5
131
330
7D
100
AcDbEntity
  8
67962040_TRAFO_2
  6
Continuous
 62
     7
100
AcDbLine
 10
423.7236079775
 20
303.7021192857
 30
0.0
 11
422.3465472432
 21
303.7021192858
 31
0.0
  0
LINE
  5
132
330
7D
100
AcDbEntity
  8
67962040_TRAFO_2
  6
Continuous
 62
     7
100
AcDbLine
 10
428.3148557816
 20
303.7021192857
 30
0.0
 11
423.723607973
 21
303.7021192857
 31
0.0
  0
LINE
  5
133
330
7D
100
AcDbEntity
  8
67962040_TRAFO_2
  6
Continuous
 62
     7
100
AcDbLine
 10
430.9994284692
 20
304.7021192853
 30
0.0
 11
428.7148557851
 21
304.702119285
 31
0.0
  0
LINE
  5
134
330
7D
100
AcDbEntity
  8
67962040_TRAFO_2
  6
Continuous
 62
     7
100
AcDbLine
 10
431.1148557848
 20
304.7021192857
 30
0.0
 11
430.9994284697
 21
304.7021192857
 31
0.0
  0
LINE
  5
135
330
7D
100
AcDbEntity
  8
67962040_TRAFO_2
  6
Continuous
 62
     7
100
AcDbLine
 10
428.7148557849
 20
310.7021192851
 30
0.0
 11
430.9994284686
 21
310.7021192854
 31
0.0
  0
LINE
  5
136
330
7D
100
AcDbEntity
  8
67962040_TRAFO_2
  6
Continuous
 62
     7
100
AcDbLine
 10
430.9994284697
 20
310.7021192857
 30
0.0
 11
431.1148557848
 21
310.7021192857
 31
0.0
  0
SPLINE
  5
137
330
7D
100
AcDbEntity
  8
67962040_TRAFO_2
  6
Continuous
 62
     7
100
AcDbSpline
210
0.0
220
0.0
230
1.0
 70
    12
 71
     3
 72
    14
 73
    10
 74
     0
 42
0.0000000504509093
 43
0.0000000001
 40
0.0
 40
0.0
 40
0.0
 40
0.0
 40
0.2514999170898145
 40
0.2514999170898145
 40
0.502999834179629
 40
0.502999834179629
 40
0.7544997512694435
 40
0.7544997512694435
 40
1.0
 40
1.0
 40
1.0
 40
1.0
 10
443.1362134118506
 20
284.6301684998493
 30
0.0
 41
1.0
 10
443.1310848908161
 20
284.6113578017307
 30
0.0
 41
1.0
 10
443.1239261998161
 20
284.5936435177308
 30
0.0
 41
1.0
 10
443.1062042608161
 20
284.5620418657307
 30
0.0
 41
1.0
 10
443.0956418218161
 20
284.5481529017308
 30
0.0
 41
1.0
 10
443.0720675478161
 20
284.5254525437308
 30
0.0
 41
1.0
 10
443.0590589438161
 20
284.5166442607307
 30
0.0
 41
1.0
 10
443.0320986174938
 20
284.5050466651593
 30
0.0
 41
1.0
 10
443.0181812009153
 20
284.5021203059088
 30
0.0
 41
1.0
 10
443.0042606106757
 20
284.5021192978778
 30
0.0
 41
1.0
  0
ARC
  5
138
330
7D
100
AcDbEntity
  8
67962040_TRAFO_2
  6
Continuous
 62
     7
100
AcDbCircle
 10
455.8648557848
 20
284.7021192857
 30
0.0
 40
0.1999999999999989
100
AcDbArc
 50
270.0000014207
 51
359.9999999882
  0
LINE
  5
139
330
7D
100
AcDbEntity
  8
67962040_TRAFO_2
  6
Continuous
 62
     7
100
AcDbLine
 10
456.0648557847
 20
289.0071366399
 30
0.0
 11
456.2648557848
 21
288.9078915398
 31
0.0
  0
LINE
  5
13A
330
7D
100
AcDbEntity
  8
67962040_TRAFO_2
  6
Continuous
 62
     7
100
AcDbLine
 10
430.9994284693
 20
311.7021192859
 30
0.0
 11
431.0282692769
 21
311.6753243666
 31
0.0
  0
ARC
  5
13B
330
7D
100
AcDbEntity
  8
67962040_TRAFO_2
  6
Continuous
 62
     7
100
AcDbCircle
 10
430.6148557848
 20
311.9021192857
 30
0.0
 40
0.1999999999999988
100
AcDbArc
 50
179.999999989
 51
270.0000002972
  0
ARC
  5
13C
330
7D
100
AcDbEntity
  8
67962040_TRAFO_2
  6
Continuous
 62
     7
100
AcDbCircle
 10
428.3148557848
 20
311.5021192857
 30
0.0
 40
0.2000000000000023
100
AcDbArc
 50
0.0
 51
89.9999998322
  0
SPLINE
  5
13D
330
7D
100
AcDbEntity
  8
67962040_TRAFO_2
  6
Continuous
 62
     7
100
AcDbSpline
210
0.0
220
0.0
230
1.0
 70
     8
 71
     3
 72
    10
 73
     6
 74
     0
 42
0.0000000676178369
 43
0.0000000001
 40
0.0
 40
0.0
 40
0.0
 40
0.0
 40
0.5
 40
0.5
 40
1.0
 40
1.0
 40
1.0
 40
1.0
 10
474.6754366502858
 20
327.3832208666734
 30
0.0
 10
474.7129462515593
 20
327.3814800366226
 30
0.0
 10
474.7505644130956
 20
327.3777645918902
 30
0.0
 10
474.8019975125643
 20
327.3674986037828
 30
0.0
 10
474.8148557847646
 20
327.3611390101093
 30
0.0
 10
474.8148557848161
 20
327.3553928655527
 30
0.0
  0
LINE
  5
13E
330
7D
100
AcDbEntity
  8
67962040_TRAFO_2
  6
Continuous
 62
     7
100
AcDbLine
 10
474.8148557848
 20
328.9766738377
 30
0.0
 11
475.0148557823
 21
328.9766738377
 31
0.0
  0
LINE
  5
13F
330
7D
100
AcDbEntity
  8
67962040_TRAFO_2
  6
Continuous
 62
     7
100
AcDbLine
 10
427.0148557848
 20
311.9021192857
 30
0.0
 11
427.0148557848
 21
324.002119288
 31
0.0
  0
LINE
  5
140
330
7D
100
AcDbEntity
  8
67962040_TRAFO_2
  6
Continuous
 62
     7
100
AcDbLine
 10
430.4148557848
 20
324.0021192873
 30
0.0
 11
430.4148557848
 21
311.9021192858
 31
0.0
  0
ARC
  5
141
330
7D
100
AcDbEntity
  8
67962040_TRAFO_2
  6
Continuous
 62
     7
100
AcDbCircle
 10
438.7148557848
 20
324.0021192857
 30
0.0
 40
8.299999999999999
100
AcDbArc
 50
90.0000000118
 51
179.999999989
  0
LINE
  5
142
330
7D
100
AcDbEntity
  8
67962040_TRAFO_2
  6
Continuous
 62
     7
100
AcDbLine
 10
467.3148557831
 20
332.3021192857
 30
0.0
 11
438.7148557831
 21
332.3021192857
 31
0.0
  0
ARC
  5
143
330
7D
100
AcDbEntity
  8
67962040_TRAFO_2
  6
Continuous
 62
     7
100
AcDbCircle
 10
467.3148557848
 20
324.0021192857
 30
0.0
 40
8.299999999999999
100
AcDbArc
 50
25.6791768035
 51
90.0000000119
  0
ARC
  5
144
330
7D
100
AcDbEntity
  8
67962040_TRAFO_2
  6
Continuous
 62
     7
100
AcDbCircle
 10
461.4944460991
 20
328.4850193697
 30
0.0
 40
13.32948004689057
100
AcDbArc
 50
2.1138197344
 51
10.1612366845
  0
LINE
  5
145
330
7D
100
AcDbEntity
  8
67962040_TRAFO_2
  6
Continuous
 62
     7
100
AcDbLine
 10
479.0148557848
 20
324.0021192869
 30
0.0
 11
479.0148557848
 21
311.9021192857
 31
0.0
  0
ARC
  5
146
330
7D
100
AcDbEntity
  8
67962040_TRAFO_2
  6
Continuous
 62
     7
100
AcDbCircle
 10
467.3148557848
 20
324.0021192857
 30
0.0
 40
11.7
100
AcDbArc
 50
0.0000000059
 51
90.0000000118
  0
LINE
  5
147
330
7D
100
AcDbEntity
  8
67962040_TRAFO_2
  6
Continuous
 62
     7
100
AcDbLine
 10
438.7148557824
 20
335.7021192857
 30
0.0
 11
467.3148557824
 21
335.7021192857
 31
0.0
  0
ARC
  5
148
330
7D
100
AcDbEntity
  8
67962040_TRAFO_2
  6
Continuous
 62
     7
100
AcDbCircle
 10
438.7148557848
 20
324.0021192857
 30
0.0
 40
11.7
100
AcDbArc
 50
90.0000000118
 51
179.999999989
  0
LINE
  5
149
330
7D
100
AcDbEntity
  8
67962040_TRAFO_2
  6
Continuous
 62
     7
100
AcDbLine
 10
477.5148557848
 20
303.9021192857
 30
0.0
 11
477.5148557848
 21
311.5021192857
 31
0.0
  0
LINE
  5
14A
330
7D
100
AcDbEntity
  8
67962040_TRAFO_2
  6
Continuous
 62
     7
100
AcDbLine
 10
430.4148557848
 20
303.5021192858
 30
0.0
 11
430.4148557848
 21
291.4021192873
 31
0.0
  0
LINE
  5
14B
330
7D
100
AcDbEntity
  8
67962040_TRAFO_2
  6
Continuous
 62
     7
100
AcDbLine
 10
427.0148557848
 20
291.402119288
 30
0.0
 11
427.0148557848
 21
303.5021192857
 31
0.0
  0
ARC
  5
14C
330
7D
100
AcDbEntity
  8
67962040_TRAFO_2
  6
Continuous
 62
     7
100
AcDbCircle
 10
438.7148557848
 20
291.4021192857
 30
0.0
 40
11.7
100
AcDbArc
 50
179.999999989
 51
263.8171231203
  0
LINE
  5
14D
330
7D
100
AcDbEntity
  8
67962040_TRAFO_2
  6
Continuous
 62
     7
100
AcDbLine
 10
467.3148557848
 20
279.7021192857
 30
0.0
 11
443.647913244
 21
279.7021192857
 31
0.0
  0
ARC
  5
14E
330
7D
100
AcDbEntity
  8
67962040_TRAFO_2
  6
Continuous
 62
     7
100
AcDbCircle
 10
467.3148557848
 20
291.4021192857
 30
0.0
 40
11.7
100
AcDbArc
 50
270.0
 51
0.0
  0
LINE
  5
14F
330
7D
100
AcDbEntity
  8
67962040_TRAFO_2
  6
Continuous
 62
     7
100
AcDbLine
 10
479.0148557848
 20
303.5021192857
 30
0.0
 11
479.0148557848
 21
291.4021192869
 31
0.0
  0
LINE
  5
150
330
7D
100
AcDbEntity
  8
67962040_TRAFO_2
  6
Continuous
 62
     7
100
AcDbLine
 10
475.0148557823
 20
286.4275647338
 30
0.0
 11
474.8148557828
 21
286.4275647338
 31
0.0
  0
ARC
  5
151
330
7D
100
AcDbEntity
  8
67962040_TRAFO_2
  6
Continuous
 62
     7
100
AcDbCircle
 10
467.3148557848
 20
291.4021192857
 30
0.0
 40
8.300000000000008
100
AcDbArc
 50
270.0
 51
334.3208231878
  0
LINE
  5
152
330
7D
100
AcDbEntity
  8
67962040_TRAFO_2
  6
Continuous
 62
     7
100
AcDbLine
 10
438.7148557841
 20
283.1021192857
 30
0.0
 11
441.8417983257
 21
283.1021192857
 31
0.0
  0
LINE
  5
153
330
7D
100
AcDbEntity
  8
67962040_TRAFO_2
  6
Continuous
 62
     7
100
AcDbLine
 10
448.1245799105
 20
283.1021192857
 30
0.0
 11
467.3148557848
 21
283.1021192857
 31
0.0
  0
ARC
  5
154
330
7D
100
AcDbEntity
  8
67962040_TRAFO_2
  6
Continuous
 62
     7
100
AcDbCircle
 10
438.7148557848
 20
291.4021192857
 30
0.0
 40
8.300000000000002
100
AcDbArc
 50
179.999999989
 51
269.9999999949
  0
ELLIPSE
  5
155
330
7D
100
AcDbEntity
  8
67962040_TRAFO_2
  6
Continuous
 62
     7
100
AcDbEllipse
 10
474.6148557864
 20
288.0488456571
 30
0.0
 11
0.1999999984241864
 21
-3.862867317683261E-8
 31
0.0
210
0.0
220
0.0
230
1.0
 40
0.1459990524
 41
5.020127937217689
 42
6.283185307179586
  0
ARC
  5
156
330
7D
100
AcDbEntity
  8
67962040_TRAFO_2
  6
Continuous
 62
     7
100
AcDbCircle
 10
474.6148557848
 20
287.8921335307
 30
0.0
 40
0.2000000000000067
100
AcDbArc
 50
334.3208232642
 51
359.9999999185
  0
LINE
  5
157
330
7D
100
AcDbEntity
  8
67962040_TRAFO_2
  6
Continuous
 62
     7
100
AcDbLine
 10
431.0282692761
 20
303.7289142053
 30
0.0
 11
430.999428469
 21
303.7021192861
 31
0.0
  0
LINE
  5
158
330
7D
100
AcDbEntity
  8
67962040_TRAFO_2
  6
Continuous
 62
     7
100
AcDbLine
 10
431.0572437954
 20
303.9021133217
 30
0.0
 11
431.0568583919
 21
303.893672888
 31
0.0
  0
ARC
  5
159
330
7D
100
AcDbEntity
  8
67962040_TRAFO_2
  6
Continuous
 62
     7
100
AcDbCircle
 10
430.6148557848
 20
303.5021192857
 30
0.0
 40
0.1999999999999997
100
AcDbArc
 50
90.0000001329
 51
179.999999989
  0
ARC
  5
15A
330
7D
100
AcDbEntity
  8
67962040_TRAFO_2
  6
Continuous
 62
     7
100
AcDbCircle
 10
428.3148557848
 20
303.9021192857
 30
0.0
 40
0.1999999999999997
100
AcDbArc
 50
269.9999990882
 51
359.9999999949
  0
ARC
  5
15B
330
7D
100
AcDbEntity
  8
67962040_TRAFO_2
  6
Continuous
 62
     7
100
AcDbCircle
 10
430.6148557848
 20
304.9021192857
 30
0.0
 40
0.1999999999999988
100
AcDbArc
 50
180.0
 51
270.0000000524
  0
ARC
  5
15C
330
7D
100
AcDbEntity
  8
67962040_TRAFO_2
  6
Continuous
 62
     7
100
AcDbCircle
 10
428.7148557848
 20
304.9021192857
 30
0.0
 40
0.1999999999999988
100
AcDbArc
 50
180.0000002708
 51
269.9999999498
  0
LINE
  5
15D
330
7D
100
AcDbEntity
  8
67962040_TRAFO_2
  6
Continuous
 62
     7
100
AcDbLine
 10
430.9994284692
 20
304.7021192851
 30
0.0
 11
431.028269267
 21
304.6753243864
 31
0.0
  0
SPLINE
  5
15E
330
7D
100
AcDbEntity
  8
67962040_TRAFO_2
  6
Continuous
 62
     7
100
AcDbSpline
210
0.0
220
0.0
230
1.0
 70
    12
 71
     3
 72
    14
 73
    10
 74
     0
 42
0.0000000338586408
 43
0.0000000001
 40
0.0
 40
0.0
 40
0.0
 40
0.0
 40
0.2499999999999985
 40
0.2499999999999985
 40
0.5000000000000033
 40
0.5000000000000033
 40
0.7500000000000016
 40
0.7500000000000016
 40
1.0
 40
1.0
 40
1.0
 40
1.0
 10
428.5416827698954
 20
304.5021192856897
 30
0.0
 41
1.0
 10
428.5416827708161
 20
304.5283039317308
 30
0.0
 41
1.0
 10
428.5461900068161
 20
304.5544688797307
 30
0.0
 41
1.0
 10
428.5635395558161
 20
304.6028430647307
 30
0.0
 41
1.0
 10
428.5763750738161
 20
304.6250286377308
 30
0.0
 41
1.0
 10
428.6084328698161
 20
304.6620526467307
 30
0.0
 41
1.0
 10
428.6276425738161
 20
304.6768765667308
 30
0.0
 41
1.0
 10
428.6695281088161
 20
304.6969138177307
 30
0.0
 41
1.0
 10
428.6921834078161
 20
304.7021192857308
 30
0.0
 41
1.0
 10
428.7148557846407
 20
304.7021192855599
 30
0.0
 41
1.0
  0
SPLINE
  5
15F
330
7D
100
AcDbEntity
  8
67962040_TRAFO_2
  6
Continuous
 62
     7
100
AcDbSpline
210
0.0
220
0.0
230
1.0
 70
    12
 71
     3
 72
    14
 73
    10
 74
     0
 42
0.0000000338586408
 43
0.0000000001
 40
0.0
 40
0.0
 40
0.0
 40
0.0
 40
0.2500000000000032
 40
0.2500000000000032
 40
0.5000000000000012
 40
0.5000000000000012
 40
0.7500000000000007
 40
0.7500000000000007
 40
1.0
 40
1.0
 40
1.0
 40
1.0
 10
428.7148557845876
 20
310.7021192856276
 30
0.0
 41
1.0
 10
428.6921834078161
 20
310.7021192857308
 30
0.0
 41
1.0
 10
428.6695281088161
 20
310.7073247537307
 30
0.0
 41
1.0
 10
428.6276425738161
 20
310.7273620047307
 30
0.0
 41
1.0
 10
428.6084328698161
 20
310.7421859247307
 30
0.0
 41
1.0
 10
428.5763750738161
 20
310.7792099337308
 30
0.0
 41
1.0
 10
428.5635395558161
 20
310.8013955067307
 30
0.0
 41
1.0
 10
428.5461900068161
 20
310.8497696917307
 30
0.0
 41
1.0
 10
428.5416827708161
 20
310.8759346397308
 30
0.0
 41
1.0
 10
428.5416827701369
 20
310.9021192857218
 30
0.0
 41
1.0
  0
LINE
  5
160
330
7D
100
AcDbEntity
  8
67962040_TRAFO_2
  6
Continuous
 62
     7
100
AcDbLine
 10
431.028269267
 20
310.728914184
 30
0.0
 11
430.9994284686
 21
310.7021192853
 31
0.0
  0
LINE
  5
161
330
7D
100
AcDbEntity
  8
67962040_TRAFO_2
  6
Continuous
 62
     7
100
AcDbLine
 10
431.0572437954
 20
310.9021133217
 30
0.0
 11
431.0568583954
 21
310.8936729494
 31
0.0
  0
ARC
  5
162
330
7D
100
AcDbEntity
  8
67962040_TRAFO_2
  6
Continuous
 62
     7
100
AcDbCircle
 10
428.7148557848
 20
310.5021192857
 30
0.0
 40
0.2000000000000001
100
AcDbArc
 50
90.0000000655
 51
179.9999997404
  0
ARC
  5
163
330
7D
100
AcDbEntity
  8
67962040_TRAFO_2
  6
Continuous
 62
     7
100
AcDbCircle
 10
430.6148557848
 20
310.5021192857
 30
0.0
 40
0.2000000000000001
100
AcDbArc
 50
89.999999998
 51
179.999999989
  0
LINE
  5
164
330
7D
100
AcDbEntity
  8
67962040_TRAFO_2
  6
Continuous
 62
     7
100
AcDbLine
 10
427.0148557848
 20
311.9021192857
 30
0.0
 11
427.0148557848
 21
311.7021192857
 31
0.0
  0
LINE
  5
165
330
7D
100
AcDbEntity
  8
67962040_TRAFO_2
  6
Continuous
 62
     7
100
AcDbLine
 10
427.0148557848
 20
303.5021192857
 30
0.0
 11
427.0148557848
 21
303.7021192835
 31
0.0
  0
LINE
  5
166
330
7D
100
AcDbEntity
  8
67962040_TRAFO_2
  6
Continuous
 62
     7
100
AcDbLine
 10
428.5148557848
 20
311.5021192857
 30
0.0
 11
428.5148557848
 21
303.9021192857
 31
0.0
  0
ARC
  5
167
330
7D
100
AcDbEntity
  8
67962040_TRAFO_2
  6
Continuous
 62
     7
100
AcDbCircle
 10
474.6148557848
 20
327.5121050407
 30
0.0
 40
0.2000000000000023
100
AcDbArc
 50
0.0000000611
 51
25.6791763768
  0
LINE
  5
168
330
7D
100
AcDbEntity
  8
67962040_TRAFO_2
  6
Continuous
 62
     7
100
AcDbLine
 10
479.0148557848
 20
311.7021192857
 30
0.0
 11
479.0148557848
 21
311.9021192857
 31
0.0
  0
LINE
  5
169
330
7D
100
AcDbEntity
  8
67962040_TRAFO_2
  6
Continuous
 62
     7
100
AcDbLine
 10
482.3061035907
 20
311.7021192857
 30
0.0
 11
483.6831643264
 21
311.7021192857
 31
0.0
  0
LINE
  5
16A
330
7D
100
AcDbEntity
  8
67962040_TRAFO_2
  6
Continuous
 62
     7
100
AcDbLine
 10
480.0148557846
 20
311.7021192857
 30
0.0
 11
482.306103592
 21
311.7021192855
 31
0.0
  0
LINE
  5
16B
330
7D
100
AcDbEntity
  8
67962040_TRAFO_2
  6
Continuous
 62
     7
100
AcDbLine
 10
477.714855786
 20
311.7021192857
 30
0.0
 11
480.0148557846
 21
311.7021192857
 31
0.0
  0
LINE
  5
16C
330
7D
100
AcDbEntity
  8
67962040_TRAFO_2
  6
Continuous
 62
     7
100
AcDbLine
 10
476.2501772602
 20
311.7021192857
 30
0.0
 11
477.6552903655
 21
311.7021192857
 31
0.0
  0
LINE
  5
16D
330
7D
100
AcDbEntity
  8
67962040_TRAFO_2
  6
Continuous
 62
     7
100
AcDbLine
 10
476.0139744447
 20
311.7021192857
 30
0.0
 11
476.25017726
 21
311.7021192857
 31
0.0
  0
LINE
  5
16E
330
7D
100
AcDbEntity
  8
67962040_TRAFO_2
  6
Continuous
 62
     7
100
AcDbLine
 10
479.0148557848
 20
303.7021192875
 30
0.0
 11
479.0148557848
 21
303.5021192857
 31
0.0
  0
ARC
  5
16F
330
7D
100
AcDbEntity
  8
67962040_TRAFO_2
  6
Continuous
 62
     7
100
AcDbCircle
 10
477.7148557848
 20
311.5021192857
 30
0.0
 40
0.2000000000000001
100
AcDbArc
 50
89.9999996468
 51
180.0
  0
ARC
  5
170
330
7D
100
AcDbEntity
  8
67962040_TRAFO_2
  6
Continuous
 62
     7
100
AcDbCircle
 10
477.7148557848
 20
303.9021192857
 30
0.0
 40
0.2000000000000023
100
AcDbArc
 50
180.0000000118
 51
270.0000001699
  0
LINE
  5
171
330
7D
100
AcDbEntity
  8
67962040_TRAFO_2
  6
Continuous
 62
     7
100
AcDbLine
 10
482.3061035908
 20
303.7021192856
 30
0.0
 11
483.6831643263
 21
303.7021192853
 31
0.0
  0
LINE
  5
172
330
7D
100
AcDbEntity
  8
67962040_TRAFO_2
  6
Continuous
 62
     7
100
AcDbLine
 10
480.0148557846
 20
303.7021192857
 30
0.0
 11
482.306103592
 21
303.7021192856
 31
0.0
  0
LINE
  5
173
330
7D
100
AcDbEntity
  8
67962040_TRAFO_2
  6
Continuous
 62
     7
100
AcDbLine
 10
477.7148557854
 20
303.7021192857
 30
0.0
 11
480.0148557842
 21
303.7021192857
 31
0.0
  0
LINE
  5
174
330
7D
100
AcDbEntity
  8
67962040_TRAFO_2
  6
Continuous
 62
     7
100
AcDbLine
 10
476.2501772602
 20
303.7021192857
 30
0.0
 11
477.6552903655
 21
303.7021192857
 31
0.0
  0
LINE
  5
175
330
7D
100
AcDbEntity
  8
67962040_TRAFO_2
  6
Continuous
 62
     7
100
AcDbLine
 10
476.0139744493
 20
303.7021192857
 30
0.0
 11
476.25017726
 21
303.7021192857
 31
0.0
  0
ARC
  5
176
330
7D
100
AcDbEntity
  8
67962040_TRAFO_2
  6
Continuous
 62
     7
100
AcDbCircle
 10
461.4943545973
 20
286.9192289863
 30
0.0
 40
13.32957184364348
100
AcDbArc
 50
349.8387915928
 51
357.8861531137
  0
LINE
  5
177
330
7D
100
AcDbEntity
  8
67962040_TRAFO_2
  6
Continuous
 62
     7
100
AcDbLine
 10
430.4148557848
 20
310.5021192858
 30
0.0
 11
430.4148557848
 21
304.9021192857
 31
0.0
  0
LINE
  5
178
330
7D
100
AcDbEntity
  8
67962040_TRAFO_2
  6
Continuous
 62
     7
100
AcDbLine
 10
475.8707039408
 20
304.7021192857
 30
0.0
 11
475.8148557848
 21
304.7021192857
 31
0.0
  0
LINE
  5
179
330
7D
100
AcDbEntity
  8
67962040_TRAFO_2
  6
Continuous
 62
     7
100
AcDbLine
 10
476.2501772601
 20
304.7021192857
 30
0.0
 11
475.8707039408
 21
304.7021192857
 31
0.0
  0
LINE
  5
17A
330
7D
100
AcDbEntity
  8
67962040_TRAFO_2
  6
Continuous
 62
     7
100
AcDbLine
 10
477.314855785
 20
304.7021192854
 30
0.0
 11
476.2501772603
 21
304.7021192857
 31
0.0
  0
LINE
  5
17B
330
7D
100
AcDbEntity
  8
67962040_TRAFO_2
  6
Continuous
 62
     7
100
AcDbLine
 10
475.8707039408
 20
310.7021192857
 30
0.0
 11
475.8148557848
 21
310.7021192857
 31
0.0
  0
LINE
  5
17C
330
7D
100
AcDbEntity
  8
67962040_TRAFO_2
  6
Continuous
 62
     7
100
AcDbLine
 10
476.2501772601
 20
310.7021192857
 30
0.0
 11
475.8707039408
 21
310.7021192857
 31
0.0
  0
LINE
  5
17D
330
7D
100
AcDbEntity
  8
67962040_TRAFO_2
  6
Continuous
 62
     7
100
AcDbLine
 10
477.314855785
 20
310.7021192857
 30
0.0
 11
476.2501772604
 21
310.7021192857
 31
0.0
  0
LINE
  5
17E
330
7D
100
AcDbEntity
  8
67962040_TRAFO_2
  6
Continuous
 62
     7
100
AcDbLine
 10
474.8288981215
 20
286.4275648524
 30
0.0
 11
474.8134940896
 21
286.3168168729
 31
0.0
  0
ARC
  5
17F
330
7D
100
AcDbEntity
  8
67962040_TRAFO_2
  6
Continuous
 62
     7
100
AcDbCircle
 10
477.3160122088
 20
304.9008682552
 30
0.0
 40
0.19865283904911
100
AcDbArc
 50
274.8554648427
 51
350.6437078029
  0
ARC
  5
180
330
7D
100
AcDbEntity
  8
67962040_TRAFO_2
  6
Continuous
 62
     7
100
AcDbCircle
 10
477.3161193174
 20
310.5034861874
 30
0.0
 40
0.1985283414245469
100
AcDbArc
 50
9.328321805
 51
85.1725055493
  0
ENDBLK
  5
182
330
7D
100
AcDbEntity
  8
0
100
AcDbBlockEnd
  0
BLOCK
  5
230
330
183
100
AcDbEntity
  8
0
100
AcDbBlockBegin
  2
SE1
 70
     0
 10
0.0
 20
0.0
 30
0.0
  3
SE1
  1

  0
LINE
  5
185
330
183
100
AcDbEntity
  8
$DDT_AUDIT_GENERATED_(7F)
  6
Continuous
 62
     7
100
AcDbLine
 10
581.3200307097
 20
335.7021192857
 30
0.0
 11
572.9509886301
 21
335.7021192857
 31
0.0
  0
ARC
  5
186
330
183
100
AcDbEntity
  8
$DDT_AUDIT_GENERATED_(7F)
  6
Continuous
 62
     7
100
AcDbCircle
 10
552.520764228
 20
332.3277348455
 30
0.0
 40
3.403237708784041
100
AcDbArc
 50
68.8683054298
 51
82.5338571432
  0
ARC
  5
187
330
183
100
AcDbEntity
  8
$DDT_AUDIT_GENERATED_(7F)
  6
Continuous
 62
     7
100
AcDbCircle
 10
572.9168026823
 20
332.3375219267
 30
0.0
 40
3.393209676906086
100
AcDbArc
 50
97.4458528327
 51
111.1519841254
  0
LINE
  5
188
330
183
100
AcDbEntity
  8
$DDT_AUDIT_GENERATED_(7F)
  6
Continuous
 62
     7
100
AcDbLine
 10
551.9200307096
 20
335.7021192857
 30
0.0
 11
552.962981978
 21
335.7021192877
 31
0.0
  0
LINE
  5
189
330
183
100
AcDbEntity
  8
$DDT_AUDIT_GENERATED_(7F)
  6
Continuous
 62
     7
100
AcDbLine
 10
581.3200307097
 20
335.7021192857
 30
0.0
 11
581.3200307097
 21
324.0021192881
 31
0.0
  0
SPLINE
  5
18A
330
183
100
AcDbEntity
  8
$DDT_AUDIT_GENERATED_(7F)
  6
Continuous
 62
     7
100
AcDbSpline
210
0.0
220
0.0
230
1.0
 70
     8
 71
     3
 72
    12
 73
     8
 74
     0
 42
0.0000000010726915
 43
0.0000000001
 40
0.0
 40
0.0
 40
0.0
 40
0.0
 40
0.2500000000000002
 40
0.2500000000000002
 40
0.5000000000000003
 40
0.5000000000000003
 40
1.0
 40
1.0
 40
1.0
 40
1.0
 10
562.7200307095175
 20
333.2243749754675
 30
0.0
 10
563.639371757024
 20
333.224374975085
 30
0.0
 10
564.5602541500145
 20
333.3236254421036
 30
0.0
 10
566.3058192826543
 20
333.6603052515429
 30
0.0
 10
567.12216080813
 20
333.8906919277012
 30
0.0
 10
569.4360051719614
 20
334.6448503508499
 30
0.0
 10
570.7495141060791
 20
335.2115832047066
 30
0.0
 10
571.6923863051404
 20
335.5021192860738
 30
0.0
  0
SPLINE
  5
18B
330
183
100
AcDbEntity
  8
$DDT_AUDIT_GENERATED_(7F)
  6
Continuous
 62
     7
100
AcDbSpline
210
0.0
220
0.0
230
1.0
 70
     8
 71
     3
 72
    12
 73
     8
 74
     0
 42
0.0000000010726993
 43
0.0000000001
 40
0.0
 40
0.0
 40
0.0
 40
0.0
 40
0.4999999999999999
 40
0.4999999999999999
 40
0.75
 40
0.75
 40
1.0
 40
1.0
 40
1.0
 40
1.0
 10
553.7476751169116
 20
335.5021192855123
 30
0.0
 10
554.6896421877625
 20
335.2118621092603
 30
0.0
 10
556.0011814491576
 20
334.6464218843865
 30
0.0
 10
558.3042831248758
 20
333.8948161485052
 30
0.0
 10
559.1385230170729
 20
333.6593096662676
 30
0.0
 10
560.8815601322193
 20
333.3234578446687
 30
0.0
 10
561.8027003655372
 20
333.2243749751038
 30
0.0
 10
562.7200307095175
 20
333.2243749754675
 30
0.0
  0
LINE
  5
18C
330
183
100
AcDbEntity
  8
$DDT_AUDIT_GENERATED_(7F)
  6
Continuous
 62
     7
100
AcDbLine
 10
581.3200307097
 20
291.4021192881
 30
0.0
 11
581.3200307097
 21
279.7021192857
 31
0.0
  0
LINE
  5
18D
330
183
100
AcDbEntity
  8
$DDT_AUDIT_GENERATED_(7F)
  6
Continuous
 62
     7
100
AcDbLine
 10
581.3200307097
 20
295.1746530796
 30
0.0
 11
581.3200307097
 21
291.4021192881
 31
0.0
  0
LINE
  5
18E
330
183
100
AcDbEntity
  8
$DDT_AUDIT_GENERATED_(7F)
  6
Continuous
 62
     7
100
AcDbLine
 10
581.3200307097
 20
298.6387546941
 30
0.0
 11
581.3200307097
 21
295.1746530796
 31
0.0
  0
LINE
  5
18F
330
183
100
AcDbEntity
  8
$DDT_AUDIT_GENERATED_(7F)
  6
Continuous
 62
     7
100
AcDbLine
 10
581.3200307097
 20
300.0021192857
 30
0.0
 11
581.3200307097
 21
298.6387546941
 31
0.0
  0
LINE
  5
190
330
183
100
AcDbEntity
  8
$DDT_AUDIT_GENERATED_(7F)
  6
Continuous
 62
     7
100
AcDbLine
 10
581.3200307097
 20
301.3247145469
 30
0.0
 11
581.3200307097
 21
300.0021192857
 31
0.0
  0
LINE
  5
191
330
183
100
AcDbEntity
  8
$DDT_AUDIT_GENERATED_(7F)
  6
Continuous
 62
     7
100
AcDbLine
 10
581.3200307097
 20
307.7021192857
 30
0.0
 11
581.3200307097
 21
301.324714547
 31
0.0
  0
LINE
  5
192
330
183
100
AcDbEntity
  8
$DDT_AUDIT_GENERATED_(7F)
  6
Continuous
 62
     7
100
AcDbLine
 10
581.3200307097
 20
314.0795240212
 30
0.0
 11
581.3200307097
 21
307.7021192857
 31
0.0
  0
LINE
  5
193
330
183
100
AcDbEntity
  8
$DDT_AUDIT_GENERATED_(7F)
  6
Continuous
 62
     7
100
AcDbLine
 10
581.3200307097
 20
315.4021192859
 30
0.0
 11
581.3200307097
 21
314.0795240212
 31
0.0
  0
LINE
  5
194
330
183
100
AcDbEntity
  8
$DDT_AUDIT_GENERATED_(7F)
  6
Continuous
 62
     7
100
AcDbLine
 10
581.3200307097
 20
316.7654838772
 30
0.0
 11
581.3200307097
 21
315.4021192859
 31
0.0
  0
LINE
  5
195
330
183
100
AcDbEntity
  8
$DDT_AUDIT_GENERATED_(7F)
  6
Continuous
 62
     7
100
AcDbLine
 10
581.3200307097
 20
320.2295854936
 30
0.0
 11
581.3200307097
 21
316.7654838771
 31
0.0
  0
LINE
  5
196
330
183
100
AcDbEntity
  8
$DDT_AUDIT_GENERATED_(7F)
  6
Continuous
 62
     7
100
AcDbLine
 10
581.3200307097
 20
324.0021192881
 30
0.0
 11
581.3200307097
 21
320.2295854936
 31
0.0
  0
LINE
  5
197
330
183
100
AcDbEntity
  8
$DDT_AUDIT_GENERATED_(7F)
  6
Continuous
 62
     7
100
AcDbLine
 10
551.7200307097
 20
335.5021192858
 30
0.0
 11
551.7200307097
 21
324.0021192857
 31
0.0
  0
LINE
  5
198
330
183
100
AcDbEntity
  8
$DDT_AUDIT_GENERATED_(7F)
  6
Continuous
 62
     7
100
AcDbLine
 10
551.7200307097
 20
291.4021192857
 30
0.0
 11
551.7200307097
 21
279.9021192889
 31
0.0
  0
LINE
  5
199
330
183
100
AcDbEntity
  8
$DDT_AUDIT_GENERATED_(7F)
  6
Continuous
 62
     7
100
AcDbLine
 10
551.7200307097
 20
295.9021192857
 30
0.0
 11
551.7200307097
 21
291.4021192857
 31
0.0
  0
LINE
  5
19A
330
183
100
AcDbEntity
  8
$DDT_AUDIT_GENERATED_(7F)
  6
Continuous
 62
     7
100
AcDbLine
 10
551.7200307097
 20
296.4021192867
 30
0.0
 11
551.7200307097
 21
295.9021192857
 31
0.0
  0
LINE
  5
19B
330
183
100
AcDbEntity
  8
$DDT_AUDIT_GENERATED_(7F)
  6
Continuous
 62
     7
100
AcDbLine
 10
551.7200307097
 20
301.7021192869
 30
0.0
 11
551.7200307097
 21
296.4021192877
 31
0.0
  0
LINE
  5
19C
330
183
100
AcDbEntity
  8
$DDT_AUDIT_GENERATED_(7F)
  6
Continuous
 62
     7
100
AcDbLine
 10
551.7200307097
 20
307.0021192862
 30
0.0
 11
551.7200307097
 21
301.7021192869
 31
0.0
  0
LINE
  5
19D
330
183
100
AcDbEntity
  8
$DDT_AUDIT_GENERATED_(7F)
  6
Continuous
 62
     7
100
AcDbLine
 10
551.7200307097
 20
307.5021192857
 30
0.0
 11
551.7200307097
 21
307.0021192826
 31
0.0
  0
LINE
  5
19E
330
183
100
AcDbEntity
  8
$DDT_AUDIT_GENERATED_(7F)
  6
Continuous
 62
     7
100
AcDbLine
 10
551.7200307097
 20
324.0021192857
 30
0.0
 11
551.7200307097
 21
307.5021192857
 31
0.0
  0
ARC
  5
19F
330
183
100
AcDbEntity
  8
$DDT_AUDIT_GENERATED_(7F)
  6
Continuous
 62
     7
100
AcDbCircle
 10
551.9200307097
 20
335.5021192857
 30
0.0
 40
0.2000000000000023
100
AcDbArc
 50
90.0000000118
 51
179.999999989
  0
LINE
  5
1A0
330
183
100
AcDbEntity
  8
$DDT_AUDIT_GENERATED_(7F)
  6
Continuous
 62
     7
100
AcDbLine
 10
573.2441237209
 20
303.2021192857
 30
0.0
 11
579.4200307101
 21
303.2021192857
 31
0.0
  0
LINE
  5
1A1
330
183
100
AcDbEntity
  8
$DDT_AUDIT_GENERATED_(7F)
  6
Continuous
 62
     7
100
AcDbLine
 10
579.4200307101
 20
312.2021192857
 30
0.0
 11
573.2441237208
 21
312.2021192857
 31
0.0
  0
LINE
  5
1A2
330
183
100
AcDbEntity
  8
$DDT_AUDIT_GENERATED_(7F)
  6
Continuous
 62
     7
100
AcDbLine
 10
551.9200307096
 20
279.7021192857
 30
0.0
 11
581.3200307097
 21
279.7021192857
 31
0.0
  0
ARC
  5
1A3
330
183
100
AcDbEntity
  8
$DDT_AUDIT_GENERATED_(7F)
  6
Continuous
 62
     7
100
AcDbCircle
 10
551.9200307097
 20
279.9021192857
 30
0.0
 40
0.2000000000000058
100
AcDbArc
 50
179.9999990945
 51
269.9999999882
  0
ARC
  5
1A4
330
183
100
AcDbEntity
  8
$DDT_AUDIT_GENERATED_(7F)
  6
Continuous
 62
     7
100
AcDbCircle
 10
551.9200287786
 20
296.4021173547
 30
0.0
 40
0.1999980688981896
100
AcDbArc
 50
179.9994462439
 51
270.0005532221
  0
ARC
  5
1A5
330
183
100
AcDbEntity
  8
$DDT_AUDIT_GENERATED_(7F)
  6
Continuous
 62
     7
100
AcDbCircle
 10
551.9200287779
 20
307.002121217
 30
0.0
 40
0.1999980682061407
100
AcDbArc
 50
89.9994465797
 51
180.0005531594
  0
LINE
  5
1A6
330
183
100
AcDbEntity
  8
$DDT_AUDIT_GENERATED_(7F)
  6
Continuous
 62
     7
100
AcDbLine
 10
558.8136993981
 20
307.2021192857
 30
0.0
 11
558.8136993981
 21
307.5021192857
 31
0.0
  0
LINE
  5
1A7
330
183
100
AcDbEntity
  8
$DDT_AUDIT_GENERATED_(7F)
  6
Continuous
 62
     7
100
AcDbLine
 10
558.8136993977
 20
305.2021192859
 30
0.0
 11
558.8136993977
 21
305.5021192857
 31
0.0
  0
LINE
  5
1A8
330
183
100
AcDbEntity
  8
$DDT_AUDIT_GENERATED_(7F)
  6
Continuous
 62
     7
100
AcDbLine
 10
558.8136993977
 20
297.9021192857
 30
0.0
 11
558.8136993977
 21
298.2021192852
 31
0.0
  0
LINE
  5
1A9
330
183
100
AcDbEntity
  8
$DDT_AUDIT_GENERATED_(7F)
  6
Continuous
 62
     7
100
AcDbLine
 10
558.8136993981
 20
295.9021192877
 30
0.0
 11
558.8136993981
 21
296.2021192857
 31
0.0
  0
ARC
  5
1AA
330
183
100
AcDbEntity
  8
$DDT_AUDIT_GENERATED_(7F)
  6
Continuous
 62
     7
100
AcDbCircle
 10
591.2589486241
 20
297.3591705355
 30
0.0
 40
11.64564122585698
100
AcDbArc
 50
181.9470111452
 51
190.8117299801
  0
LINE
  5
1AB
330
183
100
AcDbEntity
  8
$DDT_AUDIT_GENERATED_(7F)
  6
Continuous
 62
     7
100
AcDbLine
 10
579.420030713
 20
296.9635074607
 30
0.0
 11
579.6200307097
 21
296.9635074607
 31
0.0
  0
LINE
  5
1AC
330
183
100
AcDbEntity
  8
$DDT_AUDIT_GENERATED_(7F)
  6
Continuous
 62
     7
100
AcDbLine
 10
573.2441237207
 20
301.5021192857
 30
0.0
 11
573.2441237207
 21
301.3021192902
 31
0.0
  0
SPLINE
  5
1AD
330
183
100
AcDbEntity
  8
$DDT_AUDIT_GENERATED_(7F)
  6
Continuous
 62
     7
100
AcDbSpline
210
0.0
220
0.0
230
1.0
 70
     8
 71
     3
 72
    15
 73
    11
 74
     0
 42
0.0000000155094763
 43
0.0000000001
 40
0.0
 40
0.0
 40
0.0
 40
0.0
 40
0.2033534361647026
 40
0.344634962441297
 40
0.5095646457319976
 40
0.6435612181473891
 40
0.7665530468117415
 40
0.8623104775913703
 40
0.9389908133027206
 40
1.0
 40
1.0
 40
1.0
 40
1.0
 10
573.2441237212591
 20
303.2021192856342
 30
0.0
 10
573.2009228911529
 20
303.2011547109147
 30
0.0
 10
573.1277079186333
 20
303.1995199903641
 30
0.0
 10
573.0201529621239
 20
303.1872735241708
 30
0.0
 10
572.9279662895153
 20
303.1703008750595
 30
0.0
 10
572.841535749796
 20
303.1458389257587
 30
0.0
 10
572.771399774622
 20
303.1170051669553
 30
0.0
 10
572.7181546912132
 20
303.0832333287895
 30
0.0
 10
572.6804932582985
 20
303.0460257778744
 30
0.0
 10
572.6747362335694
 20
303.0156004975603
 30
0.0
 10
572.6721853380299
 20
303.0021192857513
 30
0.0
  0
LINE
  5
1AE
330
183
100
AcDbEntity
  8
$DDT_AUDIT_GENERATED_(7F)
  6
Continuous
 62
     7
100
AcDbLine
 10
573.2441237207
 20
303.4021192858
 30
0.0
 11
573.2441237207
 21
303.2021192857
 31
0.0
  0
LINE
  5
1AF
330
183
100
AcDbEntity
  8
$DDT_AUDIT_GENERATED_(7F)
  6
Continuous
 62
     7
100
AcDbLine
 10
573.2441237207
 20
312.2021192857
 30
0.0
 11
573.2441237207
 21
312.0021192858
 31
0.0
  0
SPLINE
  5
1B0
330
183
100
AcDbEntity
  8
$DDT_AUDIT_GENERATED_(7F)
  6
Continuous
 62
     7
100
AcDbSpline
210
0.0
220
0.0
230
1.0
 70
     8
 71
     3
 72
    17
 73
    13
 74
     0
 42
0.0000000155437014
 43
0.0000000001
 40
0.0
 40
0.0
 40
0.0
 40
0.0
 40
0.0295973787420714
 40
0.0614847052317004
 40
0.0973590545794746
 40
0.1384261566800828
 40
0.2340502055760201
 40
0.3569886272244484
 40
0.4907997276402946
 40
0.6556594982013785
 40
0.7967692827033495
 40
1.0
 40
1.0
 40
1.0
 40
1.0
 10
572.6721853380365
 20
312.4021192857512
 30
0.0
 10
572.6727413916734
 20
312.395562634026
 30
0.0
 10
572.6738965177918
 20
312.3819420429269
 30
0.0
 10
572.6828907187427
 20
312.362151996215
 30
0.0
 10
572.696854681703
 20
312.3428825121658
 30
0.0
 10
572.723963448342
 20
312.3169351420639
 30
0.0
 10
572.7716639924541
 20
312.2872426487154
 30
0.0
 10
572.8414225122631
 20
312.2584069902121
 30
0.0
 10
572.9279824816828
 20
312.2339412178932
 30
0.0
 10
573.0201197661663
 20
312.2169686764622
 30
0.0
 10
573.1276998953005
 20
312.204719222764
 30
0.0
 10
573.2009130903893
 20
312.2030842509209
 30
0.0
 10
573.2441237212419
 20
312.2021192858021
 30
0.0
  0
LINE
  5
1B1
330
183
100
AcDbEntity
  8
$DDT_AUDIT_GENERATED_(7F)
  6
Continuous
 62
     7
100
AcDbLine
 10
573.2441237207
 20
314.1021192814
 30
0.0
 11
573.2441237207
 21
313.9021192857
 31
0.0
  0
LINE
  5
1B2
330
183
100
AcDbEntity
  8
$DDT_AUDIT_GENERATED_(7F)
  6
Continuous
 62
     7
100
AcDbLine
 10
579.6200307097
 20
318.4407311107
 30
0.0
 11
579.420030713
 21
318.4407311107
 31
0.0
  0
ARC
  5
1B3
330
183
100
AcDbEntity
  8
$DDT_AUDIT_GENERATED_(7F)
  6
Continuous
 62
     7
100
AcDbCircle
 10
591.3002683917
 20
318.0404483459
 30
0.0
 40
11.68709453517987
100
AcDbArc
 50
169.204022559
 51
178.03723632
  0
ARC
  5
1B4
330
183
100
AcDbEntity
  8
$DDT_AUDIT_GENERATED_(7F)
  6
Continuous
 62
     7
100
AcDbCircle
 10
579.4200307097
 20
303.4021192857
 30
0.0
 40
0.1999999999999997
100
AcDbArc
 50
270.0000002243
 51
359.9999999882
  0
ARC
  5
1B5
330
183
100
AcDbEntity
  8
$DDT_AUDIT_GENERATED_(7F)
  6
Continuous
 62
     7
100
AcDbCircle
 10
579.4200307097
 20
312.0021192857
 30
0.0
 40
0.2000000000000023
100
AcDbArc
 50
0.0000000118
 51
89.9999997704
  0
SPLINE
  5
1B6
330
183
100
AcDbEntity
  8
$DDT_AUDIT_GENERATED_(7F)
  6
Continuous
 62
     7
100
AcDbSpline
210
0.0
220
0.0
230
1.0
 70
    12
 71
     3
 72
    14
 73
    10
 74
     0
 42
0.0000000393125418
 43
0.0000000001
 40
0.0
 40
0.0
 40
0.0
 40
0.0
 40
0.2500000000000036
 40
0.2500000000000036
 40
0.5000000000000003
 40
0.5000000000000003
 40
0.7500000000000032
 40
0.7500000000000032
 40
1.0
 40
1.0
 40
1.0
 40
1.0
 10
579.5362783481694
 20
312.4021192857218
 30
0.0
 41
1.0
 10
579.5362783486745
 20
312.3759346447308
 30
0.0
 41
1.0
 10
579.5332527276745
 20
312.3497696857307
 30
0.0
 41
1.0
 10
579.5216063196746
 20
312.3013955127307
 30
0.0
 41
1.0
 10
579.5129900826745
 20
312.2792099267307
 30
0.0
 41
1.0
 10
579.4914703236745
 20
312.2421859327307
 30
0.0
 41
1.0
 10
579.4785752166746
 20
312.2273620007307
 30
0.0
 41
1.0
 10
579.4504582936746
 20
312.2073247577307
 30
0.0
 41
1.0
 10
579.4352502256745
 20
312.2021192857307
 30
0.0
 41
1.0
 10
579.420030710476
 20
312.2021192858286
 30
0.0
 41
1.0
  0
LINE
  5
1B7
330
183
100
AcDbEntity
  8
$DDT_AUDIT_GENERATED_(7F)
  6
Continuous
 62
     7
100
AcDbLine
 10
579.6200307096
 20
298.8119597742
 30
0.0
 11
579.6200307097
 21
296.9635073675
 31
0.0
  0
LINE
  5
1B8
330
183
100
AcDbEntity
  8
$DDT_AUDIT_GENERATED_(7F)
  6
Continuous
 62
     7
100
AcDbLine
 10
579.6200307097
 20
298.8119597748
 30
0.0
 11
579.6200307097
 21
300.175324367
 31
0.0
  0
LINE
  5
1B9
330
183
100
AcDbEntity
  8
$DDT_AUDIT_GENERATED_(7F)
  6
Continuous
 62
     7
100
AcDbLine
 10
579.6200307097
 20
301.4097466148
 30
0.0
 11
579.6200307095
 21
300.1753243688
 31
0.0
  0
LINE
  5
1BA
330
183
100
AcDbEntity
  8
$DDT_AUDIT_GENERATED_(7F)
  6
Continuous
 62
     7
100
AcDbLine
 10
579.6200307097
 20
313.9944919567
 30
0.0
 11
579.6200307097
 21
301.4097466148
 31
0.0
  0
LINE
  5
1BB
330
183
100
AcDbEntity
  8
$DDT_AUDIT_GENERATED_(7F)
  6
Continuous
 62
     7
100
AcDbLine
 10
579.6200307095
 20
315.2289142026
 30
0.0
 11
579.6200307097
 21
313.9944919567
 31
0.0
  0
LINE
  5
1BC
330
183
100
AcDbEntity
  8
$DDT_AUDIT_GENERATED_(7F)
  6
Continuous
 62
     7
100
AcDbLine
 10
579.6200307097
 20
315.2289142045
 30
0.0
 11
579.6200307097
 21
316.5922787967
 31
0.0
  0
LINE
  5
1BD
330
183
100
AcDbEntity
  8
$DDT_AUDIT_GENERATED_(7F)
  6
Continuous
 62
     7
100
AcDbLine
 10
579.6200307097
 20
318.440731204
 30
0.0
 11
579.6200307096
 21
316.5922787973
 31
0.0
  0
LINE
  5
1BE
330
183
100
AcDbEntity
  8
$DDT_AUDIT_GENERATED_(7F)
  6
Continuous
 62
     7
100
AcDbLine
 10
558.813699396
 20
296.2021192857
 30
0.0
 11
553.175875792
 21
296.2021192857
 31
0.0
  0
LINE
  5
1BF
330
183
100
AcDbEntity
  8
$DDT_AUDIT_GENERATED_(7F)
  6
Continuous
 62
     7
100
AcDbLine
 10
553.175875792
 20
296.2021192857
 30
0.0
 11
551.9200307097
 21
296.2021192857
 31
0.0
  0
LINE
  5
1C0
330
183
100
AcDbEntity
  8
$DDT_AUDIT_GENERATED_(7F)
  6
Continuous
 62
     7
100
AcDbLine
 10
551.9200307097
 20
307.2021192857
 30
0.0
 11
553.1758757916
 21
307.2021192858
 31
0.0
  0
ARC
  5
1C1
330
183
100
AcDbEntity
  8
$DDT_AUDIT_GENERATED_(7F)
  6
Continuous
 62
     7
100
AcDbCircle
 10
553.1818603555
 20
296.4170651958
 30
0.0
 40
0.2150292056297723
100
AcDbArc
 50
268.4051723837
 51
297.6890689959
  0
LINE
  5
1C2
330
183
100
AcDbEntity
  8
$DDT_AUDIT_GENERATED_(7F)
  6
Continuous
 62
     7
100
AcDbLine
 10
553.2200322193
 20
296.3665219062
 30
0.0
 11
553.2817792638
 21
296.2263420167
 31
0.0
  0
LINE
  5
1C3
330
183
100
AcDbEntity
  8
$DDT_AUDIT_GENERATED_(7F)
  6
Continuous
 62
     7
100
AcDbLine
 10
553.2817785759
 20
307.1777673624
 30
0.0
 11
553.2200350834
 21
307.0378451326
 31
0.0
  0
LINE
  5
1C4
330
183
100
AcDbEntity
  8
$DDT_AUDIT_GENERATED_(7F)
  6
Continuous
 62
     7
100
AcDbLine
 10
553.1758757916
 20
307.2021192858
 30
0.0
 11
558.8136993958
 21
307.2021192857
 31
0.0
  0
LINE
  5
1C5
330
183
100
AcDbEntity
  8
$DDT_AUDIT_GENERATED_(7F)
  6
Continuous
 62
     7
100
AcDbLine
 10
553.72003071
 20
305.502119286
 30
0.0
 11
558.8136993971
 21
305.5021192857
 31
0.0
  0
LINE
  5
1C6
330
183
100
AcDbEntity
  8
$DDT_AUDIT_GENERATED_(7F)
  6
Continuous
 62
     7
100
AcDbLine
 10
553.4200307097
 20
301.7021192857
 30
0.0
 11
553.4200307097
 21
296.7320997315
 31
0.0
  0
LINE
  5
1C7
330
183
100
AcDbEntity
  8
$DDT_AUDIT_GENERATED_(7F)
  6
Continuous
 62
     7
100
AcDbLine
 10
553.4200307097
 20
306.6721388476
 30
0.0
 11
553.4200307097
 21
301.7021192857
 31
0.0
  0
LINE
  5
1C8
330
183
100
AcDbEntity
  8
$DDT_AUDIT_GENERATED_(7F)
  6
Continuous
 62
     7
100
AcDbLine
 10
558.8136993969
 20
297.9021192858
 30
0.0
 11
553.7200307099
 21
297.9021192862
 31
0.0
  0
LINE
  5
1C9
330
183
100
AcDbEntity
  8
$DDT_AUDIT_GENERATED_(7F)
  6
Continuous
 62
     7
100
AcDbLine
 10
579.4200307097
 20
301.5021192857
 30
0.0
 11
573.2441237205
 21
301.5021192857
 31
0.0
  0
LINE
  5
1CA
330
183
100
AcDbEntity
  8
$DDT_AUDIT_GENERATED_(7F)
  6
Continuous
 62
     7
100
AcDbLine
 10
573.2441237207
 20
313.9021192857
 30
0.0
 11
579.4200307097
 21
313.9021192857
 31
0.0
  0
ARC
  5
1CB
330
183
100
AcDbEntity
  8
$DDT_AUDIT_GENERATED_(7F)
  6
Continuous
 62
     7
100
AcDbCircle
 10
553.1291557483
 20
296.4819184483
 30
0.0
 40
0.2974059466871519
100
AcDbArc
 50
300.8759069526
 51
344.4358387784
  0
ARC
  5
1CC
330
183
100
AcDbEntity
  8
$DDT_AUDIT_GENERATED_(7F)
  6
Continuous
 62
     7
100
AcDbCircle
 10
553.2514461972
 20
296.664640573
 30
0.0
 40
0.2995836503605151
100
AcDbArc
 50
263.9806832267
 51
302.2907141109
  0
LINE
  5
1CD
330
183
100
AcDbEntity
  8
$DDT_AUDIT_GENERATED_(7F)
  6
Continuous
 62
     7
100
AcDbLine
 10
553.4157402496
 20
296.4021190072
 30
0.0
 11
553.4115886255
 21
296.4113876336
 31
0.0
  0
ARC
  5
1CE
330
183
100
AcDbEntity
  8
$DDT_AUDIT_GENERATED_(7F)
  6
Continuous
 62
     7
100
AcDbCircle
 10
553.1293682216
 20
306.922482242
 30
0.0
 40
0.2971577816644028
100
AcDbArc
 50
15.5450411197
 51
59.1432133273
  0
ARC
  5
1CF
330
183
100
AcDbEntity
  8
$DDT_AUDIT_GENERATED_(7F)
  6
Continuous
 62
     7
100
AcDbCircle
 10
553.2507079947
 20
306.7364346071
 30
0.0
 40
0.3026540659973013
100
AcDbArc
 50
57.9110784094
 51
95.8175377066
  0
ARC
  5
1D0
330
183
100
AcDbEntity
  8
$DDT_AUDIT_GENERATED_(7F)
  6
Continuous
 62
     7
100
AcDbCircle
 10
553.181860357
 20
306.9871733917
 30
0.0
 40
0.2150291896318208
100
AcDbArc
 50
62.3109292637
 51
91.5948282418
  0
ARC
  5
1D1
330
183
100
AcDbEntity
  8
$DDT_AUDIT_GENERATED_(7F)
  6
Continuous
 62
     7
100
AcDbCircle
 10
553.7200307097
 20
305.2021192857
 30
0.0
 40
0.2999999999999999
100
AcDbArc
 50
90.0000000103
 51
169.7710441743
  0
ARC
  5
1D2
330
183
100
AcDbEntity
  8
$DDT_AUDIT_GENERATED_(7F)
  6
Continuous
 62
     7
100
AcDbCircle
 10
553.7200307097
 20
298.2021192857
 30
0.0
 40
0.2999999999999982
100
AcDbArc
 50
190.3070914751
 51
198.3133346613
  0
ARC
  5
1D3
330
183
100
AcDbEntity
  8
$DDT_AUDIT_GENERATED_(7F)
  6
Continuous
 62
     7
100
AcDbCircle
 10
553.7200307097
 20
298.2021192857
 30
0.0
 40
0.2999999999999982
100
AcDbArc
 50
256.2124895261
 51
270.0
  0
ARC
  5
1D4
330
183
100
AcDbEntity
  8
$DDT_AUDIT_GENERATED_(7F)
  6
Continuous
 62
     7
100
AcDbCircle
 10
579.4200307097
 20
314.1021192857
 30
0.0
 40
0.2000000000000005
100
AcDbArc
 50
270.0000001059
 51
359.9999989917
  0
SPLINE
  5
1D5
330
183
100
AcDbEntity
  8
$DDT_AUDIT_GENERATED_(7F)
  6
Continuous
 62
     7
100
AcDbSpline
210
0.0
220
0.0
230
1.0
 70
     8
 71
     3
 72
    15
 73
    11
 74
     0
 42
0.0000000393196988
 43
0.0000000001
 40
0.0
 40
0.0
 40
0.0
 40
0.0
 40
0.0594435150365319
 40
0.1214076137233804
 40
0.1876609955011171
 40
0.2930708918041424
 40
0.4163219291274471
 40
0.6928896475390143
 40
0.8193466820804114
 40
1.0
 40
1.0
 40
1.0
 40
1.0
 10
579.5362783481694
 20
313.7021192857397
 30
0.0
 10
579.5360799555217
 20
313.7108169957172
 30
0.0
 10
579.5356747605204
 20
313.7285812245541
 30
0.0
 10
579.5325068300083
 20
313.7546392251002
 30
0.0
 10
579.5266890886435
 20
313.784084560195
 30
0.0
 10
579.5166390865093
 20
313.8155627401088
 30
0.0
 10
579.4962916272211
 20
313.8575462350424
 30
0.0
 10
579.4718267251874
 20
313.8837527015405
 30
0.0
 10
579.4436729506195
 20
313.8994935990356
 30
0.0
 10
579.4287871013779
 20
313.9011468082939
 30
0.0
 10
579.4200307100443
 20
313.9021192855748
 30
0.0
  0
ARC
  5
1D6
330
183
100
AcDbEntity
  8
$DDT_AUDIT_GENERATED_(7F)
  6
Continuous
 62
     7
100
AcDbCircle
 10
579.4200307097
 20
301.3021192857
 30
0.0
 40
0.2000000000000023
100
AcDbArc
 50
0.0000010083
 51
89.9999999024
  0
SPLINE
  5
1D7
330
183
100
AcDbEntity
  8
$DDT_AUDIT_GENERATED_(7F)
  6
Continuous
 62
     7
100
AcDbSpline
210
0.0
220
0.0
230
1.0
 70
    12
 71
     3
 72
    14
 73
    10
 74
     0
 42
0.0000000154773946
 43
0.0000000001
 40
0.0
 40
0.0
 40
0.0
 40
0.0
 40
0.2499999999999968
 40
0.2499999999999968
 40
0.4999999999999997
 40
0.4999999999999997
 40
0.7499999999999964
 40
0.7499999999999964
 40
1.0
 40
1.0
 40
1.0
 40
1.0
 10
573.2441237211192
 20
301.5021192857703
 30
0.0
 41
1.0
 10
573.1692436826745
 20
301.5021192857307
 30
0.0
 41
1.0
 10
573.0944200316745
 20
301.5073247547307
 30
0.0
 41
1.0
 10
572.9560847226745
 20
301.5273620037308
 30
0.0
 41
1.0
 10
572.8926408356746
 20
301.5421859267307
 30
0.0
 41
1.0
 10
572.7867635876745
 20
301.5792099317307
 30
0.0
 41
1.0
 10
572.7443717236746
 20
301.6013955097308
 30
0.0
 41
1.0
 10
572.6870713856746
 20
301.6497696897307
 30
0.0
 41
1.0
 10
572.6721853376745
 20
301.6759346417307
 30
0.0
 41
1.0
 10
572.6721853379638
 20
301.7021192857422
 30
0.0
 41
1.0
  0
SPLINE
  5
1D8
330
183
100
AcDbEntity
  8
$DDT_AUDIT_GENERATED_(7F)
  6
Continuous
 62
     7
100
AcDbSpline
210
0.0
220
0.0
230
1.0
 70
    12
 71
     3
 72
    14
 73
    10
 74
     0
 42
0.0000000154773946
 43
0.0000000001
 40
0.0
 40
0.0
 40
0.0
 40
0.0
 40
0.2500000000000032
 40
0.2500000000000032
 40
0.5000000000000001
 40
0.5000000000000001
 40
0.7500000000000036
 40
0.7500000000000036
 40
1.0
 40
1.0
 40
1.0
 40
1.0
 10
572.6721853380365
 20
313.7021192857603
 30
0.0
 41
1.0
 10
572.6721853376745
 20
313.7283039297307
 30
0.0
 41
1.0
 10
572.6870713856746
 20
313.7544688817308
 30
0.0
 41
1.0
 10
572.7443717236746
 20
313.8028430617308
 30
0.0
 41
1.0
 10
572.7867635876745
 20
313.8250286397307
 30
0.0
 41
1.0
 10
572.8926408356746
 20
313.8620526447307
 30
0.0
 41
1.0
 10
572.9560847226745
 20
313.8768765677307
 30
0.0
 41
1.0
 10
573.0944200316745
 20
313.8969138167307
 30
0.0
 41
1.0
 10
573.1692436826745
 20
313.9021192857307
 30
0.0
 41
1.0
 10
573.2441237210494
 20
313.9021192856002
 30
0.0
 41
1.0
  0
LINE
  5
1D9
330
183
100
AcDbEntity
  8
$DDT_AUDIT_GENERATED_(7F)
  6
Continuous
 62
     7
100
AcDbLine
 10
553.4115646856
 20
306.9928506005
 30
0.0
 11
553.4157482437
 21
307.0021193001
 31
0.0
  0
SPLINE
  5
1DA
330
183
100
AcDbEntity
  8
$DDT_AUDIT_GENERATED_(7F)
  6
Continuous
 62
     7
100
AcDbSpline
210
0.0
220
0.0
230
1.0
 70
     8
 71
     3
 72
    16
 73
    12
 74
     0
 42
0.000000025168967
 43
0.0000000001
 40
0.0
 40
0.0
 40
0.0
 40
0.0
 40
0.2958014802024939
 40
0.3773555794879866
 40
0.4061376107022286
 40
0.4187445063695841
 40
0.4308670632671991
 40
0.4600056413826172
 40
0.6136280730110671
 40
0.780047832752827
 40
1.0
 40
1.0
 40
1.0
 40
1.0
 10
553.4247794516241
 20
305.2552859540457
 30
0.0
 10
553.4282129893497
 20
305.276957706093
 30
0.0
 10
553.4346845207099
 20
305.3039214077802
 30
0.0
 10
553.4537363230902
 20
305.3517754760801
 30
0.0
 10
553.4635401760344
 20
305.3701308938395
 30
0.0
 10
553.4686883534755
 20
305.3785347559888
 30
0.0
 10
553.4742740692517
 20
305.3868974908978
 30
0.0
 10
553.495157052848
 20
305.4139974643949
 30
0.0
 10
553.5338956058885
 20
305.4469903099969
 30
0.0
 10
553.6054701832809
 20
305.4857925850874
 30
0.0
 10
553.6577125002378
 20
305.4951989881412
 30
0.0
 10
553.6930743808038
 20
305.5009057585405
 30
0.0
  0
SPLINE
  5
1DB
330
183
100
AcDbEntity
  8
$DDT_AUDIT_GENERATED_(7F)
  6
Continuous
 62
     7
100
AcDbSpline
210
0.0
220
0.0
230
1.0
 70
     8
 71
     3
 72
    15
 73
    11
 74
     0
 42
0.0000000251308162
 43
0.0000000001
 40
0.0
 40
0.0
 40
0.0
 40
0.0
 40
0.3449135901718018
 40
0.446420038017569
 40
0.4816311323653991
 40
0.5087028881596589
 40
0.5360351087909714
 40
0.5699387634836608
 40
0.6654183310313323
 40
1.0
 40
1.0
 40
1.0
 40
1.0
 10
553.6930743814689
 20
297.9033328128609
 30
0.0
 10
553.6463361036007
 20
297.9103613499141
 30
0.0
 10
553.5943582075837
 20
297.9205325487458
 30
0.0
 10
553.5371127804459
 20
297.9536308525354
 30
0.0
 10
553.5169661068913
 20
297.9692840373827
 30
0.0
 10
553.5053024728262
 20
297.9801242911929
 30
0.0
 10
553.4946038204961
 20
297.9921352818317
 30
0.0
 10
553.4788808686092
 20
298.0127181779105
 30
0.0
 10
553.4448576653631
 20
298.0697657286556
 30
0.0
 10
553.4330777066638
 20
298.1119407896708
 30
0.0
 10
553.4247794516245
 20
298.1489526174134
 30
0.0
  0
LINE
  5
1DC
330
183
100
AcDbEntity
  8
$DDT_AUDIT_GENERATED_(D0)
  6
Continuous
 62
     7
100
AcDbLine
 10
562.7200307053
 20
337.1021192857
 30
0.0
 11
573.4700307097
 21
337.1021192857
 31
0.0
  0
LINE
  5
1DD
330
183
100
AcDbEntity
  8
$DDT_AUDIT_GENERATED_(D0)
  6
Continuous
 62
     7
100
AcDbLine
 10
562.7200307087
 20
337.1021192857
 30
0.0
 11
551.9700307097
 21
337.1021192857
 31
0.0
  0
LINE
  5
1DE
330
183
100
AcDbEntity
  8
$DDT_AUDIT_GENERATED_(D0)
  6
Continuous
 62
     7
100
AcDbLine
 10
573.4700307097
 20
335.7021192857
 30
0.0
 11
562.7200307053
 21
335.7021192857
 31
0.0
  0
LINE
  5
1DF
330
183
100
AcDbEntity
  8
$DDT_AUDIT_GENERATED_(D0)
  6
Continuous
 62
     7
100
AcDbLine
 10
551.9700307097
 20
335.7021192857
 30
0.0
 11
562.7200307077
 21
335.7021192857
 31
0.0
  0
LINE
  5
1E0
330
183
100
AcDbEntity
  8
$DDT_AUDIT_GENERATED_(D0)
  6
Continuous
 62
     7
100
AcDbLine
 10
573.4700307097
 20
335.7021192857
 30
0.0
 11
573.4700307097
 21
337.1021192857
 31
0.0
  0
LINE
  5
1E1
330
183
100
AcDbEntity
  8
$DDT_AUDIT_GENERATED_(D0)
  6
Continuous
 62
     7
100
AcDbLine
 10
551.9700307097
 20
337.1021192857
 30
0.0
 11
551.9700307097
 21
335.7021192857
 31
0.0
  0
LINE
  5
1E2
330
183
100
AcDbEntity
  8
67962040_TRAFO_2
  6
Continuous
 62
     7
100
AcDbLine
 10
615.0700307097
 20
325.5021192856
 30
0.0
 11
615.0700307097
 21
290.2021192857
 31
0.0
  0
LINE
  5
1E3
330
183
100
AcDbEntity
  8
67962040_TRAFO_2
  6
Continuous
 62
     7
100
AcDbLine
 10
619.7200307097
 20
321.9021192857
 30
0.0
 11
615.0700307097
 21
321.9021192857
 31
0.0
  0
LINE
  5
1E4
330
183
100
AcDbEntity
  8
67962040_TRAFO_2
  6
Continuous
 62
     7
100
AcDbLine
 10
615.0700307097
 20
293.8021192857
 30
0.0
 11
619.7200307097
 21
293.8021192857
 31
0.0
  0
ARC
  5
1E5
330
183
100
AcDbEntity
  8
67962040_TRAFO_2
  6
Continuous
 62
     7
100
AcDbCircle
 10
614.0700307082
 20
290.2021192872
 30
0.0
 40
1.000000001448261
100
AcDbArc
 50
270.000000083
 51
359.999999917
  0
ARC
  5
1E6
330
183
100
AcDbEntity
  8
67962040_TRAFO_2
  6
Continuous
 62
     7
100
AcDbCircle
 10
614.0700307082
 20
325.5021192843
 30
0.0
 40
1.000000001447553
100
AcDbArc
 50
0.0000000771
 51
89.9999999171
  0
ARC
  5
1E7
330
183
100
AcDbEntity
  8
67962040_TRAFO_2
  6
Continuous
 62
     7
100
AcDbCircle
 10
619.7200307082
 20
320.9021192843
 30
0.0
 40
1.000000001447999
100
AcDbArc
 50
0.0000000771
 51
89.999999917
  0
LINE
  5
1E8
330
183
100
AcDbEntity
  8
67962040_TRAFO_2
  6
Continuous
 62
     7
100
AcDbLine
 10
620.7200307097
 20
320.9021192856
 30
0.0
 11
620.7200307097
 21
294.8021192857
 31
0.0
  0
ARC
  5
1E9
330
183
100
AcDbEntity
  8
67962040_TRAFO_2
  6
Continuous
 62
     7
100
AcDbCircle
 10
619.7200307082
 20
294.8021192872
 30
0.0
 40
1.000000001447761
100
AcDbArc
 50
270.000000083
 51
359.9999999171
  0
LINE
  5
1EA
330
183
100
AcDbEntity
  8
67962040_TRAFO_2
  6
Continuous
 62
     7
100
AcDbLine
 10
582.8200307097
 20
289.2021192857
 30
0.0
 11
614.0700307097
 21
289.2021192857
 31
0.0
  0
LINE
  5
1EB
330
183
100
AcDbEntity
  8
67962040_TRAFO_2
  6
Continuous
 62
     7
100
AcDbLine
 10
614.0700307097
 20
326.5021192857
 30
0.0
 11
582.8200307097
 21
326.5021192857
 31
0.0
  0
ELLIPSE
  5
1EC
330
183
100
AcDbEntity
  8
67962040_TRAFO_2
  6
Continuous
 62
     7
100
AcDbEllipse
 10
588.3200307097
 20
281.5457088835
 30
0.0
 11
-1.899999999999995
 21
-1.387778780781446E-14
 31
0.0
210
0.0
220
0.0
230
1.0
 40
0.7963564013
 41
3.141592653794905
 42
3.275025138897719
  0
ELLIPSE
  5
1ED
330
183
100
AcDbEntity
  8
67962040_TRAFO_2
  6
Continuous
 62
     7
100
AcDbEllipse
 10
588.3200307097
 20
281.5457088835
 30
0.0
 11
-1.9
 21
6.938893903907228E-15
 31
0.0
210
0.0
220
0.0
230
1.0
 40
0.7963564013
 41
6.150222908990133
 42
6.283185307179586
  0
ELLIPSE
  5
1EE
330
183
100
AcDbEntity
  8
67962040_TRAFO_2
  6
Continuous
 62
     7
100
AcDbEllipse
 10
588.3200307097
 20
255.5381200806
 30
0.0
 11
2.660254037999998
 21
1.387778780781446E-14
 31
0.0
210
0.0
220
0.0
230
1.0
 40
0.7963564013
 41
1.570796327205066
 42
2.781031061452891
  0
ELLIPSE
  5
1EF
330
183
100
AcDbEntity
  8
67962040_TRAFO_2
  6
Continuous
 62
     7
100
AcDbEllipse
 10
588.3200307097
 20
255.5381200806
 30
0.0
 11
-2.660254037999958
 21
6.938893903907228E-15
 31
0.0
210
0.0
220
0.0
230
1.0
 40
0.7963564013
 41
3.502154245726532
 42
4.712388980794866
  0
ELLIPSE
  5
1F0
330
183
100
AcDbEntity
  8
67962040_TRAFO_2
  6
Continuous
 62
     7
100
AcDbEllipse
 10
588.3200307097
 20
252.5139818477
 30
0.0
 11
4.000000000000004
 21
-6.938893903907228E-15
 31
0.0
210
0.0
220
0.0
230
1.0
 40
0.7963564013
 41
1.57079632720508
 42
3.141592653589793
  0
ELLIPSE
  5
1F1
330
183
100
AcDbEntity
  8
67962040_TRAFO_2
  6
Continuous
 62
     7
100
AcDbEllipse
 10
588.3200307097
 20
252.5139818477
 30
0.0
 11
-4.0
 21
6.938893903907228E-15
 31
0.0
210
0.0
220
0.0
230
1.0
 40
0.7963564013
 41
3.141592653589795
 42
4.712388980794874
  0
ELLIPSE
  5
1F2
330
183
100
AcDbEntity
  8
67962040_TRAFO_2
  6
Continuous
 62
     7
100
AcDbEllipse
 10
588.3200307097
 20
242.7157739732
 30
0.0
 11
3.999999999999997
 21
0.0
 31
0.0
210
0.0
220
0.0
230
1.0
 40
0.7963564013
 41
1.570796327140334
 42
4.71238898038469
  0
ELLIPSE
  5
1F3
330
183
100
AcDbEntity
  8
67962040_TRAFO_2
  6
Continuous
 62
     7
100
AcDbEllipse
 10
588.3200307097
 20
242.7157739732
 30
0.0
 11
-4.000000000000001
 21
1.387778780781446E-14
 31
0.0
210
0.0
220
0.0
230
1.0
 40
0.7963564013
 41
1.570796326794899
 42
4.71238898073013
  0
ELLIPSE
  5
1F4
330
183
100
AcDbEntity
  8
67962040_TRAFO_2
  6
Continuous
 62
     7
100
AcDbEllipse
 10
588.3200307097
 20
242.7157739732
 30
0.0
 11
-3.000000000000006
 21
0.0
 31
0.0
210
0.0
220
0.0
230
1.0
 40
0.7963564013
 41
1.570796326794897
 42
4.712388980726508
  0
ELLIPSE
  5
1F5
330
183
100
AcDbEntity
  8
67962040_TRAFO_2
  6
Continuous
 62
     7
100
AcDbEllipse
 10
588.3200307097
 20
242.7157739732
 30
0.0
 11
3.000000000000003
 21
1.387778780781446E-14
 31
0.0
210
0.0
220
0.0
230
1.0
 40
0.7963564013
 41
1.570796327136711
 42
4.712388980384686
  0
ARC
  5
1F6
330
183
100
AcDbEntity
  8
67962040_TRAFO_2
  6
Continuous
 62
     7
100
AcDbCircle
 10
587.24984103
 20
281.4596103078
 30
0.0
 40
2.967282762916532
100
AcDbArc
 50
5.5494308841
 51
65.7483125386
  0
LINE
  5
1F7
330
183
100
AcDbEntity
  8
67962040_TRAFO_2
  6
Continuous
 62
     7
100
AcDbLine
 10
586.4200307097
 20
281.5457088835
 30
0.0
 11
586.4200307097
 21
260.208831109
 31
0.0
  0
LINE
  5
1F8
330
183
100
AcDbEntity
  8
67962040_TRAFO_2
  6
Continuous
 62
     7
100
AcDbLine
 10
588.4654767033
 20
284.1666496748
 30
0.0
 11
582.8200307137
 21
287.031773668
 31
0.0
  0
SPLINE
  5
1F9
330
183
100
AcDbEntity
  8
67962040_TRAFO_2
  6
Continuous
 62
     7
100
AcDbSpline
210
0.0
220
0.0
230
1.0
 70
     8
 71
     3
 72
     8
 73
     4
 74
     0
 42
0.0000000086031755
 43
0.0000000001
 40
0.9734450071167124
 40
0.9734450071167124
 40
0.9734450071167124
 40
0.9734450071167124
 40
1.0
 40
1.0
 40
1.0
 40
1.0
 10
586.4188659019645
 20
281.5277994997554
 30
0.0
 10
586.4184702462043
 20
281.537887495986
 30
0.0
 10
586.4180922189748
 20
281.5481611028625
 30
0.0
 10
586.4177168352418
 20
281.5586445741749
 30
0.0
  0
LINE
  5
1FA
330
183
100
AcDbEntity
  8
67962040_TRAFO_2
  6
Continuous
 62
     7
100
AcDbLine
 10
590.2200307097
 20
260.2045098007
 30
0.0
 11
590.2200307097
 21
281.5457088835
 31
0.0
  0
SPLINE
  5
1FB
330
183
100
AcDbEntity
  8
67962040_TRAFO_2
  6
Continuous
 62
     7
100
AcDbSpline
210
0.0
220
0.0
230
1.0
 70
     8
 71
     3
 72
    19
 73
    15
 74
     0
 42
0.0000000025431575
 43
0.0000000001
 40
0.0
 40
0.0
 40
0.0
 40
0.0
 40
0.0547691421817654
 40
0.1457173989222496
 40
0.2370165230070485
 40
0.3285472774855717
 40
0.4201439847838512
 40
0.511520919521749
 40
0.6022945091975482
 40
0.6920659508487421
 40
0.7805361762972078
 40
0.8675947788194455
 40
0.9533436511464956
 40
1.0
 40
1.0
 40
1.0
 40
1.0
 10
588.3200307200326
 20
260.9020516482971
 30
0.0
 10
588.2382693305694
 20
260.9005753611654
 30
0.0
 10
588.0536620450347
 20
260.8960613896298
 30
0.0
 10
587.7267512412637
 20
260.8519395671318
 30
0.0
 10
587.3713457735794
 20
260.7591344260776
 30
0.0
 10
587.029561709719
 20
260.6223460416578
 30
0.0
 10
586.712540094587
 20
260.4441556057051
 30
0.0
 10
586.4264383283902
 20
260.2273414752796
 30
0.0
 10
586.1782699428106
 20
259.9762293202348
 30
0.0
 10
585.9740500638303
 20
259.6967949910297
 30
0.0
 10
585.8173732761406
 20
259.3948746099611
 30
0.0
 10
585.7138879534222
 20
259.0813454243979
 30
0.0
 10
585.6624652561006
 20
258.7994368021356
 30
0.0
 10
585.6646648438106
 20
258.6427066895881
 30
0.0
 10
585.6660121585584
 20
258.5777993048028
 30
0.0
  0
LINE
  5
1FC
330
183
100
AcDbEntity
  8
67962040_TRAFO_2
  6
Continuous
 62
     7
100
AcDbLine
 10
582.8200307096
 20
282.7704043573
 30
0.0
 11
586.4200307097
 21
280.9433659984
 31
0.0
  0
SPLINE
  5
1FD
330
183
100
AcDbEntity
  8
67962040_TRAFO_2
  6
Continuous
 62
     7
100
AcDbSpline
210
0.0
220
0.0
230
1.0
 70
     8
 71
     3
 72
    20
 73
    16
 74
     0
 42
0.000000002546201
 43
0.0000000001
 40
0.0
 40
0.0
 40
0.0
 40
0.0
 40
0.0381031765107294
 40
0.1222809291627361
 40
0.2061549881969068
 40
0.2901932201528573
 40
0.3748217675301473
 40
0.4603639209638476
 40
0.5469964159242391
 40
0.634732436362115
 40
0.723446779497101
 40
0.8129400323607058
 40
0.9030139845335352
 40
0.9891459387972683
 40
1.0
 40
1.0
 40
1.0
 40
1.0
 10
590.9740492607558
 20
258.5819961314387
 30
0.0
 10
590.9757008996432
 20
258.6349340094171
 30
0.0
 10
590.9794258074417
 20
258.7797465012791
 30
0.0
 10
590.9341137520804
 20
259.0452578345528
 30
0.0
 10
590.8407228247831
 20
259.34904987746
 30
0.0
 10
590.6992806735786
 20
259.6395715545362
 30
0.0
 10
590.5157405672039
 20
259.9090667623037
 30
0.0
 10
590.2919554344786
 20
260.1545001499829
 30
0.0
 10
590.0314316136623
 20
260.3716346503524
 30
0.0
 10
589.7379793890974
 20
260.5566127816225
 30
0.0
 10
589.4168897324713
 20
260.7056977719641
 30
0.0
 10
589.0725238361346
 20
260.8157440848407
 30
0.0
 10
588.7224455129002
 20
260.8829422462194
 30
0.0
 10
588.4605049833452
 20
260.9013376355935
 30
0.0
 10
588.3362202413362
 20
260.9019937505538
 30
0.0
 10
588.3200307062646
 20
260.9020516495464
 30
0.0
  0
LINE
  5
1FE
330
183
100
AcDbEntity
  8
67962040_TRAFO_2
  6
Continuous
 62
     7
100
AcDbLine
 10
585.6597766717
 20
258.5798977145
 30
0.0
 11
585.6597766717
 21
255.9242390067
 31
0.0
  0
LINE
  5
1FF
330
183
100
AcDbEntity
  8
67962040_TRAFO_2
  6
Continuous
 62
     7
100
AcDbLine
 10
590.9802847477
 20
255.9242390067
 30
0.0
 11
590.9802847477
 21
258.5798977145
 31
0.0
  0
LINE
  5
200
330
183
100
AcDbEntity
  8
67962040_TRAFO_2
  6
Continuous
 62
     7
100
AcDbLine
 10
585.8308340878
 20
256.2855300386
 30
0.0
 11
584.577235343
 21
253.6377992686
 31
0.0
  0
LINE
  5
201
330
183
100
AcDbEntity
  8
67962040_TRAFO_2
  6
Continuous
 62
     7
100
AcDbLine
 10
592.0628260763
 20
253.6377992686
 30
0.0
 11
590.8092273316
 21
256.2855300386
 31
0.0
  0
LINE
  5
202
330
183
100
AcDbEntity
  8
67962040_TRAFO_2
  6
Continuous
 62
     7
100
AcDbLine
 10
584.3200307097
 20
252.5139818477
 30
0.0
 11
584.3200307097
 21
242.7157739732
 31
0.0
  0
LINE
  5
203
330
183
100
AcDbEntity
  8
67962040_TRAFO_2
  6
Continuous
 62
     7
100
AcDbLine
 10
592.3200307097
 20
242.7157739732
 30
0.0
 11
592.3200307097
 21
252.5139818477
 31
0.0
  0
LINE
  5
204
330
183
100
AcDbEntity
  8
67962040_TRAFO_2
  6
Continuous
 62
     7
100
AcDbLine
 10
588.8200307097
 20
242.7913626184
 30
0.0
 11
588.8200307097
 21
245.0714279762
 31
0.0
  0
ARC
  5
205
330
183
100
AcDbEntity
  8
67962040_TRAFO_2
  6
Continuous
 62
     7
100
AcDbCircle
 10
588.3200307097
 20
242.791377429
 30
0.0
 40
0.4999999999999727
100
AcDbArc
 50
270.0
 51
359.9953605945
  0
LINE
  5
206
330
183
100
AcDbEntity
  8
67962040_TRAFO_2
  6
Continuous
 62
     7
100
AcDbLine
 10
587.8200307097
 20
245.0714279762
 30
0.0
 11
587.8200307097
 21
242.7913626184
 31
0.0
  0
ARC
  5
207
330
183
100
AcDbEntity
  8
67962040_TRAFO_2
  6
Continuous
 62
     7
100
AcDbCircle
 10
588.3200307097
 20
245.180446633
 30
0.0
 40
0.5000000000000282
100
AcDbArc
 50
270.0
 51
347.588623971
  0
ARC
  5
208
330
183
100
AcDbEntity
  8
67962040_TRAFO_2
  6
Continuous
 62
     7
100
AcDbCircle
 10
588.3200307097
 20
242.791377429
 30
0.0
 40
0.4999999999999694
100
AcDbArc
 50
180.0046393918
 51
270.0
  0
ARC
  5
209
330
183
100
AcDbEntity
  8
67962040_TRAFO_2
  6
Continuous
 62
     7
100
AcDbCircle
 10
588.3200307097
 20
245.180446633
 30
0.0
 40
0.5000000000000321
100
AcDbArc
 50
192.411376029
 51
270.0
  0
LINE
  5
20A
330
183
100
AcDbEntity
  8
67962040_TRAFO_2
  6
Continuous
 62
     7
100
AcDbLine
 10
582.8200307097
 20
289.2021192857
 30
0.0
 11
583.1200307097
 21
289.2021192857
 31
0.0
  0
LINE
  5
20B
330
183
100
AcDbEntity
  8
67962040_TRAFO_2
  6
Continuous
 62
     7
100
AcDbLine
 10
583.1200307097
 20
326.5021192857
 30
0.0
 11
582.8200307097
 21
326.5021192857
 31
0.0
  0
LINE
  5
20C
330
183
100
AcDbEntity
  8
67962040_TRAFO_2
  6
Continuous
 62
     7
100
AcDbLine
 10
596.5200307103
 20
311.7021192857
 30
0.0
 11
595.5204889187
 21
311.7021192877
 31
0.0
  0
LINE
  5
20D
330
183
100
AcDbEntity
  8
67962040_TRAFO_2
  6
Continuous
 62
     7
100
AcDbLine
 10
576.2037866878
 20
311.7021192857
 30
0.0
 11
576.0984404648
 21
311.7021192859
 31
0.0
  0
LINE
  5
20E
330
183
100
AcDbEntity
  8
67962040_TRAFO_2
  6
Continuous
 62
     7
100
AcDbLine
 10
579.5951403267
 20
311.7021192856
 30
0.0
 11
576.2037866878
 21
311.7021192857
 31
0.0
  0
LINE
  5
20F
330
183
100
AcDbEntity
  8
67962040_TRAFO_2
  6
Continuous
 62
     7
100
AcDbLine
 10
595.5204889186
 20
311.7021192859
 30
0.0
 11
581.3200307097
 21
311.7021192855
 31
0.0
  0
LINE
  5
210
330
183
100
AcDbEntity
  8
67962040_TRAFO_2
  6
Continuous
 62
     7
100
AcDbLine
 10
595.5204889184
 20
311.7021192857
 30
0.0
 11
597.620030708
 21
311.7021192857
 31
0.0
  0
LINE
  5
211
330
183
100
AcDbEntity
  8
67962040_TRAFO_2
  6
Continuous
 62
     7
100
AcDbLine
 10
582.8200307097
 20
311.9021192857
 30
0.0
 11
582.8200307097
 21
324.0021192857
 31
0.0
  0
LINE
  5
212
330
183
100
AcDbEntity
  8
67962040_TRAFO_2
  6
Continuous
 62
     7
100
AcDbLine
 10
582.8200307104
 20
330.8365908329
 30
0.0
 11
582.8200307119
 21
334.0021193336
 31
0.0
  0
LINE
  5
213
330
183
100
AcDbEntity
  8
67962040_TRAFO_2
  6
Continuous
 62
     7
100
AcDbLine
 10
582.8200307097
 20
324.0021192857
 30
0.0
 11
582.8200307097
 21
335.5021192857
 31
0.0
  0
LINE
  5
214
330
183
100
AcDbEntity
  8
67962040_TRAFO_2
  6
Continuous
 62
     7
100
AcDbLine
 10
582.8200307097
 20
291.4021192857
 30
0.0
 11
582.8200307097
 21
303.5021192857
 31
0.0
  0
LINE
  5
215
330
183
100
AcDbEntity
  8
67962040_TRAFO_2
  6
Continuous
 62
     7
100
AcDbLine
 10
582.8200307097
 20
279.9021192857
 30
0.0
 11
582.8200307097
 21
291.4021192857
 31
0.0
  0
LINE
  5
216
330
183
100
AcDbEntity
  8
67962040_TRAFO_2
  6
Continuous
 62
     7
100
AcDbLine
 10
582.8200307092
 20
281.4021192369
 30
0.0
 11
582.8200307094
 21
282.7704043574
 31
0.0
  0
LINE
  5
217
330
183
100
AcDbEntity
  8
67962040_TRAFO_2
  6
Continuous
 62
     7
100
AcDbLine
 10
596.5200307127
 20
303.7021192859
 30
0.0
 11
595.5204889182
 21
303.7021192807
 31
0.0
  0
LINE
  5
218
330
183
100
AcDbEntity
  8
67962040_TRAFO_2
  6
Continuous
 62
     7
100
AcDbLine
 10
576.2037866859
 20
303.7021192855
 30
0.0
 11
576.098440458
 21
303.7021192857
 31
0.0
  0
LINE
  5
219
330
183
100
AcDbEntity
  8
67962040_TRAFO_2
  6
Continuous
 62
     7
100
AcDbLine
 10
579.5951403242
 20
303.7021192859
 30
0.0
 11
576.2037866859
 21
303.7021192855
 31
0.0
  0
LINE
  5
21A
330
183
100
AcDbEntity
  8
67962040_TRAFO_2
  6
Continuous
 62
     7
100
AcDbLine
 10
595.5204889182
 20
303.7021192857
 30
0.0
 11
581.3200307097
 21
303.7021192858
 31
0.0
  0
LINE
  5
21B
330
183
100
AcDbEntity
  8
67962040_TRAFO_2
  6
Continuous
 62
     7
100
AcDbLine
 10
595.5204889186
 20
303.7021192857
 30
0.0
 11
597.6200307112
 21
303.7021192857
 31
0.0
  0
ARC
  5
21C
330
183
100
AcDbEntity
  8
67962040_TRAFO_2
  6
Continuous
 62
     7
100
AcDbCircle
 10
583.0200307097
 20
311.9021192857
 30
0.0
 40
0.2000000000000001
100
AcDbArc
 50
180.0
 51
270.000000011
  0
ELLIPSE
  5
21D
330
183
100
AcDbEntity
  8
67962040_TRAFO_2
  6
Continuous
 62
     7
100
AcDbEllipse
 10
579.5951403267
 20
311.5021192857
 30
0.0
 11
0.0
 21
0.199999999868453
 31
0.0
210
0.0
220
0.0
230
1.0
 40
1.0
 41
0.0
 42
1.570796326794897
  0
ARC
  5
21E
330
183
100
AcDbEntity
  8
67962040_TRAFO_2
  6
Continuous
 62
     7
100
AcDbCircle
 10
582.6200307097
 20
335.5021192857
 30
0.0
 40
0.200000000000006
100
AcDbArc
 50
0.0
 51
89.9999999949
  0
ARC
  5
21F
330
183
100
AcDbEntity
  8
67962040_TRAFO_2
  6
Continuous
 62
     7
100
AcDbCircle
 10
583.0200307097
 20
303.5021192857
 30
0.0
 40
0.1999999999999997
100
AcDbArc
 50
90.0000000059
 51
180.0000000117
  0
ARC
  5
220
330
183
100
AcDbEntity
  8
67962040_TRAFO_2
  6
Continuous
 62
     7
100
AcDbCircle
 10
582.6200307097
 20
279.9021192857
 30
0.0
 40
0.2000000000000023
100
AcDbArc
 50
269.999999989
 51
359.9999999949
  0
ELLIPSE
  5
221
330
183
100
AcDbEntity
  8
67962040_TRAFO_2
  6
Continuous
 62
     7
100
AcDbEllipse
 10
579.595140324
 20
303.9021192858
 30
0.0
 11
0.0
 21
0.008799155487167809
 31
0.0
210
0.0
220
0.0
230
1.0
 40
1.0
 41
1.570796326794897
 42
3.141592653589793
  0
ELLIPSE
  5
222
330
183
100
AcDbEntity
  8
67962040_TRAFO_2
  6
Continuous
 62
     7
100
AcDbEllipse
 10
576.0984404583
 20
311.502119286
 30
0.0
 11
0.0
 21
0.1999999998633371
 31
0.0
210
0.0
220
0.0
230
1.0
 40
1.0
 41
0.0
 42
1.570796326794897
  0
LINE
  5
223
330
183
100
AcDbEntity
  8
67962040_TRAFO_2
  6
Continuous
 62
     7
100
AcDbLine
 10
579.5863411691
 20
303.9021192857
 30
0.0
 11
579.5863411704
 21
311.5021192857
 31
0.0
  0
LINE
  5
224
330
183
100
AcDbEntity
  8
67962040_TRAFO_2
  6
Continuous
 62
     7
100
AcDbLine
 10
581.5200307587
 20
335.7021192857
 30
0.0
 11
582.6200307097
 21
335.7021192857
 31
0.0
  0
LINE
  5
225
330
183
100
AcDbEntity
  8
67962040_TRAFO_2
  6
Continuous
 62
     7
100
AcDbLine
 10
582.6200307096
 20
279.7021192857
 30
0.0
 11
581.5200307586
 21
279.7021192857
 31
0.0
  0
LINE
  5
226
330
183
100
AcDbEntity
  8
67962040_TRAFO_2
  6
Continuous
 62
     7
100
AcDbLine
 10
575.8984404577
 20
311.502119286
 30
0.0
 11
575.8984404577
 21
303.9021192857
 31
0.0
  0
ARC
  5
227
330
183
100
AcDbEntity
  8
67962040_TRAFO_2
  6
Continuous
 62
     7
100
AcDbCircle
 10
581.5200307587
 20
335.5021192367
 30
0.0
 40
0.2000000490000008
100
AcDbArc
 50
90.0
 51
180.0000000059
  0
ARC
  5
228
330
183
100
AcDbEntity
  8
67962040_TRAFO_2
  6
Continuous
 62
     7
100
AcDbCircle
 10
581.5200307587
 20
279.9021193347
 30
0.0
 40
0.2000000490000053
100
AcDbArc
 50
180.0000000118
 51
269.999999989
  0
LINE
  5
229
330
183
100
AcDbEntity
  8
67962040_TRAFO_2
  6
Continuous
 62
     7
100
AcDbLine
 10
575.8992015186
 20
311.502119286
 30
0.0
 11
575.8992015179
 21
303.9021192857
 31
0.0
  0
SPLINE
  5
22A
330
183
100
AcDbEntity
  8
67962040_TRAFO_2
  6
Continuous
 62
     7
100
AcDbSpline
210
0.0
220
0.0
230
1.0
 70
     8
 71
     3
 72
    13
 73
     9
 74
     0
 42
0.000000050653246
 43
0.0000000001
 40
0.035646042084667
 40
0.035646042084667
 40
0.035646042084667
 40
0.035646042084667
 40
0.1013066324838349
 40
0.2045357920354708
 40
0.3133372049107642
 40
0.4310286699244461
 40
0.6982066727857745
 40
1.0
 40
1.0
 40
1.0
 40
1.0
 10
582.935278364831
 20
326.5063040890384
 30
0.0
 10
582.9353840468146
 20
326.5068362429847
 30
0.0
 10
582.9349710767123
 20
326.5083166619048
 30
0.0
 10
582.927783944205
 20
326.512416545563
 30
0.0
 10
582.9135462046025
 20
326.5204570307864
 30
0.0
 10
582.8868757826613
 20
326.5384698340787
 30
0.0
 10
582.8459281702269
 20
326.5793837501878
 30
0.0
 10
582.8319253920906
 20
326.6224061828783
 30
0.0
 10
582.8233696733362
 20
326.649451461014
 30
0.0
  0
SPLINE
  5
22B
330
183
100
AcDbEntity
  8
67962040_TRAFO_2
  6
Continuous
 62
     7
100
AcDbSpline
210
0.0
220
0.0
230
1.0
 70
     8
 71
     3
 72
    15
 73
    11
 74
     0
 42
0.0000000363832757
 43
0.0000000001
 40
0.0
 40
0.0
 40
0.0
 40
0.0
 40
0.1349004833074193
 40
0.2722577502354176
 40
0.4083325136269881
 40
0.5397491108994434
 40
0.6642877459371865
 40
0.7814056320406336
 40
0.8923505659881747
 40
0.9803099270662972
 40
0.9803099270662972
 40
0.9803099270662972
 40
0.9803099270662972
 10
582.8196090044491
 20
289.0147888956227
 30
0.0
 10
582.8202415915803
 20
289.0306188872855
 30
0.0
 10
582.8217454438342
 20
289.0576819705029
 30
0.0
 10
582.836028402111
 20
289.0997883035573
 30
0.0
 10
582.8579570258379
 20
289.1358115523662
 30
0.0
 10
582.8855170594688
 20
289.1645916535173
 30
0.0
 10
582.9149402032579
 20
289.1847409006623
 30
0.0
 10
582.9422413807865
 20
289.1967194396124
 30
0.0
 10
582.9641286511147
 20
289.2018430058099
 30
0.0
 10
582.9723911620108
 20
289.2022965931887
 30
0.0
 10
582.9761715214576
 20
289.2023163072647
 30
0.0
  0
ARC
  5
22C
330
183
100
AcDbEntity
  8
67962040_TRAFO_2
  6
Continuous
 62
     7
100
AcDbCircle
 10
597.6200307074
 20
311.5021192857
 30
0.0
 40
0.2000000000000005
100
AcDbArc
 50
0.0
 51
89.9999996645
  0
ARC
  5
22D
330
183
100
AcDbEntity
  8
67962040_TRAFO_2
  6
Continuous
 62
     7
100
AcDbCircle
 10
597.6200307144
 20
303.9021192857
 30
0.0
 40
0.2000000000000015
100
AcDbArc
 50
269.9999981984
 51
0.0
  0
LINE
  5
22E
330
183
100
AcDbEntity
  8
67962040_TRAFO_2
  6
Continuous
 62
     7
100
AcDbLine
 10
597.8200307097
 20
303.9021192857
 30
0.0
 11
597.8200307097
 21
311.5021192857
 31
0.0
  0
ARC
  5
22F
330
183
100
AcDbEntity
  8
67962040_TRAFO_2
  6
Continuous
 62
     7
100
AcDbCircle
 10
576.098440458
 20
303.9021192857
 30
0.0
 40
0.2000000001878494
100
AcDbArc
 50
180.0000000042
 51
270.0
  0
ENDBLK
  5
231
330
183
100
AcDbEntity
  8
0
100
AcDbBlockEnd
  0
BLOCK
  5
2EB
330
232
100
AcDbEntity
  8
0
100
AcDbBlockBegin
  2
SE2
 70
     0
 10
0.0
 20
0.0
 30
0.0
  3
SE2
  1

  0
ARC
  5
234
330
232
100
AcDbEntity
  8
$DDT_AUDIT_GENERATED_(7F)
  6
Continuous
 62
     7
100
AcDbCircle
 10
442.0148557851
 20
164.6277208837
 30
0.0
 40
4.999999999525151
100
AcDbArc
 50
44.2767653928
 51
135.7232346306
  0
LINE
  5
235
330
232
100
AcDbEntity
  8
$DDT_AUDIT_GENERATED_(7F)
  6
Continuous
 62
     7
100
AcDbLine
 10
467.3148557826
 20
147.2277208832
 30
0.0
 11
438.7148557826
 21
147.2277208832
 31
0.0
  0
LINE
  5
236
330
232
100
AcDbEntity
  8
$DDT_AUDIT_GENERATED_(7F)
  6
Continuous
 62
     7
100
AcDbLine
 10
479.0148557848
 20
176.6277208833
 30
0.0
 11
479.0148557848
 21
147.2277208832
 31
0.0
  0
LINE
  5
237
330
232
100
AcDbEntity
  8
$DDT_AUDIT_GENERATED_(7F)
  6
Continuous
 62
     7
100
AcDbLine
 10
479.0148557848
 20
147.2277208832
 30
0.0
 11
467.3148557826
 21
147.2277208832
 31
0.0
  0
LINE
  5
238
330
232
100
AcDbEntity
  8
$DDT_AUDIT_GENERATED_(7F)
  6
Continuous
 62
     7
100
AcDbLine
 10
438.7148557848
 20
176.8277208832
 30
0.0
 11
467.3148557848
 21
176.8277208832
 31
0.0
  0
LINE
  5
239
330
232
100
AcDbEntity
  8
$DDT_AUDIT_GENERATED_(7F)
  6
Continuous
 62
     7
100
AcDbLine
 10
427.0148557848
 20
147.2277208832
 30
0.0
 11
427.0148557848
 21
176.6277208833
 31
0.0
  0
LINE
  5
23A
330
232
100
AcDbEntity
  8
$DDT_AUDIT_GENERATED_(7F)
  6
Continuous
 62
     7
100
AcDbLine
 10
438.7148557826
 20
147.2277208832
 30
0.0
 11
427.0148557848
 21
147.2277208832
 31
0.0
  0
LINE
  5
23B
330
232
100
AcDbEntity
  8
$DDT_AUDIT_GENERATED_(7F)
  6
Continuous
 62
     7
100
AcDbLine
 10
481.0148557846
 20
147.2277208832
 30
0.0
 11
479.0148557849
 21
147.2277208832
 31
0.0
  0
LINE
  5
23C
330
232
100
AcDbEntity
  8
$DDT_AUDIT_GENERATED_(7F)
  6
Continuous
 62
     7
100
AcDbLine
 10
483.3762725273
 20
147.2277208832
 30
0.0
 11
481.0148557846
 21
147.2277208832
 31
0.0
  0
LINE
  5
23D
330
232
100
AcDbEntity
  8
$DDT_AUDIT_GENERATED_(7F)
  6
Continuous
 62
     7
100
AcDbLine
 10
484.5916267137
 20
147.2277208832
 30
0.0
 11
483.3762725273
 21
147.2277208832
 31
0.0
  0
LINE
  5
23E
330
232
100
AcDbEntity
  8
$DDT_AUDIT_GENERATED_(7F)
  6
Continuous
 62
     7
100
AcDbLine
 10
484.5916267132
 20
147.2277208832
 30
0.0
 11
486.0148557851
 21
147.2277208832
 31
0.0
  0
LINE
  5
23F
330
232
100
AcDbEntity
  8
$DDT_AUDIT_GENERATED_(7F)
  6
Continuous
 62
     7
100
AcDbLine
 10
421.4380848562
 20
147.2277208832
 30
0.0
 11
420.0148557845
 21
147.2277208832
 31
0.0
  0
LINE
  5
240
330
232
100
AcDbEntity
  8
$DDT_AUDIT_GENERATED_(7F)
  6
Continuous
 62
     7
100
AcDbLine
 10
422.653439042
 20
147.2277208832
 30
0.0
 11
421.4380848562
 21
147.2277208832
 31
0.0
  0
LINE
  5
241
330
232
100
AcDbEntity
  8
$DDT_AUDIT_GENERATED_(7F)
  6
Continuous
 62
     7
100
AcDbLine
 10
425.0148557839
 20
147.2277208832
 30
0.0
 11
422.653439042
 21
147.2277208832
 31
0.0
  0
LINE
  5
242
330
232
100
AcDbEntity
  8
$DDT_AUDIT_GENERATED_(7F)
  6
Continuous
 62
     7
100
AcDbLine
 10
427.0148557848
 20
147.2277208832
 30
0.0
 11
425.014855784
 21
147.2277208832
 31
0.0
  0
LINE
  5
243
330
232
100
AcDbEntity
  8
$DDT_AUDIT_GENERATED_(7F)
  6
Continuous
 62
     7
100
AcDbLine
 10
478.8148557849
 20
176.8277208832
 30
0.0
 11
467.3148557848
 21
176.8277208832
 31
0.0
  0
ARC
  5
244
330
232
100
AcDbEntity
  8
$DDT_AUDIT_GENERATED_(7F)
  6
Continuous
 62
     7
100
AcDbCircle
 10
478.8148557848
 20
176.6277208832
 30
0.0
 40
0.1999999999999988
100
AcDbArc
 50
0.0000000117
 51
89.999999989
  0
LINE
  5
245
330
232
100
AcDbEntity
  8
$DDT_AUDIT_GENERATED_(7F)
  6
Continuous
 62
     7
100
AcDbLine
 10
438.7148557848
 20
176.8277208832
 30
0.0
 11
427.2148557848
 21
176.8277208832
 31
0.0
  0
LINE
  5
246
330
232
100
AcDbEntity
  8
$DDT_AUDIT_GENERATED_(7F)
  6
Continuous
 62
     7
100
AcDbLine
 10
487.2580347844
 20
176.8277208997
 30
0.0
 11
478.8148557849
 21
176.8277208832
 31
0.0
  0
LINE
  5
247
330
232
100
AcDbEntity
  8
$DDT_AUDIT_GENERATED_(7F)
  6
Continuous
 62
     7
100
AcDbLine
 10
487.2580347826
 20
176.8277208863
 30
0.0
 11
488.8148557824
 21
176.8277208807
 31
0.0
  0
LINE
  5
248
330
232
100
AcDbEntity
  8
$DDT_AUDIT_GENERATED_(7F)
  6
Continuous
 62
     7
100
AcDbLine
 10
418.7716767859
 20
176.8277208832
 30
0.0
 11
417.2148557907
 21
176.8277208832
 31
0.0
  0
LINE
  5
249
330
232
100
AcDbEntity
  8
$DDT_AUDIT_GENERATED_(7F)
  6
Continuous
 62
     7
100
AcDbLine
 10
426.7148557848
 20
176.8277208832
 30
0.0
 11
418.7716767876
 21
176.8277208832
 31
0.0
  0
LINE
  5
24A
330
232
100
AcDbEntity
  8
$DDT_AUDIT_GENERATED_(7F)
  6
Continuous
 62
     7
100
AcDbLine
 10
427.214855788
 20
176.8277208832
 30
0.0
 11
426.7148557848
 21
176.8277208832
 31
0.0
  0
ARC
  5
24B
330
232
100
AcDbEntity
  8
$DDT_AUDIT_GENERATED_(7F)
  6
Continuous
 62
     7
100
AcDbCircle
 10
427.2148557848
 20
176.6277208832
 30
0.0
 40
0.1999999999999988
100
AcDbArc
 50
90.000000011
 51
179.9999999883
  0
LINE
  5
24C
330
232
100
AcDbEntity
  8
$DDT_AUDIT_GENERATED_(7F)
  6
Continuous
 62
     7
100
AcDbLine
 10
420.0148557848
 20
148.7277208832
 30
0.0
 11
420.0148557848
 21
147.2277208832
 31
0.0
  0
ARC
  5
24D
330
232
100
AcDbEntity
  8
$DDT_AUDIT_GENERATED_(7F)
  6
Continuous
 62
     7
100
AcDbCircle
 10
479.2148557848
 20
169.1757216062
 30
0.0
 40
0.1999999999999897
100
AcDbArc
 50
125.0000000239
 51
179.9999995382
  0
LINE
  5
24E
330
232
100
AcDbEntity
  8
$DDT_AUDIT_GENERATED_(7F)
  6
Continuous
 62
     7
100
AcDbLine
 10
487.3665023294
 20
175.1277208828
 30
0.0
 11
488.8148557839
 21
175.1277208832
 31
0.0
  0
ARC
  5
24F
330
232
100
AcDbEntity
  8
$DDT_AUDIT_GENERATED_(7F)
  6
Continuous
 62
     7
100
AcDbCircle
 10
479.2222140265
 20
148.7203626423
 30
0.0
 40
0.2074887565123077
100
AcDbArc
 50
92.0323306463
 51
177.9676754261
  0
ARC
  5
250
330
232
100
AcDbEntity
  8
$DDT_AUDIT_GENERATED_(7F)
  6
Continuous
 62
     7
100
AcDbCircle
 10
479.2148557848
 20
149.1277208832
 30
0.0
 40
0.2000000000000023
100
AcDbArc
 50
180.0000009471
 51
269.9999942714
  0
LINE
  5
251
330
232
100
AcDbEntity
  8
$DDT_AUDIT_GENERATED_(7F)
  6
Continuous
 62
     7
100
AcDbLine
 10
479.2148557849
 20
155.3036278722
 30
0.0
 11
479.0148557848
 21
155.3036278722
 31
0.0
  0
ARC
  5
252
330
232
100
AcDbEntity
  8
$DDT_AUDIT_GENERATED_(7F)
  6
Continuous
 62
     7
100
AcDbCircle
 10
479.2148557848
 20
155.9918138942
 30
0.0
 40
0.2000000000000023
100
AcDbArc
 50
180.0
 51
215.537677793
  0
SPLINE
  5
253
330
232
100
AcDbEntity
  8
$DDT_AUDIT_GENERATED_(7F)
  6
Continuous
 62
     7
100
AcDbSpline
210
0.0
220
0.0
230
1.0
 70
     8
 71
     3
 72
    10
 73
     6
 74
     0
 42
0.000000039410499
 43
0.0000000001
 40
0.0
 40
0.0
 40
0.0
 40
0.0
 40
0.5
 40
0.5
 40
1.0
 40
1.0
 40
1.0
 40
1.0
 10
487.2580347844063
 20
176.8277208997474
 30
0.0
 10
487.284754829432
 20
176.8277208851446
 30
0.0
 10
487.3115917661896
 20
176.8095749733823
 30
0.0
 10
487.3530156032718
 20
176.737921999427
 30
0.0
 10
487.366502332112
 20
176.6838709307862
 30
0.0
 10
487.3665023292856
 20
176.6277208832369
 30
0.0
  0
SPLINE
  5
254
330
232
100
AcDbEntity
  8
$DDT_AUDIT_GENERATED_(7F)
  6
Continuous
 62
     7
100
AcDbSpline
210
0.0
220
0.0
230
1.0
 70
    12
 71
     3
 72
     8
 73
     4
 74
     0
 42
0.0000000284517792
 43
0.0000000001
 40
0.0
 40
0.0
 40
0.0
 40
0.0
 40
1.0
 40
1.0
 40
1.0
 40
1.0
 10
417.0148557848161
 20
176.6277208832267
 30
0.0
 41
1.0
 10
417.0148557848161
 20
176.7448781712266
 30
0.0
 41
0.8047378541243649
 10
417.0976984968162
 20
176.8277208832266
 30
0.0
 41
0.8047378541243649
 10
417.2148557907351
 20
176.8277208832266
 30
0.0
 41
1.0
  0
SPLINE
  5
255
330
232
100
AcDbEntity
  8
$DDT_AUDIT_GENERATED_(7F)
  6
Continuous
 62
     7
100
AcDbSpline
210
0.0
220
0.0
230
1.0
 70
     8
 71
     3
 72
    13
 73
     9
 74
     0
 42
0.0000000399995286
 43
0.0000000001
 40
0.0
 40
0.0
 40
0.0
 40
0.0
 40
0.1231718326464932
 40
0.250501435849535
 40
0.4996147664751667
 40
0.7492671456025957
 40
0.8747278937340494
 40
1.0
 40
1.0
 40
1.0
 40
1.0
 10
418.6632092406
 20
176.6277208832472
 30
0.0
 10
418.663651455149
 20
176.6414985850849
 30
0.0
 10
418.6645508105289
 20
176.6695190669115
 30
0.0
 10
418.6741214886137
 20
176.722296632148
 30
0.0
 10
418.6956853930375
 20
176.7780432022743
 30
0.0
 10
418.7255782394053
 20
176.8117261166281
 30
0.0
 10
418.7515534200825
 20
176.8257488180425
 30
0.0
 10
418.7649723621926
 20
176.8270638579606
 30
0.0
 10
418.7716767859034
 20
176.8277208832266
 30
0.0
  0
LINE
  5
256
330
232
100
AcDbEntity
  8
$DDT_AUDIT_GENERATED_(7F)
  6
Continuous
 62
     7
100
AcDbLine
 10
426.7148557848
 20
169.7340521948
 30
0.0
 11
427.0148557848
 21
169.7340521948
 31
0.0
  0
ARC
  5
257
330
232
100
AcDbEntity
  8
$DDT_AUDIT_GENERATED_(7F)
  6
Continuous
 62
     7
100
AcDbCircle
 10
426.7148557848
 20
169.1236649012
 30
0.0
 40
0.3000000000000017
100
AcDbArc
 50
0.0000007336
 51
54.9999999893
  0
ARC
  5
258
330
232
100
AcDbEntity
  8
$DDT_AUDIT_GENERATED_(7F)
  6
Continuous
 62
     7
100
AcDbCircle
 10
426.8148557848
 20
155.9918138942
 30
0.0
 40
0.2000000000000096
100
AcDbArc
 50
324.4623222306
 51
0.0
  0
LINE
  5
259
330
232
100
AcDbEntity
  8
$DDT_AUDIT_GENERATED_(7F)
  6
Continuous
 62
     7
100
AcDbLine
 10
427.0148557848
 20
155.3036278722
 30
0.0
 11
426.8148557849
 21
155.3036278722
 31
0.0
  0
ARC
  5
25A
330
232
100
AcDbEntity
  8
$DDT_AUDIT_GENERATED_(7F)
  6
Continuous
 62
     7
100
AcDbCircle
 10
426.8148557848
 20
149.1277208832
 30
0.0
 40
0.2000000000000032
100
AcDbArc
 50
270.0000057227
 51
359.9999990451
  0
ARC
  5
25B
330
232
100
AcDbEntity
  8
$DDT_AUDIT_GENERATED_(7F)
  6
Continuous
 62
     7
100
AcDbCircle
 10
426.8075435189
 20
148.7204086181
 30
0.0
 40
0.2074411839775805
100
AcDbArc
 50
2.0200842835
 51
87.97990965
  0
LINE
  5
25C
330
232
100
AcDbEntity
  8
$DDT_AUDIT_GENERATED_(7F)
  6
Continuous
 62
     7
100
AcDbLine
 10
480.9148557839
 20
148.9277208833
 30
0.0
 11
479.2148557648
 21
148.9277208832
 31
0.0
  0
LINE
  5
25D
330
232
100
AcDbEntity
  8
$DDT_AUDIT_GENERATED_(7F)
  6
Continuous
 62
     7
100
AcDbLine
 10
480.9148557849
 20
148.9277208832
 30
0.0
 11
483.276272528
 21
148.9277208832
 31
0.0
  0
LINE
  5
25E
330
232
100
AcDbEntity
  8
$DDT_AUDIT_GENERATED_(7F)
  6
Continuous
 62
     7
100
AcDbLine
 10
484.4106031017
 20
148.9277208832
 30
0.0
 11
483.2762725274
 21
148.9277208832
 31
0.0
  0
LINE
  5
25F
330
232
100
AcDbEntity
  8
$DDT_AUDIT_GENERATED_(7F)
  6
Continuous
 62
     7
100
AcDbLine
 10
485.8148557819
 20
148.9277208831
 30
0.0
 11
484.4106031005
 21
148.9277208838
 31
0.0
  0
LINE
  5
260
330
232
100
AcDbEntity
  8
$DDT_AUDIT_GENERATED_(7F)
  6
Continuous
 62
     7
100
AcDbLine
 10
421.6191084679
 20
148.9277208832
 30
0.0
 11
420.2148557847
 21
148.9277208832
 31
0.0
  0
LINE
  5
261
330
232
100
AcDbEntity
  8
$DDT_AUDIT_GENERATED_(7F)
  6
Continuous
 62
     7
100
AcDbLine
 10
422.7534390423
 20
148.9277208834
 30
0.0
 11
421.6191084679
 21
148.9277208832
 31
0.0
  0
LINE
  5
262
330
232
100
AcDbEntity
  8
$DDT_AUDIT_GENERATED_(7F)
  6
Continuous
 62
     7
100
AcDbLine
 10
422.7534390421
 20
148.9277208832
 30
0.0
 11
425.114855785
 21
148.9277208832
 31
0.0
  0
LINE
  5
263
330
232
100
AcDbEntity
  8
$DDT_AUDIT_GENERATED_(7F)
  6
Continuous
 62
     7
100
AcDbLine
 10
426.8148558048
 20
148.9277208832
 30
0.0
 11
425.1148557859
 21
148.9277208833
 31
0.0
  0
ARC
  5
264
330
232
100
AcDbEntity
  8
$DDT_AUDIT_GENERATED_(7F)
  6
Continuous
 62
     7
100
AcDbCircle
 10
487.4295620868
 20
174.9277208832
 30
0.0
 40
0.1999999999999988
100
AcDbArc
 50
90.0
 51
125.0000000239
  0
SPLINE
  5
265
330
232
100
AcDbEntity
  8
$DDT_AUDIT_GENERATED_(7F)
  6
Continuous
 62
     7
100
AcDbSpline
210
0.0
220
0.0
230
1.0
 70
    12
 71
     3
 72
     8
 73
     4
 74
     0
 42
0.0000000284517796
 43
0.0000000001
 40
0.0
 40
0.0
 40
0.0
 40
0.0
 40
1.0
 40
1.0
 40
1.0
 40
1.0
 10
489.0148557848161
 20
175.3277208834085
 30
0.0
 41
1.0
 10
489.0148557848161
 20
175.2105635952267
 30
0.0
 41
0.804737854124354
 10
488.9320130728161
 20
175.1277208832267
 30
0.0
 41
0.804737854124354
 10
488.8148557838687
 20
175.1277208832267
 30
0.0
 41
1.0
  0
ARC
  5
266
330
232
100
AcDbEntity
  8
$DDT_AUDIT_GENERATED_(7F)
  6
Continuous
 62
     7
100
AcDbCircle
 10
487.2863994111
 20
175.3009482657
 30
0.0
 40
0.1881129051251339
100
AcDbArc
 50
308.0598816235
 51
8.1822365103
  0
LINE
  5
267
330
232
100
AcDbEntity
  8
$DDT_AUDIT_GENERATED_(7F)
  6
Continuous
 62
     7
100
AcDbLine
 10
487.372750073
 20
175.1320956003
 30
0.0
 11
479.0148557845
 21
169.2798350153
 31
0.0
  0
SPLINE
  5
268
330
232
100
AcDbEntity
  8
$DDT_AUDIT_GENERATED_(7F)
  6
Continuous
 62
     7
100
AcDbSpline
210
0.0
220
0.0
230
1.0
 70
     8
 71
     3
 72
    12
 73
     8
 74
     0
 42
0.0000000691643894
 43
0.0000000001
 40
0.0
 40
0.0
 40
0.0
 40
0.0
 40
0.1536200654038985
 40
0.3201871066908472
 40
0.5002275478025799
 40
0.7242887411129786
 40
1.0
 40
1.0
 40
1.0
 40
1.0
 10
487.382612512812
 20
175.2659729463281
 30
0.0
 10
487.3862873151364
 20
175.2563148437535
 30
0.0
 10
487.3929088424774
 20
175.236185947917
 30
0.0
 10
487.397666757632
 20
175.2076003821553
 30
0.0
 10
487.3979487893401
 20
175.1789640205824
 30
0.0
 10
487.3915485407144
 20
175.1506459035736
 30
0.0
 10
487.3794716604175
 20
175.1386365735231
 30
0.0
 10
487.372750072983
 20
175.1320956004136
 30
0.0
  0
ARC
  5
269
330
232
100
AcDbEntity
  8
$DDT_AUDIT_GENERATED_(7F)
  6
Continuous
 62
     7
100
AcDbCircle
 10
487.673835191
 20
175.3644511931
 30
0.0
 40
0.3074225323389796
100
AcDbArc
 50
178.6161065355
 51
198.6831952831
  0
LINE
  5
26A
330
232
100
AcDbEntity
  8
$DDT_AUDIT_GENERATED_(7F)
  6
Continuous
 62
     7
100
AcDbLine
 10
489.0148557848
 20
175.3277208834
 30
0.0
 11
489.0148557848
 21
176.6277208832
 31
0.0
  0
LINE
  5
26B
330
232
100
AcDbEntity
  8
$DDT_AUDIT_GENERATED_(7F)
  6
Continuous
 62
     7
100
AcDbLine
 10
487.3665023282
 20
175.3718758005
 30
0.0
 11
487.3665023293
 21
176.6277208832
 31
0.0
  0
LINE
  5
26C
330
232
100
AcDbEntity
  8
$DDT_AUDIT_GENERATED_(7F)
  6
Continuous
 62
     7
100
AcDbLine
 10
487.4728900075
 20
175.3277193736
 30
0.0
 11
487.3831104244
 21
175.2659723291
 31
0.0
  0
LINE
  5
26D
330
232
100
AcDbEntity
  8
$DDT_AUDIT_GENERATED_(7F)
  6
Continuous
 62
     7
100
AcDbLine
 10
418.663209238
 20
176.6277208832
 30
0.0
 11
418.6632092394
 21
175.3718758013
 31
0.0
  0
LINE
  5
26E
330
232
100
AcDbEntity
  8
$DDT_AUDIT_GENERATED_(7F)
  6
Continuous
 62
     7
100
AcDbLine
 10
418.6468052155
 20
175.265973017
 30
0.0
 11
418.5566220809
 21
175.3277165095
 31
0.0
  0
LINE
  5
26F
330
232
100
AcDbEntity
  8
$DDT_AUDIT_GENERATED_(7F)
  6
Continuous
 62
     7
100
AcDbLine
 10
418.5686196059
 20
175.1277208832
 30
0.0
 11
417.2148557857
 21
175.1277208832
 31
0.0
  0
LINE
  5
270
330
232
100
AcDbEntity
  8
$DDT_AUDIT_GENERATED_(7F)
  6
Continuous
 62
     7
100
AcDbLine
 10
422.0746789012
 20
149.0114732462
 30
0.0
 11
426.9776024777
 21
155.8755662537
 31
0.0
  0
LINE
  5
271
330
232
100
AcDbEntity
  8
$DDT_AUDIT_GENERATED_(7F)
  6
Continuous
 62
     7
100
AcDbLine
 10
479.0521090919
 20
155.8755662537
 30
0.0
 11
483.9550326684
 21
149.0114732462
 31
0.0
  0
LINE
  5
272
330
232
100
AcDbEntity
  8
$DDT_AUDIT_GENERATED_(7F)
  6
Continuous
 62
     7
100
AcDbLine
 10
487.3728091645
 20
175.1320113433
 30
0.0
 11
487.4024834891
 21
175.1526699167
 31
0.0
  0
LINE
  5
273
330
232
100
AcDbEntity
  8
$DDT_AUDIT_GENERATED_(7F)
  6
Continuous
 62
     7
100
AcDbLine
 10
483.6262179198
 20
148.9277208832
 30
0.0
 11
483.6262179198
 21
149.1277208828
 31
0.0
  0
ARC
  5
274
330
232
100
AcDbEntity
  8
$DDT_AUDIT_GENERATED_(7F)
  6
Continuous
 62
     7
100
AcDbCircle
 10
484.1177793638
 20
149.1277208832
 30
0.0
 40
0.1999999999999931
100
AcDbArc
 50
215.537677793
 51
269.9999997484
  0
LINE
  5
275
330
232
100
AcDbEntity
  8
$DDT_AUDIT_GENERATED_(7F)
  6
Continuous
 62
     7
100
AcDbLine
 10
479.214855785
 20
155.3036278717
 30
0.0
 11
479.0521090909
 21
155.8755662548
 31
0.0
  0
SPLINE
  5
276
330
232
100
AcDbEntity
  8
$DDT_AUDIT_GENERATED_(7F)
  6
Continuous
 62
     7
100
AcDbSpline
210
0.0
220
0.0
230
1.0
 70
    12
 71
     3
 72
     8
 73
     4
 74
     0
 42
0.0000000284517796
 43
0.0000000001
 40
0.0
 40
0.0
 40
0.0
 40
0.0
 40
1.0
 40
1.0
 40
1.0
 40
1.0
 10
417.2148557857345
 20
175.1277208832267
 30
0.0
 41
1.0
 10
417.0976984968161
 20
175.1277208832267
 30
0.0
 41
0.8047378541243569
 10
417.0148557848161
 20
175.2105635952267
 30
0.0
 41
0.8047378541243569
 10
417.0148557848161
 20
175.3277208833479
 30
0.0
 41
1.0
  0
SPLINE
  5
277
330
232
100
AcDbEntity
  8
$DDT_AUDIT_GENERATED_(7F)
  6
Continuous
 62
     7
100
AcDbSpline
210
0.0
220
0.0
230
1.0
 70
     8
 71
     3
 72
    12
 73
     8
 74
     0
 42
0.0000000691820045
 43
0.0000000001
 40
0.0
 40
0.0
 40
0.0
 40
0.0
 40
0.1028132808231949
 40
0.2504388662085786
 40
0.5005599481204557
 40
0.7649763143187404
 40
1.0
 40
1.0
 40
1.0
 40
1.0
 10
418.6569614991027
 20
175.1320955989495
 30
0.0
 10
418.6541883719024
 20
175.134188675562
 30
0.0
 10
418.6475917295391
 20
175.1395118268449
 30
0.0
 10
418.6378292822644
 20
175.1543629535659
 30
0.0
 10
418.6308866649209
 20
175.1809490568931
 30
0.0
 10
418.6324292100628
 20
175.220114352057
 30
0.0
 10
418.6422049859476
 20
175.2512985383188
 30
0.0
 10
418.647099058326
 20
175.2659729456262
 30
0.0
  0
ARC
  5
278
330
232
100
AcDbEntity
  8
$DDT_AUDIT_GENERATED_(7F)
  6
Continuous
 62
     7
100
AcDbCircle
 10
418.7995298816
 20
175.3278541896
 30
0.0
 40
0.2424157549028401
100
AcDbArc
 50
180.0315125887
 51
232.2173304148
  0
LINE
  5
279
330
232
100
AcDbEntity
  8
$DDT_AUDIT_GENERATED_(7F)
  6
Continuous
 62
     7
100
AcDbLine
 10
426.8869287132
 20
169.369410516
 30
0.0
 11
418.6569614991
 21
175.1320955989
 31
0.0
  0
ARC
  5
27A
330
232
100
AcDbEntity
  8
$DDT_AUDIT_GENERATED_(7F)
  6
Continuous
 62
     7
100
AcDbCircle
 10
418.3527357485
 20
175.3649289419
 30
0.0
 40
0.3105511993102903
100
AcDbArc
 50
341.4189203029
 51
1.281781962
  0
ARC
  5
27B
330
232
100
AcDbEntity
  8
$DDT_AUDIT_GENERATED_(7F)
  6
Continuous
 62
     7
100
AcDbCircle
 10
418.5686196038
 20
174.8277208832
 30
0.0
 40
0.2999999999999881
100
AcDbArc
 50
55.0000001832
 51
89.9999996039
  0
ARC
  5
27C
330
232
100
AcDbEntity
  8
$DDT_AUDIT_GENERATED_(7F)
  6
Continuous
 62
     7
100
AcDbCircle
 10
421.9119322058
 20
149.1277208832
 30
0.0
 40
0.2000000000000023
100
AcDbArc
 50
270.0000002516
 51
324.462322207
  0
LINE
  5
27D
330
232
100
AcDbEntity
  8
$DDT_AUDIT_GENERATED_(7F)
  6
Continuous
 62
     7
100
AcDbLine
 10
422.4034936498
 20
149.1277208829
 30
0.0
 11
422.4034936498
 21
148.9277208832
 31
0.0
  0
ARC
  5
27E
330
232
100
AcDbEntity
  8
$DDT_AUDIT_GENERATED_(7F)
  6
Continuous
 62
     7
100
AcDbCircle
 10
442.2967594517
 20
92.3350355224
 30
0.0
 40
60.17600131876498
100
AcDbArc
 50
109.3042686969
 51
109.6363351505
  0
LINE
  5
27F
330
232
100
AcDbEntity
  8
$DDT_AUDIT_GENERATED_(7F)
  6
Continuous
 62
     7
100
AcDbLine
 10
426.9776024787
 20
155.8755662549
 30
0.0
 11
426.8148557847
 21
155.3036278719
 31
0.0
  0
LINE
  5
280
330
232
100
AcDbEntity
  8
$DDT_AUDIT_GENERATED_(7F)
  6
Continuous
 62
     7
100
AcDbLine
 10
418.6509557442
 20
175.1361869073
 30
0.0
 11
418.6568965076
 21
175.1320033492
 31
0.0
  0
LINE
  5
281
330
232
100
AcDbEntity
  8
$DDT_AUDIT_GENERATED_(7F)
  6
Continuous
 62
     7
100
AcDbLine
 10
486.0148557848
 20
147.2277208832
 30
0.0
 11
486.0148557848
 21
148.7277208825
 31
0.0
  0
ARC
  5
282
330
232
100
AcDbEntity
  8
$DDT_AUDIT_GENERATED_(7F)
  6
Continuous
 62
     7
100
AcDbCircle
 10
479.2990694167
 20
156.0184040723
 30
0.0
 40
0.2883112321003761
100
AcDbArc
 50
197.6939193807
 51
200.8835366564
  0
ARC
  5
283
330
232
100
AcDbEntity
  8
$DDT_AUDIT_GENERATED_(7F)
  6
Continuous
 62
     7
100
AcDbCircle
 10
488.8148557848
 20
176.6277209141
 30
0.0
 40
0.1999999998988807
100
AcDbArc
 50
0.0
 51
90.0000000184
  0
ARC
  5
284
330
232
100
AcDbEntity
  8
$DDT_AUDIT_GENERATED_(7F)
  6
Continuous
 62
     7
100
AcDbCircle
 10
426.7306421529
 20
156.0184040724
 30
0.0
 40
0.2883112321286188
100
AcDbArc
 50
338.5316844048
 51
342.3060806126
  0
ARC
  5
285
330
232
100
AcDbEntity
  8
$DDT_AUDIT_GENERATED_(7F)
  6
Continuous
 62
     7
100
AcDbCircle
 10
485.8148557855
 20
148.727720892
 30
0.0
 40
0.199999999497297
100
AcDbArc
 50
0.0
 51
90.0000004895
  0
SPLINE
  5
286
330
232
100
AcDbEntity
  8
$DDT_AUDIT_GENERATED_(7F)
  6
Continuous
 62
     7
100
AcDbSpline
210
0.0
220
0.0
230
1.0
 70
     8
 71
     3
 72
    13
 73
     9
 74
     0
 42
0.0000000316191566
 43
0.0000000001
 40
0.0
 40
0.0
 40
0.0
 40
0.0
 40
0.2394568447570995
 40
0.368360660534134
 40
0.500000000106924
 40
0.6316393396513639
 40
0.7605431553582178
 40
1.0
 40
1.0
 40
1.0
 40
1.0
 10
420.2148557849773
 20
148.9277208832267
 30
0.0
 10
420.1874974418827
 20
148.9251349799138
 30
0.0
 10
420.1515285734708
 20
148.9209145546842
 30
0.0
 10
420.1043223501048
 20
148.8960116965636
 30
0.0
 10
420.0724192644648
 20
148.8701574035874
 30
0.0
 10
420.046564971424
 20
148.8382543180089
 30
0.0
 10
420.0216621132268
 20
148.7910480947057
 30
0.0
 10
420.0174416879823
 20
148.7550792263071
 30
0.0
 10
420.0148557846602
 20
148.7277208832267
 30
0.0
  0
LINE
  5
287
330
232
100
AcDbEntity
  8
$DDT_AUDIT_GENERATED_(7F)
  6
Continuous
 62
     7
100
AcDbLine
 10
417.0148557848
 20
176.6277208832
 30
0.0
 11
417.0148557848
 21
175.3277208836
 31
0.0
  0
ARC
  5
288
330
232
100
AcDbEntity
  8
$DDT_AUDIT_GENERATED_(7F)
  6
Continuous
 62
     7
100
AcDbCircle
 10
421.8936074065
 20
149.1624247733
 30
0.0
 40
0.2392430344819529
100
AcDbArc
 50
297.3316274058
 51
302.2409370768
  0
ARC
  5
289
330
232
100
AcDbEntity
  8
$DDT_AUDIT_GENERATED_(D0)
  6
Continuous
 62
     7
100
AcDbCircle
 10
442.0148557848
 20
165.8277208832
 30
0.0
 40
4.249999999999999
100
AcDbArc
 50
0.0000000198
 51
180.0
  0
ARC
  5
28A
330
232
100
AcDbEntity
  8
$DDT_AUDIT_GENERATED_(D0)
  6
Continuous
 62
     7
100
AcDbCircle
 10
442.0148557848
 20
165.8277208832
 30
0.0
 40
4.249999999999999
100
AcDbArc
 50
180.0
 51
0.0
  0
ARC
  5
28B
330
232
100
AcDbEntity
  8
$DDT_AUDIT_GENERATED_(D0)
  6
Continuous
 62
     7
100
AcDbCircle
 10
442.0148557848
 20
165.8277208832
 30
0.0
 40
10.75
100
AcDbArc
 50
179.9999999765
 51
360.0
  0
ARC
  5
28C
330
232
100
AcDbEntity
  8
$DDT_AUDIT_GENERATED_(D0)
  6
Continuous
 62
     7
100
AcDbCircle
 10
442.0148557848
 20
165.8277208832
 30
0.0
 40
10.75
100
AcDbArc
 50
0.0000000051
 51
179.9999999765
  0
LINE
  5
28D
330
232
100
AcDbEntity
  8
67962040_TRAFO_2
  6
Continuous
 62
     7
100
AcDbLine
 10
474.8148557799
 20
113.4777208832
 30
0.0
 11
432.31485578
 21
113.4777208832
 31
0.0
  0
LINE
  5
28E
330
232
100
AcDbEntity
  8
67962040_TRAFO_2
  6
Continuous
 62
     7
100
AcDbLine
 10
469.8648557848
 20
108.8277208832
 30
0.0
 11
469.8648557848
 21
113.4777208832
 31
0.0
  0
LINE
  5
28F
330
232
100
AcDbEntity
  8
67962040_TRAFO_2
  6
Continuous
 62
     7
100
AcDbLine
 10
437.2648557848
 20
113.4777208832
 30
0.0
 11
437.2648557848
 21
108.8277208832
 31
0.0
  0
ARC
  5
290
330
232
100
AcDbEntity
  8
67962040_TRAFO_2
  6
Continuous
 62
     7
100
AcDbCircle
 10
432.3148557848
 20
114.4777208832
 30
0.0
 40
0.9999999999999974
100
AcDbArc
 50
180.0
 51
269.9999997253
  0
ARC
  5
291
330
232
100
AcDbEntity
  8
67962040_TRAFO_2
  6
Continuous
 62
     7
100
AcDbCircle
 10
474.8148557848
 20
114.4777208832
 30
0.0
 40
1.000000000000008
100
AcDbArc
 50
269.9999997194
 51
0.0
  0
ARC
  5
292
330
232
100
AcDbEntity
  8
67962040_TRAFO_2
  6
Continuous
 62
     7
100
AcDbCircle
 10
468.8648557848
 20
108.8277208832
 30
0.0
 40
1.000000000000001
100
AcDbArc
 50
269.9999997194
 51
0.0
  0
LINE
  5
293
330
232
100
AcDbEntity
  8
67962040_TRAFO_2
  6
Continuous
 62
     7
100
AcDbLine
 10
468.8648557799
 20
107.8277208832
 30
0.0
 11
438.26485578
 21
107.8277208832
 31
0.0
  0
ARC
  5
294
330
232
100
AcDbEntity
  8
67962040_TRAFO_2
  6
Continuous
 62
     7
100
AcDbCircle
 10
438.2648557848
 20
108.8277208832
 30
0.0
 40
1.000000000000001
100
AcDbArc
 50
180.0
 51
269.9999997253
  0
LINE
  5
295
330
232
100
AcDbEntity
  8
67962040_TRAFO_2
  6
Continuous
 62
     7
100
AcDbLine
 10
431.3148557848
 20
145.7277208832
 30
0.0
 11
431.3148557848
 21
114.4777208832
 31
0.0
  0
LINE
  5
296
330
232
100
AcDbEntity
  8
67962040_TRAFO_2
  6
Continuous
 62
     7
100
AcDbLine
 10
475.8148557848
 20
114.4777208832
 30
0.0
 11
475.8148557848
 21
145.7277208832
 31
0.0
  0
ELLIPSE
  5
297
330
232
100
AcDbEntity
  8
67962040_TRAFO_2
  6
Continuous
 62
     7
100
AcDbEllipse
 10
413.4687285711
 20
140.2277208703
 30
0.0
 11
-8.616878044431786E-9
 21
-1.900000002333532
 31
0.0
210
0.0
220
0.0
230
1.0
 40
0.6048276458
 41
3.141592657884993
 42
4.712388976320779
  0
ELLIPSE
  5
298
330
232
100
AcDbEntity
  8
67962040_TRAFO_2
  6
Continuous
 62
     7
100
AcDbEllipse
 10
413.4687285675
 20
140.2277208962
 30
0.0
 11
0.0
 21
1.149172531376508
 31
0.0
210
0.0
220
0.0
230
1.0
 40
1.0
 41
1.570796326794897
 42
3.141592653589793
  0
ELLIPSE
  5
299
330
232
100
AcDbEntity
  8
67962040_TRAFO_2
  6
Continuous
 62
     7
100
AcDbEllipse
 10
408.6905901648
 20
140.2277208832
 30
0.0
 11
0.0
 21
-2.660254038000001
 31
0.0
210
0.0
220
0.0
230
1.0
 40
0.6048276466
 41
3.141592653589793
 42
4.712388979974484
  0
ELLIPSE
  5
29A
330
232
100
AcDbEntity
  8
67962040_TRAFO_2
  6
Continuous
 62
     7
100
AcDbEllipse
 10
408.6905901648
 20
140.2277208832
 30
0.0
 11
0.0
 21
1.608995189102586
 31
0.0
210
0.0
220
0.0
230
1.0
 40
1.0
 41
1.570796326794897
 42
3.141592653589793
  0
ELLIPSE
  5
29B
330
232
100
AcDbEntity
  8
67962040_TRAFO_2
  6
Continuous
 62
     7
100
AcDbEllipse
 10
404.7088081581
 20
140.2277208832
 30
0.0
 11
0.0
 21
-4.000000000000003
 31
0.0
210
0.0
220
0.0
230
1.0
 40
0.6048276466
 41
2.936655411434394
 42
4.712388979974479
  0
ELLIPSE
  5
29C
330
232
100
AcDbEntity
  8
67962040_TRAFO_2
  6
Continuous
 62
     7
100
AcDbEllipse
 10
404.7088081581
 20
140.2277208832
 30
0.0
 11
0.0
 21
2.419310586311155
 31
0.0
210
0.0
220
0.0
230
1.0
 40
1.0
 41
1.570796326794897
 42
3.266653220615896
  0
ELLIPSE
  5
29D
330
232
100
AcDbEntity
  8
67962040_TRAFO_2
  6
Continuous
 62
     7
100
AcDbEllipse
 10
391.8078344566
 20
140.2277208832
 30
0.0
 11
0.0
 21
-3.999999999999997
 31
0.0
210
0.0
220
0.0
230
1.0
 40
0.6048276466
 41
3.141592653589793
 42
4.712388980039245
  0
ELLIPSE
  5
29E
330
232
100
AcDbEntity
  8
67962040_TRAFO_2
  6
Continuous
 62
     7
100
AcDbEllipse
 10
391.8078344566
 20
140.2277208832
 30
0.0
 11
0.0
 21
2.419310586311212
 31
0.0
210
0.0
220
0.0
230
1.0
 40
1.0
 41
1.570796326794897
 42
3.141592653589793
  0
LINE
  5
29F
330
232
100
AcDbEntity
  8
67962040_TRAFO_2
  6
Continuous
 62
     7
100
AcDbLine
 10
431.3148557848
 20
142.1277208832
 30
0.0
 11
429.3237446732
 21
142.1277208832
 31
0.0
  0
LINE
  5
2A0
330
232
100
AcDbEntity
  8
67962040_TRAFO_2
  6
Continuous
 62
     7
100
AcDbLine
 10
427.0148557848
 20
142.1277208832
 30
0.0
 11
424.2323868421
 21
142.1277208832
 31
0.0
  0
LINE
  5
2A1
330
232
100
AcDbEntity
  8
67962040_TRAFO_2
  6
Continuous
 62
     7
100
AcDbLine
 10
422.7266570862
 20
142.1277208832
 30
0.0
 11
413.4687285748
 21
142.1277208832
 31
0.0
  0
LINE
  5
2A2
330
232
100
AcDbEntity
  8
67962040_TRAFO_2
  6
Continuous
 62
     7
100
AcDbLine
 10
413.4687285748
 20
138.3277208832
 30
0.0
 11
423.0591140083
 21
138.3277208832
 31
0.0
  0
LINE
  5
2A3
330
232
100
AcDbEntity
  8
67962040_TRAFO_2
  6
Continuous
 62
     7
100
AcDbLine
 10
424.5648437634
 20
138.3277208832
 30
0.0
 11
427.0148557848
 21
138.3277208832
 31
0.0
  0
LINE
  5
2A4
330
232
100
AcDbEntity
  8
67962040_TRAFO_2
  6
Continuous
 62
     7
100
AcDbLine
 10
428.5148557848
 20
138.3277208832
 30
0.0
 11
431.3148557848
 21
138.3277208832
 31
0.0
  0
SPLINE
  5
2A5
330
232
100
AcDbEntity
  8
67962040_TRAFO_2
  6
Continuous
 62
     7
100
AcDbSpline
210
0.0
220
0.0
230
1.0
 70
     8
 71
     3
 72
    13
 73
     9
 74
     0
 42
0.0000000028088923
 43
0.0000000001
 40
0.5301389681132989
 40
0.5301389681132989
 40
0.5301389681132989
 40
0.5301389681132989
 40
0.6130498591645412
 40
0.6956509032418863
 40
0.7754331083405988
 40
0.8530850869337784
 40
0.937500892938467
 40
1.0
 40
1.0
 40
1.0
 40
1.0
 10
414.1198742271345
 20
142.128170045899
 30
0.0
 10
414.0597190606878
 20
142.2076538898712
 30
0.0
 10
413.9302593614526
 20
142.3574318445641
 30
0.0
 10
413.7109526207488
 20
142.548409482561
 30
0.0
 10
413.4707337629699
 20
142.7005444779814
 30
0.0
 10
413.2095962959397
 20
142.8122868861997
 30
0.0
 10
412.9448242795807
 20
142.8784534936796
 30
0.0
 10
412.7830455751503
 20
142.8822145107547
 30
0.0
 10
412.7018686994488
 20
142.883290440175
 30
0.0
  0
SPLINE
  5
2A6
330
232
100
AcDbEntity
  8
67962040_TRAFO_2
  6
Continuous
 62
     7
100
AcDbSpline
210
0.0
220
0.0
230
1.0
 70
     8
 71
     3
 72
    14
 73
    10
 74
     0
 42
0.0000000027986583
 43
0.0000000001
 40
0.0
 40
0.0
 40
0.0
 40
0.0
 40
0.0191082946198405
 40
0.0985346308089537
 40
0.176942910956358
 40
0.2554564809911515
 40
0.3352682460146501
 40
0.4174529931754693
 40
0.4707698131415702
 40
0.4707698131415702
 40
0.4707698131415702
 40
0.4707698131415702
 10
412.6893260687422
 20
137.5721513262639
 30
0.0
 10
412.7141629722619
 20
137.5704388588993
 30
0.0
 10
412.8238965848789
 20
137.5632163322812
 30
0.0
 10
413.0393920924813
 20
137.5983108573654
 30
0.0
 10
413.3054682412179
 20
137.6778054570314
 30
0.0
 10
413.5574647098838
 20
137.8039998553932
 30
0.0
 10
413.7899049910494
 20
137.9694403255849
 30
0.0
 10
413.9749746514715
 20
138.1477020067158
 30
0.0
 10
414.078781135438
 20
138.2731437913437
 30
0.0
 10
414.1176723064099
 20
138.3243638437965
 30
0.0
  0
LINE
  5
2A7
330
232
100
AcDbEntity
  8
67962040_TRAFO_2
  6
Continuous
 62
     7
100
AcDbLine
 10
412.6955973827
 20
142.8879749212
 30
0.0
 11
408.6905901648
 21
142.8879749212
 31
0.0
  0
LINE
  5
2A8
330
232
100
AcDbEntity
  8
67962040_TRAFO_2
  6
Continuous
 62
     7
100
AcDbLine
 10
408.6905901648
 20
137.5674668452
 30
0.0
 11
412.6955973827
 21
137.5674668452
 31
0.0
  0
LINE
  5
2A9
330
232
100
AcDbEntity
  8
67962040_TRAFO_2
  6
Continuous
 62
     7
100
AcDbLine
 10
408.8560411573
 20
142.8879749212
 30
0.0
 11
405.2011516906
 21
144.1440159153
 31
0.0
  0
LINE
  5
2AA
330
232
100
AcDbEntity
  8
67962040_TRAFO_2
  6
Continuous
 62
     7
100
AcDbLine
 10
405.2011516906
 20
136.3114258511
 30
0.0
 11
408.8560411573
 21
137.5674668452
 31
0.0
  0
LINE
  5
2AB
330
232
100
AcDbEntity
  8
67962040_TRAFO_2
  6
Continuous
 62
     7
100
AcDbLine
 10
404.7088081581
 20
144.2277208832
 30
0.0
 11
391.8078344566
 21
144.2277208832
 31
0.0
  0
LINE
  5
2AC
330
232
100
AcDbEntity
  8
67962040_TRAFO_2
  6
Continuous
 62
     7
100
AcDbLine
 10
391.8078344566
 20
136.2277208832
 30
0.0
 11
404.7088081581
 21
136.2277208832
 31
0.0
  0
LINE
  5
2AD
330
232
100
AcDbEntity
  8
67962040_TRAFO_2
  6
Continuous
 62
     7
100
AcDbLine
 10
475.8707039408
 20
145.2277208832
 30
0.0
 11
475.8148557848
 21
145.2277208832
 31
0.0
  0
LINE
  5
2AE
330
232
100
AcDbEntity
  8
67962040_TRAFO_2
  6
Continuous
 62
     7
100
AcDbLine
 10
431.314855781
 20
145.2277208832
 30
0.0
 11
431.2298709834
 21
145.2277208832
 31
0.0
  0
LINE
  5
2AF
330
232
100
AcDbEntity
  8
67962040_TRAFO_2
  6
Continuous
 62
     7
100
AcDbLine
 10
475.8148557848
 20
145.2638843743
 30
0.0
 11
475.8707039408
 21
145.2739826958
 31
0.0
  0
ARC
  5
2B0
330
232
100
AcDbEntity
  8
67962040_TRAFO_2
  6
Continuous
 62
     7
100
AcDbCircle
 10
475.8707039408
 20
145.0277208832
 30
0.0
 40
0.2000000003055573
100
AcDbArc
 50
18.4349488682
 51
89.9999999984
  0
ARC
  5
2B1
330
232
100
AcDbEntity
  8
67962040_TRAFO_2
  6
Continuous
 62
     7
100
AcDbCircle
 10
431.229914559
 20
145.0280020644
 30
0.0
 40
0.1997188235857567
100
AcDbArc
 50
116.8578835494
 51
133.8997735429
  0
ARC
  5
2B2
330
232
100
AcDbEntity
  8
67962040_TRAFO_2
  6
Continuous
 62
     7
100
AcDbCircle
 10
431.229914571
 20
145.0280020488
 30
0.0
 40
0.1997188391855338
100
AcDbArc
 50
102.6427350314
 51
150.0577308221
  0
SPLINE
  5
2B3
330
232
100
AcDbEntity
  8
67962040_TRAFO_2
  6
Continuous
 62
     7
100
AcDbSpline
210
0.0
220
0.0
230
1.0
 70
     8
 71
     3
 72
     8
 73
     4
 74
     0
 42
0.000000045738551
 43
0.0000000001
 40
0.0
 40
0.0
 40
0.0
 40
0.0
 40
1.0
 40
1.0
 40
1.0
 40
1.0
 10
431.230283104035
 20
145.2277208832267
 30
0.0
 10
431.1604913011802
 20
145.2277208832141
 30
0.0
 10
431.0920253585109
 20
145.1882066835986
 30
0.0
 10
431.0571100847713
 20
145.1277764025928
 30
0.0
  0
ARC
  5
2B4
330
232
100
AcDbEntity
  8
67962040_TRAFO_2
  6
Continuous
 62
     7
100
AcDbCircle
 10
431.2299145589
 20
145.0280020646
 30
0.0
 40
0.1997188234304046
100
AcDbArc
 50
90.0125039653
 51
150.0577338476
  0
LINE
  5
2B5
330
232
100
AcDbEntity
  8
67962040_TRAFO_2
  6
Continuous
 62
     7
100
AcDbLine
 10
431.3148557848
 20
145.7277208832
 30
0.0
 11
431.3148557848
 21
145.4277208832
 31
0.0
  0
LINE
  5
2B6
330
232
100
AcDbEntity
  8
67962040_TRAFO_2
  6
Continuous
 62
     7
100
AcDbLine
 10
475.8148557848
 20
145.5277208833
 30
0.0
 11
475.8148557848
 21
145.4277208832
 31
0.0
  0
SPLINE
  5
2B7
330
232
100
AcDbEntity
  8
67962040_TRAFO_2
  6
Continuous
 62
     7
100
AcDbSpline
210
0.0
220
0.0
230
1.0
 70
     8
 71
     3
 72
     8
 73
     4
 74
     0
 42
0.0000000652816231
 43
0.0000000001
 40
0.0
 40
0.0
 40
0.0
 40
0.0
 40
0.3881760929440623
 40
0.3881760929440623
 40
0.3881760929440623
 40
0.3881760929440623
 10
475.8707041365737
 20
145.273982726604
 30
0.0
 10
475.8521449523445
 20
145.2831076296583
 30
0.0
 10
475.8327624244858
 20
145.2892977801797
 30
0.0
 10
475.8144743500707
 20
145.2916101948991
 30
0.0
  0
SPLINE
  5
2B8
330
232
100
AcDbEntity
  8
67962040_TRAFO_2
  6
Continuous
 62
     7
100
AcDbSpline
210
0.0
220
0.0
230
1.0
 70
     8
 71
     3
 72
    13
 73
     9
 74
     0
 42
0.0000000426310325
 43
0.0000000001
 40
0.0
 40
0.0
 40
0.0
 40
0.0
 40
0.1385184977638424
 40
0.2503948005599144
 40
0.3819503108953706
 40
0.5004836715936937
 40
0.7852268761134575
 40
1.0
 40
1.0
 40
1.0
 40
1.0
 10
476.0139744446935
 20
145.4011825319899
 30
0.0
 10
476.0154833311863
 20
145.3899928425114
 30
0.0
 10
476.0182108708684
 20
145.3697657569521
 30
0.0
 10
476.0145930979817
 20
145.3392204377553
 30
0.0
 10
476.0034975393064
 20
145.3132989039223
 30
0.0
 10
475.974444981525
 20
145.2866870359429
 30
0.0
 10
475.9266894259943
 20
145.2809428990488
 30
0.0
 10
475.8875378381815
 20
145.2760755166414
 30
0.0
 10
475.8707041365737
 20
145.273982726604
 30
0.0
  0
ARC
  5
2B9
330
232
100
AcDbEntity
  8
67962040_TRAFO_2
  6
Continuous
 62
     7
100
AcDbCircle
 10
479.6650713331
 20
201.8182695412
 30
0.0
 40
56.53510604123924
100
AcDbArc
 50
266.0945100128
 51
266.2972010817
  0
LINE
  5
2BA
330
232
100
AcDbEntity
  8
67962040_TRAFO_2
  6
Continuous
 62
     7
100
AcDbLine
 10
475.8148557848
 20
145.4277208832
 30
0.0
 11
476.0148557852
 21
145.4277208818
 31
0.0
  0
LINE
  5
2BB
330
232
100
AcDbEntity
  8
67962040_TRAFO_2
  6
Continuous
 62
     7
100
AcDbLine
 10
431.1148557848
 20
145.3277208832
 30
0.0
 11
430.9994284704
 21
145.4277208831
 31
0.0
  0
ARC
  5
2BC
330
232
100
AcDbEntity
  8
67962040_TRAFO_2
  6
Continuous
 62
     7
100
AcDbCircle
 10
476.0148557848
 20
145.5277208832
 30
0.0
 40
0.2
100
AcDbArc
 50
90.0000005382
 51
179.9999999651
  0
LINE
  5
2BD
330
232
100
AcDbEntity
  8
67962040_TRAFO_2
  6
Continuous
 62
     7
100
AcDbLine
 10
467.3148557848
 20
145.7277208832
 30
0.0
 11
478.8148557848
 21
145.7277208832
 31
0.0
  0
LINE
  5
2BE
330
232
100
AcDbEntity
  8
67962040_TRAFO_2
  6
Continuous
 62
     7
100
AcDbLine
 10
438.7148557848
 20
145.7277208832
 30
0.0
 11
467.3148557848
 21
145.7277208832
 31
0.0
  0
LINE
  5
2BF
330
232
100
AcDbEntity
  8
67962040_TRAFO_2
  6
Continuous
 62
     7
100
AcDbLine
 10
427.2148557849
 20
145.7277208832
 30
0.0
 11
438.7148557848
 21
145.7277208832
 31
0.0
  0
LINE
  5
2C0
330
232
100
AcDbEntity
  8
67962040_TRAFO_2
  6
Continuous
 62
     7
100
AcDbLine
 10
431.0571100838
 20
145.1277764014
 30
0.0
 11
428.5416827703
 21
140.7741522051
 31
0.0
  0
LINE
  5
2C1
330
232
100
AcDbEntity
  8
67962040_TRAFO_2
  6
Continuous
 62
     7
100
AcDbLine
 10
430.9994284693
 20
145.4277208818
 30
0.0
 11
431.0282692769
 21
145.2777486415
 31
0.0
  0
LINE
  5
2C2
330
232
100
AcDbEntity
  8
67962040_TRAFO_2
  6
Continuous
 62
     7
100
AcDbLine
 10
427.0148557848
 20
133.2277208833
 30
0.0
 11
427.0148557848
 21
145.5277208832
 31
0.0
  0
ARC
  5
2C3
330
232
100
AcDbEntity
  8
67962040_TRAFO_2
  6
Continuous
 62
     7
100
AcDbCircle
 10
426.0148557848
 20
133.2277208832
 30
0.0
 40
1.000000000000001
100
AcDbArc
 50
185.0000000126
 51
0.0
  0
LINE
  5
2C4
330
232
100
AcDbEntity
  8
67962040_TRAFO_2
  6
Continuous
 62
     7
100
AcDbLine
 10
423.3278396778
 20
152.466742283
 30
0.0
 11
423.4604068653
 21
150.9514923961
 31
0.0
  0
LINE
  5
2C5
330
232
100
AcDbEntity
  8
67962040_TRAFO_2
  6
Continuous
 62
     7
100
AcDbLine
 10
423.7861946582
 20
147.2277208832
 30
0.0
 11
425.0186610868
 21
133.1405651403
 31
0.0
  0
LINE
  5
2C6
330
232
100
AcDbEntity
  8
67962040_TRAFO_2
  6
Continuous
 62
     7
100
AcDbLine
 10
421.3265006768
 20
148.9526112662
 30
0.0
 11
421.1249668831
 21
148.9614104217
 31
0.0
  0
LINE
  5
2C7
330
232
100
AcDbEntity
  8
67962040_TRAFO_2
  6
Continuous
 62
     7
100
AcDbLine
 10
421.1249668827
 20
148.9614104225
 30
0.0
 11
421.7275262741
 21
152.378694541
 31
0.0
  0
LINE
  5
2C8
330
232
100
AcDbEntity
  8
67962040_TRAFO_2
  6
Continuous
 62
     7
100
AcDbLine
 10
423.524369042
 20
133.0098315264
 30
0.0
 11
422.2804649012
 21
147.2277208832
 31
0.0
  0
ARC
  5
2C9
330
232
100
AcDbEntity
  8
67962040_TRAFO_2
  6
Continuous
 62
     7
100
AcDbCircle
 10
426.0148557871
 20
133.2277208832
 30
0.0
 40
2.499999999887177
100
AcDbArc
 50
184.9999999988
 51
359.9999999941
  0
LINE
  5
2CA
330
232
100
AcDbEntity
  8
67962040_TRAFO_2
  6
Continuous
 62
     7
100
AcDbLine
 10
428.5148557848
 20
140.6740966863
 30
0.0
 11
428.5148557848
 21
133.227720883
 31
0.0
  0
ARC
  5
2CB
330
232
100
AcDbEntity
  8
67962040_TRAFO_2
  6
Continuous
 62
     7
100
AcDbCircle
 10
427.2148557848
 20
145.9277208832
 30
0.0
 40
0.2000000000000023
100
AcDbArc
 50
180.0000000051
 51
270.000000011
  0
ARC
  5
2CC
330
232
100
AcDbEntity
  8
67962040_TRAFO_2
  6
Continuous
 62
     7
100
AcDbCircle
 10
478.8148557848
 20
145.9277208832
 30
0.0
 40
0.2
100
AcDbArc
 50
270.0
 51
0.0
  0
LINE
  5
2CD
330
232
100
AcDbEntity
  8
67962040_TRAFO_2
  6
Continuous
 62
     7
100
AcDbLine
 10
477.5148557848
 20
133.2277208827
 30
0.0
 11
477.5148557848
 21
140.6952653512
 31
0.0
  0
ARC
  5
2CE
330
232
100
AcDbEntity
  8
67962040_TRAFO_2
  6
Continuous
 62
     7
100
AcDbCircle
 10
428.7148557848
 20
140.6740966842
 30
0.0
 40
0.1999999999999991
100
AcDbArc
 50
149.9816325764
 51
168.9190873063
  0
LINE
  5
2CF
330
232
100
AcDbEntity
  8
67962040_TRAFO_2
  6
Continuous
 62
     7
100
AcDbLine
 10
427.0148557848
 20
145.9277208832
 30
0.0
 11
427.0148557848
 21
145.5277208832
 31
0.0
  0
LINE
  5
2D0
330
232
100
AcDbEntity
  8
67962040_TRAFO_2
  6
Continuous
 62
     7
100
AcDbLine
 10
427.0148557848
 20
145.9277208832
 30
0.0
 11
427.0148557848
 21
147.0277208342
 31
0.0
  0
ARC
  5
2D1
330
232
100
AcDbEntity
  8
67962040_TRAFO_2
  6
Continuous
 62
     7
100
AcDbCircle
 10
423.1286007378
 20
152.4493111352
 30
0.0
 40
0.2000000000000005
100
AcDbArc
 50
5.0000000112
 51
90.0
  0
LINE
  5
2D2
330
232
100
AcDbEntity
  8
67962040_TRAFO_2
  6
Continuous
 62
     7
100
AcDbLine
 10
479.0148557848
 20
145.5277208832
 30
0.0
 11
479.0148557848
 21
145.9277208832
 31
0.0
  0
LINE
  5
2D3
330
232
100
AcDbEntity
  8
67962040_TRAFO_2
  6
Continuous
 62
     7
100
AcDbLine
 10
479.0148557848
 20
147.0277208342
 30
0.0
 11
479.0148557848
 21
145.9277208832
 31
0.0
  0
LINE
  5
2D4
330
232
100
AcDbEntity
  8
67962040_TRAFO_2
  6
Continuous
 62
     7
100
AcDbLine
 10
479.0148557848
 20
145.5277208832
 30
0.0
 11
479.0148557848
 21
133.227720883
 31
0.0
  0
ARC
  5
2D5
330
232
100
AcDbEntity
  8
67962040_TRAFO_2
  6
Continuous
 62
     7
100
AcDbCircle
 10
480.0148557848
 20
133.2277208832
 30
0.0
 40
2.5
100
AcDbArc
 50
269.9999999922
 51
354.9999999966
  0
ARC
  5
2D6
330
232
100
AcDbEntity
  8
67962040_TRAFO_2
  6
Continuous
 62
     7
100
AcDbCircle
 10
480.0148557848
 20
133.2277208832
 30
0.0
 40
2.500000000000002
100
AcDbArc
 50
180.000000011
 51
269.9999999926
  0
ARC
  5
2D7
330
232
100
AcDbEntity
  8
67962040_TRAFO_2
  6
Continuous
 62
     7
100
AcDbCircle
 10
477.3148557848
 20
140.6952653512
 30
0.0
 40
0.1999999999999988
100
AcDbArc
 50
0.0000000037
 51
18.4349488683
  0
ARC
  5
2D8
330
232
100
AcDbEntity
  8
67962040_TRAFO_2
  6
Continuous
 62
     7
100
AcDbCircle
 10
427.2148558338
 20
147.0277208342
 30
0.0
 40
0.2000000489999999
100
AcDbArc
 50
89.9999999941
 51
180.0
  0
ARC
  5
2D9
330
232
100
AcDbEntity
  8
67962040_TRAFO_2
  6
Continuous
 62
     7
100
AcDbCircle
 10
421.9244878248
 20
152.3439649052
 30
0.0
 40
0.2000000004229832
100
AcDbArc
 50
95.0003400524
 51
169.9999999377
  0
LINE
  5
2DA
330
232
100
AcDbEntity
  8
67962040_TRAFO_2
  6
Continuous
 62
     7
100
AcDbLine
 10
421.1279143355
 20
148.9277208832
 30
0.0
 11
421.1249668827
 21
148.9614104225
 31
0.0
  0
ARC
  5
2DB
330
232
100
AcDbEntity
  8
67962040_TRAFO_2
  6
Continuous
 62
     7
100
AcDbCircle
 10
480.0148557848
 20
133.2277208832
 30
0.0
 40
0.9999999999999991
100
AcDbArc
 50
180.000000011
 51
269.9999999926
  0
ARC
  5
2DC
330
232
100
AcDbEntity
  8
67962040_TRAFO_2
  6
Continuous
 62
     7
100
AcDbCircle
 10
480.0148557848
 20
133.2277208832
 30
0.0
 40
0.999999999885528
100
AcDbArc
 50
269.9999999922
 51
354.9999999879
  0
LINE
  5
2DD
330
232
100
AcDbEntity
  8
67962040_TRAFO_2
  6
Continuous
 62
     7
100
AcDbLine
 10
481.0110504828
 20
133.1405651403
 30
0.0
 11
482.2435169115
 21
147.2277208832
 31
0.0
  0
LINE
  5
2DE
330
232
100
AcDbEntity
  8
67962040_TRAFO_2
  6
Continuous
 62
     7
100
AcDbLine
 10
482.5693047044
 20
150.9514923959
 30
0.0
 11
482.7018718919
 21
152.4667422826
 31
0.0
  0
LINE
  5
2DF
330
232
100
AcDbEntity
  8
67962040_TRAFO_2
  6
Continuous
 62
     7
100
AcDbLine
 10
484.9047446866
 20
148.9614104217
 30
0.0
 11
484.7032108923
 21
148.9526112661
 31
0.0
  0
LINE
  5
2E0
330
232
100
AcDbEntity
  8
67962040_TRAFO_2
  6
Continuous
 62
     7
100
AcDbLine
 10
484.3021852957
 20
152.378694541
 30
0.0
 11
484.9047446867
 21
148.9614104225
 31
0.0
  0
LINE
  5
2E1
330
232
100
AcDbEntity
  8
67962040_TRAFO_2
  6
Continuous
 62
     7
100
AcDbLine
 10
483.7492466648
 20
147.2277208835
 30
0.0
 11
482.5053425235
 21
133.0098315268
 31
0.0
  0
LINE
  5
2E2
330
232
100
AcDbEntity
  8
67962040_TRAFO_2
  6
Continuous
 62
     7
100
AcDbLine
 10
477.5045924447
 20
140.7585109047
 30
0.0
 11
476.0604406007
 21
145.0909664367
 31
0.0
  0
ARC
  5
2E3
330
232
100
AcDbEntity
  8
67962040_TRAFO_2
  6
Continuous
 62
     7
100
AcDbCircle
 10
478.8148557358
 20
147.0277208342
 30
0.0
 40
0.2000000490000008
100
AcDbArc
 50
0.0000000059
 51
90.0000000118
  0
LINE
  5
2E4
330
232
100
AcDbEntity
  8
67962040_TRAFO_2
  6
Continuous
 62
     7
100
AcDbLine
 10
421.9070554937
 20
152.5432037418
 30
0.0
 11
423.1111695897
 21
152.6485500743
 31
0.0
  0
ARC
  5
2E5
330
232
100
AcDbEntity
  8
67962040_TRAFO_2
  6
Continuous
 62
     7
100
AcDbCircle
 10
482.9011108318
 20
152.4493111352
 30
0.0
 40
0.2000000000000005
100
AcDbArc
 50
90.0000000103
 51
175.0000003424
  0
ARC
  5
2E6
330
232
100
AcDbEntity
  8
67962040_TRAFO_2
  6
Continuous
 62
     7
100
AcDbCircle
 10
484.1052237448
 20
152.3439649052
 30
0.0
 40
0.2000000003348625
100
AcDbArc
 50
10.0000000557
 51
84.9999997558
  0
LINE
  5
2E7
330
232
100
AcDbEntity
  8
67962040_TRAFO_2
  6
Continuous
 62
     7
100
AcDbLine
 10
484.9047446867
 20
148.9614104225
 30
0.0
 11
484.901797234
 21
148.9277208835
 31
0.0
  0
LINE
  5
2E8
330
232
100
AcDbEntity
  8
67962040_TRAFO_2
  6
Continuous
 62
     7
100
AcDbLine
 10
482.9185419808
 20
152.6485500742
 30
0.0
 11
484.1226548942
 21
152.5432038449
 31
0.0
  0
ARC
  5
2E9
330
232
100
AcDbEntity
  8
67962040_TRAFO_2
  6
Continuous
 62
     7
100
AcDbCircle
 10
428.631918426
 20
140.682255542
 30
0.0
 40
0.1173466187144695
100
AcDbArc
 50
164.7764861518
 51
183.9868687879
  0
ARC
  5
2EA
330
232
100
AcDbEntity
  8
67962040_TRAFO_2
  6
Continuous
 62
     7
100
AcDbCircle
 10
428.832577709
 20
140.6436424424
 30
0.0
 40
0.3215943974110388
100
AcDbArc
 50
162.796757336
 51
165.1815957377
  0
ENDBLK
  5
2EC
330
232
100
AcDbEntity
  8
0
100
AcDbBlockEnd
  0
BLOCK
  5
303
330
2ED
100
AcDbEntity
  8
0
100
AcDbBlockBegin
  2
SE3
 70
     0
 10
0.0
 20
0.0
 30
0.0
  3
SE3
  1

  0
LINE
  5
2F0
330
2ED
100
AcDbEntity
  8
491294038_PLATTE
  6
Continuous
 62
     7
100
AcDbLine
 10
117.3507615242
 20
344.5285449085
 30
0.0
 11
11.3492384758
 21
344.5285449085
 31
0.0
  0
ELLIPSE
  5
2F1
330
2ED
100
AcDbEntity
  8
491294038_PLATTE
  6
Continuous
 62
     7
100
AcDbEllipse
 10
117.3492383598
 20
339.5277832682
 30
0.0
 11
-3.536610945847904
 21
-3.536610945847906
 31
0.0
210
0.0
220
0.0
230
1.0
 40
0.9996954599
 41
2.356346783439934
 42
3.926838523739654
  0
LINE
  5
2F2
330
2ED
100
AcDbEntity
  8
491294038_PLATTE
  6
Continuous
 62
     7
100
AcDbLine
 10
122.35
 20
205.5277833842
 30
0.0
 11
122.35
 21
339.5293064327
 31
0.0
  0
ELLIPSE
  5
2F3
330
2ED
100
AcDbEntity
  8
491294038_PLATTE
  6
Continuous
 62
     7
100
AcDbEllipse
 10
117.3492383598
 20
205.5293065487
 30
0.0
 11
-3.536610945847906
 21
3.536610945847904
 31
0.0
210
0.0
220
0.0
230
1.0
 40
0.9996954599
 41
2.356346783439926
 42
3.926838523739663
  0
LINE
  5
2F4
330
2ED
100
AcDbEntity
  8
491294038_PLATTE
  6
Continuous
 62
     7
100
AcDbLine
 10
11.3492384758
 20
200.5285449085
 30
0.0
 11
117.3507615242
 21
200.5285449085
 31
0.0
  0
ELLIPSE
  5
2F5
330
2ED
100
AcDbEntity
  8
491294038_PLATTE
  6
Continuous
 62
     7
100
AcDbEllipse
 10
11.3507616402
 20
205.5293065487
 30
0.0
 11
3.536610945847904
 21
3.536610945847906
 31
0.0
210
0.0
220
0.0
230
1.0
 40
0.9996954599
 41
2.356346783439929
 42
3.926838523739662
  0
LINE
  5
2F6
330
2ED
100
AcDbEntity
  8
491294038_PLATTE
  6
Continuous
 62
     7
100
AcDbLine
 10
6.35
 20
339.5293064327
 30
0.0
 11
6.35
 21
205.5277833842
 31
0.0
  0
ELLIPSE
  5
2F7
330
2ED
100
AcDbEntity
  8
491294038_PLATTE
  6
Continuous
 62
     7
100
AcDbEllipse
 10
11.3507616402
 20
339.5277832682
 30
0.0
 11
3.536610945847906
 21
-3.536610945847904
 31
0.0
210
0.0
220
0.0
230
1.0
 40
0.9996954599
 41
2.35634678343994
 42
3.926838523739663
  0
LINE
  5
2F8
330
2ED
100
AcDbEntity
  8
491294038_PLATTE
  6
Continuous
 62
     7
100
AcDbLine
 10
59.55
 20
243.8285449085
 30
0.0
 11
59.55
 21
252.3285449085
 31
0.0
  0
ARC
  5
2F9
330
2ED
100
AcDbEntity
  8
491294038_PLATTE
  6
Continuous
 62
     7
100
AcDbCircle
 10
64.35
 20
252.3285449085
 30
0.0
 40
4.800000000000165
100
AcDbArc
 50
0.0
 51
180.0
  0
LINE
  5
2FA
330
2ED
100
AcDbEntity
  8
491294038_PLATTE
  6
Continuous
 62
     7
100
AcDbLine
 10
69.15
 20
252.3285449085
 30
0.0
 11
69.15
 21
243.8285449085
 31
0.0
  0
ARC
  5
2FB
330
2ED
100
AcDbEntity
  8
491294038_PLATTE
  6
Continuous
 62
     7
100
AcDbCircle
 10
64.35
 20
243.8285449085
 30
0.0
 40
4.800000000000084
100
AcDbArc
 50
180.0
 51
0.0
  0
ARC
  5
2FD
330
2ED
100
AcDbEntity
  8
491049040_IR-ELE
  6
Continuous
 62
     7
100
AcDbCircle
 10
64.35
 20
243.8444427291
 30
0.0
 40
4.675000000000002
100
AcDbArc
 50
180.0
 51
0.0
  0
LINE
  5
2FE
330
2ED
100
AcDbEntity
  8
491049040_IR-ELE
  6
Continuous
 62
     7
100
AcDbLine
 10
59.675
 20
243.8444427291
 30
0.0
 11
59.675
 21
252.3443618152
 31
0.0
  0
ARC
  5
2FF
330
2ED
100
AcDbEntity
  8
491049040_IR-ELE
  6
Continuous
 62
     7
100
AcDbCircle
 10
64.35
 20
252.3443618152
 30
0.0
 40
4.675000000000001
100
AcDbArc
 50
0.0
 51
180.0
  0
LINE
  5
300
330
2ED
100
AcDbEntity
  8
491049040_IR-ELE
  6
Continuous
 62
     7
100
AcDbLine
 10
69.025
 20
252.3443618152
 30
0.0
 11
69.025
 21
243.8444427291
 31
0.0
  0
ARC
  5
301
330
2ED
100
AcDbEntity
  8
491049040_IR-ELE
  6
Continuous
 62
     7
100
AcDbCircle
 10
64.35
 20
243.8339631718
 30
0.0
 40
4.633077380883527
100
AcDbArc
 50
180.0
 51
0.0
  0
ARC
  5
302
330
2ED
100
AcDbEntity
  8
491049040_IR-ELE
  6
Continuous
 62
     7
100
AcDbCircle
 10
64.35
 20
252.3338822579
 30
0.0
 40
4.633077380883527
100
AcDbArc
 50
0.0
 51
180.0
  0
ENDBLK
  5
304
330
2ED
100
AcDbEntity
  8
0
100
AcDbBlockEnd
  0
BLOCK
  5
315
330
305
100
AcDbEntity
  8
0
100
AcDbBlockBegin
  2
SE4
 70
     0
 10
0.0
 20
0.0
 30
0.0
  3
SE4
  1

  0
LINE
  5
307
330
305
100
AcDbEntity
  8
491294038_PLATTE
  6
Continuous
 62
     7
100
AcDbLine
 10
205.5137363872
 20
200.5285449085
 30
0.0
 11
205.5137363872
 21
205.5277833842
 31
0.0
  0
LINE
  5
308
330
305
100
AcDbEntity
  8
491294038_PLATTE
  6
Continuous
 62
     7
100
AcDbLine
 10
205.5137363872
 20
339.5293064327
 30
0.0
 11
205.5137363872
 21
205.5277833842
 31
0.0
  0
LINE
  5
309
330
305
100
AcDbEntity
  8
491294038_PLATTE
  6
Continuous
 62
     7
100
AcDbLine
 10
205.5137363872
 20
339.5293064327
 30
0.0
 11
205.5137363872
 21
344.5285449085
 31
0.0
  0
LINE
  5
30A
330
305
100
AcDbEntity
  8
491294038_PLATTE
  6
Continuous
 62
     7
100
AcDbLine
 10
205.5137363872
 20
344.5285449085
 30
0.0
 11
212.9870047935
 21
344.3980985232
 31
0.0
  0
LINE
  5
30B
330
305
100
AcDbEntity
  8
491294038_PLATTE
  6
Continuous
 62
     7
100
AcDbLine
 10
212.9870047935
 20
200.6589912937
 30
0.0
 11
205.5137363872
 21
200.5285449085
 31
0.0
  0
LINE
  5
30C
330
305
100
AcDbEntity
  8
491294038_PLATTE
  6
Continuous
 62
     7
100
AcDbLine
 10
213.1748784975
 20
344.3948191755
 30
0.0
 11
212.9870047935
 21
344.3980985232
 31
0.0
  0
LINE
  5
30D
330
305
100
AcDbEntity
  8
491294038_PLATTE
  6
Continuous
 62
     7
100
AcDbLine
 10
212.9870047935
 20
200.6589912937
 30
0.0
 11
213.1748784975
 21
200.6622706414
 31
0.0
  0
LINE
  5
30E
330
305
100
AcDbEntity
  8
491294038_PLATTE
  6
Continuous
 62
     7
100
AcDbLine
 10
216.4430315372
 20
243.8285449085
 30
0.0
 11
216.4771706591
 21
252.3285449085
 31
0.0
  0
SPLINE
  5
30F
330
305
100
AcDbEntity
  8
491294038_PLATTE
  6
Continuous
 62
     7
100
AcDbSpline
210
0.0
220
0.0
230
1.0
 70
     8
 71
     3
 72
    12
 73
     8
 74
     0
 42
0.0000000010421099
 43
0.0000000001
 40
0.0
 40
0.0
 40
0.0
 40
0.0
 40
0.2500000000000001
 40
0.2500000000000001
 40
0.5
 40
0.5
 40
0.5002159106507055
 40
0.5002159106507055
 40
0.5002159106507055
 40
0.5002159106507055
 10
216.4771706591141
 20
252.3285449084547
 30
0.0
 10
216.4813792321848
 20
253.5968699445425
 30
0.0
 10
216.4857407032433
 20
254.8371216589776
 30
0.0
 10
216.4921743201304
 20
256.60830080689
 30
0.0
 10
216.4941575565523
 20
257.1276976580381
 30
0.0
 10
216.4941607498212
 20
257.1285445430336
 30
0.0
 10
216.4941607511233
 20
257.1285448935403
 30
0.0
 10
216.4941607509723
 20
257.1285448638583
 30
0.0
  0
SPLINE
  5
310
330
305
100
AcDbEntity
  8
491294038_PLATTE
  6
Continuous
 62
     7
100
AcDbSpline
210
0.0
220
0.0
230
1.0
 70
     8
 71
     3
 72
    10
 73
     6
 74
     0
 42
0.000000001041206
 43
0.0000000001
 40
0.5002159321275294
 40
0.5002159321275294
 40
0.5002159321275294
 40
0.5002159321275294
 40
0.75
 40
0.75
 40
1.0
 40
1.0
 40
1.0
 40
1.0
 10
216.4211881669614
 20
239.028544953062
 30
0.0
 10
216.4211882905435
 20
239.028579308302
 30
0.0
 10
216.4234152196152
 20
239.5374554441563
 30
0.0
 10
216.4314409741091
 20
241.3272263121496
 30
0.0
 10
216.4370520064599
 20
242.5602243587761
 30
0.0
 10
216.443031537204
 20
243.828544908455
 30
0.0
  0
SPLINE
  5
311
330
305
100
AcDbEntity
  8
491294038_PLATTE
  6
Continuous
 62
     7
100
AcDbSpline
210
0.0
220
0.0
230
1.0
 70
     8
 71
     3
 72
    11
 73
     7
 74
     0
 42
0.0000000001186151
 43
0.0000000001
 40
0.0
 40
0.0
 40
0.0
 40
0.0
 40
0.1827158515556345
 40
0.4584245029838995
 40
0.7341331541494212
 40
1.0
 40
1.0
 40
1.0
 40
1.0
 10
216.4841938625791
 20
257.1245138088
 30
0.0
 10
216.499331860452
 20
262.7726486303636
 30
0.0
 10
216.5291501871971
 20
274.7945216498205
 30
0.0
 10
216.4822657308363
 20
295.7875689242612
 30
0.0
 10
216.3524307817214
 20
319.068571370597
 30
0.0
 10
216.2072505231887
 20
333.2110386510421
 30
0.0
 10
216.1207706151005
 20
341.4291217217761
 30
0.0
  0
SPLINE
  5
312
330
305
100
AcDbEntity
  8
491294038_PLATTE
  6
Continuous
 62
     7
100
AcDbSpline
210
0.0
220
0.0
230
1.0
 70
     8
 71
     3
 72
     8
 73
     4
 74
     0
 42
0.0000000002824377
 43
0.0000000001
 40
0.0
 40
0.0
 40
0.0
 40
0.0
 40
1.0
 40
1.0
 40
1.0
 40
1.0
 10
216.1207706151006
 20
203.6279680951335
 30
0.0
 10
216.2857506329635
 20
218.5699115080771
 30
0.0
 10
216.3822368659278
 20
230.3714749282617
 30
0.0
 10
216.4102293139934
 20
239.0326583556874
 30
0.0
  0
ARC
  5
313
330
305
100
AcDbEntity
  8
491294038_PLATTE
  6
Continuous
 62
     7
100
AcDbCircle
 10
213.122494995
 20
341.3952765488
 30
0.0
 40
2.999999999999999
100
AcDbArc
 50
0.6467820086
 51
88.9999999999
  0
ARC
  5
314
330
305
100
AcDbEntity
  8
491294038_PLATTE
  6
Continuous
 62
     7
100
AcDbCircle
 10
213.122494995
 20
203.6618132681
 30
0.0
 40
3.0
100
AcDbArc
 50
270.9999999998
 51
359.3532947828
  0
ENDBLK
  5
316
330
305
100
AcDbEntity
  8
0
100
AcDbBlockEnd
  0
BLOCK
  5
323
330
317
100
AcDbEntity
  8
0
100
AcDbBlockBegin
  2
SE5
 70
     0
 10
0.0
 20
0.0
 30
0.0
  3
SE5
  1

  0
LINE
  5
319
330
317
100
AcDbEntity
  8
491294038_PLATTE
  6
Continuous
 62
     7
100
AcDbLine
 10
117.3507615242
 20
117.3650102808
 30
0.0
 11
11.3492384758
 21
117.3650102808
 31
0.0
  0
LINE
  5
31A
330
317
100
AcDbEntity
  8
491294038_PLATTE
  6
Continuous
 62
     7
100
AcDbLine
 10
117.3507615242
 20
117.3650102808
 30
0.0
 11
122.35
 21
117.3650102808
 31
0.0
  0
LINE
  5
31B
330
317
100
AcDbEntity
  8
491294038_PLATTE
  6
Continuous
 62
     7
100
AcDbLine
 10
122.35
 20
117.3650102808
 30
0.0
 11
122.2196091218
 21
109.894921872
 31
0.0
  0
LINE
  5
31C
330
317
100
AcDbEntity
  8
491294038_PLATTE
  6
Continuous
 62
     7
100
AcDbLine
 10
6.35
 20
117.3650102808
 30
0.0
 11
11.3492384758
 21
117.3650102808
 31
0.0
  0
LINE
  5
31D
330
317
100
AcDbEntity
  8
491294038_PLATTE
  6
Continuous
 62
     7
100
AcDbLine
 10
6.4803908782
 20
109.894921872
 30
0.0
 11
6.35
 21
117.3650102808
 31
0.0
  0
LINE
  5
31E
330
317
100
AcDbEntity
  8
491294038_PLATTE
  6
Continuous
 62
     7
100
AcDbLine
 10
6.4836405741
 20
109.7087469209
 30
0.0
 11
6.4803908782
 21
109.894921872
 31
0.0
  0
LINE
  5
31F
330
317
100
AcDbEntity
  8
491294038_PLATTE
  6
Continuous
 62
     7
100
AcDbLine
 10
122.2196091218
 20
109.894921872
 30
0.0
 11
122.2163594259
 21
109.7087469209
 31
0.0
  0
SPLINE
  5
320
330
317
100
AcDbEntity
  8
491294038_PLATTE
  6
Continuous
 62
     7
100
AcDbSpline
210
0.0
220
0.0
230
1.0
 70
     8
 71
     3
 72
    13
 73
     9
 74
     0
 42
0.0000000000910553
 43
0.0000000001
 40
0.0
 40
0.0
 40
0.0
 40
0.0
 40
0.1626570209484895
 40
0.3313285103356332
 40
0.5000000000001502
 40
0.6686714896646313
 40
0.8373429790516674
 40
1.0
 40
1.0
 40
1.0
 40
1.0
 10
9.44041684378663
 20
106.7630031915014
 30
0.0
 10
15.98976945164382
 20
106.6754152515357
 30
0.0
 10
27.23711268017355
 20
106.5288677605848
 30
0.0
 10
45.89843150597385
 20
106.395099301918
 30
0.0
 10
64.35000000001524
 20
106.35
 30
0.0
 10
82.80156849405266
 20
106.3950993019182
 30
0.0
 10
101.4628873198418
 20
106.5288677605854
 30
0.0
 10
112.7102305483626
 20
106.6754152515359
 30
0.0
 10
119.2595831562135
 20
106.7630031915017
 30
0.0
  0
ARC
  5
321
330
317
100
AcDbEntity
  8
491294038_PLATTE
  6
Continuous
 62
     7
100
AcDbCircle
 10
119.2168170861
 20
109.7611468549
 30
0.0
 40
3.000000000000003
100
AcDbArc
 50
270.8157276269
 51
359.0
  0
ARC
  5
322
330
317
100
AcDbEntity
  8
491294038_PLATTE
  6
Continuous
 62
     7
100
AcDbCircle
 10
9.4831829139
 20
109.7611468549
 30
0.0
 40
3.0
100
AcDbArc
 50
181.0
 51
269.1845994293
  0
ENDBLK
  5
324
330
317
100
AcDbEntity
  8
0
100
AcDbBlockEnd
  0
ENDSEC
  0
SECTION
  2
ENTITIES
  0
INSERT
  5
5F
330
1F
100
AcDbEntity
  8
Default
100
AcDbBlockReference
  2
SEANNOT_GROUP
 10
0.0
 20
0.0
 30
0.0
  0
INSERT
  5
66
330
1F
100
AcDbEntity
  8
Default
100
AcDbBlockReference
  2
SEANNOT_GROUP1
 10
0.0
 20
0.0
 30
0.0
  0
INSERT
  5
6C
330
1F
100
AcDbEntity
  8
Default
100
AcDbBlockReference
  2
SEANNOT_GROUP2
 10
0.0
 20
0.0
 30
0.0
  0
INSERT
  5
72
330
1F
100
AcDbEntity
  8
Default
100
AcDbBlockReference
  2
SEANNOT_GROUP3
 10
0.0
 20
0.0
 30
0.0
  0
INSERT
  5
78
330
1F
100
AcDbEntity
  8
Default
100
AcDbBlockReference
  2
SEANNOT_GROUP4
 10
0.0
 20
0.0
 30
0.0
  0
INSERT
  5
7E
330
1F
100
AcDbEntity
  8
Default
100
AcDbBlockReference
  2
SE
 10
0.0
 20
0.0
 30
0.0
  0
INSERT
  5
184
330
1F
100
AcDbEntity
  8
Default
100
AcDbBlockReference
  2
SE1
 10
0.0
 20
0.0
 30
0.0
  0
INSERT
  5
233
330
1F
100
AcDbEntity
  8
Default
100
AcDbBlockReference
  2
SE2
 10
0.0
 20
0.0
 30
0.0
  0
INSERT
  5
2EE
330
1F
100
AcDbEntity
  8
Default
100
AcDbBlockReference
  2
SE3
 10
0.0
 20
0.0
 30
0.0
  0
INSERT
  5
306
330
1F
100
AcDbEntity
  8
Default
100
AcDbBlockReference
  2
SE4
 10
0.0
 20
0.0
 30
0.0
  0
INSERT
  5
318
330
1F
100
AcDbEntity
  8
Default
100
AcDbBlockReference
  2
SE5
 10
0.0
 20
0.0
 30
0.0
  0
TEXT
  5
326
330
1F
100
AcDbEntity
  8
Default
  6
Continuous
 62
     7
100
AcDbText
 10
5.9362635081
 20
53.4225120485
 30
0.0
 40
10.0
  1
Grohe AG^J
  7
SEACAD_seiso_ttf
 11
5.9362635081
 21
63.4225120485
 31
0.0
100
AcDbText
 73
     3
  0
TEXT
  5
327
330
1F
100
AcDbEntity
  8
Default
  6
Continuous
 62
     7
100
AcDbText
 10
5.9362635081
 20
37.0588756849
 30
0.0
 40
10.0
  1
 
  7
SEACAD_seiso_ttf
 11
5.9362635081
 21
47.0588756849
 31
0.0
100
AcDbText
 73
     3
  0
TEXT
  5
328
330
1F
100
AcDbEntity
  8
Default
  6
Continuous
 62
     7
100
AcDbText
 10
5.9362635081
 20
20.6952393213
 30
0.0
 40
10.0
  1
ecn:
  7
SEACAD_seiso_ttf
 11
5.9362635081
 21
30.6952393213
 31
0.0
100
AcDbText
 73
     3
  0
TEXT
  5
329
330
1F
100
AcDbEntity
  8
Default
  6
Continuous
 62
     7
100
AcDbText
 10
5.9362635081
 20
4.3316029576
 30
0.0
 40
10.0
  1
unit: mm
  7
SEACAD_seiso_ttf
 11
5.9362635081
 21
14.3316029576
 31
0.0
100
AcDbText
 73
     3
  0
LINE
  5
32A
330
1F
100
AcDbEntity
  8
Default
  6
Continuous
 62
     7
100
AcDbLine
 10
0.0
 20
0.0
 30
0.0
 11
100.0
 21
0.0
 31
0.0
  0
LINE
  5
32B
330
1F
100
AcDbEntity
  8
Default
  6
Continuous
 62
     7
100
AcDbLine
 10
0.0
 20
0.0
 30
0.0
 11
0.0
 21
100.0
 31
0.0
  0
TEXT
  5
32C
330
1F
100
AcDbEntity
  8
Default
  6
Continuous
 62
     7
100
AcDbText
 10
24.3923665681
 20
-18.2375342018
 30
0.0
 40
10.0
  1
100 mm
  7
SEACAD_seiso_ttf
 11
24.3923665681
 21
-8.2375342018
 31
0.0
100
AcDbText
 73
     3
  0
TEXT
  5
32D
330
1F
100
AcDbEntity
  8
Default
  6
Continuous
 62
     7
100
AcDbText
 10
-7.6150308803
 20
24.6231930421
 30
0.0
 40
10.0
  1
100 mm
 50
90.0
  7
SEACAD_seiso_ttf
 11
-17.6150308803
 21
24.6231930421
 31
0.0
100
AcDbText
 73
     3
  0
TEXT
  5
32E
330
1F
100
AcDbEntity
  8
Default
  6
Continuous
 62
     7
100
AcDbText
 10
28.4878128572
 20
20.0907663715
 30
0.0
 40
10.0
  1
227987
  7
SEACAD_seiso_ttf
 11
28.4878128572
 21
30.0907663715
 31
0.0
100
AcDbText
 73
     3
  0
TEXT
  5
32F
330
1F
100
AcDbEntity
  8
Default
  6
Continuous
 62
     7
100
AcDbText
 10
5.9012241913
 20
36.7242780188
 30
0.0
 40
10.0
  1
38393SD1
  7
SEACAD_seiso_ttf
 11
5.9012241913
 21
46.7242780188
 31
0.0
100
AcDbText
 73
     3
  0
ENDSEC
  0
SECTION
  2
OBJECTS
  0
DICTIONARY
  5
C
330
0
100
AcDbDictionary
281
     1
  3
ACAD_GROUP
350
D
  3
ACAD_LAYOUT
350
1A
  3
ACAD_MLEADERSTYLE
350
333
  3
ACAD_MLINESTYLE
350
17
  3
ACAD_PLOTSETTINGS
350
19
  3
ACAD_PLOTSTYLENAME
350
E
  3
ACAD_SCALELIST
350
3B
  3
ACAD_TABLESTYLE
350
332
  3
ACAD_VISUALSTYLE
350
2A
  3
AcDbVariableDictionary
350
330
  0
DICTIONARY
  5
D
102
{ACAD_REACTORS
330
C
102
}
330
C
100
AcDbDictionary
281
     1
  0
DICTIONARY
  5
1A
102
{ACAD_REACTORS
330
C
102
}
330
C
100
AcDbDictionary
281
     1
  3
Layout1
350
1E
  3
Model
350
22
  0
DICTIONARY
  5
333
102
{ACAD_REACTORS
330
C
102
}
330
C
100
AcDbDictionary
281
     1
  0
DICTIONARY
  5
17
102
{ACAD_REACTORS
330
C
102
}
330
C
100
AcDbDictionary
281
     1
  3
Standard
350
18
  0
DICTIONARY
  5
19
102
{ACAD_REACTORS
330
C
102
}
330
C
100
AcDbDictionary
281
     1
  0
ACDBDICTIONARYWDFLT
  5
E
102
{ACAD_REACTORS
330
C
102
}
330
C
100
AcDbDictionary
281
     1
  3
Normal
350
F
100
AcDbDictionaryWithDefault
340
F
  0
DICTIONARY
  5
3B
102
{ACAD_REACTORS
330
C
102
}
330
C
100
AcDbDictionary
281
     1
  3
A0
350
3C
  3
A1
350
3D
  3
A2
350
3E
  3
A3
350
3F
  3
A4
350
40
  3
A5
350
41
  3
A6
350
42
  3
A7
350
43
  3
A8
350
44
  3
A9
350
45
  3
B0
350
46
  3
B1
350
47
  3
B2
350
48
  3
B3
350
49
  3
B4
350
4A
  3
B5
350
4B
  3
B6
350
4C
  3
B7
350
4D
  3
B8
350
4E
  3
B9
350
4F
  3
C0
350
50
  3
C1
350
51
  3
C2
350
52
  3
C3
350
53
  3
C4
350
54
  3
C5
350
55
  3
C6
350
56
  3
C7
350
57
  3
C8
350
58
  3
C9
350
59
  3
D0
350
5A
  3
D1
350
5B
  3
D2
350
5C
  0
DICTIONARY
  5
332
102
{ACAD_REACTORS
330
C
102
}
330
C
100
AcDbDictionary
281
     1
  0
DICTIONARY
  5
2A
102
{ACAD_REACTORS
330
C
102
}
330
C
100
AcDbDictionary
281
     1
  3
2dWireframe
350
2F
  3
3D Hidden
350
31
  3
3dWireframe
350
30
  3
Basic
350
32
  3
Brighten
350
36
  3
ColorChange
350
3A
  3
Conceptual
350
34
  3
Dim
350
35
  3
Facepattern
350
39
  3
Flat
350
2B
  3
FlatWithEdges
350
2C
  3
Gouraud
350
2D
  3
GouraudWithEdges
350
2E
  3
Linepattern
350
38
  3
Realistic
350
33
  3
Thicken
350
37
  0
DICTIONARY
  5
330
102
{ACAD_REACTORS
330
C
102
}
330
C
100
AcDbDictionary
281
     1
  3
CANNOSCALE
350
331
  3
PSOLHEIGHT
350
335
  3
PSOLWIDTH
350
334
  0
LAYOUT
  5
1E
102
{ACAD_REACTORS
330
1A
102
}
330
1A
100
AcDbPlotSettings
  1

  2
none_device
  4

  6

 40
0.0
 41
0.0
 42
0.0
 43
0.0
 44
0.0
 45
0.0
 46
0.0
 47
0.0
 48
0.0
 49
0.0
140
0.0
141
0.0
142
1.0
143
1.0
 70
   688
 72
     0
 73
     0
 74
     5
  7

 75
    16
147
1.0
148
0.0
149
0.0
100
AcDbLayout
  1
Layout1
 70
     1
 71
     1
 10
0.0
 20
0.0
 11
3000.0
 21
4500.0
 12
0.0
 22
0.0
 32
0.0
 14
0.0
 24
0.0
 34
0.0
 15
3000.0
 25
4500.0
 35
0.0
146
0.0
 13
0.0
 23
0.0
 33
0.0
 16
1.0
 26
0.0
 36
0.0
 17
0.0
 27
1.0
 37
0.0
 76
     0
330
1B
  0
LAYOUT
  5
22
102
{ACAD_REACTORS
330
1A
102
}
330
1A
100
AcDbPlotSettings
  1

  2
none_device
  4

  6

 40
0.0
 41
0.0
 42
0.0
 43
0.0
 44
0.0
 45
0.0
 46
0.0
 47
0.0
 48
0.0
 49
0.0
140
0.0
141
0.0
142
1.0
143
1.0
 70
  1712
 72
     0
 73
     0
 74
     0
  7

 75
     0
147
1.0
148
0.0
149
0.0
100
AcDbLayout
  1
Model
 70
     1
 71
     0
 10
0.0
 20
0.0
 11
3000.0
 21
4500.0
 12
0.0
 22
0.0
 32
0.0
 14
0.0
 24
0.0
 34
0.0
 15
3000.0
 25
4500.0
 35
0.0
146
0.0
 13
0.0
 23
0.0
 33
0.0
 16
1.0
 26
0.0
 36
0.0
 17
0.0
 27
1.0
 37
0.0
 76
     0
330
1F
331
29
  0
MLINESTYLE
  5
18
102
{ACAD_REACTORS
330
17
102
}
330
17
100
AcDbMlineStyle
  2
Standard
 70
     0
  3

 62
   256
 51
90.0
 52
90.0
 71
     2
 49
0.5
 62
   256
  6
BYLAYER
 49
-0.5
 62
   256
  6
BYLAYER
  0
ACDBPLACEHOLDER
  5
F
102
{ACAD_REACTORS
330
E
102
}
330
E
  0
SCALE
  5
3C
102
{ACAD_REACTORS
330
3B
102
}
330
3B
100
AcDbScale
 70
     0
300
1:1
140
1.0
141
1.0
290
     1
  0
SCALE
  5
3D
102
{ACAD_REACTORS
330
3B
102
}
330
3B
100
AcDbScale
 70
     0
300
1:2
140
1.0
141
2.0
290
     0
  0
SCALE
  5
3E
102
{ACAD_REACTORS
330
3B
102
}
330
3B
100
AcDbScale
 70
     0
300
1:4
140
1.0
141
4.0
290
     0
  0
SCALE
  5
3F
102
{ACAD_REACTORS
330
3B
102
}
330
3B
100
AcDbScale
 70
     0
300
1:5
140
1.0
141
5.0
290
     0
  0
SCALE
  5
40
102
{ACAD_REACTORS
330
3B
102
}
330
3B
100
AcDbScale
 70
     0
300
1:8
140
1.0
141
8.0
290
     0
  0
SCALE
  5
41
102
{ACAD_REACTORS
330
3B
102
}
330
3B
100
AcDbScale
 70
     0
300
1:10
140
1.0
141
10.0
290
     0
  0
SCALE
  5
42
102
{ACAD_REACTORS
330
3B
102
}
330
3B
100
AcDbScale
 70
     0
300
1:16
140
1.0
141
16.0
290
     0
  0
SCALE
  5
43
102
{ACAD_REACTORS
330
3B
102
}
330
3B
100
AcDbScale
 70
     0
300
1:20
140
1.0
141
20.0
290
     0
  0
SCALE
  5
44
102
{ACAD_REACTORS
330
3B
102
}
330
3B
100
AcDbScale
 70
     0
300
1:30
140
1.0
141
30.0
290
     0
  0
SCALE
  5
45
102
{ACAD_REACTORS
330
3B
102
}
330
3B
100
AcDbScale
 70
     0
300
1:40
140
1.0
141
40.0
290
     0
  0
SCALE
  5
46
102
{ACAD_REACTORS
330
3B
102
}
330
3B
100
AcDbScale
 70
     0
300
1:50
140
1.0
141
50.0
290
     0
  0
SCALE
  5
47
102
{ACAD_REACTORS
330
3B
102
}
330
3B
100
AcDbScale
 70
     0
300
1:100
140
1.0
141
100.0
290
     0
  0
SCALE
  5
48
102
{ACAD_REACTORS
330
3B
102
}
330
3B
100
AcDbScale
 70
     0
300
2:1
140
2.0
141
1.0
290
     0
  0
SCALE
  5
49
102
{ACAD_REACTORS
330
3B
102
}
330
3B
100
AcDbScale
 70
     0
300
4:1
140
4.0
141
1.0
290
     0
  0
SCALE
  5
4A
102
{ACAD_REACTORS
330
3B
102
}
330
3B
100
AcDbScale
 70
     0
300
8:1
140
8.0
141
1.0
290
     0
  0
SCALE
  5
4B
102
{ACAD_REACTORS
330
3B
102
}
330
3B
100
AcDbScale
 70
     0
300
10:1
140
10.0
141
1.0
290
     0
  0
SCALE
  5
4C
102
{ACAD_REACTORS
330
3B
102
}
330
3B
100
AcDbScale
 70
     0
300
100:1
140
100.0
141
1.0
290
     0
  0
SCALE
  5
4D
102
{ACAD_REACTORS
330
3B
102
}
330
3B
100
AcDbScale
 70
     0
300
1/128" = 1'-0"
140
0.0078125
141
12.0
290
     0
  0
SCALE
  5
4E
102
{ACAD_REACTORS
330
3B
102
}
330
3B
100
AcDbScale
 70
     0
300
1/64" = 1'-0"
140
0.015625
141
12.0
290
     0
  0
SCALE
  5
4F
102
{ACAD_REACTORS
330
3B
102
}
330
3B
100
AcDbScale
 70
     0
300
1/32" = 1'-0"
140
0.03125
141
12.0
290
     0
  0
SCALE
  5
50
102
{ACAD_REACTORS
330
3B
102
}
330
3B
100
AcDbScale
 70
     0
300
1/16" = 1'-0"
140
0.0625
141
12.0
290
     0
  0
SCALE
  5
51
102
{ACAD_REACTORS
330
3B
102
}
330
3B
100
AcDbScale
 70
     0
300
3/32" = 1'-0"
140
0.09375
141
12.0
290
     0
  0
SCALE
  5
52
102
{ACAD_REACTORS
330
3B
102
}
330
3B
100
AcDbScale
 70
     0
300
1/8" = 1'-0"
140
0.125
141
12.0
290
     0
  0
SCALE
  5
53
102
{ACAD_REACTORS
330
3B
102
}
330
3B
100
AcDbScale
 70
     0
300
3/16" = 1'-0"
140
0.1875
141
12.0
290
     0
  0
SCALE
  5
54
102
{ACAD_REACTORS
330
3B
102
}
330
3B
100
AcDbScale
 70
     0
300
1/4" = 1'-0"
140
0.25
141
12.0
290
     0
  0
SCALE
  5
55
102
{ACAD_REACTORS
330
3B
102
}
330
3B
100
AcDbScale
 70
     0
300
3/8" = 1'-0"
140
0.375
141
12.0
290
     0
  0
SCALE
  5
56
102
{ACAD_REACTORS
330
3B
102
}
330
3B
100
AcDbScale
 70
     0
300
1/2" = 1'-0"
140
0.5
141
12.0
290
     0
  0
SCALE
  5
57
102
{ACAD_REACTORS
330
3B
102
}
330
3B
100
AcDbScale
 70
     0
300
3/4" = 1'-0"
140
0.75
141
12.0
290
     0
  0
SCALE
  5
58
102
{ACAD_REACTORS
330
3B
102
}
330
3B
100
AcDbScale
 70
     0
300
1" = 1'-0"
140
1.0
141
12.0
290
     0
  0
SCALE
  5
59
102
{ACAD_REACTORS
330
3B
102
}
330
3B
100
AcDbScale
 70
     0
300
1-1/2" = 1'-0"
140
1.5
141
12.0
290
     0
  0
SCALE
  5
5A
102
{ACAD_REACTORS
330
3B
102
}
330
3B
100
AcDbScale
 70
     0
300
3" = 1'-0"
140
3.0
141
12.0
290
     0
  0
SCALE
  5
5B
102
{ACAD_REACTORS
330
3B
102
}
330
3B
100
AcDbScale
 70
     0
300
6" = 1'-0"
140
6.0
141
12.0
290
     0
  0
SCALE
  5
5C
102
{ACAD_REACTORS
330
3B
102
}
330
3B
100
AcDbScale
 70
     0
300
1'-0" = 1'-0"
140
12.0
141
12.0
290
     0
  0
VISUALSTYLE
  5
2F
102
{ACAD_REACTORS
330
2A
102
}
330
2A
100
AcDbVisualStyle
  2
2dWireframe
 70
     4
 71
     0
 72
     2
 73
     0
 90
        0
 40
-0.6
 41
-30.0
 62
     5
 63
     7
 74
     1
 91
        4
 64
     7
 65
   257
 75
     1
175
     1
 42
1.0
 92
        0
 66
   257
 43
1.0
 76
     1
 77
     6
 78
     2
 67
     7
 79
     5
170
     0
171
     0
290
     0
174
     0
 93
        1
 44
0.0
173
     0
291
     0
 45
0.0
1001
ACAD
1000
AcDbSavedByObjectVersion
1070
     0
  0
VISUALSTYLE
  5
31
102
{ACAD_REACTORS
330
2A
102
}
330
2A
100
AcDbVisualStyle
  2
3D Hidden
 70
     6
 71
     1
 72
     2
 73
     2
 90
        0
 40
-0.6
 41
-30.0
 62
     5
 63
     7
 74
     2
 91
        2
 64
     7
 65
   257
 75
     2
175
     1
 42
40.0
 92
        0
 66
   257
 43
1.0
 76
     1
 77
     6
 78
     2
 67
     7
 79
     3
170
     0
171
     0
290
     0
174
     0
 93
        1
 44
0.0
173
     0
291
     0
 45
0.0
1001
ACAD
1000
AcDbSavedByObjectVersion
1070
     0
  0
VISUALSTYLE
  5
30
102
{ACAD_REACTORS
330
2A
102
}
330
2A
100
AcDbVisualStyle
  2
3dWireframe
 70
     5
 71
     0
 72
     2
 73
     0
 90
        0
 40
-0.6
 41
-30.0
 62
     5
 63
     7
 74
     1
 91
        4
 64
     7
 65
   257
 75
     1
175
     1
 42
1.0
 92
        0
 66
   257
 43
1.0
 76
     1
 77
     6
 78
     2
 67
     7
 79
     5
170
     0
171
     0
290
     0
174
     0
 93
        1
 44
0.0
173
     0
291
     0
 45
0.0
1001
ACAD
1000
AcDbSavedByObjectVersion
1070
     0
  0
VISUALSTYLE
  5
32
102
{ACAD_REACTORS
330
2A
102
}
330
2A
100
AcDbVisualStyle
  2
Basic
 70
     7
 71
     1
 72
     0
 73
     1
 90
        0
 40
-0.6
 41
-30.0
 62
     5
 63
     7
 74
     0
 91
        4
 64
     7
 65
   257
 75
     1
175
     1
 42
1.0
 92
        8
 66
     7
 43
1.0
 76
     1
 77
     6
 78
     2
 67
     7
 79
     5
170
     0
171
     0
290
     0
174
     0
 93
        1
 44
0.0
173
     0
291
     1
 45
0.0
1001
ACAD
1000
AcDbSavedByObjectVersion
1070
     0
  0
VISUALSTYLE
  5
36
102
{ACAD_REACTORS
330
2A
102
}
330
2A
100
AcDbVisualStyle
  2
Brighten
 70
    12
 71
     2
 72
     2
 73
     0
 90
        0
 40
-0.6
 41
-30.0
 62
     5
 63
     7
 74
     1
 91
        4
 64
     7
 65
   257
 75
     1
175
     1
 42
1.0
 92
        8
 66
     7
 43
1.0
 76
     1
 77
     6
 78
     2
 67
     7
 79
     5
170
     0
171
     0
290
     0
174
     0
 93
        1
 44
50.0
173
     0
291
     1
 45
0.0
1001
ACAD
1000
AcDbSavedByObjectVersion
1070
     0
  0
VISUALSTYLE
  5
3A
102
{ACAD_REACTORS
330
2A
102
}
330
2A
100
AcDbVisualStyle
  2
ColorChange
 70
    16
 71
     2
 72
     2
 73
     3
 90
        0
 40
-0.6
 41
-30.0
 62
     5
 63
     8
 74
     1
 91
        4
 64
     7
 65
   257
 75
     1
175
     1
 42
1.0
 92
        8
 66
     8
 43
1.0
 76
     1
 77
     6
 78
     2
 67
     7
 79
     5
170
     0
171
     0
290
     0
174
     0
 93
        1
 44
0.0
173
     0
291
     1
 45
0.0
1001
ACAD
1000
AcDbSavedByObjectVersion
1070
     0
  0
VISUALSTYLE
  5
34
102
{ACAD_REACTORS
330
2A
102
}
330
2A
100
AcDbVisualStyle
  2
Conceptual
 70
     9
 71
     3
 72
     2
 73
     0
 90
        0
 40
-0.6
 41
-30.0
 62
     5
 63
     7
 74
     2
 91
        2
 64
     7
 65
   257
 75
     1
175
     1
 42
40.0
 92
        8
 66
     7
 43
1.0
 76
     1
 77
     6
 78
     2
 67
     7
 79
     3
170
     0
171
     0
290
     0
174
     0
 93
        1
 44
0.0
173
     0
291
     0
 45
0.0
1001
ACAD
1000
AcDbSavedByObjectVersion
1070
     0
  0
VISUALSTYLE
  5
35
102
{ACAD_REACTORS
330
2A
102
}
330
2A
100
AcDbVisualStyle
  2
Dim
 70
    11
 71
     2
 72
     2
 73
     0
 90
        0
 40
-0.6
 41
-30.0
 62
     5
 63
     7
 74
     1
 91
        4
 64
     7
 65
   257
 75
     1
175
     1
 42
1.0
 92
        8
 66
     7
 43
1.0
 76
     1
 77
     6
 78
     2
 67
     7
 79
     5
170
     0
171
     0
290
     0
174
     0
 93
        1
 44
-50.0
173
     0
291
     1
 45
0.0
1001
ACAD
1000
AcDbSavedByObjectVersion
1070
     0
  0
VISUALSTYLE
  5
39
102
{ACAD_REACTORS
330
2A
102
}
330
2A
100
AcDbVisualStyle
  2
Facepattern
 70
    15
 71
     2
 72
     2
 73
     0
 90
        0
 40
-0.6
 41
-30.0
 62
     5
 63
     7
 74
     1
 91
        4
 64
     7
 65
   257
 75
     1
175
     1
 42
1.0
 92
        8
 66
     7
 43
1.0
 76
     1
 77
     6
 78
     2
 67
     7
 79
     5
170
     0
171
     0
290
     0
174
     0
 93
        1
 44
0.0
173
     0
291
     1
 45
0.0
1001
ACAD
1000
AcDbSavedByObjectVersion
1070
     0
  0
VISUALSTYLE
  5
2B
102
{ACAD_REACTORS
330
2A
102
}
330
2A
100
AcDbVisualStyle
  2
Flat
 70
     0
 71
     2
 72
     1
 73
     1
 90
        2
 40
-0.6
 41
30.0
 62
     5
 63
     7
 74
     0
 91
        4
 64
     7
 65
   257
 75
     1
175
     1
 42
1.0
 92
        8
 66
     7
 43
1.0
 76
     1
 77
     6
 78
     2
 67
     7
 79
     5
170
     0
171
     0
290
     0
174
     0
 93
       13
 44
0.0
173
     0
291
     1
 45
0.0
1001
ACAD
1000
AcDbSavedByObjectVersion
1070
     0
  0
VISUALSTYLE
  5
2C
102
{ACAD_REACTORS
330
2A
102
}
330
2A
100
AcDbVisualStyle
  2
FlatWithEdges
 70
     1
 71
     2
 72
     1
 73
     1
 90
        2
 40
-0.6
 41
30.0
 62
     5
 63
     7
 74
     1
 91
        4
 64
     7
 65
   257
 75
     1
175
     1
 42
1.0
 92
        0
 66
   257
 43
1.0
 76
     1
 77
     6
 78
     2
 67
     7
 79
     5
170
     0
171
     0
290
     0
174
     0
 93
       13
 44
0.0
173
     0
291
     1
 45
0.0
1001
ACAD
1000
AcDbSavedByObjectVersion
1070
     0
  0
VISUALSTYLE
  5
2D
102
{ACAD_REACTORS
330
2A
102
}
330
2A
100
AcDbVisualStyle
  2
Gouraud
 70
     2
 71
     2
 72
     2
 73
     1
 90
        2
 40
-0.6
 41
30.0
 62
     5
 63
     7
 74
     0
 91
        4
 64
     7
 65
   257
 75
     1
175
     1
 42
1.0
 92
        0
 66
     7
 43
1.0
 76
     1
 77
     6
 78
     2
 67
     7
 79
     5
170
     0
171
     0
290
     0
174
     0
 93
       13
 44
0.0
173
     0
291
     1
 45
0.0
1001
ACAD
1000
AcDbSavedByObjectVersion
1070
     0
  0
VISUALSTYLE
  5
2E
102
{ACAD_REACTORS
330
2A
102
}
330
2A
100
AcDbVisualStyle
  2
GouraudWithEdges
 70
     3
 71
     2
 72
     2
 73
     1
 90
        2
 40
-0.6
 41
30.0
 62
     5
 63
     7
 74
     1
 91
        4
 64
     7
 65
   257
 75
     1
175
     1
 42
1.0
 92
        0
 66
   257
 43
1.0
 76
     1
 77
     6
 78
     2
 67
     7
 79
     5
170
     0
171
     0
290
     0
174
     0
 93
       13
 44
0.0
173
     0
291
     1
 45
0.0
1001
ACAD
1000
AcDbSavedByObjectVersion
1070
     0
  0
VISUALSTYLE
  5
38
102
{ACAD_REACTORS
330
2A
102
}
330
2A
100
AcDbVisualStyle
  2
Linepattern
 70
    14
 71
     2
 72
     2
 73
     0
 90
        0
 40
-0.6
 41
-30.0
 62
     5
 63
     7
 74
     1
 91
        4
 64
     7
 65
   257
 75
     7
175
     7
 42
1.0
 92
        8
 66
     7
 43
1.0
 76
     1
 77
     6
 78
     2
 67
     7
 79
     5
170
     0
171
     0
290
     0
174
     0
 93
        1
 44
0.0
173
     0
291
     1
 45
0.0
1001
ACAD
1000
AcDbSavedByObjectVersion
1070
     0
  0
VISUALSTYLE
  5
33
102
{ACAD_REACTORS
330
2A
102
}
330
2A
100
AcDbVisualStyle
  2
Realistic
 70
     8
 71
     2
 72
     2
 73
     0
 90
        0
 40
-0.6
 41
-30.0
 62
     5
 63
     7
 74
     1
 91
        0
 64
     7
 65
   257
 75
     1
175
     1
 42
1.0
 92
        8
 66
     8
 43
1.0
 76
     1
 77
     6
 78
     2
 67
     7
 79
     5
170
     0
171
     0
290
     0
174
     0
 93
       13
 44
0.0
173
     0
291
     0
 45
0.0
1001
ACAD
1000
AcDbSavedByObjectVersion
1070
     0
  0
VISUALSTYLE
  5
37
102
{ACAD_REACTORS
330
2A
102
}
330
2A
100
AcDbVisualStyle
  2
Thicken
 70
    13
 71
     2
 72
     2
 73
     0
 90
        0
 40
-0.6
 41
-30.0
 62
     5
 63
     7
 74
     1
 91
        4
 64
     7
 65
   257
 75
     1
175
     1
 42
1.0
 92
       12
 66
     7
 43
1.0
 76
     1
 77
     6
 78
     2
 67
     7
 79
     5
170
     0
171
     0
290
     0
174
     0
 93
        1
 44
0.0
173
     0
291
     1
 45
0.0
1001
ACAD
1000
AcDbSavedByObjectVersion
1070
     0
  0
DICTIONARYVAR
  5
331
102
{ACAD_REACTORS
330
330
102
}
330
330
100
DictionaryVariables
280
     0
  1
1:1
  0
DICTIONARYVAR
  5
335
102
{ACAD_REACTORS
330
330
102
}
330
330
100
DictionaryVariables
280
     0
  1
80.000000
  0
DICTIONARYVAR
  5
334
102
{ACAD_REACTORS
330
330
102
}
330
330
100
DictionaryVariables
280
     0
  1
5.000000
  0
ENDSEC
  0
EOF
