  0
SECTION
  2
HEADER
  9
$ACADVER
  1
AC1015
  9
$ACADMAINTVER
 70
     6
  9
$DWGCODEPAGE
  3
ANSI_1252
  9
$INSBASE
 10
0.0
 20
0.0
 30
0.0
  9
$EXTMIN
 10
0.0
 20
0.0
 30
0.0
  9
$EXTMAX
 10
3000.0
 20
4500.0
 30
0.0
  9
$LIMMIN
 10
0.0
 20
0.0
  9
$LIMMAX
 10
3000.0
 20
4500.0
  9
$ORTHOMODE
 70
     0
  9
$REGENMODE
 70
     1
  9
$FILLMODE
 70
     1
  9
$QTEXTMODE
 70
     0
  9
$MIRRTEXT
 70
     1
  9
$LTSCALE
 40
1.0
  9
$ATTMODE
 70
     1
  9
$TEXTSIZE
 40
2.5
  9
$TRACEWID
 40
1.0
  9
$TEXTSTYLE
  7
Standard
  9
$CLAYER
  8
0
  9
$CELTYPE
  6
ByLayer
  9
$CECOLOR
 62
   256
  9
$CELTSCALE
 40
1.0
  9
$DISPSILH
 70
     0
  9
$DIMSCALE
 40
1.0
  9
$DIMASZ
 40
2.5
  9
$DIMEXO
 40
0.625
  9
$DIMDLI
 40
3.75
  9
$DIMRND
 40
0.0
  9
$DIMDLE
 40
0.0
  9
$DIMEXE
 40
1.25
  9
$DIMTP
 40
0.0
  9
$DIMTM
 40
0.0
  9
$DIMTXT
 40
2.5
  9
$DIMCEN
 40
2.5
  9
$DIMTSZ
 40
0.0
  9
$DIMTOL
 70
     0
  9
$DIMLIM
 70
     0
  9
$DIMTIH
 70
     0
  9
$DIMTOH
 70
     0
  9
$DIMSE1
 70
     0
  9
$DIMSE2
 70
     0
  9
$DIMTAD
 70
     1
  9
$DIMZIN
 70
     8
  9
$DIMBLK
  1

  9
$DIMASO
 70
     1
  9
$DIMSHO
 70
     1
  9
$DIMPOST
  1

  9
$DIMAPOST
  1

  9
$DIMALT
 70
     0
  9
$DIMALTD
 70
     3
  9
$DIMALTF
 40
0.0393700787
  9
$DIMLFAC
 40
1.0
  9
$DIMTOFL
 70
     1
  9
$DIMTVP
 40
0.0
  9
$DIMTIX
 70
     0
  9
$DIMSOXD
 70
     0
  9
$DIMSAH
 70
     0
  9
$DIMBLK1
  1

  9
$DIMBLK2
  1

  9
$DIMSTYLE
  2
ISO-25
  9
$DIMCLRD
 70
     0
  9
$DIMCLRE
 70
     0
  9
$DIMCLRT
 70
     0
  9
$DIMTFAC
 40
1.0
  9
$DIMGAP
 40
0.625
  9
$DIMJUST
 70
     0
  9
$DIMSD1
 70
     0
  9
$DIMSD2
 70
     0
  9
$DIMTOLJ
 70
     0
  9
$DIMTZIN
 70
     8
  9
$DIMALTZ
 70
     0
  9
$DIMALTTZ
 70
     0
  9
$DIMUPT
 70
     0
  9
$DIMDEC
 70
     2
  9
$DIMTDEC
 70
     2
  9
$DIMALTU
 70
     2
  9
$DIMALTTD
 70
     3
  9
$DIMTXSTY
  7
Standard
  9
$DIMAUNIT
 70
     0
  9
$DIMADEC
 70
     0
  9
$DIMALTRND
 40
0.0
  9
$DIMAZIN
 70
     0
  9
$DIMDSEP
 70
    44
  9
$DIMATFIT
 70
     3
  9
$DIMFRAC
 70
     0
  9
$DIMLDRBLK
  1

  9
$DIMLUNIT
 70
     2
  9
$DIMLWD
 70
    -2
  9
$DIMLWE
 70
    -2
  9
$DIMTMOVE
 70
     0
  9
$LUNITS
 70
     2
  9
$LUPREC
 70
     4
  9
$SKETCHINC
 40
1.0
  9
$FILLETRAD
 40
10.0
  9
$AUNITS
 70
     0
  9
$AUPREC
 70
     0
  9
$MENU
  1
.
  9
$ELEVATION
 40
0.0
  9
$PELEVATION
 40
0.0
  9
$THICKNESS
 40
0.0
  9
$LIMCHECK
 70
     0
  9
$CHAMFERA
 40
10.0
  9
$CHAMFERB
 40
10.0
  9
$CHAMFERC
 40
20.0
  9
$CHAMFERD
 40
0.0
  9
$SKPOLY
 70
     0
  9
$TDCREATE
 40
2456345.425495602
  9
$TDUCREATE
 40
2456345.383828935
  9
$TDUPDATE
 40
2456345.425495613
  9
$TDUUPDATE
 40
2456345.383828947
  9
$TDINDWG
 40
0.0000000116
  9
$TDUSRTIMER
 40
0.0000000116
  9
$USRTIMER
 70
     1
  9
$ANGBASE
 50
0.0
  9
$ANGDIR
 70
     0
  9
$PDMODE
 70
     0
  9
$PDSIZE
 40
0.0
  9
$PLINEWID
 40
0.0
  9
$SPLFRAME
 70
     0
  9
$SPLINETYPE
 70
     6
  9
$SPLINESEGS
 70
     8
  9
$HANDSEED
  5
25C
  9
$SURFTAB1
 70
     6
  9
$SURFTAB2
 70
     6
  9
$SURFTYPE
 70
     6
  9
$SURFU
 70
     6
  9
$SURFV
 70
     6
  9
$UCSBASE
  2

  9
$UCSNAME
  2

  9
$UCSORG
 10
0.0
 20
0.0
 30
0.0
  9
$UCSXDIR
 10
1.0
 20
0.0
 30
0.0
  9
$UCSYDIR
 10
0.0
 20
1.0
 30
0.0
  9
$UCSORTHOREF
  2

  9
$UCSORTHOVIEW
 70
     0
  9
$UCSORGTOP
 10
0.0
 20
0.0
 30
0.0
  9
$UCSORGBOTTOM
 10
0.0
 20
0.0
 30
0.0
  9
$UCSORGLEFT
 10
0.0
 20
0.0
 30
0.0
  9
$UCSORGRIGHT
 10
0.0
 20
0.0
 30
0.0
  9
$UCSORGFRONT
 10
0.0
 20
0.0
 30
0.0
  9
$UCSORGBACK
 10
0.0
 20
0.0
 30
0.0
  9
$PUCSBASE
  2

  9
$PUCSNAME
  2

  9
$PUCSORG
 10
0.0
 20
0.0
 30
0.0
  9
$PUCSXDIR
 10
1.0
 20
0.0
 30
0.0
  9
$PUCSYDIR
 10
0.0
 20
1.0
 30
0.0
  9
$PUCSORTHOREF
  2

  9
$PUCSORTHOVIEW
 70
     0
  9
$PUCSORGTOP
 10
0.0
 20
0.0
 30
0.0
  9
$PUCSORGBOTTOM
 10
0.0
 20
0.0
 30
0.0
  9
$PUCSORGLEFT
 10
0.0
 20
0.0
 30
0.0
  9
$PUCSORGRIGHT
 10
0.0
 20
0.0
 30
0.0
  9
$PUCSORGFRONT
 10
0.0
 20
0.0
 30
0.0
  9
$PUCSORGBACK
 10
0.0
 20
0.0
 30
0.0
  9
$USERI1
 70
     0
  9
$USERI2
 70
     0
  9
$USERI3
 70
     0
  9
$USERI4
 70
     0
  9
$USERI5
 70
     0
  9
$USERR1
 40
0.0
  9
$USERR2
 40
0.0
  9
$USERR3
 40
0.0
  9
$USERR4
 40
0.0
  9
$USERR5
 40
0.0
  9
$WORLDVIEW
 70
     1
  9
$SHADEDGE
 70
     3
  9
$SHADEDIF
 70
    70
  9
$TILEMODE
 70
     1
  9
$MAXACTVP
 70
    64
  9
$PINSBASE
 10
0.0
 20
0.0
 30
0.0
  9
$PLIMCHECK
 70
     0
  9
$PEXTMIN
 10
0.0
 20
0.0
 30
0.0
  9
$PEXTMAX
 10
3000.0
 20
4500.0
 30
0.0
  9
$PLIMMIN
 10
0.0
 20
0.0
  9
$PLIMMAX
 10
3000.0
 20
4500.0
  9
$UNITMODE
 70
     0
  9
$VISRETAIN
 70
     1
  9
$PLINEGEN
 70
     0
  9
$PSLTSCALE
 70
     1
  9
$TREEDEPTH
 70
  3020
  9
$CMLSTYLE
  2
Standard
  9
$CMLJUST
 70
     0
  9
$CMLSCALE
 40
20.0
  9
$PROXYGRAPHICS
 70
     1
  9
$MEASUREMENT
 70
     1
  9
$CELWEIGHT
370
    -1
  9
$ENDCAPS
280
     0
  9
$JOINSTYLE
280
     0
  9
$LWDISPLAY
290
     0
  9
$INSUNITS
 70
     4
  9
$HYPERLINKBASE
  1

  9
$STYLESHEET
  1

  9
$XEDIT
290
     1
  9
$CEPSNTYPE
380
     0
  9
$PSTYLEMODE
290
     1
  9
$FINGERPRINTGUID
  2
{E1E7E3FC-94F6-4650-9368-2E13DD0B34E2}
  9
$VERSIONGUID
  2
{FAEB1C32-E019-11D5-929B-00C0DF256EC4}
  9
$EXTNAMES
290
     1
  9
$PSVPSCALE
 40
0.0
  9
$OLESTARTUP
290
     0
  0
ENDSEC
  0
SECTION
  2
CLASSES
  0
CLASS
  1
ACDBDICTIONARYWDFLT
  2
AcDbDictionaryWithDefault
  3
ObjectDBX Classes
 90
        0
280
     0
281
     0
  0
CLASS
  1
VISUALSTYLE
  2
AcDbVisualStyle
  3
ObjectDBX Classes
 90
     4095
280
     0
281
     0
  0
CLASS
  1
SCALE
  2
AcDbScale
  3
ObjectDBX Classes
 90
     1153
280
     0
281
     0
  0
CLASS
  1
DICTIONARYVAR
  2
AcDbDictionaryVar
  3
ObjectDBX Classes
 90
        0
280
     0
281
     0
  0
CLASS
  1
ACDBPLACEHOLDER
  2
AcDbPlaceHolder
  3
ObjectDBX Classes
 90
        0
280
     0
281
     0
  0
CLASS
  1
LAYOUT
  2
AcDbLayout
  3
ObjectDBX Classes
 90
        0
280
     0
281
     0
  0
ENDSEC
  0
SECTION
  2
TABLES
  0
TABLE
  2
VPORT
  5
8
330
0
100
AcDbSymbolTable
 70
     1
  0
VPORT
  5
29
330
8
100
AcDbSymbolTableRecord
100
AcDbViewportTableRecord
  2
*Active
 70
     0
 10
0.0
 20
0.0
 11
1.0
 21
1.0
 12
344.1869158879
 22
148.5
 13
0.0
 23
0.0
 14
10.0
 24
10.0
 15
10.0
 25
10.0
 16
0.0
 26
0.0
 36
1.0
 17
0.0
 27
0.0
 37
0.0
 40
297.0
 41
1.9729729729
 42
50.0
 43
0.0
 44
0.0
 50
0.0
 51
0.0
 71
     0
 72
   100
 73
     1
 74
     3
 75
     0
 76
     0
 77
     0
 78
     0
281
     0
 65
     1
110
0.0
120
0.0
130
0.0
111
1.0
121
0.0
131
0.0
112
0.0
122
1.0
132
0.0
 79
     0
146
0.0
  0
ENDTAB
  0
TABLE
  2
LTYPE
  5
5
330
0
100
AcDbSymbolTable
 70
     1
  0
LTYPE
  5
14
330
5
100
AcDbSymbolTableRecord
100
AcDbLinetypeTableRecord
  2
ByBlock
 70
     0
  3

 72
    65
 73
     0
 40
0.0
  0
LTYPE
  5
15
330
5
100
AcDbSymbolTableRecord
100
AcDbLinetypeTableRecord
  2
ByLayer
 70
     0
  3

 72
    65
 73
     0
 40
0.0
  0
LTYPE
  5
16
330
5
100
AcDbSymbolTableRecord
100
AcDbLinetypeTableRecord
  2
Continuous
 70
     0
  3
Solid line
 72
    65
 73
     0
 40
0.0
  0
ENDTAB
  0
TABLE
  2
LAYER
  5
2
330
0
100
AcDbSymbolTable
 70
     5
  0
LAYER
  5
10
330
2
100
AcDbSymbolTableRecord
100
AcDbLayerTableRecord
  2
0
 70
     0
 62
     7
  6
Continuous
370
    -3
390
F
  0
LAYER
  5
5D
330
2
100
AcDbSymbolTableRecord
100
AcDbLayerTableRecord
  2
Default
 70
     0
 62
     7
  6
Continuous
370
    -3
390
F
  0
LAYER
  5
60
330
2
100
AcDbSymbolTableRecord
100
AcDbLayerTableRecord
  2
DV1_Default
 70
     0
 62
     7
  6
Continuous
370
    -3
390
F
  0
LAYER
  5
F7
330
2
100
AcDbSymbolTableRecord
100
AcDbLayerTableRecord
  2
DV2_Default
 70
     0
 62
     7
  6
Continuous
370
    -3
390
F
  0
LAYER
  5
17A
330
2
100
AcDbSymbolTableRecord
100
AcDbLayerTableRecord
  2
DV3_Default
 70
     0
 62
     7
  6
Continuous
370
    -3
390
F
  0
ENDTAB
  0
TABLE
  2
STYLE
  5
3
330
0
100
AcDbSymbolTable
 70
     2
  0
STYLE
  5
11
330
3
100
AcDbSymbolTableRecord
100
AcDbTextStyleTableRecord
  2
Standard
 70
     0
 40
0.0
 41
1.0
 50
0.0
 71
     0
 42
2.5
  3
txt
  4

  0
STYLE
  5
24B
330
3
100
AcDbSymbolTableRecord
100
AcDbTextStyleTableRecord
  2
SEACAD_seiso_ttf
 70
     0
 40
0.0
 41
1.0
 50
0.0
 71
     0
 42
0.2
  3
seiso.ttf
  4

  0
ENDTAB
  0
TABLE
  2
VIEW
  5
6
330
0
100
AcDbSymbolTable
 70
     0
  0
ENDTAB
  0
TABLE
  2
UCS
  5
7
330
0
100
AcDbSymbolTable
 70
     0
  0
ENDTAB
  0
TABLE
  2
APPID
  5
9
330
0
100
AcDbSymbolTable
 70
     1
  0
APPID
  5
12
330
9
100
AcDbSymbolTableRecord
100
AcDbRegAppTableRecord
  2
ACAD
 70
     0
  0
ENDTAB
  0
TABLE
  2
DIMSTYLE
  5
A
330
0
100
AcDbSymbolTable
 70
     1
100
AcDbDimStyleTable
  0
DIMSTYLE
105
27
330
A
100
AcDbSymbolTableRecord
100
AcDbDimStyleTableRecord
  2
ISO-25
 70
     0
 41
2.5
 42
0.625
 43
3.75
 44
1.25
 73
     0
 74
     0
 77
     1
 78
     8
140
2.5
141
2.5
143
0.0393700787
147
0.625
171
     3
172
     1
271
     2
272
     2
274
     3
278
    44
283
     0
284
     8
340
11
  0
ENDTAB
  0
TABLE
  2
BLOCK_RECORD
  5
1
330
0
100
AcDbSymbolTable
 70
     4
  0
BLOCK_RECORD
  5
1F
330
1
100
AcDbSymbolTableRecord
100
AcDbBlockTableRecord
  2
*Model_Space
340
22
  0
BLOCK_RECORD
  5
1B
330
1
100
AcDbSymbolTableRecord
100
AcDbBlockTableRecord
  2
*Paper_Space
340
1E
  0
BLOCK_RECORD
  5
5E
330
1
100
AcDbSymbolTableRecord
100
AcDbBlockTableRecord
  2
SE
340
0
102
{BLKREFS
331
5F
102
}
  0
BLOCK_RECORD
  5
F5
330
1
100
AcDbSymbolTableRecord
100
AcDbBlockTableRecord
  2
SE1
340
0
102
{BLKREFS
331
F6
102
}
  0
BLOCK_RECORD
  5
178
330
1
100
AcDbSymbolTableRecord
100
AcDbBlockTableRecord
  2
SE2
340
0
102
{BLKREFS
331
179
102
}
  0
ENDTAB
  0
ENDSEC
  0
SECTION
  2
BLOCKS
  0
BLOCK
  5
20
330
1F
100
AcDbEntity
  8
0
100
AcDbBlockBegin
  2
*Model_Space
 70
     0
 10
0.0
 20
0.0
 30
0.0
  3
*Model_Space
  1

  0
ENDBLK
  5
21
330
1F
100
AcDbEntity
  8
0
100
AcDbBlockEnd
  0
BLOCK
  5
1C
330
1B
100
AcDbEntity
 67
     1
  8
0
100
AcDbBlockBegin
  2
*Paper_Space
 70
     0
 10
0.0
 20
0.0
 30
0.0
  3
*Paper_Space
  1

  0
ENDBLK
  5
1D
330
1B
100
AcDbEntity
 67
     1
  8
0
100
AcDbBlockEnd
  0
BLOCK
  5
F3
330
5E
100
AcDbEntity
  8
0
100
AcDbBlockBegin
  2
SE
 70
     0
 10
0.0
 20
0.0
 30
0.0
  3
SE
  1

  0
LINE
  5
61
330
5E
100
AcDbEntity
  8
DV1_Default
  6
Continuous
 62
     7
100
AcDbLine
 10
212.550668705
 20
532.9219153776
 30
0.0
 11
218.750668705
 21
532.9219153776
 31
0.0
  0
LINE
  5
62
330
5E
100
AcDbEntity
  8
DV1_Default
  6
Continuous
 62
     7
100
AcDbLine
 10
212.550668705
 20
532.9219153776
 30
0.0
 11
144.350668705
 21
532.9219153776
 31
0.0
  0
LINE
  5
63
330
5E
100
AcDbEntity
  8
DV1_Default
  6
Continuous
 62
     7
100
AcDbLine
 10
144.350668705
 20
532.9219153776
 30
0.0
 11
138.150668705
 21
532.9219153776
 31
0.0
  0
LINE
  5
64
330
5E
100
AcDbEntity
  8
DV1_Default
  6
Continuous
 62
     7
100
AcDbLine
 10
219.050668705
 20
533.2219153776
 30
0.0
 11
219.050668705
 21
536.4219153776
 31
0.0
  0
LINE
  5
65
330
5E
100
AcDbEntity
  8
DV1_Default
  6
Continuous
 62
     7
100
AcDbLine
 10
137.850668705
 20
536.4219153776
 30
0.0
 11
137.850668705
 21
533.2219153776
 31
0.0
  0
ARC
  5
66
330
5E
100
AcDbEntity
  8
DV1_Default
  6
Continuous
 62
     7
100
AcDbCircle
 10
219.550668705
 20
536.4219153776
 30
0.0
 40
0.5000000000000004
100
AcDbArc
 50
90.0
 51
180.0
  0
ARC
  5
67
330
5E
100
AcDbEntity
  8
DV1_Default
  6
Continuous
 62
     7
100
AcDbCircle
 10
137.350668705
 20
536.4219153776
 30
0.0
 40
0.5
100
AcDbArc
 50
0.0
 51
90.0
  0
ARC
  5
68
330
5E
100
AcDbEntity
  8
DV1_Default
  6
Continuous
 62
     7
100
AcDbCircle
 10
218.750668705
 20
533.2219153776
 30
0.0
 40
0.2999999999999999
100
AcDbArc
 50
270.0
 51
0.0
  0
ARC
  5
69
330
5E
100
AcDbEntity
  8
DV1_Default
  6
Continuous
 62
     7
100
AcDbCircle
 10
138.150668705
 20
533.2219153776
 30
0.0
 40
0.3000000000000017
100
AcDbArc
 50
180.0
 51
270.0
  0
LINE
  5
6A
330
5E
100
AcDbEntity
  8
DV1_Default
  6
Continuous
 62
     7
100
AcDbLine
 10
309.655904427
 20
553.8426406985
 30
0.0
 11
308.950668705
 21
553.8303307632
 31
0.0
  0
LINE
  5
6B
330
5E
100
AcDbEntity
  8
DV1_Default
  6
Continuous
 62
     7
100
AcDbLine
 10
308.950668705
 20
513.620869984
 30
0.0
 11
309.655904427
 21
513.6085600487
 31
0.0
  0
ARC
  5
6C
330
5E
100
AcDbEntity
  8
DV1_Default
  6
Continuous
 62
     7
100
AcDbCircle
 10
309.650668705
 20
554.142595007
 30
0.0
 40
0.2999999999999947
100
AcDbArc
 50
271.0
 51
0.0
  0
ARC
  5
6D
330
5E
100
AcDbEntity
  8
DV1_Default
  6
Continuous
 62
     7
100
AcDbCircle
 10
309.650668705
 20
513.3086057402
 30
0.0
 40
0.2999999999999978
100
AcDbArc
 50
0.0
 51
89.0
  0
LINE
  5
6E
330
5E
100
AcDbEntity
  8
DV1_Default
  6
Continuous
 62
     7
100
AcDbLine
 10
47.0454329831
 20
513.6085600487
 30
0.0
 11
47.950668705
 21
513.624360997
 31
0.0
  0
LINE
  5
6F
330
5E
100
AcDbEntity
  8
DV1_Default
  6
Continuous
 62
     7
100
AcDbLine
 10
47.950668705
 20
553.8268397502
 30
0.0
 11
47.0454329831
 21
553.8426406985
 31
0.0
  0
ARC
  5
70
330
5E
100
AcDbEntity
  8
DV1_Default
  6
Continuous
 62
     7
100
AcDbCircle
 10
47.050668705
 20
513.3086057402
 30
0.0
 40
0.2999999999999947
100
AcDbArc
 50
91.0
 51
180.0
  0
ARC
  5
71
330
5E
100
AcDbEntity
  8
DV1_Default
  6
Continuous
 62
     7
100
AcDbCircle
 10
47.050668705
 20
554.142595007
 30
0.0
 40
0.2999999999999978
100
AcDbArc
 50
180.0
 51
269.0
  0
LINE
  5
72
330
5E
100
AcDbEntity
  8
DV1_Default
  6
Continuous
 62
     7
100
AcDbLine
 10
47.0454329831
 20
513.6085600487
 30
0.0
 11
47.950668705
 21
513.624360997
 31
0.0
  0
LINE
  5
73
330
5E
100
AcDbEntity
  8
DV1_Default
  6
Continuous
 62
     7
100
AcDbLine
 10
47.950668705
 20
553.8268397502
 30
0.0
 11
47.0454329831
 21
553.8426406985
 31
0.0
  0
ARC
  5
74
330
5E
100
AcDbEntity
  8
DV1_Default
  6
Continuous
 62
     7
100
AcDbCircle
 10
47.050668705
 20
513.3086057402
 30
0.0
 40
0.2999999999999947
100
AcDbArc
 50
91.0
 51
180.0
  0
ARC
  5
75
330
5E
100
AcDbEntity
  8
DV1_Default
  6
Continuous
 62
     7
100
AcDbCircle
 10
47.050668705
 20
554.142595007
 30
0.0
 40
0.2999999999999978
100
AcDbArc
 50
180.0
 51
269.0
  0
SPLINE
  5
76
330
5E
100
AcDbEntity
  8
DV1_Default
  6
Continuous
 62
     7
100
AcDbSpline
210
0.0
220
0.0
230
1.0
 70
     8
 71
     3
 72
    10
 73
     6
 74
     0
 42
0.0000000025116143
 43
0.0000000001
 40
0.0
 40
0.0
 40
0.0
 40
0.0
 40
0.2618400580690225
 40
0.6333408869037398
 40
1.0
 40
1.0
 40
1.0
 40
1.0
 10
39.91822340259888
 20
557.6874595972217
 30
0.0
 10
39.85785232820469
 20
557.6977989694835
 30
0.0
 10
39.50740248091683
 20
557.7199024710267
 30
0.0
 10
38.19940243280379
 20
557.7276786715715
 30
0.0
 10
36.73469477661545
 20
557.728349295104
 30
0.0
 10
35.93831902487707
 20
557.7283930952586
 30
0.0
  0
SPLINE
  5
77
330
5E
100
AcDbEntity
  8
DV1_Default
  6
Continuous
 62
     7
100
AcDbSpline
210
0.0
220
0.0
230
1.0
 70
     8
 71
     3
 72
    10
 73
     6
 74
     0
 42
0.0000000025049165
 43
0.0000000001
 40
0.0
 40
0.0
 40
0.0
 40
0.0
 40
0.3469436973600244
 40
0.7199103073193506
 40
1.0
 40
1.0
 40
1.0
 40
1.0
 10
30.57817823324957
 20
557.7283852959989
 30
0.0
 10
29.82691011869218
 20
557.7283456038501
 30
0.0
 10
28.39348322580778
 20
557.7277272476613
 30
0.0
 10
27.04072059822468
 20
557.7209274987928
 30
0.0
 10
26.65636501989854
 20
557.6989827118271
 30
0.0
 10
26.587489889287
 20
557.6883396126581
 30
0.0
  0
LINE
  5
78
330
5E
100
AcDbEntity
  8
DV1_Default
  6
Continuous
 62
     7
100
AcDbLine
 10
35.9374219541
 20
557.7283949449
 30
0.0
 11
30.581934501
 21
557.7283949449
 31
0.0
  0
ARC
  5
79
330
5E
100
AcDbEntity
  8
DV1_Default
  6
Continuous
 62
     7
100
AcDbCircle
 10
26.5649111852
 20
557.3709978873
 30
0.0
 40
0.3148419761935549
100
AcDbArc
 50
94.6569656122
 51
172.8507480173
  0
SPLINE
  5
7A
330
5E
100
AcDbEntity
  8
DV1_Default
  6
Continuous
 62
     7
100
AcDbSpline
210
0.0
220
0.0
230
1.0
 70
     8
 71
     3
 72
    15
 73
    11
 74
     0
 42
0.0000000214897356
 43
0.0000000001
 40
0.0
 40
0.0
 40
0.0
 40
0.0
 40
0.0043643822286917
 40
0.1695961313753708
 40
0.3016348054480184
 40
0.4213708043978345
 40
0.5442641253057178
 40
0.6956878157156497
 40
0.9062965639566518
 40
1.0
 40
1.0
 40
1.0
 40
1.0
 10
40.24998309346145
 20
557.371135187168
 30
0.0
 10
40.25023397779776
 20
557.3723310625251
 30
0.0
 10
40.25863033124455
 20
557.4124337214452
 30
0.0
 10
40.23187327509958
 20
557.4960881712304
 30
0.0
 10
40.1774994881246
 20
557.580923716565
 30
0.0
 10
40.1158964444881
 20
557.6318567871257
 30
0.0
 10
40.06359766934031
 20
557.6590507955008
 30
0.0
 10
40.02029161589754
 20
557.6739112599091
 30
0.0
 10
39.99133367517172
 20
557.680878619094
 30
0.0
 10
39.97662779251127
 20
557.6831338086608
 30
0.0
 10
39.97145468126123
 20
557.6838662016269
 30
0.0
  0
LINE
  5
7B
330
5E
100
AcDbEntity
  8
DV1_Default
  6
Continuous
 62
     7
100
AcDbLine
 10
40.250668705
 20
557.2170217077
 30
0.0
 11
40.250668705
 21
557.3760032116
 31
0.0
  0
LINE
  5
7C
330
5E
100
AcDbEntity
  8
DV1_Default
  6
Continuous
 62
     7
100
AcDbLine
 10
26.250668705
 20
557.3767197041
 30
0.0
 11
26.250668705
 21
557.2209323073
 31
0.0
  0
SPLINE
  5
7D
330
5E
100
AcDbEntity
  8
DV1_Default
  6
Continuous
 62
     7
100
AcDbSpline
210
0.0
220
0.0
230
1.0
 70
    12
 71
     3
 72
    22
 73
    18
 74
     0
 42
0.0000000005724132
 43
0.0000000001
 40
0.0
 40
0.0
 40
0.0
 40
0.0
 40
0.1007695533711255
 40
0.1007695533711255
 40
0.1906925980340129
 40
0.1906925980340129
 40
0.2806156426969004
 40
0.2806156426969004
 40
0.4604617320226753
 40
0.4604617320226753
 40
0.6403078213484502
 40
0.6403078213484502
 40
0.8201539106742252
 40
0.8201539106742252
 40
0.9100769553371126
 40
0.9100769553371126
 40
1.0
 40
1.0
 40
1.0
 40
1.0
 10
41.97140138668229
 20
557.7264455050357
 30
0.0
 41
1.0
 10
41.97216492675518
 20
557.728913744607
 30
0.0
 41
1.0
 10
41.97280656902394
 20
557.7317280195277
 30
0.0
 41
1.0
 10
41.97073266446483
 20
557.7345734493906
 30
0.0
 41
1.0
 10
41.99311761280883
 20
557.7356276908662
 30
0.0
 41
1.0
 10
41.91478909936686
 20
557.7372723372963
 30
0.0
 41
1.0
 10
41.72960710793383
 20
557.7378647967158
 30
0.0
 41
1.0
 10
40.63604315481684
 20
557.7390732146687
 30
0.0
 41
1.0
 10
39.22192291709187
 20
557.7392047421098
 30
0.0
 41
1.0
 10
35.71970693677684
 20
557.739318170794
 30
0.0
 41
1.0
 10
33.61086750842185
 20
557.7392996232413
 30
0.0
 41
1.0
 10
29.70028774049183
 20
557.7392897599563
 30
0.0
 41
1.0
 10
27.85406067269885
 20
557.7393109342311
 30
0.0
 41
1.0
 10
25.92673416281882
 20
557.738855171652
 30
0.0
 41
1.0
 10
25.40805166812482
 20
557.7386060806809
 30
0.0
 41
1.0
 10
24.75873468251383
 20
557.7377445972731
 30
0.0
 41
1.0
 10
24.61737365497086
 20
557.7371135188195
 30
0.0
 41
1.0
 10
24.55464709864286
 20
557.7362565681569
 30
0.0
 41
1.0
  0
ARC
  5
7E
330
5E
100
AcDbEntity
  8
DV1_Default
  6
Continuous
 62
     7
100
AcDbCircle
 10
33.3212300843
 20
581.8435204003
 30
0.0
 40
25.67039845301414
100
AcDbArc
 50
249.9753071589
 51
289.6161616963
  0
SPLINE
  5
7F
330
5E
100
AcDbEntity
  8
DV1_Default
  6
Continuous
 62
     7
100
AcDbSpline
210
0.0
220
0.0
230
1.0
 70
     8
 71
     3
 72
     8
 73
     4
 74
     0
 42
0.0000000008493739
 43
0.0000000001
 40
0.0
 40
0.0
 40
0.0
 40
0.0
 40
1.0
 40
1.0
 40
1.0
 40
1.0
 10
34.25067184406277
 20
553.4182650500001
 30
0.0
 10
30.32621173631433
 20
553.4180889078362
 30
0.0
 10
26.40175289667501
 20
553.4166909288591
 30
0.0
 10
22.47729405703569
 20
553.4152926412726
 30
0.0
  0
SPLINE
  5
80
330
5E
100
AcDbEntity
  8
DV1_Default
  6
Continuous
 62
     7
100
AcDbSpline
210
0.0
220
0.0
230
1.0
 70
    12
 71
     3
 72
    10
 73
     6
 74
     0
 42
0.0000000069280329
 43
0.0000000001
 40
0.0
 40
0.0
 40
0.0
 40
0.0
 40
0.5816622127783632
 40
0.5816622127783632
 40
0.9999999999999999
 40
0.9999999999999999
 40
0.9999999999999999
 40
0.9999999999999999
 10
24.90012013177351
 20
557.5970338208596
 30
0.0
 41
1.0
 10
24.96261277563583
 20
557.5971152963248
 30
0.0
 41
1.0
 10
25.10171830236085
 20
557.5972779892834
 30
0.0
 41
1.0
 10
25.63312604430362
 20
557.5997235735023
 30
0.0
 41
1.0
 10
25.95231227290529
 20
557.6001935262038
 30
0.0
 41
1.0
 10
26.34352515225682
 20
557.6002909267979
 30
0.0
 41
1.0
  0
SPLINE
  5
81
330
5E
100
AcDbEntity
  8
DV1_Default
  6
Continuous
 62
     7
100
AcDbSpline
210
0.0
220
0.0
230
1.0
 70
    12
 71
     3
 72
    14
 73
    10
 74
     0
 42
0.0000000065312163
 43
0.0000000001
 40
0.0
 40
0.0
 40
0.0
 40
0.0
 40
0.142516315129294
 40
0.142516315129294
 40
0.3591458534606269
 40
0.3591458534606269
 40
0.5757753917919598
 40
0.5757753917919598
 40
1.0
 40
1.0
 40
1.0
 40
1.0
 10
40.15116922711712
 20
557.5995109054915
 30
0.0
 41
1.0
 10
40.5114818980615
 20
557.5992457456144
 30
0.0
 41
1.0
 10
40.81244704813142
 20
557.5988662600273
 30
0.0
 41
1.0
 10
41.39160714361584
 20
557.5975933460546
 30
0.0
 41
1.0
 10
41.57032496174185
 20
557.598530257283
 30
0.0
 41
1.0
 10
41.64683300879085
 20
557.5969314644943
 30
0.0
 41
1.0
 10
41.62444380549179
 20
557.5952445514475
 30
0.0
 41
1.0
 10
41.6266850940436
 20
557.590649025443
 30
0.0
 41
1.0
 10
41.62416482065423
 20
557.5848570999683
 30
0.0
 41
1.0
 10
41.62436562076438
 20
557.5833286398831
 30
0.0
 41
1.0
  0
LINE
  5
82
330
5E
100
AcDbEntity
  8
DV1_Default
  6
Continuous
 62
     7
100
AcDbLine
 10
22.477294057
 20
553.4152926413
 30
0.0
 11
34.2506718441
 21
553.41826505
 31
0.0
  0
LINE
  5
83
330
5E
100
AcDbEntity
  8
DV1_Default
  6
Continuous
 62
     7
100
AcDbLine
 10
34.2506718441
 20
553.4142774548
 30
0.0
 11
45.9506719011
 21
553.4142774548
 31
0.0
  0
LINE
  5
84
330
5E
100
AcDbEntity
  8
DV1_Default
  6
Continuous
 62
     7
100
AcDbLine
 10
22.477294057
 20
553.4156054684
 30
0.0
 11
20.7506686917
 21
553.4156054495
 31
0.0
  0
LINE
  5
85
330
5E
100
AcDbEntity
  8
DV1_Default
  6
Continuous
 62
     7
100
AcDbLine
 10
46.7506718441
 20
556.9391803025
 30
0.0
 11
46.7506718441
 21
552.7585233289
 31
0.0
  0
LINE
  5
86
330
5E
100
AcDbEntity
  8
DV1_Default
  6
Continuous
 62
     7
100
AcDbLine
 10
46.7506718441
 20
552.7571521173
 30
0.0
 11
46.7506718441
 21
510.5279699282
 31
0.0
  0
ARC
  5
87
330
5E
100
AcDbEntity
  8
DV1_Default
  6
Continuous
 62
     7
100
AcDbCircle
 10
45.9506718441
 20
556.9391803038
 30
0.0
 40
0.7999999999999952
100
AcDbArc
 50
0.0
 51
89.9999999995
  0
SPLINE
  5
88
330
5E
100
AcDbEntity
  8
DV1_Default
  6
Continuous
 62
     7
100
AcDbSpline
210
0.0
220
0.0
230
1.0
 70
     8
 71
     3
 72
    10
 73
     6
 74
     0
 42
0.0000000085135644
 43
0.0000000001
 40
0.0
 40
0.0
 40
0.0
 40
0.0
 40
0.5
 40
0.5
 40
1.0
 40
1.0
 40
1.0
 40
1.0
 10
46.75067184406384
 20
552.7585233289052
 30
0.0
 10
46.75067184406384
 20
552.9290978839709
 30
0.0
 10
46.66445336695168
 20
553.0999899418478
 30
0.0
 10
46.36826117107445
 20
553.3432540574959
 30
0.0
 10
46.16011135430315
 20
553.4141297253136
 30
0.0
 10
45.95067190112457
 20
553.415006818746
 30
0.0
  0
LINE
  5
89
330
5E
100
AcDbEntity
  8
DV1_Default
  6
Continuous
 62
     7
100
AcDbLine
 10
19.750668705
 20
553.1480869121
 30
0.0
 11
19.750668705
 21
556.6509250275
 31
0.0
  0
LINE
  5
8A
330
5E
100
AcDbEntity
  8
DV1_Default
  6
Continuous
 62
     7
100
AcDbLine
 10
19.750668705
 20
553.1479238442
 30
0.0
 11
19.750668705
 21
553.1480869121
 31
0.0
  0
LINE
  5
8B
330
5E
100
AcDbEntity
  8
DV1_Default
  6
Continuous
 62
     7
100
AcDbLine
 10
19.750668705
 20
510.7279699282
 30
0.0
 11
19.750668705
 21
553.1479238442
 31
0.0
  0
LINE
  5
8C
330
5E
100
AcDbEntity
  8
DV1_Default
  6
Continuous
 62
     7
100
AcDbLine
 10
20.750668705
 20
553.4142774548
 30
0.0
 11
34.2506718441
 21
553.4142774548
 31
0.0
  0
ARC
  5
8D
330
5E
100
AcDbEntity
  8
DV1_Default
  6
Continuous
 62
     7
100
AcDbCircle
 10
20.750668705
 20
556.7391803038
 30
0.0
 40
1.000000000087299
100
AcDbArc
 50
89.9999999995
 51
180.0
  0
SPLINE
  5
8E
330
5E
100
AcDbEntity
  8
DV1_Default
  6
Continuous
 62
     7
100
AcDbSpline
210
0.0
220
0.0
230
1.0
 70
     8
 71
     3
 72
    14
 73
    10
 74
     0
 42
0.0000000091823078
 43
0.0000000001
 40
0.0
 40
0.0
 40
0.0
 40
0.0
 40
0.25
 40
0.25
 40
0.5
 40
0.5
 40
0.75
 40
0.75
 40
1.0
 40
1.0
 40
1.0
 40
1.0
 10
20.75066869168846
 20
553.4156054495293
 30
0.0
 10
20.58801801678173
 20
553.415605449256
 30
0.0
 10
20.431966991308
 20
553.4053544491043
 30
0.0
 10
20.169766049566
 20
553.371794918184
 30
0.0
 10
20.06466703089571
 20
553.3491239711308
 30
0.0
 10
19.90215251443833
 20
553.2981555393903
 30
0.0
 10
19.84514695359879
 20
553.2702863735938
 30
0.0
 10
19.76874722076116
 20
553.2107124517793
 30
0.0
 10
19.7506687050375
 20
553.1796425149781
 30
0.0
 10
19.7506687050375
 20
553.1480869120518
 30
0.0
  0
SPLINE
  5
8F
330
5E
100
AcDbEntity
  8
DV1_Default
  6
Continuous
 62
     7
100
AcDbSpline
210
0.0
220
0.0
230
1.0
 70
     8
 71
     3
 72
    14
 73
    10
 74
     0
 42
0.0000000091859792
 43
0.0000000001
 40
0.0
 40
0.0
 40
0.0
 40
0.0
 40
0.25
 40
0.25
 40
0.5
 40
0.5
 40
0.75
 40
0.75
 40
1.0
 40
1.0
 40
1.0
 40
1.0
 10
20.7506687050375
 20
553.4142774548362
 30
0.0
 10
20.5880867185404
 20
553.4142774548362
 30
0.0
 10
20.43205357456285
 20
553.4041803409998
 30
0.0
 10
20.16984751725715
 20
553.3708856180112
 30
0.0
 10
20.06472932992259
 20
553.3483063846263
 30
0.0
 10
19.9021768507463
 20
553.2975470668399
 30
0.0
 10
19.84516048984847
 20
553.2697806718336
 30
0.0
 10
19.76874690177443
 20
553.2103938993782
 30
0.0
 10
19.7506687050375
 20
553.1794086402435
 30
0.0
 10
19.7506687050375
 20
553.1479238442138
 30
0.0
  0
LINE
  5
90
330
5E
100
AcDbEntity
  8
DV1_Default
  6
Continuous
 62
     7
100
AcDbLine
 10
24.5629122595
 20
557.7247191782
 30
0.0
 11
20.7506687051
 21
557.7247191782
 31
0.0
  0
LINE
  5
91
330
5E
100
AcDbEntity
  8
DV1_Default
  6
Continuous
 62
     7
100
AcDbLine
 10
45.950671844
 20
557.724719178
 30
0.0
 11
41.9735835925
 21
557.7247191781
 31
0.0
  0
ARC
  5
92
330
5E
100
AcDbEntity
  8
DV1_Default
  6
Continuous
 62
     7
100
AcDbCircle
 10
33.2897130475
 20
581.629673916
 30
0.0
 40
25.45358970990734
100
AcDbArc
 50
250.1406359756
 51
289.593935319
  0
ARC
  5
93
330
5E
100
AcDbEntity
  8
DV1_Default
  6
Continuous
 62
     7
100
AcDbCircle
 10
24.5517404762
 20
557.2060349438
 30
0.0
 40
0.5215561447487221
100
AcDbArc
 50
51.8062496939
 51
64.3243829743
  0
ARC
  5
94
330
5E
100
AcDbEntity
  8
DV1_Default
  6
Continuous
 62
     7
100
AcDbCircle
 10
24.5517404762
 20
557.2060349438
 30
0.0
 40
0.5215561447487221
100
AcDbArc
 50
79.3339822634
 51
90.4612537809
  0
LINE
  5
95
330
5E
100
AcDbEntity
  8
DV1_Default
  6
Continuous
 62
     7
100
AcDbLine
 10
20.750668705
 20
509.7279699282
 30
0.0
 11
45.9506718441
 21
509.7279699282
 31
0.0
  0
ARC
  5
96
330
5E
100
AcDbEntity
  8
DV1_Default
  6
Continuous
 62
     7
100
AcDbCircle
 10
45.9506718441
 20
510.5279699282
 30
0.0
 40
0.7999999999999986
100
AcDbArc
 50
270.0
 51
0.0
  0
ARC
  5
97
330
5E
100
AcDbEntity
  8
DV1_Default
  6
Continuous
 62
     7
100
AcDbCircle
 10
20.750668705
 20
556.7275701709
 30
0.0
 40
1.000000000000005
100
AcDbArc
 50
90.0023370713
 51
179.9985729502
  0
ARC
  5
98
330
5E
100
AcDbEntity
  8
DV1_Default
  6
Continuous
 62
     7
100
AcDbCircle
 10
20.7506687053
 20
556.7332038229
 30
0.0
 40
0.9999988482187153
100
AcDbArc
 50
89.9935716033
 51
180.4786978245
  0
ARC
  5
99
330
5E
100
AcDbEntity
  8
DV1_Default
  6
Continuous
 62
     7
100
AcDbCircle
 10
20.750668705
 20
510.7279699282
 30
0.0
 40
1.000000000000001
100
AcDbArc
 50
180.0
 51
270.0
  0
LINE
  5
9A
330
5E
100
AcDbEntity
  8
DV1_Default
  6
Continuous
 62
     7
100
AcDbLine
 10
309.655904427
 20
553.8426406985
 30
0.0
 11
308.950668705
 21
553.8303307632
 31
0.0
  0
LINE
  5
9B
330
5E
100
AcDbEntity
  8
DV1_Default
  6
Continuous
 62
     7
100
AcDbLine
 10
308.950668705
 20
513.620869984
 30
0.0
 11
309.655904427
 21
513.6085600487
 31
0.0
  0
ARC
  5
9C
330
5E
100
AcDbEntity
  8
DV1_Default
  6
Continuous
 62
     7
100
AcDbCircle
 10
309.650668705
 20
554.142595007
 30
0.0
 40
0.2999999999999947
100
AcDbArc
 50
271.0
 51
0.0
  0
ARC
  5
9D
330
5E
100
AcDbEntity
  8
DV1_Default
  6
Continuous
 62
     7
100
AcDbCircle
 10
309.650668705
 20
513.3086057402
 30
0.0
 40
0.2999999999999978
100
AcDbArc
 50
0.0
 51
89.0
  0
SPLINE
  5
9E
330
5E
100
AcDbEntity
  8
DV1_Default
  6
Continuous
 62
     7
100
AcDbSpline
210
0.0
220
0.0
230
1.0
 70
     8
 71
     3
 72
    10
 73
     6
 74
     0
 42
0.0000000025116143
 43
0.0000000001
 40
0.0
 40
0.0
 40
0.0
 40
0.0
 40
0.2618400580690222
 40
0.6333408869037395
 40
1.0
 40
1.0
 40
1.0
 40
1.0
 10
330.1182234025989
 20
557.6874595972218
 30
0.0
 10
330.0578523282047
 20
557.6977989694839
 30
0.0
 10
329.7074024809169
 20
557.7199024710272
 30
0.0
 10
328.3994024328038
 20
557.7276786715727
 30
0.0
 10
326.9346947766155
 20
557.7283492951052
 30
0.0
 10
326.1383190248771
 20
557.72839309526
 30
0.0
  0
SPLINE
  5
9F
330
5E
100
AcDbEntity
  8
DV1_Default
  6
Continuous
 62
     7
100
AcDbSpline
210
0.0
220
0.0
230
1.0
 70
     8
 71
     3
 72
    10
 73
     6
 74
     0
 42
0.0000000025049165
 43
0.0000000001
 40
0.0
 40
0.0
 40
0.0
 40
0.0
 40
0.3469436973600225
 40
0.7199103073193498
 40
1.0
 40
1.0
 40
1.0
 40
1.0
 10
320.7781782332496
 20
557.7283852960002
 30
0.0
 10
320.0269101186922
 20
557.7283456038513
 30
0.0
 10
318.5934832258078
 20
557.7277272476624
 30
0.0
 10
317.2407205982246
 20
557.7209274987935
 30
0.0
 10
316.8563650198985
 20
557.6989827118273
 30
0.0
 10
316.787489889287
 20
557.6883396126582
 30
0.0
  0
LINE
  5
A0
330
5E
100
AcDbEntity
  8
DV1_Default
  6
Continuous
 62
     7
100
AcDbLine
 10
326.1374219541
 20
557.7283949449
 30
0.0
 11
320.781934501
 21
557.7283949449
 31
0.0
  0
ARC
  5
A1
330
5E
100
AcDbEntity
  8
DV1_Default
  6
Continuous
 62
     7
100
AcDbCircle
 10
316.7649111852
 20
557.3709978873
 30
0.0
 40
0.314841976193883
100
AcDbArc
 50
94.6569656122
 51
172.8507480172
  0
SPLINE
  5
A2
330
5E
100
AcDbEntity
  8
DV1_Default
  6
Continuous
 62
     7
100
AcDbSpline
210
0.0
220
0.0
230
1.0
 70
     8
 71
     3
 72
    15
 73
    11
 74
     0
 42
0.0000000214897356
 43
0.0000000001
 40
0.0
 40
0.0
 40
0.0
 40
0.0
 40
0.0043643822286972
 40
0.1695961313753711
 40
0.3016348054480328
 40
0.4213708043978283
 40
0.5442641253057255
 40
0.6956878157156547
 40
0.9062965639566533
 40
1.0
 40
1.0
 40
1.0
 40
1.0
 10
330.4499830934614
 20
557.371135187168
 30
0.0
 10
330.4502339777978
 20
557.3723310625251
 30
0.0
 10
330.4586303312433
 20
557.4124337214452
 30
0.0
 10
330.4318732750999
 20
557.4960881712304
 30
0.0
 10
330.3774994881244
 20
557.580923716565
 30
0.0
 10
330.3158964444883
 20
557.6318567871258
 30
0.0
 10
330.2635976693402
 20
557.6590507955009
 30
0.0
 10
330.2202916158976
 20
557.6739112599092
 30
0.0
 10
330.1913336751717
 20
557.6808786190941
 30
0.0
 10
330.1766277925112
 20
557.683133808661
 30
0.0
 10
330.1714546812612
 20
557.6838662016271
 30
0.0
  0
LINE
  5
A3
330
5E
100
AcDbEntity
  8
DV1_Default
  6
Continuous
 62
     7
100
AcDbLine
 10
330.450668705
 20
557.2200969781
 30
0.0
 11
330.450668705
 21
557.3760032116
 31
0.0
  0
LINE
  5
A4
330
5E
100
AcDbEntity
  8
DV1_Default
  6
Continuous
 62
     7
100
AcDbLine
 10
316.450668705
 20
557.3767197041
 30
0.0
 11
316.450668705
 21
557.2173257867
 31
0.0
  0
SPLINE
  5
A5
330
5E
100
AcDbEntity
  8
DV1_Default
  6
Continuous
 62
     7
100
AcDbSpline
210
0.0
220
0.0
230
1.0
 70
     8
 71
     3
 72
    22
 73
    18
 74
     0
 42
0.0000000005737172
 43
0.0000000001
 40
0.0
 40
0.0
 40
0.0
 40
0.0
 40
0.0108896077730206
 40
0.1008784635335304
 40
0.1610455862195913
 40
0.1908649913711633
 40
0.2370796177662731
 40
0.2810120081364767
 40
0.3708316239460961
 40
0.4606411341898324
 40
0.5505785409396595
 40
0.6403006940849558
 40
0.7301140107584347
 40
0.8199504141756488
 40
0.909648717754211
 40
0.9513631199727021
 40
1.0
 40
1.0
 40
1.0
 40
1.0
 10
314.7311234612214
 20
557.7268503347792
 30
0.0
 10
314.7310428616006
 20
557.7271379272909
 30
0.0
 10
314.7301835229369
 20
557.7297719200303
 30
0.0
 10
314.727065112772
 20
557.7328128628901
 30
0.0
 10
314.7340559167717
 20
557.7352934297633
 30
0.0
 10
314.7330368685862
 20
557.7366343536886
 30
0.0
 10
314.8780567655386
 20
557.7375803041916
 30
0.0
 10
315.4375957841283
 20
557.7385590392818
 30
0.0
 10
316.7729138268686
 20
557.7391261720936
 30
0.0
 10
319.1461088318486
 20
557.7392865932845
 30
0.0
 10
322.0321262439074
 20
557.7392964802148
 30
0.0
 10
325.0806328435432
 20
557.7392976913588
 30
0.0
 10
327.9246881841804
 20
557.7392808775766
 30
0.0
 10
330.2641074913612
 20
557.7391036852663
 30
0.0
 10
331.5304448980112
 20
557.7384832164274
 30
0.0
 10
332.0106364647835
 20
557.7374686496725
 30
0.0
 10
332.099080252356
 20
557.7366807196216
 30
0.0
 10
332.1466903114322
 20
557.7362565681613
 30
0.0
  0
ARC
  5
A6
330
5E
100
AcDbEntity
  8
DV1_Default
  6
Continuous
 62
     7
100
AcDbCircle
 10
323.3724108917
 20
581.7611042216
 30
0.0
 40
25.59018979942839
100
AcDbArc
 50
250.3381211702
 51
290.1059781231
  0
SPLINE
  5
A7
330
5E
100
AcDbEntity
  8
DV1_Default
  6
Continuous
 62
     7
100
AcDbSpline
210
0.0
220
0.0
230
1.0
 70
     8
 71
     3
 72
     8
 73
     4
 74
     0
 42
0.0000000008493739
 43
0.0000000001
 40
0.0
 40
0.0
 40
0.0
 40
0.0
 40
1.0
 40
1.0
 40
1.0
 40
1.0
 10
322.4506655660122
 20
553.418265049997
 30
0.0
 10
326.3751256733239
 20
553.4183862169966
 30
0.0
 10
330.2995845129782
 20
553.4169961736451
 30
0.0
 10
334.2240433530393
 20
553.4152926412696
 30
0.0
  0
SPLINE
  5
A8
330
5E
100
AcDbEntity
  8
DV1_Default
  6
Continuous
 62
     7
100
AcDbSpline
210
0.0
220
0.0
230
1.0
 70
     8
 71
     3
 72
    10
 73
     6
 74
     0
 42
0.0000000069181172
 43
0.0000000001
 40
0.0
 40
0.0
 40
0.0
 40
0.0
 40
0.5830170490954559
 40
0.5830170490954559
 40
1.0
 40
1.0
 40
1.0
 40
1.0
 10
331.8012172783015
 20
557.5970338208639
 30
0.0
 10
331.740935970783
 20
557.5991641266447
 30
0.0
 10
331.6068992533494
 20
557.5990141222935
 30
0.0
 10
331.0695982991529
 20
557.5991589677341
 30
0.0
 10
330.7503695458076
 20
557.5994056931464
 30
0.0
 10
330.3557751888663
 20
557.599653006517
 30
0.0
  0
SPLINE
  5
A9
330
5E
100
AcDbEntity
  8
DV1_Default
  6
Continuous
 62
     7
100
AcDbSpline
210
0.0
220
0.0
230
1.0
 70
     8
 71
     3
 72
    14
 73
    10
 74
     0
 42
0.000000006606161
 43
0.0000000001
 40
0.0
 40
0.0
 40
0.0
 40
0.0
 40
0.1558529821933226
 40
0.1558529821933226
 40
0.3740426350023418
 40
0.3740426350023418
 40
0.5922322878113608
 40
0.5922322878113608
 40
1.0
 40
1.0
 40
1.0
 40
1.0
 10
316.5462975994673
 20
557.5997358284475
 30
0.0
 10
316.152235481451
 20
557.5995737029814
 30
0.0
 10
315.8291050042791
 20
557.599343484246
 30
0.0
 10
315.2578734127841
 20
557.5985551455863
 30
0.0
 10
315.111067383487
 20
557.5982449196592
 30
0.0
 10
315.0602956244884
 20
557.5969134663272
 30
0.0
 10
315.0768143489631
 20
557.5948452319258
 30
0.0
 10
315.0775464336923
 20
557.5877036232827
 30
0.0
 10
315.0766562086822
 20
557.5854661358761
 30
0.0
 10
315.0752080063418
 20
557.5851456382874
 30
0.0
  0
LINE
  5
AA
330
5E
100
AcDbEntity
  8
DV1_Default
  6
Continuous
 62
     7
100
AcDbLine
 10
334.224043353
 20
553.4152926413
 30
0.0
 11
322.450665566
 21
553.41826505
 31
0.0
  0
LINE
  5
AB
330
5E
100
AcDbEntity
  8
DV1_Default
  6
Continuous
 62
     7
100
AcDbLine
 10
322.450665566
 20
553.4142774548
 30
0.0
 11
310.750665509
 21
553.4142774548
 31
0.0
  0
LINE
  5
AC
330
5E
100
AcDbEntity
  8
DV1_Default
  6
Continuous
 62
     7
100
AcDbLine
 10
334.224043353
 20
553.4156054684
 30
0.0
 11
335.9506687184
 21
553.4156054495
 31
0.0
  0
LINE
  5
AD
330
5E
100
AcDbEntity
  8
DV1_Default
  6
Continuous
 62
     7
100
AcDbLine
 10
309.950665566
 20
556.9391803025
 30
0.0
 11
309.950665566
 21
552.7585233289
 31
0.0
  0
LINE
  5
AE
330
5E
100
AcDbEntity
  8
DV1_Default
  6
Continuous
 62
     7
100
AcDbLine
 10
309.950665566
 20
552.7571521173
 30
0.0
 11
309.950665566
 21
510.5279699282
 31
0.0
  0
ARC
  5
AF
330
5E
100
AcDbEntity
  8
DV1_Default
  6
Continuous
 62
     7
100
AcDbCircle
 10
310.750665566
 20
556.9391803039
 30
0.0
 40
0.7999999999999952
100
AcDbArc
 50
90.0000000005
 51
180.0000000973
  0
SPLINE
  5
B0
330
5E
100
AcDbEntity
  8
DV1_Default
  6
Continuous
 62
     7
100
AcDbSpline
210
0.0
220
0.0
230
1.0
 70
     8
 71
     3
 72
    10
 73
     6
 74
     0
 42
0.0000000085005057
 43
0.0000000001
 40
0.0
 40
0.0
 40
0.0
 40
0.0
 40
0.5
 40
0.5
 40
1.0
 40
1.0
 40
1.0
 40
1.0
 10
309.9506655660111
 20
552.7585233289022
 30
0.0
 10
309.9502429072776
 20
552.92950676384
 30
0.0
 10
310.0362714022744
 20
553.100934971292
 30
0.0
 10
310.3325449376604
 20
553.3448251375771
 30
0.0
 10
310.5409562966346
 20
553.4157757055128
 30
0.0
 10
310.7506655089504
 20
553.415006818743
 30
0.0
  0
LINE
  5
B1
330
5E
100
AcDbEntity
  8
DV1_Default
  6
Continuous
 62
     7
100
AcDbLine
 10
336.950668705
 20
553.148086912
 30
0.0
 11
336.950668705
 21
556.6501760377
 31
0.0
  0
LINE
  5
B2
330
5E
100
AcDbEntity
  8
DV1_Default
  6
Continuous
 62
     7
100
AcDbLine
 10
336.950668705
 20
553.1479238442
 30
0.0
 11
336.950668705
 21
553.148086912
 31
0.0
  0
LINE
  5
B3
330
5E
100
AcDbEntity
  8
DV1_Default
  6
Continuous
 62
     7
100
AcDbLine
 10
336.950668705
 20
510.7279699282
 30
0.0
 11
336.950668705
 21
553.1479238442
 31
0.0
  0
LINE
  5
B4
330
5E
100
AcDbEntity
  8
DV1_Default
  6
Continuous
 62
     7
100
AcDbLine
 10
335.950668705
 20
553.4142774548
 30
0.0
 11
322.450665566
 21
553.4142774548
 31
0.0
  0
ARC
  5
B5
330
5E
100
AcDbEntity
  8
DV1_Default
  6
Continuous
 62
     7
100
AcDbCircle
 10
335.950668705
 20
556.7391803039
 30
0.0
 40
1.000000000087296
100
AcDbArc
 50
0.0
 51
90.0000000005
  0
SPLINE
  5
B6
330
5E
100
AcDbEntity
  8
DV1_Default
  6
Continuous
 62
     7
100
AcDbSpline
210
0.0
220
0.0
230
1.0
 70
     8
 71
     3
 72
    14
 73
    10
 74
     0
 42
0.0000000091823078
 43
0.0000000001
 40
0.0
 40
0.0
 40
0.0
 40
0.0
 40
0.25
 40
0.25
 40
0.5
 40
0.5
 40
0.75
 40
0.75
 40
1.0
 40
1.0
 40
1.0
 40
1.0
 10
335.9506687183865
 20
553.4156054495264
 30
0.0
 10
336.1133193932932
 20
553.4156054492529
 30
0.0
 10
336.269370418767
 20
553.4053544491012
 30
0.0
 10
336.531571360509
 20
553.3717949181811
 30
0.0
 10
336.6366703791793
 20
553.349123971128
 30
0.0
 10
336.7991848956366
 20
553.2981555393875
 30
0.0
 10
336.8561904564762
 20
553.270286373591
 30
0.0
 10
336.9325901893138
 20
553.2107124517765
 30
0.0
 10
336.9506687050375
 20
553.1796425149754
 30
0.0
 10
336.9506687050375
 20
553.148086912049
 30
0.0
  0
SPLINE
  5
B7
330
5E
100
AcDbEntity
  8
DV1_Default
  6
Continuous
 62
     7
100
AcDbSpline
210
0.0
220
0.0
230
1.0
 70
     8
 71
     3
 72
    14
 73
    10
 74
     0
 42
0.0000000091859792
 43
0.0000000001
 40
0.0
 40
0.0
 40
0.0
 40
0.0
 40
0.25
 40
0.25
 40
0.5
 40
0.5
 40
0.75
 40
0.75
 40
1.0
 40
1.0
 40
1.0
 40
1.0
 10
335.9506687050375
 20
553.4142774548332
 30
0.0
 10
336.1132506915346
 20
553.4142774548332
 30
0.0
 10
336.2692838355121
 20
553.4041803409968
 30
0.0
 10
336.5314898928178
 20
553.3708856180084
 30
0.0
 10
336.6366080801524
 20
553.3483063846234
 30
0.0
 10
336.7991605593287
 20
553.2975470668371
 30
0.0
 10
336.8561769202265
 20
553.2697806718309
 30
0.0
 10
336.9325905083005
 20
553.2103938993754
 30
0.0
 10
336.9506687050375
 20
553.1794086402408
 30
0.0
 10
336.9506687050375
 20
553.147923844211
 30
0.0
  0
LINE
  5
B8
330
5E
100
AcDbEntity
  8
DV1_Default
  6
Continuous
 62
     7
100
AcDbLine
 10
314.7277538175
 20
557.7247191781
 30
0.0
 11
310.7506655661
 21
557.724719178
 31
0.0
  0
LINE
  5
B9
330
5E
100
AcDbEntity
  8
DV1_Default
  6
Continuous
 62
     7
100
AcDbLine
 10
335.9506687051
 20
557.7247191782
 30
0.0
 11
332.1629267795
 21
557.7247191782
 31
0.0
  0
SPLINE
  5
BA
330
5E
100
AcDbEntity
  8
DV1_Default
  6
Continuous
 62
     7
100
AcDbSpline
210
0.0
220
0.0
230
1.0
 70
     8
 71
     3
 72
    17
 73
    13
 74
     0
 42
0.0000001271059979
 43
0.0000000001
 40
0.0
 40
0.0
 40
0.0
 40
0.0
 40
0.0643679689607838
 40
0.1914508087959961
 40
0.3050676420601354
 40
0.3968054892897488
 40
0.4745561397187436
 40
0.5467350843771766
 40
0.6289319958887427
 40
0.7319858652927862
 40
0.8594419022368871
 40
1.0
 40
1.0
 40
1.0
 40
1.0
 10
332.094287111604
 20
557.724036934624
 30
0.0
 10
332.0935680881938
 20
557.724032239746
 30
0.0
 10
332.0906733950236
 20
557.7239515154184
 30
0.0
 10
332.0860950116293
 20
557.7234800276897
 30
0.0
 10
332.0789025811458
 20
557.7223370557055
 30
0.0
 10
332.0682956198333
 20
557.720339297603
 30
0.0
 10
332.0548864489801
 20
557.7176046159685
 30
0.0
 10
332.0412424748668
 20
557.7146438990226
 30
0.0
 10
332.0293800987844
 20
557.7118750630797
 30
0.0
 10
332.0213702028576
 20
557.7099189338513
 30
0.0
 10
332.0180317443074
 20
557.7091100532897
 30
0.0
 10
332.0183687456753
 20
557.709315604619
 30
0.0
 10
332.018809548601
 20
557.7095001659333
 30
0.0
  0
ARC
  5
BB
330
5E
100
AcDbEntity
  8
DV1_Default
  6
Continuous
 62
     7
100
AcDbCircle
 10
323.4176024469
 20
581.7456726191
 30
0.0
 40
25.56489767914864
100
AcDbArc
 50
250.4806256441
 51
289.4965291905
  0
LINE
  5
BC
330
5E
100
AcDbEntity
  8
DV1_Default
  6
Continuous
 62
     7
100
AcDbLine
 10
310.750665566
 20
509.7279699282
 30
0.0
 11
335.950668705
 21
509.7279699282
 31
0.0
  0
ARC
  5
BD
330
5E
100
AcDbEntity
  8
DV1_Default
  6
Continuous
 62
     7
100
AcDbCircle
 10
310.750665566
 20
510.5279699282
 30
0.0
 40
0.7999999999999952
100
AcDbArc
 50
180.0
 51
270.0
  0
ARC
  5
BE
330
5E
100
AcDbEntity
  8
DV1_Default
  6
Continuous
 62
     7
100
AcDbCircle
 10
335.950668705
 20
556.7275701709
 30
0.0
 40
0.9999999999845662
100
AcDbArc
 50
0.0014270497
 51
89.9930736212
  0
ARC
  5
BF
330
5E
100
AcDbEntity
  8
DV1_Default
  6
Continuous
 62
     7
100
AcDbCircle
 10
335.9506687053
 20
556.7332038228
 30
0.0
 40
1.00000000000545
100
AcDbArc
 50
359.5213021751
 51
89.9935716004
  0
ARC
  5
C0
330
5E
100
AcDbEntity
  8
DV1_Default
  6
Continuous
 62
     7
100
AcDbCircle
 10
335.950668705
 20
510.7279699282
 30
0.0
 40
1.000000000000001
100
AcDbArc
 50
270.0
 51
0.0
  0
LINE
  5
C1
330
5E
100
AcDbEntity
  8
DV1_Default
  6
Continuous
 62
     7
100
AcDbLine
 10
227.200668705
 20
502.2256003736
 30
0.0
 11
245.200668705
 21
502.2256003736
 31
0.0
  0
LINE
  5
C2
330
5E
100
AcDbEntity
  8
DV1_Default
  6
Continuous
 62
     7
100
AcDbLine
 10
246.680668705
 20
500.7456003736
 30
0.0
 11
225.720668705
 21
500.7456003736
 31
0.0
  0
LINE
  5
C3
330
5E
100
AcDbEntity
  8
DV1_Default
  6
Continuous
 62
     7
100
AcDbLine
 10
245.480668705
 20
493.3256003736
 30
0.0
 11
226.920668705
 21
493.3256003736
 31
0.0
  0
LINE
  5
C4
330
5E
100
AcDbEntity
  8
DV1_Default
  6
Continuous
 62
     7
100
AcDbLine
 10
246.680668705
 20
494.5256003736
 30
0.0
 11
225.720668705
 21
494.5256003736
 31
0.0
  0
LINE
  5
C5
330
5E
100
AcDbEntity
  8
DV1_Default
  6
Continuous
 62
     7
100
AcDbLine
 10
225.720668705
 20
500.7456003736
 30
0.0
 11
225.720668705
 21
494.5256003736
 31
0.0
  0
LINE
  5
C6
330
5E
100
AcDbEntity
  8
DV1_Default
  6
Continuous
 62
     7
100
AcDbLine
 10
246.680668705
 20
494.5256003736
 30
0.0
 11
246.680668705
 21
500.7456003736
 31
0.0
  0
LINE
  5
C7
330
5E
100
AcDbEntity
  8
DV1_Default
  6
Continuous
 62
     7
100
AcDbLine
 10
227.200668705
 20
507.4384416101
 30
0.0
 11
227.200668705
 21
502.2256003736
 31
0.0
  0
LINE
  5
C8
330
5E
100
AcDbEntity
  8
DV1_Default
  6
Continuous
 62
     7
100
AcDbLine
 10
245.200668705
 20
502.2256003736
 30
0.0
 11
245.200668705
 21
507.4384416101
 31
0.0
  0
LINE
  5
C9
330
5E
100
AcDbEntity
  8
DV1_Default
  6
Continuous
 62
     7
100
AcDbLine
 10
246.680668705
 20
500.7456003736
 30
0.0
 11
245.200668705
 21
502.2256003736
 31
0.0
  0
LINE
  5
CA
330
5E
100
AcDbEntity
  8
DV1_Default
  6
Continuous
 62
     7
100
AcDbLine
 10
227.200668705
 20
502.2256003736
 30
0.0
 11
225.720668705
 21
500.7456003736
 31
0.0
  0
LINE
  5
CB
330
5E
100
AcDbEntity
  8
DV1_Default
  6
Continuous
 62
     7
100
AcDbLine
 10
225.720668705
 20
494.5256003736
 30
0.0
 11
226.920668705
 21
493.3256003736
 31
0.0
  0
LINE
  5
CC
330
5E
100
AcDbEntity
  8
DV1_Default
  6
Continuous
 62
     7
100
AcDbLine
 10
245.480668705
 20
493.3256003736
 30
0.0
 11
246.680668705
 21
494.5256003736
 31
0.0
  0
LINE
  5
CD
330
5E
100
AcDbEntity
  8
DV1_Default
  6
Continuous
 62
     7
100
AcDbLine
 10
245.515668705
 20
501.9106003736
 30
0.0
 11
245.515668705
 21
493.3606003736
 31
0.0
  0
LINE
  5
CE
330
5E
100
AcDbEntity
  8
DV1_Default
  6
Continuous
 62
     7
100
AcDbLine
 10
226.885668705
 20
501.9106003736
 30
0.0
 11
226.885668705
 21
493.3606003736
 31
0.0
  0
LINE
  5
CF
330
5E
100
AcDbEntity
  8
DV1_Default
  6
Continuous
 62
     7
100
AcDbLine
 10
48.450668705
 20
557.7219153776
 30
0.0
 11
120.950668705
 21
557.7219153776
 31
0.0
  0
ARC
  5
D0
330
5E
100
AcDbEntity
  8
DV1_Default
  6
Continuous
 62
     7
100
AcDbCircle
 10
122.5370064021
 20
535.6722781875
 30
0.0
 40
22.05685338407991
100
AcDbArc
 50
88.0437221885
 51
93.5219349913
  0
LINE
  5
D1
330
5E
100
AcDbEntity
  8
DV1_Default
  6
Continuous
 62
     7
100
AcDbLine
 10
47.950668705
 20
557.2219153776
 30
0.0
 11
47.950668705
 21
511.0226618874
 31
0.0
  0
LINE
  5
D2
330
5E
100
AcDbEntity
  8
DV1_Default
  6
Continuous
 62
     7
100
AcDbLine
 10
47.950668705
 20
511.0226618874
 30
0.0
 11
47.950668705
 21
498.9775818102
 31
0.0
  0
ARC
  5
D3
330
5E
100
AcDbEntity
  8
DV1_Default
  6
Continuous
 62
     7
100
AcDbCircle
 10
48.450668705
 20
557.2219153776
 30
0.0
 40
0.5000000000000004
100
AcDbArc
 50
90.0
 51
180.0
  0
LINE
  5
D4
330
5E
100
AcDbEntity
  8
DV1_Default
  6
Continuous
 62
     7
100
AcDbLine
 10
47.950668705
 20
498.9775818102
 30
0.0
 11
47.950668705
 21
498.9605447234
 31
0.0
  0
LINE
  5
D5
330
5E
100
AcDbEntity
  8
DV1_Default
  6
Continuous
 62
     7
100
AcDbLine
 10
133.950668705
 20
536.9219153776
 30
0.0
 11
222.950668705
 21
536.9219153776
 31
0.0
  0
ARC
  5
D6
330
5E
100
AcDbEntity
  8
DV1_Default
  6
Continuous
 62
     7
100
AcDbCircle
 10
133.950668705
 20
537.4219153776
 30
0.0
 40
0.4999999999999935
100
AcDbArc
 50
180.0
 51
270.0
  0
LINE
  5
D7
330
5E
100
AcDbEntity
  8
DV1_Default
  6
Continuous
 62
     7
100
AcDbLine
 10
133.950668705
 20
557.7219153776
 30
0.0
 11
222.950668705
 21
557.7219153776
 31
0.0
  0
LINE
  5
D8
330
5E
100
AcDbEntity
  8
DV1_Default
  6
Continuous
 62
     7
100
AcDbLine
 10
133.450668705
 20
557.2219153776
 30
0.0
 11
133.450668705
 21
537.4219153776
 31
0.0
  0
LINE
  5
D9
330
5E
100
AcDbEntity
  8
DV1_Default
  6
Continuous
 62
     7
100
AcDbLine
 10
121.246597863
 20
557.7219153776
 30
0.0
 11
120.950668705
 21
557.7219153776
 31
0.0
  0
LINE
  5
DA
330
5E
100
AcDbEntity
  8
DV1_Default
  6
Continuous
 62
     7
100
AcDbLine
 10
133.950668705
 20
557.7219153776
 30
0.0
 11
133.450668705
 21
557.7219153776
 31
0.0
  0
SPLINE
  5
DB
330
5E
100
AcDbEntity
  8
DV1_Default
  6
Continuous
 62
     7
100
AcDbSpline
210
0.0
220
0.0
230
1.0
 70
     8
 71
     3
 72
    10
 73
     6
 74
     0
 42
0.0000000013956256
 43
0.0000000001
 40
0.0
 40
0.0
 40
0.0
 40
0.0
 40
0.5355492576509234
 40
0.5355492576509234
 40
1.0
 40
1.0
 40
1.0
 40
1.0
 10
122.0438547174694
 20
557.7218479050435
 30
0.0
 10
123.5038724970727
 20
557.7218220954903
 30
0.0
 10
124.9374212129057
 20
557.7217989865647
 30
0.0
 10
127.3341317232122
 20
557.7210068287051
 30
0.0
 10
128.3414388027687
 20
557.7204926357385
 30
0.0
 10
129.2090970118605
 20
557.7182347412928
 30
0.0
  0
LINE
  5
DC
330
5E
100
AcDbEntity
  8
DV1_Default
  6
Continuous
 62
     7
100
AcDbLine
 10
133.450668705
 20
557.7219153776
 30
0.0
 11
121.246597863
 21
557.7219153776
 31
0.0
  0
ARC
  5
DD
330
5E
100
AcDbEntity
  8
DV1_Default
  6
Continuous
 62
     7
100
AcDbCircle
 10
133.950668705
 20
557.2219153776
 30
0.0
 40
0.5000000000000004
100
AcDbArc
 50
90.0
 51
180.0
  0
SPLINE
  5
DE
330
5E
100
AcDbEntity
  8
DV1_Default
  6
Continuous
 62
     7
100
AcDbSpline
210
0.0
220
0.0
230
1.0
 70
     8
 71
     3
 72
     8
 73
     4
 74
     0
 42
0.000000012543009
 43
0.0000000001
 40
0.0
 40
0.0
 40
0.0
 40
0.0
 40
1.0
 40
1.0
 40
1.0
 40
1.0
 10
122.0438547174694
 20
557.7218479050435
 30
0.0
 10
121.7790342693788
 20
557.7219190821063
 30
0.0
 10
121.5129598642737
 20
557.7219153776148
 30
0.0
 10
121.2465978629653
 20
557.7219153776148
 30
0.0
  0
ARC
  5
DF
330
5E
100
AcDbEntity
  8
DV1_Default
  6
Continuous
 62
     7
100
AcDbCircle
 10
222.950668705
 20
557.2219153776
 30
0.0
 40
0.5000000000000004
100
AcDbArc
 50
0.0
 51
90.0
  0
ARC
  5
E0
330
5E
100
AcDbEntity
  8
DV1_Default
  6
Continuous
 62
     7
100
AcDbCircle
 10
222.950668705
 20
537.4219153776
 30
0.0
 40
0.4999999999999935
100
AcDbArc
 50
270.0
 51
0.0
  0
SPLINE
  5
E1
330
5E
100
AcDbEntity
  8
DV1_Default
  6
Continuous
 62
     7
100
AcDbSpline
210
0.0
220
0.0
230
1.0
 70
     8
 71
     3
 72
     8
 73
     4
 74
     0
 42
0.000000012543009
 43
0.0000000001
 40
0.0
 40
0.0
 40
0.0
 40
0.0
 40
1.0
 40
1.0
 40
1.0
 40
1.0
 10
234.8574826926054
 20
557.7218479050435
 30
0.0
 10
235.1223031406958
 20
557.7219190821063
 30
0.0
 10
235.3883775457998
 20
557.7219153776151
 30
0.0
 10
235.6547395471095
 20
557.7219153776148
 30
0.0
  0
SPLINE
  5
E2
330
5E
100
AcDbEntity
  8
DV1_Default
  6
Continuous
 62
     7
100
AcDbSpline
210
0.0
220
0.0
230
1.0
 70
     8
 71
     3
 72
    10
 73
     6
 74
     0
 42
0.0000000013937787
 43
0.0000000001
 40
0.0
 40
0.0
 40
0.0
 40
0.0
 40
0.5346429757072253
 40
0.5346429757072253
 40
0.9999999999999999
 40
0.9999999999999999
 40
0.9999999999999999
 40
0.9999999999999999
 10
234.8574826926054
 20
557.7218479050435
 30
0.0
 10
233.3974649130022
 20
557.7218220954903
 30
0.0
 10
231.9639161971692
 20
557.7217989865647
 30
0.0
 10
229.5631429841649
 20
557.7210054859055
 30
0.0
 10
228.5525472353595
 20
557.7204888804672
 30
0.0
 10
227.6827458463265
 20
557.7182099494725
 30
0.0
  0
ARC
  5
E3
330
5E
100
AcDbEntity
  8
DV1_Default
  6
Continuous
 62
     7
100
AcDbCircle
 10
234.3643223631
 20
535.6722787196
 30
0.0
 40
22.05685338407991
100
AcDbArc
 50
86.4780425098
 51
91.9562554772
  0
LINE
  5
E4
330
5E
100
AcDbEntity
  8
DV1_Default
  6
Continuous
 62
     7
100
AcDbLine
 10
223.450668705
 20
557.7219153776
 30
0.0
 11
235.6547395471
 21
557.7219153776
 31
0.0
  0
LINE
  5
E5
330
5E
100
AcDbEntity
  8
DV1_Default
  6
Continuous
 62
     7
100
AcDbLine
 10
222.950668705
 20
557.7219153776
 30
0.0
 11
223.450668705
 21
557.7219153776
 31
0.0
  0
LINE
  5
E6
330
5E
100
AcDbEntity
  8
DV1_Default
  6
Continuous
 62
     7
100
AcDbLine
 10
235.6547395471
 20
557.7219153776
 30
0.0
 11
235.950668705
 21
557.7219153776
 31
0.0
  0
LINE
  5
E7
330
5E
100
AcDbEntity
  8
DV1_Default
  6
Continuous
 62
     7
100
AcDbLine
 10
308.450668705
 20
557.7219153776
 30
0.0
 11
235.950668705
 21
557.7219153776
 31
0.0
  0
LINE
  5
E8
330
5E
100
AcDbEntity
  8
DV1_Default
  6
Continuous
 62
     7
100
AcDbLine
 10
308.950668705
 20
557.2219153776
 30
0.0
 11
308.950668705
 21
511.0226618874
 31
0.0
  0
LINE
  5
E9
330
5E
100
AcDbEntity
  8
DV1_Default
  6
Continuous
 62
     7
100
AcDbLine
 10
308.950668705
 20
511.0226618874
 30
0.0
 11
308.950668705
 21
498.9775818102
 31
0.0
  0
ARC
  5
EA
330
5E
100
AcDbEntity
  8
DV1_Default
  6
Continuous
 62
     7
100
AcDbCircle
 10
308.450668705
 20
557.2219153776
 30
0.0
 40
0.5000000000000004
100
AcDbArc
 50
0.0
 51
90.0
  0
LINE
  5
EB
330
5E
100
AcDbEntity
  8
DV1_Default
  6
Continuous
 62
     7
100
AcDbLine
 10
308.950668705
 20
498.9775818102
 30
0.0
 11
308.950668705
 21
498.9605447234
 31
0.0
  0
LINE
  5
EC
330
5E
100
AcDbEntity
  8
DV1_Default
  6
Continuous
 62
     7
100
AcDbLine
 10
223.450668705
 20
557.2219153776
 30
0.0
 11
223.450668705
 21
537.4219153776
 31
0.0
  0
ELLIPSE
  5
ED
330
5E
100
AcDbEntity
  8
DV1_Default
  6
Continuous
 62
     7
100
AcDbEllipse
 10
236.200668705
 20
506.8661018842
 30
0.0
 11
-9.250000000000009
 21
3.469446951953614E-15
 31
0.0
210
0.0
220
0.0
230
1.0
 40
0.2679491924
 41
2.908570527953018
 42
6.283185307179586
  0
ELLIPSE
  5
EE
330
5E
100
AcDbEntity
  8
DV1_Default
  6
Continuous
 62
     7
100
AcDbEllipse
 10
236.200668705
 20
506.8661018842
 30
0.0
 11
-9.250000000000009
 21
3.469446951953614E-15
 31
0.0
210
0.0
220
0.0
230
1.0
 40
0.2679491924
 41
0.0000000000000014
 42
0.2330221256367354
  0
ARC
  5
EF
330
5E
100
AcDbEntity
  8
DV1_Default
  6
Continuous
 62
     7
100
AcDbCircle
 10
48.450668705
 20
498.9605447234
 30
0.0
 40
0.5000000000000004
100
AcDbArc
 50
180.0
 51
270.0
  0
LINE
  5
F0
330
5E
100
AcDbEntity
  8
DV1_Default
  6
Continuous
 62
     7
100
AcDbLine
 10
48.450668705
 20
498.4605447234
 30
0.0
 11
225.720668705
 21
498.4605447234
 31
0.0
  0
LINE
  5
F1
330
5E
100
AcDbEntity
  8
DV1_Default
  6
Continuous
 62
     7
100
AcDbLine
 10
246.680668705
 20
498.4605447234
 30
0.0
 11
308.450668705
 21
498.4605447234
 31
0.0
  0
ARC
  5
F2
330
5E
100
AcDbEntity
  8
DV1_Default
  6
Continuous
 62
     7
100
AcDbCircle
 10
308.450668705
 20
498.9605447234
 30
0.0
 40
0.5000000000000004
100
AcDbArc
 50
270.0
 51
0.0
  0
ENDBLK
  5
F4
330
5E
100
AcDbEntity
  8
0
100
AcDbBlockEnd
  0
BLOCK
  5
176
330
F5
100
AcDbEntity
  8
0
100
AcDbBlockBegin
  2
SE1
 70
     0
 10
0.0
 20
0.0
 30
0.0
  3
SE1
  1

  0
ARC
  5
F8
330
F5
100
AcDbEntity
  8
DV2_Default
  6
Continuous
 62
     7
100
AcDbCircle
 10
569.2320760805
 20
536.4219153776
 30
0.0
 40
0.5
100
AcDbArc
 50
0.0
 51
90.0
  0
ARC
  5
F9
330
F5
100
AcDbEntity
  8
DV2_Default
  6
Continuous
 62
     7
100
AcDbCircle
 10
583.2320760805
 20
536.4219153776
 30
0.0
 40
0.5000000000000004
100
AcDbArc
 50
90.0
 51
180.0
  0
LINE
  5
FA
330
F5
100
AcDbEntity
  8
DV2_Default
  6
Continuous
 62
     7
100
AcDbLine
 10
582.7320760805
 20
533.2219153776
 30
0.0
 11
582.7320760805
 21
536.4219153776
 31
0.0
  0
LINE
  5
FB
330
F5
100
AcDbEntity
  8
DV2_Default
  6
Continuous
 62
     7
100
AcDbLine
 10
569.7320760805
 20
533.2219153776
 30
0.0
 11
569.7320760805
 21
536.4219153776
 31
0.0
  0
LINE
  5
FC
330
F5
100
AcDbEntity
  8
DV2_Default
  6
Continuous
 62
     7
100
AcDbLine
 10
582.4320760805
 20
532.9219153776
 30
0.0
 11
570.0320760805
 21
532.9219153776
 31
0.0
  0
ARC
  5
FD
330
F5
100
AcDbEntity
  8
DV2_Default
  6
Continuous
 62
     7
100
AcDbCircle
 10
570.0320760805
 20
533.2219153776
 30
0.0
 40
0.2999999999999947
100
AcDbArc
 50
180.0
 51
270.0
  0
ARC
  5
FE
330
F5
100
AcDbEntity
  8
DV2_Default
  6
Continuous
 62
     7
100
AcDbCircle
 10
582.4320760805
 20
533.2219153776
 30
0.0
 40
0.2999999999999999
100
AcDbArc
 50
270.0
 51
0.0
  0
LINE
  5
FF
330
F5
100
AcDbEntity
  8
DV2_Default
  6
Continuous
 62
     7
100
AcDbLine
 10
455.5204571928
 20
535.7256003736
 30
0.0
 11
455.5204571928
 21
503.7256003736
 31
0.0
  0
LINE
  5
100
330
F5
100
AcDbEntity
  8
DV2_Default
  6
Continuous
 62
     7
100
AcDbLine
 10
439.5204571928
 20
504.7256003736
 30
0.0
 11
439.5204571928
 21
534.7256003736
 31
0.0
  0
LINE
  5
101
330
F5
100
AcDbEntity
  8
DV2_Default
  6
Continuous
 62
     7
100
AcDbLine
 10
441.5204571928
 20
534.6922670403
 30
0.0
 11
442.5204571928
 21
534.6922670403
 31
0.0
  0
LINE
  5
102
330
F5
100
AcDbEntity
  8
DV2_Default
  6
Continuous
 62
     7
100
AcDbLine
 10
441.5204571928
 20
534.7256003736
 30
0.0
 11
441.5204571928
 21
534.6922670403
 31
0.0
  0
LINE
  5
103
330
F5
100
AcDbEntity
  8
DV2_Default
  6
Continuous
 62
     7
100
AcDbLine
 10
442.5204571928
 20
534.6922670403
 30
0.0
 11
453.5204571928
 21
534.6922670403
 31
0.0
  0
ELLIPSE
  5
104
330
F5
100
AcDbEntity
  8
DV2_Default
  6
Continuous
 62
     7
100
AcDbEllipse
 10
442.5204571928
 20
534.7256003736
 30
0.0
 11
1.000000000000008
 21
2.168404344971009E-16
 31
0.0
210
0.0
220
0.0
230
1.0
 40
0.0333333333
 41
3.141592653589793
 42
4.71238898038469
  0
LINE
  5
105
330
F5
100
AcDbEntity
  8
DV2_Default
  6
Continuous
 62
     7
100
AcDbLine
 10
453.5204571928
 20
531.0393088726
 30
0.0
 11
453.5204571928
 21
535.7256003736
 31
0.0
  0
LINE
  5
106
330
F5
100
AcDbEntity
  8
DV2_Default
  6
Continuous
 62
     7
100
AcDbLine
 10
442.5204571928
 20
529.6019180305
 30
0.0
 11
453.5204571928
 21
529.6019180305
 31
0.0
  0
LINE
  5
107
330
F5
100
AcDbEntity
  8
DV2_Default
  6
Continuous
 62
     7
100
AcDbLine
 10
441.5204571928
 20
529.6019180305
 30
0.0
 11
442.5204571928
 21
529.6019180305
 31
0.0
  0
ELLIPSE
  5
108
330
F5
100
AcDbEntity
  8
DV2_Default
  6
Continuous
 62
     7
100
AcDbEllipse
 10
442.5204571928
 20
530.3322020914
 30
0.0
 11
0.999999999999994
 21
4.336808689942018E-16
 31
0.0
210
0.0
220
0.0
230
1.0
 40
0.7302840609
 41
3.141592653589793
 42
4.71238898038469
  0
LINE
  5
109
330
F5
100
AcDbEntity
  8
DV2_Default
  6
Continuous
 62
     7
100
AcDbLine
 10
441.5204571928
 20
531.0153457003
 30
0.0
 11
441.7901731318
 21
531.0153457003
 31
0.0
  0
LINE
  5
10A
330
F5
100
AcDbEntity
  8
DV2_Default
  6
Continuous
 62
     7
100
AcDbLine
 10
441.5204571928
 20
530.3322020914
 30
0.0
 11
441.5204571928
 21
529.6019180305
 31
0.0
  0
LINE
  5
10B
330
F5
100
AcDbEntity
  8
DV2_Default
  6
Continuous
 62
     7
100
AcDbLine
 10
441.5204571928
 20
531.0153457003
 30
0.0
 11
441.5204571928
 21
530.3322020914
 31
0.0
  0
LINE
  5
10C
330
F5
100
AcDbEntity
  8
DV2_Default
  6
Continuous
 62
     7
100
AcDbLine
 10
453.5204571928
 20
519.7256003736
 30
0.0
 11
453.5204571928
 21
531.0393088726
 31
0.0
  0
LINE
  5
10D
330
F5
100
AcDbEntity
  8
DV2_Default
  6
Continuous
 62
     7
100
AcDbLine
 10
441.5204571928
 20
518.7261560836
 30
0.0
 11
442.4871238594
 21
518.7261560836
 31
0.0
  0
LINE
  5
10E
330
F5
100
AcDbEntity
  8
DV2_Default
  6
Continuous
 62
     7
100
AcDbLine
 10
441.5204571928
 20
520.7250446637
 30
0.0
 11
442.4871238594
 21
520.7250446637
 31
0.0
  0
LINE
  5
10F
330
F5
100
AcDbEntity
  8
DV2_Default
  6
Continuous
 62
     7
100
AcDbLine
 10
441.5204571928
 20
519.7256003736
 30
0.0
 11
441.5204571928
 21
518.7261560836
 31
0.0
  0
LINE
  5
110
330
F5
100
AcDbEntity
  8
DV2_Default
  6
Continuous
 62
     7
100
AcDbLine
 10
441.5204571928
 20
520.7250446637
 30
0.0
 11
441.5204571928
 21
519.7256003736
 31
0.0
  0
LINE
  5
111
330
F5
100
AcDbEntity
  8
DV2_Default
  6
Continuous
 62
     7
100
AcDbLine
 10
453.5204571928
 20
508.4118918746
 30
0.0
 11
453.5204571928
 21
519.7256003736
 31
0.0
  0
LINE
  5
112
330
F5
100
AcDbEntity
  8
DV2_Default
  6
Continuous
 62
     7
100
AcDbLine
 10
442.5204571928
 20
509.8492827168
 30
0.0
 11
453.5204571928
 21
509.8492827168
 31
0.0
  0
LINE
  5
113
330
F5
100
AcDbEntity
  8
DV2_Default
  6
Continuous
 62
     7
100
AcDbLine
 10
441.5204571928
 20
508.435855047
 30
0.0
 11
441.7901731318
 21
508.435855047
 31
0.0
  0
ELLIPSE
  5
114
330
F5
100
AcDbEntity
  8
DV2_Default
  6
Continuous
 62
     7
100
AcDbEllipse
 10
442.5204571928
 20
509.1189986558
 30
0.0
 11
0.999999999999994
 21
1.734723475976807E-14
 31
0.0
210
0.0
220
0.0
230
1.0
 40
0.7302840609
 41
1.570796326794884
 42
3.14159265358977
  0
LINE
  5
115
330
F5
100
AcDbEntity
  8
DV2_Default
  6
Continuous
 62
     7
100
AcDbLine
 10
441.5204571928
 20
509.8492827168
 30
0.0
 11
442.5204571928
 21
509.8492827168
 31
0.0
  0
LINE
  5
116
330
F5
100
AcDbEntity
  8
DV2_Default
  6
Continuous
 62
     7
100
AcDbLine
 10
441.5204571928
 20
509.1189986558
 30
0.0
 11
441.5204571928
 21
508.435855047
 31
0.0
  0
LINE
  5
117
330
F5
100
AcDbEntity
  8
DV2_Default
  6
Continuous
 62
     7
100
AcDbLine
 10
441.5204571928
 20
509.8492827168
 30
0.0
 11
441.5204571928
 21
509.1189986558
 31
0.0
  0
LINE
  5
118
330
F5
100
AcDbEntity
  8
DV2_Default
  6
Continuous
 62
     7
100
AcDbLine
 10
453.5204571928
 20
503.7256003736
 30
0.0
 11
453.5204571928
 21
508.4118918746
 31
0.0
  0
LINE
  5
119
330
F5
100
AcDbEntity
  8
DV2_Default
  6
Continuous
 62
     7
100
AcDbLine
 10
442.5204571928
 20
504.7589337069
 30
0.0
 11
453.5204571928
 21
504.7589337069
 31
0.0
  0
ELLIPSE
  5
11A
330
F5
100
AcDbEntity
  8
DV2_Default
  6
Continuous
 62
     7
100
AcDbEllipse
 10
442.5204571928
 20
504.7256003736
 30
0.0
 11
1.000000000000008
 21
0.0
 31
0.0
210
0.0
220
0.0
230
1.0
 40
0.0333333333
 41
1.570796326794897
 42
3.141592653589793
  0
LINE
  5
11B
330
F5
100
AcDbEntity
  8
DV2_Default
  6
Continuous
 62
     7
100
AcDbLine
 10
441.5204571928
 20
504.7589337069
 30
0.0
 11
442.5204571928
 21
504.7589337069
 31
0.0
  0
LINE
  5
11C
330
F5
100
AcDbEntity
  8
DV2_Default
  6
Continuous
 62
     7
100
AcDbLine
 10
441.5204571928
 20
504.7589337069
 30
0.0
 11
441.5204571928
 21
504.7256003736
 31
0.0
  0
LINE
  5
11D
330
F5
100
AcDbEntity
  8
DV2_Default
  6
Continuous
 62
     7
100
AcDbLine
 10
453.5204571928
 20
503.7256003736
 30
0.0
 11
455.5204571928
 21
503.7256003736
 31
0.0
  0
LINE
  5
11E
330
F5
100
AcDbEntity
  8
DV2_Default
  6
Continuous
 62
     7
100
AcDbLine
 10
455.5204571928
 20
535.7256003736
 30
0.0
 11
453.5204571928
 21
535.7256003736
 31
0.0
  0
LINE
  5
11F
330
F5
100
AcDbEntity
  8
DV2_Default
  6
Continuous
 62
     7
100
AcDbLine
 10
439.5204571928
 20
504.7256003736
 30
0.0
 11
441.5204571928
 21
504.7256003736
 31
0.0
  0
LINE
  5
120
330
F5
100
AcDbEntity
  8
DV2_Default
  6
Continuous
 62
     7
100
AcDbLine
 10
441.5204571928
 20
534.7256003736
 30
0.0
 11
439.5204571928
 21
534.7256003736
 31
0.0
  0
LINE
  5
121
330
F5
100
AcDbEntity
  8
DV2_Default
  6
Continuous
 62
     7
100
AcDbLine
 10
453.5204571928
 20
535.7256003736
 30
0.0
 11
442.5204571928
 21
535.7256003736
 31
0.0
  0
ARC
  5
122
330
F5
100
AcDbEntity
  8
DV2_Default
  6
Continuous
 62
     7
100
AcDbCircle
 10
442.5204571928
 20
534.7256003736
 30
0.0
 40
1.000000000000003
100
AcDbArc
 50
90.0
 51
180.0
  0
LINE
  5
123
330
F5
100
AcDbEntity
  8
DV2_Default
  6
Continuous
 62
     7
100
AcDbLine
 10
453.5204571928
 20
531.3322020914
 30
0.0
 11
442.5204571928
 21
531.3322020914
 31
0.0
  0
ARC
  5
124
330
F5
100
AcDbEntity
  8
DV2_Default
  6
Continuous
 62
     7
100
AcDbCircle
 10
442.5204571928
 20
530.3322020914
 30
0.0
 40
1.000000000000001
100
AcDbArc
 50
90.0
 51
180.0
  0
LINE
  5
125
330
F5
100
AcDbEntity
  8
DV2_Default
  6
Continuous
 62
     7
100
AcDbLine
 10
453.5204571928
 20
520.7256003736
 30
0.0
 11
442.5204571928
 21
520.7256003736
 31
0.0
  0
LINE
  5
126
330
F5
100
AcDbEntity
  8
DV2_Default
  6
Continuous
 62
     7
100
AcDbLine
 10
442.5204571928
 20
518.7256003736
 30
0.0
 11
453.5204571928
 21
518.7256003736
 31
0.0
  0
ARC
  5
127
330
F5
100
AcDbEntity
  8
DV2_Default
  6
Continuous
 62
     7
100
AcDbCircle
 10
442.5204571928
 20
519.7256003736
 30
0.0
 40
1.000000000000001
100
AcDbArc
 50
180.0
 51
270.0
  0
ARC
  5
128
330
F5
100
AcDbEntity
  8
DV2_Default
  6
Continuous
 62
     7
100
AcDbCircle
 10
442.5204571928
 20
519.7256003736
 30
0.0
 40
1.000000000000001
100
AcDbArc
 50
90.0
 51
180.0
  0
LINE
  5
129
330
F5
100
AcDbEntity
  8
DV2_Default
  6
Continuous
 62
     7
100
AcDbLine
 10
442.5204571928
 20
508.1189986558
 30
0.0
 11
453.5204571928
 21
508.1189986558
 31
0.0
  0
ARC
  5
12A
330
F5
100
AcDbEntity
  8
DV2_Default
  6
Continuous
 62
     7
100
AcDbCircle
 10
442.5204571928
 20
509.1189986558
 30
0.0
 40
0.999999999999994
100
AcDbArc
 50
180.0
 51
270.0
  0
LINE
  5
12B
330
F5
100
AcDbEntity
  8
DV2_Default
  6
Continuous
 62
     7
100
AcDbLine
 10
442.5204571928
 20
503.7256003736
 30
0.0
 11
453.5204571928
 21
503.7256003736
 31
0.0
  0
ARC
  5
12C
330
F5
100
AcDbEntity
  8
DV2_Default
  6
Continuous
 62
     7
100
AcDbCircle
 10
442.5204571928
 20
504.7256003736
 30
0.0
 40
1.000000000000001
100
AcDbArc
 50
180.0
 51
270.0
  0
ARC
  5
12D
330
F5
100
AcDbEntity
  8
DV2_Default
  6
Continuous
 62
     7
100
AcDbCircle
 10
496.2304571928
 20
533.7256003736
 30
0.0
 40
22.29999999999998
100
AcDbArc
 50
236.8678986682
 51
223.132101436
  0
ARC
  5
12E
330
F5
100
AcDbEntity
  8
DV2_Default
  6
Continuous
 62
     7
100
AcDbCircle
 10
484.1512330708
 20
515.2187815057
 30
0.0
 40
0.1999999999999977
100
AcDbArc
 50
230.0000000521
 51
236.8678986682
  0
LINE
  5
12F
330
F5
100
AcDbEntity
  8
DV2_Default
  6
Continuous
 62
     7
100
AcDbLine
 10
479.9737762501
 20
518.463002519
 30
0.0
 11
484.022675549
 21
515.0655726169
 31
0.0
  0
ARC
  5
130
330
F5
100
AcDbEntity
  8
DV2_Default
  6
Continuous
 62
     7
100
AcDbCircle
 10
480.1023337719
 20
518.6162114078
 30
0.0
 40
0.1999999999999909
100
AcDbArc
 50
223.132101436
 51
230.0000000521
  0
LINE
  5
131
330
F5
100
AcDbEntity
  8
DV2_Default
  6
Continuous
 62
     7
100
AcDbLine
 10
456.0204571928
 20
507.2556003736
 30
0.0
 11
456.0204571928
 21
532.1956003736
 31
0.0
  0
LINE
  5
132
330
F5
100
AcDbEntity
  8
DV2_Default
  6
Continuous
 62
     7
100
AcDbLine
 10
456.228838305
 20
530.1756003736
 30
0.0
 11
456.0204571928
 21
530.1756003736
 31
0.0
  0
LINE
  5
133
330
F5
100
AcDbEntity
  8
DV2_Default
  6
Continuous
 62
     7
100
AcDbLine
 10
456.0204571928
 20
509.2756003736
 30
0.0
 11
456.228838305
 21
509.2756003736
 31
0.0
  0
LINE
  5
134
330
F5
100
AcDbEntity
  8
DV2_Default
  6
Continuous
 62
     7
100
AcDbLine
 10
455.5204571928
 20
506.7556003736
 30
0.0
 11
456.0204571928
 21
507.2556003736
 31
0.0
  0
LINE
  5
135
330
F5
100
AcDbEntity
  8
DV2_Default
  6
Continuous
 62
     7
100
AcDbLine
 10
456.0204571928
 20
532.1956003736
 30
0.0
 11
455.5204571928
 21
532.6956003736
 31
0.0
  0
LINE
  5
136
330
F5
100
AcDbEntity
  8
DV2_Default
  6
Continuous
 62
     7
100
AcDbLine
 10
487.6508301613
 20
554.5256003736
 30
0.0
 11
488.1899348217
 21
554.5256003736
 31
0.0
  0
LINE
  5
137
330
F5
100
AcDbEntity
  8
DV2_Default
  6
Continuous
 62
     7
100
AcDbLine
 10
481.4910542198
 20
550.7256003736
 30
0.0
 11
481.7982016518
 21
550.7256003736
 31
0.0
  0
LINE
  5
138
330
F5
100
AcDbEntity
  8
DV2_Default
  6
Continuous
 62
     7
100
AcDbLine
 10
483.4242087179
 20
552.2256003736
 30
0.0
 11
483.7789512598
 21
552.2256003736
 31
0.0
  0
ARC
  5
139
330
F5
100
AcDbEntity
  8
DV2_Default
  6
Continuous
 62
     7
100
AcDbCircle
 10
476.2904883767
 20
-1700.9338725963
 30
0.0
 40
2258.690431166321
100
AcDbArc
 50
90.1230612376
 51
90.1329881623
  0
SPLINE
  5
13A
330
F5
100
AcDbEntity
  8
DV2_Default
  6
Continuous
 62
     7
100
AcDbSpline
210
0.0
220
0.0
230
1.0
 70
    12
 71
     3
 72
    12
 73
     8
 74
     0
 42
0.000000001550887
 43
0.0000000001
 40
0.0
 40
0.0
 40
0.0
 40
0.0
 40
0.4515478895045542
 40
0.4515478895045542
 40
0.9030957790091083
 40
0.9030957790091083
 40
1.0
 40
1.0
 40
1.0
 40
1.0
 10
476.1171137866841
 20
557.7362565681569
 30
0.0
 41
1.0
 10
477.085699802253
 20
557.7354221519314
 30
0.0
 41
1.0
 10
478.0565032731599
 20
557.7343655171447
 30
0.0
 41
1.0
 10
479.9983291697444
 20
557.7316994401251
 30
0.0
 41
1.0
 10
480.9692285708522
 20
557.7300904706087
 30
0.0
 41
1.0
 10
482.1484230453831
 20
557.7277345404447
 30
0.0
 41
1.0
 10
482.3567392406571
 20
557.727328466018
 30
0.0
 41
1.0
 10
482.5650294242271
 20
557.7269394569614
 30
0.0
 41
1.0
  0
SPLINE
  5
13B
330
F5
100
AcDbEntity
  8
DV2_Default
  6
Continuous
 62
     7
100
AcDbSpline
210
0.0
220
0.0
230
1.0
 70
    12
 71
     3
 72
    10
 73
     6
 74
     0
 42
0.0000000069632863
 43
0.0000000001
 40
0.0
 40
0.0
 40
0.0
 40
0.0
 40
0.0009444183629396
 40
0.0009444183629396
 40
1.0
 40
1.0
 40
1.0
 40
1.0
 10
496.5053446084358
 20
557.670944880724
 30
0.0
 41
1.0
 10
496.50579740303
 20
557.6709349111429
 30
0.0
 41
1.0
 10
496.5062501976566
 20
557.6709249398859
 30
0.0
 41
1.0
 10
496.9856930768071
 20
557.6603650717356
 30
0.0
 41
1.0
 10
497.4664439232941
 20
557.6525395074057
 30
0.0
 41
1.0
 10
497.9406376648657
 20
557.6280822995492
 30
0.0
 41
1.0
  0
SPLINE
  5
13C
330
F5
100
AcDbEntity
  8
DV2_Default
  6
Continuous
 62
     7
100
AcDbSpline
210
0.0
220
0.0
230
1.0
 70
    12
 71
     3
 72
    10
 73
     6
 74
     0
 42
0.0000000062503243
 43
0.0000000001
 40
0.0
 40
0.0
 40
0.0
 40
0.0
 40
0.4817295232183699
 40
0.4817295232183699
 40
1.0
 40
1.0
 40
1.0
 40
1.0
 10
504.6101925188762
 20
556.224525586457
 30
0.0
 41
1.0
 10
504.8277113009412
 20
556.1437669990671
 30
0.0
 41
1.0
 10
504.8720397139646
 20
556.1206455127995
 30
0.0
 41
1.0
 10
504.5612108150753
 20
556.2387436165001
 30
0.0
 41
1.0
 10
504.1869035207507
 20
556.3845208269994
 30
0.0
 41
1.0
 10
503.6315255014079
 20
556.5641124397582
 30
0.0
 41
1.0
  0
SPLINE
  5
13D
330
F5
100
AcDbEntity
  8
DV2_Default
  6
Continuous
 62
     7
100
AcDbSpline
210
0.0
220
0.0
230
1.0
 70
     8
 71
     3
 72
     8
 73
     4
 74
     0
 42
0.0000000024730922
 43
0.0000000001
 40
0.0
 40
0.0
 40
0.0
 40
0.0
 40
1.0
 40
1.0
 40
1.0
 40
1.0
 10
509.9532541723447
 20
553.415070462772
 30
0.0
 10
508.841826751394
 20
554.1839039537614
 30
0.0
 10
507.6743103882256
 20
554.8612924214804
 30
0.0
 10
506.4613524305171
 20
555.4361622953046
 30
0.0
  0
ARC
  5
13E
330
F5
100
AcDbEntity
  8
DV2_Default
  6
Continuous
 62
     7
100
AcDbCircle
 10
496.2283476482
 20
533.7270105103
 30
0.0
 40
23.99904058203986
100
AcDbArc
 50
179.700914941
 51
55.1184010067
  0
LINE
  5
13F
330
F5
100
AcDbEntity
  8
DV2_Default
  6
Continuous
 62
     7
100
AcDbLine
 10
472.2296340355
 20
533.8522853897
 30
0.0
 11
472.2639553047
 21
537.0791274515
 31
0.0
  0
LINE
  5
140
330
F5
100
AcDbEntity
  8
DV2_Default
  6
Continuous
 62
     7
100
AcDbLine
 10
509.9539032449
 20
553.4156054495
 30
0.0
 11
509.9529776655
 21
553.4142774548
 31
0.0
  0
SPLINE
  5
141
330
F5
100
AcDbEntity
  8
DV2_Default
  6
Continuous
 62
     7
100
AcDbSpline
210
0.0
220
0.0
230
1.0
 70
     8
 71
     3
 72
    22
 73
    18
 74
     0
 42
0.0000000004115571
 43
0.0000000001
 40
0.0
 40
0.0
 40
0.0
 40
0.0
 40
0.0625000000000001
 40
0.0625000000000001
 40
0.1250000000000001
 40
0.1250000000000001
 40
0.2500000000000003
 40
0.2500000000000003
 40
0.3750000000000004
 40
0.3750000000000004
 40
0.5000000000000006
 40
0.5000000000000006
 40
0.6250000000000007
 40
0.6250000000000007
 40
0.7500000000000007
 40
0.7500000000000007
 40
1.0
 40
1.0
 40
1.0
 40
1.0
 10
472.2639553046756
 20
537.0791274514532
 30
0.0
 10
472.2752984233793
 20
537.5871255407939
 30
0.0
 10
472.2862555207993
 20
538.0951307911484
 30
0.0
 10
472.3027691424553
 20
539.1112414769532
 30
0.0
 10
472.3161442138968
 20
539.6206867743356
 30
0.0
 10
472.2404776565738
 20
541.1321826395636
 30
0.0
 10
472.056642317189
 20
542.1214254200943
 30
0.0
 10
471.4211115488429
 20
544.0615606373386
 30
0.0
 10
470.9822776930446
 20
544.9650138189677
 30
0.0
 10
469.8721121998781
 20
546.6439949983311
 30
0.0
 10
469.1931102150631
 20
547.4210020980696
 30
0.0
 10
467.6762913798572
 20
548.7440059692053
 30
0.0
 10
466.8136715610622
 20
549.3036034972613
 30
0.0
 10
465.0081892013268
 20
550.2090153807375
 30
0.0
 10
464.0669184762355
 20
550.564170531436
 30
0.0
 10
461.1879146924761
 20
551.4898994505602
 30
0.0
 10
459.2053806454426
 20
551.9322504584951
 30
0.0
 10
457.2306267841205
 20
552.3730894117448
 30
0.0
  0
SPLINE
  5
142
330
F5
100
AcDbEntity
  8
DV2_Default
  6
Continuous
 62
     7
100
AcDbSpline
210
0.0
220
0.0
230
1.0
 70
     8
 71
     3
 72
    18
 73
    14
 74
     0
 42
0.0000000002144267
 43
0.0000000001
 40
0.0
 40
0.0
 40
0.0
 40
0.0
 40
0.5
 40
0.5
 40
0.625
 40
0.625
 40
0.6875
 40
0.6875
 40
0.75
 40
0.75
 40
0.875
 40
0.875
 40
1.0
 40
1.0
 40
1.0
 40
1.0
 10
464.2304571927716
 20
557.7391803039362
 30
0.0
 10
472.0040516932149
 20
557.7396138384137
 30
0.0
 10
479.7775689046383
 20
557.7106129762725
 30
0.0
 10
489.4946682274579
 20
557.7277974785029
 30
0.0
 10
491.4380905802441
 20
557.731960983603
 30
0.0
 10
494.3531223807668
 20
557.7084996844927
 30
0.0
 10
495.3249321546089
 20
557.6957244864213
 30
0.0
 10
497.2678681378821
 20
557.6551303697008
 30
0.0
 10
498.2389305313528
 20
557.6324059680059
 30
0.0
 10
501.1100136321832
 20
557.3122566311304
 30
0.0
 10
502.9909368797978
 20
556.8435141580911
 30
0.0
 10
506.6349332971772
 20
555.4423139199293
 30
0.0
 10
508.3455038895388
 20
554.5272731388873
 30
0.0
 10
509.953903244882
 20
553.4156054495293
 30
0.0
  0
LINE
  5
143
330
F5
100
AcDbEntity
  8
DV2_Default
  6
Continuous
 62
     7
100
AcDbLine
 10
457.2306267841
 20
552.3730894117
 30
0.0
 11
457.0120223467
 21
552.4218901019
 31
0.0
  0
LINE
  5
144
330
F5
100
AcDbEntity
  8
DV2_Default
  6
Continuous
 62
     7
100
AcDbLine
 10
457.2298968844
 20
557.7391803038
 30
0.0
 11
464.2304571928
 21
557.7391803039
 31
0.0
  0
ARC
  5
145
330
F5
100
AcDbEntity
  8
DV2_Default
  6
Continuous
 62
     7
100
AcDbCircle
 10
457.2298968844
 20
553.3978668874
 30
0.0
 40
0.9999999999999907
100
AcDbArc
 50
180.0
 51
257.4157750306
  0
ARC
  5
146
330
F5
100
AcDbEntity
  8
DV2_Default
  6
Continuous
 62
     7
100
AcDbCircle
 10
457.2298968844
 20
556.7391803038
 30
0.0
 40
1.000000000000001
100
AcDbArc
 50
90.0
 51
180.0
  0
LINE
  5
147
330
F5
100
AcDbEntity
  8
DV2_Default
  6
Continuous
 62
     7
100
AcDbLine
 10
456.2298968844
 20
553.3978668874
 30
0.0
 11
456.2298968844
 21
556.7391803038
 31
0.0
  0
LINE
  5
148
330
F5
100
AcDbEntity
  8
DV2_Default
  6
Continuous
 62
     7
100
AcDbLine
 10
473.2638366098
 20
537.0626499719
 30
0.0
 11
472.2639553047
 21
537.0791274515
 31
0.0
  0
SPLINE
  5
149
330
F5
100
AcDbEntity
  8
DV2_Default
  6
Continuous
 62
     7
100
AcDbSpline
210
0.0
220
0.0
230
1.0
 70
     8
 71
     3
 72
    14
 73
    10
 74
     0
 42
0.0000000069898768
 43
0.0000000001
 40
0.0
 40
0.0
 40
0.0
 40
0.0
 40
0.25
 40
0.25
 40
0.5
 40
0.5
 40
0.75
 40
0.75
 40
1.0
 40
1.0
 40
1.0
 40
1.0
 10
509.953903244882
 20
553.4156054495293
 30
0.0
 10
509.9539032433682
 20
553.415605449256
 30
0.0
 10
509.8969701025157
 20
553.4053544491043
 30
0.0
 10
509.7126197598757
 20
553.371794918184
 30
0.0
 10
509.5888784425666
 20
553.3491239711308
 30
0.0
 10
509.3163680161165
 20
553.2981555393903
 30
0.0
 10
509.1697037755604
 20
553.2702863735938
 30
0.0
 10
508.86246215747
 20
553.2107124517793
 30
0.0
 10
508.7052224875166
 20
553.1796425149781
 30
0.0
 10
508.54852595198
 20
553.1480869120518
 30
0.0
  0
LINE
  5
14A
330
F5
100
AcDbEntity
  8
DV2_Default
  6
Continuous
 62
     7
100
AcDbLine
 10
473.2296065825
 20
533.8443863556
 30
0.0
 11
472.2296340355
 21
533.8522853897
 31
0.0
  0
SPLINE
  5
14B
330
F5
100
AcDbEntity
  8
DV2_Default
  6
Continuous
 62
     7
100
AcDbSpline
210
0.0
220
0.0
230
1.0
 70
     8
 71
     3
 72
    14
 73
    10
 74
     0
 42
0.0000000069948274
 43
0.0000000001
 40
0.0
 40
0.0
 40
0.0
 40
0.0
 40
0.25
 40
0.25
 40
0.5
 40
0.5
 40
0.75
 40
0.75
 40
1.0
 40
1.0
 40
1.0
 40
1.0
 10
509.9529776654595
 20
553.4142774548362
 30
0.0
 10
509.9529776654595
 20
553.4142774548362
 30
0.0
 10
509.8961860776361
 20
553.4041803409998
 30
0.0
 10
509.7120548519736
 20
553.3708856180112
 30
0.0
 10
509.5883831817511
 20
553.3483063846263
 30
0.0
 10
509.31599567633
 20
553.2975470668399
 30
0.0
 10
509.169389886563
 20
553.2697806718336
 30
0.0
 10
508.8622475302043
 20
553.2103938993782
 30
0.0
 10
508.705060993505
 20
553.1794086402435
 30
0.0
 10
508.548412297734
 20
553.1479238442138
 30
0.0
  0
CIRCLE
  5
14C
330
F5
100
AcDbEntity
  8
DV2_Default
  6
Continuous
 62
     7
100
AcDbCircle
 10
496.2304571928
 20
533.7256003736
 30
0.0
 40
22.5
  0
LINE
  5
14D
330
F5
100
AcDbEntity
  8
DV2_Default
  6
Continuous
 62
     7
100
AcDbLine
 10
487.7128222126
 20
554.5510630178
 30
0.0
 11
488.2561167401
 21
554.5510630178
 31
0.0
  0
LINE
  5
14E
330
F5
100
AcDbEntity
  8
DV2_Default
  6
Continuous
 62
     7
100
AcDbLine
 10
488.8353574639
 20
554.9756003736
 30
0.0
 11
489.4682460159
 21
554.9756003736
 31
0.0
  0
LINE
  5
14F
330
F5
100
AcDbEntity
  8
DV2_Default
  6
Continuous
 62
     7
100
AcDbLine
 10
480.9448291198
 20
549.9625820641
 30
0.0
 11
480.6957324572
 21
550.0020350996
 31
0.0
  0
ARC
  5
150
330
F5
100
AcDbEntity
  8
DV2_Default
  6
Continuous
 62
     7
100
AcDbCircle
 10
475.6501961451
 20
-1947.7085841579
 30
0.0
 40
2505.461260489034
100
AcDbArc
 50
90.1159883165
 51
90.1839774682
  0
SPLINE
  5
151
330
F5
100
AcDbEntity
  8
DV2_Default
  6
Continuous
 62
     7
100
AcDbSpline
210
0.0
220
0.0
230
1.0
 70
     8
 71
     3
 72
     8
 73
     4
 74
     0
 42
0.0000000570931738
 43
0.0000000001
 40
0.0
 40
0.0
 40
0.0
 40
0.0
 40
1.0
 40
1.0
 40
1.0
 40
1.0
 10
504.79210481625
 20
556.1513361132012
 30
0.0
 10
504.8391347177509
 20
556.133502455441
 30
0.0
 10
504.8140365569787
 20
556.1427209798878
 30
0.0
 10
504.7223093336864
 20
556.1775502215232
 30
0.0
  0
SPLINE
  5
152
330
F5
100
AcDbEntity
  8
DV2_Default
  6
Continuous
 62
     7
100
AcDbSpline
210
0.0
220
0.0
230
1.0
 70
     8
 71
     3
 72
     8
 73
     4
 74
     0
 42
0.0000000019390086
 43
0.0000000001
 40
0.0
 40
0.0
 40
0.0
 40
0.0
 40
1.0
 40
1.0
 40
1.0
 40
1.0
 10
476.4806997971199
 20
557.7258456196151
 30
0.0
 10
474.7615877940408
 20
557.728197840623
 30
0.0
 10
473.0425088519367
 20
557.7309732709302
 30
0.0
 10
471.3234306197983
 20
557.7333816814718
 30
0.0
  0
SPLINE
  5
153
330
F5
100
AcDbEntity
  8
DV2_Default
  6
Continuous
 62
     7
100
AcDbSpline
210
0.0
220
0.0
230
1.0
 70
     8
 71
     3
 72
     8
 73
     4
 74
     0
 42
0.0000000016713751
 43
0.0000000001
 40
0.0
 40
0.0
 40
0.0
 40
0.0
 40
1.0
 40
1.0
 40
1.0
 40
1.0
 10
470.2135521203556
 20
557.7348777378613
 30
0.0
 10
468.219212396694
 20
557.7374460599323
 30
0.0
 10
466.2248642582786
 20
557.739291532106
 30
0.0
 10
464.2304571927768
 20
557.7391803037414
 30
0.0
  0
LINE
  5
154
330
F5
100
AcDbEntity
  8
DV2_Default
  6
Continuous
 62
     7
100
AcDbLine
 10
479.7304571928
 20
502.2256003736
 30
0.0
 11
497.7304571928
 21
502.2256003736
 31
0.0
  0
LINE
  5
155
330
F5
100
AcDbEntity
  8
DV2_Default
  6
Continuous
 62
     7
100
AcDbLine
 10
499.2104571928
 20
500.7456003736
 30
0.0
 11
478.2504571928
 21
500.7456003736
 31
0.0
  0
LINE
  5
156
330
F5
100
AcDbEntity
  8
DV2_Default
  6
Continuous
 62
     7
100
AcDbLine
 10
498.0104571928
 20
493.3256003736
 30
0.0
 11
479.4504571928
 21
493.3256003736
 31
0.0
  0
LINE
  5
157
330
F5
100
AcDbEntity
  8
DV2_Default
  6
Continuous
 62
     7
100
AcDbLine
 10
499.2104571928
 20
494.5256003736
 30
0.0
 11
478.2504571928
 21
494.5256003736
 31
0.0
  0
LINE
  5
158
330
F5
100
AcDbEntity
  8
DV2_Default
  6
Continuous
 62
     7
100
AcDbLine
 10
478.2504571928
 20
500.7456003736
 30
0.0
 11
478.2504571928
 21
494.5256003736
 31
0.0
  0
LINE
  5
159
330
F5
100
AcDbEntity
  8
DV2_Default
  6
Continuous
 62
     7
100
AcDbLine
 10
499.2104571928
 20
494.5256003736
 30
0.0
 11
499.2104571928
 21
500.7456003736
 31
0.0
  0
LINE
  5
15A
330
F5
100
AcDbEntity
  8
DV2_Default
  6
Continuous
 62
     7
100
AcDbLine
 10
479.7304571928
 20
504.4545591523
 30
0.0
 11
479.7304571928
 21
502.2256003736
 31
0.0
  0
LINE
  5
15B
330
F5
100
AcDbEntity
  8
DV2_Default
  6
Continuous
 62
     7
100
AcDbLine
 10
497.7304571928
 20
502.2256003736
 30
0.0
 11
497.7304571928
 21
509.2776446161
 31
0.0
  0
LINE
  5
15C
330
F5
100
AcDbEntity
  8
DV2_Default
  6
Continuous
 62
     7
100
AcDbLine
 10
499.2104571928
 20
500.7456003736
 30
0.0
 11
497.7304571928
 21
502.2256003736
 31
0.0
  0
LINE
  5
15D
330
F5
100
AcDbEntity
  8
DV2_Default
  6
Continuous
 62
     7
100
AcDbLine
 10
479.7304571928
 20
502.2256003736
 30
0.0
 11
478.2504571928
 21
500.7456003736
 31
0.0
  0
LINE
  5
15E
330
F5
100
AcDbEntity
  8
DV2_Default
  6
Continuous
 62
     7
100
AcDbLine
 10
478.2504571928
 20
494.5256003736
 30
0.0
 11
479.4504571928
 21
493.3256003736
 31
0.0
  0
LINE
  5
15F
330
F5
100
AcDbEntity
  8
DV2_Default
  6
Continuous
 62
     7
100
AcDbLine
 10
498.0104571928
 20
493.3256003736
 30
0.0
 11
499.2104571928
 21
494.5256003736
 31
0.0
  0
LINE
  5
160
330
F5
100
AcDbEntity
  8
DV2_Default
  6
Continuous
 62
     7
100
AcDbLine
 10
498.0454571928
 20
501.9106003736
 30
0.0
 11
498.0454571928
 21
493.3606003736
 31
0.0
  0
LINE
  5
161
330
F5
100
AcDbEntity
  8
DV2_Default
  6
Continuous
 62
     7
100
AcDbLine
 10
479.4154571928
 20
501.9106003736
 30
0.0
 11
479.4154571928
 21
493.3606003736
 31
0.0
  0
ARC
  5
162
330
F5
100
AcDbEntity
  8
DV2_Default
  6
Continuous
 62
     7
100
AcDbCircle
 10
527.8761317076
 20
528.9110602043
 30
0.0
 40
8.010869529999901
100
AcDbArc
 50
89.8915262928
 51
171.306334797
  0
SPLINE
  5
163
330
F5
100
AcDbEntity
  8
DV2_Default
  6
Continuous
 62
     7
100
AcDbSpline
210
0.0
220
0.0
230
1.0
 70
     8
 71
     3
 72
    11
 73
     7
 74
     0
 42
0.0000000011724678
 43
0.0000000001
 40
0.0
 40
0.0
 40
0.0
 40
0.0
 40
0.25
 40
0.5
 40
0.75
 40
1.0
 40
1.0
 40
1.0
 40
1.0
 10
520.2052950053798
 20
534.7815495931765
 30
0.0
 10
520.1918723168648
 20
535.0757642967934
 30
0.0
 10
520.5666751266378
 20
535.6445425225244
 30
0.0
 10
522.1780879099981
 20
536.3993520062188
 30
0.0
 10
524.7155981989338
 20
536.9601120545393
 30
0.0
 10
526.8076936384248
 20
537.2110127784794
 30
0.0
 10
527.8748437736366
 20
537.2555404369602
 30
0.0
  0
SPLINE
  5
164
330
F5
100
AcDbEntity
  8
DV2_Default
  6
Continuous
 62
     7
100
AcDbSpline
210
0.0
220
0.0
230
1.0
 70
     8
 71
     3
 72
    11
 73
     7
 74
     0
 42
0.0000000010171252
 43
0.0000000001
 40
0.0
 40
0.0
 40
0.0
 40
0.0
 40
0.25
 40
0.5
 40
0.75
 40
1.0
 40
1.0
 40
1.0
 40
1.0
 10
520.1969632229865
 20
532.4879051377404
 30
0.0
 10
520.2256088615577
 20
533.0519319325185
 30
0.0
 10
520.6312063181997
 20
534.1504731587843
 30
0.0
 10
522.210449620568
 20
535.6350550147284
 30
0.0
 10
524.7310966300464
 20
536.7232621558626
 30
0.0
 10
526.8290400784322
 20
537.0859602895491
 30
0.0
 10
527.8825886086529
 20
537.1083259791798
 30
0.0
  0
SPLINE
  5
165
330
F5
100
AcDbEntity
  8
DV2_Default
  6
Continuous
 62
     7
100
AcDbSpline
210
0.0
220
0.0
230
1.0
 70
     8
 71
     3
 72
    11
 73
     7
 74
     0
 42
0.0000000009173768
 43
0.0000000001
 40
0.0
 40
0.0
 40
0.0
 40
0.0
 40
0.25
 40
0.5
 40
0.75
 40
1.0
 40
1.0
 40
1.0
 40
1.0
 10
520.0729952181144
 20
530.9917153596699
 30
0.0
 10
520.1606786656545
 20
531.758748352444
 30
0.0
 10
520.6511560162785
 20
533.2376394919922
 30
0.0
 10
522.2782466069895
 20
535.2055247738276
 30
0.0
 10
524.7817142837386
 20
536.620233442701
 30
0.0
 10
526.852332863365
 20
537.0041860968984
 30
0.0
 10
527.8879315109621
 20
536.9966567637405
 30
0.0
  0
ARC
  5
166
330
F5
100
AcDbEntity
  8
DV2_Default
  6
Continuous
 62
     7
100
AcDbCircle
 10
527.7903786634
 20
529.0242643499
 30
0.0
 40
7.909657791326547
100
AcDbArc
 50
89.2726052018
 51
171.0198788664
  0
ARC
  5
167
330
F5
100
AcDbEntity
  8
DV2_Default
  6
Continuous
 62
     7
100
AcDbCircle
 10
496.228838305
 20
533.7219153776
 30
0.0
 40
24.00000000000002
100
AcDbArc
 50
285.0000316161
 51
16.3326219423
  0
ARC
  5
168
330
F5
100
AcDbEntity
  8
DV2_Default
  6
Continuous
 62
     7
100
AcDbCircle
 10
496.228838305
 20
533.7219153776
 30
0.0
 40
24.00000000000002
100
AcDbArc
 50
64.7516973702
 51
64.8245789524
  0
ARC
  5
169
330
F5
100
AcDbEntity
  8
DV2_Default
  6
Continuous
 62
     7
100
AcDbCircle
 10
496.228838305
 20
533.7219153776
 30
0.0
 40
24.00000000000002
100
AcDbArc
 50
84.6176346353
 51
90.0
  0
LINE
  5
16A
330
F5
100
AcDbEntity
  8
DV2_Default
  6
Continuous
 62
     7
100
AcDbLine
 10
457.4876573501
 20
498.4946188971
 30
0.0
 11
502.4405081795
 21
510.5396989743
 31
0.0
  0
LINE
  5
16B
330
F5
100
AcDbEntity
  8
DV2_Default
  6
Continuous
 62
     7
100
AcDbLine
 10
496.228838305
 20
557.7219153776
 30
0.0
 11
487.6277454599
 21
557.7219153776
 31
0.0
  0
LINE
  5
16C
330
F5
100
AcDbEntity
  8
DV2_Default
  6
Continuous
 62
     7
100
AcDbLine
 10
476.4807039225
 20
557.7219153776
 30
0.0
 11
471.0519827823
 21
557.7219153776
 31
0.0
  0
LINE
  5
16D
330
F5
100
AcDbEntity
  8
DV2_Default
  6
Continuous
 62
     7
100
AcDbLine
 10
456.228838305
 20
556.7219153776
 30
0.0
 11
456.228838305
 21
499.4605447234
 31
0.0
  0
ARC
  5
16E
330
F5
100
AcDbEntity
  8
DV2_Default
  6
Continuous
 62
     7
100
AcDbCircle
 10
457.228838305
 20
499.4605447234
 30
0.0
 40
1.000000000000001
100
AcDbArc
 50
180.0
 51
285.0
  0
ARC
  5
16F
330
F5
100
AcDbEntity
  8
DV2_Default
  6
Continuous
 62
     7
100
AcDbCircle
 10
457.228838305
 20
556.7219153776
 30
0.0
 40
1.000000000000001
100
AcDbArc
 50
175.9958279351
 51
180.0
  0
LINE
  5
170
330
F5
100
AcDbEntity
  8
DV2_Default
  6
Continuous
 62
     7
100
AcDbLine
 10
527.8912980638
 20
536.9219153776
 30
0.0
 11
584.428838305
 21
536.9219153776
 31
0.0
  0
ARC
  5
171
330
F5
100
AcDbEntity
  8
DV2_Default
  6
Continuous
 62
     7
100
AcDbCircle
 10
584.428838305
 20
547.3219153776
 30
0.0
 40
10.4
100
AcDbArc
 50
269.9999999999
 51
90.0
  0
LINE
  5
172
330
F5
100
AcDbEntity
  8
DV2_Default
  6
Continuous
 62
     7
100
AcDbLine
 10
512.8495175409
 20
557.7219153776
 30
0.0
 11
508.2432797418
 21
557.7219153776
 31
0.0
  0
LINE
  5
173
330
F5
100
AcDbEntity
  8
DV2_Default
  6
Continuous
 62
     7
100
AcDbLine
 10
584.428838305
 20
557.7219153776
 30
0.0
 11
512.8520273753
 21
557.7219153776
 31
0.0
  0
LINE
  5
174
330
F5
100
AcDbEntity
  8
DV2_Default
  6
Continuous
 62
     7
100
AcDbLine
 10
508.2432797418
 20
557.7219153776
 30
0.0
 11
496.228838305
 21
557.7219153776
 31
0.0
  0
LINE
  5
175
330
F5
100
AcDbEntity
  8
DV2_Default
  6
Continuous
 62
     7
100
AcDbLine
 10
519.9760569876
 20
530.2367708121
 30
0.0
 11
519.9871729322
 21
530.3046643512
 31
0.0
  0
ENDBLK
  5
177
330
F5
100
AcDbEntity
  8
0
100
AcDbBlockEnd
  0
BLOCK
  5
249
330
178
100
AcDbEntity
  8
0
100
AcDbBlockBegin
  2
SE2
 70
     0
 10
0.0
 20
0.0
 30
0.0
  3
SE2
  1

  0
LINE
  5
17B
330
178
100
AcDbEntity
  8
DV3_Default
  6
Continuous
 62
     7
100
AcDbLine
 10
238.950668705
 20
356.1513301349
 30
0.0
 11
270.950668705
 21
356.1513301349
 31
0.0
  0
LINE
  5
17C
330
178
100
AcDbEntity
  8
DV3_Default
  6
Continuous
 62
     7
100
AcDbLine
 10
254.950668705
 20
358.1513301349
 30
0.0
 11
266.264377204
 21
358.1513301349
 31
0.0
  0
LINE
  5
17D
330
178
100
AcDbEntity
  8
DV3_Default
  6
Continuous
 62
     7
100
AcDbLine
 10
269.950668705
 20
372.1513301349
 30
0.0
 11
239.950668705
 21
372.1513301349
 31
0.0
  0
LINE
  5
17E
330
178
100
AcDbEntity
  8
DV3_Default
  6
Continuous
 62
     7
100
AcDbLine
 10
253.951224415
 20
370.1513301349
 30
0.0
 11
253.951224415
 21
369.1513301349
 31
0.0
  0
LINE
  5
17F
330
178
100
AcDbEntity
  8
DV3_Default
  6
Continuous
 62
     7
100
AcDbLine
 10
255.9501129951
 20
370.1513301349
 30
0.0
 11
255.9501129951
 21
369.1513301349
 31
0.0
  0
LINE
  5
180
330
178
100
AcDbEntity
  8
DV3_Default
  6
Continuous
 62
     7
100
AcDbLine
 10
255.9501129951
 20
370.1513301349
 30
0.0
 11
254.950668705
 21
370.1513301349
 31
0.0
  0
LINE
  5
181
330
178
100
AcDbEntity
  8
DV3_Default
  6
Continuous
 62
     7
100
AcDbLine
 10
254.950668705
 20
370.1513301349
 30
0.0
 11
253.951224415
 21
370.1513301349
 31
0.0
  0
ELLIPSE
  5
182
330
178
100
AcDbEntity
  8
DV3_Default
  6
Continuous
 62
     7
100
AcDbEllipse
 10
254.950668705
 20
369.1513301349
 30
0.0
 11
-1.942890293094024E-13
 21
-0.999999999999987
 31
0.0
210
0.0
220
0.0
230
1.0
 40
0.99944429
 41
3.141592653589817
 42
4.712388980384883
  0
ELLIPSE
  5
183
330
178
100
AcDbEntity
  8
DV3_Default
  6
Continuous
 62
     7
100
AcDbEllipse
 10
254.950668705
 20
369.1513301349
 30
0.0
 11
1.942890293094024E-13
 21
-0.999999999999987
 31
0.0
210
0.0
220
0.0
230
1.0
 40
0.99944429
 41
1.570796326794702
 42
3.14159265358977
  0
LINE
  5
184
330
178
100
AcDbEntity
  8
DV3_Default
  6
Continuous
 62
     7
100
AcDbLine
 10
243.6369602061
 20
358.1513301349
 30
0.0
 11
254.950668705
 21
358.1513301349
 31
0.0
  0
LINE
  5
185
330
178
100
AcDbEntity
  8
DV3_Default
  6
Continuous
 62
     7
100
AcDbLine
 10
245.0743510482
 20
369.1513301349
 30
0.0
 11
245.0743510482
 21
358.1513301349
 31
0.0
  0
LINE
  5
186
330
178
100
AcDbEntity
  8
DV3_Default
  6
Continuous
 62
     7
100
AcDbLine
 10
243.6609233784
 20
370.1513301349
 30
0.0
 11
243.6609233784
 21
369.8816141959
 31
0.0
  0
ELLIPSE
  5
187
330
178
100
AcDbEntity
  8
DV3_Default
  6
Continuous
 62
     7
100
AcDbEllipse
 10
244.3440669872
 20
369.1513301349
 30
0.0
 11
0.0
 21
-1.000000000000001
 31
0.0
210
0.0
220
0.0
230
1.0
 40
0.7302840609
 41
1.570796326794897
 42
3.141592653589793
  0
LINE
  5
188
330
178
100
AcDbEntity
  8
DV3_Default
  6
Continuous
 62
     7
100
AcDbLine
 10
245.0743510482
 20
370.1513301349
 30
0.0
 11
245.0743510482
 21
369.1513301349
 31
0.0
  0
LINE
  5
189
330
178
100
AcDbEntity
  8
DV3_Default
  6
Continuous
 62
     7
100
AcDbLine
 10
244.3440669872
 20
370.1513301349
 30
0.0
 11
243.6609233784
 21
370.1513301349
 31
0.0
  0
LINE
  5
18A
330
178
100
AcDbEntity
  8
DV3_Default
  6
Continuous
 62
     7
100
AcDbLine
 10
245.0743510482
 20
370.1513301349
 30
0.0
 11
244.3440669872
 21
370.1513301349
 31
0.0
  0
LINE
  5
18B
330
178
100
AcDbEntity
  8
DV3_Default
  6
Continuous
 62
     7
100
AcDbLine
 10
238.950668705
 20
358.1513301349
 30
0.0
 11
243.6369602061
 21
358.1513301349
 31
0.0
  0
LINE
  5
18C
330
178
100
AcDbEntity
  8
DV3_Default
  6
Continuous
 62
     7
100
AcDbLine
 10
239.9840020384
 20
369.1513301349
 30
0.0
 11
239.9840020384
 21
358.1513301349
 31
0.0
  0
ELLIPSE
  5
18D
330
178
100
AcDbEntity
  8
DV3_Default
  6
Continuous
 62
     7
100
AcDbEllipse
 10
239.950668705
 20
369.1513301349
 30
0.0
 11
0.0
 21
-1.000000000000001
 31
0.0
210
0.0
220
0.0
230
1.0
 40
0.0333333333
 41
1.570796326794897
 42
3.141592653589793
  0
LINE
  5
18E
330
178
100
AcDbEntity
  8
DV3_Default
  6
Continuous
 62
     7
100
AcDbLine
 10
239.9840020384
 20
370.1513301349
 30
0.0
 11
239.9840020384
 21
369.1513301349
 31
0.0
  0
LINE
  5
18F
330
178
100
AcDbEntity
  8
DV3_Default
  6
Continuous
 62
     7
100
AcDbLine
 10
239.9840020384
 20
370.1513301349
 30
0.0
 11
239.950668705
 21
370.1513301349
 31
0.0
  0
LINE
  5
190
330
178
100
AcDbEntity
  8
DV3_Default
  6
Continuous
 62
     7
100
AcDbLine
 10
269.9173353717
 20
369.1513301349
 30
0.0
 11
269.9173353717
 21
358.1513301349
 31
0.0
  0
LINE
  5
191
330
178
100
AcDbEntity
  8
DV3_Default
  6
Continuous
 62
     7
100
AcDbLine
 10
269.9173353717
 20
370.1513301349
 30
0.0
 11
269.9173353717
 21
369.1513301349
 31
0.0
  0
ELLIPSE
  5
192
330
178
100
AcDbEntity
  8
DV3_Default
  6
Continuous
 62
     7
100
AcDbEllipse
 10
269.950668705
 20
369.1513301349
 30
0.0
 11
0.0
 21
-1.000000000000001
 31
0.0
210
0.0
220
0.0
230
1.0
 40
0.0333333333
 41
3.141592653589793
 42
4.71238898038469
  0
LINE
  5
193
330
178
100
AcDbEntity
  8
DV3_Default
  6
Continuous
 62
     7
100
AcDbLine
 10
269.950668705
 20
370.1513301349
 30
0.0
 11
269.9173353717
 21
370.1513301349
 31
0.0
  0
LINE
  5
194
330
178
100
AcDbEntity
  8
DV3_Default
  6
Continuous
 62
     7
100
AcDbLine
 10
266.264377204
 20
358.1513301349
 30
0.0
 11
270.950668705
 21
358.1513301349
 31
0.0
  0
LINE
  5
195
330
178
100
AcDbEntity
  8
DV3_Default
  6
Continuous
 62
     7
100
AcDbLine
 10
264.8269863619
 20
369.1513301349
 30
0.0
 11
264.8269863619
 21
358.1513301349
 31
0.0
  0
LINE
  5
196
330
178
100
AcDbEntity
  8
DV3_Default
  6
Continuous
 62
     7
100
AcDbLine
 10
264.8269863619
 20
370.1513301349
 30
0.0
 11
264.8269863619
 21
369.1513301349
 31
0.0
  0
ELLIPSE
  5
197
330
178
100
AcDbEntity
  8
DV3_Default
  6
Continuous
 62
     7
100
AcDbEllipse
 10
265.5572704228
 20
369.1513301349
 30
0.0
 11
0.0
 21
-1.000000000000001
 31
0.0
210
0.0
220
0.0
230
1.0
 40
0.7302840609
 41
3.141592653589793
 42
4.71238898038469
  0
LINE
  5
198
330
178
100
AcDbEntity
  8
DV3_Default
  6
Continuous
 62
     7
100
AcDbLine
 10
266.2404140317
 20
370.1513301349
 30
0.0
 11
266.2404140317
 21
369.8816141959
 31
0.0
  0
LINE
  5
199
330
178
100
AcDbEntity
  8
DV3_Default
  6
Continuous
 62
     7
100
AcDbLine
 10
265.5572704228
 20
370.1513301349
 30
0.0
 11
264.8269863619
 21
370.1513301349
 31
0.0
  0
LINE
  5
19A
330
178
100
AcDbEntity
  8
DV3_Default
  6
Continuous
 62
     7
100
AcDbLine
 10
266.2404140317
 20
370.1513301349
 30
0.0
 11
265.5572704228
 21
370.1513301349
 31
0.0
  0
LINE
  5
19B
330
178
100
AcDbEntity
  8
DV3_Default
  6
Continuous
 62
     7
100
AcDbLine
 10
238.950668705
 20
358.1513301349
 30
0.0
 11
238.950668705
 21
356.1513301349
 31
0.0
  0
LINE
  5
19C
330
178
100
AcDbEntity
  8
DV3_Default
  6
Continuous
 62
     7
100
AcDbLine
 10
270.950668705
 20
356.1513301349
 30
0.0
 11
270.950668705
 21
358.1513301349
 31
0.0
  0
LINE
  5
19D
330
178
100
AcDbEntity
  8
DV3_Default
  6
Continuous
 62
     7
100
AcDbLine
 10
239.950668705
 20
372.1513301349
 30
0.0
 11
239.950668705
 21
370.1513301349
 31
0.0
  0
LINE
  5
19E
330
178
100
AcDbEntity
  8
DV3_Default
  6
Continuous
 62
     7
100
AcDbLine
 10
269.950668705
 20
370.1513301349
 30
0.0
 11
269.950668705
 21
372.1513301349
 31
0.0
  0
LINE
  5
19F
330
178
100
AcDbEntity
  8
DV3_Default
  6
Continuous
 62
     7
100
AcDbLine
 10
255.950668705
 20
358.1513301349
 30
0.0
 11
255.950668705
 21
369.1513301349
 31
0.0
  0
LINE
  5
1A0
330
178
100
AcDbEntity
  8
DV3_Default
  6
Continuous
 62
     7
100
AcDbLine
 10
253.950668705
 20
369.1513301349
 30
0.0
 11
253.950668705
 21
358.1513301349
 31
0.0
  0
LINE
  5
1A1
330
178
100
AcDbEntity
  8
DV3_Default
  6
Continuous
 62
     7
100
AcDbLine
 10
243.3440669872
 20
369.1513301349
 30
0.0
 11
243.3440669872
 21
358.1513301349
 31
0.0
  0
ARC
  5
1A2
330
178
100
AcDbEntity
  8
DV3_Default
  6
Continuous
 62
     7
100
AcDbCircle
 10
244.3440669872
 20
369.1513301349
 30
0.0
 40
1.000000000000001
100
AcDbArc
 50
90.0
 51
180.0
  0
LINE
  5
1A3
330
178
100
AcDbEntity
  8
DV3_Default
  6
Continuous
 62
     7
100
AcDbLine
 10
238.950668705
 20
369.1513301349
 30
0.0
 11
238.950668705
 21
358.1513301349
 31
0.0
  0
ARC
  5
1A4
330
178
100
AcDbEntity
  8
DV3_Default
  6
Continuous
 62
     7
100
AcDbCircle
 10
239.950668705
 20
369.1513301349
 30
0.0
 40
1.000000000000001
100
AcDbArc
 50
90.0
 51
180.0
  0
LINE
  5
1A5
330
178
100
AcDbEntity
  8
DV3_Default
  6
Continuous
 62
     7
100
AcDbLine
 10
270.950668705
 20
358.1513301349
 30
0.0
 11
270.950668705
 21
369.1513301349
 31
0.0
  0
ARC
  5
1A6
330
178
100
AcDbEntity
  8
DV3_Default
  6
Continuous
 62
     7
100
AcDbCircle
 10
269.950668705
 20
369.1513301349
 30
0.0
 40
1.000000000000001
100
AcDbArc
 50
0.0
 51
90.0
  0
LINE
  5
1A7
330
178
100
AcDbEntity
  8
DV3_Default
  6
Continuous
 62
     7
100
AcDbLine
 10
266.5572704228
 20
358.1513301349
 30
0.0
 11
266.5572704228
 21
369.1513301349
 31
0.0
  0
ARC
  5
1A8
330
178
100
AcDbEntity
  8
DV3_Default
  6
Continuous
 62
     7
100
AcDbCircle
 10
265.5572704228
 20
369.1513301349
 30
0.0
 40
1.000000000000001
100
AcDbArc
 50
0.0
 51
90.0
  0
LINE
  5
1A9
330
178
100
AcDbEntity
  8
DV3_Default
  6
Continuous
 62
     7
100
AcDbLine
 10
267.420668705
 20
355.6513301349
 30
0.0
 11
242.480668705
 21
355.6513301349
 31
0.0
  0
LINE
  5
1AA
330
178
100
AcDbEntity
  8
DV3_Default
  6
Continuous
 62
     7
100
AcDbLine
 10
265.400668705
 20
355.4429490227
 30
0.0
 11
265.400668705
 21
355.6513301349
 31
0.0
  0
LINE
  5
1AB
330
178
100
AcDbEntity
  8
DV3_Default
  6
Continuous
 62
     7
100
AcDbLine
 10
244.500668705
 20
355.6513301349
 30
0.0
 11
244.500668705
 21
355.4429490227
 31
0.0
  0
LINE
  5
1AC
330
178
100
AcDbEntity
  8
DV3_Default
  6
Continuous
 62
     7
100
AcDbLine
 10
241.980668705
 20
356.1513301349
 30
0.0
 11
242.480668705
 21
355.6513301349
 31
0.0
  0
LINE
  5
1AD
330
178
100
AcDbEntity
  8
DV3_Default
  6
Continuous
 62
     7
100
AcDbLine
 10
267.420668705
 20
355.6513301349
 30
0.0
 11
267.920668705
 21
356.1513301349
 31
0.0
  0
ARC
  5
1AE
330
178
100
AcDbEntity
  8
DV3_Default
  6
Continuous
 62
     7
100
AcDbCircle
 10
336.750668705
 20
337.5413301349
 30
0.0
 40
0.199999999999978
100
AcDbArc
 50
0.0
 51
90.0
  0
LINE
  5
1AF
330
178
100
AcDbEntity
  8
DV3_Default
  6
Continuous
 62
     7
100
AcDbLine
 10
85.950668705
 20
356.1513301349
 30
0.0
 11
117.950668705
 21
356.1513301349
 31
0.0
  0
LINE
  5
1B0
330
178
100
AcDbEntity
  8
DV3_Default
  6
Continuous
 62
     7
100
AcDbLine
 10
101.950668705
 20
358.1513301349
 30
0.0
 11
113.264377204
 21
358.1513301349
 31
0.0
  0
LINE
  5
1B1
330
178
100
AcDbEntity
  8
DV3_Default
  6
Continuous
 62
     7
100
AcDbLine
 10
116.950668705
 20
372.1513301349
 30
0.0
 11
86.950668705
 21
372.1513301349
 31
0.0
  0
LINE
  5
1B2
330
178
100
AcDbEntity
  8
DV3_Default
  6
Continuous
 62
     7
100
AcDbLine
 10
100.951224415
 20
370.1513301349
 30
0.0
 11
100.951224415
 21
369.1513301349
 31
0.0
  0
LINE
  5
1B3
330
178
100
AcDbEntity
  8
DV3_Default
  6
Continuous
 62
     7
100
AcDbLine
 10
102.9501129951
 20
370.1513301349
 30
0.0
 11
102.9501129951
 21
369.1513301349
 31
0.0
  0
LINE
  5
1B4
330
178
100
AcDbEntity
  8
DV3_Default
  6
Continuous
 62
     7
100
AcDbLine
 10
102.9501129951
 20
370.1513301349
 30
0.0
 11
101.950668705
 21
370.1513301349
 31
0.0
  0
LINE
  5
1B5
330
178
100
AcDbEntity
  8
DV3_Default
  6
Continuous
 62
     7
100
AcDbLine
 10
101.950668705
 20
370.1513301349
 30
0.0
 11
100.951224415
 21
370.1513301349
 31
0.0
  0
ELLIPSE
  5
1B6
330
178
100
AcDbEntity
  8
DV3_Default
  6
Continuous
 62
     7
100
AcDbEllipse
 10
101.950668705
 20
369.1513301349
 30
0.0
 11
-1.942890293094024E-13
 21
-0.999999999999987
 31
0.0
210
0.0
220
0.0
230
1.0
 40
0.99944429
 41
3.141592653589987
 42
4.712388980384883
  0
ELLIPSE
  5
1B7
330
178
100
AcDbEntity
  8
DV3_Default
  6
Continuous
 62
     7
100
AcDbEllipse
 10
101.950668705
 20
369.1513301349
 30
0.0
 11
1.942890293094024E-13
 21
-0.999999999999987
 31
0.0
210
0.0
220
0.0
230
1.0
 40
0.99944429
 41
1.570796326794702
 42
3.141592653589599
  0
LINE
  5
1B8
330
178
100
AcDbEntity
  8
DV3_Default
  6
Continuous
 62
     7
100
AcDbLine
 10
90.6369602061
 20
358.1513301349
 30
0.0
 11
101.950668705
 21
358.1513301349
 31
0.0
  0
LINE
  5
1B9
330
178
100
AcDbEntity
  8
DV3_Default
  6
Continuous
 62
     7
100
AcDbLine
 10
92.0743510482
 20
369.1513301349
 30
0.0
 11
92.0743510482
 21
358.1513301349
 31
0.0
  0
LINE
  5
1BA
330
178
100
AcDbEntity
  8
DV3_Default
  6
Continuous
 62
     7
100
AcDbLine
 10
90.6609233784
 20
370.1513301349
 30
0.0
 11
90.6609233784
 21
369.8816141959
 31
0.0
  0
ELLIPSE
  5
1BB
330
178
100
AcDbEntity
  8
DV3_Default
  6
Continuous
 62
     7
100
AcDbEllipse
 10
91.3440669872
 20
369.1513301349
 30
0.0
 11
-1.387778780781446E-14
 21
-1.000000000000008
 31
0.0
210
0.0
220
0.0
230
1.0
 40
0.7302840609
 41
1.570796326794907
 42
3.141592653589793
  0
LINE
  5
1BC
330
178
100
AcDbEntity
  8
DV3_Default
  6
Continuous
 62
     7
100
AcDbLine
 10
92.0743510482
 20
370.1513301349
 30
0.0
 11
92.0743510482
 21
369.1513301349
 31
0.0
  0
LINE
  5
1BD
330
178
100
AcDbEntity
  8
DV3_Default
  6
Continuous
 62
     7
100
AcDbLine
 10
91.3440669872
 20
370.1513301349
 30
0.0
 11
90.6609233784
 21
370.1513301349
 31
0.0
  0
LINE
  5
1BE
330
178
100
AcDbEntity
  8
DV3_Default
  6
Continuous
 62
     7
100
AcDbLine
 10
92.0743510482
 20
370.1513301349
 30
0.0
 11
91.3440669872
 21
370.1513301349
 31
0.0
  0
LINE
  5
1BF
330
178
100
AcDbEntity
  8
DV3_Default
  6
Continuous
 62
     7
100
AcDbLine
 10
85.950668705
 20
358.1513301349
 30
0.0
 11
90.6369602061
 21
358.1513301349
 31
0.0
  0
LINE
  5
1C0
330
178
100
AcDbEntity
  8
DV3_Default
  6
Continuous
 62
     7
100
AcDbLine
 10
86.9840020384
 20
369.1513301349
 30
0.0
 11
86.9840020384
 21
358.1513301349
 31
0.0
  0
ELLIPSE
  5
1C1
330
178
100
AcDbEntity
  8
DV3_Default
  6
Continuous
 62
     7
100
AcDbEllipse
 10
86.950668705
 20
369.1513301349
 30
0.0
 11
0.0
 21
-1.000000000000001
 31
0.0
210
0.0
220
0.0
230
1.0
 40
0.0333333333
 41
1.570796326794897
 42
3.141592653589793
  0
LINE
  5
1C2
330
178
100
AcDbEntity
  8
DV3_Default
  6
Continuous
 62
     7
100
AcDbLine
 10
86.9840020384
 20
370.1513301349
 30
0.0
 11
86.9840020384
 21
369.1513301349
 31
0.0
  0
LINE
  5
1C3
330
178
100
AcDbEntity
  8
DV3_Default
  6
Continuous
 62
     7
100
AcDbLine
 10
86.9840020384
 20
370.1513301349
 30
0.0
 11
86.950668705
 21
370.1513301349
 31
0.0
  0
LINE
  5
1C4
330
178
100
AcDbEntity
  8
DV3_Default
  6
Continuous
 62
     7
100
AcDbLine
 10
116.9173353717
 20
369.1513301349
 30
0.0
 11
116.9173353717
 21
358.1513301349
 31
0.0
  0
LINE
  5
1C5
330
178
100
AcDbEntity
  8
DV3_Default
  6
Continuous
 62
     7
100
AcDbLine
 10
116.9173353717
 20
370.1513301349
 30
0.0
 11
116.9173353717
 21
369.1513301349
 31
0.0
  0
ELLIPSE
  5
1C6
330
178
100
AcDbEntity
  8
DV3_Default
  6
Continuous
 62
     7
100
AcDbEllipse
 10
116.950668705
 20
369.1513301349
 30
0.0
 11
6.938893903907228E-15
 21
-1.000000000000008
 31
0.0
210
0.0
220
0.0
230
1.0
 40
0.0333333333
 41
3.141592653589793
 42
4.71238898038469
  0
LINE
  5
1C7
330
178
100
AcDbEntity
  8
DV3_Default
  6
Continuous
 62
     7
100
AcDbLine
 10
116.950668705
 20
370.1513301349
 30
0.0
 11
116.9173353717
 21
370.1513301349
 31
0.0
  0
LINE
  5
1C8
330
178
100
AcDbEntity
  8
DV3_Default
  6
Continuous
 62
     7
100
AcDbLine
 10
113.264377204
 20
358.1513301349
 30
0.0
 11
117.950668705
 21
358.1513301349
 31
0.0
  0
LINE
  5
1C9
330
178
100
AcDbEntity
  8
DV3_Default
  6
Continuous
 62
     7
100
AcDbLine
 10
111.8269863619
 20
369.1513301349
 30
0.0
 11
111.8269863619
 21
358.1513301349
 31
0.0
  0
LINE
  5
1CA
330
178
100
AcDbEntity
  8
DV3_Default
  6
Continuous
 62
     7
100
AcDbLine
 10
111.8269863619
 20
370.1513301349
 30
0.0
 11
111.8269863619
 21
369.1513301349
 31
0.0
  0
ELLIPSE
  5
1CB
330
178
100
AcDbEntity
  8
DV3_Default
  6
Continuous
 62
     7
100
AcDbEllipse
 10
112.5572704228
 20
369.1513301349
 30
0.0
 11
0.0
 21
-1.000000000000001
 31
0.0
210
0.0
220
0.0
230
1.0
 40
0.7302840609
 41
3.141592653589793
 42
4.71238898038469
  0
LINE
  5
1CC
330
178
100
AcDbEntity
  8
DV3_Default
  6
Continuous
 62
     7
100
AcDbLine
 10
113.2404140317
 20
370.1513301349
 30
0.0
 11
113.2404140317
 21
369.8816141959
 31
0.0
  0
LINE
  5
1CD
330
178
100
AcDbEntity
  8
DV3_Default
  6
Continuous
 62
     7
100
AcDbLine
 10
112.5572704228
 20
370.1513301349
 30
0.0
 11
111.8269863619
 21
370.1513301349
 31
0.0
  0
LINE
  5
1CE
330
178
100
AcDbEntity
  8
DV3_Default
  6
Continuous
 62
     7
100
AcDbLine
 10
113.2404140317
 20
370.1513301349
 30
0.0
 11
112.5572704228
 21
370.1513301349
 31
0.0
  0
LINE
  5
1CF
330
178
100
AcDbEntity
  8
DV3_Default
  6
Continuous
 62
     7
100
AcDbLine
 10
85.950668705
 20
358.1513301349
 30
0.0
 11
85.950668705
 21
356.1513301349
 31
0.0
  0
LINE
  5
1D0
330
178
100
AcDbEntity
  8
DV3_Default
  6
Continuous
 62
     7
100
AcDbLine
 10
117.950668705
 20
356.1513301349
 30
0.0
 11
117.950668705
 21
358.1513301349
 31
0.0
  0
LINE
  5
1D1
330
178
100
AcDbEntity
  8
DV3_Default
  6
Continuous
 62
     7
100
AcDbLine
 10
86.950668705
 20
372.1513301349
 30
0.0
 11
86.950668705
 21
370.1513301349
 31
0.0
  0
LINE
  5
1D2
330
178
100
AcDbEntity
  8
DV3_Default
  6
Continuous
 62
     7
100
AcDbLine
 10
116.950668705
 20
370.1513301349
 30
0.0
 11
116.950668705
 21
372.1513301349
 31
0.0
  0
LINE
  5
1D3
330
178
100
AcDbEntity
  8
DV3_Default
  6
Continuous
 62
     7
100
AcDbLine
 10
102.950668705
 20
358.1513301349
 30
0.0
 11
102.950668705
 21
369.1513301349
 31
0.0
  0
LINE
  5
1D4
330
178
100
AcDbEntity
  8
DV3_Default
  6
Continuous
 62
     7
100
AcDbLine
 10
100.950668705
 20
369.1513301349
 30
0.0
 11
100.950668705
 21
358.1513301349
 31
0.0
  0
LINE
  5
1D5
330
178
100
AcDbEntity
  8
DV3_Default
  6
Continuous
 62
     7
100
AcDbLine
 10
90.3440669872
 20
369.1513301349
 30
0.0
 11
90.3440669872
 21
358.1513301349
 31
0.0
  0
ARC
  5
1D6
330
178
100
AcDbEntity
  8
DV3_Default
  6
Continuous
 62
     7
100
AcDbCircle
 10
91.3440669872
 20
369.1513301349
 30
0.0
 40
1.000000000000001
100
AcDbArc
 50
90.0
 51
180.0
  0
LINE
  5
1D7
330
178
100
AcDbEntity
  8
DV3_Default
  6
Continuous
 62
     7
100
AcDbLine
 10
85.950668705
 20
369.1513301349
 30
0.0
 11
85.950668705
 21
358.1513301349
 31
0.0
  0
ARC
  5
1D8
330
178
100
AcDbEntity
  8
DV3_Default
  6
Continuous
 62
     7
100
AcDbCircle
 10
86.950668705
 20
369.1513301349
 30
0.0
 40
1.000000000000001
100
AcDbArc
 50
90.0
 51
180.0
  0
LINE
  5
1D9
330
178
100
AcDbEntity
  8
DV3_Default
  6
Continuous
 62
     7
100
AcDbLine
 10
117.950668705
 20
358.1513301349
 30
0.0
 11
117.950668705
 21
369.1513301349
 31
0.0
  0
ARC
  5
1DA
330
178
100
AcDbEntity
  8
DV3_Default
  6
Continuous
 62
     7
100
AcDbCircle
 10
116.950668705
 20
369.1513301349
 30
0.0
 40
1.000000000000001
100
AcDbArc
 50
0.0
 51
90.0
  0
LINE
  5
1DB
330
178
100
AcDbEntity
  8
DV3_Default
  6
Continuous
 62
     7
100
AcDbLine
 10
113.5572704228
 20
358.1513301349
 30
0.0
 11
113.5572704228
 21
369.1513301349
 31
0.0
  0
ARC
  5
1DC
330
178
100
AcDbEntity
  8
DV3_Default
  6
Continuous
 62
     7
100
AcDbCircle
 10
112.5572704228
 20
369.1513301349
 30
0.0
 40
1.000000000000001
100
AcDbArc
 50
0.0
 51
90.0
  0
LINE
  5
1DD
330
178
100
AcDbEntity
  8
DV3_Default
  6
Continuous
 62
     7
100
AcDbLine
 10
309.655904427
 20
335.5583704598
 30
0.0
 11
308.950668705
 21
335.5460605245
 31
0.0
  0
LINE
  5
1DE
330
178
100
AcDbEntity
  8
DV3_Default
  6
Continuous
 62
     7
100
AcDbLine
 10
308.950668705
 20
295.3365997453
 30
0.0
 11
309.655904427
 21
295.32428981
 31
0.0
  0
ARC
  5
1DF
330
178
100
AcDbEntity
  8
DV3_Default
  6
Continuous
 62
     7
100
AcDbCircle
 10
309.650668705
 20
335.8583247684
 30
0.0
 40
0.2999999999999947
100
AcDbArc
 50
271.0
 51
0.0
  0
ARC
  5
1E0
330
178
100
AcDbEntity
  8
DV3_Default
  6
Continuous
 62
     7
100
AcDbCircle
 10
309.650668705
 20
295.0243355015
 30
0.0
 40
0.2999999999999978
100
AcDbArc
 50
0.0
 51
89.0
  0
ARC
  5
1E1
330
178
100
AcDbEntity
  8
DV3_Default
  6
Continuous
 62
     7
100
AcDbCircle
 10
19.950668705
 20
337.5413301349
 30
0.0
 40
0.1999999999999988
100
AcDbArc
 50
90.0
 51
180.0
  0
LINE
  5
1E2
330
178
100
AcDbEntity
  8
DV3_Default
  6
Continuous
 62
     7
100
AcDbLine
 10
114.420668705
 20
355.6513301349
 30
0.0
 11
89.480668705
 21
355.6513301349
 31
0.0
  0
LINE
  5
1E3
330
178
100
AcDbEntity
  8
DV3_Default
  6
Continuous
 62
     7
100
AcDbLine
 10
112.400668705
 20
355.4429490227
 30
0.0
 11
112.400668705
 21
355.6513301349
 31
0.0
  0
LINE
  5
1E4
330
178
100
AcDbEntity
  8
DV3_Default
  6
Continuous
 62
     7
100
AcDbLine
 10
91.500668705
 20
355.6513301349
 30
0.0
 11
91.500668705
 21
355.4429490227
 31
0.0
  0
LINE
  5
1E5
330
178
100
AcDbEntity
  8
DV3_Default
  6
Continuous
 62
     7
100
AcDbLine
 10
88.980668705
 20
356.1513301349
 30
0.0
 11
89.480668705
 21
355.6513301349
 31
0.0
  0
LINE
  5
1E6
330
178
100
AcDbEntity
  8
DV3_Default
  6
Continuous
 62
     7
100
AcDbLine
 10
114.420668705
 20
355.6513301349
 30
0.0
 11
114.920668705
 21
356.1513301349
 31
0.0
  0
LINE
  5
1E7
330
178
100
AcDbEntity
  8
DV3_Default
  6
Continuous
 62
     7
100
AcDbLine
 10
47.0454329831
 20
295.32428981
 30
0.0
 11
47.950668705
 21
295.3400907583
 31
0.0
  0
LINE
  5
1E8
330
178
100
AcDbEntity
  8
DV3_Default
  6
Continuous
 62
     7
100
AcDbLine
 10
47.950668705
 20
335.5425695115
 30
0.0
 11
47.0454329831
 21
335.5583704598
 31
0.0
  0
ARC
  5
1E9
330
178
100
AcDbEntity
  8
DV3_Default
  6
Continuous
 62
     7
100
AcDbCircle
 10
47.050668705
 20
295.0243355015
 30
0.0
 40
0.2999999999999947
100
AcDbArc
 50
91.0
 51
180.0
  0
ARC
  5
1EA
330
178
100
AcDbEntity
  8
DV3_Default
  6
Continuous
 62
     7
100
AcDbCircle
 10
47.050668705
 20
335.8583247684
 30
0.0
 40
0.2999999999999978
100
AcDbArc
 50
180.0
 51
269.0
  0
LINE
  5
1EB
330
178
100
AcDbEntity
  8
DV3_Default
  6
Continuous
 62
     7
100
AcDbLine
 10
47.0454329831
 20
295.32428981
 30
0.0
 11
47.950668705
 21
295.3400907583
 31
0.0
  0
LINE
  5
1EC
330
178
100
AcDbEntity
  8
DV3_Default
  6
Continuous
 62
     7
100
AcDbLine
 10
47.950668705
 20
335.5425695115
 30
0.0
 11
47.0454329831
 21
335.5583704598
 31
0.0
  0
ARC
  5
1ED
330
178
100
AcDbEntity
  8
DV3_Default
  6
Continuous
 62
     7
100
AcDbCircle
 10
47.050668705
 20
295.0243355015
 30
0.0
 40
0.2999999999999947
100
AcDbArc
 50
91.0
 51
180.0
  0
ARC
  5
1EE
330
178
100
AcDbEntity
  8
DV3_Default
  6
Continuous
 62
     7
100
AcDbCircle
 10
47.050668705
 20
335.8583247684
 30
0.0
 40
0.2999999999999978
100
AcDbArc
 50
180.0
 51
269.0
  0
CIRCLE
  5
1EF
330
178
100
AcDbEntity
  8
DV3_Default
  6
Continuous
 62
     7
100
AcDbCircle
 10
33.250668705
 20
315.4413301349
 30
0.0
 40
7.000000000000043
  0
SPLINE
  5
1F0
330
178
100
AcDbEntity
  8
DV3_Default
  6
Continuous
 62
     7
100
AcDbSpline
210
0.0
220
0.0
230
1.0
 70
    12
 71
     3
 72
    30
 73
    26
 74
     0
 42
0.0000000002130143
 43
0.0000000001
 40
0.0
 40
0.0
 40
0.0
 40
0.0
 40
0.0625
 40
0.0625
 40
0.125
 40
0.125
 40
0.25
 40
0.25
 40
0.375
 40
0.375
 40
0.4375
 40
0.4375
 40
0.46875
 40
0.46875
 40
0.5
 40
0.5
 40
0.625
 40
0.625
 40
0.75
 40
0.75
 40
0.875
 40
0.875
 40
0.9375
 40
0.9375
 40
1.0
 40
1.0
 40
1.0
 40
1.0
 10
24.55464709864283
 20
335.554673541012
 30
0.0
 41
1.0
 10
24.49357013822781
 20
334.5860875254431
 30
0.0
 41
1.0
 10
24.5018411608248
 20
333.6152840545361
 30
0.0
 41
1.0
 10
24.52487990214683
 20
331.6734581579516
 30
0.0
 41
1.0
 10
24.53568295369682
 20
330.7025587568439
 30
0.0
 41
1.0
 10
24.56222389288978
 20
327.790019451586
 30
0.0
 41
1.0
 10
24.57112628393179
 20
325.8510923267126
 30
0.0
 41
1.0
 10
24.5548051677488
 20
321.9693277492108
 30
0.0
 41
1.0
 10
24.53117545499281
 20
320.0266158416575
 30
0.0
 41
1.0
 10
24.5254901958348
 20
317.1102137170067
 30
0.0
 41
1.0
 10
24.5353762184368
 20
316.1377239290906
 30
0.0
 41
1.0
 10
24.6267432165608
 20
314.6787645385253
 30
0.0
 41
1.0
 10
24.66775684916281
 20
314.1906296794916
 30
0.0
 41
1.0
 10
24.85570656346978
 20
313.228141018458
 30
0.0
 41
1.0
 10
24.99800461183679
 20
312.7607967445755
 30
0.0
 41
1.0
 10
25.9218455856968
 20
310.4848717221824
 30
0.0
 41
1.0
 10
27.25177733409881
 20
308.9562312703746
 30
0.0
 41
1.0
 10
30.60594511962381
 20
307.0691889257594
 30
0.0
 41
1.0
 10
32.60657320761381
 20
306.6690937964607
 30
0.0
 41
1.0
 10
36.44482806206781
 20
307.2298723455309
 30
0.0
 41
1.0
 10
38.2391640190228
 20
308.1561872118951
 30
0.0
 41
1.0
 10
40.23443284206576
 20
310.2603160223913
 30
0.0
 41
1.0
 10
40.7786537575848
 20
311.0774164224344
 30
0.0
 41
1.0
 10
41.59367353079582
 20
312.8679976467206
 30
0.0
 41
1.0
 10
41.83999347688381
 20
313.8501215890507
 30
0.0
 41
1.0
 10
41.93922661127677
 20
314.8189348360387
 30
0.0
 41
1.0
  0
SPLINE
  5
1F1
330
178
100
AcDbEntity
  8
DV3_Default
  6
Continuous
 62
     7
100
AcDbSpline
210
0.0
220
0.0
230
1.0
 70
     8
 71
     3
 72
     8
 73
     4
 74
     0
 42
0.0000000008493738
 43
0.0000000001
 40
0.0
 40
0.0
 40
0.0
 40
0.0
 40
1.0
 40
1.0
 40
1.0
 40
1.0
 10
34.25067184406274
 20
301.7224898840574
 30
0.0
 10
30.32621173631431
 20
301.7221135681095
 30
0.0
 10
26.40175289667499
 20
301.7201077276577
 30
0.0
 10
22.47729405703566
 20
301.7181021024245
 30
0.0
  0
SPLINE
  5
1F2
330
178
100
AcDbEntity
  8
DV3_Default
  6
Continuous
 62
     7
100
AcDbSpline
210
0.0
220
0.0
230
1.0
 70
    12
 71
     3
 72
    30
 73
    26
 74
     0
 42
0.0000000002188981
 43
0.0000000001
 40
0.0
 40
0.0
 40
0.0
 40
0.0
 40
0.0625
 40
0.0625
 40
0.125
 40
0.125
 40
0.25
 40
0.25
 40
0.375
 40
0.375
 40
0.5
 40
0.5
 40
0.53125
 40
0.53125
 40
0.5625
 40
0.5625
 40
0.625
 40
0.625
 40
0.75
 40
0.75
 40
0.875
 40
0.875
 40
0.9375
 40
0.9375
 40
1.0
 40
1.0
 40
1.0
 40
1.0
 10
41.59489693157379
 20
314.8576159142747
 30
0.0
 41
1.0
 10
41.49679500707179
 20
313.9198651620405
 30
0.0
 41
1.0
 10
41.25739726119479
 20
312.9946654608224
 30
0.0
 41
1.0
 10
40.46688034062182
 20
311.287464563569
 30
0.0
 41
1.0
 10
39.93739948995081
 20
310.5116930517028
 30
0.0
 41
1.0
 10
38.01252393274282
 20
308.5260564803522
 30
0.0
 41
1.0
 10
36.28662808825281
 20
307.6577141514085
 30
0.0
 41
1.0
 10
32.6425207143238
 20
307.1342635159135
 30
0.0
 41
1.0
 10
30.73094827149478
 20
307.5075579905956
 30
0.0
 41
1.0
 10
27.51965372041379
 20
309.2804540141028
 30
0.0
 41
1.0
 10
26.22710465117381
 20
310.731059080731
 30
0.0
 41
1.0
 10
25.33156873017581
 20
312.8891011466793
 30
0.0
 41
1.0
 10
25.19382829312181
 20
313.331001060426
 30
0.0
 41
1.0
 10
25.01190406784179
 20
314.2387064877402
 30
0.0
 41
1.0
 10
24.97164366664981
 20
314.7107605836936
 30
0.0
 41
1.0
 10
24.88238968386877
 20
316.1480115622144
 30
0.0
 41
1.0
 10
24.87216522753879
 20
317.1142080370058
 30
0.0
 41
1.0
 10
24.87813737063579
 20
320.0202814721407
 30
0.0
 41
1.0
 10
24.90111988003882
 20
321.9663991428661
 30
0.0
 41
1.0
 10
24.91672334140979
 20
325.8506164741177
 30
0.0
 41
1.0
 10
24.90889762473078
 20
327.7927438976492
 30
0.0
 41
1.0
 10
24.8827666572248
 20
330.7063589654954
 30
0.0
 41
1.0
 10
24.87179675534582
 20
331.6785946312658
 30
0.0
 41
1.0
 10
24.84761004345778
 20
333.6187495157648
 30
0.0
 41
1.0
 10
24.83930784087982
 20
334.580962451531
 30
0.0
 41
1.0
 10
24.90012013177348
 20
335.5330069832569
 30
0.0
 41
1.0
  0
SPLINE
  5
1F3
330
178
100
AcDbEntity
  8
DV3_Default
  6
Continuous
 62
     7
100
AcDbSpline
210
0.0
220
0.0
230
1.0
 70
    12
 71
     3
 72
    28
 73
    24
 74
     0
 42
0.0000000002115377
 43
0.0000000001
 40
0.0
 40
0.0
 40
0.0
 40
0.0
 40
0.0625
 40
0.0625
 40
0.125
 40
0.125
 40
0.25
 40
0.25
 40
0.375
 40
0.375
 40
0.5
 40
0.5
 40
0.5625
 40
0.5625
 40
0.625
 40
0.625
 40
0.75
 40
0.75
 40
0.875
 40
0.875
 40
0.9375
 40
0.9375
 40
1.0
 40
1.0
 40
1.0
 40
1.0
 10
24.90012013177348
 20
335.5330069832569
 30
0.0
 41
1.0
 10
24.9626127756358
 20
336.5113582372189
 30
0.0
 41
1.0
 10
25.10171830236083
 20
337.4947799358519
 30
0.0
 41
1.0
 10
25.71991790849279
 20
339.2919272053758
 30
0.0
 41
1.0
 10
26.2163074467838
 20
340.1411185387245
 30
0.0
 41
1.0
 10
28.0669407257618
 20
342.3292569285632
 30
0.0
 41
1.0
 10
29.84509881452282
 20
343.3699927677705
 30
0.0
 41
1.0
 10
33.59533587972577
 20
344.0829500692319
 30
0.0
 41
1.0
 10
35.62286462793082
 20
343.7389301063494
 30
0.0
 41
1.0
 10
38.98741708554878
 20
341.9078766379675
 30
0.0
 41
1.0
 10
40.34359406289281
 20
340.3671015154088
 30
0.0
 41
1.0
 10
41.39160714361581
 20
337.6961111359878
 30
0.0
 41
1.0
 10
41.57032496174182
 20
336.7427605962111
 30
0.0
 41
1.0
 10
41.64683300879082
 20
334.7982254425922
 30
0.0
 41
1.0
 10
41.62444380549177
 20
333.7886760024228
 30
0.0
 41
1.0
 10
41.62671669070381
 20
330.7950828018384
 30
0.0
 41
1.0
 10
41.62405565908181
 20
328.7996576950829
 30
0.0
 41
1.0
 10
41.62470877496479
 20
324.8084124659642
 30
0.0
 41
1.0
 10
41.62891892186579
 20
322.8141548246568
 30
0.0
 41
1.0
 10
41.63396590336879
 20
319.8167843828546
 30
0.0
 41
1.0
 10
41.63839131004779
 20
318.8165140423109
 30
0.0
 41
1.0
 10
41.6677723489218
 20
316.8137844517422
 30
0.0
 41
1.0
 10
41.69614979111477
 20
315.8254863402917
 30
0.0
 41
1.0
 10
41.59489693157379
 20
314.8576159142747
 30
0.0
 41
1.0
  0
LINE
  5
1F4
330
178
100
AcDbEntity
  8
DV3_Default
  6
Continuous
 62
     7
100
AcDbLine
 10
22.477294057
 20
301.7181021024
 30
0.0
 11
34.2506718441
 21
301.7224898841
 31
0.0
  0
LINE
  5
1F5
330
178
100
AcDbEntity
  8
DV3_Default
  6
Continuous
 62
     7
100
AcDbLine
 10
34.2506718441
 20
301.7188096622
 30
0.0
 11
45.9506719011
 21
301.7188096622
 31
0.0
  0
LINE
  5
1F6
330
178
100
AcDbEntity
  8
DV3_Default
  6
Continuous
 62
     7
100
AcDbLine
 10
22.477294057
 20
301.7178840696
 30
0.0
 11
20.7506686917
 21
301.7178840828
 31
0.0
  0
LINE
  5
1F7
330
178
100
AcDbEntity
  8
DV3_Default
  6
Continuous
 62
     7
100
AcDbLine
 10
46.7506718441
 20
347.4413301349
 30
0.0
 11
46.7506718441
 21
302.1742237021
 31
0.0
  0
LINE
  5
1F8
330
178
100
AcDbEntity
  8
DV3_Default
  6
Continuous
 62
     7
100
AcDbLine
 10
46.7506718441
 20
354.4418904433
 30
0.0
 11
46.7506718441
 21
347.4413301349
 31
0.0
  0
LINE
  5
1F9
330
178
100
AcDbEntity
  8
DV3_Default
  6
Continuous
 62
     7
100
AcDbLine
 10
46.7506718441
 20
354.6418904433
 30
0.0
 11
46.7506718441
 21
354.4418904433
 31
0.0
  0
LINE
  5
1FA
330
178
100
AcDbEntity
  8
DV3_Default
  6
Continuous
 62
     7
100
AcDbLine
 10
46.7506718441
 20
292.2443990975
 30
0.0
 11
46.7506718441
 21
302.1750865661
 31
0.0
  0
ARC
  5
1FB
330
178
100
AcDbEntity
  8
DV3_Default
  6
Continuous
 62
     7
100
AcDbCircle
 10
45.9506718441
 20
354.6418904433
 30
0.0
 40
0.7999999999999952
100
AcDbArc
 50
0.0
 51
90.0
  0
SPLINE
  5
1FC
330
178
100
AcDbEntity
  8
DV3_Default
  6
Continuous
 62
     7
100
AcDbSpline
210
0.0
220
0.0
230
1.0
 70
     8
 71
     3
 72
    10
 73
     6
 74
     0
 42
0.0000000097102406
 43
0.0000000001
 40
0.0
 40
0.0
 40
0.0
 40
0.0
 40
0.5
 40
0.5
 40
1.0
 40
1.0
 40
1.0
 40
1.0
 10
46.75067184406381
 20
302.1742237020642
 30
0.0
 10
46.75067184406381
 20
302.0555055302468
 30
0.0
 10
46.66445336695165
 20
301.9366681826118
 30
0.0
 10
46.36826117107443
 20
301.7676928924958
 30
0.0
 10
46.16011135430312
 20
301.7185977519305
 30
0.0
 10
45.95067190112454
 20
301.7184411518344
 30
0.0
  0
LINE
  5
1FD
330
178
100
AcDbEntity
  8
DV3_Default
  6
Continuous
 62
     7
100
AcDbLine
 10
19.750668705
 20
347.4412743648
 30
0.0
 11
19.750668705
 21
354.4418904433
 31
0.0
  0
LINE
  5
1FE
330
178
100
AcDbEntity
  8
DV3_Default
  6
Continuous
 62
     7
100
AcDbLine
 10
19.750668705
 20
303.1232613757
 30
0.0
 11
19.750668705
 21
347.4412743648
 31
0.0
  0
LINE
  5
1FF
330
178
100
AcDbEntity
  8
DV3_Default
  6
Continuous
 62
     7
100
AcDbLine
 10
19.750668705
 20
303.12337503
 30
0.0
 11
19.750668705
 21
292.4443990975
 31
0.0
  0
LINE
  5
200
330
178
100
AcDbEntity
  8
DV3_Default
  6
Continuous
 62
     7
100
AcDbLine
 10
20.750668705
 20
355.4418904433
 30
0.0
 11
45.9506718441
 21
355.4418904433
 31
0.0
  0
ARC
  5
201
330
178
100
AcDbEntity
  8
DV3_Default
  6
Continuous
 62
     7
100
AcDbCircle
 10
20.750668705
 20
354.4418904433
 30
0.0
 40
1.000000000000001
100
AcDbArc
 50
90.0
 51
180.0
  0
SPLINE
  5
202
330
178
100
AcDbEntity
  8
DV3_Default
  6
Continuous
 62
     7
100
AcDbSpline
210
0.0
220
0.0
230
1.0
 70
     8
 71
     3
 72
    14
 73
    10
 74
     0
 42
0.000000005214175
 43
0.0000000001
 40
0.0
 40
0.0
 40
0.0
 40
0.0
 40
0.25
 40
0.25
 40
0.5
 40
0.5
 40
0.75
 40
0.75
 40
1.0
 40
1.0
 40
1.0
 40
1.0
 10
20.75066869168843
 20
301.717884082814
 30
0.0
 10
20.5880180167817
 20
301.7178840843278
 30
0.0
 10
20.43196699130798
 20
301.7748172251804
 30
0.0
 10
20.16976604956597
 20
301.9591675678203
 30
0.0
 10
20.06466703089568
 20
302.0829088851293
 30
0.0
 10
19.9021525144383
 20
302.3554193115795
 30
0.0
 10
19.84514695359876
 20
302.5020835521356
 30
0.0
 10
19.76874722076113
 20
302.8093251702261
 30
0.0
 10
19.75066870503747
 20
302.9665648401795
 30
0.0
 10
19.75066870503747
 20
303.123261375716
 30
0.0
  0
ARC
  5
203
330
178
100
AcDbEntity
  8
DV3_Default
  6
Continuous
 62
     7
100
AcDbCircle
 10
33.2506415827
 20
315.4413554809
 30
0.0
 40
7.350028673784588
100
AcDbArc
 50
136.6992356999
 51
356.3672391403
  0
ARC
  5
204
330
178
100
AcDbEntity
  8
DV3_Default
  6
Continuous
 62
     7
100
AcDbCircle
 10
33.2500217925
 20
315.4412568133
 30
0.0
 40
7.350640968225203
100
AcDbArc
 50
356.368312777
 51
43.0558415245
  0
ARC
  5
205
330
178
100
AcDbEntity
  8
DV3_Default
  6
Continuous
 62
     7
100
AcDbCircle
 10
33.250668705
 20
315.4413301349
 30
0.0
 40
7.350000000000023
100
AcDbArc
 50
43.0588743516
 51
136.6992353594
  0
LINE
  5
206
330
178
100
AcDbEntity
  8
DV3_Default
  6
Continuous
 62
     7
100
AcDbLine
 10
27.7561153347
 20
320.6193361895
 30
0.0
 11
27.9015581882
 21
320.4822113947
 31
0.0
  0
SPLINE
  5
207
330
178
100
AcDbEntity
  8
DV3_Default
  6
Continuous
 62
     7
100
AcDbSpline
210
0.0
220
0.0
230
1.0
 70
     8
 71
     3
 72
    10
 73
     6
 74
     0
 42
0.0000000500297639
 43
0.0000000001
 40
0.0
 40
0.0
 40
0.0
 40
0.0
 40
0.5
 40
0.5
 40
1.0
 40
1.0
 40
1.0
 40
1.0
 10
38.76720689623212
 20
320.5955300873637
 30
0.0
 10
38.72899061457733
 20
320.5597694426291
 30
0.0
 10
38.69099675719259
 20
320.5243434039152
 30
0.0
 10
38.63686466045171
 20
320.4740238202637
 30
0.0
 10
38.62105836190274
 20
320.4594388376065
 30
0.0
 10
38.62105183710882
 20
320.4596189866618
 30
0.0
  0
LINE
  5
208
330
178
100
AcDbEntity
  8
DV3_Default
  6
Continuous
 62
     7
100
AcDbLine
 10
20.750668705
 20
291.4443990975
 30
0.0
 11
45.9506718441
 21
291.4443990975
 31
0.0
  0
ARC
  5
209
330
178
100
AcDbEntity
  8
DV3_Default
  6
Continuous
 62
     7
100
AcDbCircle
 10
45.9506718441
 20
292.2443990975
 30
0.0
 40
0.7999999999999986
100
AcDbArc
 50
270.0
 51
0.0
  0
ELLIPSE
  5
20A
330
178
100
AcDbEntity
  8
DV3_Default
  6
Continuous
 62
     7
100
AcDbEllipse
 10
20.750668705
 20
338.3692217449
 30
0.0
 11
1.000000000001583
 21
2.928525477674526E-10
 31
0.0
210
0.0
220
0.0
230
1.0
 40
0.999974257
 41
3.13930355967755
 42
3.143266837117044
  0
ARC
  5
20B
330
178
100
AcDbEntity
  8
DV3_Default
  6
Continuous
 62
     7
100
AcDbCircle
 10
20.750668705
 20
292.4443990975
 30
0.0
 40
1.000000000000001
100
AcDbArc
 50
180.0
 51
270.0
  0
LINE
  5
20C
330
178
100
AcDbEntity
  8
DV3_Default
  6
Continuous
 62
     7
100
AcDbLine
 10
309.655904427
 20
335.5583704598
 30
0.0
 11
308.950668705
 21
335.5460605245
 31
0.0
  0
LINE
  5
20D
330
178
100
AcDbEntity
  8
DV3_Default
  6
Continuous
 62
     7
100
AcDbLine
 10
308.950668705
 20
295.3365997453
 30
0.0
 11
309.655904427
 21
295.32428981
 31
0.0
  0
ARC
  5
20E
330
178
100
AcDbEntity
  8
DV3_Default
  6
Continuous
 62
     7
100
AcDbCircle
 10
309.650668705
 20
335.8583247684
 30
0.0
 40
0.2999999999999947
100
AcDbArc
 50
271.0
 51
0.0
  0
ARC
  5
20F
330
178
100
AcDbEntity
  8
DV3_Default
  6
Continuous
 62
     7
100
AcDbCircle
 10
309.650668705
 20
295.0243355015
 30
0.0
 40
0.2999999999999978
100
AcDbArc
 50
0.0
 51
89.0
  0
CIRCLE
  5
210
330
178
100
AcDbEntity
  8
DV3_Default
  6
Continuous
 62
     7
100
AcDbCircle
 10
323.450668705
 20
315.4413301349
 30
0.0
 40
7.000000000000001
  0
SPLINE
  5
211
330
178
100
AcDbEntity
  8
DV3_Default
  6
Continuous
 62
     7
100
AcDbSpline
210
0.0
220
0.0
230
1.0
 70
     8
 71
     3
 72
    28
 73
    24
 74
     0
 42
0.0000000002134565
 43
0.0000000001
 40
0.0
 40
0.0
 40
0.0
 40
0.0
 40
0.0221879429056326
 40
0.0637137241632779
 40
0.1245853587561565
 40
0.1901804740379872
 40
0.249132650433556
 40
0.3114478452901174
 40
0.3738175126126019
 40
0.4082645781989548
 40
0.4362619940552773
 40
0.4697346998378335
 40
0.4990336271283962
 40
0.5417268814285349
 40
0.5829487868592139
 40
0.6247912049635298
 40
0.6876963865419559
 40
0.7488884753535708
 40
0.8107927343881668
 40
0.8735121474808856
 40
0.9156065488110464
 40
0.9570195078138813
 40
1.0
 40
1.0
 40
1.0
 40
1.0
 10
332.1466903114322
 20
335.5546735410068
 30
0.0
 10
332.1566180363095
 20
335.209097669937
 30
0.0
 10
332.1851259663637
 20
334.2167602630687
 30
0.0
 10
332.1743206995491
 20
332.275383035368
 30
0.0
 10
332.1569564658834
 20
329.6581515407763
 30
0.0
 10
332.1337583225823
 20
326.7692536735881
 30
0.0
 10
332.135216026616
 20
323.8578003544053
 30
0.0
 10
332.1570372927432
 20
320.9966749843346
 30
0.0
 10
332.1798809187729
 20
318.5174744737583
 30
0.0
 10
332.1669287886965
 20
316.5726003609136
 30
0.0
 10
332.1175396885307
 20
315.0796058425164
 30
0.0
 10
331.961829031458
 20
313.6685461858365
 30
0.0
 10
331.4944382279525
 20
312.0899833084704
 30
0.0
 10
330.6581725317806
 20
310.5391222713725
 30
0.0
 10
329.383103149689
 20
309.0713486794714
 30
0.0
 10
327.542237672274
 20
307.7701779821061
 30
0.0
 10
325.0981675221952
 20
306.8349271405142
 30
0.0
 10
322.1394799540039
 20
306.8025344488098
 30
0.0
 10
319.3354130251827
 20
307.6670264704865
 30
0.0
 10
317.2749474559181
 20
309.2607137849602
 30
0.0
 10
315.9039166209041
 20
311.0522960694593
 30
0.0
 10
315.07286447179
 20
312.8509432049213
 30
0.0
 10
314.8669701244964
 20
314.1548645665915
 30
0.0
 10
314.7621107987981
 20
314.8189348360335
 30
0.0
  0
SPLINE
  5
212
330
178
100
AcDbEntity
  8
DV3_Default
  6
Continuous
 62
     7
100
AcDbSpline
210
0.0
220
0.0
230
1.0
 70
     8
 71
     3
 72
     8
 73
     4
 74
     0
 42
0.0000000008493738
 43
0.0000000001
 40
0.0
 40
0.0
 40
0.0
 40
0.0
 40
1.0
 40
1.0
 40
1.0
 40
1.0
 10
322.4506655660121
 20
301.7224898840531
 30
0.0
 10
326.3751256733239
 20
301.7219075235138
 30
0.0
 10
330.2995845129781
 20
301.7198960980908
 30
0.0
 10
334.2240433530392
 20
301.7181021024202
 30
0.0
  0
SPLINE
  5
213
330
178
100
AcDbEntity
  8
DV3_Default
  6
Continuous
 62
     7
100
AcDbSpline
210
0.0
220
0.0
230
1.0
 70
     8
 71
     3
 72
    31
 73
    27
 74
     0
 42
0.0000000002193005
 43
0.0000000001
 40
0.0
 40
0.0
 40
0.0
 40
0.0
 40
0.016254868486832
 40
0.0318364503111189
 40
0.047137761364974
 40
0.0625750649354777
 40
0.0937899586566961
 40
0.1251456801128063
 40
0.1875689616655782
 40
0.2497646059575178
 40
0.3122715804126128
 40
0.3746550029240794
 40
0.4367056063342813
 40
0.4987411927344944
 40
0.5295714337732504
 40
0.5606998734636072
 40
0.5921446669212906
 40
0.6237675100915023
 40
0.6865194940081522
 40
0.749174972541211
 40
0.7909839559822619
 40
0.8327758084215171
 40
0.8745769388298946
 40
0.9164129641400064
 40
0.9582919164863698
 40
1.0
 40
1.0
 40
1.0
 40
1.0
 10
315.1064404785011
 20
314.8576159142696
 30
0.0
 10
315.1382016846317
 20
314.6133597394546
 30
0.0
 10
315.2004085281762
 20
314.1349646309993
 30
0.0
 10
315.3684250754227
 20
313.4409221592434
 30
0.0
 10
315.5836662533392
 20
312.7749266790457
 30
0.0
 10
315.9412732170578
 20
311.9118934449808
 30
0.0
 10
316.5150036346903
 20
310.8845085251879
 30
0.0
 10
317.6974530747141
 20
309.4296253755185
 30
0.0
 10
319.6266802649325
 20
308.0506321033635
 30
0.0
 10
322.3756613284695
 20
307.2079488125702
 30
0.0
 10
325.2681348584303
 20
307.363710798557
 30
0.0
 10
327.9314239869867
 20
308.4160329427776
 30
0.0
 10
330.0547081333001
 20
310.276714772624
 30
0.0
 10
331.2482397815306
 20
312.3267856318114
 30
0.0
 10
331.7113813610833
 20
314.1562898644352
 30
0.0
 10
331.7935425412524
 20
315.5728471377413
 30
0.0
 10
331.8306403969264
 20
316.9986003145837
 30
0.0
 10
331.8256115777086
 20
318.905204917627
 30
0.0
 10
331.8064797458271
 20
321.2840551377112
 30
0.0
 10
331.7909071050635
 20
323.8175175844048
 30
0.0
 10
331.7873736690832
 20
326.0333961252746
 30
0.0
 10
331.7919819772548
 20
327.9333222300417
 30
0.0
 10
331.8057945394494
 20
329.8336381981271
 30
0.0
 10
331.8206536302412
 20
331.735138897966
 30
0.0
 10
331.8664565915216
 20
333.6353948594668
 30
0.0
 10
331.822934059751
 20
334.9013322194543
 30
0.0
 10
331.8012172783015
 20
335.5330069832517
 30
0.0
  0
SPLINE
  5
214
330
178
100
AcDbEntity
  8
DV3_Default
  6
Continuous
 62
     7
100
AcDbSpline
210
0.0
220
0.0
230
1.0
 70
     8
 71
     3
 72
    28
 73
    24
 74
     0
 42
0.0000000002114702
 43
0.0000000001
 40
0.0
 40
0.0
 40
0.0
 40
0.0
 40
0.0625
 40
0.0625
 40
0.1250000000000001
 40
0.1250000000000001
 40
0.2499999999999999
 40
0.2499999999999999
 40
0.3749999999999998
 40
0.3749999999999998
 40
0.4999999999999997
 40
0.4999999999999997
 40
0.5624999999999998
 40
0.5624999999999998
 40
0.6249999999999998
 40
0.6249999999999998
 40
0.7499999999999999
 40
0.7499999999999999
 40
0.8749999999999999
 40
0.8749999999999999
 40
0.9375
 40
0.9375
 40
1.0
 40
1.0
 40
1.0
 40
1.0
 10
331.8012172783015
 20
335.5330069832517
 30
0.0
 10
331.740935970783
 20
336.5102365579288
 30
0.0
 10
331.6068992533494
 20
337.475886789213
 30
0.0
 10
330.9803880197657
 20
339.2952525068383
 30
0.0
 10
330.481057757689
 20
340.1494951498326
 30
0.0
 10
328.5873477018567
 20
342.3758415923543
 30
0.0
 10
326.800009696115
 20
343.4017007472392
 30
0.0
 10
322.9931503543525
 20
344.0829408245148
 30
0.0
 10
320.9705182345488
 20
343.7145282961262
 30
0.0
 10
317.5912206876405
 20
341.8050969915107
 30
0.0
 10
316.2575200649983
 20
340.2290742870154
 30
0.0
 10
315.2578734127841
 20
337.4996612970979
 30
0.0
 10
315.111067383487
 20
336.5319373975516
 30
0.0
 10
315.0602956244884
 20
334.5726287361286
 30
0.0
 10
315.0768143489631
 20
333.5849642426816
 30
0.0
 10
315.0775798962119
 20
330.6263894645282
 30
0.0
 10
315.0765245500986
 20
328.6517430102
 30
0.0
 10
315.0732658481203
 20
324.7052365896052
 30
0.0
 10
315.0772697966657
 20
322.7332475878441
 30
0.0
 10
315.0762826958293
 20
319.7753952022152
 30
0.0
 10
315.0718486587416
 20
318.7890800538331
 30
0.0
 10
315.0361611030867
 20
316.8133198922782
 30
0.0
 10
315.0005185236972
 20
315.823143022777
 30
0.0
 10
315.1064404785011
 20
314.8576159142696
 30
0.0
  0
LINE
  5
215
330
178
100
AcDbEntity
  8
DV3_Default
  6
Continuous
 62
     7
100
AcDbLine
 10
334.224043353
 20
301.7181021024
 30
0.0
 11
322.450665566
 21
301.7224898841
 31
0.0
  0
LINE
  5
216
330
178
100
AcDbEntity
  8
DV3_Default
  6
Continuous
 62
     7
100
AcDbLine
 10
322.450665566
 20
301.7188096622
 30
0.0
 11
310.750665509
 21
301.7188096622
 31
0.0
  0
LINE
  5
217
330
178
100
AcDbEntity
  8
DV3_Default
  6
Continuous
 62
     7
100
AcDbLine
 10
334.224043353
 20
301.7178840696
 30
0.0
 11
335.9506687184
 21
301.7178840828
 31
0.0
  0
LINE
  5
218
330
178
100
AcDbEntity
  8
DV3_Default
  6
Continuous
 62
     7
100
AcDbLine
 10
309.950665566
 20
347.4413301349
 30
0.0
 11
309.950665566
 21
302.1742237021
 31
0.0
  0
LINE
  5
219
330
178
100
AcDbEntity
  8
DV3_Default
  6
Continuous
 62
     7
100
AcDbLine
 10
309.950665566
 20
354.4418904433
 30
0.0
 11
309.950665566
 21
347.4413301349
 31
0.0
  0
LINE
  5
21A
330
178
100
AcDbEntity
  8
DV3_Default
  6
Continuous
 62
     7
100
AcDbLine
 10
309.950665566
 20
354.6418904433
 30
0.0
 11
309.950665566
 21
354.4418904433
 31
0.0
  0
LINE
  5
21B
330
178
100
AcDbEntity
  8
DV3_Default
  6
Continuous
 62
     7
100
AcDbLine
 10
309.950665566
 20
292.2443990975
 30
0.0
 11
309.950665566
 21
302.1750865661
 31
0.0
  0
ARC
  5
21C
330
178
100
AcDbEntity
  8
DV3_Default
  6
Continuous
 62
     7
100
AcDbCircle
 10
310.750665566
 20
354.6418904433
 30
0.0
 40
0.7999999999999952
100
AcDbArc
 50
90.0
 51
180.0
  0
SPLINE
  5
21D
330
178
100
AcDbEntity
  8
DV3_Default
  6
Continuous
 62
     7
100
AcDbSpline
210
0.0
220
0.0
230
1.0
 70
     8
 71
     3
 72
    10
 73
     6
 74
     0
 42
0.0000000097048144
 43
0.0000000001
 40
0.0
 40
0.0
 40
0.0
 40
0.0
 40
0.5
 40
0.5
 40
1.0
 40
1.0
 40
1.0
 40
1.0
 10
309.9506655660111
 20
302.17422370206
 30
0.0
 10
309.9502429072776
 20
302.055622091476
 30
0.0
 10
310.0362714022744
 20
301.9367923500222
 30
0.0
 10
310.3325449376604
 20
301.7675237868741
 30
0.0
 10
310.5409562966346
 20
301.7181298185832
 30
0.0
 10
310.7506655089504
 20
301.7184411518301
 30
0.0
  0
LINE
  5
21E
330
178
100
AcDbEntity
  8
DV3_Default
  6
Continuous
 62
     7
100
AcDbLine
 10
336.950668705
 20
347.4412743648
 30
0.0
 11
336.950668705
 21
354.4418904433
 31
0.0
  0
LINE
  5
21F
330
178
100
AcDbEntity
  8
DV3_Default
  6
Continuous
 62
     7
100
AcDbLine
 10
336.950668705
 20
303.1232613757
 30
0.0
 11
336.950668705
 21
347.4412743648
 31
0.0
  0
LINE
  5
220
330
178
100
AcDbEntity
  8
DV3_Default
  6
Continuous
 62
     7
100
AcDbLine
 10
336.950668705
 20
303.12337503
 30
0.0
 11
336.950668705
 21
292.4443990975
 31
0.0
  0
LINE
  5
221
330
178
100
AcDbEntity
  8
DV3_Default
  6
Continuous
 62
     7
100
AcDbLine
 10
335.950668705
 20
355.4418904433
 30
0.0
 11
310.750665566
 21
355.4418904433
 31
0.0
  0
ARC
  5
222
330
178
100
AcDbEntity
  8
DV3_Default
  6
Continuous
 62
     7
100
AcDbCircle
 10
335.950668705
 20
354.4418904433
 30
0.0
 40
1.000000000000001
100
AcDbArc
 50
0.0
 51
90.0
  0
SPLINE
  5
223
330
178
100
AcDbEntity
  8
DV3_Default
  6
Continuous
 62
     7
100
AcDbSpline
210
0.0
220
0.0
230
1.0
 70
     8
 71
     3
 72
    14
 73
    10
 74
     0
 42
0.000000005214175
 43
0.0000000001
 40
0.0
 40
0.0
 40
0.0
 40
0.0
 40
0.25
 40
0.25
 40
0.5
 40
0.5
 40
0.75
 40
0.75
 40
1.0
 40
1.0
 40
1.0
 40
1.0
 10
335.9506687183865
 20
301.7178840828096
 30
0.0
 10
336.1133193932932
 20
301.7178840843235
 30
0.0
 10
336.2693704187669
 20
301.774817225176
 30
0.0
 10
336.5315713605089
 20
301.959167567816
 30
0.0
 10
336.6366703791792
 20
302.0829088851251
 30
0.0
 10
336.7991848956366
 20
302.3554193115752
 30
0.0
 10
336.8561904564761
 20
302.5020835521313
 30
0.0
 10
336.9325901893138
 20
302.8093251702218
 30
0.0
 10
336.9506687050374
 20
302.9665648401752
 30
0.0
 10
336.9506687050374
 20
303.1232613757118
 30
0.0
  0
ARC
  5
224
330
178
100
AcDbEntity
  8
DV3_Default
  6
Continuous
 62
     7
100
AcDbCircle
 10
323.4506958274
 20
315.4413554809
 30
0.0
 40
7.350028673784541
100
AcDbArc
 50
183.6327608597
 51
43.3007643001
  0
ARC
  5
225
330
178
100
AcDbEntity
  8
DV3_Default
  6
Continuous
 62
     7
100
AcDbCircle
 10
323.4513156176
 20
315.4412568133
 30
0.0
 40
7.350640968225302
100
AcDbArc
 50
136.9441584755
 51
183.631687223
  0
ARC
  5
226
330
178
100
AcDbEntity
  8
DV3_Default
  6
Continuous
 62
     7
100
AcDbCircle
 10
323.450668705
 20
315.4413301349
 30
0.0
 40
7.350000000000012
100
AcDbArc
 50
43.3007646406
 51
136.9411256484
  0
LINE
  5
227
330
178
100
AcDbEntity
  8
DV3_Default
  6
Continuous
 62
     7
100
AcDbLine
 10
328.9452220754
 20
320.6193361895
 30
0.0
 11
328.7997792219
 21
320.4822113947
 31
0.0
  0
SPLINE
  5
228
330
178
100
AcDbEntity
  8
DV3_Default
  6
Continuous
 62
     7
100
AcDbSpline
210
0.0
220
0.0
230
1.0
 70
     8
 71
     3
 72
    10
 73
     6
 74
     0
 42
0.0000000491472611
 43
0.0000000001
 40
0.0
 40
0.0
 40
0.0
 40
0.0
 40
0.5
 40
0.5
 40
1.0
 40
1.0
 40
1.0
 40
1.0
 10
317.9341305138428
 20
320.5955300873587
 30
0.0
 10
317.9733116151658
 20
320.5589992373263
 30
0.0
 10
318.012187948162
 20
320.522794749776
 30
0.0
 10
318.0665389635422
 20
320.4722413225315
 30
0.0
 10
318.0816496202987
 20
320.458232774244
 30
0.0
 10
318.0802855729661
 20
320.4596189866568
 30
0.0
  0
LINE
  5
229
330
178
100
AcDbEntity
  8
DV3_Default
  6
Continuous
 62
     7
100
AcDbLine
 10
310.750665566
 20
291.4443990975
 30
0.0
 11
335.950668705
 21
291.4443990975
 31
0.0
  0
ARC
  5
22A
330
178
100
AcDbEntity
  8
DV3_Default
  6
Continuous
 62
     7
100
AcDbCircle
 10
310.750665566
 20
292.2443990975
 30
0.0
 40
0.7999999999999952
100
AcDbArc
 50
180.0
 51
270.0
  0
ELLIPSE
  5
22B
330
178
100
AcDbEntity
  8
DV3_Default
  6
Continuous
 62
     7
100
AcDbEllipse
 10
335.950668705
 20
338.3692217449
 30
0.0
 11
-1.000000000001805
 21
2.842170943040401E-11
 31
0.0
210
0.0
220
0.0
230
1.0
 40
0.999974257
 41
3.139918469816185
 42
3.143881747306676
  0
ARC
  5
22C
330
178
100
AcDbEntity
  8
DV3_Default
  6
Continuous
 62
     7
100
AcDbCircle
 10
335.950668705
 20
292.4443990975
 30
0.0
 40
1.000000000000001
100
AcDbArc
 50
270.0
 51
0.0
  0
ARC
  5
22D
330
178
100
AcDbEntity
  8
DV3_Default
  6
Continuous
 62
     7
100
AcDbCircle
 10
125.9005082988
 20
283.8881500159
 30
0.0
 40
7.578405190732674
100
AcDbArc
 50
78.9125998238
 51
90.2334103211
  0
ARC
  5
22E
330
178
100
AcDbEntity
  8
DV3_Default
  6
Continuous
 62
     7
100
AcDbCircle
 10
125.3731535938
 20
283.6523331641
 30
0.0
 40
8.07899297422355
100
AcDbArc
 50
1.0959297514
 51
9.5476592871
  0
LINE
  5
22F
330
178
100
AcDbEntity
  8
DV3_Default
  6
Continuous
 62
     7
100
AcDbLine
 10
47.950668705
 20
354.4429490227
 30
0.0
 11
47.950668705
 21
315.4429490227
 31
0.0
  0
LINE
  5
230
330
178
100
AcDbEntity
  8
DV3_Default
  6
Continuous
 62
     7
100
AcDbLine
 10
47.950668705
 20
315.4429490227
 30
0.0
 11
47.950668705
 21
291.9429490227
 31
0.0
  0
LINE
  5
231
330
178
100
AcDbEntity
  8
DV3_Default
  6
Continuous
 62
     7
100
AcDbLine
 10
308.450668705
 20
355.4429490227
 30
0.0
 11
48.450668705
 21
355.4429490227
 31
0.0
  0
ARC
  5
232
330
178
100
AcDbEntity
  8
DV3_Default
  6
Continuous
 62
     7
100
AcDbCircle
 10
48.450668705
 20
354.9429490227
 30
0.0
 40
0.5000000000000004
100
AcDbArc
 50
90.0
 51
180.0
  0
LINE
  5
233
330
178
100
AcDbEntity
  8
DV3_Default
  6
Continuous
 62
     7
100
AcDbLine
 10
47.950668705
 20
354.4429490227
 30
0.0
 11
47.950668705
 21
354.9429490227
 31
0.0
  0
LINE
  5
234
330
178
100
AcDbEntity
  8
DV3_Default
  6
Continuous
 62
     7
100
AcDbLine
 10
133.450668705
 20
298.8197599524
 30
0.0
 11
133.450668705
 21
227.2429490227
 31
0.0
  0
LINE
  5
235
330
178
100
AcDbEntity
  8
DV3_Default
  6
Continuous
 62
     7
100
AcDbLine
 10
133.450668705
 20
217.3429490227
 30
0.0
 11
133.450668705
 21
227.2429490227
 31
0.0
  0
ARC
  5
236
330
178
100
AcDbEntity
  8
DV3_Default
  6
Continuous
 62
     7
100
AcDbCircle
 10
231.5263680952
 20
283.6542211249
 30
0.0
 40
8.07714168786337
100
AcDbArc
 50
172.8497380087
 51
178.9172138366
  0
ARC
  5
237
330
178
100
AcDbEntity
  8
DV3_Default
  6
Continuous
 62
     7
100
AcDbCircle
 10
231.0008291112
 20
283.8881500159
 30
0.0
 40
7.578405190732688
100
AcDbArc
 50
89.7665896789
 51
100.8632905033
  0
LINE
  5
238
330
178
100
AcDbEntity
  8
DV3_Default
  6
Continuous
 62
     7
100
AcDbLine
 10
308.950668705
 20
354.4429490227
 30
0.0
 11
308.950668705
 21
315.4429490227
 31
0.0
  0
LINE
  5
239
330
178
100
AcDbEntity
  8
DV3_Default
  6
Continuous
 62
     7
100
AcDbLine
 10
308.950668705
 20
315.4429490227
 30
0.0
 11
308.950668705
 21
291.9429490227
 31
0.0
  0
ARC
  5
23A
330
178
100
AcDbEntity
  8
DV3_Default
  6
Continuous
 62
     7
100
AcDbCircle
 10
308.450668705
 20
354.9429490227
 30
0.0
 40
0.5000000000000004
100
AcDbArc
 50
0.0
 51
90.0
  0
LINE
  5
23B
330
178
100
AcDbEntity
  8
DV3_Default
  6
Continuous
 62
     7
100
AcDbLine
 10
308.950668705
 20
354.4429490227
 30
0.0
 11
308.950668705
 21
354.9429490227
 31
0.0
  0
LINE
  5
23C
330
178
100
AcDbEntity
  8
DV3_Default
  6
Continuous
 62
     7
100
AcDbLine
 10
223.450668705
 20
298.8197599524
 30
0.0
 11
223.450668705
 21
227.2429490227
 31
0.0
  0
LINE
  5
23D
330
178
100
AcDbEntity
  8
DV3_Default
  6
Continuous
 62
     7
100
AcDbLine
 10
223.450668705
 20
217.3429490227
 30
0.0
 11
223.450668705
 21
227.2429490227
 31
0.0
  0
ARC
  5
23E
330
178
100
AcDbEntity
  8
DV3_Default
  6
Continuous
 62
     7
100
AcDbCircle
 10
125.7403959656
 20
283.7842413644
 30
0.0
 40
7.713760652468584
100
AcDbArc
 50
54.0319193351
 51
79.9963912487
  0
LINE
  5
23F
330
178
100
AcDbEntity
  8
DV3_Default
  6
Continuous
 62
     7
100
AcDbLine
 10
126.3772366411
 20
291.4435469658
 30
0.0
 11
127.2086498466
 21
291.3595185594
 31
0.0
  0
LINE
  5
240
330
178
100
AcDbEntity
  8
DV3_Default
  6
Continuous
 62
     7
100
AcDbLine
 10
230.5054408351
 20
291.4429490227
 30
0.0
 11
308.450668705
 21
291.4429490227
 31
0.0
  0
LINE
  5
241
330
178
100
AcDbEntity
  8
DV3_Default
  6
Continuous
 62
     7
100
AcDbLine
 10
48.450668705
 20
291.4429490227
 30
0.0
 11
126.395896575
 21
291.4429490227
 31
0.0
  0
ARC
  5
242
330
178
100
AcDbEntity
  8
DV3_Default
  6
Continuous
 62
     7
100
AcDbCircle
 10
48.450668705
 20
291.9429490227
 30
0.0
 40
0.5000000000000004
100
AcDbArc
 50
180.0
 51
270.0
  0
LINE
  5
243
330
178
100
AcDbEntity
  8
DV3_Default
  6
Continuous
 62
     7
100
AcDbLine
 10
133.950668705
 20
216.8429490227
 30
0.0
 11
222.950668705
 21
216.8429490227
 31
0.0
  0
ARC
  5
244
330
178
100
AcDbEntity
  8
DV3_Default
  6
Continuous
 62
     7
100
AcDbCircle
 10
133.950668705
 20
217.3429490227
 30
0.0
 40
0.5000000000000004
100
AcDbArc
 50
180.0
 51
270.0
  0
ARC
  5
245
330
178
100
AcDbEntity
  8
DV3_Default
  6
Continuous
 62
     7
100
AcDbCircle
 10
222.950668705
 20
217.3429490227
 30
0.0
 40
0.4999999999999866
100
AcDbArc
 50
270.0
 51
0.0
  0
LINE
  5
246
330
178
100
AcDbEntity
  8
DV3_Default
  6
Continuous
 62
     7
100
AcDbLine
 10
229.6926875635
 20
291.3595185594
 30
0.0
 11
230.524100769
 21
291.4435469658
 31
0.0
  0
ARC
  5
247
330
178
100
AcDbEntity
  8
DV3_Default
  6
Continuous
 62
     7
100
AcDbCircle
 10
231.1616522356
 20
283.7811009399
 30
0.0
 40
7.716976805704402
100
AcDbArc
 50
100.0047555692
 51
125.2908686773
  0
ARC
  5
248
330
178
100
AcDbEntity
  8
DV3_Default
  6
Continuous
 62
     7
100
AcDbCircle
 10
308.450668705
 20
291.9429490227
 30
0.0
 40
0.5000000000000004
100
AcDbArc
 50
270.0
 51
0.0
  0
ENDBLK
  5
24A
330
178
100
AcDbEntity
  8
0
100
AcDbBlockEnd
  0
ENDSEC
  0
SECTION
  2
ENTITIES
  0
INSERT
  5
5F
330
1F
100
AcDbEntity
  8
Default
100
AcDbBlockReference
  2
SE
 10
0.0
 20
0.0
 30
0.0
  0
INSERT
  5
F6
330
1F
100
AcDbEntity
  8
Default
100
AcDbBlockReference
  2
SE1
 10
0.0
 20
0.0
 30
0.0
  0
INSERT
  5
179
330
1F
100
AcDbEntity
  8
Default
100
AcDbBlockReference
  2
SE2
 10
0.0
 20
0.0
 30
0.0
  0
TEXT
  5
24C
330
1F
100
AcDbEntity
  8
Default
  6
Continuous
 62
     7
100
AcDbText
 10
5.9362635081
 20
53.4225120485
 30
0.0
 40
10.0
  1
Grohe AG^J
  7
SEACAD_seiso_ttf
 11
5.9362635081
 21
63.4225120485
 31
0.0
100
AcDbText
 73
     3
  0
TEXT
  5
24D
330
1F
100
AcDbEntity
  8
Default
  6
Continuous
 62
     7
100
AcDbText
 10
5.9362635081
 20
37.0588756849
 30
0.0
 40
10.0
  1
 
  7
SEACAD_seiso_ttf
 11
5.9362635081
 21
47.0588756849
 31
0.0
100
AcDbText
 73
     3
  0
TEXT
  5
24E
330
1F
100
AcDbEntity
  8
Default
  6
Continuous
 62
     7
100
AcDbText
 10
5.9362635081
 20
20.6952393213
 30
0.0
 40
10.0
  1
ecn:
  7
SEACAD_seiso_ttf
 11
5.9362635081
 21
30.6952393213
 31
0.0
100
AcDbText
 73
     3
  0
TEXT
  5
24F
330
1F
100
AcDbEntity
  8
Default
  6
Continuous
 62
     7
100
AcDbText
 10
5.9362635081
 20
4.3316029576
 30
0.0
 40
10.0
  1
unit: mm
  7
SEACAD_seiso_ttf
 11
5.9362635081
 21
14.3316029576
 31
0.0
100
AcDbText
 73
     3
  0
LINE
  5
250
330
1F
100
AcDbEntity
  8
Default
  6
Continuous
 62
     7
100
AcDbLine
 10
0.0
 20
0.0
 30
0.0
 11
100.0
 21
0.0
 31
0.0
  0
LINE
  5
251
330
1F
100
AcDbEntity
  8
Default
  6
Continuous
 62
     7
100
AcDbLine
 10
0.0
 20
0.0
 30
0.0
 11
0.0
 21
100.0
 31
0.0
  0
TEXT
  5
252
330
1F
100
AcDbEntity
  8
Default
  6
Continuous
 62
     7
100
AcDbText
 10
24.3923665681
 20
-18.2375342018
 30
0.0
 40
10.0
  1
100 mm
  7
SEACAD_seiso_ttf
 11
24.3923665681
 21
-8.2375342018
 31
0.0
100
AcDbText
 73
     3
  0
TEXT
  5
253
330
1F
100
AcDbEntity
  8
Default
  6
Continuous
 62
     7
100
AcDbText
 10
-7.6150308803
 20
24.6231930421
 30
0.0
 40
10.0
  1
100 mm
 50
90.0
  7
SEACAD_seiso_ttf
 11
-17.6150308803
 21
24.6231930421
 31
0.0
100
AcDbText
 73
     3
  0
TEXT
  5
254
330
1F
100
AcDbEntity
  8
Default
  6
Continuous
 62
     7
100
AcDbText
 10
28.4878128572
 20
20.0907663715
 30
0.0
 40
10.0
  1
227028
  7
SEACAD_seiso_ttf
 11
28.4878128572
 21
30.0907663715
 31
0.0
100
AcDbText
 73
     3
  0
TEXT
  5
255
330
1F
100
AcDbEntity
  8
Default
  6
Continuous
 62
     7
100
AcDbText
 10
5.9012241913
 20
36.7242780188
 30
0.0
 40
10.0
  1
34178001
  7
SEACAD_seiso_ttf
 11
5.9012241913
 21
46.7242780188
 31
0.0
100
AcDbText
 73
     3
  0
ENDSEC
  0
SECTION
  2
OBJECTS
  0
DICTIONARY
  5
C
330
0
100
AcDbDictionary
281
     1
  3
ACAD_GROUP
350
D
  3
ACAD_LAYOUT
350
1A
  3
ACAD_MLEADERSTYLE
350
259
  3
ACAD_MLINESTYLE
350
17
  3
ACAD_PLOTSETTINGS
350
19
  3
ACAD_PLOTSTYLENAME
350
E
  3
ACAD_SCALELIST
350
3B
  3
ACAD_TABLESTYLE
350
258
  3
ACAD_VISUALSTYLE
350
2A
  3
AcDbVariableDictionary
350
256
  0
DICTIONARY
  5
D
102
{ACAD_REACTORS
330
C
102
}
330
C
100
AcDbDictionary
281
     1
  0
DICTIONARY
  5
1A
102
{ACAD_REACTORS
330
C
102
}
330
C
100
AcDbDictionary
281
     1
  3
Layout1
350
1E
  3
Model
350
22
  0
DICTIONARY
  5
259
102
{ACAD_REACTORS
330
C
102
}
330
C
100
AcDbDictionary
281
     1
  0
DICTIONARY
  5
17
102
{ACAD_REACTORS
330
C
102
}
330
C
100
AcDbDictionary
281
     1
  3
Standard
350
18
  0
DICTIONARY
  5
19
102
{ACAD_REACTORS
330
C
102
}
330
C
100
AcDbDictionary
281
     1
  0
ACDBDICTIONARYWDFLT
  5
E
102
{ACAD_REACTORS
330
C
102
}
330
C
100
AcDbDictionary
281
     1
  3
Normal
350
F
100
AcDbDictionaryWithDefault
340
F
  0
DICTIONARY
  5
3B
102
{ACAD_REACTORS
330
C
102
}
330
C
100
AcDbDictionary
281
     1
  3
A0
350
3C
  3
A1
350
3D
  3
A2
350
3E
  3
A3
350
3F
  3
A4
350
40
  3
A5
350
41
  3
A6
350
42
  3
A7
350
43
  3
A8
350
44
  3
A9
350
45
  3
B0
350
46
  3
B1
350
47
  3
B2
350
48
  3
B3
350
49
  3
B4
350
4A
  3
B5
350
4B
  3
B6
350
4C
  3
B7
350
4D
  3
B8
350
4E
  3
B9
350
4F
  3
C0
350
50
  3
C1
350
51
  3
C2
350
52
  3
C3
350
53
  3
C4
350
54
  3
C5
350
55
  3
C6
350
56
  3
C7
350
57
  3
C8
350
58
  3
C9
350
59
  3
D0
350
5A
  3
D1
350
5B
  3
D2
350
5C
  0
DICTIONARY
  5
258
102
{ACAD_REACTORS
330
C
102
}
330
C
100
AcDbDictionary
281
     1
  0
DICTIONARY
  5
2A
102
{ACAD_REACTORS
330
C
102
}
330
C
100
AcDbDictionary
281
     1
  3
2dWireframe
350
2F
  3
3D Hidden
350
31
  3
3dWireframe
350
30
  3
Basic
350
32
  3
Brighten
350
36
  3
ColorChange
350
3A
  3
Conceptual
350
34
  3
Dim
350
35
  3
Facepattern
350
39
  3
Flat
350
2B
  3
FlatWithEdges
350
2C
  3
Gouraud
350
2D
  3
GouraudWithEdges
350
2E
  3
Linepattern
350
38
  3
Realistic
350
33
  3
Thicken
350
37
  0
DICTIONARY
  5
256
102
{ACAD_REACTORS
330
C
102
}
330
C
100
AcDbDictionary
281
     1
  3
CANNOSCALE
350
257
  3
PSOLHEIGHT
350
25B
  3
PSOLWIDTH
350
25A
  0
LAYOUT
  5
1E
102
{ACAD_REACTORS
330
1A
102
}
330
1A
100
AcDbPlotSettings
  1

  2
none_device
  4

  6

 40
0.0
 41
0.0
 42
0.0
 43
0.0
 44
0.0
 45
0.0
 46
0.0
 47
0.0
 48
0.0
 49
0.0
140
0.0
141
0.0
142
1.0
143
1.0
 70
   688
 72
     0
 73
     0
 74
     5
  7

 75
    16
147
1.0
148
0.0
149
0.0
100
AcDbLayout
  1
Layout1
 70
     1
 71
     1
 10
0.0
 20
0.0
 11
3000.0
 21
4500.0
 12
0.0
 22
0.0
 32
0.0
 14
0.0
 24
0.0
 34
0.0
 15
3000.0
 25
4500.0
 35
0.0
146
0.0
 13
0.0
 23
0.0
 33
0.0
 16
1.0
 26
0.0
 36
0.0
 17
0.0
 27
1.0
 37
0.0
 76
     0
330
1B
  0
LAYOUT
  5
22
102
{ACAD_REACTORS
330
1A
102
}
330
1A
100
AcDbPlotSettings
  1

  2
none_device
  4

  6

 40
0.0
 41
0.0
 42
0.0
 43
0.0
 44
0.0
 45
0.0
 46
0.0
 47
0.0
 48
0.0
 49
0.0
140
0.0
141
0.0
142
1.0
143
1.0
 70
  1712
 72
     0
 73
     0
 74
     0
  7

 75
     0
147
1.0
148
0.0
149
0.0
100
AcDbLayout
  1
Model
 70
     1
 71
     0
 10
0.0
 20
0.0
 11
3000.0
 21
4500.0
 12
0.0
 22
0.0
 32
0.0
 14
0.0
 24
0.0
 34
0.0
 15
3000.0
 25
4500.0
 35
0.0
146
0.0
 13
0.0
 23
0.0
 33
0.0
 16
1.0
 26
0.0
 36
0.0
 17
0.0
 27
1.0
 37
0.0
 76
     0
330
1F
331
29
  0
MLINESTYLE
  5
18
102
{ACAD_REACTORS
330
17
102
}
330
17
100
AcDbMlineStyle
  2
Standard
 70
     0
  3

 62
   256
 51
90.0
 52
90.0
 71
     2
 49
0.5
 62
   256
  6
BYLAYER
 49
-0.5
 62
   256
  6
BYLAYER
  0
ACDBPLACEHOLDER
  5
F
102
{ACAD_REACTORS
330
E
102
}
330
E
  0
SCALE
  5
3C
102
{ACAD_REACTORS
330
3B
102
}
330
3B
100
AcDbScale
 70
     0
300
1:1
140
1.0
141
1.0
290
     1
  0
SCALE
  5
3D
102
{ACAD_REACTORS
330
3B
102
}
330
3B
100
AcDbScale
 70
     0
300
1:2
140
1.0
141
2.0
290
     0
  0
SCALE
  5
3E
102
{ACAD_REACTORS
330
3B
102
}
330
3B
100
AcDbScale
 70
     0
300
1:4
140
1.0
141
4.0
290
     0
  0
SCALE
  5
3F
102
{ACAD_REACTORS
330
3B
102
}
330
3B
100
AcDbScale
 70
     0
300
1:5
140
1.0
141
5.0
290
     0
  0
SCALE
  5
40
102
{ACAD_REACTORS
330
3B
102
}
330
3B
100
AcDbScale
 70
     0
300
1:8
140
1.0
141
8.0
290
     0
  0
SCALE
  5
41
102
{ACAD_REACTORS
330
3B
102
}
330
3B
100
AcDbScale
 70
     0
300
1:10
140
1.0
141
10.0
290
     0
  0
SCALE
  5
42
102
{ACAD_REACTORS
330
3B
102
}
330
3B
100
AcDbScale
 70
     0
300
1:16
140
1.0
141
16.0
290
     0
  0
SCALE
  5
43
102
{ACAD_REACTORS
330
3B
102
}
330
3B
100
AcDbScale
 70
     0
300
1:20
140
1.0
141
20.0
290
     0
  0
SCALE
  5
44
102
{ACAD_REACTORS
330
3B
102
}
330
3B
100
AcDbScale
 70
     0
300
1:30
140
1.0
141
30.0
290
     0
  0
SCALE
  5
45
102
{ACAD_REACTORS
330
3B
102
}
330
3B
100
AcDbScale
 70
     0
300
1:40
140
1.0
141
40.0
290
     0
  0
SCALE
  5
46
102
{ACAD_REACTORS
330
3B
102
}
330
3B
100
AcDbScale
 70
     0
300
1:50
140
1.0
141
50.0
290
     0
  0
SCALE
  5
47
102
{ACAD_REACTORS
330
3B
102
}
330
3B
100
AcDbScale
 70
     0
300
1:100
140
1.0
141
100.0
290
     0
  0
SCALE
  5
48
102
{ACAD_REACTORS
330
3B
102
}
330
3B
100
AcDbScale
 70
     0
300
2:1
140
2.0
141
1.0
290
     0
  0
SCALE
  5
49
102
{ACAD_REACTORS
330
3B
102
}
330
3B
100
AcDbScale
 70
     0
300
4:1
140
4.0
141
1.0
290
     0
  0
SCALE
  5
4A
102
{ACAD_REACTORS
330
3B
102
}
330
3B
100
AcDbScale
 70
     0
300
8:1
140
8.0
141
1.0
290
     0
  0
SCALE
  5
4B
102
{ACAD_REACTORS
330
3B
102
}
330
3B
100
AcDbScale
 70
     0
300
10:1
140
10.0
141
1.0
290
     0
  0
SCALE
  5
4C
102
{ACAD_REACTORS
330
3B
102
}
330
3B
100
AcDbScale
 70
     0
300
100:1
140
100.0
141
1.0
290
     0
  0
SCALE
  5
4D
102
{ACAD_REACTORS
330
3B
102
}
330
3B
100
AcDbScale
 70
     0
300
1/128" = 1'-0"
140
0.0078125
141
12.0
290
     0
  0
SCALE
  5
4E
102
{ACAD_REACTORS
330
3B
102
}
330
3B
100
AcDbScale
 70
     0
300
1/64" = 1'-0"
140
0.015625
141
12.0
290
     0
  0
SCALE
  5
4F
102
{ACAD_REACTORS
330
3B
102
}
330
3B
100
AcDbScale
 70
     0
300
1/32" = 1'-0"
140
0.03125
141
12.0
290
     0
  0
SCALE
  5
50
102
{ACAD_REACTORS
330
3B
102
}
330
3B
100
AcDbScale
 70
     0
300
1/16" = 1'-0"
140
0.0625
141
12.0
290
     0
  0
SCALE
  5
51
102
{ACAD_REACTORS
330
3B
102
}
330
3B
100
AcDbScale
 70
     0
300
3/32" = 1'-0"
140
0.09375
141
12.0
290
     0
  0
SCALE
  5
52
102
{ACAD_REACTORS
330
3B
102
}
330
3B
100
AcDbScale
 70
     0
300
1/8" = 1'-0"
140
0.125
141
12.0
290
     0
  0
SCALE
  5
53
102
{ACAD_REACTORS
330
3B
102
}
330
3B
100
AcDbScale
 70
     0
300
3/16" = 1'-0"
140
0.1875
141
12.0
290
     0
  0
SCALE
  5
54
102
{ACAD_REACTORS
330
3B
102
}
330
3B
100
AcDbScale
 70
     0
300
1/4" = 1'-0"
140
0.25
141
12.0
290
     0
  0
SCALE
  5
55
102
{ACAD_REACTORS
330
3B
102
}
330
3B
100
AcDbScale
 70
     0
300
3/8" = 1'-0"
140
0.375
141
12.0
290
     0
  0
SCALE
  5
56
102
{ACAD_REACTORS
330
3B
102
}
330
3B
100
AcDbScale
 70
     0
300
1/2" = 1'-0"
140
0.5
141
12.0
290
     0
  0
SCALE
  5
57
102
{ACAD_REACTORS
330
3B
102
}
330
3B
100
AcDbScale
 70
     0
300
3/4" = 1'-0"
140
0.75
141
12.0
290
     0
  0
SCALE
  5
58
102
{ACAD_REACTORS
330
3B
102
}
330
3B
100
AcDbScale
 70
     0
300
1" = 1'-0"
140
1.0
141
12.0
290
     0
  0
SCALE
  5
59
102
{ACAD_REACTORS
330
3B
102
}
330
3B
100
AcDbScale
 70
     0
300
1-1/2" = 1'-0"
140
1.5
141
12.0
290
     0
  0
SCALE
  5
5A
102
{ACAD_REACTORS
330
3B
102
}
330
3B
100
AcDbScale
 70
     0
300
3" = 1'-0"
140
3.0
141
12.0
290
     0
  0
SCALE
  5
5B
102
{ACAD_REACTORS
330
3B
102
}
330
3B
100
AcDbScale
 70
     0
300
6" = 1'-0"
140
6.0
141
12.0
290
     0
  0
SCALE
  5
5C
102
{ACAD_REACTORS
330
3B
102
}
330
3B
100
AcDbScale
 70
     0
300
1'-0" = 1'-0"
140
12.0
141
12.0
290
     0
  0
VISUALSTYLE
  5
2F
102
{ACAD_REACTORS
330
2A
102
}
330
2A
100
AcDbVisualStyle
  2
2dWireframe
 70
     4
 71
     0
 72
     2
 73
     0
 90
        0
 40
-0.6
 41
-30.0
 62
     5
 63
     7
 74
     1
 91
        4
 64
     7
 65
   257
 75
     1
175
     1
 42
1.0
 92
        0
 66
   257
 43
1.0
 76
     1
 77
     6
 78
     2
 67
     7
 79
     5
170
     0
171
     0
290
     0
174
     0
 93
        1
 44
0.0
173
     0
291
     0
 45
0.0
1001
ACAD
1000
AcDbSavedByObjectVersion
1070
     0
  0
VISUALSTYLE
  5
31
102
{ACAD_REACTORS
330
2A
102
}
330
2A
100
AcDbVisualStyle
  2
3D Hidden
 70
     6
 71
     1
 72
     2
 73
     2
 90
        0
 40
-0.6
 41
-30.0
 62
     5
 63
     7
 74
     2
 91
        2
 64
     7
 65
   257
 75
     2
175
     1
 42
40.0
 92
        0
 66
   257
 43
1.0
 76
     1
 77
     6
 78
     2
 67
     7
 79
     3
170
     0
171
     0
290
     0
174
     0
 93
        1
 44
0.0
173
     0
291
     0
 45
0.0
1001
ACAD
1000
AcDbSavedByObjectVersion
1070
     0
  0
VISUALSTYLE
  5
30
102
{ACAD_REACTORS
330
2A
102
}
330
2A
100
AcDbVisualStyle
  2
3dWireframe
 70
     5
 71
     0
 72
     2
 73
     0
 90
        0
 40
-0.6
 41
-30.0
 62
     5
 63
     7
 74
     1
 91
        4
 64
     7
 65
   257
 75
     1
175
     1
 42
1.0
 92
        0
 66
   257
 43
1.0
 76
     1
 77
     6
 78
     2
 67
     7
 79
     5
170
     0
171
     0
290
     0
174
     0
 93
        1
 44
0.0
173
     0
291
     0
 45
0.0
1001
ACAD
1000
AcDbSavedByObjectVersion
1070
     0
  0
VISUALSTYLE
  5
32
102
{ACAD_REACTORS
330
2A
102
}
330
2A
100
AcDbVisualStyle
  2
Basic
 70
     7
 71
     1
 72
     0
 73
     1
 90
        0
 40
-0.6
 41
-30.0
 62
     5
 63
     7
 74
     0
 91
        4
 64
     7
 65
   257
 75
     1
175
     1
 42
1.0
 92
        8
 66
     7
 43
1.0
 76
     1
 77
     6
 78
     2
 67
     7
 79
     5
170
     0
171
     0
290
     0
174
     0
 93
        1
 44
0.0
173
     0
291
     1
 45
0.0
1001
ACAD
1000
AcDbSavedByObjectVersion
1070
     0
  0
VISUALSTYLE
  5
36
102
{ACAD_REACTORS
330
2A
102
}
330
2A
100
AcDbVisualStyle
  2
Brighten
 70
    12
 71
     2
 72
     2
 73
     0
 90
        0
 40
-0.6
 41
-30.0
 62
     5
 63
     7
 74
     1
 91
        4
 64
     7
 65
   257
 75
     1
175
     1
 42
1.0
 92
        8
 66
     7
 43
1.0
 76
     1
 77
     6
 78
     2
 67
     7
 79
     5
170
     0
171
     0
290
     0
174
     0
 93
        1
 44
50.0
173
     0
291
     1
 45
0.0
1001
ACAD
1000
AcDbSavedByObjectVersion
1070
     0
  0
VISUALSTYLE
  5
3A
102
{ACAD_REACTORS
330
2A
102
}
330
2A
100
AcDbVisualStyle
  2
ColorChange
 70
    16
 71
     2
 72
     2
 73
     3
 90
        0
 40
-0.6
 41
-30.0
 62
     5
 63
     8
 74
     1
 91
        4
 64
     7
 65
   257
 75
     1
175
     1
 42
1.0
 92
        8
 66
     8
 43
1.0
 76
     1
 77
     6
 78
     2
 67
     7
 79
     5
170
     0
171
     0
290
     0
174
     0
 93
        1
 44
0.0
173
     0
291
     1
 45
0.0
1001
ACAD
1000
AcDbSavedByObjectVersion
1070
     0
  0
VISUALSTYLE
  5
34
102
{ACAD_REACTORS
330
2A
102
}
330
2A
100
AcDbVisualStyle
  2
Conceptual
 70
     9
 71
     3
 72
     2
 73
     0
 90
        0
 40
-0.6
 41
-30.0
 62
     5
 63
     7
 74
     2
 91
        2
 64
     7
 65
   257
 75
     1
175
     1
 42
40.0
 92
        8
 66
     7
 43
1.0
 76
     1
 77
     6
 78
     2
 67
     7
 79
     3
170
     0
171
     0
290
     0
174
     0
 93
        1
 44
0.0
173
     0
291
     0
 45
0.0
1001
ACAD
1000
AcDbSavedByObjectVersion
1070
     0
  0
VISUALSTYLE
  5
35
102
{ACAD_REACTORS
330
2A
102
}
330
2A
100
AcDbVisualStyle
  2
Dim
 70
    11
 71
     2
 72
     2
 73
     0
 90
        0
 40
-0.6
 41
-30.0
 62
     5
 63
     7
 74
     1
 91
        4
 64
     7
 65
   257
 75
     1
175
     1
 42
1.0
 92
        8
 66
     7
 43
1.0
 76
     1
 77
     6
 78
     2
 67
     7
 79
     5
170
     0
171
     0
290
     0
174
     0
 93
        1
 44
-50.0
173
     0
291
     1
 45
0.0
1001
ACAD
1000
AcDbSavedByObjectVersion
1070
     0
  0
VISUALSTYLE
  5
39
102
{ACAD_REACTORS
330
2A
102
}
330
2A
100
AcDbVisualStyle
  2
Facepattern
 70
    15
 71
     2
 72
     2
 73
     0
 90
        0
 40
-0.6
 41
-30.0
 62
     5
 63
     7
 74
     1
 91
        4
 64
     7
 65
   257
 75
     1
175
     1
 42
1.0
 92
        8
 66
     7
 43
1.0
 76
     1
 77
     6
 78
     2
 67
     7
 79
     5
170
     0
171
     0
290
     0
174
     0
 93
        1
 44
0.0
173
     0
291
     1
 45
0.0
1001
ACAD
1000
AcDbSavedByObjectVersion
1070
     0
  0
VISUALSTYLE
  5
2B
102
{ACAD_REACTORS
330
2A
102
}
330
2A
100
AcDbVisualStyle
  2
Flat
 70
     0
 71
     2
 72
     1
 73
     1
 90
        2
 40
-0.6
 41
30.0
 62
     5
 63
     7
 74
     0
 91
        4
 64
     7
 65
   257
 75
     1
175
     1
 42
1.0
 92
        8
 66
     7
 43
1.0
 76
     1
 77
     6
 78
     2
 67
     7
 79
     5
170
     0
171
     0
290
     0
174
     0
 93
       13
 44
0.0
173
     0
291
     1
 45
0.0
1001
ACAD
1000
AcDbSavedByObjectVersion
1070
     0
  0
VISUALSTYLE
  5
2C
102
{ACAD_REACTORS
330
2A
102
}
330
2A
100
AcDbVisualStyle
  2
FlatWithEdges
 70
     1
 71
     2
 72
     1
 73
     1
 90
        2
 40
-0.6
 41
30.0
 62
     5
 63
     7
 74
     1
 91
        4
 64
     7
 65
   257
 75
     1
175
     1
 42
1.0
 92
        0
 66
   257
 43
1.0
 76
     1
 77
     6
 78
     2
 67
     7
 79
     5
170
     0
171
     0
290
     0
174
     0
 93
       13
 44
0.0
173
     0
291
     1
 45
0.0
1001
ACAD
1000
AcDbSavedByObjectVersion
1070
     0
  0
VISUALSTYLE
  5
2D
102
{ACAD_REACTORS
330
2A
102
}
330
2A
100
AcDbVisualStyle
  2
Gouraud
 70
     2
 71
     2
 72
     2
 73
     1
 90
        2
 40
-0.6
 41
30.0
 62
     5
 63
     7
 74
     0
 91
        4
 64
     7
 65
   257
 75
     1
175
     1
 42
1.0
 92
        0
 66
     7
 43
1.0
 76
     1
 77
     6
 78
     2
 67
     7
 79
     5
170
     0
171
     0
290
     0
174
     0
 93
       13
 44
0.0
173
     0
291
     1
 45
0.0
1001
ACAD
1000
AcDbSavedByObjectVersion
1070
     0
  0
VISUALSTYLE
  5
2E
102
{ACAD_REACTORS
330
2A
102
}
330
2A
100
AcDbVisualStyle
  2
GouraudWithEdges
 70
     3
 71
     2
 72
     2
 73
     1
 90
        2
 40
-0.6
 41
30.0
 62
     5
 63
     7
 74
     1
 91
        4
 64
     7
 65
   257
 75
     1
175
     1
 42
1.0
 92
        0
 66
   257
 43
1.0
 76
     1
 77
     6
 78
     2
 67
     7
 79
     5
170
     0
171
     0
290
     0
174
     0
 93
       13
 44
0.0
173
     0
291
     1
 45
0.0
1001
ACAD
1000
AcDbSavedByObjectVersion
1070
     0
  0
VISUALSTYLE
  5
38
102
{ACAD_REACTORS
330
2A
102
}
330
2A
100
AcDbVisualStyle
  2
Linepattern
 70
    14
 71
     2
 72
     2
 73
     0
 90
        0
 40
-0.6
 41
-30.0
 62
     5
 63
     7
 74
     1
 91
        4
 64
     7
 65
   257
 75
     7
175
     7
 42
1.0
 92
        8
 66
     7
 43
1.0
 76
     1
 77
     6
 78
     2
 67
     7
 79
     5
170
     0
171
     0
290
     0
174
     0
 93
        1
 44
0.0
173
     0
291
     1
 45
0.0
1001
ACAD
1000
AcDbSavedByObjectVersion
1070
     0
  0
VISUALSTYLE
  5
33
102
{ACAD_REACTORS
330
2A
102
}
330
2A
100
AcDbVisualStyle
  2
Realistic
 70
     8
 71
     2
 72
     2
 73
     0
 90
        0
 40
-0.6
 41
-30.0
 62
     5
 63
     7
 74
     1
 91
        0
 64
     7
 65
   257
 75
     1
175
     1
 42
1.0
 92
        8
 66
     8
 43
1.0
 76
     1
 77
     6
 78
     2
 67
     7
 79
     5
170
     0
171
     0
290
     0
174
     0
 93
       13
 44
0.0
173
     0
291
     0
 45
0.0
1001
ACAD
1000
AcDbSavedByObjectVersion
1070
     0
  0
VISUALSTYLE
  5
37
102
{ACAD_REACTORS
330
2A
102
}
330
2A
100
AcDbVisualStyle
  2
Thicken
 70
    13
 71
     2
 72
     2
 73
     0
 90
        0
 40
-0.6
 41
-30.0
 62
     5
 63
     7
 74
     1
 91
        4
 64
     7
 65
   257
 75
     1
175
     1
 42
1.0
 92
       12
 66
     7
 43
1.0
 76
     1
 77
     6
 78
     2
 67
     7
 79
     5
170
     0
171
     0
290
     0
174
     0
 93
        1
 44
0.0
173
     0
291
     1
 45
0.0
1001
ACAD
1000
AcDbSavedByObjectVersion
1070
     0
  0
DICTIONARYVAR
  5
257
102
{ACAD_REACTORS
330
256
102
}
330
256
100
DictionaryVariables
280
     0
  1
1:1
  0
DICTIONARYVAR
  5
25B
102
{ACAD_REACTORS
330
256
102
}
330
256
100
DictionaryVariables
280
     0
  1
80.000000
  0
DICTIONARYVAR
  5
25A
102
{ACAD_REACTORS
330
256
102
}
330
256
100
DictionaryVariables
280
     0
  1
5.000000
  0
ENDSEC
  0
EOF
