  0
SECTION
  2
HEADER
  9
$ACADVER
  1
AC1015
  9
$ACADMAINTVER
 70
     6
  9
$DWGCODEPAGE
  3
ANSI_1252
  9
$INSBASE
 10
0.0
 20
0.0
 30
0.0
  9
$EXTMIN
 10
0.0
 20
0.0
 30
0.0
  9
$EXTMAX
 10
3000.0
 20
4500.0
 30
0.0
  9
$LIMMIN
 10
0.0
 20
0.0
  9
$LIMMAX
 10
3000.0
 20
4500.0
  9
$ORTHOMODE
 70
     0
  9
$REGENMODE
 70
     1
  9
$FILLMODE
 70
     1
  9
$QTEXTMODE
 70
     0
  9
$MIRRTEXT
 70
     1
  9
$LTSCALE
 40
1.0
  9
$ATTMODE
 70
     1
  9
$TEXTSIZE
 40
2.5
  9
$TRACEWID
 40
1.0
  9
$TEXTSTYLE
  7
Standard
  9
$CLAYER
  8
0
  9
$CELTYPE
  6
ByLayer
  9
$CECOLOR
 62
   256
  9
$CELTSCALE
 40
1.0
  9
$DISPSILH
 70
     0
  9
$DIMSCALE
 40
1.0
  9
$DIMASZ
 40
2.5
  9
$DIMEXO
 40
0.625
  9
$DIMDLI
 40
3.75
  9
$DIMRND
 40
0.0
  9
$DIMDLE
 40
0.0
  9
$DIMEXE
 40
1.25
  9
$DIMTP
 40
0.0
  9
$DIMTM
 40
0.0
  9
$DIMTXT
 40
2.5
  9
$DIMCEN
 40
2.5
  9
$DIMTSZ
 40
0.0
  9
$DIMTOL
 70
     0
  9
$DIMLIM
 70
     0
  9
$DIMTIH
 70
     0
  9
$DIMTOH
 70
     0
  9
$DIMSE1
 70
     0
  9
$DIMSE2
 70
     0
  9
$DIMTAD
 70
     1
  9
$DIMZIN
 70
     8
  9
$DIMBLK
  1

  9
$DIMASO
 70
     1
  9
$DIMSHO
 70
     1
  9
$DIMPOST
  1

  9
$DIMAPOST
  1

  9
$DIMALT
 70
     0
  9
$DIMALTD
 70
     3
  9
$DIMALTF
 40
0.0393700787
  9
$DIMLFAC
 40
1.0
  9
$DIMTOFL
 70
     1
  9
$DIMTVP
 40
0.0
  9
$DIMTIX
 70
     0
  9
$DIMSOXD
 70
     0
  9
$DIMSAH
 70
     0
  9
$DIMBLK1
  1

  9
$DIMBLK2
  1

  9
$DIMSTYLE
  2
ISO-25
  9
$DIMCLRD
 70
     0
  9
$DIMCLRE
 70
     0
  9
$DIMCLRT
 70
     0
  9
$DIMTFAC
 40
1.0
  9
$DIMGAP
 40
0.625
  9
$DIMJUST
 70
     0
  9
$DIMSD1
 70
     0
  9
$DIMSD2
 70
     0
  9
$DIMTOLJ
 70
     0
  9
$DIMTZIN
 70
     8
  9
$DIMALTZ
 70
     0
  9
$DIMALTTZ
 70
     0
  9
$DIMUPT
 70
     0
  9
$DIMDEC
 70
     2
  9
$DIMTDEC
 70
     2
  9
$DIMALTU
 70
     2
  9
$DIMALTTD
 70
     3
  9
$DIMTXSTY
  7
Standard
  9
$DIMAUNIT
 70
     0
  9
$DIMADEC
 70
     0
  9
$DIMALTRND
 40
0.0
  9
$DIMAZIN
 70
     0
  9
$DIMDSEP
 70
    44
  9
$DIMATFIT
 70
     3
  9
$DIMFRAC
 70
     0
  9
$DIMLDRBLK
  1

  9
$DIMLUNIT
 70
     2
  9
$DIMLWD
 70
    -2
  9
$DIMLWE
 70
    -2
  9
$DIMTMOVE
 70
     0
  9
$LUNITS
 70
     2
  9
$LUPREC
 70
     4
  9
$SKETCHINC
 40
1.0
  9
$FILLETRAD
 40
10.0
  9
$AUNITS
 70
     0
  9
$AUPREC
 70
     0
  9
$MENU
  1
.
  9
$ELEVATION
 40
0.0
  9
$PELEVATION
 40
0.0
  9
$THICKNESS
 40
0.0
  9
$LIMCHECK
 70
     0
  9
$CHAMFERA
 40
10.0
  9
$CHAMFERB
 40
10.0
  9
$CHAMFERC
 40
20.0
  9
$CHAMFERD
 40
0.0
  9
$SKPOLY
 70
     0
  9
$TDCREATE
 40
2456282.647544028
  9
$TDUCREATE
 40
2456282.605877361
  9
$TDUPDATE
 40
2456282.647544039
  9
$TDUUPDATE
 40
2456282.605877373
  9
$TDINDWG
 40
0.0000000116
  9
$TDUSRTIMER
 40
0.0000000116
  9
$USRTIMER
 70
     1
  9
$ANGBASE
 50
0.0
  9
$ANGDIR
 70
     0
  9
$PDMODE
 70
     0
  9
$PDSIZE
 40
0.0
  9
$PLINEWID
 40
0.0
  9
$SPLFRAME
 70
     0
  9
$SPLINETYPE
 70
     6
  9
$SPLINESEGS
 70
     8
  9
$HANDSEED
  5
203
  9
$SURFTAB1
 70
     6
  9
$SURFTAB2
 70
     6
  9
$SURFTYPE
 70
     6
  9
$SURFU
 70
     6
  9
$SURFV
 70
     6
  9
$UCSBASE
  2

  9
$UCSNAME
  2

  9
$UCSORG
 10
0.0
 20
0.0
 30
0.0
  9
$UCSXDIR
 10
1.0
 20
0.0
 30
0.0
  9
$UCSYDIR
 10
0.0
 20
1.0
 30
0.0
  9
$UCSORTHOREF
  2

  9
$UCSORTHOVIEW
 70
     0
  9
$UCSORGTOP
 10
0.0
 20
0.0
 30
0.0
  9
$UCSORGBOTTOM
 10
0.0
 20
0.0
 30
0.0
  9
$UCSORGLEFT
 10
0.0
 20
0.0
 30
0.0
  9
$UCSORGRIGHT
 10
0.0
 20
0.0
 30
0.0
  9
$UCSORGFRONT
 10
0.0
 20
0.0
 30
0.0
  9
$UCSORGBACK
 10
0.0
 20
0.0
 30
0.0
  9
$PUCSBASE
  2

  9
$PUCSNAME
  2

  9
$PUCSORG
 10
0.0
 20
0.0
 30
0.0
  9
$PUCSXDIR
 10
1.0
 20
0.0
 30
0.0
  9
$PUCSYDIR
 10
0.0
 20
1.0
 30
0.0
  9
$PUCSORTHOREF
  2

  9
$PUCSORTHOVIEW
 70
     0
  9
$PUCSORGTOP
 10
0.0
 20
0.0
 30
0.0
  9
$PUCSORGBOTTOM
 10
0.0
 20
0.0
 30
0.0
  9
$PUCSORGLEFT
 10
0.0
 20
0.0
 30
0.0
  9
$PUCSORGRIGHT
 10
0.0
 20
0.0
 30
0.0
  9
$PUCSORGFRONT
 10
0.0
 20
0.0
 30
0.0
  9
$PUCSORGBACK
 10
0.0
 20
0.0
 30
0.0
  9
$USERI1
 70
     0
  9
$USERI2
 70
     0
  9
$USERI3
 70
     0
  9
$USERI4
 70
     0
  9
$USERI5
 70
     0
  9
$USERR1
 40
0.0
  9
$USERR2
 40
0.0
  9
$USERR3
 40
0.0
  9
$USERR4
 40
0.0
  9
$USERR5
 40
0.0
  9
$WORLDVIEW
 70
     1
  9
$SHADEDGE
 70
     3
  9
$SHADEDIF
 70
    70
  9
$TILEMODE
 70
     1
  9
$MAXACTVP
 70
    64
  9
$PINSBASE
 10
0.0
 20
0.0
 30
0.0
  9
$PLIMCHECK
 70
     0
  9
$PEXTMIN
 10
0.0
 20
0.0
 30
0.0
  9
$PEXTMAX
 10
3000.0
 20
4500.0
 30
0.0
  9
$PLIMMIN
 10
0.0
 20
0.0
  9
$PLIMMAX
 10
3000.0
 20
4500.0
  9
$UNITMODE
 70
     0
  9
$VISRETAIN
 70
     1
  9
$PLINEGEN
 70
     0
  9
$PSLTSCALE
 70
     1
  9
$TREEDEPTH
 70
  3020
  9
$CMLSTYLE
  2
Standard
  9
$CMLJUST
 70
     0
  9
$CMLSCALE
 40
20.0
  9
$PROXYGRAPHICS
 70
     1
  9
$MEASUREMENT
 70
     1
  9
$CELWEIGHT
370
    -1
  9
$ENDCAPS
280
     0
  9
$JOINSTYLE
280
     0
  9
$LWDISPLAY
290
     0
  9
$INSUNITS
 70
     4
  9
$HYPERLINKBASE
  1

  9
$STYLESHEET
  1

  9
$XEDIT
290
     1
  9
$CEPSNTYPE
380
     0
  9
$PSTYLEMODE
290
     1
  9
$FINGERPRINTGUID
  2
{0D8572AF-EB17-4411-8F86-1B8794DB5EE1}
  9
$VERSIONGUID
  2
{FAEB1C32-E019-11D5-929B-00C0DF256EC4}
  9
$EXTNAMES
290
     1
  9
$PSVPSCALE
 40
0.0
  9
$OLESTARTUP
290
     0
  0
ENDSEC
  0
SECTION
  2
CLASSES
  0
CLASS
  1
ACDBDICTIONARYWDFLT
  2
AcDbDictionaryWithDefault
  3
ObjectDBX Classes
 90
        0
280
     0
281
     0
  0
CLASS
  1
VISUALSTYLE
  2
AcDbVisualStyle
  3
ObjectDBX Classes
 90
     4095
280
     0
281
     0
  0
CLASS
  1
SCALE
  2
AcDbScale
  3
ObjectDBX Classes
 90
     1153
280
     0
281
     0
  0
CLASS
  1
DICTIONARYVAR
  2
AcDbDictionaryVar
  3
ObjectDBX Classes
 90
        0
280
     0
281
     0
  0
CLASS
  1
ACDBPLACEHOLDER
  2
AcDbPlaceHolder
  3
ObjectDBX Classes
 90
        0
280
     0
281
     0
  0
CLASS
  1
LAYOUT
  2
AcDbLayout
  3
ObjectDBX Classes
 90
        0
280
     0
281
     0
  0
ENDSEC
  0
SECTION
  2
TABLES
  0
TABLE
  2
VPORT
  5
8
330
0
100
AcDbSymbolTable
 70
     1
  0
VPORT
  5
29
330
8
100
AcDbSymbolTableRecord
100
AcDbViewportTableRecord
  2
*Active
 70
     0
 10
0.0
 20
0.0
 11
1.0
 21
1.0
 12
344.1869158879
 22
148.5
 13
0.0
 23
0.0
 14
10.0
 24
10.0
 15
10.0
 25
10.0
 16
0.0
 26
0.0
 36
1.0
 17
0.0
 27
0.0
 37
0.0
 40
297.0
 41
1.9729729729
 42
50.0
 43
0.0
 44
0.0
 50
0.0
 51
0.0
 71
     0
 72
   100
 73
     1
 74
     3
 75
     0
 76
     0
 77
     0
 78
     0
281
     0
 65
     1
110
0.0
120
0.0
130
0.0
111
1.0
121
0.0
131
0.0
112
0.0
122
1.0
132
0.0
 79
     0
146
0.0
  0
ENDTAB
  0
TABLE
  2
LTYPE
  5
5
330
0
100
AcDbSymbolTable
 70
     2
  0
LTYPE
  5
14
330
5
100
AcDbSymbolTableRecord
100
AcDbLinetypeTableRecord
  2
ByBlock
 70
     0
  3

 72
    65
 73
     0
 40
0.0
  0
LTYPE
  5
15
330
5
100
AcDbSymbolTableRecord
100
AcDbLinetypeTableRecord
  2
ByLayer
 70
     0
  3

 72
    65
 73
     0
 40
0.0
  0
LTYPE
  5
16
330
5
100
AcDbSymbolTableRecord
100
AcDbLinetypeTableRecord
  2
Continuous
 70
     0
  3
Solid line
 72
    65
 73
     0
 40
0.0
  0
LTYPE
  5
60
330
5
100
AcDbSymbolTableRecord
100
AcDbLinetypeTableRecord
  2
CENTER2
 70
     0
  3
Center (.5x) ___ _ ___ _ ___ _ ___ _ ___ _ ___
 72
    65
 73
     4
 40
28.575
 49
19.05
 74
     4
 75
     0
340
0
 46
0.0
 50
0.0
 44
0.0
 45
0.0
 49
-3.175
 74
     4
 75
     0
340
0
 46
0.0
 50
0.0
 44
0.0
 45
0.0
 49
3.175
 74
     4
 75
     0
340
0
 46
0.0
 50
0.0
 44
0.0
 45
0.0
 49
-3.175
 74
     4
 75
     0
340
0
 46
0.0
 50
0.0
 44
0.0
 45
0.0
  0
ENDTAB
  0
TABLE
  2
LAYER
  5
2
330
0
100
AcDbSymbolTable
 70
    11
  0
LAYER
  5
10
330
2
100
AcDbSymbolTableRecord
100
AcDbLayerTableRecord
  2
0
 70
     0
 62
     7
  6
Continuous
370
    -3
390
F
  0
LAYER
  5
5D
330
2
100
AcDbSymbolTableRecord
100
AcDbLayerTableRecord
  2
Default
 70
     0
 62
     7
  6
Continuous
370
    -3
390
F
  0
LAYER
  5
77
330
2
100
AcDbSymbolTableRecord
100
AcDbLayerTableRecord
  2
491221038_SOCKEL
 70
     0
 62
     7
  6
Continuous
370
    -3
390
F
  0
LAYER
  5
80
330
2
100
AcDbSymbolTableRecord
100
AcDbLayerTableRecord
  2
$DDT_AUDIT_GENERATED_(80)
 70
     0
 62
     7
  6
Continuous
370
    -3
390
F
  0
LAYER
  5
87
330
2
100
AcDbSymbolTableRecord
100
AcDbLayerTableRecord
  2
$DDT_AUDIT_GENERATED_(87)
 70
     0
 62
     7
  6
Continuous
370
    -3
390
F
  0
LAYER
  5
8A
330
2
100
AcDbSymbolTableRecord
100
AcDbLayerTableRecord
  2
$DDT_AUDIT_GENERATED_(8A)
 70
     0
 62
     7
  6
Continuous
370
    -3
390
F
  0
LAYER
  5
A5
330
2
100
AcDbSymbolTableRecord
100
AcDbLayerTableRecord
  2
$DDT_AUDIT_GENERATED_(A5)
 70
     0
 62
     7
  6
Continuous
370
    -3
390
F
  0
LAYER
  5
B3
330
2
100
AcDbSymbolTableRecord
100
AcDbLayerTableRecord
  2
$DDT_AUDIT_GENERATED_(B3)
 70
     0
 62
     7
  6
Continuous
370
    -3
390
F
  0
LAYER
  5
C7
330
2
100
AcDbSymbolTableRecord
100
AcDbLayerTableRecord
  2
$DDT_AUDIT_GENERATED_(C7)
 70
     0
 62
     7
  6
Continuous
370
    -3
390
F
  0
LAYER
  5
182
330
2
100
AcDbSymbolTableRecord
100
AcDbLayerTableRecord
  2
DV1_Default
 70
     0
 62
     7
  6
Continuous
370
    -3
390
F
  0
LAYER
  5
1ED
330
2
100
AcDbSymbolTableRecord
100
AcDbLayerTableRecord
  2
$DDT_AUDIT_GENERATED_(1ED)
 70
     0
 62
     7
  6
Continuous
370
    -3
390
F
  0
ENDTAB
  0
TABLE
  2
STYLE
  5
3
330
0
100
AcDbSymbolTable
 70
     2
  0
STYLE
  5
11
330
3
100
AcDbSymbolTableRecord
100
AcDbTextStyleTableRecord
  2
Standard
 70
     0
 40
0.0
 41
1.0
 50
0.0
 71
     0
 42
2.5
  3
txt
  4

  0
STYLE
  5
1F4
330
3
100
AcDbSymbolTableRecord
100
AcDbTextStyleTableRecord
  2
SEACAD_seiso_ttf
 70
     0
 40
0.0
 41
1.0
 50
0.0
 71
     0
 42
0.2
  3
seiso.ttf
  4

  0
ENDTAB
  0
TABLE
  2
VIEW
  5
6
330
0
100
AcDbSymbolTable
 70
     0
  0
ENDTAB
  0
TABLE
  2
UCS
  5
7
330
0
100
AcDbSymbolTable
 70
     0
  0
ENDTAB
  0
TABLE
  2
APPID
  5
9
330
0
100
AcDbSymbolTable
 70
     1
  0
APPID
  5
12
330
9
100
AcDbSymbolTableRecord
100
AcDbRegAppTableRecord
  2
ACAD
 70
     0
  0
ENDTAB
  0
TABLE
  2
DIMSTYLE
  5
A
330
0
100
AcDbSymbolTable
 70
     1
100
AcDbDimStyleTable
  0
DIMSTYLE
105
27
330
A
100
AcDbSymbolTableRecord
100
AcDbDimStyleTableRecord
  2
ISO-25
 70
     0
 41
2.5
 42
0.625
 43
3.75
 44
1.25
 73
     0
 74
     0
 77
     1
 78
     8
140
2.5
141
2.5
143
0.0393700787
147
0.625
171
     3
172
     1
271
     2
272
     2
274
     3
278
    44
283
     0
284
     8
340
11
  0
ENDTAB
  0
TABLE
  2
BLOCK_RECORD
  5
1
330
0
100
AcDbSymbolTable
 70
     7
  0
BLOCK_RECORD
  5
1F
330
1
100
AcDbSymbolTableRecord
100
AcDbBlockTableRecord
  2
*Model_Space
340
22
  0
BLOCK_RECORD
  5
1B
330
1
100
AcDbSymbolTableRecord
100
AcDbBlockTableRecord
  2
*Paper_Space
340
1E
  0
BLOCK_RECORD
  5
5E
330
1
100
AcDbSymbolTableRecord
100
AcDbBlockTableRecord
  2
SEANNOT_GROUP
340
0
102
{BLKREFS
331
5F
102
}
  0
BLOCK_RECORD
  5
69
330
1
100
AcDbSymbolTableRecord
100
AcDbBlockTableRecord
  2
SEANNOT_GROUP1
340
0
102
{BLKREFS
331
6A
102
}
  0
BLOCK_RECORD
  5
6F
330
1
100
AcDbSymbolTableRecord
100
AcDbBlockTableRecord
  2
SEANNOT_GROUP2
340
0
102
{BLKREFS
331
70
102
}
  0
BLOCK_RECORD
  5
75
330
1
100
AcDbSymbolTableRecord
100
AcDbBlockTableRecord
  2
SE
340
0
102
{BLKREFS
331
76
102
}
  0
BLOCK_RECORD
  5
188
330
1
100
AcDbSymbolTableRecord
100
AcDbBlockTableRecord
  2
SE1
340
0
102
{BLKREFS
331
189
102
}
  0
BLOCK_RECORD
  5
1BB
330
1
100
AcDbSymbolTableRecord
100
AcDbBlockTableRecord
  2
SE2
340
0
102
{BLKREFS
331
1BC
102
}
  0
ENDTAB
  0
ENDSEC
  0
SECTION
  2
BLOCKS
  0
BLOCK
  5
20
330
1F
100
AcDbEntity
  8
0
100
AcDbBlockBegin
  2
*Model_Space
 70
     0
 10
0.0
 20
0.0
 30
0.0
  3
*Model_Space
  1

  0
ENDBLK
  5
21
330
1F
100
AcDbEntity
  8
0
100
AcDbBlockEnd
  0
BLOCK
  5
1C
330
1B
100
AcDbEntity
 67
     1
  8
0
100
AcDbBlockBegin
  2
*Paper_Space
 70
     0
 10
0.0
 20
0.0
 30
0.0
  3
*Paper_Space
  1

  0
ENDBLK
  5
1D
330
1B
100
AcDbEntity
 67
     1
  8
0
100
AcDbBlockEnd
  0
BLOCK
  5
67
330
5E
100
AcDbEntity
  8
0
100
AcDbBlockBegin
  2
SEANNOT_GROUP
 70
     0
 10
0.0
 20
0.0
 30
0.0
  3
SEANNOT_GROUP
  1

  0
LINE
  5
61
330
5E
100
AcDbEntity
  8
Default
  6
CENTER2
 62
     7
100
AcDbLine
 10
53.2231324693
 20
234.3500000219
 30
0.0
 11
13.2231333634
 21
234.3500000219
 31
0.0
  0
LINE
  5
62
330
5E
100
AcDbEntity
  8
Default
  6
CENTER2
 62
     7
100
AcDbLine
 10
33.2231329163
 20
254.3499995749
 30
0.0
 11
33.2231329163
 21
214.3500004689
 31
0.0
  0
LINE
  5
63
330
5E
100
AcDbEntity
  8
Default
  6
CENTER2
 62
     7
100
AcDbLine
 10
58.2231323575
 20
234.3500000219
 30
0.0
 11
62.7231332046
 21
234.3500000219
 31
0.0
  0
LINE
  5
64
330
5E
100
AcDbEntity
  8
Default
  6
CENTER2
 62
     7
100
AcDbLine
 10
33.2231329163
 20
259.3499994631
 30
0.0
 11
33.2231329163
 21
263.8500003101
 31
0.0
  0
LINE
  5
65
330
5E
100
AcDbEntity
  8
Default
  6
CENTER2
 62
     7
100
AcDbLine
 10
8.2231334751
 20
234.3500000219
 30
0.0
 11
3.7231326281
 21
234.3500000219
 31
0.0
  0
LINE
  5
66
330
5E
100
AcDbEntity
  8
Default
  6
CENTER2
 62
     7
100
AcDbLine
 10
33.2231329163
 20
209.3500005807
 30
0.0
 11
33.2231329163
 21
204.8499997337
 31
0.0
  0
ENDBLK
  5
68
330
5E
100
AcDbEntity
  8
0
100
AcDbBlockEnd
  0
BLOCK
  5
6D
330
69
100
AcDbEntity
  8
0
100
AcDbBlockBegin
  2
SEANNOT_GROUP1
 70
     0
 10
0.0
 20
0.0
 30
0.0
  3
SEANNOT_GROUP1
  1

  0
LINE
  5
6B
330
69
100
AcDbEntity
  8
Default
  6
CENTER2
 62
     7
100
AcDbLine
 10
53.2231322935
 20
341.6971599859
 30
0.0
 11
13.2231331876
 21
341.6971599859
 31
0.0
  0
LINE
  5
6C
330
69
100
AcDbEntity
  8
Default
  6
CENTER2
 62
     7
100
AcDbLine
 10
33.2231327406
 20
361.6971595389
 30
0.0
 11
33.2231327406
 21
321.697160433
 31
0.0
  0
ENDBLK
  5
6E
330
69
100
AcDbEntity
  8
0
100
AcDbBlockEnd
  0
BLOCK
  5
73
330
6F
100
AcDbEntity
  8
0
100
AcDbBlockBegin
  2
SEANNOT_GROUP2
 70
     0
 10
0.0
 20
0.0
 30
0.0
  3
SEANNOT_GROUP2
  1

  0
LINE
  5
71
330
6F
100
AcDbEntity
  8
Default
  6
CENTER2
 62
     7
100
AcDbLine
 10
184.8825748919
 20
341.6971599859
 30
0.0
 11
144.882575786
 21
341.6971599859
 31
0.0
  0
LINE
  5
72
330
6F
100
AcDbEntity
  8
Default
  6
CENTER2
 62
     7
100
AcDbLine
 10
164.882575339
 20
361.6971595389
 30
0.0
 11
164.882575339
 21
321.697160433
 31
0.0
  0
ENDBLK
  5
74
330
6F
100
AcDbEntity
  8
0
100
AcDbBlockEnd
  0
BLOCK
  5
186
330
75
100
AcDbEntity
  8
0
100
AcDbBlockBegin
  2
SE
 70
     0
 10
0.0
 20
0.0
 30
0.0
  3
SE
  1

  0
LINE
  5
78
330
75
100
AcDbEntity
  8
491221038_SOCKEL
  6
Continuous
 62
     7
100
AcDbLine
 10
59.2231327406
 20
385.6971599859
 30
0.0
 11
7.2231327406
 21
385.6971599859
 31
0.0
  0
LINE
  5
79
330
75
100
AcDbEntity
  8
491221038_SOCKEL
  6
Continuous
 62
     7
100
AcDbLine
 10
59.2231327406
 20
341.6971599859
 30
0.0
 11
7.2231327406
 21
341.6971599859
 31
0.0
  0
ARC
  5
7A
330
75
100
AcDbEntity
  8
491221038_SOCKEL
  6
Continuous
 62
     7
100
AcDbCircle
 10
33.2231327406
 20
369.4471599859
 30
0.0
 40
4.800000000000001
100
AcDbArc
 50
0.0
 51
180.0
  0
LINE
  5
7B
330
75
100
AcDbEntity
  8
491221038_SOCKEL
  6
Continuous
 62
     7
100
AcDbLine
 10
28.4231327406
 20
360.9471599859
 30
0.0
 11
28.4231327406
 21
369.4471599859
 31
0.0
  0
ARC
  5
7C
330
75
100
AcDbEntity
  8
491221038_SOCKEL
  6
Continuous
 62
     7
100
AcDbCircle
 10
33.2231327406
 20
360.9471599859
 30
0.0
 40
4.799999999999999
100
AcDbArc
 50
180.0
 51
0.0
  0
LINE
  5
7D
330
75
100
AcDbEntity
  8
491221038_SOCKEL
  6
Continuous
 62
     7
100
AcDbLine
 10
38.0231327406
 20
369.4471599859
 30
0.0
 11
38.0231327406
 21
360.9471599859
 31
0.0
  0
LINE
  5
7E
330
75
100
AcDbEntity
  8
491221038_SOCKEL
  6
Continuous
 62
     7
100
AcDbLine
 10
59.2231327406
 20
341.6971599859
 30
0.0
 11
59.2231327406
 21
385.6971599859
 31
0.0
  0
LINE
  5
7F
330
75
100
AcDbEntity
  8
491221038_SOCKEL
  6
Continuous
 62
     7
100
AcDbLine
 10
7.2231327406
 20
385.6971599859
 30
0.0
 11
7.2231327406
 21
341.6971599859
 31
0.0
  0
ARC
  5
81
330
75
100
AcDbEntity
  8
$DDT_AUDIT_GENERATED_(80)
  6
Continuous
 62
     7
100
AcDbCircle
 10
33.2231327406
 20
360.9555685396
 30
0.0
 40
4.675711801908216
100
AcDbArc
 50
180.103037765
 51
359.896962235
  0
LINE
  5
82
330
75
100
AcDbEntity
  8
$DDT_AUDIT_GENERATED_(80)
  6
Continuous
 62
     7
100
AcDbLine
 10
37.8648340565
 20
369.4471599859
 30
0.0
 11
37.8648340589
 21
360.9471599859
 31
0.0
  0
LINE
  5
83
330
75
100
AcDbEntity
  8
$DDT_AUDIT_GENERATED_(80)
  6
Continuous
 62
     7
100
AcDbLine
 10
28.5814314176
 20
360.9471599859
 30
0.0
 11
28.5814314179
 21
369.4471599859
 31
0.0
  0
LINE
  5
84
330
75
100
AcDbEntity
  8
$DDT_AUDIT_GENERATED_(80)
  6
Continuous
 62
     7
100
AcDbLine
 10
28.5474284994
 20
369.4471599859
 30
0.0
 11
28.5474284994
 21
360.9471599859
 31
0.0
  0
ARC
  5
85
330
75
100
AcDbEntity
  8
$DDT_AUDIT_GENERATED_(80)
  6
Continuous
 62
     7
100
AcDbCircle
 10
33.2231327406
 20
369.4387513502
 30
0.0
 40
4.675711802056504
100
AcDbArc
 50
0.1030387711
 51
179.8969612289
  0
LINE
  5
86
330
75
100
AcDbEntity
  8
$DDT_AUDIT_GENERATED_(80)
  6
Continuous
 62
     7
100
AcDbLine
 10
37.8988369817
 20
360.9471599859
 30
0.0
 11
37.8988369817
 21
369.4471599859
 31
0.0
  0
LINE
  5
88
330
75
100
AcDbEntity
  8
$DDT_AUDIT_GENERATED_(87)
  6
Continuous
 62
     7
100
AcDbLine
 10
61.4721327406
 20
383.6971599859
 30
0.0
 11
59.2231327406
 21
383.6971599859
 31
0.0
  0
LINE
  5
89
330
75
100
AcDbEntity
  8
$DDT_AUDIT_GENERATED_(87)
  6
Continuous
 62
     7
100
AcDbLine
 10
59.2231327406
 20
371.6971599859
 30
0.0
 11
61.4721327406
 21
371.6971599859
 31
0.0
  0
SPLINE
  5
8B
330
75
100
AcDbEntity
  8
$DDT_AUDIT_GENERATED_(8A)
  6
Continuous
 62
     7
100
AcDbSpline
210
0.0
220
0.0
230
1.0
 70
    12
 71
     3
 72
     9
 73
     5
 74
     0
 42
0.0000000007902403
 43
0.0000000001
 40
0.9775230616984737
 40
0.9775230616984737
 40
0.9775230616984737
 40
0.9775230616984737
 40
0.9788240278833302
 40
0.9832987737234601
 40
0.9832987737234601
 40
0.9832987737234601
 40
0.9832987737234601
 10
7.224335317173702
 20
476.505992202266
 30
0.0
 41
0.9999999999989749
 10
7.224155433015779
 20
476.5005051877736
 30
0.0
 41
0.9999999999989753
 10
7.223442837564688
 20
476.4761354403362
 30
0.0
 41
0.9999999999989769
 10
7.223110319972546
 20
476.4516937462649
 30
0.0
 41
0.9999999999989786
 10
7.223096392094154
 20
476.4329197882955
 30
0.0
 41
0.9999999999989798
  0
SPLINE
  5
8C
330
75
100
AcDbEntity
  8
$DDT_AUDIT_GENERATED_(8A)
  6
Continuous
 62
     7
100
AcDbSpline
210
0.0
220
0.0
230
1.0
 70
     8
 71
     3
 72
     8
 73
     4
 74
     0
 42
0.0000000008139138
 43
0.0000000001
 40
0.976621456740624
 40
0.976621456740624
 40
0.976621456740624
 40
0.976621456740624
 40
0.9828647166820085
 40
0.9828647166820085
 40
0.9828647166820085
 40
0.9828647166820085
 10
59.21178535062334
 20
476.5135660072016
 30
0.0
 10
59.21249392767801
 20
476.4879545486675
 30
0.0
 10
59.2129715323223
 20
476.4623957268662
 30
0.0
 10
59.21327984592113
 20
476.4368754863723
 30
0.0
  0
ARC
  5
8D
330
75
100
AcDbEntity
  8
$DDT_AUDIT_GENERATED_(8A)
  6
Continuous
 62
     7
100
AcDbCircle
 10
31.9051864051
 20
448.4307979434
 30
0.0
 40
21.54221609283433
100
AcDbArc
 50
352.2876855341
 51
14.8116252444
  0
ARC
  5
8E
330
75
100
AcDbEntity
  8
$DDT_AUDIT_GENERATED_(8A)
  6
Continuous
 62
     7
100
AcDbCircle
 10
34.5410436992
 20
448.430795629
 30
0.0
 40
21.54218072540579
100
AcDbArc
 50
165.1883447822
 51
187.7123209931
  0
ARC
  5
8F
330
75
100
AcDbEntity
  8
$DDT_AUDIT_GENERATED_(8A)
  6
Continuous
 62
     7
100
AcDbCircle
 10
15.1929718681
 20
445.8068258301
 30
0.0
 40
1.996123109980207
100
AcDbArc
 50
187.8337788203
 51
231.4253226364
  0
ARC
  5
90
330
75
100
AcDbEntity
  8
$DDT_AUDIT_GENERATED_(8A)
  6
Continuous
 62
     7
100
AcDbCircle
 10
15.1730308495
 20
445.813433452
 30
0.0
 40
1.998123267512296
100
AcDbArc
 50
187.8696600555
 51
231.2693070501
  0
LINE
  5
91
330
75
100
AcDbEntity
  8
$DDT_AUDIT_GENERATED_(8A)
  6
Continuous
 62
     7
100
AcDbLine
 10
7.2329975384
 20
385.6971599859
 30
0.0
 11
33.2231327406
 21
385.6971599859
 31
0.0
  0
LINE
  5
92
330
75
100
AcDbEntity
  8
$DDT_AUDIT_GENERATED_(8A)
  6
Continuous
 62
     7
100
AcDbLine
 10
59.2132679427
 20
385.6971599859
 30
0.0
 11
33.2231327406
 21
385.6971599859
 31
0.0
  0
ARC
  5
93
330
75
100
AcDbEntity
  8
$DDT_AUDIT_GENERATED_(8A)
  6
Continuous
 62
     7
100
AcDbCircle
 10
21.4356535764
 20
440.3398873528
 30
0.0
 40
0.4605797128362027
100
AcDbArc
 50
135.0834585931
 51
209.2337867651
  0
ARC
  5
94
330
75
100
AcDbEntity
  8
$DDT_AUDIT_GENERATED_(8A)
  6
Continuous
 62
     7
100
AcDbCircle
 10
51.2731237578
 20
445.8135110156
 30
0.0
 40
1.998243718036613
100
AcDbArc
 50
308.7311017489
 51
352.1285721854
  0
ARC
  5
95
330
75
100
AcDbEntity
  8
$DDT_AUDIT_GENERATED_(8A)
  6
Continuous
 62
     7
100
AcDbCircle
 10
51.2536207693
 20
445.8061318718
 30
0.0
 40
1.995369225704194
100
AcDbArc
 50
308.5607825256
 51
352.1752315441
  0
ELLIPSE
  5
96
330
75
100
AcDbEntity
  8
$DDT_AUDIT_GENERATED_(8A)
  6
Continuous
 62
     7
100
AcDbEllipse
 10
49.8813110267
 20
453.192797337
 30
0.0
 11
-2.882225461853327
 21
0.8322661699773082
 31
0.0
210
0.0
220
0.0
230
1.0
 40
0.970583538
 41
3.691636226049503
 42
4.779198180308166
  0
ARC
  5
97
330
75
100
AcDbEntity
  8
$DDT_AUDIT_GENERATED_(8A)
  6
Continuous
 62
     7
100
AcDbCircle
 10
16.5885499515
 20
453.0772992852
 30
0.0
 40
3.030015782429643
100
AcDbArc
 50
102.1389733314
 51
163.3479134018
  0
LINE
  5
98
330
75
100
AcDbEntity
  8
$DDT_AUDIT_GENERATED_(8A)
  6
Continuous
 62
     7
100
AcDbLine
 10
33.2231325091
 20
490.9272849954
 30
0.0
 11
33.2231325223
 21
490.7986081855
 31
0.0
  0
ARC
  5
99
330
75
100
AcDbEntity
  8
$DDT_AUDIT_GENERATED_(8A)
  6
Continuous
 62
     7
100
AcDbCircle
 10
35.1099787708
 20
456.5501880024
 30
0.0
 40
27.91331662752847
100
AcDbArc
 50
202.4936526515
 51
266.1240430411
  0
ARC
  5
9A
330
75
100
AcDbEntity
  8
$DDT_AUDIT_GENERATED_(8A)
  6
Continuous
 62
     7
100
AcDbCircle
 10
31.3362866215
 20
456.5501877085
 30
0.0
 40
27.91331634033386
100
AcDbArc
 50
273.8759571816
 51
337.5063778042
  0
SPLINE
  5
9B
330
75
100
AcDbEntity
  8
$DDT_AUDIT_GENERATED_(8A)
  6
Continuous
 62
     7
100
AcDbSpline
210
0.0
220
0.0
230
1.0
 70
     8
 71
     3
 72
    10
 73
     6
 74
     0
 42
0.0000000061611987
 43
0.0000000001
 40
0.7416201297672322
 40
0.7416201297672322
 40
0.7416201297672322
 40
0.7416201297672322
 40
0.7499999999999999
 40
0.7499999999999999
 40
1.0
 40
1.0
 40
1.0
 40
1.0
 10
21.27870044182843
 20
439.776321970844
 30
0.0
 10
21.27503413647322
 20
439.7805568596245
 30
0.0
 10
21.27140120170178
 20
439.7847777221152
 30
0.0
 10
21.1604192339564
 20
439.914484797579
 30
0.0
 10
21.08247714040517
 20
440.0259244906457
 30
0.0
 10
21.03373594901787
 20
440.1149520450849
 30
0.0
  0
ELLIPSE
  5
9C
330
75
100
AcDbEntity
  8
$DDT_AUDIT_GENERATED_(8A)
  6
Continuous
 62
     7
100
AcDbEllipse
 10
33.2231327406
 20
439.6482155338
 30
0.0
 11
-12.24999977261671
 21
0.0
 31
0.0
210
0.0
220
0.0
230
1.0
 40
0.3090170766
 41
3.814798450095922
 42
5.681050583018903
  0
SPLINE
  5
9D
330
75
100
AcDbEntity
  8
$DDT_AUDIT_GENERATED_(8A)
  6
Continuous
 62
     7
100
AcDbSpline
210
0.0
220
0.0
230
1.0
 70
     8
 71
     3
 72
    12
 73
     8
 74
     0
 42
0.0000000042968704
 43
0.0000000001
 40
0.0
 40
0.0
 40
0.0
 40
0.0
 40
0.4999999999999962
 40
0.4999999999999962
 40
0.7499999999999981
 40
0.7499999999999981
 40
1.0
 40
1.0
 40
1.0
 40
1.0
 10
23.12756028093219
 20
441.7923111212616
 30
0.0
 10
22.59846452216824
 20
441.5544157201273
 30
0.0
 10
22.16641105914576
 20
441.3623660012823
 30
0.0
 10
21.65777350617132
 20
441.0886710201581
 30
0.0
 10
21.51189040660408
 20
441.0003709276876
 30
0.0
 10
21.2725693616263
 20
440.8293665686145
 30
0.0
 10
21.17828424229564
 20
440.7463010846564
 30
0.0
 10
21.10950049090836
 20
440.665091652741
 30
0.0
  0
ARC
  5
9E
330
75
100
AcDbEntity
  8
$DDT_AUDIT_GENERATED_(8A)
  6
Continuous
 62
     7
100
AcDbCircle
 10
39.9642039484
 20
444.2500195304
 30
0.0
 40
6.841708627353785
100
AcDbArc
 50
319.2850893022
 51
322.69253196
  0
ARC
  5
9F
330
75
100
AcDbEntity
  8
$DDT_AUDIT_GENERATED_(8A)
  6
Continuous
 62
     7
100
AcDbCircle
 10
45.6577789351
 20
439.7254089329
 30
0.0
 40
0.4540639961457944
100
AcDbArc
 50
113.5829902998
 51
123.6670593148
  0
SPLINE
  5
A0
330
75
100
AcDbEntity
  8
$DDT_AUDIT_GENERATED_(8A)
  6
Continuous
 62
     7
100
AcDbSpline
210
0.0
220
0.0
230
1.0
 70
     8
 71
     3
 72
    10
 73
     6
 74
     0
 42
0.0000000027556362
 43
0.0000000001
 40
0.0
 40
0.0
 40
0.0
 40
0.0
 40
0.5
 40
0.5
 40
1.0
 40
1.0
 40
1.0
 40
1.0
 10
45.40606128204453
 20
440.1033141270507
 30
0.0
 10
45.57332414912666
 20
440.4019892985765
 30
0.0
 10
45.43429975131617
 20
440.6946502129309
 30
0.0
 10
44.54123514700215
 20
441.3219429979404
 30
0.0
 10
43.8076257250717
 20
441.6181866839921
 30
0.0
 10
42.8005119269179
 20
442.0084325032087
 30
0.0
  0
LINE
  5
A1
330
75
100
AcDbEntity
  8
$DDT_AUDIT_GENERATED_(8A)
  6
Continuous
 62
     7
100
AcDbLine
 10
7.2231327406
 20
476.4331542246
 30
0.0
 11
7.2231327406
 21
385.6946599859
 31
0.0
  0
LINE
  5
A2
330
75
100
AcDbEntity
  8
$DDT_AUDIT_GENERATED_(8A)
  6
Continuous
 62
     7
100
AcDbLine
 10
59.2231327406
 20
385.6946599859
 30
0.0
 11
59.2231327406
 21
476.4369729403
 31
0.0
  0
SPLINE
  5
A3
330
75
100
AcDbEntity
  8
$DDT_AUDIT_GENERATED_(8A)
  6
Continuous
 62
     7
100
AcDbSpline
210
0.0
220
0.0
230
1.0
 70
     8
 71
     3
 72
    56
 73
    52
 74
     0
 42
0.0000000003149944
 43
0.0000000001
 40
0.0
 40
0.0
 40
0.0
 40
0.0
 40
0.0243054083687574
 40
0.0445839480937228
 40
0.060834076208817
 40
0.073208499078481
 40
0.0840014377986243
 40
0.104249020553124
 40
0.121548601749003
 40
0.1374568244355338
 40
0.1528922098790787
 40
0.1678508971622504
 40
0.1858763836421647
 40
0.2060994718528283
 40
0.2234566132637577
 40
0.2427556693835707
 40
0.2598121906310164
 40
0.2820350610008729
 40
0.308267186801883
 40
0.3338670344063999
 40
0.3583574999203865
 40
0.3817535434374045
 40
0.4056094068705069
 40
0.4247446317275682
 40
0.4450105252252735
 40
0.4664072466136521
 40
0.488935143033276
 40
0.5125918582437863
 40
0.534605466176257
 40
0.5490296755344237
 40
0.5609291743639706
 40
0.5703062768252818
 40
0.5771628259192433
 40
0.5817048615562864
 40
0.5879651968073919
 40
0.5990633539118337
 40
0.614399411598823
 40
0.6339723099698891
 40
0.6577801707502389
 40
0.685819922926971
 40
0.7180864519502298
 40
0.745057671289959
 40
0.7743989942575835
 40
0.8061058826373992
 40
0.8401734603127343
 40
0.8811247091645238
 40
0.9250273940165095
 40
0.9661066846925075
 40
0.9772517282582215
 40
0.9885253602800467
 40
1.0
 40
1.0
 40
1.0
 40
1.0
 10
59.2219392243933
 20
476.5057153279293
 30
0.0
 10
59.21321730472044
 20
476.7234351920017
 30
0.0
 10
59.19754864585735
 20
477.0588300861271
 30
0.0
 10
59.11392673013894
 20
477.5648505195893
 30
0.0
 10
59.0196114171507
 20
477.9556778494243
 30
0.0
 10
58.93088775881266
 20
478.2513436100878
 30
0.0
 10
58.82181003832822
 20
478.5681928136191
 30
0.0
 10
58.6803797572132
 20
478.9176597578206
 30
0.0
 10
58.50435172825766
 20
479.2876554726835
 30
0.0
 10
58.3267854567722
 20
479.6182523814645
 30
0.0
 10
58.14448443477804
 20
479.9244521714137
 30
0.0
 10
57.9447402414386
 20
480.2316864689368
 30
0.0
 10
57.71005018256073
 20
480.5629458391316
 30
0.0
 10
57.44546692844461
 20
480.9041701342658
 30
0.0
 10
57.15457446187506
 20
481.250442171054
 30
0.0
 10
56.86365717236939
 20
481.5725696091569
 30
0.0
 10
56.54037364352227
 20
481.908530260459
 30
0.0
 10
56.16014690268232
 20
482.2800773387591
 30
0.0
 10
55.70173982172357
 20
482.6979149486087
 30
0.0
 10
55.19749184982875
 20
483.1275419744618
 30
0.0
 10
54.68415230160679
 20
483.5394365954655
 30
0.0
 10
54.15840456011772
 20
483.9393194014395
 30
0.0
 10
53.65054809933415
 20
484.3067952745277
 30
0.0
 10
53.14754218003792
 20
484.6552112441473
 30
0.0
 10
52.64722814910762
 20
484.9884529749111
 30
0.0
 10
52.10018172631499
 20
485.3382001523375
 30
0.0
 10
51.5034033068586
 20
485.7036196886928
 30
0.0
 10
50.87950870381066
 20
486.068518587274
 30
0.0
 10
50.31030258779725
 20
486.3863448582622
 30
0.0
 10
49.83992432825295
 20
486.6391468188637
 30
0.0
 10
49.48605637109567
 20
486.824037491254
 30
0.0
 10
49.20326578771387
 20
486.9683887480953
 30
0.0
 10
48.99231075775318
 20
487.0741402147797
 30
0.0
 10
48.81225763322184
 20
487.1632454890307
 30
0.0
 10
48.58875056127314
 20
487.2725023666905
 30
0.0
 10
48.25141010200565
 20
487.4341508877545
 30
0.0
 10
47.76891788337909
 20
487.6582641473925
 30
0.0
 10
47.13961402079293
 20
487.9383692648022
 30
0.0
 10
46.35405385617999
 20
488.269067491359
 30
0.0
 10
45.40123976188784
 20
488.6425978799521
 30
0.0
 10
44.38039731764687
 20
489.0082148871686
 30
0.0
 10
43.3140154537226
 20
489.3541909517119
 30
0.0
 10
42.22714385992222
 20
489.6718499791427
 30
0.0
 10
41.0229743693689
 20
489.9814207898179
 30
0.0
 10
39.63944887315361
 20
490.2841869439109
 30
0.0
 10
38.06143238421436
 20
490.5600508244564
 30
0.0
 10
36.3576444737236
 20
490.7722506039624
 30
0.0
 10
35.03565800884443
 20
490.8694904732568
 30
0.0
 10
34.16485825445246
 20
490.9061243026791
 30
0.0
 10
33.6883747216622
 20
490.9199675718854
 30
0.0
 10
33.39737268581533
 20
490.9235908282972
 30
0.0
 10
33.22313243614099
 20
490.9255896661335
 30
0.0
  0
SPLINE
  5
A4
330
75
100
AcDbEntity
  8
$DDT_AUDIT_GENERATED_(8A)
  6
Continuous
 62
     7
100
AcDbSpline
210
0.0
220
0.0
230
1.0
 70
     8
 71
     3
 72
    56
 73
    52
 74
     0
 42
0.0000000003149963
 43
0.0000000001
 40
0.0
 40
0.0
 40
0.0
 40
0.0
 40
0.0184733802738262
 40
0.036538107093469
 40
0.0541884325702784
 40
0.0941537719221599
 40
0.1279069461398468
 40
0.159837149152906
 40
0.1939045695076438
 40
0.2256113114682844
 40
0.2549524989406735
 40
0.2819235937300641
 40
0.3141899737497843
 40
0.3422295964418022
 40
0.3660373472798803
 40
0.3817413509699475
 40
0.3948412420899038
 40
0.4053364547085733
 40
0.4132266301655809
 40
0.4185115635721407
 40
0.4224959562571712
 40
0.4325761994249832
 40
0.4475977831233259
 40
0.4675663613770189
 40
0.4942893952340998
 40
0.5216728814066806
 40
0.5474850964385587
 40
0.5717264648502776
 40
0.5943973494950131
 40
0.6296577567049563
 40
0.6658024087756549
 40
0.7044201260578088
 40
0.7196082873099368
 40
0.7330707170720618
 40
0.7447526724508752
 40
0.7546482791128746
 40
0.7642051362966125
 40
0.7765450409505311
 40
0.7940962832391549
 40
0.8145194365248847
 40
0.8326489160476729
 40
0.8476487593716845
 40
0.859886194989659
 40
0.8722549688550948
 40
0.8922642360233354
 40
0.9159989501114438
 40
0.9267918389908971
 40
0.9391662047167393
 40
0.9554162577904001
 40
0.9756947038711378
 40
1.0
 40
1.0
 40
1.0
 40
1.0
 10
33.22313304498962
 20
490.9255896661335
 30
0.0
 10
32.9426374751541
 20
490.9217665079133
 30
0.0
 10
32.47526608068075
 20
490.9146590607618
 30
0.0
 10
31.7142155140168
 20
490.88292905434
 30
0.0
 10
30.67949100080454
 20
490.8181903273282
 30
0.0
 10
29.43008219381895
 20
490.6967474343699
 30
0.0
 10
28.00971315410009
 20
490.4961810063951
 30
0.0
 10
26.68991205631253
 20
490.2585994028569
 30
0.0
 10
25.42328174276484
 20
489.9814198942311
 30
0.0
 10
24.21912387403175
 20
489.6718502001558
 30
0.0
 10
23.13224944882941
 20
489.3541908762815
 30
0.0
 10
22.06586852951306
 20
489.0082149967016
 30
0.0
 10
21.04502481588873
 20
488.6425974718422
 30
0.0
 10
20.09221419908386
 20
488.2690686949122
 30
0.0
 10
19.34919807873451
 20
487.9562798382257
 30
0.0
 10
18.78402577178252
 20
487.7059658122553
 30
0.0
 10
18.36927343098026
 20
487.5156288961833
 30
0.0
 10
18.04187809892427
 20
487.3610867458491
 30
0.0
 10
17.79847435436907
 20
487.2437002867059
 30
0.0
 10
17.62344723495219
 20
487.1580063488572
 30
0.0
 10
17.42613086345338
 20
487.0603738366482
 30
0.0
 10
17.1311318868213
 20
486.9120686813805
 30
0.0
 10
16.68142767246041
 20
486.6796053096205
 30
0.0
 10
16.08025864518427
 20
486.3568875773843
 30
0.0
 10
15.38353126848749
 20
485.9641840640997
 30
0.0
 10
14.66193516808249
 20
485.5346778116912
 30
0.0
 10
13.99139086591732
 20
485.114048673179
 30
0.0
 10
13.38725441038714
 20
484.7159950540153
 30
0.0
 10
12.73182977067281
 20
484.2635971577094
 30
0.0
 10
12.01941988382447
 20
483.7420047159704
 30
0.0
 10
11.24045310039699
 20
483.1258441613203
 30
0.0
 10
10.65459708173389
 20
482.6190170875458
 30
0.0
 10
10.24604529726955
 20
482.2390696811141
 30
0.0
 10
10.01023628958519
 20
482.0104970131811
 30
0.0
 10
9.811795971490552
 20
481.8105828161292
 30
0.0
 10
9.640015161902687
 20
481.631385991239
 30
0.0
 10
9.466433979404867
 20
481.4441825322794
 30
0.0
 10
9.255069955309073
 20
481.2069013333114
 30
0.0
 10
8.997819165193127
 20
480.9005814376212
 30
0.0
 10
8.731183469867933
 20
480.5562488409304
 30
0.0
 10
8.49539875233158
 20
480.2227149575611
 30
0.0
 10
8.308605985872298
 20
479.9345710164262
 30
0.0
 10
8.152187943943936
 20
479.6734537909362
 30
0.0
 10
7.985432053479811
 20
479.3721109051108
 30
0.0
 10
7.7950891038309
 20
478.986862870504
 30
0.0
 10
7.633243334260957
 20
478.5937179437207
 30
0.0
 10
7.515372278039139
 20
478.251328199216
 30
0.0
 10
7.426656135734441
 20
477.9556837138452
 30
0.0
 10
7.332337963975963
 20
477.5648482918199
 30
0.0
 10
7.248717133236021
 20
477.0588309295568
 30
0.0
 10
7.23304817641017
 20
476.7234351920017
 30
0.0
 10
7.224326256737315
 20
476.5057153279293
 30
0.0
  0
LINE
  5
A6
330
75
100
AcDbEntity
  8
$DDT_AUDIT_GENERATED_(A5)
  6
Continuous
 62
     7
100
AcDbLine
 10
62.6721327406
 20
410.6971599859
 30
0.0
 11
70.1946368012
 21
410.5001762846
 31
0.0
  0
ARC
  5
A7
330
75
100
AcDbEntity
  8
$DDT_AUDIT_GENERATED_(A5)
  6
Continuous
 62
     7
100
AcDbCircle
 10
69.9721327406
 20
402.0030890223
 30
0.0
 40
8.500000000000007
100
AcDbArc
 50
0.0
 51
88.5
  0
LINE
  5
A8
330
75
100
AcDbEntity
  8
$DDT_AUDIT_GENERATED_(A5)
  6
Continuous
 62
     7
100
AcDbLine
 10
78.4721327406
 20
371.5721328531
 30
0.0
 11
78.4721327406
 21
377.6971599859
 31
0.0
  0
LINE
  5
A9
330
75
100
AcDbEntity
  8
$DDT_AUDIT_GENERATED_(A5)
  6
Continuous
 62
     7
100
AcDbLine
 10
78.4721327406
 20
402.0030890223
 30
0.0
 11
78.4721327406
 21
377.6971599859
 31
0.0
  0
LINE
  5
AA
330
75
100
AcDbEntity
  8
$DDT_AUDIT_GENERATED_(A5)
  6
Continuous
 62
     7
100
AcDbLine
 10
61.4721327406
 20
377.6971599859
 30
0.0
 11
61.4721327406
 21
370.8971599859
 31
0.0
  0
LINE
  5
AB
330
75
100
AcDbEntity
  8
$DDT_AUDIT_GENERATED_(A5)
  6
Continuous
 62
     7
100
AcDbLine
 10
61.4721327406
 20
377.6971599859
 30
0.0
 11
61.4721327406
 21
409.1971599859
 31
0.0
  0
LINE
  5
AC
330
75
100
AcDbEntity
  8
$DDT_AUDIT_GENERATED_(A5)
  6
Continuous
 62
     7
100
AcDbLine
 10
61.4721327406
 20
409.1971599859
 30
0.0
 11
61.4721327406
 21
409.4971599859
 31
0.0
  0
ARC
  5
AD
330
75
100
AcDbEntity
  8
$DDT_AUDIT_GENERATED_(A5)
  6
Continuous
 62
     7
100
AcDbCircle
 10
62.6721327406
 20
409.4971599859
 30
0.0
 40
1.2
100
AcDbArc
 50
90.0
 51
180.0
  0
ARC
  5
AE
330
75
100
AcDbEntity
  8
$DDT_AUDIT_GENERATED_(A5)
  6
Continuous
 62
     7
100
AcDbCircle
 10
70.172283347
 20
362.2440384487
 30
0.0
 40
7.816956617119593
100
AcDbArc
 50
79.5280544461
 51
103.471118424
  0
LINE
  5
AF
330
75
100
AcDbEntity
  8
$DDT_AUDIT_GENERATED_(A5)
  6
Continuous
 62
     7
100
AcDbLine
 10
71.5769007727
 20
369.9303395432
 30
0.0
 11
77.011398163
 21
370.0726468657
 31
0.0
  0
LINE
  5
B0
330
75
100
AcDbEntity
  8
$DDT_AUDIT_GENERATED_(A5)
  6
Continuous
 62
     7
100
AcDbLine
 10
62.6721327406
 20
369.6971599859
 30
0.0
 11
68.3722780426
 21
369.8464235438
 31
0.0
  0
ARC
  5
B1
330
75
100
AcDbEntity
  8
$DDT_AUDIT_GENERATED_(A5)
  6
Continuous
 62
     7
100
AcDbCircle
 10
76.9721327406
 20
371.5721328531
 30
0.0
 40
1.499999999999999
100
AcDbArc
 50
271.5
 51
0.0
  0
ARC
  5
B2
330
75
100
AcDbEntity
  8
$DDT_AUDIT_GENERATED_(A5)
  6
Continuous
 62
     7
100
AcDbCircle
 10
62.6721327406
 20
370.8971599859
 30
0.0
 40
1.2
100
AcDbArc
 50
180.0
 51
270.0
  0
ELLIPSE
  5
B4
330
75
100
AcDbEntity
  8
$DDT_AUDIT_GENERATED_(B3)
  6
Continuous
 62
     7
100
AcDbEllipse
 10
33.2231327406
 20
432.7721684395
 30
0.0
 11
10.78480762113533
 21
0.0
 31
0.0
210
0.0
220
0.0
230
1.0
 40
0.3090170766
 41
3.412176905855148
 42
5.970510285713417
  0
ELLIPSE
  5
B5
330
75
100
AcDbEntity
  8
$DDT_AUDIT_GENERATED_(B3)
  6
Continuous
 62
     7
100
AcDbEllipse
 10
33.2231327406
 20
432.7530558281
 30
0.0
 11
-10.70980762113533
 21
0.0
 31
0.0
210
0.0
220
0.0
230
1.0
 40
0.3090170766
 41
3.73000984716779
 42
5.742072771223667
  0
ELLIPSE
  5
B6
330
75
100
AcDbEntity
  8
$DDT_AUDIT_GENERATED_(B3)
  6
Continuous
 62
     7
100
AcDbEllipse
 10
33.2231327406
 20
432.7530558281
 30
0.0
 11
-10.70980762113533
 21
0.0
 31
0.0
210
0.0
220
0.0
230
1.0
 40
0.3090170766
 41
0.8574386677787129
 42
2.342320067460026
  0
ELLIPSE
  5
B7
330
75
100
AcDbEntity
  8
$DDT_AUDIT_GENERATED_(B3)
  6
Continuous
 62
     7
100
AcDbEllipse
 10
33.2231327406
 20
432.7530558281
 30
0.0
 11
10.075
 21
0.0
 31
0.0
210
0.0
220
0.0
230
1.0
 40
0.3090170766
 41
4.772648014022234
 42
6.283185307179586
  0
ELLIPSE
  5
B8
330
75
100
AcDbEntity
  8
$DDT_AUDIT_GENERATED_(B3)
  6
Continuous
 62
     7
100
AcDbEllipse
 10
33.2231327406
 20
432.7530558281
 30
0.0
 11
10.075
 21
0.0
 31
0.0
210
0.0
220
0.0
230
1.0
 40
0.3090170766
 41
0.0
 42
4.652129946747144
  0
ELLIPSE
  5
B9
330
75
100
AcDbEntity
  8
$DDT_AUDIT_GENERATED_(B3)
  6
Continuous
 62
     7
100
AcDbEllipse
 10
33.2231327406
 20
430.3407778835
 30
0.0
 11
11.82292964519129
 21
-6.996118626822395
 31
0.0
210
0.0
220
0.0
230
1.0
 40
0.2332343459
 41
2.874914597576221
 42
3.682566775897767
  0
LINE
  5
BA
330
75
100
AcDbEntity
  8
$DDT_AUDIT_GENERATED_(B3)
  6
Continuous
 62
     7
100
AcDbLine
 10
22.2481327406
 20
437.8162782147
 30
0.0
 11
22.2481327406
 21
434.9353023358
 31
0.0
  0
LINE
  5
BB
330
75
100
AcDbEntity
  8
$DDT_AUDIT_GENERATED_(B3)
  6
Continuous
 62
     7
100
AcDbLine
 10
22.2481327406
 20
434.9353023358
 30
0.0
 11
22.2481327406
 21
434.7517162751
 31
0.0
  0
LINE
  5
BC
330
75
100
AcDbEntity
  8
$DDT_AUDIT_GENERATED_(B3)
  6
Continuous
 62
     7
100
AcDbLine
 10
22.2481327406
 20
434.7517162751
 30
0.0
 11
22.2481327406
 21
431.9733812202
 31
0.0
  0
ELLIPSE
  5
BD
330
75
100
AcDbEntity
  8
$DDT_AUDIT_GENERATED_(B3)
  6
Continuous
 62
     7
100
AcDbEllipse
 10
33.2231327406
 20
430.3407778835
 30
0.0
 11
-11.82292964519123
 21
-6.996118626822367
 31
0.0
210
0.0
220
0.0
230
0.9999999999999999
 40
0.2332343459
 41
2.600618531281807
 42
3.408270709603366
  0
LINE
  5
BE
330
75
100
AcDbEntity
  8
$DDT_AUDIT_GENERATED_(B3)
  6
Continuous
 62
     7
100
AcDbLine
 10
44.1981327406
 20
437.8162782147
 30
0.0
 11
44.1981327406
 21
434.9353023358
 31
0.0
  0
ELLIPSE
  5
BF
330
75
100
AcDbEntity
  8
$DDT_AUDIT_GENERATED_(B3)
  6
Continuous
 62
     7
100
AcDbEllipse
 10
33.2231327406
 20
433.3625487476
 30
0.0
 11
11.86000000000002
 21
0.0
 31
0.0
210
0.0
220
0.0
230
1.0
 40
0.3090170766
 41
-0.5977421935461189
 42
-0.3887609383060093
  0
ELLIPSE
  5
C0
330
75
100
AcDbEntity
  8
$DDT_AUDIT_GENERATED_(B3)
  6
Continuous
 62
     7
100
AcDbEllipse
 10
33.2231327406
 20
433.3625487476
 30
0.0
 11
11.86000000000002
 21
0.0
 31
0.0
210
0.0
220
0.0
230
1.0
 40
0.3090170766
 41
3.530353591895805
 42
3.739334847135917
  0
LINE
  5
C1
330
75
100
AcDbEntity
  8
$DDT_AUDIT_GENERATED_(B3)
  6
Continuous
 62
     7
100
AcDbLine
 10
44.1981327406
 20
434.9353023358
 30
0.0
 11
44.1981327406
 21
434.7517162751
 31
0.0
  0
LINE
  5
C2
330
75
100
AcDbEntity
  8
$DDT_AUDIT_GENERATED_(B3)
  6
Continuous
 62
     7
100
AcDbLine
 10
44.1981327406
 20
434.7517162751
 30
0.0
 11
44.1981327406
 21
431.9733812202
 31
0.0
  0
LINE
  5
C3
330
75
100
AcDbEntity
  8
$DDT_AUDIT_GENERATED_(B3)
  6
Continuous
 62
     7
100
AcDbLine
 10
21.2881327406
 20
440.8370359897
 30
0.0
 11
21.2881327406
 21
436.8941995001
 31
0.0
  0
LINE
  5
C4
330
75
100
AcDbEntity
  8
$DDT_AUDIT_GENERATED_(B3)
  6
Continuous
 62
     7
100
AcDbLine
 10
45.1581327406
 20
436.8941995001
 30
0.0
 11
45.1581327406
 21
440.8370359897
 31
0.0
  0
LINE
  5
C5
330
75
100
AcDbEntity
  8
$DDT_AUDIT_GENERATED_(B3)
  6
Continuous
 62
     7
100
AcDbLine
 10
23.4195575483
 20
431.3000012327
 30
0.0
 11
24.3083205612
 21
430.896605357
 31
0.0
  0
LINE
  5
C6
330
75
100
AcDbEntity
  8
$DDT_AUDIT_GENERATED_(B3)
  6
Continuous
 62
     7
100
AcDbLine
 10
42.13794492
 20
430.896605357
 30
0.0
 11
43.0267079328
 21
431.3000012327
 31
0.0
  0
ELLIPSE
  5
C8
330
75
100
AcDbEntity
  8
$DDT_AUDIT_GENERATED_(C7)
  6
Continuous
 62
     7
100
AcDbEllipse
 10
33.2231327406
 20
432.4201860568
 30
0.0
 11
-9.0
 21
0.0
 31
0.0
210
0.0
220
0.0
230
1.0
 40
0.3090170766
 41
0.0
 42
6.283185307179586
  0
ELLIPSE
  5
C9
330
75
100
AcDbEntity
  8
$DDT_AUDIT_GENERATED_(C7)
  6
Continuous
 62
     7
100
AcDbEllipse
 10
33.2231327406
 20
432.4201860568
 30
0.0
 11
-5.249999999999997
 21
0.0
 31
0.0
210
0.0
220
0.0
230
1.0
 40
0.3090170766
 41
0.0
 42
6.283185307179586
  0
ELLIPSE
  5
CA
330
75
100
AcDbEntity
  8
$DDT_AUDIT_GENERATED_(C7)
  6
Continuous
 62
     7
100
AcDbEllipse
 10
33.2231327406
 20
432.4201860568
 30
0.0
 11
-6.249999999999999
 21
0.0
 31
0.0
210
0.0
220
0.0
230
1.0
 40
0.3090170766
 41
0.0
 42
6.283185307179586
  0
ELLIPSE
  5
CB
330
75
100
AcDbEntity
  8
$DDT_AUDIT_GENERATED_(C7)
  6
Continuous
 62
     7
100
AcDbEllipse
 10
33.2231327406
 20
432.4201860568
 30
0.0
 11
2.750000000000002
 21
0.0
 31
0.0
210
0.0
220
0.0
230
1.0
 40
0.3090170766
 41
0.0
 42
6.283185307179586
  0
ELLIPSE
  5
CC
330
75
100
AcDbEntity
  8
$DDT_AUDIT_GENERATED_(C7)
  6
Continuous
 62
     7
100
AcDbEllipse
 10
33.2231327406
 20
432.4201860568
 30
0.0
 11
2.150000000000001
 21
0.0
 31
0.0
210
0.0
220
0.0
230
1.0
 40
0.3090170766
 41
0.0
 42
6.283185307179586
  0
ELLIPSE
  5
CD
330
75
100
AcDbEntity
  8
$DDT_AUDIT_GENERATED_(C7)
  6
Continuous
 62
     7
100
AcDbEllipse
 10
33.2231327406
 20
432.6103973547
 30
0.0
 11
0.5196299438963556
 21
0.0
 31
0.0
210
0.0
220
0.0
230
1.0
 40
0.3090170766
 41
0.0
 42
6.283185307179586
  0
ELLIPSE
  5
CE
330
75
100
AcDbEntity
  8
$DDT_AUDIT_GENERATED_(C7)
  6
Continuous
 62
     7
100
AcDbEllipse
 10
33.2231327406
 20
432.4201860568
 30
0.0
 11
-8.700000000000001
 21
0.0
 31
0.0
210
0.0
220
0.0
230
1.0
 40
0.3090170766
 41
0.0
 42
6.283185307179586
  0
ARC
  5
CF
330
75
100
AcDbEntity
  8
$DDT_AUDIT_GENERATED_(C7)
  6
Continuous
 62
     7
100
AcDbCircle
 10
33.2231327406
 20
414.3186763924
 30
0.0
 40
20.22307770502016
100
AcDbArc
 50
89.7166800531
 51
90.2833199469
  0
LINE
  5
D0
330
75
100
AcDbEntity
  8
$DDT_AUDIT_GENERATED_(C7)
  6
Continuous
 62
     7
100
AcDbLine
 10
33.3231327406
 20
434.5415068537
 30
0.0
 11
33.3231327406
 21
435.1084570209
 31
0.0
  0
LINE
  5
D1
330
75
100
AcDbEntity
  8
$DDT_AUDIT_GENERATED_(C7)
  6
Continuous
 62
     7
100
AcDbLine
 10
33.1231327406
 20
434.5415068537
 30
0.0
 11
33.1231327406
 21
435.1084570209
 31
0.0
  0
ELLIPSE
  5
D2
330
75
100
AcDbEntity
  8
$DDT_AUDIT_GENERATED_(C7)
  6
Continuous
 62
     7
100
AcDbEllipse
 10
33.2231327406
 20
432.845591754
 30
0.0
 11
-0.519629943896358
 21
0.0
 31
0.0
210
0.0
220
0.0
230
1.0
 40
0.3090170766
 41
4.210466699360381
 42
5.214311261408998
  0
LINE
  5
D3
330
75
100
AcDbEntity
  8
$DDT_AUDIT_GENERATED_(C7)
  6
Continuous
 62
     7
100
AcDbLine
 10
32.9731327406
 20
433.0800659583
 30
0.0
 11
32.9731327406
 21
432.9863609138
 31
0.0
  0
LINE
  5
D4
330
75
100
AcDbEntity
  8
$DDT_AUDIT_GENERATED_(C7)
  6
Continuous
 62
     7
100
AcDbLine
 10
33.4731327406
 20
433.0800659583
 30
0.0
 11
33.4731327406
 21
432.9863609138
 31
0.0
  0
LINE
  5
D5
330
75
100
AcDbEntity
  8
$DDT_AUDIT_GENERATED_(C7)
  6
Continuous
 62
     7
100
AcDbLine
 10
35.1974569415
 20
432.5825559629
 30
0.0
 11
33.7427626845
 21
432.8420895543
 31
0.0
  0
LINE
  5
D6
330
75
100
AcDbEntity
  8
$DDT_AUDIT_GENERATED_(C7)
  6
Continuous
 62
     7
100
AcDbLine
 10
35.1974569415
 20
432.6832218479
 30
0.0
 11
35.1974569415
 21
432.5825559629
 31
0.0
  0
LINE
  5
D7
330
75
100
AcDbEntity
  8
$DDT_AUDIT_GENERATED_(C7)
  6
Continuous
 62
     7
100
AcDbLine
 10
34.9474569415
 20
432.4487476437
 30
0.0
 11
33.7427626845
 21
432.663678462
 31
0.0
  0
ELLIPSE
  5
D8
330
75
100
AcDbEntity
  8
$DDT_AUDIT_GENERATED_(C7)
  6
Continuous
 62
     7
100
AcDbEllipse
 10
33.2231327406
 20
432.845591754
 30
0.0
 11
2.149999999994807
 21
1.484923295436147E-12
 31
0.0
210
0.0
220
0.0
230
1.0
 40
0.3090170766
 41
-0.6401414840486206
 42
-0.4070560671496413
  0
LINE
  5
D9
330
75
100
AcDbEntity
  8
$DDT_AUDIT_GENERATED_(C7)
  6
Continuous
 62
     7
100
AcDbLine
 10
31.4988085397
 20
432.4487476437
 30
0.0
 11
32.7035027967
 21
432.663678462
 31
0.0
  0
LINE
  5
DA
330
75
100
AcDbEntity
  8
$DDT_AUDIT_GENERATED_(C7)
  6
Continuous
 62
     7
100
AcDbLine
 10
31.2488085397
 20
432.5825559629
 30
0.0
 11
32.7035027967
 21
432.8420895543
 31
0.0
  0
ELLIPSE
  5
DB
330
75
100
AcDbEntity
  8
$DDT_AUDIT_GENERATED_(C7)
  6
Continuous
 62
     7
100
AcDbEllipse
 10
33.2231327406
 20
432.845591754
 30
0.0
 11
-2.149999999996643
 21
7.216449660063518E-13
 31
0.0
210
0.0
220
0.0
230
1.0
 40
0.3090170766
 41
0.4070560671493463
 42
0.6401414840482301
  0
LINE
  5
DC
330
75
100
AcDbEntity
  8
$DDT_AUDIT_GENERATED_(C7)
  6
Continuous
 62
     7
100
AcDbLine
 10
31.2488085397
 20
432.6832218479
 30
0.0
 11
31.2488085397
 21
432.5825559629
 31
0.0
  0
ELLIPSE
  5
DD
330
75
100
AcDbEntity
  8
$DDT_AUDIT_GENERATED_(C7)
  6
Continuous
 62
     7
100
AcDbEllipse
 10
33.2231327239
 20
432.6103973355
 30
0.0
 11
6.250000034368926
 21
5.492897803272001E-9
 31
0.0
210
0.0
220
0.0
230
1.0
 40
0.3090170779
 41
1.292996254777234
 42
1.3249976201029
  0
LINE
  5
DE
330
75
100
AcDbEntity
  8
$DDT_AUDIT_GENERATED_(C7)
  6
Continuous
 62
     7
100
AcDbLine
 10
34.9371372866
 20
434.4677079427
 30
0.0
 11
35.4175145546
 21
435.0217114
 31
0.0
  0
LINE
  5
DF
330
75
100
AcDbEntity
  8
$DDT_AUDIT_GENERATED_(C7)
  6
Continuous
 62
     7
100
AcDbLine
 10
34.7439521213
 20
434.4837038436
 30
0.0
 11
35.2233812797
 21
435.036613877
 31
0.0
  0
LINE
  5
E0
330
75
100
AcDbEntity
  8
$DDT_AUDIT_GENERATED_(C7)
  6
Continuous
 62
     7
100
AcDbLine
 10
34.7439521213
 20
434.4837038436
 30
0.0
 11
34.7439521213
 21
435.067239906
 31
0.0
  0
ELLIPSE
  5
E1
330
75
100
AcDbEntity
  8
$DDT_AUDIT_GENERATED_(C7)
  6
Continuous
 62
     7
100
AcDbEllipse
 10
33.2231327117
 20
432.6103973393
 30
0.0
 11
6.250000036048042
 21
8.537864859547994E-9
 31
0.0
210
0.0
220
0.0
230
1.0
 40
0.3090170773
 41
1.031196866105395
 42
1.063198231448355
  0
LINE
  5
E2
330
75
100
AcDbEntity
  8
$DDT_AUDIT_GENERATED_(C7)
  6
Continuous
 62
     7
100
AcDbLine
 10
36.4343352553
 20
434.2673363845
 30
0.0
 11
37.3919595198
 21
434.7798887577
 31
0.0
  0
LINE
  5
E3
330
75
100
AcDbEntity
  8
$DDT_AUDIT_GENERATED_(C7)
  6
Continuous
 62
     7
100
AcDbLine
 10
36.2611301746
 20
434.2982380921
 30
0.0
 11
37.2152144228
 21
434.8088957308
 31
0.0
  0
LINE
  5
E4
330
75
100
AcDbEntity
  8
$DDT_AUDIT_GENERATED_(C7)
  6
Continuous
 62
     7
100
AcDbLine
 10
36.2611301746
 20
434.2982380921
 30
0.0
 11
36.2611301746
 21
434.9393968924
 31
0.0
  0
ELLIPSE
  5
E5
330
75
100
AcDbEntity
  8
$DDT_AUDIT_GENERATED_(C7)
  6
Continuous
 62
     7
100
AcDbEllipse
 10
33.2231326998
 20
432.6103973421
 30
0.0
 11
6.250000043208183
 21
9.828235447706390E-9
 31
0.0
210
0.0
220
0.0
230
1.0
 40
0.3090170765
 41
0.7693974779352493
 42
0.8013988432784016
  0
LINE
  5
E6
330
75
100
AcDbEntity
  8
$DDT_AUDIT_GENERATED_(C7)
  6
Continuous
 62
     7
100
AcDbLine
 10
37.7126950795
 20
433.9540471696
 30
0.0
 11
39.1333350085
 21
434.3930491673
 31
0.0
  0
LINE
  5
E7
330
75
100
AcDbEntity
  8
$DDT_AUDIT_GENERATED_(C7)
  6
Continuous
 62
     7
100
AcDbLine
 10
37.5712737232
 20
433.9977487837
 30
0.0
 11
38.9848291787
 21
434.4345615581
 31
0.0
  0
LINE
  5
E8
330
75
100
AcDbEntity
  8
$DDT_AUDIT_GENERATED_(C7)
  6
Continuous
 62
     7
100
AcDbLine
 10
37.5712737232
 20
433.9977487837
 30
0.0
 11
37.5712737232
 21
434.7487823865
 31
0.0
  0
ELLIPSE
  5
E9
330
75
100
AcDbEntity
  8
$DDT_AUDIT_GENERATED_(C7)
  6
Continuous
 62
     7
100
AcDbEllipse
 10
33.2231327939
 20
432.6103973642
 30
0.0
 11
6.249999946140638
 21
-9.123618527340227E-9
 31
0.0
210
0.0
220
0.0
230
1.0
 40
0.3090170773
 41
0.5075980953567869
 42
0.5395994610050805
  0
LINE
  5
EA
330
75
100
AcDbEntity
  8
$DDT_AUDIT_GENERATED_(C7)
  6
Continuous
 62
     7
100
AcDbLine
 10
38.6850986495
 20
433.5491904403
 30
0.0
 11
40.5316781776
 21
433.878640711
 31
0.0
  0
LINE
  5
EB
330
75
100
AcDbEntity
  8
$DDT_AUDIT_GENERATED_(C7)
  6
Continuous
 62
     7
100
AcDbLine
 10
38.5850986495
 20
433.602713768
 30
0.0
 11
40.4210447931
 21
433.930266925
 31
0.0
  0
LINE
  5
EC
330
75
100
AcDbEntity
  8
$DDT_AUDIT_GENERATED_(C7)
  6
Continuous
 62
     7
100
AcDbLine
 10
38.5850986495
 20
433.602713768
 30
0.0
 11
38.5850986495
 21
434.2236347704
 31
0.0
  0
ELLIPSE
  5
ED
330
75
100
AcDbEntity
  8
$DDT_AUDIT_GENERATED_(C7)
  6
Continuous
 62
     7
100
AcDbEllipse
 10
33.2231331307
 20
432.6103973871
 30
0.0
 11
8.499999609649571
 21
-3.462025111033995E-8
 31
0.0
210
0.0
220
0.0
230
1.0
 40
0.3090170829
 41
0.2500344174293033
 42
0.27356437256453
  0
ELLIPSE
  5
EE
330
75
100
AcDbEntity
  8
$DDT_AUDIT_GENERATED_(C7)
  6
Continuous
 62
     7
100
AcDbEllipse
 10
33.2231327405
 20
432.6103973547
 30
0.0
 11
8.50000000002729
 21
3.719247132494274E-12
 31
0.0
210
0.0
220
0.0
230
1.0
 40
0.3090170766
 41
0.273564365086695
 42
0.2968760504188956
  0
ELLIPSE
  5
EF
330
75
100
AcDbEntity
  8
$DDT_AUDIT_GENERATED_(C7)
  6
Continuous
 62
     7
100
AcDbEllipse
 10
33.2231326849
 20
432.6103973501
 30
0.0
 11
6.250000055710967
 21
4.928543684279418E-9
 31
0.0
210
0.0
220
0.0
230
1.0
 40
0.3090170753
 41
0.2457987037309744
 42
0.2778000690740654
  0
LINE
  5
F0
330
75
100
AcDbEntity
  8
$DDT_AUDIT_GENERATED_(C7)
  6
Continuous
 62
     7
100
AcDbLine
 10
39.2852782693
 20
433.0803565137
 30
0.0
 11
41.4588159572
 21
433.2603273385
 31
0.0
  0
LINE
  5
F1
330
75
100
AcDbEntity
  8
$DDT_AUDIT_GENERATED_(C7)
  6
Continuous
 62
     7
100
AcDbLine
 10
39.2335144602
 20
433.1400540287
 30
0.0
 11
41.4070521482
 21
433.3200248535
 31
0.0
  0
LINE
  5
F2
330
75
100
AcDbEntity
  8
$DDT_AUDIT_GENERATED_(C7)
  6
Continuous
 62
     7
100
AcDbLine
 10
39.2335144602
 20
433.1400540287
 30
0.0
 11
39.2335144602
 21
433.6470339042
 31
0.0
  0
ARC
  5
F3
330
75
100
AcDbEntity
  8
$DDT_AUDIT_GENERATED_(C7)
  6
Continuous
 62
     7
100
AcDbCircle
 10
40.9109224528
 20
432.6103973547
 30
0.0
 40
0.8122100951255099
100
AcDbArc
 50
357.8195729539
 51
2.180427046
  0
ELLIPSE
  5
F4
330
75
100
AcDbEntity
  8
$DDT_AUDIT_GENERATED_(C7)
  6
Continuous
 62
     7
100
AcDbEllipse
 10
33.2231327405
 20
432.6103973547
 30
0.0
 11
8.50000000003114
 21
9.575673587391975E-13
 31
0.0
210
0.0
220
0.0
230
1.0
 40
0.3090170766
 41
0.0117649772881308
 42
0.2500344105105745
  0
ARC
  5
F5
330
75
100
AcDbEntity
  8
$DDT_AUDIT_GENERATED_(C7)
  6
Continuous
 62
     7
100
AcDbCircle
 10
38.8755868775
 20
432.6103973547
 30
0.0
 40
0.597545378630394
100
AcDbArc
 50
0.0
 51
2.9643398222
  0
LINE
  5
F6
330
75
100
AcDbEntity
  8
$DDT_AUDIT_GENERATED_(C7)
  6
Continuous
 62
     7
100
AcDbLine
 10
39.4731327406
 20
432.579495647
 30
0.0
 11
41.7225444849
 21
432.579495647
 31
0.0
  0
LINE
  5
F7
330
75
100
AcDbEntity
  8
$DDT_AUDIT_GENERATED_(C7)
  6
Continuous
 62
     7
100
AcDbLine
 10
39.4723326894
 20
432.6412990624
 30
0.0
 11
41.7225444849
 21
432.6412990624
 31
0.0
  0
LINE
  5
F8
330
75
100
AcDbEntity
  8
$DDT_AUDIT_GENERATED_(C7)
  6
Continuous
 62
     7
100
AcDbLine
 10
39.4723326894
 20
432.6412990624
 30
0.0
 11
39.4723326894
 21
433.0958447836
 31
0.0
  0
ELLIPSE
  5
F9
330
75
100
AcDbEntity
  8
$DDT_AUDIT_GENERATED_(C7)
  6
Continuous
 62
     7
100
AcDbEllipse
 10
33.2231331308
 20
432.6103973225
 30
0.0
 11
8.499999609539449
 21
3.441613660726262E-8
 31
0.0
210
0.0
220
0.0
230
1.0
 40
0.3090170829
 41
-0.273564372560207
 42
-0.2500344174249429
  0
ELLIPSE
  5
FA
330
75
100
AcDbEntity
  8
$DDT_AUDIT_GENERATED_(C7)
  6
Continuous
 62
     7
100
AcDbEllipse
 10
33.2231327405
 20
432.6103973547
 30
0.0
 11
8.500000000027327
 21
-1.332267629550188E-12
 31
0.0
210
0.0
220
0.0
230
1.0
 40
0.3090170766
 41
6.033150896668974
 42
6.271420329891503
  0
LINE
  5
FB
330
75
100
AcDbEntity
  8
$DDT_AUDIT_GENERATED_(C7)
  6
Continuous
 62
     7
100
AcDbLine
 10
41.4588159572
 20
431.9604673709
 30
0.0
 11
41.4588159572
 21
432.579495647
 31
0.0
  0
LINE
  5
FC
330
75
100
AcDbEntity
  8
$DDT_AUDIT_GENERATED_(C7)
  6
Continuous
 62
     7
100
AcDbLine
 10
39.3692410688
 20
432.0695023986
 30
0.0
 11
41.4070521482
 21
431.9007698559
 31
0.0
  0
LINE
  5
FD
330
75
100
AcDbEntity
  8
$DDT_AUDIT_GENERATED_(C7)
  6
Continuous
 62
     7
100
AcDbLine
 10
39.402541037
 20
432.1307287358
 30
0.0
 11
41.4588159572
 21
431.9604673709
 31
0.0
  0
ELLIPSE
  5
FE
330
75
100
AcDbEntity
  8
$DDT_AUDIT_GENERATED_(C7)
  6
Continuous
 62
     7
100
AcDbEllipse
 10
33.2231331192
 20
432.6103972871
 30
0.0
 11
8.499999617405573
 21
6.470073088404861E-8
 31
0.0
210
0.0
220
0.0
230
1.0
 40
0.3090170805
 41
-0.5353637666810043
 42
-0.5118338114996845
  0
ELLIPSE
  5
FF
330
75
100
AcDbEntity
  8
$DDT_AUDIT_GENERATED_(C7)
  6
Continuous
 62
     7
100
AcDbEllipse
 10
33.2231327406
 20
432.6103973547
 30
0.0
 11
8.499999999970905
 21
4.149458554536523E-12
 31
0.0
210
0.0
220
0.0
230
1.0
 40
0.3090170766
 41
-0.5118337983112493
 42
-0.2735643650878314
  0
LINE
  5
100
330
75
100
AcDbEntity
  8
$DDT_AUDIT_GENERATED_(C7)
  6
Continuous
 62
     7
100
AcDbLine
 10
40.6338392284
 20
431.3239273337
 30
0.0
 11
40.6338392284
 21
431.964792563
 31
0.0
  0
LINE
  5
101
330
75
100
AcDbEntity
  8
$DDT_AUDIT_GENERATED_(C7)
  6
Continuous
 62
     7
100
AcDbLine
 10
38.839317179
 20
431.5727255358
 30
0.0
 11
40.5338392284
 21
431.270404006
 31
0.0
  0
LINE
  5
102
330
75
100
AcDbEntity
  8
$DDT_AUDIT_GENERATED_(C7)
  6
Continuous
 62
     7
100
AcDbLine
 10
38.924488348
 20
431.6288944915
 30
0.0
 11
40.6338392284
 21
431.3239273337
 31
0.0
  0
ELLIPSE
  5
103
330
75
100
AcDbEntity
  8
$DDT_AUDIT_GENERATED_(C7)
  6
Continuous
 62
     7
100
AcDbEllipse
 10
33.2231330745
 20
432.6103972515
 30
0.0
 11
8.499999645851343
 21
8.070033530316323E-8
 31
0.0
210
0.0
220
0.0
230
1.0
 40
0.3090170765
 41
-0.7971631578352367
 42
-0.7736332026054491
  0
ELLIPSE
  5
104
330
75
100
AcDbEntity
  8
$DDT_AUDIT_GENERATED_(C7)
  6
Continuous
 62
     7
100
AcDbEllipse
 10
33.2231327405
 20
432.6103973547
 30
0.0
 11
8.500000000025906
 21
-5.495603971894525E-12
 31
0.0
210
0.0
220
0.0
230
1.0
 40
0.3090170766
 41
-0.7736331861080323
 42
-0.535363752885508
  0
LINE
  5
105
330
75
100
AcDbEntity
  8
$DDT_AUDIT_GENERATED_(C7)
  6
Continuous
 62
     7
100
AcDbLine
 10
39.3038350992
 20
430.7750581025
 30
0.0
 11
39.3038350992
 21
431.4898503863
 31
0.0
  0
LINE
  5
106
330
75
100
AcDbEntity
  8
$DDT_AUDIT_GENERATED_(C7)
  6
Continuous
 62
     7
100
AcDbLine
 10
37.8732452428
 20
431.1297315696
 30
0.0
 11
39.162413743
 21
430.7313564884
 31
0.0
  0
LINE
  5
107
330
75
100
AcDbEntity
  8
$DDT_AUDIT_GENERATED_(C7)
  6
Continuous
 62
     7
100
AcDbLine
 10
38.0047927696
 20
431.1764843655
 30
0.0
 11
39.3038350992
 21
430.7750581025
 31
0.0
  0
ELLIPSE
  5
108
330
75
100
AcDbEntity
  8
$DDT_AUDIT_GENERATED_(C7)
  6
Continuous
 62
     7
100
AcDbEllipse
 10
33.2231329758
 20
432.6103972288
 30
0.0
 11
8.49999970597891
 21
6.958084108887874E-8
 31
0.0
210
0.0
220
0.0
230
1.0
 40
0.3090170723
 41
-1.058962543322796
 42
-1.035432588095423
  0
ELLIPSE
  5
109
330
75
100
AcDbEntity
  8
$DDT_AUDIT_GENERATED_(C7)
  6
Continuous
 62
     7
100
AcDbEllipse
 10
33.2231327406
 20
432.6103973547
 30
0.0
 11
8.499999999994342
 21
1.554312234475219E-12
 31
0.0
210
0.0
220
0.0
230
1.0
 40
0.3090170766
 41
-1.035432573908853
 42
-0.7971631406857664
  0
LINE
  5
10A
330
75
100
AcDbEntity
  8
$DDT_AUDIT_GENERATED_(C7)
  6
Continuous
 62
     7
100
AcDbLine
 10
37.5594411531
 20
430.3512642083
 30
0.0
 11
37.5594411531
 21
431.0293026548
 31
0.0
  0
LINE
  5
10B
330
75
100
AcDbEntity
  8
$DDT_AUDIT_GENERATED_(C7)
  6
Continuous
 62
     7
100
AcDbLine
 10
36.5263381513
 20
430.7806084828
 30
0.0
 11
37.3862360724
 21
430.3203625006
 31
0.0
  0
LINE
  5
10C
330
75
100
AcDbEntity
  8
$DDT_AUDIT_GENERATED_(C7)
  6
Continuous
 62
     7
100
AcDbLine
 10
36.6946123243
 20
430.8141493764
 30
0.0
 11
37.5594411531
 21
430.3512642083
 31
0.0
  0
ELLIPSE
  5
10D
330
75
100
AcDbEntity
  8
$DDT_AUDIT_GENERATED_(C7)
  6
Continuous
 62
     7
100
AcDbEllipse
 10
33.2231328627
 20
432.6103972139
 30
0.0
 11
8.499999748232661
 21
4.030641098662358E-8
 31
0.0
210
0.0
220
0.0
230
1.0
 40
0.3090170691
 41
-1.320761925015007
 42
-1.297231969785594
  0
ELLIPSE
  5
10E
330
75
100
AcDbEntity
  8
$DDT_AUDIT_GENERATED_(C7)
  6
Continuous
 62
     7
100
AcDbEllipse
 10
33.2231327406
 20
432.6103973547
 30
0.0
 11
8.500000000007773
 21
-1.568190022283034E-12
 31
0.0
210
0.0
220
0.0
230
1.0
 40
0.3090170766
 41
-1.297231961707231
 42
-1.058962528484447
  0
LINE
  5
10F
330
75
100
AcDbEntity
  8
$DDT_AUDIT_GENERATED_(C7)
  6
Continuous
 62
     7
100
AcDbLine
 10
35.5195349548
 20
430.0814265046
 30
0.0
 11
35.5195349548
 21
430.6239211472
 31
0.0
  0
LINE
  5
110
330
75
100
AcDbEntity
  8
$DDT_AUDIT_GENERATED_(C7)
  6
Continuous
 62
     7
100
AcDbLine
 10
34.8979704782
 20
430.5594665112
 30
0.0
 11
35.3263497895
 21
430.0654306037
 31
0.0
  0
LINE
  5
111
330
75
100
AcDbEntity
  8
$DDT_AUDIT_GENERATED_(C7)
  6
Continuous
 62
     7
100
AcDbLine
 10
35.0898355852
 20
430.5769847923
 30
0.0
 11
35.5195349548
 21
430.0814265046
 31
0.0
  0
ARC
  5
112
330
75
100
AcDbEntity
  8
$DDT_AUDIT_GENERATED_(C7)
  6
Continuous
 62
     7
100
AcDbCircle
 10
33.2231327406
 20
457.4886008444
 30
0.0
 40
27.50484864610356
100
AcDbArc
 50
269.7916879803
 51
270.2083120197
  0
ELLIPSE
  5
113
330
75
100
AcDbEntity
  8
$DDT_AUDIT_GENERATED_(C7)
  6
Continuous
 62
     7
100
AcDbEllipse
 10
33.2231327406
 20
432.6103973547
 30
0.0
 11
8.500000000006922
 21
-6.938893903907228E-13
 31
0.0
210
0.0
220
0.0
230
1.0
 40
0.3090170766
 41
4.72415395767299
 42
4.962423390895768
  0
LINE
  5
114
330
75
100
AcDbEntity
  8
$DDT_AUDIT_GENERATED_(C7)
  6
Continuous
 62
     7
100
AcDbLine
 10
33.1231327406
 20
430.4890765578
 30
0.0
 11
33.1231327406
 21
429.983933985
 31
0.0
  0
LINE
  5
115
330
75
100
AcDbEntity
  8
$DDT_AUDIT_GENERATED_(C7)
  6
Continuous
 62
     7
100
AcDbLine
 10
33.3231327406
 20
430.4890765578
 30
0.0
 11
33.3231327406
 21
429.983933985
 31
0.0
  0
ELLIPSE
  5
116
330
75
100
AcDbEntity
  8
$DDT_AUDIT_GENERATED_(C7)
  6
Continuous
 62
     7
100
AcDbEllipse
 10
33.2231326228
 20
432.6103972188
 30
0.0
 11
-8.499999757251395
 21
3.888170341248554E-8
 31
0.0
210
0.0
220
0.0
230
1.0
 40
0.3090170694
 41
1.297231969494478
 42
1.320761924700466
  0
ELLIPSE
  5
117
330
75
100
AcDbEntity
  8
$DDT_AUDIT_GENERATED_(C7)
  6
Continuous
 62
     7
100
AcDbEllipse
 10
33.2231327406
 20
432.6103973547
 30
0.0
 11
-8.499999999993985
 21
8.465450562766819E-13
 31
0.0
210
0.0
220
0.0
230
1.0
 40
0.3090170766
 41
1.320761916283889
 42
1.559031349507025
  0
LINE
  5
118
330
75
100
AcDbEntity
  8
$DDT_AUDIT_GENERATED_(C7)
  6
Continuous
 62
     7
100
AcDbLine
 10
30.9267305263
 20
430.0814265046
 30
0.0
 11
30.9267305263
 21
430.6239211472
 31
0.0
  0
LINE
  5
119
330
75
100
AcDbEntity
  8
$DDT_AUDIT_GENERATED_(C7)
  6
Continuous
 62
     7
100
AcDbLine
 10
31.3564298959
 20
430.5769847923
 30
0.0
 11
30.9267305263
 21
430.0814265046
 31
0.0
  0
LINE
  5
11A
330
75
100
AcDbEntity
  8
$DDT_AUDIT_GENERATED_(C7)
  6
Continuous
 62
     7
100
AcDbLine
 10
31.548295003
 20
430.5594665112
 30
0.0
 11
31.1199156916
 21
430.0654306037
 31
0.0
  0
ELLIPSE
  5
11B
330
75
100
AcDbEntity
  8
$DDT_AUDIT_GENERATED_(C7)
  6
Continuous
 62
     7
100
AcDbEllipse
 10
33.2231325042
 20
432.6103972283
 30
0.0
 11
-8.499999704575023
 21
6.988741529934117E-8
 31
0.0
210
0.0
220
0.0
230
1.0
 40
0.3090170723
 41
1.035432588164693
 42
1.058962543395139
  0
ELLIPSE
  5
11C
330
75
100
AcDbEntity
  8
$DDT_AUDIT_GENERATED_(C7)
  6
Continuous
 62
     7
100
AcDbEllipse
 10
33.2231327406
 20
432.6103973547
 30
0.0
 11
-8.500000000018407
 21
-4.135580766728708E-12
 31
0.0
210
0.0
220
0.0
230
1.0
 40
0.3090170766
 41
1.05896252848408
 42
1.297231961706599
  0
LINE
  5
11D
330
75
100
AcDbEntity
  8
$DDT_AUDIT_GENERATED_(C7)
  6
Continuous
 62
     7
100
AcDbLine
 10
28.886824328
 20
430.3512642083
 30
0.0
 11
28.886824328
 21
431.0293026548
 31
0.0
  0
LINE
  5
11E
330
75
100
AcDbEntity
  8
$DDT_AUDIT_GENERATED_(C7)
  6
Continuous
 62
     7
100
AcDbLine
 10
29.7516531568
 20
430.8141493764
 30
0.0
 11
28.886824328
 21
430.3512642083
 31
0.0
  0
LINE
  5
11F
330
75
100
AcDbEntity
  8
$DDT_AUDIT_GENERATED_(C7)
  6
Continuous
 62
     7
100
AcDbLine
 10
29.9199273299
 20
430.7806084828
 30
0.0
 11
29.0600294088
 21
430.3203625006
 31
0.0
  0
ELLIPSE
  5
120
330
75
100
AcDbEntity
  8
$DDT_AUDIT_GENERATED_(C7)
  6
Continuous
 62
     7
100
AcDbEllipse
 10
33.223132432
 20
432.6103972593
 30
0.0
 11
-8.499999672677088
 21
7.458691997364041E-8
 31
0.0
210
0.0
220
0.0
230
1.0
 40
0.3090170765
 41
0.7736332013525199
 42
0.7971631565328569
  0
ELLIPSE
  5
121
330
75
100
AcDbEntity
  8
$DDT_AUDIT_GENERATED_(C7)
  6
Continuous
 62
     7
100
AcDbEllipse
 10
33.2231327406
 20
432.6103973547
 30
0.0
 11
-8.500000000022874
 21
-5.773159728050814E-12
 31
0.0
210
0.0
220
0.0
230
1.0
 40
0.3090170766
 41
0.7971631406845994
 42
1.035432573907096
  0
LINE
  5
122
330
75
100
AcDbEntity
  8
$DDT_AUDIT_GENERATED_(C7)
  6
Continuous
 62
     7
100
AcDbLine
 10
27.1424303819
 20
430.7750581025
 30
0.0
 11
27.1424303819
 21
431.4898503863
 31
0.0
  0
LINE
  5
123
330
75
100
AcDbEntity
  8
$DDT_AUDIT_GENERATED_(C7)
  6
Continuous
 62
     7
100
AcDbLine
 10
28.4414727115
 20
431.1764843655
 30
0.0
 11
27.1424303819
 21
430.7750581025
 31
0.0
  0
LINE
  5
124
330
75
100
AcDbEntity
  8
$DDT_AUDIT_GENERATED_(C7)
  6
Continuous
 62
     7
100
AcDbLine
 10
28.5730202384
 20
431.1297315696
 30
0.0
 11
27.2838517382
 21
430.7313564884
 31
0.0
  0
ELLIPSE
  5
125
330
75
100
AcDbEntity
  8
$DDT_AUDIT_GENERATED_(C7)
  6
Continuous
 62
     7
100
AcDbEllipse
 10
33.2231323314
 20
432.6103972817
 30
0.0
 11
-8.499999586589054
 21
6.986224099225780E-8
 31
0.0
210
0.0
220
0.0
230
1.0
 40
0.3090170808
 41
0.5118338125586361
 42
0.5353637677887414
  0
ELLIPSE
  5
126
330
75
100
AcDbEntity
  8
$DDT_AUDIT_GENERATED_(C7)
  6
Continuous
 62
     7
100
AcDbEllipse
 10
33.2231327406
 20
432.6103973547
 30
0.0
 11
-8.499999999990171
 21
1.804112415015879E-12
 31
0.0
210
0.0
220
0.0
230
1.0
 40
0.3090170766
 41
0.5353637528867157
 42
0.7736331861098616
  0
LINE
  5
127
330
75
100
AcDbEntity
  8
$DDT_AUDIT_GENERATED_(C7)
  6
Continuous
 62
     7
100
AcDbLine
 10
25.8124262527
 20
431.3239273337
 30
0.0
 11
25.8124262527
 21
431.964792563
 31
0.0
  0
LINE
  5
128
330
75
100
AcDbEntity
  8
$DDT_AUDIT_GENERATED_(C7)
  6
Continuous
 62
     7
100
AcDbLine
 10
27.5217771332
 20
431.6288944915
 30
0.0
 11
25.8124262527
 21
431.3239273337
 31
0.0
  0
LINE
  5
129
330
75
100
AcDbEntity
  8
$DDT_AUDIT_GENERATED_(C7)
  6
Continuous
 62
     7
100
AcDbLine
 10
27.6069483021
 20
431.5727255358
 30
0.0
 11
25.9124262527
 21
431.270404006
 31
0.0
  0
ELLIPSE
  5
12A
330
75
100
AcDbEntity
  8
$DDT_AUDIT_GENERATED_(C7)
  6
Continuous
 62
     7
100
AcDbEllipse
 10
33.2231323507
 20
432.6103973223
 30
0.0
 11
-8.499999609932658
 21
3.459531272564931E-8
 31
0.0
210
0.0
220
0.0
230
1.0
 40
0.3090170829
 41
0.2500344174241981
 42
0.2735643725590378
  0
ELLIPSE
  5
12B
330
75
100
AcDbEntity
  8
$DDT_AUDIT_GENERATED_(C7)
  6
Continuous
 62
     7
100
AcDbEllipse
 10
33.2231327406
 20
432.6103973547
 30
0.0
 11
-8.500000000004093
 21
-6.800116025829084E-13
 31
0.0
210
0.0
220
0.0
230
1.0
 40
0.3090170766
 41
0.2735643650871573
 42
0.5118337983100688
  0
LINE
  5
12C
330
75
100
AcDbEntity
  8
$DDT_AUDIT_GENERATED_(C7)
  6
Continuous
 62
     7
100
AcDbLine
 10
24.9874495239
 20
431.9604673709
 30
0.0
 11
24.9874495239
 21
432.579495647
 31
0.0
  0
LINE
  5
12D
330
75
100
AcDbEntity
  8
$DDT_AUDIT_GENERATED_(C7)
  6
Continuous
 62
     7
100
AcDbLine
 10
27.0437244442
 20
432.1307287358
 30
0.0
 11
24.9874495239
 21
431.9604673709
 31
0.0
  0
LINE
  5
12E
330
75
100
AcDbEntity
  8
$DDT_AUDIT_GENERATED_(C7)
  6
Continuous
 62
     7
100
AcDbLine
 10
27.0770244123
 20
432.0695023986
 30
0.0
 11
25.0392133329
 21
431.9007698559
 31
0.0
  0
ARC
  5
12F
330
75
100
AcDbEntity
  8
$DDT_AUDIT_GENERATED_(C7)
  6
Continuous
 62
     7
100
AcDbCircle
 10
25.5353430284
 20
432.6103973547
 30
0.0
 40
0.8122100951249116
100
AcDbArc
 50
177.8195729539
 51
182.1804270461
  0
ELLIPSE
  5
130
330
75
100
AcDbEntity
  8
$DDT_AUDIT_GENERATED_(C7)
  6
Continuous
 62
     7
100
AcDbEllipse
 10
33.2231327406
 20
432.6103973547
 30
0.0
 11
-8.500000000031196
 21
-9.575673587391975E-13
 31
0.0
210
0.0
220
0.0
230
1.0
 40
0.3090170766
 41
0.0117649772879987
 42
0.2500344105105655
  0
ARC
  5
131
330
75
100
AcDbEntity
  8
$DDT_AUDIT_GENERATED_(C7)
  6
Continuous
 62
     7
100
AcDbCircle
 10
27.5706786036
 20
432.6103973547
 30
0.0
 40
0.5975453786300708
100
AcDbArc
 50
177.0356601778
 51
180.0
  0
LINE
  5
132
330
75
100
AcDbEntity
  8
$DDT_AUDIT_GENERATED_(C7)
  6
Continuous
 62
     7
100
AcDbLine
 10
26.9739327918
 20
432.6412990624
 30
0.0
 11
26.9739327918
 21
433.0958447836
 31
0.0
  0
LINE
  5
133
330
75
100
AcDbEntity
  8
$DDT_AUDIT_GENERATED_(C7)
  6
Continuous
 62
     7
100
AcDbLine
 10
26.9739327918
 20
432.6412990624
 30
0.0
 11
24.7237209962
 21
432.6412990624
 31
0.0
  0
LINE
  5
134
330
75
100
AcDbEntity
  8
$DDT_AUDIT_GENERATED_(C7)
  6
Continuous
 62
     7
100
AcDbLine
 10
26.9731327406
 20
432.579495647
 30
0.0
 11
24.7237209962
 21
432.579495647
 31
0.0
  0
ELLIPSE
  5
135
330
75
100
AcDbEntity
  8
$DDT_AUDIT_GENERATED_(C7)
  6
Continuous
 62
     7
100
AcDbEllipse
 10
33.2231322846
 20
432.6103973925
 30
0.0
 11
-8.499999543795747
 21
-4.033336165054635E-8
 31
0.0
210
0.0
220
0.0
230
1.0
 40
0.309017084
 41
-0.2735643738220661
 42
-0.2500344185925778
  0
ELLIPSE
  5
136
330
75
100
AcDbEntity
  8
$DDT_AUDIT_GENERATED_(C7)
  6
Continuous
 62
     7
100
AcDbEllipse
 10
33.2231327406
 20
432.6103973547
 30
0.0
 11
-8.500000000037364
 21
2.331468351712829E-12
 31
0.0
210
0.0
220
0.0
230
1.0
 40
0.3090170766
 41
6.033150896669176
 42
6.271420329891682
  0
ELLIPSE
  5
137
330
75
100
AcDbEntity
  8
$DDT_AUDIT_GENERATED_(C7)
  6
Continuous
 62
     7
100
AcDbEllipse
 10
33.2231327964
 20
432.6103973501
 30
0.0
 11
-6.250000055913183
 21
4.946432152763691E-9
 31
0.0
210
0.0
220
0.0
230
1.0
 40
0.3090170753
 41
-0.27780006906863
 42
-0.2457987037260674
  0
LINE
  5
138
330
75
100
AcDbEntity
  8
$DDT_AUDIT_GENERATED_(C7)
  6
Continuous
 62
     7
100
AcDbLine
 10
27.2127510209
 20
433.1400540287
 30
0.0
 11
27.2127510209
 21
433.6470339042
 31
0.0
  0
LINE
  5
139
330
75
100
AcDbEntity
  8
$DDT_AUDIT_GENERATED_(C7)
  6
Continuous
 62
     7
100
AcDbLine
 10
27.2127510209
 20
433.1400540287
 30
0.0
 11
25.0392133329
 21
433.3200248535
 31
0.0
  0
LINE
  5
13A
330
75
100
AcDbEntity
  8
$DDT_AUDIT_GENERATED_(C7)
  6
Continuous
 62
     7
100
AcDbLine
 10
27.1609872119
 20
433.0803565137
 30
0.0
 11
24.9874495239
 21
433.2603273385
 31
0.0
  0
ELLIPSE
  5
13B
330
75
100
AcDbEntity
  8
$DDT_AUDIT_GENERATED_(C7)
  6
Continuous
 62
     7
100
AcDbEllipse
 10
33.2231327406
 20
432.6103973547
 30
0.0
 11
-8.500000000025111
 21
3.441691376337985E-12
 31
0.0
210
0.0
220
0.0
230
1.0
 40
0.3090170766
 41
-0.2968760504189518
 42
-0.2735643650867363
  0
ELLIPSE
  5
13C
330
75
100
AcDbEntity
  8
$DDT_AUDIT_GENERATED_(C7)
  6
Continuous
 62
     7
100
AcDbEllipse
 10
33.2231328023
 20
432.6103973437
 30
0.0
 11
-6.250000062390994
 21
1.055996956544902E-8
 31
0.0
210
0.0
220
0.0
230
1.0
 40
0.3090170757
 41
-0.5395994552583971
 42
-0.5075980899502266
  0
LINE
  5
13D
330
75
100
AcDbEntity
  8
$DDT_AUDIT_GENERATED_(C7)
  6
Continuous
 62
     7
100
AcDbLine
 10
27.8611668316
 20
433.602713768
 30
0.0
 11
27.8611668316
 21
434.2236347704
 31
0.0
  0
LINE
  5
13E
330
75
100
AcDbEntity
  8
$DDT_AUDIT_GENERATED_(C7)
  6
Continuous
 62
     7
100
AcDbLine
 10
27.8611668316
 20
433.602713768
 30
0.0
 11
26.025220688
 21
433.930266925
 31
0.0
  0
LINE
  5
13F
330
75
100
AcDbEntity
  8
$DDT_AUDIT_GENERATED_(C7)
  6
Continuous
 62
     7
100
AcDbLine
 10
27.7611668316
 20
433.5491904403
 30
0.0
 11
25.9145873036
 21
433.878640711
 31
0.0
  0
ELLIPSE
  5
140
330
75
100
AcDbEntity
  8
$DDT_AUDIT_GENERATED_(C7)
  6
Continuous
 62
     7
100
AcDbEllipse
 10
33.2231326973
 20
432.610397368
 30
0.0
 11
-6.249999954081429
 21
-1.043531927535923E-8
 31
0.0
210
0.0
220
0.0
230
1.0
 40
0.3090170766
 41
-0.8013988491892787
 42
-0.7693974835419759
  0
LINE
  5
141
330
75
100
AcDbEntity
  8
$DDT_AUDIT_GENERATED_(C7)
  6
Continuous
 62
     7
100
AcDbLine
 10
28.8749917579
 20
433.9977487837
 30
0.0
 11
28.8749917579
 21
434.7487823865
 31
0.0
  0
LINE
  5
142
330
75
100
AcDbEntity
  8
$DDT_AUDIT_GENERATED_(C7)
  6
Continuous
 62
     7
100
AcDbLine
 10
28.8749917579
 20
433.9977487837
 30
0.0
 11
27.4614363024
 21
434.4345615581
 31
0.0
  0
LINE
  5
143
330
75
100
AcDbEntity
  8
$DDT_AUDIT_GENERATED_(C7)
  6
Continuous
 62
     7
100
AcDbLine
 10
28.7335704017
 20
433.9540471696
 30
0.0
 11
27.3129304726
 21
434.3930491673
 31
0.0
  0
ELLIPSE
  5
144
330
75
100
AcDbEntity
  8
$DDT_AUDIT_GENERATED_(C7)
  6
Continuous
 62
     7
100
AcDbEllipse
 10
33.2231327694
 20
432.6103973392
 30
0.0
 11
-6.250000036035349
 21
8.551021002389803E-9
 31
0.0
210
0.0
220
0.0
230
1.0
 40
0.3090170773
 41
-1.063198231447021
 42
-1.031196866103993
  0
LINE
  5
145
330
75
100
AcDbEntity
  8
$DDT_AUDIT_GENERATED_(C7)
  6
Continuous
 62
     7
100
AcDbLine
 10
30.1851353065
 20
434.2982380921
 30
0.0
 11
30.1851353065
 21
434.9393968924
 31
0.0
  0
LINE
  5
146
330
75
100
AcDbEntity
  8
$DDT_AUDIT_GENERATED_(C7)
  6
Continuous
 62
     7
100
AcDbLine
 10
30.1851353065
 20
434.2982380921
 30
0.0
 11
29.2310510583
 21
434.8088957308
 31
0.0
  0
LINE
  5
147
330
75
100
AcDbEntity
  8
$DDT_AUDIT_GENERATED_(C7)
  6
Continuous
 62
     7
100
AcDbLine
 10
30.0119302258
 20
434.2673363845
 30
0.0
 11
29.0543059613
 21
434.7798887577
 31
0.0
  0
ELLIPSE
  5
148
330
75
100
AcDbEntity
  8
$DDT_AUDIT_GENERATED_(C7)
  6
Continuous
 62
     7
100
AcDbEllipse
 10
33.2231327557
 20
432.6103973373
 30
0.0
 11
-6.250000031189727
 21
4.992201096953863E-9
 31
0.0
210
0.0
220
0.0
230
1.0
 40
0.3090170778
 41
-1.32499762024896
 42
-1.292996254908031
  0
LINE
  5
149
330
75
100
AcDbEntity
  8
$DDT_AUDIT_GENERATED_(C7)
  6
Continuous
 62
     7
100
AcDbLine
 10
31.7023133598
 20
434.4837038436
 30
0.0
 11
31.7023133598
 21
435.067239906
 31
0.0
  0
LINE
  5
14A
330
75
100
AcDbEntity
  8
$DDT_AUDIT_GENERATED_(C7)
  6
Continuous
 62
     7
100
AcDbLine
 10
31.7023133598
 20
434.4837038436
 30
0.0
 11
31.2228842015
 21
435.036613877
 31
0.0
  0
LINE
  5
14B
330
75
100
AcDbEntity
  8
$DDT_AUDIT_GENERATED_(C7)
  6
Continuous
 62
     7
100
AcDbLine
 10
31.5091281945
 20
434.4677079427
 30
0.0
 11
31.0287509265
 21
435.0217114
 31
0.0
  0
ARC
  5
14C
330
75
100
AcDbEntity
  8
$DDT_AUDIT_GENERATED_(C7)
  6
Continuous
 62
     7
100
AcDbCircle
 10
33.2231327406
 20
424.5773246244
 30
0.0
 40
8.882871272601419
100
AcDbArc
 50
88.8711521508
 51
91.1288478492
  0
LINE
  5
14D
330
75
100
AcDbEntity
  8
$DDT_AUDIT_GENERATED_(C7)
  6
Continuous
 62
     7
100
AcDbLine
 10
33.3981327406
 20
433.4584719064
 30
0.0
 11
33.3981327406
 21
434.0416241584
 31
0.0
  0
LINE
  5
14E
330
75
100
AcDbEntity
  8
$DDT_AUDIT_GENERATED_(C7)
  6
Continuous
 62
     7
100
AcDbLine
 10
33.0481327406
 20
433.4584719064
 30
0.0
 11
33.0481327406
 21
434.0416241584
 31
0.0
  0
ELLIPSE
  5
14F
330
75
100
AcDbEntity
  8
$DDT_AUDIT_GENERATED_(C7)
  6
Continuous
 62
     7
100
AcDbEllipse
 10
33.2231327406
 20
432.6103973547
 30
0.0
 11
2.75000000001468
 21
3.635980405647387E-12
 31
0.0
210
0.0
220
0.0
230
1.0
 40
0.3090170766
 41
0.9835181589375258
 42
1.110876943451025
  0
LINE
  5
150
330
75
100
AcDbEntity
  8
$DDT_AUDIT_GENERATED_(C7)
  6
Continuous
 62
     7
100
AcDbLine
 10
34.4437913797
 20
433.9980652707
 30
0.0
 11
34.4437913797
 21
433.371890455
 31
0.0
  0
LINE
  5
151
330
75
100
AcDbEntity
  8
$DDT_AUDIT_GENERATED_(C7)
  6
Continuous
 62
     7
100
AcDbLine
 10
34.746900271
 20
433.3178124666
 30
0.0
 11
35.732312517
 21
433.8452378922
 31
0.0
  0
LINE
  5
152
330
75
100
AcDbEntity
  8
$DDT_AUDIT_GENERATED_(C7)
  6
Continuous
 62
     7
100
AcDbLine
 10
34.4437913797
 20
433.371890455
 30
0.0
 11
35.4189212565
 21
433.8938124145
 31
0.0
  0
ELLIPSE
  5
153
330
75
100
AcDbEntity
  8
$DDT_AUDIT_GENERATED_(C7)
  6
Continuous
 62
     7
100
AcDbEllipse
 10
33.2231327406
 20
432.6103973547
 30
0.0
 11
2.750000000006923
 21
1.360023205165817E-12
 31
0.0
210
0.0
220
0.0
230
1.0
 40
0.3090170766
 41
0.4599193833405966
 42
0.5872781678544451
  0
LINE
  5
154
330
75
100
AcDbEntity
  8
$DDT_AUDIT_GENERATED_(C7)
  6
Continuous
 62
     7
100
AcDbLine
 10
35.5123755222
 20
433.7275202937
 30
0.0
 11
35.5123755222
 21
433.0812675423
 31
0.0
  0
LINE
  5
155
330
75
100
AcDbEntity
  8
$DDT_AUDIT_GENERATED_(C7)
  6
Continuous
 62
     7
100
AcDbLine
 10
35.6873755222
 20
432.9876017188
 30
0.0
 11
37.5801437106
 21
433.3252925588
 31
0.0
  0
LINE
  5
156
330
75
100
AcDbEntity
  8
$DDT_AUDIT_GENERATED_(C7)
  6
Continuous
 62
     7
100
AcDbLine
 10
35.5123755222
 20
433.0812675423
 30
0.0
 11
37.3741894332
 21
433.4134357959
 31
0.0
  0
ELLIPSE
  5
157
330
75
100
AcDbEntity
  8
$DDT_AUDIT_GENERATED_(C7)
  6
Continuous
 62
     7
100
AcDbEllipse
 10
33.2231327405
 20
432.6103973547
 30
0.0
 11
-2.750000000097278
 21
0.0
 31
0.0
210
0.0
220
0.0
230
1.0
 40
0.3090170765
 41
3.141592653589793
 42
3.205272045845728
  0
LINE
  5
158
330
75
100
AcDbEntity
  8
$DDT_AUDIT_GENERATED_(C7)
  6
Continuous
 62
     7
100
AcDbLine
 10
35.9675589101
 20
433.0375895431
 30
0.0
 11
35.9675589101
 21
432.6644753431
 31
0.0
  0
LINE
  5
159
330
75
100
AcDbEntity
  8
$DDT_AUDIT_GENERATED_(C7)
  6
Continuous
 62
     7
100
AcDbLine
 10
35.9731327406
 20
432.5563193663
 30
0.0
 11
38.4546170012
 21
432.5563193663
 31
0.0
  0
LINE
  5
15A
330
75
100
AcDbEntity
  8
$DDT_AUDIT_GENERATED_(C7)
  6
Continuous
 62
     7
100
AcDbLine
 10
35.9675589101
 20
432.6644753431
 30
0.0
 11
38.4132726231
 21
432.6644753431
 31
0.0
  0
ELLIPSE
  5
15B
330
75
100
AcDbEntity
  8
$DDT_AUDIT_GENERATED_(C7)
  6
Continuous
 62
     7
100
AcDbEllipse
 10
33.2231327413
 20
432.6103973546
 30
0.0
 11
5.249999999248901
 21
1.300071161836058E-10
 31
0.0
210
0.0
220
0.0
230
1.0
 40
0.3090170766
 41
-0.556938284905323
 42
-0.4902592663772367
  0
LINE
  5
15C
330
75
100
AcDbEntity
  8
$DDT_AUDIT_GENERATED_(C7)
  6
Continuous
 62
     7
100
AcDbLine
 10
35.7634629142
 20
432.0947303912
 30
0.0
 11
37.679739501
 21
431.7528453922
 31
0.0
  0
LINE
  5
15D
330
75
100
AcDbEntity
  8
$DDT_AUDIT_GENERATED_(C7)
  6
Continuous
 62
     7
100
AcDbLine
 10
35.8784397778
 20
432.199105008
 30
0.0
 11
37.854739501
 21
431.8465112156
 31
0.0
  0
LINE
  5
15E
330
75
100
AcDbEntity
  8
$DDT_AUDIT_GENERATED_(C7)
  6
Continuous
 62
     7
100
AcDbLine
 10
37.854739501
 20
432.5563193663
 30
0.0
 11
37.854739501
 21
431.8465112156
 31
0.0
  0
ELLIPSE
  5
15F
330
75
100
AcDbEntity
  8
$DDT_AUDIT_GENERATED_(C7)
  6
Continuous
 62
     7
100
AcDbEllipse
 10
33.2231327417
 20
432.6103973541
 30
0.0
 11
5.249999998581862
 21
3.369249323981193E-10
 31
0.0
210
0.0
220
0.0
230
1.0
 40
0.3090170765
 41
-1.080537060578276
 42
-1.013858042041248
  0
LINE
  5
160
330
75
100
AcDbEntity
  8
$DDT_AUDIT_GENERATED_(C7)
  6
Continuous
 62
     7
100
AcDbLine
 10
34.7115100025
 20
431.7056123386
 30
0.0
 11
35.6951195563
 21
431.1791517739
 31
0.0
  0
LINE
  5
161
330
75
100
AcDbEntity
  8
$DDT_AUDIT_GENERATED_(C7)
  6
Continuous
 62
     7
100
AcDbLine
 10
34.9948687668
 20
431.7702612522
 30
0.0
 11
35.9982284476
 21
431.2332297623
 31
0.0
  0
LINE
  5
162
330
75
100
AcDbEntity
  8
$DDT_AUDIT_GENERATED_(C7)
  6
Continuous
 62
     7
100
AcDbLine
 10
35.9982284476
 20
432.052845616
 30
0.0
 11
35.9982284476
 21
431.2332297623
 31
0.0
  0
ARC
  5
163
330
75
100
AcDbEntity
  8
$DDT_AUDIT_GENERATED_(C7)
  6
Continuous
 62
     7
100
AcDbCircle
 10
33.2231327406
 20
447.9688704647
 30
0.0
 40
16.98081298859388
100
AcDbArc
 50
269.4095136129
 51
270.5904863871
  0
LINE
  5
164
330
75
100
AcDbEntity
  8
$DDT_AUDIT_GENERATED_(C7)
  6
Continuous
 62
     7
100
AcDbLine
 10
33.0481327406
 20
431.5721115051
 30
0.0
 11
33.0481327406
 21
430.9889592531
 31
0.0
  0
LINE
  5
165
330
75
100
AcDbEntity
  8
$DDT_AUDIT_GENERATED_(C7)
  6
Continuous
 62
     7
100
AcDbLine
 10
33.3981327406
 20
431.5721115051
 30
0.0
 11
33.3981327406
 21
430.9889592531
 31
0.0
  0
ELLIPSE
  5
166
330
75
100
AcDbEntity
  8
$DDT_AUDIT_GENERATED_(C7)
  6
Continuous
 62
     7
100
AcDbEllipse
 10
33.2231327408
 20
432.6103973548
 30
0.0
 11
-5.250000000273189
 21
-6.455946888195285E-11
 31
0.0
210
0.0
220
0.0
230
1.0
 40
0.3090170766
 41
1.013858041913886
 42
1.080537060433748
  0
LINE
  5
167
330
75
100
AcDbEntity
  8
$DDT_AUDIT_GENERATED_(C7)
  6
Continuous
 62
     7
100
AcDbLine
 10
31.4513967144
 20
431.7702612522
 30
0.0
 11
30.4480370336
 21
431.2332297623
 31
0.0
  0
LINE
  5
168
330
75
100
AcDbEntity
  8
$DDT_AUDIT_GENERATED_(C7)
  6
Continuous
 62
     7
100
AcDbLine
 10
31.7347554787
 20
431.7056123386
 30
0.0
 11
30.7511459249
 21
431.1791517739
 31
0.0
  0
LINE
  5
169
330
75
100
AcDbEntity
  8
$DDT_AUDIT_GENERATED_(C7)
  6
Continuous
 62
     7
100
AcDbLine
 10
30.4480370336
 20
432.052845616
 30
0.0
 11
30.4480370336
 21
431.2332297623
 31
0.0
  0
ELLIPSE
  5
16A
330
75
100
AcDbEntity
  8
$DDT_AUDIT_GENERATED_(C7)
  6
Continuous
 62
     7
100
AcDbEllipse
 10
33.223132741
 20
432.6103973548
 30
0.0
 11
-5.250000000461144
 21
-7.506495425246840E-11
 31
0.0
210
0.0
220
0.0
230
1.0
 40
0.3090170765
 41
0.4902592663126032
 42
0.5569382848318467
  0
LINE
  5
16B
330
75
100
AcDbEntity
  8
$DDT_AUDIT_GENERATED_(C7)
  6
Continuous
 62
     7
100
AcDbLine
 10
30.5678257033
 20
432.199105008
 30
0.0
 11
28.5915259802
 21
431.8465112156
 31
0.0
  0
LINE
  5
16C
330
75
100
AcDbEntity
  8
$DDT_AUDIT_GENERATED_(C7)
  6
Continuous
 62
     7
100
AcDbLine
 10
30.682802567
 20
432.0947303912
 30
0.0
 11
28.7665259802
 21
431.7528453922
 31
0.0
  0
LINE
  5
16D
330
75
100
AcDbEntity
  8
$DDT_AUDIT_GENERATED_(C7)
  6
Continuous
 62
     7
100
AcDbLine
 10
28.5915259802
 20
432.5563193663
 30
0.0
 11
28.5915259802
 21
431.8465112156
 31
0.0
  0
LINE
  5
16E
330
75
100
AcDbEntity
  8
$DDT_AUDIT_GENERATED_(C7)
  6
Continuous
 62
     7
100
AcDbLine
 10
30.478706571
 20
433.0375895431
 30
0.0
 11
30.478706571
 21
432.6644753431
 31
0.0
  0
ELLIPSE
  5
16F
330
75
100
AcDbEntity
  8
$DDT_AUDIT_GENERATED_(C7)
  6
Continuous
 62
     7
100
AcDbEllipse
 10
33.2231327406
 20
432.6103973547
 30
0.0
 11
2.749999999995787
 21
0.0
 31
0.0
210
0.0
220
0.0
230
1.0
 40
0.3090170766
 41
3.077913261332686
 42
3.141592653589793
  0
LINE
  5
170
330
75
100
AcDbEntity
  8
$DDT_AUDIT_GENERATED_(C7)
  6
Continuous
 62
     7
100
AcDbLine
 10
30.478706571
 20
432.6644753431
 30
0.0
 11
28.032992858
 21
432.6644753431
 31
0.0
  0
LINE
  5
171
330
75
100
AcDbEntity
  8
$DDT_AUDIT_GENERATED_(C7)
  6
Continuous
 62
     7
100
AcDbLine
 10
30.4731327406
 20
432.5563193663
 30
0.0
 11
27.99164848
 21
432.5563193663
 31
0.0
  0
LINE
  5
172
330
75
100
AcDbEntity
  8
$DDT_AUDIT_GENERATED_(C7)
  6
Continuous
 62
     7
100
AcDbLine
 10
30.9338899589
 20
433.7275202937
 30
0.0
 11
30.9338899589
 21
433.0812675423
 31
0.0
  0
ELLIPSE
  5
173
330
75
100
AcDbEntity
  8
$DDT_AUDIT_GENERATED_(C7)
  6
Continuous
 62
     7
100
AcDbEllipse
 10
33.2231327406
 20
432.6103973547
 30
0.0
 11
-2.749999999997117
 21
-2.914335439641036E-13
 31
0.0
210
0.0
220
0.0
230
1.0
 40
0.3090170766
 41
-0.5872781678556409
 42
-0.4599193833415205
  0
LINE
  5
174
330
75
100
AcDbEntity
  8
$DDT_AUDIT_GENERATED_(C7)
  6
Continuous
 62
     7
100
AcDbLine
 10
30.9338899589
 20
433.0812675423
 30
0.0
 11
29.0720760479
 21
433.4134357959
 31
0.0
  0
LINE
  5
175
330
75
100
AcDbEntity
  8
$DDT_AUDIT_GENERATED_(C7)
  6
Continuous
 62
     7
100
AcDbLine
 10
30.7588899589
 20
432.9876017188
 30
0.0
 11
28.8661217705
 21
433.3252925588
 31
0.0
  0
LINE
  5
176
330
75
100
AcDbEntity
  8
$DDT_AUDIT_GENERATED_(C7)
  6
Continuous
 62
     7
100
AcDbLine
 10
32.0024741015
 20
433.9980652707
 30
0.0
 11
32.0024741015
 21
433.371890455
 31
0.0
  0
ELLIPSE
  5
177
330
75
100
AcDbEntity
  8
$DDT_AUDIT_GENERATED_(C7)
  6
Continuous
 62
     7
100
AcDbEllipse
 10
33.2231327405
 20
432.6103973547
 30
0.0
 11
-2.749999999979742
 21
-4.732325642464730E-12
 31
0.0
210
0.0
220
0.0
230
1.0
 40
0.3090170766
 41
-1.110876943457114
 42
-0.9835181589423305
  0
LINE
  5
178
330
75
100
AcDbEntity
  8
$DDT_AUDIT_GENERATED_(C7)
  6
Continuous
 62
     7
100
AcDbLine
 10
32.0024741015
 20
433.371890455
 30
0.0
 11
31.0273442246
 21
433.8938124145
 31
0.0
  0
LINE
  5
179
330
75
100
AcDbEntity
  8
$DDT_AUDIT_GENERATED_(C7)
  6
Continuous
 62
     7
100
AcDbLine
 10
31.6993652101
 20
433.3178124666
 30
0.0
 11
30.7139529641
 21
433.8452378922
 31
0.0
  0
LINE
  5
17A
330
75
100
AcDbEntity
  8
$DDT_AUDIT_GENERATED_(C7)
  6
Continuous
 62
     7
100
AcDbLine
 10
24.2231327406
 20
434.1523820906
 30
0.0
 11
24.2231327406
 21
432.4201860568
 31
0.0
  0
LINE
  5
17B
330
75
100
AcDbEntity
  8
$DDT_AUDIT_GENERATED_(C7)
  6
Continuous
 62
     7
100
AcDbLine
 10
42.2231327406
 20
432.4201860568
 30
0.0
 11
42.2231327406
 21
434.1523820906
 31
0.0
  0
LINE
  5
17C
330
75
100
AcDbEntity
  8
$DDT_AUDIT_GENERATED_(C7)
  6
Continuous
 62
     7
100
AcDbLine
 10
26.9731327406
 20
432.6103973547
 30
0.0
 11
26.9731327406
 21
432.4201860568
 31
0.0
  0
LINE
  5
17D
330
75
100
AcDbEntity
  8
$DDT_AUDIT_GENERATED_(C7)
  6
Continuous
 62
     7
100
AcDbLine
 10
39.4731327406
 20
432.4201860568
 30
0.0
 11
39.4731327406
 21
432.6103973547
 31
0.0
  0
LINE
  5
17E
330
75
100
AcDbEntity
  8
$DDT_AUDIT_GENERATED_(C7)
  6
Continuous
 62
     7
100
AcDbLine
 10
30.4731327406
 20
432.6103973547
 30
0.0
 11
30.4731327406
 21
432.4201860568
 31
0.0
  0
LINE
  5
17F
330
75
100
AcDbEntity
  8
$DDT_AUDIT_GENERATED_(C7)
  6
Continuous
 62
     7
100
AcDbLine
 10
35.9731327406
 20
432.4201860568
 30
0.0
 11
35.9731327406
 21
432.6103973547
 31
0.0
  0
LINE
  5
180
330
75
100
AcDbEntity
  8
$DDT_AUDIT_GENERATED_(C7)
  6
Continuous
 62
     7
100
AcDbLine
 10
32.7035027967
 20
433.0648763142
 30
0.0
 11
32.7035027967
 21
432.6103973547
 31
0.0
  0
LINE
  5
181
330
75
100
AcDbEntity
  8
$DDT_AUDIT_GENERATED_(C7)
  6
Continuous
 62
     7
100
AcDbLine
 10
33.7427626845
 20
432.6103973547
 30
0.0
 11
33.7427626845
 21
433.0648763142
 31
0.0
  0
ARC
  5
183
330
75
100
AcDbEntity
  8
DV1_Default
  6
Continuous
 62
     7
100
AcDbCircle
 10
33.2231320492
 20
336.4990676037
 30
0.0
 40
120.7818021632157
100
AcDbArc
 50
81.7785446522
 51
98.2214553478
  0
LINE
  5
184
330
75
100
AcDbEntity
  8
DV1_Default
  6
Continuous
 62
     7
100
AcDbLine
 10
13.9483209767
 20
444.2462645116
 30
0.0
 11
21.033735949
 21
440.1149520451
 31
0.0
  0
LINE
  5
185
330
75
100
AcDbEntity
  8
DV1_Default
  6
Continuous
 62
     7
100
AcDbLine
 10
52.5233573188
 20
444.2546992888
 30
0.0
 11
45.406061282
 21
440.1033141271
 31
0.0
  0
ENDBLK
  5
187
330
75
100
AcDbEntity
  8
0
100
AcDbBlockEnd
  0
BLOCK
  5
1B9
330
188
100
AcDbEntity
  8
0
100
AcDbBlockBegin
  2
SE1
 70
     0
 10
0.0
 20
0.0
 30
0.0
  3
SE1
  1

  0
LINE
  5
18A
330
188
100
AcDbEntity
  8
491221038_SOCKEL
  6
Continuous
 62
     7
100
AcDbLine
 10
190.882575339
 20
385.6971599859
 30
0.0
 11
138.882575339
 21
385.6971599859
 31
0.0
  0
LINE
  5
18B
330
188
100
AcDbEntity
  8
491221038_SOCKEL
  6
Continuous
 62
     7
100
AcDbLine
 10
190.882575339
 20
341.6971599859
 30
0.0
 11
138.882575339
 21
341.6971599859
 31
0.0
  0
ARC
  5
18C
330
188
100
AcDbEntity
  8
491221038_SOCKEL
  6
Continuous
 62
     7
100
AcDbCircle
 10
216.9810457706
 20
369.3963799963
 30
0.0
 40
26.5454369954762
100
AcDbArc
 50
169.4708977421
 51
179.8903961964
  0
LINE
  5
18D
330
188
100
AcDbEntity
  8
491221038_SOCKEL
  6
Continuous
 62
     7
100
AcDbLine
 10
190.4356573449
 20
360.9471599859
 30
0.0
 11
190.4356573449
 21
369.4471599859
 31
0.0
  0
ARC
  5
18E
330
188
100
AcDbEntity
  8
491221038_SOCKEL
  6
Continuous
 62
     7
100
AcDbCircle
 10
216.9810457706
 20
360.9979399756
 30
0.0
 40
26.54543699547611
100
AcDbArc
 50
180.1096038036
 51
190.5291022579
  0
LINE
  5
18F
330
188
100
AcDbEntity
  8
491221038_SOCKEL
  6
Continuous
 62
     7
100
AcDbLine
 10
190.882575339
 20
374.2309322093
 30
0.0
 11
190.882575339
 21
385.6971599859
 31
0.0
  0
LINE
  5
190
330
188
100
AcDbEntity
  8
491221038_SOCKEL
  6
Continuous
 62
     7
100
AcDbLine
 10
190.882575339
 20
341.6971599859
 30
0.0
 11
190.882575339
 21
356.1633877626
 31
0.0
  0
LINE
  5
191
330
188
100
AcDbEntity
  8
491221038_SOCKEL
  6
Continuous
 62
     7
100
AcDbLine
 10
138.882575339
 20
385.6971599859
 30
0.0
 11
138.882575339
 21
341.6971599859
 31
0.0
  0
LINE
  5
192
330
188
100
AcDbEntity
  8
$DDT_AUDIT_GENERATED_(80)
  6
Continuous
 62
     7
100
AcDbLine
 10
190.8325740036
 20
356.5107046645
 30
0.0
 11
190.8325740036
 21
373.8836251003
 31
0.0
  0
LINE
  5
193
330
188
100
AcDbEntity
  8
$DDT_AUDIT_GENERATED_(8A)
  6
Continuous
 62
     7
100
AcDbLine
 10
138.882575339
 20
385.6971599859
 30
0.0
 11
165.3512713387
 21
385.6971599859
 31
0.0
  0
LINE
  5
194
330
188
100
AcDbEntity
  8
$DDT_AUDIT_GENERATED_(8A)
  6
Continuous
 62
     7
100
AcDbLine
 10
165.3512713387
 20
385.6971599859
 30
0.0
 11
165.5987262835
 21
385.6971599859
 31
0.0
  0
LINE
  5
195
330
188
100
AcDbEntity
  8
$DDT_AUDIT_GENERATED_(8A)
  6
Continuous
 62
     7
100
AcDbLine
 10
165.5987262835
 20
385.6971599859
 30
0.0
 11
190.882575339
 21
385.6971599859
 31
0.0
  0
SPLINE
  5
196
330
188
100
AcDbEntity
  8
$DDT_AUDIT_GENERATED_(8A)
  6
Continuous
 62
     7
100
AcDbSpline
210
0.0
220
0.0
230
1.0
 70
    12
 71
     3
 72
    26
 73
    22
 74
     0
 42
0.0000000001784091
 43
0.0000000001
 40
0.0
 40
0.0
 40
0.0
 40
0.0
 40
0.017588028811382
 40
0.0348635790700011
 40
0.1182647780090495
 40
0.18191303689521
 40
0.3636260806784229
 40
0.3705335257537634
 40
0.4631853791183552
 40
0.5451846642599358
 40
0.5674518323490575
 40
0.6142922963425425
 40
0.6987303068564951
 40
0.7267879878337709
 40
0.7954736515806312
 40
0.8049717591951874
 40
0.8123547281955348
 40
0.9085452942601647
 40
0.977709935203229
 40
0.9995048736663025
 40
1.0
 40
1.0
 40
1.0
 40
1.0
 10
190.8825753389654
 20
385.6971599859477
 30
0.0
 41
0.999999999999837
 10
190.879867532613
 20
386.0576909974396
 30
0.0
 41
0.999999999999837
 10
190.8759407670859
 20
386.7615516159191
 30
0.0
 41
0.9999999999998375
 10
190.8747057531959
 20
389.0853410883067
 30
0.0
 41
0.9999999999998397
 10
190.9309308964195
 20
392.0923794181625
 30
0.0
 41
0.9999999999998432
 10
191.3460458482482
 20
397.9461492185717
 30
0.0
 41
0.9999999999998503
 10
192.182294656101
 20
402.7046604142133
 30
0.0
 41
0.9999999999998563
 10
193.9120559555125
 20
407.6933184464634
 30
0.0
 41
0.999999999999863
 10
195.2991789572754
 20
410.8027110935748
 30
0.0
 41
0.9999999999998674
 10
197.2906206606722
 20
413.8942136047682
 30
0.0
 41
0.9999999999998721
 10
199.0305659170376
 20
416.1093200538603
 30
0.0
 41
0.9999999999998759
 10
200.9337428774476
 20
418.2528220102843
 30
0.0
 41
0.9999999999998794
 10
203.1440393394517
 20
420.2593512230137
 30
0.0
 41
0.9999999999998834
 10
205.8321183182047
 20
422.3178791772335
 30
0.0
 41
0.9999999999998879
 10
207.4873346047185
 20
423.4106392124903
 30
0.0
 41
0.9999999999998903
 10
208.861380512026
 20
424.2228055099571
 30
0.0
 41
0.9999999999998925
 10
210.6883720700395
 20
425.2769079313034
 30
0.0
 41
0.9999999999998954
 10
213.5820430003569
 20
426.7098024466924
 30
0.0
 41
0.9999999999998996
 10
216.826792572871
 20
427.9972364807288
 30
0.0
 41
0.9999999999999045
 10
218.4354577466749
 20
428.5633613514399
 30
0.0
 41
0.9999999999999067
 10
218.8287903237573
 20
428.6977335887818
 30
0.0
 41
0.9999999999999074
 10
218.8375279879022
 20
428.7007166033646
 30
0.0
 41
0.9999999999999074
  0
ARC
  5
197
330
188
100
AcDbEntity
  8
$DDT_AUDIT_GENERATED_(8A)
  6
Continuous
 62
     7
100
AcDbCircle
 10
357.7362707016
 20
-15.3202973844
 30
0.0
 40
463.2250112046208
100
AcDbArc
 50
100.1430094739
 51
100.5223854812
  0
ARC
  5
198
330
188
100
AcDbEntity
  8
$DDT_AUDIT_GENERATED_(8A)
  6
Continuous
 62
     7
100
AcDbCircle
 10
289.4999250313
 20
449.5935099586
 30
0.0
 40
2.999999867903843
100
AcDbArc
 50
29.2554075896
 51
73.171163601
  0
ARC
  5
199
330
188
100
AcDbEntity
  8
$DDT_AUDIT_GENERATED_(8A)
  6
Continuous
 62
     7
100
AcDbCircle
 10
141.1325749197
 20
488.6772842493
 30
0.0
 40
2.250000821311088
100
AcDbArc
 50
70.528994666
 51
180.0000027924
  0
SPLINE
  5
19A
330
188
100
AcDbEntity
  8
$DDT_AUDIT_GENERATED_(8A)
  6
Continuous
 62
     7
100
AcDbSpline
210
0.0
220
0.0
230
1.0
 70
    12
 71
     3
 72
    14
 73
    10
 74
     0
 42
0.0000000002513506
 43
0.0000000001
 40
0.0
 40
0.0
 40
0.0
 40
0.0
 40
0.0028270816903349
 40
0.1272722329122483
 40
0.3833187452131421
 40
0.3853964626344379
 40
0.6393911739849748
 40
0.8955129545913644
 40
1.0
 40
1.0
 40
1.0
 40
1.0
 10
218.8375279879022
 20
428.7007166033646
 30
0.0
 41
0.9999999999999074
 10
218.8729699158628
 20
428.7128163803984
 30
0.0
 41
0.9999999999999074
 10
220.4689861051555
 20
429.2562181754158
 30
0.0
 41
0.9999999999999092
 10
225.3374195274294
 20
430.7149213666362
 30
0.0
 41
0.9999999999999147
 10
230.3074811557015
 20
431.7328344204496
 30
0.0
 41
0.9999999999999201
 10
237.016646717383
 20
432.7339595362002
 30
0.0
 41
0.9999999999999274
 10
243.7817793940964
 20
433.379416483462
 30
0.0
 41
0.9999999999999345
 10
251.8345856947168
 20
434.1356500435012
 30
0.0
 41
0.999999999999943
 10
256.6674929726608
 20
434.4507817182038
 30
0.0
 41
0.9999999999999479
 10
258.0586725525333
 20
434.5594926600157
 30
0.0
 41
0.9999999999999494
  0
LINE
  5
19B
330
188
100
AcDbEntity
  8
$DDT_AUDIT_GENERATED_(8A)
  6
Continuous
 62
     7
100
AcDbLine
 10
263.6450970285
 20
436.097342086
 30
0.0
 11
260.2542328042
 21
434.9955831883
 31
0.0
  0
ARC
  5
19C
330
188
100
AcDbEntity
  8
$DDT_AUDIT_GENERATED_(8A)
  6
Continuous
 62
     7
100
AcDbCircle
 10
277.0868119221
 20
419.6288717422
 30
0.0
 40
20.86237953354131
100
AcDbArc
 50
100.8987661074
 51
115.9900392778
  0
SPLINE
  5
19D
330
188
100
AcDbEntity
  8
$DDT_AUDIT_GENERATED_(8A)
  6
Continuous
 62
     7
100
AcDbSpline
210
0.0
220
0.0
230
1.0
 70
     8
 71
     3
 72
    14
 73
    10
 74
     0
 42
0.00000000205167
 43
0.0000000001
 40
0.0
 40
0.0
 40
0.0
 40
0.0
 40
0.25
 40
0.25
 40
0.5
 40
0.5
 40
0.75
 40
0.75
 40
1.0
 40
1.0
 40
1.0
 40
1.0
 10
267.9446066289503
 20
438.3814438905517
 30
0.0
 10
267.4450659587778
 20
438.1354589246803
 30
0.0
 10
266.9870440760186
 20
437.8884109963897
 30
0.0
 10
266.1389239347363
 20
437.4140902444834
 30
0.0
 10
265.7489156017227
 20
437.1866835493931
 30
0.0
 10
265.029799094633
 20
436.7725095028868
 30
0.0
 10
264.6992034506367
 20
436.5850387866371
 30
0.0
 10
264.1176637329139
 20
436.2840795280604
 30
0.0
 10
263.8637897990972
 20
436.1683996954605
 30
0.0
 10
263.6450970284754
 20
436.0973420859704
 30
0.0
  0
ARC
  5
19E
330
188
100
AcDbEntity
  8
$DDT_AUDIT_GENERATED_(8A)
  6
Continuous
 62
     7
100
AcDbCircle
 10
257.3167625901
 20
444.0397212806
 30
0.0
 40
9.50921474628269
100
AcDbArc
 50
274.4747705227
 51
287.9934192897
  0
ARC
  5
19F
330
188
100
AcDbEntity
  8
$DDT_AUDIT_GENERATED_(8A)
  6
Continuous
 62
     7
100
AcDbCircle
 10
268.9511017524
 20
484.4307002813
 30
0.0
 40
44.35529806700973
100
AcDbArc
 50
279.3531711515
 51
285.9937184824
  0
SPLINE
  5
1A0
330
188
100
AcDbEntity
  8
$DDT_AUDIT_GENERATED_(8A)
  6
Continuous
 62
     7
100
AcDbSpline
210
0.0
220
0.0
230
1.0
 70
    12
 71
     3
 72
     9
 73
     5
 74
     0
 42
0.0000000020946636
 43
0.0000000001
 40
0.0
 40
0.0
 40
0.0
 40
0.0
 40
0.3362081614092752
 40
1.0
 40
1.0
 40
1.0
 40
1.0
 10
292.6712282304425
 20
446.5033670791322
 30
0.0
 41
0.8508627128547135
 10
292.8019844361137
 20
447.011131266988
 30
0.0
 41
0.8408019636160867
 10
293.0309583812176
 20
448.6079123779978
 30
0.0
 41
0.8258398800122037
 10
292.6240021819236
 20
450.1549937634105
 30
0.0
 41
0.8553802366262109
 10
292.1172745769957
 20
451.0596206511814
 30
0.0
 41
0.8945975318850858
  0
LINE
  5
1A1
330
188
100
AcDbEntity
  8
$DDT_AUDIT_GENERATED_(8A)
  6
Continuous
 62
     7
100
AcDbLine
 10
288.1548243882
 20
444.0610375958
 30
0.0
 11
281.17240432
 21
441.7923111213
 31
0.0
  0
LINE
  5
1A2
330
188
100
AcDbEntity
  8
$DDT_AUDIT_GENERATED_(8A)
  6
Continuous
 62
     7
100
AcDbLine
 10
291.3524561851
 20
445.1000114534
 30
0.0
 11
288.1548243882
 21
444.0610375958
 31
0.0
  0
ARC
  5
1A3
330
188
100
AcDbEntity
  8
$DDT_AUDIT_GENERATED_(8A)
  6
Continuous
 62
     7
100
AcDbCircle
 10
290.7344165096
 20
447.0021214802
 30
0.0
 40
1.999998898639109
100
AcDbArc
 50
287.9999231111
 51
345.5593306822
  0
LINE
  5
1A4
330
188
100
AcDbEntity
  8
$DDT_AUDIT_GENERATED_(8A)
  6
Continuous
 62
     7
100
AcDbLine
 10
138.882575339
 20
488.6822841397
 30
0.0
 11
138.882575339
 21
385.6946599859
 31
0.0
  0
SPLINE
  5
1A5
330
188
100
AcDbEntity
  8
$DDT_AUDIT_GENERATED_(8A)
  6
Continuous
 62
     7
100
AcDbSpline
210
0.0
220
0.0
230
1.0
 70
     8
 71
     3
 72
    31
 73
    27
 74
     0
 42
0.0000000000651365
 43
0.0000000001
 40
0.0
 40
0.0
 40
0.0
 40
0.0
 40
0.0170880679007375
 40
0.039710228505656
 40
0.0605926871885552
 40
0.0802683605168473
 40
0.0992795420093731
 40
0.1181777771094132
 40
0.1374027372530436
 40
0.156936766032439
 40
0.2187660247753563
 40
0.280007411311813
 40
0.3895564777991131
 40
0.4990376648738168
 40
0.5687074433464371
 40
0.6382585098397474
 40
0.7077908819866999
 40
0.7772286438090064
 40
0.8184539835103803
 40
0.8591859767329714
 40
0.8985830118173691
 40
0.9175643343023866
 40
0.9375443863215194
 40
0.959014282017751
 40
0.9824190999209874
 40
1.0
 40
1.0
 40
1.0
 40
1.0
 10
290.3688853498323
 20
452.4663421107892
 30
0.0
 10
289.4482293836035
 20
452.7449175748496
 30
0.0
 10
287.6390698593017
 20
453.292230252709
 30
0.0
 10
284.6079421651228
 20
454.220560343945
 30
0.0
 10
281.5336574769705
 20
455.1596473997068
 30
0.0
 10
278.6106807845568
 20
456.0406066007027
 30
0.0
 10
275.7838495409601
 20
456.8688035100797
 30
0.0
 10
272.9685288806151
 20
457.6588960270374
 30
0.0
 10
270.1170828613396
 20
458.4168081444329
 30
0.0
 10
265.1281578211029
 20
459.6843762754862
 30
0.0
 10
258.0278226133538
 20
461.3705762028417
 30
0.0
 10
246.4164411618516
 20
463.9929604196991
 30
0.0
 10
232.3852972160911
 20
466.9653279585901
 30
0.0
 10
217.9152647556772
 20
469.9445193736649
 30
0.0
 10
205.4456387315593
 20
472.4876240708509
 30
0.0
 10
194.9860456525275
 20
474.6640146463055
 30
0.0
 10
184.6317273925458
 20
477.2538422270883
 30
0.0
 10
175.7530291068612
 20
479.7440210012829
 30
0.0
 10
168.3005705739834
 20
481.8604224598802
 30
0.0
 10
162.3402888235918
 20
483.6049723789818
 30
0.0
 10
157.5230876475385
 20
485.1969878211797
 30
0.0
 10
153.7434261590619
 20
486.5316721267127
 30
0.0
 10
150.8298250634199
 20
487.581500349685
 30
0.0
 10
147.7277029646433
 20
488.7061522657693
 30
0.0
 10
144.6540623824047
 20
489.8157865798505
 30
0.0
 10
142.8147346170109
 20
490.4663179598278
 30
0.0
 10
141.8817225244897
 20
490.7962228769631
 30
0.0
  0
LINE
  5
1A6
330
188
100
AcDbEntity
  8
$DDT_AUDIT_GENERATED_(B3)
  6
Continuous
 62
     7
100
AcDbLine
 10
286.9995644645
 20
436.0625692697
 30
0.0
 11
266.6283003837
 21
429.4435423866
 31
0.0
  0
ELLIPSE
  5
1A7
330
188
100
AcDbEntity
  8
$DDT_AUDIT_GENERATED_(B3)
  6
Continuous
 62
     7
100
AcDbEllipse
 10
277.5977292716
 20
430.3407778835
 30
0.0
 11
-11.35085920330729
 21
-3.688118808646987
 31
0.0
210
0.0
220
0.0
230
1.0
 40
0.5773502692
 41
4.308562891223916
 42
5.116215069545484
  0
LINE
  5
1A8
330
188
100
AcDbEntity
  8
$DDT_AUDIT_GENERATED_(B3)
  6
Continuous
 62
     7
100
AcDbLine
 10
280.0998689824
 20
437.8162782147
 30
0.0
 11
281.035955065
 21
434.9353023358
 31
0.0
  0
LINE
  5
1A9
330
188
100
AcDbEntity
  8
$DDT_AUDIT_GENERATED_(B3)
  6
Continuous
 62
     7
100
AcDbLine
 10
272.1155521667
 20
432.0368868837
 30
0.0
 11
271.1794660841
 21
434.9178627625
 31
0.0
  0
SPLINE
  5
1AA
330
188
100
AcDbEntity
  8
$DDT_AUDIT_GENERATED_(B3)
  6
Continuous
 62
     7
100
AcDbSpline
210
0.0
220
0.0
230
1.0
 70
     8
 71
     3
 72
    12
 73
     8
 74
     0
 42
0.0000000398432805
 43
0.0000000001
 40
0.0
 40
0.0
 40
0.0
 40
0.0
 40
0.500000000000005
 40
0.500000000000005
 40
0.7500000000000024
 40
0.7500000000000024
 40
1.0
 40
1.0
 40
1.0
 40
1.0
 10
272.3404793389076
 20
431.9733812201615
 30
0.0
 10
272.2995651568557
 20
431.9693291771509
 30
0.0
 10
272.2576643653648
 20
431.9683630131786
 30
0.0
 10
272.1966754081297
 20
431.978264983371
 30
0.0
 10
272.1762831121986
 20
431.9834970670956
 30
0.0
 10
272.1391112306727
 20
432.0023318711641
 30
0.0
 10
272.1220304092088
 20
432.0169489093408
 30
0.0
 10
272.1155521667472
 20
432.0368868836529
 30
0.0
  0
SPLINE
  5
1AB
330
188
100
AcDbEntity
  8
$DDT_AUDIT_GENERATED_(B3)
  6
Continuous
 62
     7
100
AcDbSpline
210
0.0
220
0.0
230
1.0
 70
     8
 71
     3
 72
    12
 73
     8
 74
     0
 42
0.0000000398474798
 43
0.0000000001
 40
0.0
 40
0.0
 40
0.0
 40
0.0
 40
0.2499999999999999
 40
0.2499999999999999
 40
0.4999999999999998
 40
0.4999999999999998
 40
1.0
 40
1.0
 40
1.0
 40
1.0
 10
281.0359550649863
 20
434.935302335773
 30
0.0
 10
281.0423813718852
 20
434.9155242026403
 30
0.0
 10
281.0372536434033
 20
434.8937266425003
 30
0.0
 10
281.0185147995671
 20
434.856885364291
 30
0.0
 10
281.0050782763582
 20
434.8405252404318
 30
0.0
 10
280.9613932551712
 20
434.7964006201617
 30
0.0
 10
280.9268870459763
 20
434.772540814611
 30
0.0
 10
280.8913128843583
 20
434.7517162751221
 30
0.0
  0
SPLINE
  5
1AC
330
188
100
AcDbEntity
  8
$DDT_AUDIT_GENERATED_(B3)
  6
Continuous
 62
     7
100
AcDbSpline
210
0.0
220
0.0
230
1.0
 70
     8
 71
     3
 72
    14
 73
    10
 74
     0
 42
0.0000000011024152
 43
0.0000000001
 40
0.0
 40
0.0
 40
0.0
 40
0.0
 40
0.2500000000000001
 40
0.2500000000000001
 40
0.5000000000000001
 40
0.5000000000000001
 40
0.75
 40
0.75
 40
1.0
 40
1.0
 40
1.0
 40
1.0
 10
280.8913128843583
 20
434.7517162751221
 30
0.0
 10
280.2389949577156
 20
434.3698598995421
 30
0.0
 10
279.563844841984
 20
434.0139698042016
 30
0.0
 10
278.1918203041802
 20
433.384969076107
 30
0.0
 10
277.4916426329517
 20
433.1099533048231
 30
0.0
 10
276.0608229655581
 20
432.6448379147379
 30
0.0
 10
275.3301744623533
 20
432.4547564336361
 30
0.0
 10
273.8399328573038
 20
432.1552735441653
 30
0.0
 10
273.089610175845
 20
432.0475733515818
 30
0.0
 10
272.3404793389076
 20
431.9733812201615
 30
0.0
  0
LINE
  5
1AD
330
188
100
AcDbEntity
  8
$DDT_AUDIT_GENERATED_(B3)
  6
Continuous
 62
     7
100
AcDbLine
 10
271.1794660841
 20
434.9178627625
 30
0.0
 11
280.0998689824
 21
437.8162782147
 31
0.0
  0
LINE
  5
1AE
330
188
100
AcDbEntity
  8
$DDT_AUDIT_GENERATED_(B3)
  6
Continuous
 62
     7
100
AcDbLine
 10
263.2226993651
 20
435.9600967251
 30
0.0
 11
265.2248944126
 21
429.7979758011
 31
0.0
  0
LINE
  5
1AF
330
188
100
AcDbEntity
  8
$DDT_AUDIT_GENERATED_(B3)
  6
Continuous
 62
     7
100
AcDbLine
 10
287.9266128192
 20
437.1742134184
 30
0.0
 11
285.9244177717
 21
443.3363343424
 31
0.0
  0
ARC
  5
1B0
330
188
100
AcDbEntity
  8
$DDT_AUDIT_GENERATED_(B3)
  6
Continuous
 62
     7
100
AcDbCircle
 10
287.7839543457
 20
437.1278608569
 30
0.0
 40
0.1499999999999991
100
AcDbArc
 50
318.0000049507
 51
18.0000049507
  0
LINE
  5
1B1
330
188
100
AcDbEntity
  8
$DDT_AUDIT_GENERATED_(B3)
  6
Continuous
 62
     7
100
AcDbLine
 10
265.3363661451
 20
429.6976062197
 30
0.0
 11
266.5507610813
 21
429.4394787173
 31
0.0
  0
LINE
  5
1B2
330
188
100
AcDbEntity
  8
$DDT_AUDIT_GENERATED_(B3)
  6
Continuous
 62
     7
100
AcDbLine
 10
287.0646836355
 20
436.1048581618
 30
0.0
 11
287.8954260782
 21
437.0274912756
 31
0.0
  0
ARC
  5
1B3
330
188
100
AcDbEntity
  8
$DDT_AUDIT_GENERATED_(B3)
  6
Continuous
 62
     7
100
AcDbCircle
 10
266.5819478223
 20
429.5862008601
 30
0.0
 40
0.1500000000000042
100
AcDbArc
 50
258.0000049507
 51
288.0000049507
  0
ARC
  5
1B4
330
188
100
AcDbEntity
  8
$DDT_AUDIT_GENERATED_(B3)
  6
Continuous
 62
     7
100
AcDbCircle
 10
286.953211903
 20
436.2052277431
 30
0.0
 40
0.1499999999999914
100
AcDbArc
 50
288.0000049507
 51
318.0000049507
  0
ARC
  5
1B5
330
188
100
AcDbEntity
  8
$DDT_AUDIT_GENERATED_(B3)
  6
Continuous
 62
     7
100
AcDbCircle
 10
265.367552886
 20
429.8443283625
 30
0.0
 40
0.1500000000000046
100
AcDbArc
 50
198.0000049507
 51
258.0000049507
  0
LINE
  5
1B6
330
188
100
AcDbEntity
  8
$DDT_AUDIT_GENERATED_(C7)
  6
Continuous
 62
     7
100
AcDbLine
 10
285.4815968073
 20
435.2013397457
 30
0.0
 11
268.3625799946
 21
429.6390323678
 31
0.0
  0
LINE
  5
1B7
330
188
100
AcDbEntity
  8
$DDT_AUDIT_GENERATED_(C7)
  6
Continuous
 62
     7
100
AcDbLine
 10
268.2544240178
 20
429.9719021392
 30
0.0
 11
268.3625799946
 21
429.6390323678
 31
0.0
  0
LINE
  5
1B8
330
188
100
AcDbEntity
  8
$DDT_AUDIT_GENERATED_(C7)
  6
Continuous
 62
     7
100
AcDbLine
 10
285.4815968073
 20
435.2013397457
 30
0.0
 11
285.3734408305
 21
435.5342095171
 31
0.0
  0
ENDBLK
  5
1BA
330
188
100
AcDbEntity
  8
0
100
AcDbBlockEnd
  0
BLOCK
  5
1F2
330
1BB
100
AcDbEntity
  8
0
100
AcDbBlockBegin
  2
SE2
 70
     0
 10
0.0
 20
0.0
 30
0.0
  3
SE2
  1

  0
ARC
  5
1BD
330
1BB
100
AcDbEntity
  8
491221038_SOCKEL
  6
Continuous
 62
     7
100
AcDbCircle
 10
33.2231327406
 20
234.35
 30
0.0
 40
26.0
100
AcDbArc
 50
357.307795389
 51
0.0
  0
ARC
  5
1BE
330
1BB
100
AcDbEntity
  8
491221038_SOCKEL
  6
Continuous
 62
     7
100
AcDbCircle
 10
33.2231327406
 20
234.35
 30
0.0
 40
26.0
100
AcDbArc
 50
182.4907788893
 51
182.9141676096
  0
ARC
  5
1BF
330
1BB
100
AcDbEntity
  8
491221038_SOCKEL
  6
Continuous
 62
     7
100
AcDbCircle
 10
33.2231327406
 20
234.35
 30
0.0
 40
26.0
100
AcDbArc
 50
177.6665948454
 51
181.593216141
  0
ARC
  5
1C0
330
1BB
100
AcDbEntity
  8
491221038_SOCKEL
  6
Continuous
 62
     7
100
AcDbCircle
 10
33.2231327406
 20
234.35
 30
0.0
 40
26.0
100
AcDbArc
 50
155.9376612169
 51
160.5625743216
  0
ARC
  5
1C1
330
1BB
100
AcDbEntity
  8
491221038_SOCKEL
  6
Continuous
 62
     7
100
AcDbCircle
 10
33.2231327406
 20
234.35
 30
0.0
 40
26.0
100
AcDbArc
 50
150.4421110495
 51
155.7153698608
  0
ARC
  5
1C2
330
1BB
100
AcDbEntity
  8
491221038_SOCKEL
  6
Continuous
 62
     7
100
AcDbCircle
 10
33.2231327406
 20
234.35
 30
0.0
 40
26.0
100
AcDbArc
 50
144.9323707821
 51
150.3331775961
  0
ARC
  5
1C3
330
1BB
100
AcDbEntity
  8
491221038_SOCKEL
  6
Continuous
 62
     7
100
AcDbCircle
 10
33.2231327406
 20
234.35
 30
0.0
 40
26.0
100
AcDbArc
 50
73.8498830984
 51
90.7620032313
  0
ARC
  5
1C4
330
1BB
100
AcDbEntity
  8
491221038_SOCKEL
  6
Continuous
 62
     7
100
AcDbCircle
 10
33.2231327406
 20
234.35
 30
0.0
 40
26.0
100
AcDbArc
 50
57.0481245693
 51
72.9518754307
  0
ARC
  5
1C5
330
1BB
100
AcDbEntity
  8
491221038_SOCKEL
  6
Continuous
 62
     7
100
AcDbCircle
 10
33.2231327406
 20
234.35
 30
0.0
 40
26.0
100
AcDbArc
 50
35.6648016275
 51
56.1501169016
  0
ARC
  5
1C6
330
1BB
100
AcDbEntity
  8
491221038_SOCKEL
  6
Continuous
 62
     7
100
AcDbCircle
 10
33.2231327406
 20
234.35
 30
0.0
 40
26.0
100
AcDbArc
 50
31.0313800496
 51
35.4292165369
  0
ARC
  5
1C7
330
1BB
100
AcDbEntity
  8
491221038_SOCKEL
  6
Continuous
 62
     7
100
AcDbCircle
 10
33.2231327406
 20
234.35
 30
0.0
 40
26.0
100
AcDbArc
 50
18.3628535808
 51
19.0497727808
  0
ARC
  5
1C8
330
1BB
100
AcDbEntity
  8
491221038_SOCKEL
  6
Continuous
 62
     7
100
AcDbCircle
 10
33.2231327406
 20
234.35
 30
0.0
 40
26.0
100
AcDbArc
 50
0.0
 51
2.438704386
  0
LINE
  5
1C9
330
1BB
100
AcDbEntity
  8
$DDT_AUDIT_GENERATED_(87)
  6
Continuous
 62
     7
100
AcDbLine
 10
61.4721327406
 20
250.85
 30
0.0
 11
53.316664038
 21
250.85
 31
0.0
  0
LINE
  5
1CA
330
1BB
100
AcDbEntity
  8
$DDT_AUDIT_GENERATED_(87)
  6
Continuous
 62
     7
100
AcDbLine
 10
58.8307487952
 20
238.85
 30
0.0
 11
61.4721327406
 21
238.85
 31
0.0
  0
ARC
  5
1CB
330
1BB
100
AcDbEntity
  8
$DDT_AUDIT_GENERATED_(8A)
  6
Continuous
 62
     7
100
AcDbCircle
 10
33.2231329163
 20
234.3500000219
 30
0.0
 40
26.00000028824131
100
AcDbArc
 50
90.0000003874
 51
181.5783690884
  0
ARC
  5
1CC
330
1BB
100
AcDbEntity
  8
$DDT_AUDIT_GENERATED_(8A)
  6
Continuous
 62
     7
100
AcDbCircle
 10
33.2231325194
 20
234.3500000867
 30
0.0
 40
26.0000002234552
100
AcDbArc
 50
32.2548850214
 51
36.0618444133
  0
ARC
  5
1CD
330
1BB
100
AcDbEntity
  8
$DDT_AUDIT_GENERATED_(8A)
  6
Continuous
 62
     7
100
AcDbCircle
 10
33.2231325194
 20
234.3500000867
 30
0.0
 40
26.0000002234552
100
AcDbArc
 50
358.4216307028
 51
18.8539840282
  0
ARC
  5
1CE
330
1BB
100
AcDbEntity
  8
$DDT_AUDIT_GENERATED_(8A)
  6
Continuous
 62
     7
100
AcDbCircle
 10
-1940.027772477
 20
288.7223793938
 30
0.0
 40
1999.999870968314
100
AcDbArc
 50
357.5821917062
 51
358.4216301398
  0
ARC
  5
1CF
330
1BB
100
AcDbEntity
  8
$DDT_AUDIT_GENERATED_(8A)
  6
Continuous
 62
     7
100
AcDbCircle
 10
-1940.0279022303
 20
288.7223832772
 30
0.0
 40
2000.000000779389
100
AcDbArc
 50
358.4062138571
 51
358.410806815
  0
ARC
  5
1D0
330
1BB
100
AcDbEntity
  8
$DDT_AUDIT_GENERATED_(8A)
  6
Continuous
 62
     7
100
AcDbCircle
 10
2006.473843657
 20
288.7223719717
 30
0.0
 40
1999.999676536421
100
AcDbArc
 50
181.5870956705
 51
181.5929261164
  0
ARC
  5
1D1
330
1BB
100
AcDbEntity
  8
$DDT_AUDIT_GENERATED_(8A)
  6
Continuous
 62
     7
100
AcDbCircle
 10
2006.4756936807
 20
288.7224447711
 30
0.0
 40
2000.001527975422
100
AcDbArc
 50
181.578370425
 51
182.4178081698
  0
ELLIPSE
  5
1D2
330
1BB
100
AcDbEntity
  8
$DDT_AUDIT_GENERATED_(8A)
  6
Continuous
 62
     7
100
AcDbEllipse
 10
55.1942978438
 20
204.4765587384
 30
0.0
 11
2.997333414852914
 21
-0.126558755857771
 31
0.0
210
0.0
220
0.0
230
1.0
 40
0.2039851688
 41
6.127042546397755
 42
6.283185307179515
  0
ELLIPSE
  5
1D3
330
1BB
100
AcDbEntity
  8
$DDT_AUDIT_GENERATED_(8A)
  6
Continuous
 62
     7
100
AcDbEllipse
 10
11.2519532291
 20
204.4766092703
 30
0.0
 11
2.997318904055323
 21
0.1266117285796987
 31
0.0
210
0.0
220
0.0
230
0.9999999999999998
 40
0.2040025828
 41
3.1415889896309
 42
3.29772993485263
  0
ARC
  5
1D4
330
1BB
100
AcDbEntity
  8
$DDT_AUDIT_GENERATED_(8A)
  6
Continuous
 62
     7
100
AcDbCircle
 10
-1568.0242106585
 20
265.8315264583
 30
0.0
 40
1627.377592886186
100
AcDbArc
 50
355.123006524
 51
357.8348783768
  0
SPLINE
  5
1D5
330
1BB
100
AcDbEntity
  8
$DDT_AUDIT_GENERATED_(8A)
  6
Continuous
 62
     7
100
AcDbSpline
210
0.0
220
0.0
230
1.0
 70
     8
 71
     3
 72
    31
 73
    27
 74
     0
 42
0.0000000003077576
 43
0.0000000001
 40
0.0
 40
0.0
 40
0.0
 40
0.0
 40
0.048522585829073
 40
0.0931643226156864
 40
0.1343482443037998
 40
0.1724300236778275
 40
0.2188775117555335
 40
0.260887011356255
 40
0.2988758205424243
 40
0.3331488342451904
 40
0.3639224818345678
 40
0.3913453421123437
 40
0.4155153259202467
 40
0.4365105112353129
 40
0.4580244211920605
 40
0.4882145242617756
 40
0.5232304937409192
 40
0.5631745413850954
 40
0.6082019137367807
 40
0.6585228219444379
 40
0.7046915775467132
 40
0.7548933586097939
 40
0.8093200155617655
 40
0.8681744595163335
 40
0.9316649845075065
 40
1.0
 40
1.0
 40
1.0
 40
1.0
 10
33.2231327405653
 20
106.3510395382862
 30
0.0
 10
33.80114645080343
 20
106.3595698637374
 30
0.0
 10
34.73569148210598
 20
106.3783162878233
 30
0.0
 10
36.21231259084701
 20
106.5278013422931
 30
0.0
 10
37.53022572907714
 20
106.7488665428197
 30
0.0
 10
38.85804448146383
 20
107.0612782167844
 30
0.0
 10
40.16694814583808
 20
107.471004120714
 30
0.0
 10
41.43909473674022
 20
107.9818677008366
 30
0.0
 10
42.55186935425149
 20
108.5257770748207
 30
0.0
 10
43.52033440322754
 20
109.0816896164308
 30
0.0
 10
44.35792513860532
 20
109.631688664855
 30
0.0
 10
45.07673308611282
 20
110.1606237389494
 30
0.0
 10
45.68761791824274
 20
110.6558695628077
 30
0.0
 10
46.22984986100766
 20
111.1331048862001
 30
0.0
 10
46.801025746034
 20
111.6753127298452
 30
0.0
 10
47.45263566455827
 20
112.352315592683
 30
0.0
 10
48.19606704052824
 20
113.2157866115008
 30
0.0
 10
48.9821779417676
 20
114.2515162927293
 30
0.0
 10
49.78857931840419
 20
115.4759545594398
 30
0.0
 10
50.53894117618664
 20
116.813309723606
 30
0.0
 10
51.22112885477052
 20
118.2483448633912
 30
0.0
 10
51.82699622283634
 20
119.7641522218331
 30
0.0
 10
52.37663871534728
 20
121.4487255218115
 30
0.0
 10
52.84733454879455
 20
123.2927455626231
 30
0.0
 10
53.23462085596326
 20
125.3586082613566
 30
0.0
 10
53.37466305303916
 20
126.6696992211323
 30
0.0
 10
53.45664005610587
 20
127.4770192268836
 30
0.0
  0
ARC
  5
1D6
330
1BB
100
AcDbEntity
  8
$DDT_AUDIT_GENERATED_(8A)
  6
Continuous
 62
     7
100
AcDbCircle
 10
1651.1866601047
 20
266.860058017
 30
0.0
 40
1644.120746425018
100
AcDbArc
 50
182.1802206407
 51
184.8631811389
  0
SPLINE
  5
1D7
330
1BB
100
AcDbEntity
  8
$DDT_AUDIT_GENERATED_(8A)
  6
Continuous
 62
     7
100
AcDbSpline
210
0.0
220
0.0
230
1.0
 70
     8
 71
     3
 72
    33
 73
    29
 74
     0
 42
0.0000000003077775
 43
0.0000000001
 40
0.0
 40
0.0
 40
0.0
 40
0.0
 40
0.0588236985428131
 40
0.1132271379100073
 40
0.1633774903372459
 40
0.2094361454763645
 40
0.2515554985339585
 40
0.2898759332554727
 40
0.3245233112294697
 40
0.355607204764787
 40
0.3832200179445172
 40
0.407437038785842
 40
0.4284127891238216
 40
0.450363964466609
 40
0.4755206537313458
 40
0.5038772248407665
 40
0.5354488586476281
 40
0.5702835060648097
 40
0.6084776800833933
 40
0.6501968290929842
 40
0.6839556396320929
 40
0.7199960819148191
 40
0.7585204362113616
 40
0.7997879067145663
 40
0.8441241321151568
 40
0.891930853887648
 40
0.943695436565412
 40
1.0
 40
1.0
 40
1.0
 40
1.0
 10
12.98995155159134
 20
127.4770192268836
 30
0.0
 10
13.05897204525819
 20
126.7821144695345
 30
0.0
 10
13.17577661313957
 20
125.6562557055881
 30
0.0
 10
13.48152422926253
 20
123.8826001184483
 30
0.0
 10
13.84264084634047
 20
122.3026611788211
 30
0.0
 10
14.25468212053651
 20
120.8619194737104
 30
0.0
 10
14.69928759733326
 20
119.5674926214977
 30
0.0
 10
15.16263858646075
 20
118.4108114819284
 30
0.0
 10
15.63113987538951
 20
117.3861699492459
 30
0.0
 10
16.09246780160743
 20
116.4866698159504
 30
0.0
 10
16.5353660254503
 20
115.705453660125
 30
0.0
 10
16.95025332529665
 20
115.0348109467547
 30
0.0
 10
17.35395506008849
 20
114.4298267238189
 30
0.0
 10
17.78357101393301
 20
113.8303684100485
 30
0.0
 10
18.28440314109608
 20
113.1842209456773
 30
0.0
 10
18.880546603605
 20
112.4810907157721
 30
0.0
 10
19.58330097276817
 20
111.7324315568892
 30
0.0
 10
20.40542690959978
 20
110.9519604229397
 30
0.0
 10
21.36116206658641
 20
110.1560296558365
 30
0.0
 10
22.36290954434281
 20
109.4381633892612
 30
0.0
 10
23.3917670166185
 20
108.8040517496708
 30
0.0
 10
24.42877952408099
 20
108.2535504764423
 30
0.0
 10
25.57547427028783
 20
107.7418645138369
 30
0.0
 10
26.84005009484906
 20
107.2832518515436
 30
0.0
 10
28.23466903130857
 20
106.893033888024
 30
0.0
 10
29.75753758162974
 20
106.5913967337134
 30
0.0
 10
31.46814641487129
 20
106.388310724674
 30
0.0
 10
32.55243163721511
 20
106.36276303
 30
0.0
 10
33.2231327405653
 20
106.3511762514413
 30
0.0
  0
ARC
  5
1D8
330
1BB
100
AcDbEntity
  8
$DDT_AUDIT_GENERATED_(8A)
  6
Continuous
 62
     7
100
AcDbCircle
 10
131.1526460288
 20
208.76975877
 30
0.0
 40
122.9746285947512
100
AcDbArc
 50
182.0739672773
 51
182.4383913575
  0
ARC
  5
1D9
330
1BB
100
AcDbEntity
  8
$DDT_AUDIT_GENERATED_(8A)
  6
Continuous
 62
     7
100
AcDbCircle
 10
-64.7063805475
 20
208.76975877
 30
0.0
 40
122.9746285945972
100
AcDbArc
 50
357.5616086425
 51
357.9292103424
  0
ARC
  5
1DA
330
1BB
100
AcDbEntity
  8
$DDT_AUDIT_GENERATED_(8A)
  6
Continuous
 62
     7
100
AcDbCircle
 10
25.6215929466
 20
230.7164525531
 30
0.0
 40
34.38172707432399
100
AcDbArc
 50
20.4796819558
 51
30.6160580344
  0
ARC
  5
1DB
330
1BB
100
AcDbEntity
  8
$DDT_AUDIT_GENERATED_(8A)
  6
Continuous
 62
     7
100
AcDbCircle
 10
12.1046823135
 20
203.8919467612
 30
0.0
 40
3.826968317807496
100
AcDbArc
 50
174.534384493
 51
182.2142706769
  0
ARC
  5
1DC
330
1BB
100
AcDbEntity
  8
$DDT_AUDIT_GENERATED_(8A)
  6
Continuous
 62
     7
100
AcDbCircle
 10
54.3415831676
 20
203.8919467612
 30
0.0
 40
3.826968317811349
100
AcDbArc
 50
357.7857293231
 51
5.465615507
  0
LINE
  5
1DD
330
1BB
100
AcDbEntity
  8
$DDT_AUDIT_GENERATED_(A5)
  6
Continuous
 62
     7
100
AcDbLine
 10
62.6721327406
 20
239.53
 30
0.0
 11
62.6721327406
 21
239.5305140125
 31
0.0
  0
LINE
  5
1DE
330
1BB
100
AcDbEntity
  8
$DDT_AUDIT_GENERATED_(A5)
  6
Continuous
 62
     7
100
AcDbLine
 10
77.011398163
 20
237.2254868797
 30
0.0
 11
70.1946368012
 21
237.0469837013
 31
0.0
  0
LINE
  5
1DF
330
1BB
100
AcDbEntity
  8
$DDT_AUDIT_GENERATED_(A5)
  6
Continuous
 62
     7
100
AcDbLine
 10
70.1946368012
 20
237.0469837013
 30
0.0
 11
62.6721327406
 21
236.85
 31
0.0
  0
LINE
  5
1E0
330
1BB
100
AcDbEntity
  8
$DDT_AUDIT_GENERATED_(A5)
  6
Continuous
 62
     7
100
AcDbLine
 10
78.4721327406
 20
239.6502506226
 30
0.0
 11
78.4721327406
 21
238.7249728672
 31
0.0
  0
LINE
  5
1E1
330
1BB
100
AcDbEntity
  8
$DDT_AUDIT_GENERATED_(A5)
  6
Continuous
 62
     7
100
AcDbLine
 10
78.4721327406
 20
249.3768412452
 30
0.0
 11
78.4721327406
 21
250.9750271328
 31
0.0
  0
LINE
  5
1E2
330
1BB
100
AcDbEntity
  8
$DDT_AUDIT_GENERATED_(A5)
  6
Continuous
 62
     7
100
AcDbLine
 10
78.4721327406
 20
249.3768412452
 30
0.0
 11
78.4721327406
 21
239.6502506226
 31
0.0
  0
ARC
  5
1E3
330
1BB
100
AcDbEntity
  8
$DDT_AUDIT_GENERATED_(A5)
  6
Continuous
 62
     7
100
AcDbCircle
 10
76.9721327406
 20
238.7249728672
 30
0.0
 40
1.499999999999994
100
AcDbArc
 50
271.5
 51
0.0
  0
LINE
  5
1E4
330
1BB
100
AcDbEntity
  8
$DDT_AUDIT_GENERATED_(A5)
  6
Continuous
 62
     7
100
AcDbLine
 10
61.4721327406
 20
251.65
 30
0.0
 11
61.4721327406
 21
249.8756953642
 31
0.0
  0
LINE
  5
1E5
330
1BB
100
AcDbEntity
  8
$DDT_AUDIT_GENERATED_(A5)
  6
Continuous
 62
     7
100
AcDbLine
 10
61.4721327406
 20
239.83
 30
0.0
 11
61.4721327406
 21
249.8756953642
 31
0.0
  0
LINE
  5
1E6
330
1BB
100
AcDbEntity
  8
$DDT_AUDIT_GENERATED_(A5)
  6
Continuous
 62
     7
100
AcDbLine
 10
61.4721327406
 20
238.05
 30
0.0
 11
61.4721327406
 21
238.35
 31
0.0
  0
LINE
  5
1E7
330
1BB
100
AcDbEntity
  8
$DDT_AUDIT_GENERATED_(A5)
  6
Continuous
 62
     7
100
AcDbLine
 10
61.4721327406
 20
238.35
 30
0.0
 11
61.4721327406
 21
239.53
 31
0.0
  0
LINE
  5
1E8
330
1BB
100
AcDbEntity
  8
$DDT_AUDIT_GENERATED_(A5)
  6
Continuous
 62
     7
100
AcDbLine
 10
61.4721327406
 20
239.53
 30
0.0
 11
61.4721327406
 21
239.83
 31
0.0
  0
ARC
  5
1E9
330
1BB
100
AcDbEntity
  8
$DDT_AUDIT_GENERATED_(A5)
  6
Continuous
 62
     7
100
AcDbCircle
 10
62.6721327406
 20
238.05
 30
0.0
 40
1.2
100
AcDbArc
 50
180.0
 51
270.0
  0
LINE
  5
1EA
330
1BB
100
AcDbEntity
  8
$DDT_AUDIT_GENERATED_(A5)
  6
Continuous
 62
     7
100
AcDbLine
 10
77.011398163
 20
252.4745131203
 30
0.0
 11
62.6721327406
 21
252.85
 31
0.0
  0
ARC
  5
1EB
330
1BB
100
AcDbEntity
  8
$DDT_AUDIT_GENERATED_(A5)
  6
Continuous
 62
     7
100
AcDbCircle
 10
76.9721327406
 20
250.9750271328
 30
0.0
 40
1.499999999999994
100
AcDbArc
 50
0.0
 51
88.5
  0
ARC
  5
1EC
330
1BB
100
AcDbEntity
  8
$DDT_AUDIT_GENERATED_(A5)
  6
Continuous
 62
     7
100
AcDbCircle
 10
62.6721327406
 20
251.65
 30
0.0
 40
1.2
100
AcDbArc
 50
90.0
 51
180.0
  0
LINE
  5
1EE
330
1BB
100
AcDbEntity
  8
$DDT_AUDIT_GENERATED_(1ED)
  6
Continuous
 62
     7
100
AcDbLine
 10
47.7307841285
 20
255.9969524692
 30
0.0
 11
47.0192105868
 21
256.3287646611
 31
0.0
  0
LINE
  5
1EF
330
1BB
100
AcDbEntity
  8
$DDT_AUDIT_GENERATED_(1ED)
  6
Continuous
 62
     7
100
AcDbLine
 10
41.2516208494
 20
259.0182359247
 30
0.0
 11
40.4803218322
 21
259.3778985632
 31
0.0
  0
LINE
  5
1F0
330
1BB
100
AcDbEntity
  8
$DDT_AUDIT_GENERATED_(1ED)
  6
Continuous
 62
     7
100
AcDbLine
 10
40.4803218322
 20
259.3778985632
 30
0.0
 11
40.4289749535
 21
259.2677848263
 31
0.0
  0
LINE
  5
1F1
330
1BB
100
AcDbEntity
  8
$DDT_AUDIT_GENERATED_(1ED)
  6
Continuous
 62
     7
100
AcDbLine
 10
47.6800958892
 20
255.8882511892
 30
0.0
 11
47.7307841285
 21
255.9969524692
 31
0.0
  0
ENDBLK
  5
1F3
330
1BB
100
AcDbEntity
  8
0
100
AcDbBlockEnd
  0
ENDSEC
  0
SECTION
  2
ENTITIES
  0
INSERT
  5
5F
330
1F
100
AcDbEntity
  8
Default
100
AcDbBlockReference
  2
SEANNOT_GROUP
 10
0.0
 20
0.0
 30
0.0
  0
INSERT
  5
6A
330
1F
100
AcDbEntity
  8
Default
100
AcDbBlockReference
  2
SEANNOT_GROUP1
 10
0.0
 20
0.0
 30
0.0
  0
INSERT
  5
70
330
1F
100
AcDbEntity
  8
Default
100
AcDbBlockReference
  2
SEANNOT_GROUP2
 10
0.0
 20
0.0
 30
0.0
  0
INSERT
  5
76
330
1F
100
AcDbEntity
  8
Default
100
AcDbBlockReference
  2
SE
 10
0.0
 20
0.0
 30
0.0
  0
INSERT
  5
189
330
1F
100
AcDbEntity
  8
Default
100
AcDbBlockReference
  2
SE1
 10
0.0
 20
0.0
 30
0.0
  0
INSERT
  5
1BC
330
1F
100
AcDbEntity
  8
Default
100
AcDbBlockReference
  2
SE2
 10
0.0
 20
0.0
 30
0.0
  0
TEXT
  5
1F5
330
1F
100
AcDbEntity
  8
Default
  6
Continuous
 62
     7
100
AcDbText
 10
5.9362635081
 20
53.4225120485
 30
0.0
 40
10.0
  1
Grohe AG
  7
SEACAD_seiso_ttf
 11
5.9362635081
 21
63.4225120485
 31
0.0
100
AcDbText
 73
     3
  0
TEXT
  5
1F6
330
1F
100
AcDbEntity
  8
Default
  6
Continuous
 62
     7
100
AcDbText
 10
5.9362635081
 20
37.0588756849
 30
0.0
 40
10.0
  1
36207001
  7
SEACAD_seiso_ttf
 11
5.9362635081
 21
47.0588756849
 31
0.0
100
AcDbText
 73
     3
  0
TEXT
  5
1F7
330
1F
100
AcDbEntity
  8
Default
  6
Continuous
 62
     7
100
AcDbText
 10
5.9362635081
 20
20.6952393213
 30
0.0
 40
10.0
  1
ecn: not available
  7
SEACAD_seiso_ttf
 11
5.9362635081
 21
30.6952393213
 31
0.0
100
AcDbText
 73
     3
  0
TEXT
  5
1F8
330
1F
100
AcDbEntity
  8
Default
  6
Continuous
 62
     7
100
AcDbText
 10
5.9362635081
 20
4.3316029576
 30
0.0
 40
10.0
  1
unit: mm
  7
SEACAD_seiso_ttf
 11
5.9362635081
 21
14.3316029576
 31
0.0
100
AcDbText
 73
     3
  0
LINE
  5
1F9
330
1F
100
AcDbEntity
  8
Default
  6
Continuous
 62
     7
100
AcDbLine
 10
0.0
 20
0.0
 30
0.0
 11
100.0
 21
0.0
 31
0.0
  0
LINE
  5
1FA
330
1F
100
AcDbEntity
  8
Default
  6
Continuous
 62
     7
100
AcDbLine
 10
0.0
 20
0.0
 30
0.0
 11
0.0
 21
100.0
 31
0.0
  0
TEXT
  5
1FB
330
1F
100
AcDbEntity
  8
Default
  6
Continuous
 62
     7
100
AcDbText
 10
24.3923665681
 20
-18.2375342018
 30
0.0
 40
10.0
  1
100 mm
  7
SEACAD_seiso_ttf
 11
24.3923665681
 21
-8.2375342018
 31
0.0
100
AcDbText
 73
     3
  0
TEXT
  5
1FC
330
1F
100
AcDbEntity
  8
Default
  6
Continuous
 62
     7
100
AcDbText
 10
-7.6150308803
 20
24.6231930421
 30
0.0
 40
10.0
  1
100 mm
 50
90.0
  7
SEACAD_seiso_ttf
 11
-17.6150308803
 21
24.6231930421
 31
0.0
100
AcDbText
 73
     3
  0
ENDSEC
  0
SECTION
  2
OBJECTS
  0
DICTIONARY
  5
C
330
0
100
AcDbDictionary
281
     1
  3
ACAD_GROUP
350
D
  3
ACAD_LAYOUT
350
1A
  3
ACAD_MLEADERSTYLE
350
200
  3
ACAD_MLINESTYLE
350
17
  3
ACAD_PLOTSETTINGS
350
19
  3
ACAD_PLOTSTYLENAME
350
E
  3
ACAD_SCALELIST
350
3B
  3
ACAD_TABLESTYLE
350
1FF
  3
ACAD_VISUALSTYLE
350
2A
  3
AcDbVariableDictionary
350
1FD
  0
DICTIONARY
  5
D
102
{ACAD_REACTORS
330
C
102
}
330
C
100
AcDbDictionary
281
     1
  0
DICTIONARY
  5
1A
102
{ACAD_REACTORS
330
C
102
}
330
C
100
AcDbDictionary
281
     1
  3
Layout1
350
1E
  3
Model
350
22
  0
DICTIONARY
  5
200
102
{ACAD_REACTORS
330
C
102
}
330
C
100
AcDbDictionary
281
     1
  0
DICTIONARY
  5
17
102
{ACAD_REACTORS
330
C
102
}
330
C
100
AcDbDictionary
281
     1
  3
Standard
350
18
  0
DICTIONARY
  5
19
102
{ACAD_REACTORS
330
C
102
}
330
C
100
AcDbDictionary
281
     1
  0
ACDBDICTIONARYWDFLT
  5
E
102
{ACAD_REACTORS
330
C
102
}
330
C
100
AcDbDictionary
281
     1
  3
Normal
350
F
100
AcDbDictionaryWithDefault
340
F
  0
DICTIONARY
  5
3B
102
{ACAD_REACTORS
330
C
102
}
330
C
100
AcDbDictionary
281
     1
  3
A0
350
3C
  3
A1
350
3D
  3
A2
350
3E
  3
A3
350
3F
  3
A4
350
40
  3
A5
350
41
  3
A6
350
42
  3
A7
350
43
  3
A8
350
44
  3
A9
350
45
  3
B0
350
46
  3
B1
350
47
  3
B2
350
48
  3
B3
350
49
  3
B4
350
4A
  3
B5
350
4B
  3
B6
350
4C
  3
B7
350
4D
  3
B8
350
4E
  3
B9
350
4F
  3
C0
350
50
  3
C1
350
51
  3
C2
350
52
  3
C3
350
53
  3
C4
350
54
  3
C5
350
55
  3
C6
350
56
  3
C7
350
57
  3
C8
350
58
  3
C9
350
59
  3
D0
350
5A
  3
D1
350
5B
  3
D2
350
5C
  0
DICTIONARY
  5
1FF
102
{ACAD_REACTORS
330
C
102
}
330
C
100
AcDbDictionary
281
     1
  0
DICTIONARY
  5
2A
102
{ACAD_REACTORS
330
C
102
}
330
C
100
AcDbDictionary
281
     1
  3
2dWireframe
350
2F
  3
3D Hidden
350
31
  3
3dWireframe
350
30
  3
Basic
350
32
  3
Brighten
350
36
  3
ColorChange
350
3A
  3
Conceptual
350
34
  3
Dim
350
35
  3
Facepattern
350
39
  3
Flat
350
2B
  3
FlatWithEdges
350
2C
  3
Gouraud
350
2D
  3
GouraudWithEdges
350
2E
  3
Linepattern
350
38
  3
Realistic
350
33
  3
Thicken
350
37
  0
DICTIONARY
  5
1FD
102
{ACAD_REACTORS
330
C
102
}
330
C
100
AcDbDictionary
281
     1
  3
CANNOSCALE
350
1FE
  3
PSOLHEIGHT
350
202
  3
PSOLWIDTH
350
201
  0
LAYOUT
  5
1E
102
{ACAD_REACTORS
330
1A
102
}
330
1A
100
AcDbPlotSettings
  1

  2
none_device
  4

  6

 40
0.0
 41
0.0
 42
0.0
 43
0.0
 44
0.0
 45
0.0
 46
0.0
 47
0.0
 48
0.0
 49
0.0
140
0.0
141
0.0
142
1.0
143
1.0
 70
   688
 72
     0
 73
     0
 74
     5
  7

 75
    16
147
1.0
148
0.0
149
0.0
100
AcDbLayout
  1
Layout1
 70
     1
 71
     1
 10
0.0
 20
0.0
 11
3000.0
 21
4500.0
 12
0.0
 22
0.0
 32
0.0
 14
0.0
 24
0.0
 34
0.0
 15
3000.0
 25
4500.0
 35
0.0
146
0.0
 13
0.0
 23
0.0
 33
0.0
 16
1.0
 26
0.0
 36
0.0
 17
0.0
 27
1.0
 37
0.0
 76
     0
330
1B
  0
LAYOUT
  5
22
102
{ACAD_REACTORS
330
1A
102
}
330
1A
100
AcDbPlotSettings
  1

  2
none_device
  4

  6

 40
0.0
 41
0.0
 42
0.0
 43
0.0
 44
0.0
 45
0.0
 46
0.0
 47
0.0
 48
0.0
 49
0.0
140
0.0
141
0.0
142
1.0
143
1.0
 70
  1712
 72
     0
 73
     0
 74
     0
  7

 75
     0
147
1.0
148
0.0
149
0.0
100
AcDbLayout
  1
Model
 70
     1
 71
     0
 10
0.0
 20
0.0
 11
3000.0
 21
4500.0
 12
0.0
 22
0.0
 32
0.0
 14
0.0
 24
0.0
 34
0.0
 15
3000.0
 25
4500.0
 35
0.0
146
0.0
 13
0.0
 23
0.0
 33
0.0
 16
1.0
 26
0.0
 36
0.0
 17
0.0
 27
1.0
 37
0.0
 76
     0
330
1F
331
29
  0
MLINESTYLE
  5
18
102
{ACAD_REACTORS
330
17
102
}
330
17
100
AcDbMlineStyle
  2
Standard
 70
     0
  3

 62
   256
 51
90.0
 52
90.0
 71
     2
 49
0.5
 62
   256
  6
BYLAYER
 49
-0.5
 62
   256
  6
BYLAYER
  0
ACDBPLACEHOLDER
  5
F
102
{ACAD_REACTORS
330
E
102
}
330
E
  0
SCALE
  5
3C
102
{ACAD_REACTORS
330
3B
102
}
330
3B
100
AcDbScale
 70
     0
300
1:1
140
1.0
141
1.0
290
     1
  0
SCALE
  5
3D
102
{ACAD_REACTORS
330
3B
102
}
330
3B
100
AcDbScale
 70
     0
300
1:2
140
1.0
141
2.0
290
     0
  0
SCALE
  5
3E
102
{ACAD_REACTORS
330
3B
102
}
330
3B
100
AcDbScale
 70
     0
300
1:4
140
1.0
141
4.0
290
     0
  0
SCALE
  5
3F
102
{ACAD_REACTORS
330
3B
102
}
330
3B
100
AcDbScale
 70
     0
300
1:5
140
1.0
141
5.0
290
     0
  0
SCALE
  5
40
102
{ACAD_REACTORS
330
3B
102
}
330
3B
100
AcDbScale
 70
     0
300
1:8
140
1.0
141
8.0
290
     0
  0
SCALE
  5
41
102
{ACAD_REACTORS
330
3B
102
}
330
3B
100
AcDbScale
 70
     0
300
1:10
140
1.0
141
10.0
290
     0
  0
SCALE
  5
42
102
{ACAD_REACTORS
330
3B
102
}
330
3B
100
AcDbScale
 70
     0
300
1:16
140
1.0
141
16.0
290
     0
  0
SCALE
  5
43
102
{ACAD_REACTORS
330
3B
102
}
330
3B
100
AcDbScale
 70
     0
300
1:20
140
1.0
141
20.0
290
     0
  0
SCALE
  5
44
102
{ACAD_REACTORS
330
3B
102
}
330
3B
100
AcDbScale
 70
     0
300
1:30
140
1.0
141
30.0
290
     0
  0
SCALE
  5
45
102
{ACAD_REACTORS
330
3B
102
}
330
3B
100
AcDbScale
 70
     0
300
1:40
140
1.0
141
40.0
290
     0
  0
SCALE
  5
46
102
{ACAD_REACTORS
330
3B
102
}
330
3B
100
AcDbScale
 70
     0
300
1:50
140
1.0
141
50.0
290
     0
  0
SCALE
  5
47
102
{ACAD_REACTORS
330
3B
102
}
330
3B
100
AcDbScale
 70
     0
300
1:100
140
1.0
141
100.0
290
     0
  0
SCALE
  5
48
102
{ACAD_REACTORS
330
3B
102
}
330
3B
100
AcDbScale
 70
     0
300
2:1
140
2.0
141
1.0
290
     0
  0
SCALE
  5
49
102
{ACAD_REACTORS
330
3B
102
}
330
3B
100
AcDbScale
 70
     0
300
4:1
140
4.0
141
1.0
290
     0
  0
SCALE
  5
4A
102
{ACAD_REACTORS
330
3B
102
}
330
3B
100
AcDbScale
 70
     0
300
8:1
140
8.0
141
1.0
290
     0
  0
SCALE
  5
4B
102
{ACAD_REACTORS
330
3B
102
}
330
3B
100
AcDbScale
 70
     0
300
10:1
140
10.0
141
1.0
290
     0
  0
SCALE
  5
4C
102
{ACAD_REACTORS
330
3B
102
}
330
3B
100
AcDbScale
 70
     0
300
100:1
140
100.0
141
1.0
290
     0
  0
SCALE
  5
4D
102
{ACAD_REACTORS
330
3B
102
}
330
3B
100
AcDbScale
 70
     0
300
1/128" = 1'-0"
140
0.0078125
141
12.0
290
     0
  0
SCALE
  5
4E
102
{ACAD_REACTORS
330
3B
102
}
330
3B
100
AcDbScale
 70
     0
300
1/64" = 1'-0"
140
0.015625
141
12.0
290
     0
  0
SCALE
  5
4F
102
{ACAD_REACTORS
330
3B
102
}
330
3B
100
AcDbScale
 70
     0
300
1/32" = 1'-0"
140
0.03125
141
12.0
290
     0
  0
SCALE
  5
50
102
{ACAD_REACTORS
330
3B
102
}
330
3B
100
AcDbScale
 70
     0
300
1/16" = 1'-0"
140
0.0625
141
12.0
290
     0
  0
SCALE
  5
51
102
{ACAD_REACTORS
330
3B
102
}
330
3B
100
AcDbScale
 70
     0
300
3/32" = 1'-0"
140
0.09375
141
12.0
290
     0
  0
SCALE
  5
52
102
{ACAD_REACTORS
330
3B
102
}
330
3B
100
AcDbScale
 70
     0
300
1/8" = 1'-0"
140
0.125
141
12.0
290
     0
  0
SCALE
  5
53
102
{ACAD_REACTORS
330
3B
102
}
330
3B
100
AcDbScale
 70
     0
300
3/16" = 1'-0"
140
0.1875
141
12.0
290
     0
  0
SCALE
  5
54
102
{ACAD_REACTORS
330
3B
102
}
330
3B
100
AcDbScale
 70
     0
300
1/4" = 1'-0"
140
0.25
141
12.0
290
     0
  0
SCALE
  5
55
102
{ACAD_REACTORS
330
3B
102
}
330
3B
100
AcDbScale
 70
     0
300
3/8" = 1'-0"
140
0.375
141
12.0
290
     0
  0
SCALE
  5
56
102
{ACAD_REACTORS
330
3B
102
}
330
3B
100
AcDbScale
 70
     0
300
1/2" = 1'-0"
140
0.5
141
12.0
290
     0
  0
SCALE
  5
57
102
{ACAD_REACTORS
330
3B
102
}
330
3B
100
AcDbScale
 70
     0
300
3/4" = 1'-0"
140
0.75
141
12.0
290
     0
  0
SCALE
  5
58
102
{ACAD_REACTORS
330
3B
102
}
330
3B
100
AcDbScale
 70
     0
300
1" = 1'-0"
140
1.0
141
12.0
290
     0
  0
SCALE
  5
59
102
{ACAD_REACTORS
330
3B
102
}
330
3B
100
AcDbScale
 70
     0
300
1-1/2" = 1'-0"
140
1.5
141
12.0
290
     0
  0
SCALE
  5
5A
102
{ACAD_REACTORS
330
3B
102
}
330
3B
100
AcDbScale
 70
     0
300
3" = 1'-0"
140
3.0
141
12.0
290
     0
  0
SCALE
  5
5B
102
{ACAD_REACTORS
330
3B
102
}
330
3B
100
AcDbScale
 70
     0
300
6" = 1'-0"
140
6.0
141
12.0
290
     0
  0
SCALE
  5
5C
102
{ACAD_REACTORS
330
3B
102
}
330
3B
100
AcDbScale
 70
     0
300
1'-0" = 1'-0"
140
12.0
141
12.0
290
     0
  0
VISUALSTYLE
  5
2F
102
{ACAD_REACTORS
330
2A
102
}
330
2A
100
AcDbVisualStyle
  2
2dWireframe
 70
     4
 71
     0
 72
     2
 73
     0
 90
        0
 40
-0.6
 41
-30.0
 62
     5
 63
     7
 74
     1
 91
        4
 64
     7
 65
   257
 75
     1
175
     1
 42
1.0
 92
        0
 66
   257
 43
1.0
 76
     1
 77
     6
 78
     2
 67
     7
 79
     5
170
     0
171
     0
290
     0
174
     0
 93
        1
 44
0.0
173
     0
291
     0
 45
0.0
1001
ACAD
1000
AcDbSavedByObjectVersion
1070
     0
  0
VISUALSTYLE
  5
31
102
{ACAD_REACTORS
330
2A
102
}
330
2A
100
AcDbVisualStyle
  2
3D Hidden
 70
     6
 71
     1
 72
     2
 73
     2
 90
        0
 40
-0.6
 41
-30.0
 62
     5
 63
     7
 74
     2
 91
        2
 64
     7
 65
   257
 75
     2
175
     1
 42
40.0
 92
        0
 66
   257
 43
1.0
 76
     1
 77
     6
 78
     2
 67
     7
 79
     3
170
     0
171
     0
290
     0
174
     0
 93
        1
 44
0.0
173
     0
291
     0
 45
0.0
1001
ACAD
1000
AcDbSavedByObjectVersion
1070
     0
  0
VISUALSTYLE
  5
30
102
{ACAD_REACTORS
330
2A
102
}
330
2A
100
AcDbVisualStyle
  2
3dWireframe
 70
     5
 71
     0
 72
     2
 73
     0
 90
        0
 40
-0.6
 41
-30.0
 62
     5
 63
     7
 74
     1
 91
        4
 64
     7
 65
   257
 75
     1
175
     1
 42
1.0
 92
        0
 66
   257
 43
1.0
 76
     1
 77
     6
 78
     2
 67
     7
 79
     5
170
     0
171
     0
290
     0
174
     0
 93
        1
 44
0.0
173
     0
291
     0
 45
0.0
1001
ACAD
1000
AcDbSavedByObjectVersion
1070
     0
  0
VISUALSTYLE
  5
32
102
{ACAD_REACTORS
330
2A
102
}
330
2A
100
AcDbVisualStyle
  2
Basic
 70
     7
 71
     1
 72
     0
 73
     1
 90
        0
 40
-0.6
 41
-30.0
 62
     5
 63
     7
 74
     0
 91
        4
 64
     7
 65
   257
 75
     1
175
     1
 42
1.0
 92
        8
 66
     7
 43
1.0
 76
     1
 77
     6
 78
     2
 67
     7
 79
     5
170
     0
171
     0
290
     0
174
     0
 93
        1
 44
0.0
173
     0
291
     1
 45
0.0
1001
ACAD
1000
AcDbSavedByObjectVersion
1070
     0
  0
VISUALSTYLE
  5
36
102
{ACAD_REACTORS
330
2A
102
}
330
2A
100
AcDbVisualStyle
  2
Brighten
 70
    12
 71
     2
 72
     2
 73
     0
 90
        0
 40
-0.6
 41
-30.0
 62
     5
 63
     7
 74
     1
 91
        4
 64
     7
 65
   257
 75
     1
175
     1
 42
1.0
 92
        8
 66
     7
 43
1.0
 76
     1
 77
     6
 78
     2
 67
     7
 79
     5
170
     0
171
     0
290
     0
174
     0
 93
        1
 44
50.0
173
     0
291
     1
 45
0.0
1001
ACAD
1000
AcDbSavedByObjectVersion
1070
     0
  0
VISUALSTYLE
  5
3A
102
{ACAD_REACTORS
330
2A
102
}
330
2A
100
AcDbVisualStyle
  2
ColorChange
 70
    16
 71
     2
 72
     2
 73
     3
 90
        0
 40
-0.6
 41
-30.0
 62
     5
 63
     8
 74
     1
 91
        4
 64
     7
 65
   257
 75
     1
175
     1
 42
1.0
 92
        8
 66
     8
 43
1.0
 76
     1
 77
     6
 78
     2
 67
     7
 79
     5
170
     0
171
     0
290
     0
174
     0
 93
        1
 44
0.0
173
     0
291
     1
 45
0.0
1001
ACAD
1000
AcDbSavedByObjectVersion
1070
     0
  0
VISUALSTYLE
  5
34
102
{ACAD_REACTORS
330
2A
102
}
330
2A
100
AcDbVisualStyle
  2
Conceptual
 70
     9
 71
     3
 72
     2
 73
     0
 90
        0
 40
-0.6
 41
-30.0
 62
     5
 63
     7
 74
     2
 91
        2
 64
     7
 65
   257
 75
     1
175
     1
 42
40.0
 92
        8
 66
     7
 43
1.0
 76
     1
 77
     6
 78
     2
 67
     7
 79
     3
170
     0
171
     0
290
     0
174
     0
 93
        1
 44
0.0
173
     0
291
     0
 45
0.0
1001
ACAD
1000
AcDbSavedByObjectVersion
1070
     0
  0
VISUALSTYLE
  5
35
102
{ACAD_REACTORS
330
2A
102
}
330
2A
100
AcDbVisualStyle
  2
Dim
 70
    11
 71
     2
 72
     2
 73
     0
 90
        0
 40
-0.6
 41
-30.0
 62
     5
 63
     7
 74
     1
 91
        4
 64
     7
 65
   257
 75
     1
175
     1
 42
1.0
 92
        8
 66
     7
 43
1.0
 76
     1
 77
     6
 78
     2
 67
     7
 79
     5
170
     0
171
     0
290
     0
174
     0
 93
        1
 44
-50.0
173
     0
291
     1
 45
0.0
1001
ACAD
1000
AcDbSavedByObjectVersion
1070
     0
  0
VISUALSTYLE
  5
39
102
{ACAD_REACTORS
330
2A
102
}
330
2A
100
AcDbVisualStyle
  2
Facepattern
 70
    15
 71
     2
 72
     2
 73
     0
 90
        0
 40
-0.6
 41
-30.0
 62
     5
 63
     7
 74
     1
 91
        4
 64
     7
 65
   257
 75
     1
175
     1
 42
1.0
 92
        8
 66
     7
 43
1.0
 76
     1
 77
     6
 78
     2
 67
     7
 79
     5
170
     0
171
     0
290
     0
174
     0
 93
        1
 44
0.0
173
     0
291
     1
 45
0.0
1001
ACAD
1000
AcDbSavedByObjectVersion
1070
     0
  0
VISUALSTYLE
  5
2B
102
{ACAD_REACTORS
330
2A
102
}
330
2A
100
AcDbVisualStyle
  2
Flat
 70
     0
 71
     2
 72
     1
 73
     1
 90
        2
 40
-0.6
 41
30.0
 62
     5
 63
     7
 74
     0
 91
        4
 64
     7
 65
   257
 75
     1
175
     1
 42
1.0
 92
        8
 66
     7
 43
1.0
 76
     1
 77
     6
 78
     2
 67
     7
 79
     5
170
     0
171
     0
290
     0
174
     0
 93
       13
 44
0.0
173
     0
291
     1
 45
0.0
1001
ACAD
1000
AcDbSavedByObjectVersion
1070
     0
  0
VISUALSTYLE
  5
2C
102
{ACAD_REACTORS
330
2A
102
}
330
2A
100
AcDbVisualStyle
  2
FlatWithEdges
 70
     1
 71
     2
 72
     1
 73
     1
 90
        2
 40
-0.6
 41
30.0
 62
     5
 63
     7
 74
     1
 91
        4
 64
     7
 65
   257
 75
     1
175
     1
 42
1.0
 92
        0
 66
   257
 43
1.0
 76
     1
 77
     6
 78
     2
 67
     7
 79
     5
170
     0
171
     0
290
     0
174
     0
 93
       13
 44
0.0
173
     0
291
     1
 45
0.0
1001
ACAD
1000
AcDbSavedByObjectVersion
1070
     0
  0
VISUALSTYLE
  5
2D
102
{ACAD_REACTORS
330
2A
102
}
330
2A
100
AcDbVisualStyle
  2
Gouraud
 70
     2
 71
     2
 72
     2
 73
     1
 90
        2
 40
-0.6
 41
30.0
 62
     5
 63
     7
 74
     0
 91
        4
 64
     7
 65
   257
 75
     1
175
     1
 42
1.0
 92
        0
 66
     7
 43
1.0
 76
     1
 77
     6
 78
     2
 67
     7
 79
     5
170
     0
171
     0
290
     0
174
     0
 93
       13
 44
0.0
173
     0
291
     1
 45
0.0
1001
ACAD
1000
AcDbSavedByObjectVersion
1070
     0
  0
VISUALSTYLE
  5
2E
102
{ACAD_REACTORS
330
2A
102
}
330
2A
100
AcDbVisualStyle
  2
GouraudWithEdges
 70
     3
 71
     2
 72
     2
 73
     1
 90
        2
 40
-0.6
 41
30.0
 62
     5
 63
     7
 74
     1
 91
        4
 64
     7
 65
   257
 75
     1
175
     1
 42
1.0
 92
        0
 66
   257
 43
1.0
 76
     1
 77
     6
 78
     2
 67
     7
 79
     5
170
     0
171
     0
290
     0
174
     0
 93
       13
 44
0.0
173
     0
291
     1
 45
0.0
1001
ACAD
1000
AcDbSavedByObjectVersion
1070
     0
  0
VISUALSTYLE
  5
38
102
{ACAD_REACTORS
330
2A
102
}
330
2A
100
AcDbVisualStyle
  2
Linepattern
 70
    14
 71
     2
 72
     2
 73
     0
 90
        0
 40
-0.6
 41
-30.0
 62
     5
 63
     7
 74
     1
 91
        4
 64
     7
 65
   257
 75
     7
175
     7
 42
1.0
 92
        8
 66
     7
 43
1.0
 76
     1
 77
     6
 78
     2
 67
     7
 79
     5
170
     0
171
     0
290
     0
174
     0
 93
        1
 44
0.0
173
     0
291
     1
 45
0.0
1001
ACAD
1000
AcDbSavedByObjectVersion
1070
     0
  0
VISUALSTYLE
  5
33
102
{ACAD_REACTORS
330
2A
102
}
330
2A
100
AcDbVisualStyle
  2
Realistic
 70
     8
 71
     2
 72
     2
 73
     0
 90
        0
 40
-0.6
 41
-30.0
 62
     5
 63
     7
 74
     1
 91
        0
 64
     7
 65
   257
 75
     1
175
     1
 42
1.0
 92
        8
 66
     8
 43
1.0
 76
     1
 77
     6
 78
     2
 67
     7
 79
     5
170
     0
171
     0
290
     0
174
     0
 93
       13
 44
0.0
173
     0
291
     0
 45
0.0
1001
ACAD
1000
AcDbSavedByObjectVersion
1070
     0
  0
VISUALSTYLE
  5
37
102
{ACAD_REACTORS
330
2A
102
}
330
2A
100
AcDbVisualStyle
  2
Thicken
 70
    13
 71
     2
 72
     2
 73
     0
 90
        0
 40
-0.6
 41
-30.0
 62
     5
 63
     7
 74
     1
 91
        4
 64
     7
 65
   257
 75
     1
175
     1
 42
1.0
 92
       12
 66
     7
 43
1.0
 76
     1
 77
     6
 78
     2
 67
     7
 79
     5
170
     0
171
     0
290
     0
174
     0
 93
        1
 44
0.0
173
     0
291
     1
 45
0.0
1001
ACAD
1000
AcDbSavedByObjectVersion
1070
     0
  0
DICTIONARYVAR
  5
1FE
102
{ACAD_REACTORS
330
1FD
102
}
330
1FD
100
DictionaryVariables
280
     0
  1
1:1
  0
DICTIONARYVAR
  5
202
102
{ACAD_REACTORS
330
1FD
102
}
330
1FD
100
DictionaryVariables
280
     0
  1
80.000000
  0
DICTIONARYVAR
  5
201
102
{ACAD_REACTORS
330
1FD
102
}
330
1FD
100
DictionaryVariables
280
     0
  1
5.000000
  0
ENDSEC
  0
EOF
