  0
SECTION
  2
HEADER
  9
$ACADVER
  1
AC1015
  9
$ACADMAINTVER
 70
     6
  9
$DWGCODEPAGE
  3
ANSI_1252
  9
$INSBASE
 10
0.0
 20
0.0
 30
0.0
  9
$EXTMIN
 10
0.0
 20
0.0
 30
0.0
  9
$EXTMAX
 10
3000.0
 20
4500.0
 30
0.0
  9
$LIMMIN
 10
0.0
 20
0.0
  9
$LIMMAX
 10
3000.0
 20
4500.0
  9
$ORTHOMODE
 70
     0
  9
$REGENMODE
 70
     1
  9
$FILLMODE
 70
     1
  9
$QTEXTMODE
 70
     0
  9
$MIRRTEXT
 70
     1
  9
$LTSCALE
 40
1.0
  9
$ATTMODE
 70
     1
  9
$TEXTSIZE
 40
2.5
  9
$TRACEWID
 40
1.0
  9
$TEXTSTYLE
  7
Standard
  9
$CLAYER
  8
0
  9
$CELTYPE
  6
ByLayer
  9
$CECOLOR
 62
   256
  9
$CELTSCALE
 40
1.0
  9
$DISPSILH
 70
     0
  9
$DIMSCALE
 40
1.0
  9
$DIMASZ
 40
2.5
  9
$DIMEXO
 40
0.625
  9
$DIMDLI
 40
3.75
  9
$DIMRND
 40
0.0
  9
$DIMDLE
 40
0.0
  9
$DIMEXE
 40
1.25
  9
$DIMTP
 40
0.0
  9
$DIMTM
 40
0.0
  9
$DIMTXT
 40
2.5
  9
$DIMCEN
 40
2.5
  9
$DIMTSZ
 40
0.0
  9
$DIMTOL
 70
     0
  9
$DIMLIM
 70
     0
  9
$DIMTIH
 70
     0
  9
$DIMTOH
 70
     0
  9
$DIMSE1
 70
     0
  9
$DIMSE2
 70
     0
  9
$DIMTAD
 70
     1
  9
$DIMZIN
 70
     8
  9
$DIMBLK
  1

  9
$DIMASO
 70
     1
  9
$DIMSHO
 70
     1
  9
$DIMPOST
  1

  9
$DIMAPOST
  1

  9
$DIMALT
 70
     0
  9
$DIMALTD
 70
     3
  9
$DIMALTF
 40
0.0393700787
  9
$DIMLFAC
 40
1.0
  9
$DIMTOFL
 70
     1
  9
$DIMTVP
 40
0.0
  9
$DIMTIX
 70
     0
  9
$DIMSOXD
 70
     0
  9
$DIMSAH
 70
     0
  9
$DIMBLK1
  1

  9
$DIMBLK2
  1

  9
$DIMSTYLE
  2
ISO-25
  9
$DIMCLRD
 70
     0
  9
$DIMCLRE
 70
     0
  9
$DIMCLRT
 70
     0
  9
$DIMTFAC
 40
1.0
  9
$DIMGAP
 40
0.625
  9
$DIMJUST
 70
     0
  9
$DIMSD1
 70
     0
  9
$DIMSD2
 70
     0
  9
$DIMTOLJ
 70
     0
  9
$DIMTZIN
 70
     8
  9
$DIMALTZ
 70
     0
  9
$DIMALTTZ
 70
     0
  9
$DIMUPT
 70
     0
  9
$DIMDEC
 70
     2
  9
$DIMTDEC
 70
     2
  9
$DIMALTU
 70
     2
  9
$DIMALTTD
 70
     3
  9
$DIMTXSTY
  7
Standard
  9
$DIMAUNIT
 70
     0
  9
$DIMADEC
 70
     0
  9
$DIMALTRND
 40
0.0
  9
$DIMAZIN
 70
     0
  9
$DIMDSEP
 70
    44
  9
$DIMATFIT
 70
     3
  9
$DIMFRAC
 70
     0
  9
$DIMLDRBLK
  1

  9
$DIMLUNIT
 70
     2
  9
$DIMLWD
 70
    -2
  9
$DIMLWE
 70
    -2
  9
$DIMTMOVE
 70
     0
  9
$LUNITS
 70
     2
  9
$LUPREC
 70
     4
  9
$SKETCHINC
 40
1.0
  9
$FILLETRAD
 40
10.0
  9
$AUNITS
 70
     0
  9
$AUPREC
 70
     0
  9
$MENU
  1
.
  9
$ELEVATION
 40
0.0
  9
$PELEVATION
 40
0.0
  9
$THICKNESS
 40
0.0
  9
$LIMCHECK
 70
     0
  9
$CHAMFERA
 40
10.0
  9
$CHAMFERB
 40
10.0
  9
$CHAMFERC
 40
20.0
  9
$CHAMFERD
 40
0.0
  9
$SKPOLY
 70
     0
  9
$TDCREATE
 40
2456230.456305359
  9
$TDUCREATE
 40
2456230.414638692
  9
$TDUPDATE
 40
2456230.45630537
  9
$TDUUPDATE
 40
2456230.414638704
  9
$TDINDWG
 40
0.0000000116
  9
$TDUSRTIMER
 40
0.0000000116
  9
$USRTIMER
 70
     1
  9
$ANGBASE
 50
0.0
  9
$ANGDIR
 70
     0
  9
$PDMODE
 70
     0
  9
$PDSIZE
 40
0.0
  9
$PLINEWID
 40
0.0
  9
$SPLFRAME
 70
     0
  9
$SPLINETYPE
 70
     6
  9
$SPLINESEGS
 70
     8
  9
$HANDSEED
  5
389
  9
$SURFTAB1
 70
     6
  9
$SURFTAB2
 70
     6
  9
$SURFTYPE
 70
     6
  9
$SURFU
 70
     6
  9
$SURFV
 70
     6
  9
$UCSBASE
  2

  9
$UCSNAME
  2

  9
$UCSORG
 10
0.0
 20
0.0
 30
0.0
  9
$UCSXDIR
 10
1.0
 20
0.0
 30
0.0
  9
$UCSYDIR
 10
0.0
 20
1.0
 30
0.0
  9
$UCSORTHOREF
  2

  9
$UCSORTHOVIEW
 70
     0
  9
$UCSORGTOP
 10
0.0
 20
0.0
 30
0.0
  9
$UCSORGBOTTOM
 10
0.0
 20
0.0
 30
0.0
  9
$UCSORGLEFT
 10
0.0
 20
0.0
 30
0.0
  9
$UCSORGRIGHT
 10
0.0
 20
0.0
 30
0.0
  9
$UCSORGFRONT
 10
0.0
 20
0.0
 30
0.0
  9
$UCSORGBACK
 10
0.0
 20
0.0
 30
0.0
  9
$PUCSBASE
  2

  9
$PUCSNAME
  2

  9
$PUCSORG
 10
0.0
 20
0.0
 30
0.0
  9
$PUCSXDIR
 10
1.0
 20
0.0
 30
0.0
  9
$PUCSYDIR
 10
0.0
 20
1.0
 30
0.0
  9
$PUCSORTHOREF
  2

  9
$PUCSORTHOVIEW
 70
     0
  9
$PUCSORGTOP
 10
0.0
 20
0.0
 30
0.0
  9
$PUCSORGBOTTOM
 10
0.0
 20
0.0
 30
0.0
  9
$PUCSORGLEFT
 10
0.0
 20
0.0
 30
0.0
  9
$PUCSORGRIGHT
 10
0.0
 20
0.0
 30
0.0
  9
$PUCSORGFRONT
 10
0.0
 20
0.0
 30
0.0
  9
$PUCSORGBACK
 10
0.0
 20
0.0
 30
0.0
  9
$USERI1
 70
     0
  9
$USERI2
 70
     0
  9
$USERI3
 70
     0
  9
$USERI4
 70
     0
  9
$USERI5
 70
     0
  9
$USERR1
 40
0.0
  9
$USERR2
 40
0.0
  9
$USERR3
 40
0.0
  9
$USERR4
 40
0.0
  9
$USERR5
 40
0.0
  9
$WORLDVIEW
 70
     1
  9
$SHADEDGE
 70
     3
  9
$SHADEDIF
 70
    70
  9
$TILEMODE
 70
     1
  9
$MAXACTVP
 70
    64
  9
$PINSBASE
 10
0.0
 20
0.0
 30
0.0
  9
$PLIMCHECK
 70
     0
  9
$PEXTMIN
 10
0.0
 20
0.0
 30
0.0
  9
$PEXTMAX
 10
3000.0
 20
4500.0
 30
0.0
  9
$PLIMMIN
 10
0.0
 20
0.0
  9
$PLIMMAX
 10
3000.0
 20
4500.0
  9
$UNITMODE
 70
     0
  9
$VISRETAIN
 70
     1
  9
$PLINEGEN
 70
     0
  9
$PSLTSCALE
 70
     1
  9
$TREEDEPTH
 70
  3020
  9
$CMLSTYLE
  2
Standard
  9
$CMLJUST
 70
     0
  9
$CMLSCALE
 40
20.0
  9
$PROXYGRAPHICS
 70
     1
  9
$MEASUREMENT
 70
     1
  9
$CELWEIGHT
370
    -1
  9
$ENDCAPS
280
     0
  9
$JOINSTYLE
280
     0
  9
$LWDISPLAY
290
     0
  9
$INSUNITS
 70
     4
  9
$HYPERLINKBASE
  1

  9
$STYLESHEET
  1

  9
$XEDIT
290
     1
  9
$CEPSNTYPE
380
     0
  9
$PSTYLEMODE
290
     1
  9
$FINGERPRINTGUID
  2
{0D08D1AC-F248-4C03-9EBE-8153093932D7}
  9
$VERSIONGUID
  2
{FAEB1C32-E019-11D5-929B-00C0DF256EC4}
  9
$EXTNAMES
290
     1
  9
$PSVPSCALE
 40
0.0
  9
$OLESTARTUP
290
     0
  0
ENDSEC
  0
SECTION
  2
CLASSES
  0
CLASS
  1
ACDBDICTIONARYWDFLT
  2
AcDbDictionaryWithDefault
  3
ObjectDBX Classes
 90
        0
280
     0
281
     0
  0
CLASS
  1
VISUALSTYLE
  2
AcDbVisualStyle
  3
ObjectDBX Classes
 90
     4095
280
     0
281
     0
  0
CLASS
  1
SCALE
  2
AcDbScale
  3
ObjectDBX Classes
 90
     1153
280
     0
281
     0
  0
CLASS
  1
DICTIONARYVAR
  2
AcDbDictionaryVar
  3
ObjectDBX Classes
 90
        0
280
     0
281
     0
  0
CLASS
  1
ACDBPLACEHOLDER
  2
AcDbPlaceHolder
  3
ObjectDBX Classes
 90
        0
280
     0
281
     0
  0
CLASS
  1
LAYOUT
  2
AcDbLayout
  3
ObjectDBX Classes
 90
        0
280
     0
281
     0
  0
ENDSEC
  0
SECTION
  2
TABLES
  0
TABLE
  2
VPORT
  5
8
330
0
100
AcDbSymbolTable
 70
     1
  0
VPORT
  5
29
330
8
100
AcDbSymbolTableRecord
100
AcDbViewportTableRecord
  2
*Active
 70
     0
 10
0.0
 20
0.0
 11
1.0
 21
1.0
 12
344.1869158879
 22
148.5
 13
0.0
 23
0.0
 14
10.0
 24
10.0
 15
10.0
 25
10.0
 16
0.0
 26
0.0
 36
1.0
 17
0.0
 27
0.0
 37
0.0
 40
297.0
 41
1.9729729729
 42
50.0
 43
0.0
 44
0.0
 50
0.0
 51
0.0
 71
     0
 72
   100
 73
     1
 74
     3
 75
     0
 76
     0
 77
     0
 78
     0
281
     0
 65
     1
110
0.0
120
0.0
130
0.0
111
1.0
121
0.0
131
0.0
112
0.0
122
1.0
132
0.0
 79
     0
146
0.0
  0
ENDTAB
  0
TABLE
  2
LTYPE
  5
5
330
0
100
AcDbSymbolTable
 70
     3
  0
LTYPE
  5
14
330
5
100
AcDbSymbolTableRecord
100
AcDbLinetypeTableRecord
  2
ByBlock
 70
     0
  3

 72
    65
 73
     0
 40
0.0
  0
LTYPE
  5
15
330
5
100
AcDbSymbolTableRecord
100
AcDbLinetypeTableRecord
  2
ByLayer
 70
     0
  3

 72
    65
 73
     0
 40
0.0
  0
LTYPE
  5
16
330
5
100
AcDbSymbolTableRecord
100
AcDbLinetypeTableRecord
  2
Continuous
 70
     0
  3
Solid line
 72
    65
 73
     0
 40
0.0
  0
LTYPE
  5
61
330
5
100
AcDbSymbolTableRecord
100
AcDbLinetypeTableRecord
  2
CENTER2
 70
     0
  3
Center (.5x) ___ _ ___ _ ___ _ ___ _ ___ _ ___
 72
    65
 73
     4
 40
28.575
 49
19.05
 74
     4
 75
     0
340
0
 46
0.0
 50
0.0
 44
0.0
 45
0.0
 49
-3.175
 74
     4
 75
     0
340
0
 46
0.0
 50
0.0
 44
0.0
 45
0.0
 49
3.175
 74
     4
 75
     0
340
0
 46
0.0
 50
0.0
 44
0.0
 45
0.0
 49
-3.175
 74
     4
 75
     0
340
0
 46
0.0
 50
0.0
 44
0.0
 45
0.0
  0
LTYPE
  5
18F
330
5
100
AcDbSymbolTableRecord
100
AcDbLinetypeTableRecord
  2
PHANTOM2
 70
     0
  3
Phantom (.5x) ___ _ _ ___ _ _ ___ _ _ ___ _ _
 72
    65
 73
     6
 40
31.75
 49
15.875
 74
     4
 75
     0
340
0
 46
0.0
 50
0.0
 44
0.0
 45
0.0
 49
-3.175
 74
     4
 75
     0
340
0
 46
0.0
 50
0.0
 44
0.0
 45
0.0
 49
3.175
 74
     4
 75
     0
340
0
 46
0.0
 50
0.0
 44
0.0
 45
0.0
 49
-3.175
 74
     4
 75
     0
340
0
 46
0.0
 50
0.0
 44
0.0
 45
0.0
 49
3.175
 74
     4
 75
     0
340
0
 46
0.0
 50
0.0
 44
0.0
 45
0.0
 49
-3.175
 74
     4
 75
     0
340
0
 46
0.0
 50
0.0
 44
0.0
 45
0.0
  0
ENDTAB
  0
TABLE
  2
LAYER
  5
2
330
0
100
AcDbSymbolTable
 70
    15
  0
LAYER
  5
10
330
2
100
AcDbSymbolTableRecord
100
AcDbLayerTableRecord
  2
0
 70
     0
 62
     7
  6
Continuous
370
    -3
390
F
  0
LAYER
  5
5D
330
2
100
AcDbSymbolTableRecord
100
AcDbLayerTableRecord
  2
Default
 70
     0
 62
     7
  6
Continuous
370
    -3
390
F
  0
LAYER
  5
84
330
2
100
AcDbSymbolTableRecord
100
AcDbLayerTableRecord
  2
$DDT_AUDIT_GENERATED_(84)
 70
     0
 62
     7
  6
Continuous
370
    -3
390
F
  0
LAYER
  5
A7
330
2
100
AcDbSymbolTableRecord
100
AcDbLayerTableRecord
  2
$DDT_AUDIT_GENERATED_(A7)
 70
     0
 62
     7
  6
Continuous
370
    -3
390
F
  0
LAYER
  5
B1
330
2
100
AcDbSymbolTableRecord
100
AcDbLayerTableRecord
  2
$DDT_AUDIT_GENERATED_(B1)
 70
     0
 62
     7
  6
Continuous
370
    -3
390
F
  0
LAYER
  5
FA
330
2
100
AcDbSymbolTableRecord
100
AcDbLayerTableRecord
  2
$DDT_AUDIT_GENERATED_(FA)
 70
     0
 62
     7
  6
Continuous
370
    -3
390
F
  0
LAYER
  5
11D
330
2
100
AcDbSymbolTableRecord
100
AcDbLayerTableRecord
  2
$DDT_AUDIT_GENERATED_(11D)
 70
     0
 62
     7
  6
Continuous
370
    -3
390
F
  0
LAYER
  5
171
330
2
100
AcDbSymbolTableRecord
100
AcDbLayerTableRecord
  2
$DDT_AUDIT_GENERATED_(171)
 70
     0
 62
     7
  6
Continuous
370
    -3
390
F
  0
LAYER
  5
18E
330
2
100
AcDbSymbolTableRecord
100
AcDbLayerTableRecord
  2
$DDT_AUDIT_GENERATED_(18E)
 70
     0
 62
     7
  6
Continuous
370
    -3
390
F
  0
LAYER
  5
192
330
2
100
AcDbSymbolTableRecord
100
AcDbLayerTableRecord
  2
01088031_72848__
 70
     0
 62
     7
  6
Continuous
370
    -3
390
F
  0
LAYER
  5
1ED
330
2
100
AcDbSymbolTableRecord
100
AcDbLayerTableRecord
  2
$DDT_AUDIT_GENERATED_(1ED)
 70
     0
 62
     7
  6
Continuous
370
    -3
390
F
  0
LAYER
  5
1EF
330
2
100
AcDbSymbolTableRecord
100
AcDbLayerTableRecord
  2
$DDT_AUDIT_GENERATED_(1EF)
 70
     0
 62
     7
  6
Continuous
370
    -3
390
F
  0
LAYER
  5
28E
330
2
100
AcDbSymbolTableRecord
100
AcDbLayerTableRecord
  2
$DDT_AUDIT_GENERATED_(28E)
 70
     0
 62
     7
  6
Continuous
370
    -3
390
F
  0
LAYER
  5
31A
330
2
100
AcDbSymbolTableRecord
100
AcDbLayerTableRecord
  2
$DDT_AUDIT_GENERATED_(31A)
 70
     0
 62
     7
  6
Continuous
370
    -3
390
F
  0
LAYER
  5
325
330
2
100
AcDbSymbolTableRecord
100
AcDbLayerTableRecord
  2
$DDT_AUDIT_GENERATED_(325)
 70
     0
 62
     7
  6
Continuous
370
    -3
390
F
  0
ENDTAB
  0
TABLE
  2
STYLE
  5
3
330
0
100
AcDbSymbolTable
 70
     2
  0
STYLE
  5
11
330
3
100
AcDbSymbolTableRecord
100
AcDbTextStyleTableRecord
  2
Standard
 70
     0
 40
0.0
 41
1.0
 50
0.0
 71
     0
 42
2.5
  3
txt
  4

  0
STYLE
  5
378
330
3
100
AcDbSymbolTableRecord
100
AcDbTextStyleTableRecord
  2
SEACAD_seiso_ttf
 70
     0
 40
0.0
 41
1.0
 50
0.0
 71
     0
 42
0.2
  3
seiso.ttf
  4

  0
ENDTAB
  0
TABLE
  2
VIEW
  5
6
330
0
100
AcDbSymbolTable
 70
     0
  0
ENDTAB
  0
TABLE
  2
UCS
  5
7
330
0
100
AcDbSymbolTable
 70
     0
  0
ENDTAB
  0
TABLE
  2
APPID
  5
9
330
0
100
AcDbSymbolTable
 70
     1
  0
APPID
  5
12
330
9
100
AcDbSymbolTableRecord
100
AcDbRegAppTableRecord
  2
ACAD
 70
     0
  0
ENDTAB
  0
TABLE
  2
DIMSTYLE
  5
A
330
0
100
AcDbSymbolTable
 70
     1
100
AcDbDimStyleTable
  0
DIMSTYLE
105
27
330
A
100
AcDbSymbolTableRecord
100
AcDbDimStyleTableRecord
  2
ISO-25
 70
     0
 41
2.5
 42
0.625
 43
3.75
 44
1.25
 73
     0
 74
     0
 77
     1
 78
     8
140
2.5
141
2.5
143
0.0393700787
147
0.625
171
     3
172
     1
271
     2
272
     2
274
     3
278
    44
283
     0
284
     8
340
11
  0
ENDTAB
  0
TABLE
  2
BLOCK_RECORD
  5
1
330
0
100
AcDbSymbolTable
 70
     9
  0
BLOCK_RECORD
  5
1F
330
1
100
AcDbSymbolTableRecord
100
AcDbBlockTableRecord
  2
*Model_Space
340
22
  0
BLOCK_RECORD
  5
1B
330
1
100
AcDbSymbolTableRecord
100
AcDbBlockTableRecord
  2
*Paper_Space
340
1E
  0
BLOCK_RECORD
  5
5F
330
1
100
AcDbSymbolTableRecord
100
AcDbBlockTableRecord
  2
SEANNOT_GROUP
340
0
102
{BLKREFS
331
60
102
}
  0
BLOCK_RECORD
  5
67
330
1
100
AcDbSymbolTableRecord
100
AcDbBlockTableRecord
  2
SEANNOT_GROUP1
340
0
102
{BLKREFS
331
68
102
}
  0
BLOCK_RECORD
  5
6E
330
1
100
AcDbSymbolTableRecord
100
AcDbBlockTableRecord
  2
SEANNOT_GROUP2
340
0
102
{BLKREFS
331
6F
102
}
  0
BLOCK_RECORD
  5
76
330
1
100
AcDbSymbolTableRecord
100
AcDbBlockTableRecord
  2
SEANNOT_GROUP3
340
0
102
{BLKREFS
331
77
102
}
  0
BLOCK_RECORD
  5
7C
330
1
100
AcDbSymbolTableRecord
100
AcDbBlockTableRecord
  2
SEANNOT_GROUP4
340
0
102
{BLKREFS
331
7D
102
}
  0
BLOCK_RECORD
  5
82
330
1
100
AcDbSymbolTableRecord
100
AcDbBlockTableRecord
  2
SE
340
0
102
{BLKREFS
331
83
102
}
  0
BLOCK_RECORD
  5
18C
330
1
100
AcDbSymbolTableRecord
100
AcDbBlockTableRecord
  2
SE1
340
0
102
{BLKREFS
331
18D
102
}
  0
BLOCK_RECORD
  5
285
330
1
100
AcDbSymbolTableRecord
100
AcDbBlockTableRecord
  2
SE2
340
0
102
{BLKREFS
331
286
102
}
  0
ENDTAB
  0
ENDSEC
  0
SECTION
  2
BLOCKS
  0
BLOCK
  5
20
330
1F
100
AcDbEntity
  8
0
100
AcDbBlockBegin
  2
*Model_Space
 70
     0
 10
0.0
 20
0.0
 30
0.0
  3
*Model_Space
  1

  0
ENDBLK
  5
21
330
1F
100
AcDbEntity
  8
0
100
AcDbBlockEnd
  0
BLOCK
  5
1C
330
1B
100
AcDbEntity
 67
     1
  8
0
100
AcDbBlockBegin
  2
*Paper_Space
 70
     0
 10
0.0
 20
0.0
 30
0.0
  3
*Paper_Space
  1

  0
ENDBLK
  5
1D
330
1B
100
AcDbEntity
 67
     1
  8
0
100
AcDbBlockEnd
  0
BLOCK
  5
64
330
5F
100
AcDbEntity
  8
0
100
AcDbBlockBegin
  2
SEANNOT_GROUP
 70
     0
 10
0.0
 20
0.0
 30
0.0
  3
SEANNOT_GROUP
  1

  0
LINE
  5
62
330
5F
100
AcDbEntity
  8
Default
  6
CENTER2
 62
     7
100
AcDbLine
 10
420.9703756281
 20
527.8198533437
 30
0.0
 11
380.9703765221
 21
527.8198533437
 31
0.0
  0
LINE
  5
63
330
5F
100
AcDbEntity
  8
Default
  6
CENTER2
 62
     7
100
AcDbLine
 10
400.9703760751
 20
547.8198528967
 30
0.0
 11
400.9703760751
 21
507.8198537907
 31
0.0
  0
ENDBLK
  5
65
330
5F
100
AcDbEntity
  8
0
100
AcDbBlockEnd
  0
BLOCK
  5
6B
330
67
100
AcDbEntity
  8
0
100
AcDbBlockBegin
  2
SEANNOT_GROUP1
 70
     0
 10
0.0
 20
0.0
 30
0.0
  3
SEANNOT_GROUP1
  1

  0
LINE
  5
69
330
67
100
AcDbEntity
  8
Default
  6
CENTER2
 62
     7
100
AcDbLine
 10
420.9703756247
 20
442.8198532734
 30
0.0
 11
380.9703765187
 21
442.8198532734
 31
0.0
  0
LINE
  5
6A
330
67
100
AcDbEntity
  8
Default
  6
CENTER2
 62
     7
100
AcDbLine
 10
400.9703760717
 20
462.8198528264
 30
0.0
 11
400.9703760717
 21
422.8198537204
 31
0.0
  0
ENDBLK
  5
6C
330
67
100
AcDbEntity
  8
0
100
AcDbBlockEnd
  0
BLOCK
  5
72
330
6E
100
AcDbEntity
  8
0
100
AcDbBlockBegin
  2
SEANNOT_GROUP2
 70
     0
 10
0.0
 20
0.0
 30
0.0
  3
SEANNOT_GROUP2
  1

  0
LINE
  5
70
330
6E
100
AcDbEntity
  8
Default
  6
CENTER2
 62
     7
100
AcDbLine
 10
130.9111272383
 20
186.85
 30
0.0
 11
90.9111281323
 21
186.85
 31
0.0
  0
LINE
  5
71
330
6E
100
AcDbEntity
  8
Default
  6
CENTER2
 62
     7
100
AcDbLine
 10
110.9111276853
 20
206.849999553
 30
0.0
 11
110.9111276853
 21
166.850000447
 31
0.0
  0
ENDBLK
  5
73
330
6E
100
AcDbEntity
  8
0
100
AcDbBlockEnd
  0
BLOCK
  5
7A
330
76
100
AcDbEntity
  8
0
100
AcDbBlockBegin
  2
SEANNOT_GROUP3
 70
     0
 10
0.0
 20
0.0
 30
0.0
  3
SEANNOT_GROUP3
  1

  0
LINE
  5
78
330
76
100
AcDbEntity
  8
Default
  6
CENTER2
 62
     7
100
AcDbLine
 10
130.9111380077
 20
527.8198532743
 30
0.0
 11
90.9111389017
 21
527.8198532743
 31
0.0
  0
LINE
  5
79
330
76
100
AcDbEntity
  8
Default
  6
CENTER2
 62
     7
100
AcDbLine
 10
110.9111384547
 20
547.8198528273
 30
0.0
 11
110.9111384547
 21
507.8198537214
 31
0.0
  0
ENDBLK
  5
7B
330
76
100
AcDbEntity
  8
0
100
AcDbBlockEnd
  0
BLOCK
  5
80
330
7C
100
AcDbEntity
  8
0
100
AcDbBlockBegin
  2
SEANNOT_GROUP4
 70
     0
 10
0.0
 20
0.0
 30
0.0
  3
SEANNOT_GROUP4
  1

  0
LINE
  5
7E
330
7C
100
AcDbEntity
  8
Default
  6
CENTER2
 62
     7
100
AcDbLine
 10
130.9111271732
 20
442.8198532743
 30
0.0
 11
90.9111280673
 21
442.8198532743
 31
0.0
  0
LINE
  5
7F
330
7C
100
AcDbEntity
  8
Default
  6
CENTER2
 62
     7
100
AcDbLine
 10
110.9111276202
 20
462.8198528273
 30
0.0
 11
110.9111276202
 21
422.8198537214
 31
0.0
  0
ENDBLK
  5
81
330
7C
100
AcDbEntity
  8
0
100
AcDbBlockEnd
  0
BLOCK
  5
18A
330
82
100
AcDbEntity
  8
0
100
AcDbBlockBegin
  2
SE
 70
     0
 10
0.0
 20
0.0
 30
0.0
  3
SE
  1

  0
SPLINE
  5
85
330
82
100
AcDbEntity
  8
$DDT_AUDIT_GENERATED_(84)
  6
Continuous
 62
     7
100
AcDbSpline
210
0.0
220
0.0
230
1.0
 70
    12
 71
     3
 72
     8
 73
     4
 74
     0
 42
0.000000043404073
 43
0.0000000001
 40
0.0
 40
0.0
 40
0.0
 40
0.0
 40
1.0
 40
1.0
 40
1.0
 40
1.0
 10
88.02527308324737
 20
465.3938182776435
 30
0.0
 41
1.0
 10
88.05027937625466
 20
465.4671575307165
 30
0.0
 41
1.0
 10
88.09158229058727
 20
465.5326265731566
 30
0.0
 41
1.0
 10
88.14496852132807
 20
465.5860121515314
 30
0.0
 41
1.0
  0
SPLINE
  5
86
330
82
100
AcDbEntity
  8
$DDT_AUDIT_GENERATED_(84)
  6
Continuous
 62
     7
100
AcDbSpline
210
0.0
220
0.0
230
1.0
 70
    12
 71
     3
 72
     8
 73
     4
 74
     0
 42
0.0000000434104029
 43
0.0000000001
 40
0.5005256331352608
 40
0.5005256331352608
 40
0.5005256331352608
 40
0.5005256331352608
 40
1.0
 40
1.0
 40
1.0
 40
1.0
 10
88.23368527780002
 20
465.6565647209138
 30
0.0
 41
1.0
 10
88.26586476693055
 20
465.6766605137641
 30
0.0
 41
1.0
 10
88.30053262824012
 20
465.6932156862876
 30
0.0
 41
1.0
 10
88.33716385785806
 20
465.7057052410289
 30
0.0
 41
1.0
  0
ARC
  5
87
330
82
100
AcDbEntity
  8
$DDT_AUDIT_GENERATED_(84)
  6
Continuous
 62
     7
100
AcDbCircle
 10
110.9111387455
 20
398.9593263029
 30
0.0
 40
70.46118741001771
100
AcDbArc
 50
71.5958828669
 51
108.4041197228
  0
SPLINE
  5
88
330
82
100
AcDbEntity
  8
$DDT_AUDIT_GENERATED_(84)
  6
Continuous
 62
     7
100
AcDbSpline
210
0.0
220
0.0
230
1.0
 70
    12
 71
     3
 72
     8
 73
     4
 74
     0
 42
0.0000000434543502
 43
0.0000000001
 40
0.0
 40
0.0
 40
0.0
 40
0.0
 40
0.7499912138185032
 40
0.7499912138185032
 40
0.7499912138185032
 40
0.7499912138185032
 10
133.4850926895554
 20
465.7057078754447
 30
0.0
 41
1.0
 10
133.5400964849883
 20
465.6869533753991
 30
0.0
 41
1.0
 10
133.590673390663
 20
465.6590322406344
 30
0.0
 41
1.0
 10
133.6350460027558
 20
465.6237218966937
 30
0.0
 41
1.0
  0
SPLINE
  5
89
330
82
100
AcDbEntity
  8
$DDT_AUDIT_GENERATED_(84)
  6
Continuous
 62
     7
100
AcDbSpline
210
0.0
220
0.0
230
1.0
 70
    12
 71
     3
 72
     8
 73
     4
 74
     0
 42
0.000000043404073
 43
0.0000000001
 40
0.0
 40
0.0
 40
0.0
 40
0.0
 40
1.0
 40
1.0
 40
1.0
 40
1.0
 10
133.6772865634433
 20
465.586012437364
 30
0.0
 41
1.0
 10
133.7306721418182
 20
465.5326262066231
 30
0.0
 41
1.0
 10
133.7719742561279
 20
465.4671566594741
 30
0.0
 41
1.0
 10
133.7969796529408
 20
465.393817100834
 30
0.0
 41
1.0
  0
ARC
  5
8A
330
82
100
AcDbEntity
  8
$DDT_AUDIT_GENERATED_(84)
  6
Continuous
 62
     7
100
AcDbCircle
 10
67.0506005584
 20
442.8198422135
 30
0.0
 40
70.46118755998172
100
AcDbArc
 50
341.5958873603
 51
18.404116372
  0
ARC
  5
8B
330
82
100
AcDbEntity
  8
$DDT_AUDIT_GENERATED_(84)
  6
Continuous
 62
     7
100
AcDbCircle
 10
154.7716550035
 20
442.8198643296
 30
0.0
 40
70.46118775780488
100
AcDbArc
 50
161.5958891359
 51
198.4041151795
  0
SPLINE
  5
8C
330
82
100
AcDbEntity
  8
$DDT_AUDIT_GENERATED_(84)
  6
Continuous
 62
     7
100
AcDbSpline
210
0.0
220
0.0
230
1.0
 70
    12
 71
     3
 72
     8
 73
     4
 74
     0
 42
0.000000043404073
 43
0.0000000001
 40
0.0
 40
0.0
 40
0.0
 40
0.0
 40
1.0
 40
1.0
 40
1.0
 40
1.0
 10
133.7969822873564
 20
420.2458882691357
 30
0.0
 41
1.0
 10
133.7719759943492
 20
420.1725490160624
 30
0.0
 41
1.0
 10
133.7306730800163
 20
420.1070799736225
 30
0.0
 41
1.0
 10
133.6772868492755
 20
420.0536943952479
 30
0.0
 41
1.0
  0
SPLINE
  5
8D
330
82
100
AcDbEntity
  8
$DDT_AUDIT_GENERATED_(84)
  6
Continuous
 62
     7
100
AcDbSpline
210
0.0
220
0.0
230
1.0
 70
    12
 71
     3
 72
     8
 73
     4
 74
     0
 42
0.000000043404073
 43
0.0000000001
 40
0.0
 40
0.0
 40
0.0
 40
0.0
 40
1.0
 40
1.0
 40
1.0
 40
1.0
 10
133.6772868492755
 20
420.0536943952479
 30
0.0
 41
1.0
 10
133.6239006185346
 20
420.0003088168731
 30
0.0
 41
1.0
 10
133.5584310713854
 20
419.9590067025636
 30
0.0
 41
1.0
 10
133.4850915127453
 20
419.9340013057507
 30
0.0
 41
1.0
  0
ARC
  5
8E
330
82
100
AcDbEntity
  8
$DDT_AUDIT_GENERATED_(84)
  6
Continuous
 62
     7
100
AcDbCircle
 10
110.911116495
 20
486.6803804762
 30
0.0
 40
70.46118764044968
100
AcDbArc
 50
251.5959031944
 51
288.4041320459
  0
SPLINE
  5
8F
330
82
100
AcDbEntity
  8
$DDT_AUDIT_GENERATED_(84)
  6
Continuous
 62
     7
100
AcDbSpline
210
0.0
220
0.0
230
1.0
 70
    12
 71
     3
 72
     8
 73
     4
 74
     0
 42
0.000000043404073
 43
0.0000000001
 40
0.0
 40
0.0
 40
0.0
 40
0.0
 40
1.0
 40
1.0
 40
1.0
 40
1.0
 10
88.33716268104926
 20
419.9339986713351
 30
0.0
 41
1.0
 10
88.26382342797616
 20
419.9590049643421
 30
0.0
 41
1.0
 10
88.19835438553616
 20
420.0003078786745
 30
0.0
 41
1.0
 10
88.14496880716128
 20
420.0536941094151
 30
0.0
 41
1.0
  0
SPLINE
  5
90
330
82
100
AcDbEntity
  8
$DDT_AUDIT_GENERATED_(84)
  6
Continuous
 62
     7
100
AcDbSpline
210
0.0
220
0.0
230
1.0
 70
    12
 71
     3
 72
     8
 73
     4
 74
     0
 42
0.000000043404073
 43
0.0000000001
 40
0.0
 40
0.0
 40
0.0
 40
0.0
 40
1.0
 40
1.0
 40
1.0
 40
1.0
 10
88.14496880716128
 20
420.0536941094151
 30
0.0
 41
1.0
 10
88.09158322878636
 20
420.1070803401557
 30
0.0
 41
1.0
 10
88.05028111447646
 20
420.1725498873046
 30
0.0
 41
1.0
 10
88.02527571766356
 20
420.2458894459446
 30
0.0
 41
1.0
  0
LINE
  5
91
330
82
100
AcDbEntity
  8
$DDT_AUDIT_GENERATED_(84)
  6
Continuous
 62
     7
100
AcDbLine
 10
88.4966171817
 20
465.7598511544
 30
0.0
 11
88.3371638579
 21
465.705705241
 31
0.0
  0
LINE
  5
92
330
82
100
AcDbEntity
  8
$DDT_AUDIT_GENERATED_(84)
  6
Continuous
 62
     7
100
AcDbLine
 10
88.1449685213
 20
465.5860121515
 30
0.0
 11
88.1484136144
 21
465.5825669274
 31
0.0
  0
LINE
  5
93
330
82
100
AcDbEntity
  8
$DDT_AUDIT_GENERATED_(84)
  6
Continuous
 62
     7
100
AcDbLine
 10
88.6653255154
 20
465.8166574264
 30
0.0
 11
88.4966171817
 21
465.7598511544
 31
0.0
  0
LINE
  5
94
330
82
100
AcDbEntity
  8
$DDT_AUDIT_GENERATED_(84)
  6
Continuous
 62
     7
100
AcDbLine
 10
87.971132167
 20
465.2343860864
 30
0.0
 11
87.9143201105
 21
465.0656673324
 31
0.0
  0
LINE
  5
95
330
82
100
AcDbEntity
  8
$DDT_AUDIT_GENERATED_(84)
  6
Continuous
 62
     7
100
AcDbLine
 10
88.0252730832
 20
465.3938182776
 30
0.0
 11
87.971132167
 21
465.2343860864
 31
0.0
  0
LINE
  5
96
330
82
100
AcDbEntity
  8
$DDT_AUDIT_GENERATED_(84)
  6
Continuous
 62
     7
100
AcDbLine
 10
133.9079331252
 20
465.065651581
 30
0.0
 11
133.8511257727
 21
465.2343631666
 31
0.0
  0
LINE
  5
97
330
82
100
AcDbEntity
  8
$DDT_AUDIT_GENERATED_(84)
  6
Continuous
 62
     7
100
AcDbLine
 10
133.8511257727
 20
465.2343631666
 30
0.0
 11
133.7969796529
 21
465.3938171008
 31
0.0
  0
LINE
  5
98
330
82
100
AcDbEntity
  8
$DDT_AUDIT_GENERATED_(84)
  6
Continuous
 62
     7
100
AcDbLine
 10
133.6772865634
 20
465.5860124374
 30
0.0
 11
133.67401067
 21
465.5827367471
 31
0.0
  0
LINE
  5
99
330
82
100
AcDbEntity
  8
$DDT_AUDIT_GENERATED_(84)
  6
Continuous
 62
     7
100
AcDbLine
 10
133.4850926896
 20
465.7057078754
 30
0.0
 11
133.3256634899
 21
465.7598477799
 31
0.0
  0
LINE
  5
9A
330
82
100
AcDbEntity
  8
$DDT_AUDIT_GENERATED_(84)
  6
Continuous
 62
     7
100
AcDbLine
 10
133.3256634899
 20
465.7598477799
 30
0.0
 11
133.1569489537
 21
465.8166584319
 31
0.0
  0
LINE
  5
9B
330
82
100
AcDbEntity
  8
$DDT_AUDIT_GENERATED_(84)
  6
Continuous
 62
     7
100
AcDbLine
 10
133.1569441774
 20
419.8230539186
 30
0.0
 11
133.3256463609
 21
419.8798581561
 31
0.0
  0
LINE
  5
9C
330
82
100
AcDbEntity
  8
$DDT_AUDIT_GENERATED_(84)
  6
Continuous
 62
     7
100
AcDbLine
 10
133.3256463609
 20
419.8798581561
 30
0.0
 11
133.4850915127
 21
419.9340013058
 31
0.0
  0
LINE
  5
9D
330
82
100
AcDbEntity
  8
$DDT_AUDIT_GENERATED_(84)
  6
Continuous
 62
     7
100
AcDbLine
 10
133.7969822874
 20
420.2458882691
 30
0.0
 11
133.8511273653
 21
420.4053327655
 31
0.0
  0
LINE
  5
9E
330
82
100
AcDbEntity
  8
$DDT_AUDIT_GENERATED_(84)
  6
Continuous
 62
     7
100
AcDbLine
 10
133.8511273653
 20
420.4053327655
 30
0.0
 11
133.9079345744
 21
420.5740372013
 31
0.0
  0
LINE
  5
9F
330
82
100
AcDbEntity
  8
$DDT_AUDIT_GENERATED_(84)
  6
Continuous
 62
     7
100
AcDbLine
 10
88.4966029251
 20
419.8798550316
 30
0.0
 11
88.6653299339
 21
419.8230402361
 31
0.0
  0
LINE
  5
A0
330
82
100
AcDbEntity
  8
$DDT_AUDIT_GENERATED_(84)
  6
Continuous
 62
     7
100
AcDbLine
 10
88.337162681
 20
419.9339986713
 30
0.0
 11
88.4966029251
 21
419.8798550316
 31
0.0
  0
LINE
  5
A1
330
82
100
AcDbEntity
  8
$DDT_AUDIT_GENERATED_(84)
  6
Continuous
 62
     7
100
AcDbLine
 10
87.9711340299
 20
420.4053302752
 30
0.0
 11
88.0252757177
 21
420.2458894459
 31
0.0
  0
LINE
  5
A2
330
82
100
AcDbEntity
  8
$DDT_AUDIT_GENERATED_(84)
  6
Continuous
 62
     7
100
AcDbLine
 10
87.9143217859
 20
420.5740562913
 30
0.0
 11
87.9711340299
 21
420.4053302752
 31
0.0
  0
LINE
  5
A3
330
82
100
AcDbEntity
  8
$DDT_AUDIT_GENERATED_(84)
  6
Continuous
 62
     7
100
AcDbLine
 10
88.2335832538
 20
465.6565009839
 30
0.0
 11
88.1485590623
 21
465.5824214735
 31
0.0
  0
LINE
  5
A4
330
82
100
AcDbEntity
  8
$DDT_AUDIT_GENERATED_(84)
  6
Continuous
 62
     7
100
AcDbLine
 10
133.6736958876
 20
465.5824219852
 30
0.0
 11
133.635047561
 21
465.6237206522
 31
0.0
  0
ARC
  5
A5
330
82
100
AcDbEntity
  8
$DDT_AUDIT_GENERATED_(84)
  6
Continuous
 62
     7
100
AcDbCircle
 10
100.8111279357
 20
468.3936604648
 30
0.0
 40
0.2999999999957629
100
AcDbArc
 50
98.2377755502
 51
98.6366660334
  0
ARC
  5
A6
330
82
100
AcDbEntity
  8
$DDT_AUDIT_GENERATED_(84)
  6
Continuous
 62
     7
100
AcDbCircle
 10
121.0111274423
 20
468.393715107
 30
0.0
 40
0.3000000000006698
100
AcDbArc
 50
81.3634749552
 51
81.7623846411
  0
ARC
  5
A8
330
82
100
AcDbEntity
  8
$DDT_AUDIT_GENERATED_(A7)
  6
Continuous
 62
     7
100
AcDbCircle
 10
109.5287540414
 20
410.8793433698
 30
0.0
 40
58.47996448418164
100
AcDbArc
 50
96.5030640818
 51
97.7215966013
  0
ARC
  5
A9
330
82
100
AcDbEntity
  8
$DDT_AUDIT_GENERATED_(A7)
  6
Continuous
 62
     7
100
AcDbCircle
 10
110.9113322984
 20
399.5511553577
 30
0.0
 40
69.89184998832947
100
AcDbArc
 50
83.6177149906
 51
85.1909105014
  0
ARC
  5
AA
330
82
100
AcDbEntity
  8
$DDT_AUDIT_GENERATED_(A7)
  6
Continuous
 62
     7
100
AcDbCircle
 10
110.9113322984
 20
399.5511553577
 30
0.0
 40
69.89184998832947
100
AcDbArc
 50
85.4761503913
 51
94.5261491979
  0
ARC
  5
AB
330
82
100
AcDbEntity
  8
$DDT_AUDIT_GENERATED_(A7)
  6
Continuous
 62
     7
100
AcDbCircle
 10
110.9113322984
 20
399.5511553577
 30
0.0
 40
69.89184998832947
100
AcDbArc
 50
94.8068362229
 51
96.3826240352
  0
ARC
  5
AC
330
82
100
AcDbEntity
  8
$DDT_AUDIT_GENERATED_(A7)
  6
Continuous
 62
     7
100
AcDbCircle
 10
112.4357903799
 20
412.0180190799
 30
0.0
 40
57.33254793954909
100
AcDbArc
 50
82.2664256742
 51
83.5093448717
  0
LINE
  5
AD
330
82
100
AcDbEntity
  8
$DDT_AUDIT_GENERATED_(A7)
  6
Continuous
 62
     7
100
AcDbLine
 10
103.0092865075
 20
468.9948950984
 30
0.0
 11
102.9055211291
 21
468.983035437
 31
0.0
  0
LINE
  5
AE
330
82
100
AcDbEntity
  8
$DDT_AUDIT_GENERATED_(A7)
  6
Continuous
 62
     7
100
AcDbLine
 10
103.1416266208
 20
469.0097931825
 30
0.0
 11
103.0092865075
 21
468.9948950984
 31
0.0
  0
LINE
  5
AF
330
82
100
AcDbEntity
  8
$DDT_AUDIT_GENERATED_(A7)
  6
Continuous
 62
     7
100
AcDbLine
 10
118.8129649926
 20
468.9949418884
 30
0.0
 11
118.6806269811
 21
469.0098391555
 31
0.0
  0
LINE
  5
B0
330
82
100
AcDbEntity
  8
$DDT_AUDIT_GENERATED_(A7)
  6
Continuous
 62
     7
100
AcDbLine
 10
118.916728214
 20
468.9830829176
 30
0.0
 11
118.8129649926
 21
468.9949418884
 31
0.0
  0
LINE
  5
B2
330
82
100
AcDbEntity
  8
$DDT_AUDIT_GENERATED_(B1)
  6
Continuous
 62
     7
100
AcDbLine
 10
87.0834174751
 20
418.8027735483
 30
0.0
 11
87.0777359316
 21
418.78672601
 31
0.0
  0
LINE
  5
B3
330
82
100
AcDbEntity
  8
$DDT_AUDIT_GENERATED_(B1)
  6
Continuous
 62
     7
100
AcDbLine
 10
87.0777359316
 20
418.78672601
 30
0.0
 11
87.135739342
 21
418.765728218
 31
0.0
  0
LINE
  5
B4
330
82
100
AcDbEntity
  8
$DDT_AUDIT_GENERATED_(B1)
  6
Continuous
 62
     7
100
AcDbLine
 10
87.135739342
 20
418.765728218
 30
0.0
 11
87.2546124273
 21
418.72373086
 31
0.0
  0
ARC
  5
B5
330
82
100
AcDbEntity
  8
$DDT_AUDIT_GENERATED_(B1)
  6
Continuous
 62
     7
100
AcDbCircle
 10
110.9111072201
 20
486.6439166383
 30
0.0
 40
71.9220507357781
100
AcDbArc
 50
250.7968525325
 51
289.2032134811
  0
LINE
  5
B6
330
82
100
AcDbEntity
  8
$DDT_AUDIT_GENERATED_(B1)
  6
Continuous
 62
     7
100
AcDbLine
 10
134.5676802675
 20
418.723758116
 30
0.0
 11
134.6865487791
 21
418.7657584964
 31
0.0
  0
ARC
  5
B7
330
82
100
AcDbEntity
  8
$DDT_AUDIT_GENERATED_(B1)
  6
Continuous
 62
     7
100
AcDbCircle
 10
132.1819838056
 20
425.7744987288
 30
0.0
 40
7.442800907707047
100
AcDbArc
 50
289.6642886781
 51
290.1171961159
  0
LINE
  5
B8
330
82
100
AcDbEntity
  8
$DDT_AUDIT_GENERATED_(B1)
  6
Continuous
 62
     7
100
AcDbLine
 10
134.7362013438
 20
418.8018775515
 30
0.0
 11
134.7281407462
 21
418.7990709831
 31
0.0
  0
LINE
  5
B9
330
82
100
AcDbEntity
  8
$DDT_AUDIT_GENERATED_(B1)
  6
Continuous
 62
     7
100
AcDbLine
 10
134.7281407462
 20
418.7990709831
 30
0.0
 11
134.5617576109
 21
418.7405980335
 31
0.0
  0
ARC
  5
BA
330
82
100
AcDbEntity
  8
$DDT_AUDIT_GENERATED_(B1)
  6
Continuous
 62
     7
100
AcDbCircle
 10
110.9111081376
 20
486.7037946352
 30
0.0
 40
71.9607484176688
100
AcDbArc
 50
250.8125729603
 51
289.1874883237
  0
LINE
  5
BB
330
82
100
AcDbEntity
  8
$DDT_AUDIT_GENERATED_(B1)
  6
Continuous
 62
     7
100
AcDbLine
 10
87.2605313582
 20
418.7405727366
 30
0.0
 11
87.0941506005
 21
418.7990383601
 31
0.0
  0
LINE
  5
BC
330
82
100
AcDbEntity
  8
$DDT_AUDIT_GENERATED_(B1)
  6
Continuous
 62
     7
100
AcDbLine
 10
87.0941506005
 20
418.7990383601
 30
0.0
 11
87.0834174751
 21
418.8027735483
 31
0.0
  0
ARC
  5
BD
330
82
100
AcDbEntity
  8
$DDT_AUDIT_GENERATED_(B1)
  6
Continuous
 62
     7
100
AcDbCircle
 10
154.7950690115
 20
442.8198732111
 30
0.0
 40
71.96074841709172
100
AcDbArc
 50
160.8125778011
 51
199.1874931648
  0
LINE
  5
BE
330
82
100
AcDbEntity
  8
$DDT_AUDIT_GENERATED_(B1)
  6
Continuous
 62
     7
100
AcDbLine
 10
86.8318451153
 20
466.4704442482
 30
0.0
 11
86.8903127728
 21
466.6368307944
 31
0.0
  0
LINE
  5
BF
330
82
100
AcDbEntity
  8
$DDT_AUDIT_GENERATED_(B1)
  6
Continuous
 62
     7
100
AcDbLine
 10
86.8903127728
 20
466.6368307944
 30
0.0
 11
86.8940478343
 21
466.6475635488
 31
0.0
  0
LINE
  5
C0
330
82
100
AcDbEntity
  8
$DDT_AUDIT_GENERATED_(B1)
  6
Continuous
 62
     7
100
AcDbLine
 10
86.8940478343
 20
466.6475635488
 30
0.0
 11
86.8780004563
 21
466.6532450355
 31
0.0
  0
LINE
  5
C1
330
82
100
AcDbEntity
  8
$DDT_AUDIT_GENERATED_(B1)
  6
Continuous
 62
     7
100
AcDbLine
 10
86.8780004563
 20
466.6532450355
 30
0.0
 11
86.8570031429
 21
466.5952429099
 31
0.0
  0
LINE
  5
C2
330
82
100
AcDbEntity
  8
$DDT_AUDIT_GENERATED_(B1)
  6
Continuous
 62
     7
100
AcDbLine
 10
86.8570031429
 20
466.5952429099
 30
0.0
 11
86.8150034105
 21
466.4763630845
 31
0.0
  0
ARC
  5
C3
330
82
100
AcDbEntity
  8
$DDT_AUDIT_GENERATED_(B1)
  6
Continuous
 62
     7
100
AcDbCircle
 10
154.7351910131
 20
442.8198735355
 30
0.0
 40
71.92205073376009
100
AcDbArc
 50
160.7968569556
 51
199.2032179064
  0
LINE
  5
C4
330
82
100
AcDbEntity
  8
$DDT_AUDIT_GENERATED_(B1)
  6
Continuous
 62
     7
100
AcDbLine
 10
86.8150343198
 20
419.1632952429
 30
0.0
 11
86.8570323249
 21
419.044433473
 31
0.0
  0
ARC
  5
C5
330
82
100
AcDbEntity
  8
$DDT_AUDIT_GENERATED_(B1)
  6
Continuous
 62
     7
100
AcDbCircle
 10
93.8633064391
 20
421.5481066151
 30
0.0
 40
7.440178503574817
100
AcDbArc
 50
199.6642120492
 51
200.1172896733
  0
LINE
  5
C6
330
82
100
AcDbEntity
  8
$DDT_AUDIT_GENERATED_(B1)
  6
Continuous
 62
     7
100
AcDbLine
 10
86.8931520135
 20
418.9947796789
 30
0.0
 11
86.8903453155
 21
419.0028406715
 31
0.0
  0
LINE
  5
C7
330
82
100
AcDbEntity
  8
$DDT_AUDIT_GENERATED_(B1)
  6
Continuous
 62
     7
100
AcDbLine
 10
86.8903453238
 20
419.0028406488
 30
0.0
 11
86.8318744086
 21
419.1692179955
 31
0.0
  0
LINE
  5
C8
330
82
100
AcDbEntity
  8
$DDT_AUDIT_GENERATED_(B1)
  6
Continuous
 62
     7
100
AcDbLine
 10
134.9282075449
 20
418.9921430647
 30
0.0
 11
134.9442549107
 21
418.9864615823
 31
0.0
  0
LINE
  5
C9
330
82
100
AcDbEntity
  8
$DDT_AUDIT_GENERATED_(B1)
  6
Continuous
 62
     7
100
AcDbLine
 10
134.9442549107
 20
418.9864615823
 30
0.0
 11
134.9652522277
 21
419.0444637072
 31
0.0
  0
LINE
  5
CA
330
82
100
AcDbEntity
  8
$DDT_AUDIT_GENERATED_(B1)
  6
Continuous
 62
     7
100
AcDbLine
 10
134.9652522277
 20
419.0444637072
 30
0.0
 11
135.0072519601
 21
419.1633435327
 31
0.0
  0
ARC
  5
CB
330
82
100
AcDbEntity
  8
$DDT_AUDIT_GENERATED_(B1)
  6
Continuous
 62
     7
100
AcDbCircle
 10
67.0870643575
 20
442.8198330816
 30
0.0
 40
71.92205073378618
100
AcDbArc
 50
340.7968569556
 51
19.2032179058
  0
LINE
  5
CC
330
82
100
AcDbEntity
  8
$DDT_AUDIT_GENERATED_(B1)
  6
Continuous
 62
     7
100
AcDbLine
 10
135.007221051
 20
466.4764113736
 30
0.0
 11
134.9652230457
 21
466.595273144
 31
0.0
  0
ARC
  5
CD
330
82
100
AcDbEntity
  8
$DDT_AUDIT_GENERATED_(B1)
  6
Continuous
 62
     7
100
AcDbCircle
 10
127.9565376416
 20
464.0907271485
 30
0.0
 40
7.442742890686242
100
AcDbArc
 50
19.6642931357
 51
20.1172146428
  0
LINE
  5
CE
330
82
100
AcDbEntity
  8
$DDT_AUDIT_GENERATED_(B1)
  6
Continuous
 62
     7
100
AcDbLine
 10
134.9291033575
 20
466.644926937
 30
0.0
 11
134.9319100552
 21
466.6368659455
 31
0.0
  0
LINE
  5
CF
330
82
100
AcDbEntity
  8
$DDT_AUDIT_GENERATED_(B1)
  6
Continuous
 62
     7
100
AcDbLine
 10
134.9319100468
 20
466.6368659682
 30
0.0
 11
134.990380962
 21
466.4704886214
 31
0.0
  0
ARC
  5
D0
330
82
100
AcDbEntity
  8
$DDT_AUDIT_GENERATED_(B1)
  6
Continuous
 62
     7
100
AcDbCircle
 10
67.0271863594
 20
442.819833406
 30
0.0
 40
71.96074841684329
100
AcDbArc
 50
340.812577801
 51
19.1874931647
  0
LINE
  5
D1
330
82
100
AcDbEntity
  8
$DDT_AUDIT_GENERATED_(B1)
  6
Continuous
 62
     7
100
AcDbLine
 10
134.9904102554
 20
419.1692623689
 30
0.0
 11
134.9319425978
 21
419.0028758226
 31
0.0
  0
LINE
  5
D2
330
82
100
AcDbEntity
  8
$DDT_AUDIT_GENERATED_(B1)
  6
Continuous
 62
     7
100
AcDbLine
 10
134.9319425978
 20
419.0028758226
 30
0.0
 11
134.9282075449
 21
418.9921430647
 31
0.0
  0
LINE
  5
D3
330
82
100
AcDbEntity
  8
$DDT_AUDIT_GENERATED_(B1)
  6
Continuous
 62
     7
100
AcDbLine
 10
134.5617240127
 20
466.8991338804
 30
0.0
 11
134.7281047701
 21
466.840668257
 31
0.0
  0
LINE
  5
D4
330
82
100
AcDbEntity
  8
$DDT_AUDIT_GENERATED_(B1)
  6
Continuous
 62
     7
100
AcDbLine
 10
134.7281047701
 20
466.840668257
 30
0.0
 11
134.7388378934
 21
466.8369330695
 31
0.0
  0
LINE
  5
D5
330
82
100
AcDbEntity
  8
$DDT_AUDIT_GENERATED_(B1)
  6
Continuous
 62
     7
100
AcDbLine
 10
134.7388378934
 20
466.8369330695
 30
0.0
 11
134.7445194358
 21
466.8529806045
 31
0.0
  0
ARC
  5
D6
330
82
100
AcDbEntity
  8
$DDT_AUDIT_GENERATED_(B1)
  6
Continuous
 62
     7
100
AcDbCircle
 10
132.2107336471
 20
459.9443713628
 30
0.0
 40
7.358597154171679
100
AcDbArc
 50
69.859097897
 51
70.3394099399
  0
LINE
  5
D7
330
82
100
AcDbEntity
  8
$DDT_AUDIT_GENERATED_(B1)
  6
Continuous
 62
     7
100
AcDbLine
 10
134.6865160286
 20
466.873978399
 30
0.0
 11
134.5676429434
 21
466.915975757
 31
0.0
  0
ARC
  5
D8
330
82
100
AcDbEntity
  8
$DDT_AUDIT_GENERATED_(B1)
  6
Continuous
 62
     7
100
AcDbCircle
 10
110.9111481505
 20
398.9957899787
 30
0.0
 40
71.92205073583801
100
AcDbArc
 50
70.7968525325
 51
109.203213481
  0
LINE
  5
D9
330
82
100
AcDbEntity
  8
$DDT_AUDIT_GENERATED_(B1)
  6
Continuous
 62
     7
100
AcDbLine
 10
87.2545751032
 20
466.9159485011
 30
0.0
 11
87.1357065915
 21
466.8739481207
 31
0.0
  0
ARC
  5
DA
330
82
100
AcDbEntity
  8
$DDT_AUDIT_GENERATED_(B1)
  6
Continuous
 62
     7
100
AcDbCircle
 10
89.6393987663
 20
459.8676190266
 30
0.0
 40
7.440236681749264
100
AcDbArc
 50
109.6642075946
 51
110.1172711299
  0
LINE
  5
DB
330
82
100
AcDbEntity
  8
$DDT_AUDIT_GENERATED_(B1)
  6
Continuous
 62
     7
100
AcDbLine
 10
87.0860540242
 20
466.8378290712
 30
0.0
 11
87.0941146244
 21
466.840635634
 31
0.0
  0
LINE
  5
DC
330
82
100
AcDbEntity
  8
$DDT_AUDIT_GENERATED_(B1)
  6
Continuous
 62
     7
100
AcDbLine
 10
87.0941146244
 20
466.840635634
 30
0.0
 11
87.2604977516
 21
466.8991085525
 31
0.0
  0
SPLINE
  5
DD
330
82
100
AcDbEntity
  8
$DDT_AUDIT_GENERATED_(B1)
  6
Continuous
 62
     7
100
AcDbSpline
210
0.0
220
0.0
230
1.0
 70
     8
 71
     3
 72
    20
 73
    16
 74
     0
 42
0.000000043680275
 43
0.0000000001
 40
0.0
 40
0.0
 40
0.0
 40
0.0
 40
0.1147503428235033
 40
0.1147503428235033
 40
0.1147503428235033
 40
0.3446398164121945
 40
0.3446398164121945
 40
0.3446398164121945
 40
0.5732908864498345
 40
0.5732908864498345
 40
0.5732908864498345
 40
0.6875461634184258
 40
0.6875461634184258
 40
0.6875461634184258
 40
1.0
 40
1.0
 40
1.0
 40
1.0
 10
87.12356493260403
 20
419.0322512691603
 30
0.0
 10
87.11738272055412
 20
419.0384441056559
 30
0.0
 10
87.11181056586938
 20
419.0452711415957
 30
0.0
 10
87.10674463382459
 20
419.0524060769288
 30
0.0
 10
87.09660887842739
 20
419.0666814281715
 30
0.0
 10
87.0882668573537
 20
419.0822081899713
 30
0.0
 10
87.08045860116714
 20
419.097878235469
 30
0.0
 10
87.07268090925159
 20
419.1134869428772
 30
0.0
 10
87.0654497184448
 20
419.129370336091
 30
0.0
 10
87.05851638906256
 20
419.1453719979473
 30
0.0
 10
87.0550510475583
 20
419.1533697750485
 30
0.0
 10
87.05166880717867
 20
419.1614040435985
 30
0.0
 10
87.04836826664467
 20
419.1694712278957
 30
0.0
 10
87.03934515499081
 20
419.1915255259406
 30
0.0
 10
87.03100270380828
 20
419.2138628294966
 30
0.0
 10
87.02310997462095
 20
419.2363464568413
 30
0.0
  0
SPLINE
  5
DE
330
82
100
AcDbEntity
  8
$DDT_AUDIT_GENERATED_(B1)
  6
Continuous
 62
     7
100
AcDbSpline
210
0.0
220
0.0
230
1.0
 70
     8
 71
     3
 72
    26
 73
    22
 74
     0
 42
0.0000000436613167
 43
0.0000000001
 40
0.0
 40
0.0
 40
0.0
 40
0.0
 40
0.2897334753389177
 40
0.2897334753389177
 40
0.2897334753389177
 40
0.3621300625642891
 40
0.3621300625642891
 40
0.3621300625642891
 40
0.4345267064860456
 40
0.4345267064860456
 40
0.4345267064860456
 40
0.5793433555051246
 40
0.5793433555051246
 40
0.5793433555051246
 40
0.6517423011754655
 40
0.6517423011754655
 40
0.6517423011754655
 40
0.9435691808349437
 40
0.9435691808349437
 40
0.9435691808349437
 40
1.0
 40
1.0
 40
1.0
 40
1.0
 10
87.32767827465189
 20
418.9318401594888
 30
0.0
 10
87.3068272778067
 20
418.9391547477912
 30
0.0
 10
87.28609975663007
 20
418.9468476122348
 30
0.0
 10
87.26561334148553
 20
418.955128558195
 30
0.0
 10
87.26049282351809
 20
418.9571983557794
 30
0.0
 10
87.25538555510165
 20
418.9593012385992
 30
0.0
 10
87.2502921759961
 20
418.9614369482193
 30
0.0
 10
87.24519879489158
 20
418.9635726586777
 30
0.0
 10
87.2401190587602
 20
418.9657412269353
 30
0.0
 10
87.23505408923059
 20
418.9679434698606
 30
0.0
 10
87.22492333062807
 20
418.9723483120479
 30
0.0
 10
87.21484773278601
 20
418.9768840155187
 30
0.0
 10
87.20485375245745
 20
418.9815909531378
 30
0.0
 10
87.19985703195796
 20
418.9839442949412
 30
0.0
 10
87.19488057783131
 20
418.9863415667278
 30
0.0
 10
87.18993358977852
 20
418.9887977309324
 30
0.0
 10
87.17006945056424
 20
418.9986602143611
 30
0.0
 10
87.15023483523669
 20
419.0093430002049
 30
0.0
 10
87.13317757217696
 20
419.0235170039799
 30
0.0
 10
87.12984779197718
 20
419.0262839377462
 30
0.0
 10
87.12662978497481
 20
419.0291934858797
 30
0.0
 10
87.12356493260403
 20
419.0322512691603
 30
0.0
  0
SPLINE
  5
DF
330
82
100
AcDbEntity
  8
$DDT_AUDIT_GENERATED_(B1)
  6
Continuous
 62
     7
100
AcDbSpline
210
0.0
220
0.0
230
1.0
 70
     8
 71
     3
 72
     8
 73
     4
 74
     0
 42
0.000000000204185
 43
0.0000000001
 40
0.0
 40
0.0
 40
0.0
 40
0.0
 40
1.0
 40
1.0
 40
1.0
 40
1.0
 10
134.4946150754518
 20
418.9318739979011
 30
0.0
 10
119.375147540857
 20
413.6237973833399
 30
0.0
 10
102.4482917393271
 20
413.6270347227885
 30
0.0
 10
87.32767827465189
 20
418.9318401594888
 30
0.0
  0
SPLINE
  5
E0
330
82
100
AcDbEntity
  8
$DDT_AUDIT_GENERATED_(B1)
  6
Continuous
 62
     7
100
AcDbSpline
210
0.0
220
0.0
230
1.0
 70
     8
 71
     3
 72
    10
 73
     6
 74
     0
 42
0.0000000434765063
 43
0.0000000001
 40
0.0
 40
0.0
 40
0.0
 40
0.0
 40
0.5
 40
0.5
 40
1.0
 40
1.0
 40
1.0
 40
1.0
 10
134.6986940331239
 20
419.0323262478701
 30
0.0
 10
134.6714278880534
 20
419.0051100655667
 30
0.0
 10
134.6358125104277
 20
418.9897616703711
 30
0.0
 10
134.5662089682107
 20
418.9584281701864
 30
0.0
 10
134.5306293609774
 20
418.9445166605086
 30
0.0
 10
134.4946150754518
 20
418.9318739979011
 30
0.0
  0
SPLINE
  5
E1
330
82
100
AcDbEntity
  8
$DDT_AUDIT_GENERATED_(B1)
  6
Continuous
 62
     7
100
AcDbSpline
210
0.0
220
0.0
230
1.0
 70
     8
 71
     3
 72
    26
 73
    22
 74
     0
 42
0.00000004369678
 43
0.0000000001
 40
0.0
 40
0.0
 40
0.0
 40
0.0
 40
0.1928405793514622
 40
0.1928405793514622
 40
0.1928405793514622
 40
0.2892470522731364
 40
0.2892470522731364
 40
0.2892470522731364
 40
0.4821034101382682
 40
0.4821034101382682
 40
0.4821034101382682
 40
0.6749953270206396
 40
0.6749953270206396
 40
0.6749953270206396
 40
0.8359210379941598
 40
0.8359210379941598
 40
0.8359210379941598
 40
0.9174962605831988
 40
0.9174962605831988
 40
0.9174962605831988
 40
1.0
 40
1.0
 40
1.0
 40
1.0
 10
134.7991024099722
 20
419.2364233680149
 30
0.0
 10
134.7942339401354
 20
419.2225453593063
 30
0.0
 10
134.7892192807694
 20
419.2087160300803
 30
0.0
 10
134.783945030078
 20
419.1949871042696
 30
0.0
 10
134.7813080390959
 20
419.188122991114
 30
0.0
 10
134.7786115097509
 20
419.1812814588816
 30
0.0
 10
134.7758563787694
 20
419.1744639062321
 30
0.0
 10
134.7703454969077
 20
419.1608272669984
 30
0.0
 10
134.7646041099432
 20
419.1472811389224
 30
0.0
 10
134.7586180552993
 20
419.1338462999473
 30
0.0
 10
134.7526314236308
 20
419.1204101659232
 30
0.0
 10
134.7464182220442
 20
419.1070667910978
 30
0.0
 10
134.7397681861599
 20
419.0939463307787
 30
0.0
 10
134.7342228379388
 20
419.0830054091718
 30
0.0
 10
134.7283668692735
 20
419.0721923994841
 30
0.0
 10
134.7217849795748
 20
419.0618418738696
 30
0.0
 10
134.7184463756823
 20
419.0565916635671
 30
0.0
 10
134.7149088669195
 20
419.051457518775
 30
0.0
 10
134.7111068370641
 20
419.0465325260693
 30
0.0
 10
134.7072641157994
 20
419.0415548233897
 30
0.0
 10
134.7031356602251
 20
419.0367777438508
 30
0.0
 10
134.6986940331239
 20
419.0323262478701
 30
0.0
  0
SPLINE
  5
E2
330
82
100
AcDbEntity
  8
$DDT_AUDIT_GENERATED_(B1)
  6
Continuous
 62
     7
100
AcDbSpline
210
0.0
220
0.0
230
1.0
 70
     8
 71
     3
 72
     8
 73
     4
 74
     0
 42
0.000000000204185
 43
0.0000000001
 40
0.0
 40
0.0
 40
0.0
 40
0.0
 40
1.0
 40
1.0
 40
1.0
 40
1.0
 10
134.799145396039
 20
466.4033601600756
 30
0.0
 10
140.1071965403723
 20
451.2838837241197
 30
0.0
 10
140.1039314937986
 20
434.3570284966264
 30
0.0
 10
134.7991024099722
 20
419.2364233680149
 30
0.0
  0
SPLINE
  5
E3
330
82
100
AcDbEntity
  8
$DDT_AUDIT_GENERATED_(B1)
  6
Continuous
 62
     7
100
AcDbSpline
210
0.0
220
0.0
230
1.0
 70
     8
 71
     3
 72
    20
 73
    16
 74
     0
 42
0.0000000436802747
 43
0.0000000001
 40
0.0
 40
0.0
 40
0.0
 40
0.0
 40
0.1147503404390058
 40
0.1147503404390058
 40
0.1147503404390058
 40
0.3446398095802564
 40
0.3446398095802564
 40
0.3446398095802564
 40
0.5732908759372634
 40
0.5732908759372634
 40
0.5732908759372634
 40
0.6875461509351977
 40
0.6875461509351977
 40
0.6875461509351977
 40
1.0
 40
1.0
 40
1.0
 40
1.0
 10
134.6986904379654
 20
466.6074553479444
 30
0.0
 10
134.704872649929
 20
466.6012625115347
 30
0.0
 10
134.7104448047549
 20
466.5944354759256
 30
0.0
 10
134.7155107371559
 20
466.5873005409946
 30
0.0
 10
134.7256464932765
 20
466.5730251905413
 30
0.0
 10
134.7339885157732
 20
466.5574984298095
 30
0.0
 10
134.7417967730702
 20
466.5418283851165
 30
0.0
 10
134.749574466112
 20
466.5262196784695
 30
0.0
 10
134.7568056577607
 20
466.5103362858067
 30
0.0
 10
134.7637389873652
 20
466.4943346242418
 30
0.0
 10
134.7672043289786
 20
466.4863368472908
 30
0.0
 10
134.7705865693213
 20
466.4783025788239
 30
0.0
 10
134.77388710964
 20
466.4702353945407
 30
0.0
 10
134.7829102212041
 20
466.4481810953152
 30
0.0
 10
134.79125267112
 20
466.4258437900407
 30
0.0
 10
134.799145396039
 20
466.4033601600756
 30
0.0
  0
SPLINE
  5
E4
330
82
100
AcDbEntity
  8
$DDT_AUDIT_GENERATED_(B1)
  6
Continuous
 62
     7
100
AcDbSpline
210
0.0
220
0.0
230
1.0
 70
     8
 71
     3
 72
    26
 73
    22
 74
     0
 42
0.0000000436613169
 43
0.0000000001
 40
0.0
 40
0.0
 40
0.0
 40
0.0
 40
0.2897334775161355
 40
0.2897334775161355
 40
0.2897334775161355
 40
0.3621300654827972
 40
0.3621300654827972
 40
0.3621300654827972
 40
0.4345267101459091
 40
0.4345267101459091
 40
0.4345267101459091
 40
0.5793433605809333
 40
0.5793433605809333
 40
0.5793433605809333
 40
0.6517423069912656
 40
0.6517423069912656
 40
0.6517423069912656
 40
0.9435691896547432
 40
0.9435691896547432
 40
0.9435691896547432
 40
1.0
 40
1.0
 40
1.0
 40
1.0
 10
134.4945770962579
 20
466.7078664574798
 30
0.0
 10
134.5154280919437
 20
466.7005518657601
 30
0.0
 10
134.5361556125242
 20
466.6928589997815
 30
0.0
 10
134.5566420273774
 20
466.6845780530014
 30
0.0
 10
134.5617625452795
 20
466.6825082552091
 30
0.0
 10
134.5668698136518
 20
466.6804053722385
 30
0.0
 10
134.5719631927357
 20
466.678269662522
 30
0.0
 10
134.5770565738187
 20
466.6761339519672
 30
0.0
 10
134.5821363099504
 20
466.6739653836681
 30
0.0
 10
134.5872012795041
 20
466.6717631407547
 30
0.0
 10
134.5973320381526
 20
466.6673582985926
 30
0.0
 10
134.6074076361328
 20
466.6628225953669
 30
0.0
 10
134.6174016167039
 20
466.6581156581875
 30
0.0
 10
134.6223983373258
 20
466.6557623166033
 30
0.0
 10
134.6273747915995
 20
466.6533650450846
 30
0.0
 10
134.6323217798228
 20
466.6509088811846
 30
0.0
 10
134.6521859197222
 20
466.6410463989787
 30
0.0
 10
134.6720205363993
 20
466.6303636150997
 30
0.0
 10
134.6890777998165
 20
466.6161896116453
 30
0.0
 10
134.6924075795503
 20
466.6134226783868
 30
0.0
 10
134.6956255860783
 20
466.6105131307428
 30
0.0
 10
134.6986904379654
 20
466.6074553479444
 30
0.0
  0
SPLINE
  5
E5
330
82
100
AcDbEntity
  8
$DDT_AUDIT_GENERATED_(B1)
  6
Continuous
 62
     7
100
AcDbSpline
210
0.0
220
0.0
230
1.0
 70
     8
 71
     3
 72
     8
 73
     4
 74
     0
 42
0.000000000204185
 43
0.0000000001
 40
0.0
 40
0.0
 40
0.0
 40
0.0
 40
1.0
 40
1.0
 40
1.0
 40
1.0
 10
87.32764029525384
 20
466.7078326192108
 30
0.0
 10
102.4471078299229
 20
472.0159092337785
 30
0.0
 10
119.3739636315388
 20
472.012671894273
 30
0.0
 10
134.4945770962579
 20
466.7078664574798
 30
0.0
  0
SPLINE
  5
E6
330
82
100
AcDbEntity
  8
$DDT_AUDIT_GENERATED_(B1)
  6
Continuous
 62
     7
100
AcDbSpline
210
0.0
220
0.0
230
1.0
 70
     8
 71
     3
 72
    20
 73
    16
 74
     0
 42
0.0000000436833235
 43
0.0000000001
 40
0.0
 40
0.0
 40
0.0
 40
0.0
 40
0.1147610998582572
 40
0.1147610998582572
 40
0.1147610998582572
 40
0.3446714853959514
 40
0.3446714853959514
 40
0.3446714853959514
 40
0.5733437326885725
 40
0.5733437326885725
 40
0.5733437326885725
 40
0.6876096093393729
 40
0.6876096093393729
 40
0.6876096093393729
 40
1.0
 40
1.0
 40
1.0
 40
1.0
 10
87.12356133748159
 20
466.6073803691851
 30
0.0
 10
87.12975430937284
 20
466.6135627355806
 30
0.0
 10
87.13658155278472
 20
466.6191349708408
 30
0.0
 10
87.14371668045656
 20
466.6242009858626
 30
0.0
 10
87.15799239399458
 20
466.634336891281
 30
0.0
 10
87.17351941613205
 20
466.6426791725788
 30
0.0
 10
87.18918965305578
 20
466.6504879016961
 30
0.0
 10
87.20479856660907
 20
466.6582660723993
 30
0.0
 10
87.2206821198355
 20
466.6654978681181
 30
0.0
 10
87.23668399252713
 20
466.6724317120853
 30
0.0
 10
87.24468187614957
 20
466.6758973112796
 30
0.0
 10
87.25271626253921
 20
466.6792797892634
 30
0.0
 10
87.2607835802518
 20
466.6825805323823
 30
0.0
 10
87.2828317167867
 20
466.6916015276557
 30
0.0
 10
87.30516281892916
 20
466.6999420042358
 30
0.0
 10
87.32764029525384
 20
466.7078326192108
 30
0.0
  0
SPLINE
  5
E7
330
82
100
AcDbEntity
  8
$DDT_AUDIT_GENERATED_(B1)
  6
Continuous
 62
     7
100
AcDbSpline
210
0.0
220
0.0
230
1.0
 70
     8
 71
     3
 72
    26
 73
    22
 74
     0
 42
0.0000000436643857
 43
0.0000000001
 40
0.0
 40
0.0
 40
0.0
 40
0.0
 40
0.2897224409801839
 40
0.2897224409801839
 40
0.2897224409801839
 40
0.3621162351048789
 40
0.3621162351048789
 40
0.3621162351048789
 40
0.4345100854901545
 40
0.4345100854901545
 40
0.4345100854901545
 40
0.5793211447133911
 40
0.5793211447133911
 40
0.5793211447133911
 40
0.6517172940913952
 40
0.6517172940913952
 40
0.6517172940913952
 40
0.9435312943173012
 40
0.9435312943173012
 40
0.9435312943173012
 40
1.0
 40
1.0
 40
1.0
 40
1.0
 10
87.02315296064516
 20
466.4032832490992
 30
0.0
 10
87.03046678300676
 20
466.4241319746346
 30
0.0
 10
87.0381591582189
 20
466.4448571313997
 30
0.0
 10
87.04643969133672
 20
466.4653411282088
 30
0.0
 10
87.04850938519658
 20
466.4704610403953
 30
0.0
 10
87.05061217017307
 20
466.4755676997831
 30
0.0
 10
87.0527477851379
 20
466.4806604674191
 30
0.0
 10
87.05488340093332
 20
466.4857532370357
 30
0.0
 10
87.05705187778968
 20
466.4908323592841
 30
0.0
 10
87.0592540288575
 20
466.495896713919
 30
0.0
 10
87.06365868728392
 20
466.5060262425617
 30
0.0
 10
87.06819420824954
 20
466.5161006046061
 30
0.0
 10
87.07290090964841
 20
466.526093368404
 30
0.0
 10
87.07525413328904
 20
466.5310894805453
 30
0.0
 10
87.07765127268011
 20
466.5360653312224
 30
0.0
 10
87.08010727786817
 20
466.5410117275417
 30
0.0
 10
87.08996909555682
 20
466.5608734358778
 30
0.0
 10
87.10065060996443
 20
466.5807056403866
 30
0.0
 10
87.11482213086407
 20
466.5977617507739
 30
0.0
 10
87.11759053901338
 20
466.6010936637934
 30
0.0
 10
87.12050172713028
 20
466.6043136914145
 30
0.0
 10
87.12356133748159
 20
466.6073803691851
 30
0.0
  0
SPLINE
  5
E8
330
82
100
AcDbEntity
  8
$DDT_AUDIT_GENERATED_(B1)
  6
Continuous
 62
     7
100
AcDbSpline
210
0.0
220
0.0
230
1.0
 70
     8
 71
     3
 72
     8
 73
     4
 74
     0
 42
0.000000000204185
 43
0.0000000001
 40
0.0
 40
0.0
 40
0.0
 40
0.0
 40
1.0
 40
1.0
 40
1.0
 40
1.0
 10
87.02310997462095
 20
419.2363464568413
 30
0.0
 10
81.71505883022805
 20
434.3558228928501
 30
0.0
 10
81.71832387678649
 20
451.2826781204252
 30
0.0
 10
87.02315296064516
 20
466.4032832490992
 30
0.0
  0
ARC
  5
E9
330
82
100
AcDbEntity
  8
$DDT_AUDIT_GENERATED_(B1)
  6
Continuous
 62
     7
100
AcDbCircle
 10
134.6584142004
 20
466.566089452
 30
0.0
 40
0.2825318310791888
100
AcDbArc
 50
45.1558993344
 51
73.4618583634
  0
ARC
  5
EA
330
82
100
AcDbEntity
  8
$DDT_AUDIT_GENERATED_(B1)
  6
Continuous
 62
     7
100
AcDbCircle
 10
134.6553271788
 20
466.5656577583
 30
0.0
 40
0.2850210495837218
100
AcDbArc
 50
16.1478491956
 51
44.7770962276
  0
ARC
  5
EB
330
82
100
AcDbEntity
  8
$DDT_AUDIT_GENERATED_(B1)
  6
Continuous
 62
     7
100
AcDbCircle
 10
134.6401511251
 20
466.5539409711
 30
0.0
 40
0.320001495753399
100
AcDbArc
 50
17.5808383981
 51
44.3634444517
  0
ARC
  5
EC
330
82
100
AcDbEntity
  8
$DDT_AUDIT_GENERATED_(B1)
  6
Continuous
 62
     7
100
AcDbCircle
 10
134.6484880247
 20
466.5538800327
 30
0.0
 40
0.314138797264385
100
AcDbArc
 50
45.4346446565
 51
72.1998744145
  0
ARC
  5
ED
330
82
100
AcDbEntity
  8
$DDT_AUDIT_GENERATED_(B1)
  6
Continuous
 62
     7
100
AcDbCircle
 10
87.1648914958
 20
466.5671398058
 30
0.0
 40
0.2825318874010892
100
AcDbArc
 50
135.1558901294
 51
163.4618511818
  0
ARC
  5
EE
330
82
100
AcDbEntity
  8
$DDT_AUDIT_GENERATED_(B1)
  6
Continuous
 62
     7
100
AcDbCircle
 10
87.1653233158
 20
466.5640527438
 30
0.0
 40
0.2850212238461362
100
AcDbArc
 50
106.1478626689
 51
134.7770994851
  0
ARC
  5
EF
330
82
100
AcDbEntity
  8
$DDT_AUDIT_GENERATED_(B1)
  6
Continuous
 62
     7
100
AcDbCircle
 10
87.1770204218
 20
466.5489093168
 30
0.0
 40
0.3199644555691506
100
AcDbArc
 50
107.5792537199
 51
134.3650128249
  0
ARC
  5
F0
330
82
100
AcDbEntity
  8
$DDT_AUDIT_GENERATED_(B1)
  6
Continuous
 62
     7
100
AcDbCircle
 10
87.1771092306
 20
466.5572086928
 30
0.0
 40
0.3141481147314991
100
AcDbArc
 50
135.4350592102
 51
162.1994753288
  0
ARC
  5
F1
330
82
100
AcDbEntity
  8
$DDT_AUDIT_GENERATED_(B1)
  6
Continuous
 62
     7
100
AcDbCircle
 10
134.6573644041
 20
419.0725665192
 30
0.0
 40
0.2825313061882045
100
AcDbArc
 50
315.1558564411
 51
343.4618772129
  0
ARC
  5
F2
330
82
100
AcDbEntity
  8
$DDT_AUDIT_GENERATED_(B1)
  6
Continuous
 62
     7
100
AcDbCircle
 10
134.6569371899
 20
419.0756451671
 30
0.0
 40
0.2850114268494267
100
AcDbArc
 50
286.1473576592
 51
314.7775994608
  0
ARC
  5
F3
330
82
100
AcDbEntity
  8
$DDT_AUDIT_GENERATED_(B1)
  6
Continuous
 62
     7
100
AcDbCircle
 10
134.6452160056
 20
419.0908288747
 30
0.0
 40
0.3200002738244208
100
AcDbArc
 50
287.5807794783
 51
314.3634846
  0
ARC
  5
F4
330
82
100
AcDbEntity
  8
$DDT_AUDIT_GENERATED_(B1)
  6
Continuous
 62
     7
100
AcDbCircle
 10
134.6451548422
 20
419.0824926485
 30
0.0
 40
0.314138212652382
100
AcDbArc
 50
315.4346310004
 51
342.1999062268
  0
ARC
  5
F5
330
82
100
AcDbEntity
  8
$DDT_AUDIT_GENERATED_(B1)
  6
Continuous
 62
     7
100
AcDbCircle
 10
87.1638411748
 20
419.0736171762
 30
0.0
 40
0.2825318428773255
100
AcDbArc
 50
225.1559002533
 51
253.461857672
  0
ARC
  5
F6
330
82
100
AcDbEntity
  8
$DDT_AUDIT_GENERATED_(B1)
  6
Continuous
 62
     7
100
AcDbCircle
 10
87.1669282025
 20
419.0740488632
 30
0.0
 40
0.2850210609923054
100
AcDbArc
 50
196.1478496971
 51
224.7770953475
  0
ARC
  5
F7
330
82
100
AcDbEntity
  8
$DDT_AUDIT_GENERATED_(B1)
  6
Continuous
 62
     7
100
AcDbCircle
 10
87.1820726693
 20
419.0857467017
 30
0.0
 40
0.3199656754662579
100
AcDbArc
 50
197.5793126397
 51
224.3649727418
  0
ARC
  5
F8
330
82
100
AcDbEntity
  8
$DDT_AUDIT_GENERATED_(B1)
  6
Continuous
 62
     7
100
AcDbCircle
 10
87.1737726302
 20
419.0858353013
 30
0.0
 40
0.3141487158692666
100
AcDbArc
 50
225.4350736319
 51
252.1994423617
  0
ARC
  5
F9
330
82
100
AcDbEntity
  8
$DDT_AUDIT_GENERATED_(B1)
  6
Continuous
 62
     7
100
AcDbCircle
 10
110.9111472511
 20
398.9779309899
 30
0.0
 40
71.92106494795004
100
AcDbArc
 50
70.8015713095
 51
109.1984900496
  0
SPLINE
  5
FB
330
82
100
AcDbEntity
  8
$DDT_AUDIT_GENERATED_(FA)
  6
Continuous
 62
     7
100
AcDbSpline
210
0.0
220
0.0
230
1.0
 70
    12
 71
     3
 72
     8
 73
     4
 74
     0
 42
0.000000043404073
 43
0.0000000001
 40
0.0
 40
0.0
 40
0.0
 40
0.0
 40
1.0
 40
1.0
 40
1.0
 40
1.0
 10
88.02527308324737
 20
550.3938182776435
 30
0.0
 41
1.0
 10
88.05027937625466
 20
550.4671575307166
 30
0.0
 41
1.0
 10
88.09158229058727
 20
550.5326265731566
 30
0.0
 41
1.0
 10
88.14496852132807
 20
550.5860121515313
 30
0.0
 41
1.0
  0
SPLINE
  5
FC
330
82
100
AcDbEntity
  8
$DDT_AUDIT_GENERATED_(FA)
  6
Continuous
 62
     7
100
AcDbSpline
210
0.0
220
0.0
230
1.0
 70
    12
 71
     3
 72
     8
 73
     4
 74
     0
 42
0.0000000434104029
 43
0.0000000001
 40
0.5005256331352858
 40
0.5005256331352858
 40
0.5005256331352858
 40
0.5005256331352858
 40
1.0
 40
1.0
 40
1.0
 40
1.0
 10
88.23368527780003
 20
550.6565647209138
 30
0.0
 41
1.0
 10
88.26586476693055
 20
550.6766605137642
 30
0.0
 41
1.0
 10
88.30053262824012
 20
550.6932156862875
 30
0.0
 41
1.0
 10
88.33716385785806
 20
550.7057052410289
 30
0.0
 41
1.0
  0
ARC
  5
FD
330
82
100
AcDbEntity
  8
$DDT_AUDIT_GENERATED_(FA)
  6
Continuous
 62
     7
100
AcDbCircle
 10
110.9111387455
 20
483.9593263029
 30
0.0
 40
70.46118741001763
100
AcDbArc
 50
71.5958828669
 51
108.4041197228
  0
SPLINE
  5
FE
330
82
100
AcDbEntity
  8
$DDT_AUDIT_GENERATED_(FA)
  6
Continuous
 62
     7
100
AcDbSpline
210
0.0
220
0.0
230
1.0
 70
    12
 71
     3
 72
     8
 73
     4
 74
     0
 42
0.0000000434543502
 43
0.0000000001
 40
0.0
 40
0.0
 40
0.0
 40
0.0
 40
0.749991213818459
 40
0.749991213818459
 40
0.749991213818459
 40
0.749991213818459
 10
133.4850926895554
 20
550.7057078754447
 30
0.0
 41
1.0
 10
133.5400964849883
 20
550.6869533753991
 30
0.0
 41
1.0
 10
133.590673390663
 20
550.6590322406344
 30
0.0
 41
1.0
 10
133.6350460027558
 20
550.6237218966937
 30
0.0
 41
1.0
  0
SPLINE
  5
FF
330
82
100
AcDbEntity
  8
$DDT_AUDIT_GENERATED_(FA)
  6
Continuous
 62
     7
100
AcDbSpline
210
0.0
220
0.0
230
1.0
 70
    12
 71
     3
 72
     8
 73
     4
 74
     0
 42
0.000000043404073
 43
0.0000000001
 40
0.0
 40
0.0
 40
0.0
 40
0.0
 40
1.0
 40
1.0
 40
1.0
 40
1.0
 10
133.6772865634433
 20
550.586012437364
 30
0.0
 41
1.0
 10
133.7306721418182
 20
550.5326262066233
 30
0.0
 41
1.0
 10
133.7719742561279
 20
550.4671566594741
 30
0.0
 41
1.0
 10
133.7969796529408
 20
550.3938171008341
 30
0.0
 41
1.0
  0
ARC
  5
100
330
82
100
AcDbEntity
  8
$DDT_AUDIT_GENERATED_(FA)
  6
Continuous
 62
     7
100
AcDbCircle
 10
67.0506005584
 20
527.8198422135
 30
0.0
 40
70.46118755998168
100
AcDbArc
 50
341.5958873603
 51
18.404116372
  0
ARC
  5
101
330
82
100
AcDbEntity
  8
$DDT_AUDIT_GENERATED_(FA)
  6
Continuous
 62
     7
100
AcDbCircle
 10
154.7716550035
 20
527.8198643296
 30
0.0
 40
70.46118775780488
100
AcDbArc
 50
161.5958891359
 51
198.4041151795
  0
SPLINE
  5
102
330
82
100
AcDbEntity
  8
$DDT_AUDIT_GENERATED_(FA)
  6
Continuous
 62
     7
100
AcDbSpline
210
0.0
220
0.0
230
1.0
 70
    12
 71
     3
 72
     8
 73
     4
 74
     0
 42
0.000000043404073
 43
0.0000000001
 40
0.0
 40
0.0
 40
0.0
 40
0.0
 40
1.0
 40
1.0
 40
1.0
 40
1.0
 10
133.7969822873564
 20
505.2458882691357
 30
0.0
 41
1.0
 10
133.7719759943492
 20
505.1725490160625
 30
0.0
 41
1.0
 10
133.7306730800163
 20
505.1070799736226
 30
0.0
 41
1.0
 10
133.6772868492755
 20
505.0536943952479
 30
0.0
 41
1.0
  0
SPLINE
  5
103
330
82
100
AcDbEntity
  8
$DDT_AUDIT_GENERATED_(FA)
  6
Continuous
 62
     7
100
AcDbSpline
210
0.0
220
0.0
230
1.0
 70
    12
 71
     3
 72
     8
 73
     4
 74
     0
 42
0.000000043404073
 43
0.0000000001
 40
0.0
 40
0.0
 40
0.0
 40
0.0
 40
1.0
 40
1.0
 40
1.0
 40
1.0
 10
133.6772868492755
 20
505.0536943952479
 30
0.0
 41
1.0
 10
133.6239006185346
 20
505.0003088168732
 30
0.0
 41
1.0
 10
133.5584310713854
 20
504.9590067025636
 30
0.0
 41
1.0
 10
133.4850915127453
 20
504.9340013057507
 30
0.0
 41
1.0
  0
ARC
  5
104
330
82
100
AcDbEntity
  8
$DDT_AUDIT_GENERATED_(FA)
  6
Continuous
 62
     7
100
AcDbCircle
 10
110.911116495
 20
571.6803804762
 30
0.0
 40
70.46118764044958
100
AcDbArc
 50
251.5959031944
 51
288.4041320459
  0
SPLINE
  5
105
330
82
100
AcDbEntity
  8
$DDT_AUDIT_GENERATED_(FA)
  6
Continuous
 62
     7
100
AcDbSpline
210
0.0
220
0.0
230
1.0
 70
    12
 71
     3
 72
     8
 73
     4
 74
     0
 42
0.000000043404073
 43
0.0000000001
 40
0.0
 40
0.0
 40
0.0
 40
0.0
 40
1.0
 40
1.0
 40
1.0
 40
1.0
 10
88.33716268104926
 20
504.9339986713351
 30
0.0
 41
1.0
 10
88.26382342797616
 20
504.9590049643421
 30
0.0
 41
1.0
 10
88.19835438553616
 20
505.0003078786744
 30
0.0
 41
1.0
 10
88.14496880716128
 20
505.0536941094151
 30
0.0
 41
1.0
  0
SPLINE
  5
106
330
82
100
AcDbEntity
  8
$DDT_AUDIT_GENERATED_(FA)
  6
Continuous
 62
     7
100
AcDbSpline
210
0.0
220
0.0
230
1.0
 70
    12
 71
     3
 72
     8
 73
     4
 74
     0
 42
0.000000043404073
 43
0.0000000001
 40
0.0
 40
0.0
 40
0.0
 40
0.0
 40
1.0
 40
1.0
 40
1.0
 40
1.0
 10
88.14496880716128
 20
505.0536941094151
 30
0.0
 41
1.0
 10
88.09158322878636
 20
505.1070803401557
 30
0.0
 41
1.0
 10
88.05028111447646
 20
505.1725498873046
 30
0.0
 41
1.0
 10
88.02527571766356
 20
505.2458894459446
 30
0.0
 41
1.0
  0
LINE
  5
107
330
82
100
AcDbEntity
  8
$DDT_AUDIT_GENERATED_(FA)
  6
Continuous
 62
     7
100
AcDbLine
 10
88.4966171817
 20
550.7598511544
 30
0.0
 11
88.3371638579
 21
550.705705241
 31
0.0
  0
LINE
  5
108
330
82
100
AcDbEntity
  8
$DDT_AUDIT_GENERATED_(FA)
  6
Continuous
 62
     7
100
AcDbLine
 10
88.1449685213
 20
550.5860121515
 30
0.0
 11
88.1484136144
 21
550.5825669274
 31
0.0
  0
LINE
  5
109
330
82
100
AcDbEntity
  8
$DDT_AUDIT_GENERATED_(FA)
  6
Continuous
 62
     7
100
AcDbLine
 10
88.6653255154
 20
550.8166574264
 30
0.0
 11
88.4966171817
 21
550.7598511544
 31
0.0
  0
LINE
  5
10A
330
82
100
AcDbEntity
  8
$DDT_AUDIT_GENERATED_(FA)
  6
Continuous
 62
     7
100
AcDbLine
 10
87.971132167
 20
550.2343860864
 30
0.0
 11
87.9143201105
 21
550.0656673324
 31
0.0
  0
LINE
  5
10B
330
82
100
AcDbEntity
  8
$DDT_AUDIT_GENERATED_(FA)
  6
Continuous
 62
     7
100
AcDbLine
 10
88.0252730832
 20
550.3938182776
 30
0.0
 11
87.971132167
 21
550.2343860864
 31
0.0
  0
LINE
  5
10C
330
82
100
AcDbEntity
  8
$DDT_AUDIT_GENERATED_(FA)
  6
Continuous
 62
     7
100
AcDbLine
 10
133.9079331252
 20
550.065651581
 30
0.0
 11
133.8511257727
 21
550.2343631666
 31
0.0
  0
LINE
  5
10D
330
82
100
AcDbEntity
  8
$DDT_AUDIT_GENERATED_(FA)
  6
Continuous
 62
     7
100
AcDbLine
 10
133.8511257727
 20
550.2343631666
 30
0.0
 11
133.7969796529
 21
550.3938171008
 31
0.0
  0
LINE
  5
10E
330
82
100
AcDbEntity
  8
$DDT_AUDIT_GENERATED_(FA)
  6
Continuous
 62
     7
100
AcDbLine
 10
133.6772865634
 20
550.5860124374
 30
0.0
 11
133.67401067
 21
550.5827367471
 31
0.0
  0
LINE
  5
10F
330
82
100
AcDbEntity
  8
$DDT_AUDIT_GENERATED_(FA)
  6
Continuous
 62
     7
100
AcDbLine
 10
133.4850926896
 20
550.7057078754
 30
0.0
 11
133.3256634899
 21
550.7598477799
 31
0.0
  0
LINE
  5
110
330
82
100
AcDbEntity
  8
$DDT_AUDIT_GENERATED_(FA)
  6
Continuous
 62
     7
100
AcDbLine
 10
133.3256634899
 20
550.7598477799
 30
0.0
 11
133.1569489537
 21
550.8166584319
 31
0.0
  0
LINE
  5
111
330
82
100
AcDbEntity
  8
$DDT_AUDIT_GENERATED_(FA)
  6
Continuous
 62
     7
100
AcDbLine
 10
133.1569441774
 20
504.8230539186
 30
0.0
 11
133.3256463609
 21
504.8798581561
 31
0.0
  0
LINE
  5
112
330
82
100
AcDbEntity
  8
$DDT_AUDIT_GENERATED_(FA)
  6
Continuous
 62
     7
100
AcDbLine
 10
133.3256463609
 20
504.8798581561
 30
0.0
 11
133.4850915127
 21
504.9340013058
 31
0.0
  0
LINE
  5
113
330
82
100
AcDbEntity
  8
$DDT_AUDIT_GENERATED_(FA)
  6
Continuous
 62
     7
100
AcDbLine
 10
133.7969822874
 20
505.2458882691
 30
0.0
 11
133.8511273653
 21
505.4053327655
 31
0.0
  0
LINE
  5
114
330
82
100
AcDbEntity
  8
$DDT_AUDIT_GENERATED_(FA)
  6
Continuous
 62
     7
100
AcDbLine
 10
133.8511273653
 20
505.4053327655
 30
0.0
 11
133.9079345744
 21
505.5740372013
 31
0.0
  0
LINE
  5
115
330
82
100
AcDbEntity
  8
$DDT_AUDIT_GENERATED_(FA)
  6
Continuous
 62
     7
100
AcDbLine
 10
88.4966029251
 20
504.8798550316
 30
0.0
 11
88.6653299339
 21
504.8230402361
 31
0.0
  0
LINE
  5
116
330
82
100
AcDbEntity
  8
$DDT_AUDIT_GENERATED_(FA)
  6
Continuous
 62
     7
100
AcDbLine
 10
88.337162681
 20
504.9339986713
 30
0.0
 11
88.4966029251
 21
504.8798550316
 31
0.0
  0
LINE
  5
117
330
82
100
AcDbEntity
  8
$DDT_AUDIT_GENERATED_(FA)
  6
Continuous
 62
     7
100
AcDbLine
 10
87.9711340299
 20
505.4053302752
 30
0.0
 11
88.0252757177
 21
505.2458894459
 31
0.0
  0
LINE
  5
118
330
82
100
AcDbEntity
  8
$DDT_AUDIT_GENERATED_(FA)
  6
Continuous
 62
     7
100
AcDbLine
 10
87.9143217859
 20
505.5740562913
 30
0.0
 11
87.9711340299
 21
505.4053302752
 31
0.0
  0
LINE
  5
119
330
82
100
AcDbEntity
  8
$DDT_AUDIT_GENERATED_(FA)
  6
Continuous
 62
     7
100
AcDbLine
 10
88.2335832538
 20
550.6565009839
 30
0.0
 11
88.1485590623
 21
550.5824214735
 31
0.0
  0
LINE
  5
11A
330
82
100
AcDbEntity
  8
$DDT_AUDIT_GENERATED_(FA)
  6
Continuous
 62
     7
100
AcDbLine
 10
133.6736958876
 20
550.5824219852
 30
0.0
 11
133.635047561
 21
550.6237206522
 31
0.0
  0
ARC
  5
11B
330
82
100
AcDbEntity
  8
$DDT_AUDIT_GENERATED_(FA)
  6
Continuous
 62
     7
100
AcDbCircle
 10
100.8111279357
 20
553.3936604648
 30
0.0
 40
0.2999999999957787
100
AcDbArc
 50
98.2377755503
 51
98.6366660334
  0
ARC
  5
11C
330
82
100
AcDbEntity
  8
$DDT_AUDIT_GENERATED_(FA)
  6
Continuous
 62
     7
100
AcDbCircle
 10
121.0111274423
 20
553.393715107
 30
0.0
 40
0.3000000000006665
100
AcDbArc
 50
81.3634749552
 51
81.7623846411
  0
ARC
  5
11E
330
82
100
AcDbEntity
  8
$DDT_AUDIT_GENERATED_(11D)
  6
Continuous
 62
     7
100
AcDbCircle
 10
109.5197297493
 20
496.1516678129
 30
0.0
 40
58.40708333771428
100
AcDbArc
 50
96.5023038024
 51
97.7223568807
  0
ARC
  5
11F
330
82
100
AcDbEntity
  8
$DDT_AUDIT_GENERATED_(11D)
  6
Continuous
 62
     7
100
AcDbCircle
 10
110.9113322984
 20
484.7511553577
 30
0.0
 40
69.89184998832917
100
AcDbArc
 50
83.6177149906
 51
96.3826240352
  0
ARC
  5
120
330
82
100
AcDbEntity
  8
$DDT_AUDIT_GENERATED_(11D)
  6
Continuous
 62
     7
100
AcDbCircle
 10
112.393980759
 20
496.8829290652
 30
0.0
 40
57.6702164541431
100
AcDbArc
 50
82.2700645629
 51
83.5057059831
  0
LINE
  5
121
330
82
100
AcDbEntity
  8
$DDT_AUDIT_GENERATED_(11D)
  6
Continuous
 62
     7
100
AcDbLine
 10
103.0092865075
 20
554.1948950984
 30
0.0
 11
102.9055211291
 21
554.183035437
 31
0.0
  0
LINE
  5
122
330
82
100
AcDbEntity
  8
$DDT_AUDIT_GENERATED_(11D)
  6
Continuous
 62
     7
100
AcDbLine
 10
103.1416266208
 20
554.2097931825
 30
0.0
 11
103.0092865075
 21
554.1948950984
 31
0.0
  0
LINE
  5
123
330
82
100
AcDbEntity
  8
$DDT_AUDIT_GENERATED_(11D)
  6
Continuous
 62
     7
100
AcDbLine
 10
118.8129649926
 20
554.1949418884
 30
0.0
 11
118.6806269811
 21
554.2098391555
 31
0.0
  0
LINE
  5
124
330
82
100
AcDbEntity
  8
$DDT_AUDIT_GENERATED_(11D)
  6
Continuous
 62
     7
100
AcDbLine
 10
118.916728214
 20
554.1830829176
 30
0.0
 11
118.8129649926
 21
554.1949418884
 31
0.0
  0
ARC
  5
125
330
82
100
AcDbEntity
  8
$DDT_AUDIT_GENERATED_(11D)
  6
Continuous
 62
     7
100
AcDbCircle
 10
101.7114856962
 20
553.7309394914
 30
0.0
 40
0.3007912518807211
100
AcDbArc
 50
97.6578663203
 51
138.742922759
  0
ARC
  5
126
330
82
100
AcDbEntity
  8
$DDT_AUDIT_GENERATED_(11D)
  6
Continuous
 62
     7
100
AcDbCircle
 10
101.7119307019
 20
553.7313520594
 30
0.0
 40
0.3008543308250379
100
AcDbArc
 50
138.857875618
 51
179.9368207266
  0
ARC
  5
127
330
82
100
AcDbEntity
  8
$DDT_AUDIT_GENERATED_(11D)
  6
Continuous
 62
     7
100
AcDbCircle
 10
120.110324732
 20
553.7314035472
 30
0.0
 40
0.3008543323123909
100
AcDbArc
 50
0.0631796622
 51
41.1422206298
  0
ARC
  5
128
330
82
100
AcDbEntity
  8
$DDT_AUDIT_GENERATED_(11D)
  6
Continuous
 62
     7
100
AcDbCircle
 10
120.1107697401
 20
553.7309909791
 30
0.0
 40
0.3007912525895087
100
AcDbArc
 50
41.257173822
 51
82.3423262053
  0
LINE
  5
129
330
82
100
AcDbEntity
  8
$DDT_AUDIT_GENERATED_(B1)
  6
Continuous
 62
     7
100
AcDbLine
 10
134.9282074456
 20
503.9921430984
 30
0.0
 11
134.9442549839
 21
503.9864615549
 31
0.0
  0
LINE
  5
12A
330
82
100
AcDbEntity
  8
$DDT_AUDIT_GENERATED_(B1)
  6
Continuous
 62
     7
100
AcDbLine
 10
134.9442549839
 20
503.9864615549
 30
0.0
 11
134.9652527758
 21
504.0444649653
 31
0.0
  0
LINE
  5
12B
330
82
100
AcDbEntity
  8
$DDT_AUDIT_GENERATED_(B1)
  6
Continuous
 62
     7
100
AcDbLine
 10
134.9652527758
 20
504.0444649653
 30
0.0
 11
135.0072501338
 21
504.1633380505
 31
0.0
  0
ARC
  5
12C
330
82
100
AcDbEntity
  8
$DDT_AUDIT_GENERATED_(B1)
  6
Continuous
 62
     7
100
AcDbCircle
 10
67.0870643555
 20
527.8198328433
 30
0.0
 40
71.9220507357781
100
AcDbArc
 50
340.7968525325
 51
19.2032134811
  0
LINE
  5
12D
330
82
100
AcDbEntity
  8
$DDT_AUDIT_GENERATED_(B1)
  6
Continuous
 62
     7
100
AcDbLine
 10
135.0072228778
 20
551.4764058907
 30
0.0
 11
134.9652224974
 21
551.5952744023
 31
0.0
  0
ARC
  5
12E
330
82
100
AcDbEntity
  8
$DDT_AUDIT_GENERATED_(B1)
  6
Continuous
 62
     7
100
AcDbCircle
 10
127.9564822653
 20
549.0907094289
 30
0.0
 40
7.442800907382408
100
AcDbArc
 50
19.6642886781
 51
20.1171961159
  0
LINE
  5
12F
330
82
100
AcDbEntity
  8
$DDT_AUDIT_GENERATED_(B1)
  6
Continuous
 62
     7
100
AcDbLine
 10
134.9291034423
 20
551.644926967
 30
0.0
 11
134.9319100107
 21
551.6368663694
 31
0.0
  0
LINE
  5
130
330
82
100
AcDbEntity
  8
$DDT_AUDIT_GENERATED_(B1)
  6
Continuous
 62
     7
100
AcDbLine
 10
134.9319100107
 20
551.6368663694
 30
0.0
 11
134.9903829603
 21
551.4704832342
 31
0.0
  0
ARC
  5
131
330
82
100
AcDbEntity
  8
$DDT_AUDIT_GENERATED_(B1)
  6
Continuous
 62
     7
100
AcDbCircle
 10
67.0271863587
 20
527.8198337608
 30
0.0
 40
71.96074841766885
100
AcDbArc
 50
340.8125729603
 51
19.1874883237
  0
LINE
  5
132
330
82
100
AcDbEntity
  8
$DDT_AUDIT_GENERATED_(B1)
  6
Continuous
 62
     7
100
AcDbLine
 10
134.9904082572
 20
504.1692569814
 30
0.0
 11
134.9319426338
 21
504.0028762238
 31
0.0
  0
LINE
  5
133
330
82
100
AcDbEntity
  8
$DDT_AUDIT_GENERATED_(B1)
  6
Continuous
 62
     7
100
AcDbLine
 10
134.9319426338
 20
504.0028762238
 30
0.0
 11
134.9282074456
 21
503.9921430984
 31
0.0
  0
ARC
  5
134
330
82
100
AcDbEntity
  8
$DDT_AUDIT_GENERATED_(B1)
  6
Continuous
 62
     7
100
AcDbCircle
 10
110.9111077827
 20
571.7037946347
 30
0.0
 40
71.96074841709172
100
AcDbArc
 50
250.8125778011
 51
289.1874931648
  0
LINE
  5
135
330
82
100
AcDbEntity
  8
$DDT_AUDIT_GENERATED_(B1)
  6
Continuous
 62
     7
100
AcDbLine
 10
87.2605367456
 20
503.7405707385
 30
0.0
 11
87.0941501994
 21
503.7990383961
 31
0.0
  0
LINE
  5
136
330
82
100
AcDbEntity
  8
$DDT_AUDIT_GENERATED_(B1)
  6
Continuous
 62
     7
100
AcDbLine
 10
87.0941501994
 20
503.7990383961
 30
0.0
 11
87.0834174451
 21
503.8027734575
 31
0.0
  0
LINE
  5
137
330
82
100
AcDbEntity
  8
$DDT_AUDIT_GENERATED_(B1)
  6
Continuous
 62
     7
100
AcDbLine
 10
87.0834174451
 20
503.8027734575
 30
0.0
 11
87.0777359583
 21
503.7867260796
 31
0.0
  0
LINE
  5
138
330
82
100
AcDbEntity
  8
$DDT_AUDIT_GENERATED_(B1)
  6
Continuous
 62
     7
100
AcDbLine
 10
87.0777359583
 20
503.7867260796
 30
0.0
 11
87.1357380839
 21
503.7657287662
 31
0.0
  0
LINE
  5
139
330
82
100
AcDbEntity
  8
$DDT_AUDIT_GENERATED_(B1)
  6
Continuous
 62
     7
100
AcDbLine
 10
87.1357380839
 20
503.7657287662
 30
0.0
 11
87.2546179094
 21
503.7237290337
 31
0.0
  0
ARC
  5
13A
330
82
100
AcDbEntity
  8
$DDT_AUDIT_GENERATED_(B1)
  6
Continuous
 62
     7
100
AcDbCircle
 10
110.9111074583
 20
571.6439166363
 30
0.0
 40
71.92205073376007
100
AcDbArc
 50
250.7968569556
 51
289.2032179064
  0
LINE
  5
13B
330
82
100
AcDbEntity
  8
$DDT_AUDIT_GENERATED_(B1)
  6
Continuous
 62
     7
100
AcDbLine
 10
134.5676857509
 20
503.723759943
 30
0.0
 11
134.6865475208
 21
503.7657579481
 31
0.0
  0
ARC
  5
13C
330
82
100
AcDbEntity
  8
$DDT_AUDIT_GENERATED_(B1)
  6
Continuous
 62
     7
100
AcDbCircle
 10
132.1828743786
 20
510.7720320626
 30
0.0
 40
7.440178503887713
100
AcDbArc
 50
289.6642120492
 51
290.1172896733
  0
LINE
  5
13D
330
82
100
AcDbEntity
  8
$DDT_AUDIT_GENERATED_(B1)
  6
Continuous
 62
     7
100
AcDbLine
 10
134.736201315
 20
503.8018776368
 30
0.0
 11
134.7281403223
 21
503.7990709387
 31
0.0
  0
LINE
  5
13E
330
82
100
AcDbEntity
  8
$DDT_AUDIT_GENERATED_(B1)
  6
Continuous
 62
     7
100
AcDbLine
 10
134.728140345
 20
503.7990709471
 30
0.0
 11
134.5617629983
 21
503.7406000319
 31
0.0
  0
LINE
  5
13F
330
82
100
AcDbEntity
  8
$DDT_AUDIT_GENERATED_(B1)
  6
Continuous
 62
     7
100
AcDbLine
 10
134.7388379291
 20
551.8369331682
 30
0.0
 11
134.7445194116
 21
551.8529805339
 31
0.0
  0
LINE
  5
140
330
82
100
AcDbEntity
  8
$DDT_AUDIT_GENERATED_(B1)
  6
Continuous
 62
     7
100
AcDbLine
 10
134.7445194116
 20
551.8529805339
 30
0.0
 11
134.6865172867
 21
551.8739778509
 31
0.0
  0
LINE
  5
141
330
82
100
AcDbEntity
  8
$DDT_AUDIT_GENERATED_(B1)
  6
Continuous
 62
     7
100
AcDbLine
 10
134.6865172867
 20
551.8739778509
 30
0.0
 11
134.5676374612
 21
551.9159775834
 31
0.0
  0
ARC
  5
142
330
82
100
AcDbEntity
  8
$DDT_AUDIT_GENERATED_(B1)
  6
Continuous
 62
     7
100
AcDbCircle
 10
110.9111479123
 20
483.9957899808
 30
0.0
 40
71.92205073378618
100
AcDbArc
 50
70.7968569556
 51
109.2032179058
  0
LINE
  5
143
330
82
100
AcDbEntity
  8
$DDT_AUDIT_GENERATED_(B1)
  6
Continuous
 62
     7
100
AcDbLine
 10
87.2545696203
 20
551.9159466742
 30
0.0
 11
87.1357078498
 21
551.8739486689
 31
0.0
  0
ARC
  5
144
330
82
100
AcDbEntity
  8
$DDT_AUDIT_GENERATED_(B1)
  6
Continuous
 62
     7
100
AcDbCircle
 10
89.6402538455
 20
544.8652632644
 30
0.0
 40
7.442742891196997
100
AcDbArc
 50
109.6642931357
 51
110.1172146428
  0
LINE
  5
145
330
82
100
AcDbEntity
  8
$DDT_AUDIT_GENERATED_(B1)
  6
Continuous
 62
     7
100
AcDbLine
 10
87.0860540568
 20
551.8378289807
 30
0.0
 11
87.0941150483
 21
551.8406356784
 31
0.0
  0
LINE
  5
146
330
82
100
AcDbEntity
  8
$DDT_AUDIT_GENERATED_(B1)
  6
Continuous
 62
     7
100
AcDbLine
 10
87.0941150256
 20
551.84063567
 30
0.0
 11
87.2604923725
 21
551.8991065853
 31
0.0
  0
ARC
  5
147
330
82
100
AcDbEntity
  8
$DDT_AUDIT_GENERATED_(B1)
  6
Continuous
 62
     7
100
AcDbCircle
 10
110.9111475879
 20
483.9359119826
 30
0.0
 40
71.96074841684339
100
AcDbArc
 50
70.812577801
 51
109.1874931647
  0
LINE
  5
148
330
82
100
AcDbEntity
  8
$DDT_AUDIT_GENERATED_(B1)
  6
Continuous
 62
     7
100
AcDbLine
 10
134.561718625
 20
551.8991358786
 30
0.0
 11
134.7281051712
 21
551.840668221
 31
0.0
  0
LINE
  5
149
330
82
100
AcDbEntity
  8
$DDT_AUDIT_GENERATED_(B1)
  6
Continuous
 62
     7
100
AcDbLine
 10
134.7281051712
 20
551.840668221
 30
0.0
 11
134.7388379291
 21
551.8369331682
 31
0.0
  0
LINE
  5
14A
330
82
100
AcDbEntity
  8
$DDT_AUDIT_GENERATED_(B1)
  6
Continuous
 62
     7
100
AcDbLine
 10
86.8318471135
 20
551.4704496359
 30
0.0
 11
86.8903127368
 21
551.6368303933
 31
0.0
  0
LINE
  5
14B
330
82
100
AcDbEntity
  8
$DDT_AUDIT_GENERATED_(B1)
  6
Continuous
 62
     7
100
AcDbLine
 10
86.8903127368
 20
551.6368303933
 30
0.0
 11
86.8940479243
 21
551.6475635167
 31
0.0
  0
LINE
  5
14C
330
82
100
AcDbEntity
  8
$DDT_AUDIT_GENERATED_(B1)
  6
Continuous
 62
     7
100
AcDbLine
 10
86.8940479243
 20
551.6475635167
 30
0.0
 11
86.8780003893
 21
551.653245059
 31
0.0
  0
ARC
  5
14D
330
82
100
AcDbEntity
  8
$DDT_AUDIT_GENERATED_(B1)
  6
Continuous
 62
     7
100
AcDbCircle
 10
93.7866096309
 20
549.1194592704
 30
0.0
 40
7.358597154015656
100
AcDbArc
 50
159.859097897
 51
160.3394099399
  0
LINE
  5
14E
330
82
100
AcDbEntity
  8
$DDT_AUDIT_GENERATED_(B1)
  6
Continuous
 62
     7
100
AcDbLine
 10
86.8570025948
 20
551.5952416519
 30
0.0
 11
86.8150052368
 21
551.4763685666
 31
0.0
  0
ARC
  5
14F
330
82
100
AcDbEntity
  8
$DDT_AUDIT_GENERATED_(B1)
  6
Continuous
 62
     7
100
AcDbCircle
 10
154.7351910151
 20
527.8198737738
 30
0.0
 40
71.92205073583801
100
AcDbArc
 50
160.7968525325
 51
199.203213481
  0
LINE
  5
150
330
82
100
AcDbEntity
  8
$DDT_AUDIT_GENERATED_(B1)
  6
Continuous
 62
     7
100
AcDbLine
 10
86.8150324928
 20
504.1633007264
 30
0.0
 11
86.8570328732
 21
504.0444322147
 31
0.0
  0
ARC
  5
151
330
82
100
AcDbEntity
  8
$DDT_AUDIT_GENERATED_(B1)
  6
Continuous
 62
     7
100
AcDbCircle
 10
93.8633619672
 20
506.5481243895
 30
0.0
 40
7.440236681706654
100
AcDbArc
 50
199.6642075946
 51
200.1172711299
  0
LINE
  5
152
330
82
100
AcDbEntity
  8
$DDT_AUDIT_GENERATED_(B1)
  6
Continuous
 62
     7
100
AcDbLine
 10
86.8931519226
 20
503.9947796474
 30
0.0
 11
86.8903453599
 21
504.0028402477
 31
0.0
  0
LINE
  5
153
330
82
100
AcDbEntity
  8
$DDT_AUDIT_GENERATED_(B1)
  6
Continuous
 62
     7
100
AcDbLine
 10
86.8903453599
 20
504.0028402477
 30
0.0
 11
86.8318724413
 21
504.1692233748
 31
0.0
  0
SPLINE
  5
154
330
82
100
AcDbEntity
  8
$DDT_AUDIT_GENERATED_(B1)
  6
Continuous
 62
     7
100
AcDbSpline
210
0.0
220
0.0
230
1.0
 70
     8
 71
     3
 72
    20
 73
    16
 74
     0
 42
0.000000043680275
 43
0.0000000001
 40
0.0
 40
0.0
 40
0.0
 40
0.0
 40
0.1147503428235033
 40
0.1147503428235033
 40
0.1147503428235033
 40
0.3446398164121945
 40
0.3446398164121945
 40
0.3446398164121945
 40
0.5732908864498345
 40
0.5732908864498345
 40
0.5732908864498345
 40
0.6875461634184258
 40
0.6875461634184258
 40
0.6875461634184258
 40
1.0
 40
1.0
 40
1.0
 40
1.0
 10
134.6987297246797
 20
504.03229055584
 30
0.0
 10
134.6925368881842
 20
504.0261083437902
 30
0.0
 10
134.6857098522444
 20
504.0205361891054
 30
0.0
 10
134.6785749169113
 20
504.0154702570605
 30
0.0
 10
134.6642995656685
 20
504.0053345016634
 30
0.0
 10
134.6487728038688
 20
503.9969924805897
 30
0.0
 10
134.633102758371
 20
503.9891842244031
 30
0.0
 10
134.6174940509628
 20
503.9814065324876
 30
0.0
 10
134.6016106577491
 20
503.9741753416808
 30
0.0
 10
134.5856089958927
 20
503.9672420122985
 30
0.0
 10
134.5776112187915
 20
503.9637766707943
 30
0.0
 10
134.5695769502416
 20
503.9603944304146
 30
0.0
 10
134.5615097659444
 20
503.9570938898806
 30
0.0
 10
134.5394554678995
 20
503.9480707782268
 30
0.0
 10
134.5171181643435
 20
503.9397283270442
 30
0.0
 10
134.4946345369988
 20
503.9318355978569
 30
0.0
  0
SPLINE
  5
155
330
82
100
AcDbEntity
  8
$DDT_AUDIT_GENERATED_(B1)
  6
Continuous
 62
     7
100
AcDbSpline
210
0.0
220
0.0
230
1.0
 70
     8
 71
     3
 72
    26
 73
    22
 74
     0
 42
0.0000000436613167
 43
0.0000000001
 40
0.0
 40
0.0
 40
0.0
 40
0.0
 40
0.2897334753389177
 40
0.2897334753389177
 40
0.2897334753389177
 40
0.3621300625642891
 40
0.3621300625642891
 40
0.3621300625642891
 40
0.4345267064860456
 40
0.4345267064860456
 40
0.4345267064860456
 40
0.5793433555051246
 40
0.5793433555051246
 40
0.5793433555051246
 40
0.6517423011754655
 40
0.6517423011754655
 40
0.6517423011754655
 40
0.9435691808349437
 40
0.9435691808349437
 40
0.9435691808349437
 40
1.0
 40
1.0
 40
1.0
 40
1.0
 10
134.7991408343512
 20
504.2364038978878
 30
0.0
 10
134.7918262460488
 20
504.2155529010427
 30
0.0
 10
134.7841333816052
 20
504.194825379866
 30
0.0
 10
134.775852435645
 20
504.1743389647215
 30
0.0
 10
134.7737826380607
 20
504.1692184467541
 30
0.0
 10
134.7716797552409
 20
504.1641111783376
 30
0.0
 10
134.7695440456207
 20
504.1590177992321
 30
0.0
 10
134.7674083351623
 20
504.1539244181276
 30
0.0
 10
134.7652397669048
 20
504.1488446819961
 30
0.0
 10
134.7630375239794
 20
504.1437797124666
 30
0.0
 10
134.7586326817922
 20
504.1336489538641
 30
0.0
 10
134.7540969783213
 20
504.123573356022
 30
0.0
 10
134.7493900407023
 20
504.1135793756935
 30
0.0
 10
134.7470366988988
 20
504.1085826551939
 30
0.0
 10
134.7446394271122
 20
504.1036062010673
 30
0.0
 10
134.7421832629076
 20
504.0986592130145
 30
0.0
 10
134.732320779479
 20
504.0787950738002
 30
0.0
 10
134.7216379936352
 20
504.0589604584727
 30
0.0
 10
134.7074639898602
 20
504.041903195413
 30
0.0
 10
134.7046970560938
 20
504.0385734152132
 30
0.0
 10
134.7017875079603
 20
504.0353554082108
 30
0.0
 10
134.6987297246797
 20
504.03229055584
 30
0.0
  0
SPLINE
  5
156
330
82
100
AcDbEntity
  8
$DDT_AUDIT_GENERATED_(B1)
  6
Continuous
 62
     7
100
AcDbSpline
210
0.0
220
0.0
230
1.0
 70
     8
 71
     3
 72
     8
 73
     4
 74
     0
 42
0.000000000204185
 43
0.0000000001
 40
0.0
 40
0.0
 40
0.0
 40
0.0
 40
1.0
 40
1.0
 40
1.0
 40
1.0
 10
134.799106995939
 20
551.4033406986878
 30
0.0
 10
140.1071836105002
 20
536.2838731640929
 30
0.0
 10
140.1039462710516
 20
519.3570173625632
 30
0.0
 10
134.7991408343512
 20
504.2364038978878
 30
0.0
  0
SPLINE
  5
157
330
82
100
AcDbEntity
  8
$DDT_AUDIT_GENERATED_(B1)
  6
Continuous
 62
     7
100
AcDbSpline
210
0.0
220
0.0
230
1.0
 70
     8
 71
     3
 72
    10
 73
     6
 74
     0
 42
0.0000000434765063
 43
0.0000000001
 40
0.0
 40
0.0
 40
0.0
 40
0.0
 40
0.5
 40
0.5
 40
1.0
 40
1.0
 40
1.0
 40
1.0
 10
134.6986547459699
 20
551.6074196563599
 30
0.0
 10
134.7258709282733
 20
551.5801535112893
 30
0.0
 10
134.741219323469
 20
551.5445381336637
 30
0.0
 10
134.7725528236536
 20
551.4749345914468
 30
0.0
 10
134.7864643333315
 20
551.4393549842134
 30
0.0
 10
134.799106995939
 20
551.4033406986878
 30
0.0
  0
SPLINE
  5
158
330
82
100
AcDbEntity
  8
$DDT_AUDIT_GENERATED_(B1)
  6
Continuous
 62
     7
100
AcDbSpline
210
0.0
220
0.0
230
1.0
 70
     8
 71
     3
 72
    26
 73
    22
 74
     0
 42
0.00000004369678
 43
0.0000000001
 40
0.0
 40
0.0
 40
0.0
 40
0.0
 40
0.1928405793514622
 40
0.1928405793514622
 40
0.1928405793514622
 40
0.2892470522731364
 40
0.2892470522731364
 40
0.2892470522731364
 40
0.4821034101382682
 40
0.4821034101382682
 40
0.4821034101382682
 40
0.6749953270206396
 40
0.6749953270206396
 40
0.6749953270206396
 40
0.8359210379941598
 40
0.8359210379941598
 40
0.8359210379941598
 40
0.9174962605831988
 40
0.9174962605831988
 40
0.9174962605831988
 40
1.0
 40
1.0
 40
1.0
 40
1.0
 10
134.4945576258251
 20
551.7078280332082
 30
0.0
 10
134.5084356345338
 20
551.7029595633713
 30
0.0
 10
134.5222649637598
 20
551.6979449040053
 30
0.0
 10
134.5359938895705
 20
551.6926706533139
 30
0.0
 10
134.5428580027261
 20
551.6900336623319
 30
0.0
 10
134.5496995349585
 20
551.687337132987
 30
0.0
 10
134.5565170876079
 20
551.6845820020053
 30
0.0
 10
134.5701537268417
 20
551.6790711201437
 30
0.0
 10
134.5836998549177
 20
551.6733297331792
 30
0.0
 10
134.5971346938928
 20
551.6673436785353
 30
0.0
 10
134.6105708279168
 20
551.6613570468667
 30
0.0
 10
134.6239142027422
 20
551.6551438452801
 30
0.0
 10
134.6370346630614
 20
551.648493809396
 30
0.0
 10
134.6479755846682
 20
551.6429484611747
 30
0.0
 10
134.658788594356
 20
551.6370924925095
 30
0.0
 10
134.6691391199704
 20
551.6305106028108
 30
0.0
 10
134.674389330273
 20
551.6271719989184
 30
0.0
 10
134.6795234750651
 20
551.6236344901555
 30
0.0
 10
134.6844484677708
 20
551.6198324603001
 30
0.0
 10
134.6894261704503
 20
551.6159897390354
 30
0.0
 10
134.6942032499893
 20
551.611861283461
 30
0.0
 10
134.6986547459699
 20
551.6074196563599
 30
0.0
  0
SPLINE
  5
159
330
82
100
AcDbEntity
  8
$DDT_AUDIT_GENERATED_(B1)
  6
Continuous
 62
     7
100
AcDbSpline
210
0.0
220
0.0
230
1.0
 70
     8
 71
     3
 72
     8
 73
     4
 74
     0
 42
0.000000000204185
 43
0.0000000001
 40
0.0
 40
0.0
 40
0.0
 40
0.0
 40
1.0
 40
1.0
 40
1.0
 40
1.0
 10
87.32762083376443
 20
551.707871019275
 30
0.0
 10
102.4470972697204
 20
557.0159221636083
 30
0.0
 10
119.3739524972136
 20
557.0126571170347
 30
0.0
 10
134.4945576258251
 20
551.7078280332082
 30
0.0
  0
SPLINE
  5
15A
330
82
100
AcDbEntity
  8
$DDT_AUDIT_GENERATED_(B1)
  6
Continuous
 62
     7
100
AcDbSpline
210
0.0
220
0.0
230
1.0
 70
     8
 71
     3
 72
    20
 73
    16
 74
     0
 42
0.0000000436802747
 43
0.0000000001
 40
0.0
 40
0.0
 40
0.0
 40
0.0
 40
0.1147503404390058
 40
0.1147503404390058
 40
0.1147503404390058
 40
0.3446398095802564
 40
0.3446398095802564
 40
0.3446398095802564
 40
0.5732908759372634
 40
0.5732908759372634
 40
0.5732908759372634
 40
0.6875461509351977
 40
0.6875461509351977
 40
0.6875461509351977
 40
1.0
 40
1.0
 40
1.0
 40
1.0
 10
87.12352564589557
 20
551.6074160612014
 30
0.0
 10
87.12971848230532
 20
551.6135982731649
 30
0.0
 10
87.13654551791447
 20
551.6191704279909
 30
0.0
 10
87.14368045284543
 20
551.6242363603918
 30
0.0
 10
87.1579558032987
 20
551.6343721165124
 30
0.0
 10
87.17348256403048
 20
551.6427141390092
 30
0.0
 10
87.18915260872357
 20
551.6505223963062
 30
0.0
 10
87.20476131537058
 20
551.6583000893479
 30
0.0
 10
87.22064470803333
 20
551.6655312809967
 30
0.0
 10
87.23664636959829
 20
551.6724646106013
 30
0.0
 10
87.2446441465492
 20
551.6759299522146
 30
0.0
 10
87.25267841501615
 20
551.6793121925572
 30
0.0
 10
87.2607455992993
 20
551.682612732876
 30
0.0
 10
87.2827998985248
 20
551.6916358444402
 30
0.0
 10
87.30513720379929
 20
551.6999782943559
 30
0.0
 10
87.32762083376443
 20
551.707871019275
 30
0.0
  0
SPLINE
  5
15B
330
82
100
AcDbEntity
  8
$DDT_AUDIT_GENERATED_(B1)
  6
Continuous
 62
     7
100
AcDbSpline
210
0.0
220
0.0
230
1.0
 70
     8
 71
     3
 72
    26
 73
    22
 74
     0
 42
0.0000000436613169
 43
0.0000000001
 40
0.0
 40
0.0
 40
0.0
 40
0.0
 40
0.2897334775161355
 40
0.2897334775161355
 40
0.2897334775161355
 40
0.3621300654827972
 40
0.3621300654827972
 40
0.3621300654827972
 40
0.4345267101459091
 40
0.4345267101459091
 40
0.4345267101459091
 40
0.5793433605809333
 40
0.5793433605809333
 40
0.5793433605809333
 40
0.6517423069912656
 40
0.6517423069912656
 40
0.6517423069912656
 40
0.9435691896547432
 40
0.9435691896547432
 40
0.9435691896547432
 40
1.0
 40
1.0
 40
1.0
 40
1.0
 10
87.02311453636024
 20
551.4033027194939
 30
0.0
 10
87.03042912807992
 20
551.4241537151796
 30
0.0
 10
87.03812199405854
 20
551.4448812357601
 30
0.0
 10
87.04640294083868
 20
551.4653676506134
 30
0.0
 10
87.0484727386309
 20
551.4704881685155
 30
0.0
 10
87.05057562160151
 20
551.4755954368877
 30
0.0
 10
87.05271133131811
 20
551.4806888159717
 30
0.0
 10
87.05484704187289
 20
551.4857821970547
 30
0.0
 10
87.057015610172
 20
551.4908619331864
 30
0.0
 10
87.05921785308531
 20
551.49592690274
 30
0.0
 10
87.06362269524743
 20
551.5060576613886
 30
0.0
 10
87.06815839847316
 20
551.5161332593688
 30
0.0
 10
87.07286533565254
 20
551.5261272399399
 30
0.0
 10
87.07521867723675
 20
551.5311239605617
 30
0.0
 10
87.07761594875545
 20
551.5361004148355
 30
0.0
 10
87.08007211265542
 20
551.5410474030588
 30
0.0
 10
87.08993459486136
 20
551.5609115429581
 30
0.0
 10
87.10061737874037
 20
551.5807461596353
 30
0.0
 10
87.11479138219472
 20
551.5978034230525
 30
0.0
 10
87.11755831545324
 20
551.6011332027863
 30
0.0
 10
87.12046786309718
 20
551.6043512093142
 30
0.0
 10
87.12352564589557
 20
551.6074160612014
 30
0.0
  0
SPLINE
  5
15C
330
82
100
AcDbEntity
  8
$DDT_AUDIT_GENERATED_(B1)
  6
Continuous
 62
     7
100
AcDbSpline
210
0.0
220
0.0
230
1.0
 70
     8
 71
     3
 72
     8
 73
     4
 74
     0
 42
0.000000000204185
 43
0.0000000001
 40
0.0
 40
0.0
 40
0.0
 40
0.0
 40
1.0
 40
1.0
 40
1.0
 40
1.0
 10
87.02314837462924
 20
504.2363659184899
 30
0.0
 10
81.71507176006158
 20
519.3558334531589
 30
0.0
 10
81.71830909956698
 20
536.2826892547747
 30
0.0
 10
87.02311453636024
 20
551.4033027194939
 30
0.0
  0
SPLINE
  5
15D
330
82
100
AcDbEntity
  8
$DDT_AUDIT_GENERATED_(B1)
  6
Continuous
 62
     7
100
AcDbSpline
210
0.0
220
0.0
230
1.0
 70
     8
 71
     3
 72
    20
 73
    16
 74
     0
 42
0.0000000436833235
 43
0.0000000001
 40
0.0
 40
0.0
 40
0.0
 40
0.0
 40
0.1147610998582572
 40
0.1147610998582572
 40
0.1147610998582572
 40
0.3446714853959514
 40
0.3446714853959514
 40
0.3446714853959514
 40
0.5733437326885725
 40
0.5733437326885725
 40
0.5733437326885725
 40
0.6876096093393729
 40
0.6876096093393729
 40
0.6876096093393729
 40
1.0
 40
1.0
 40
1.0
 40
1.0
 10
87.12360062465494
 20
504.0322869607176
 30
0.0
 10
87.1174182582594
 20
504.0384799326088
 30
0.0
 10
87.11184602299927
 20
504.0453071760207
 30
0.0
 10
87.10678000797748
 20
504.0524423036925
 30
0.0
 10
87.09664410255898
 20
504.0667180172306
 30
0.0
 10
87.08830182126118
 20
504.082245039368
 30
0.0
 10
87.08049309214391
 20
504.0979152762918
 30
0.0
 10
87.0727149214407
 20
504.113524189845
 30
0.0
 10
87.065483125722
 20
504.1294077430715
 30
0.0
 10
87.05854928175472
 20
504.1454096157631
 30
0.0
 10
87.05508368256046
 20
504.1534074993855
 30
0.0
 10
87.05170120457669
 20
504.1614418857752
 30
0.0
 10
87.04840046145772
 20
504.1695092034878
 30
0.0
 10
87.03937946618439
 20
504.1915573400227
 30
0.0
 10
87.03103898960431
 20
504.2138884421652
 30
0.0
 10
87.02314837462924
 20
504.2363659184899
 30
0.0
  0
SPLINE
  5
15E
330
82
100
AcDbEntity
  8
$DDT_AUDIT_GENERATED_(B1)
  6
Continuous
 62
     7
100
AcDbSpline
210
0.0
220
0.0
230
1.0
 70
     8
 71
     3
 72
    26
 73
    22
 74
     0
 42
0.0000000436643857
 43
0.0000000001
 40
0.0
 40
0.0
 40
0.0
 40
0.0
 40
0.2897224409801839
 40
0.2897224409801839
 40
0.2897224409801839
 40
0.3621162351048789
 40
0.3621162351048789
 40
0.3621162351048789
 40
0.4345100854901545
 40
0.4345100854901545
 40
0.4345100854901545
 40
0.5793211447133911
 40
0.5793211447133911
 40
0.5793211447133911
 40
0.6517172940913952
 40
0.6517172940913952
 40
0.6517172940913952
 40
0.9435312943173012
 40
0.9435312943173012
 40
0.9435312943173012
 40
1.0
 40
1.0
 40
1.0
 40
1.0
 10
87.32769774474087
 20
503.9318785838811
 30
0.0
 10
87.30684901920549
 20
503.9391924062427
 30
0.0
 10
87.2861238624403
 20
503.9468847814549
 30
0.0
 10
87.26563986563129
 20
503.9551653145726
 30
0.0
 10
87.26051995344471
 20
503.9572350084326
 30
0.0
 10
87.25541329405692
 20
503.9593377934091
 30
0.0
 10
87.25032052642098
 20
503.9614734083738
 30
0.0
 10
87.24522775680433
 20
503.9636090241693
 30
0.0
 10
87.24014863455596
 20
503.9657775010257
 30
0.0
 10
87.23508427992103
 20
503.9679796520935
 30
0.0
 10
87.22495475127825
 20
503.9723843105199
 30
0.0
 10
87.21488038923394
 20
503.9769198314855
 30
0.0
 10
87.20488762543607
 20
503.9816265328844
 30
0.0
 10
87.19989151329477
 20
503.983979756525
 30
0.0
 10
87.19491566261765
 20
503.9863768959161
 30
0.0
 10
87.18996926629835
 20
503.9888329011041
 30
0.0
 10
87.17010755796223
 20
503.9986947187928
 30
0.0
 10
87.15027535345348
 20
504.0093762332004
 30
0.0
 10
87.13321924306614
 20
504.0235477541001
 30
0.0
 10
87.12988733004661
 20
504.0263161622494
 30
0.0
 10
87.12666730242557
 20
504.0292273503663
 30
0.0
 10
87.12360062465494
 20
504.0322869607176
 30
0.0
  0
SPLINE
  5
15F
330
82
100
AcDbEntity
  8
$DDT_AUDIT_GENERATED_(B1)
  6
Continuous
 62
     7
100
AcDbSpline
210
0.0
220
0.0
230
1.0
 70
     8
 71
     3
 72
     8
 73
     4
 74
     0
 42
0.000000000204185
 43
0.0000000001
 40
0.0
 40
0.0
 40
0.0
 40
0.0
 40
1.0
 40
1.0
 40
1.0
 40
1.0
 10
134.4946345369988
 20
503.9318355978569
 30
0.0
 10
119.3751581009899
 20
498.623784453464
 30
0.0
 10
102.4483028734148
 20
498.6270495000225
 30
0.0
 10
87.32769774474087
 20
503.9318785838811
 30
0.0
  0
ARC
  5
160
330
82
100
AcDbEntity
  8
$DDT_AUDIT_GENERATED_(B1)
  6
Continuous
 62
     7
100
AcDbCircle
 10
87.1648915419
 20
551.5671398236
 30
0.0
 40
0.282531831079124
100
AcDbArc
 50
135.1558993344
 51
163.4618583634
  0
ARC
  5
161
330
82
100
AcDbEntity
  8
$DDT_AUDIT_GENERATED_(B1)
  6
Continuous
 62
     7
100
AcDbCircle
 10
87.1653232356
 20
551.564052802
 30
0.0
 40
0.2850210495837218
100
AcDbArc
 50
106.1478491956
 51
134.7770962276
  0
ARC
  5
162
330
82
100
AcDbEntity
  8
$DDT_AUDIT_GENERATED_(B1)
  6
Continuous
 62
     7
100
AcDbCircle
 10
87.1770400227
 20
551.5488767483
 30
0.0
 40
0.320001495753497
100
AcDbArc
 50
107.5808383981
 51
134.3634444518
  0
ARC
  5
163
330
82
100
AcDbEntity
  8
$DDT_AUDIT_GENERATED_(B1)
  6
Continuous
 62
     7
100
AcDbCircle
 10
87.1771009611
 20
551.557213648
 30
0.0
 40
0.3141387972643374
100
AcDbArc
 50
135.4346446565
 51
162.1998744145
  0
ARC
  5
164
330
82
100
AcDbEntity
  8
$DDT_AUDIT_GENERATED_(B1)
  6
Continuous
 62
     7
100
AcDbCircle
 10
87.1638411881
 20
504.073617119
 30
0.0
 40
0.2825318874009879
100
AcDbArc
 50
225.1558901294
 51
253.4618511818
  0
ARC
  5
165
330
82
100
AcDbEntity
  8
$DDT_AUDIT_GENERATED_(B1)
  6
Continuous
 62
     7
100
AcDbCircle
 10
87.16692825
 20
504.074048939
 30
0.0
 40
0.2850212238461
100
AcDbArc
 50
196.1478626689
 51
224.7770994851
  0
ARC
  5
166
330
82
100
AcDbEntity
  8
$DDT_AUDIT_GENERATED_(B1)
  6
Continuous
 62
     7
100
AcDbCircle
 10
87.182071677
 20
504.085746045
 30
0.0
 40
0.3199644555691326
100
AcDbArc
 50
197.5792537199
 51
224.3650128249
  0
ARC
  5
167
330
82
100
AcDbEntity
  8
$DDT_AUDIT_GENERATED_(B1)
  6
Continuous
 62
     7
100
AcDbCircle
 10
87.1737723011
 20
504.0858348539
 30
0.0
 40
0.3141481147315821
100
AcDbArc
 50
225.4350592102
 51
252.1994753287
  0
ARC
  5
168
330
82
100
AcDbEntity
  8
$DDT_AUDIT_GENERATED_(B1)
  6
Continuous
 62
     7
100
AcDbCircle
 10
134.6584144746
 20
551.5660900273
 30
0.0
 40
0.2825313061881395
100
AcDbArc
 50
45.1558564411
 51
73.461877213
  0
ARC
  5
169
330
82
100
AcDbEntity
  8
$DDT_AUDIT_GENERATED_(B1)
  6
Continuous
 62
     7
100
AcDbCircle
 10
134.6553358268
 20
551.5656628131
 30
0.0
 40
0.2850114268492938
100
AcDbArc
 50
16.1473576592
 51
44.7775994609
  0
ARC
  5
16A
330
82
100
AcDbEntity
  8
$DDT_AUDIT_GENERATED_(B1)
  6
Continuous
 62
     7
100
AcDbCircle
 10
134.6401521191
 20
551.5539416289
 30
0.0
 40
0.3200002738244513
100
AcDbArc
 50
17.5807794783
 51
44.3634846
  0
ARC
  5
16B
330
82
100
AcDbEntity
  8
$DDT_AUDIT_GENERATED_(B1)
  6
Continuous
 62
     7
100
AcDbCircle
 10
134.6484883453
 20
551.5538804655
 30
0.0
 40
0.3141382126523919
100
AcDbArc
 50
45.4346310004
 51
72.1999062268
  0
ARC
  5
16C
330
82
100
AcDbEntity
  8
$DDT_AUDIT_GENERATED_(B1)
  6
Continuous
 62
     7
100
AcDbCircle
 10
134.6573638177
 20
504.072566798
 30
0.0
 40
0.2825318428773416
100
AcDbArc
 50
315.1559002533
 51
343.461857672
  0
ARC
  5
16D
330
82
100
AcDbEntity
  8
$DDT_AUDIT_GENERATED_(B1)
  6
Continuous
 62
     7
100
AcDbCircle
 10
134.6569321306
 20
504.0756538257
 30
0.0
 40
0.2850210609923165
100
AcDbArc
 50
286.1478496971
 51
314.7770953475
  0
ARC
  5
16E
330
82
100
AcDbEntity
  8
$DDT_AUDIT_GENERATED_(B1)
  6
Continuous
 62
     7
100
AcDbCircle
 10
134.6452342922
 20
504.0907982926
 30
0.0
 40
0.3199656754662981
100
AcDbArc
 50
287.5793126397
 51
314.3649727417
  0
ARC
  5
16F
330
82
100
AcDbEntity
  8
$DDT_AUDIT_GENERATED_(B1)
  6
Continuous
 62
     7
100
AcDbCircle
 10
134.6451456925
 20
504.0824982535
 30
0.0
 40
0.3141487158691564
100
AcDbArc
 50
315.4350736319
 51
342.1994423617
  0
ARC
  5
170
330
82
100
AcDbEntity
  8
$DDT_AUDIT_GENERATED_(B1)
  6
Continuous
 62
     7
100
AcDbCircle
 10
154.753050004
 20
527.8198728744
 30
0.0
 40
71.92106494795001
100
AcDbArc
 50
160.8015713095
 51
199.1984900496
  0
ARC
  5
172
330
82
100
AcDbEntity
  8
$DDT_AUDIT_GENERATED_(171)
  6
Continuous
 62
     7
100
AcDbCircle
 10
21.5703425137
 20
400.4796983852
 30
0.0
 40
0.3000114237228343
100
AcDbArc
 50
199.0047379368
 51
250.994687996
  0
SPLINE
  5
173
330
82
100
AcDbEntity
  8
$DDT_AUDIT_GENERATED_(171)
  6
Continuous
 62
     7
100
AcDbSpline
210
0.0
220
0.0
230
1.0
 70
     8
 71
     3
 72
    10
 73
     6
 74
     0
 42
0.0000000001171462
 43
0.0000000001
 40
0.0
 40
0.0
 40
0.0
 40
0.0
 40
0.463865962511283
 40
0.463865962511283
 40
1.0
 40
1.0
 40
1.0
 40
1.0
 10
117.7201742540678
 20
385.3308747070706
 30
0.0
 10
130.9026127002791
 20
385.6275858093053
 30
0.0
 10
144.0640915380621
 20
386.8540651563144
 30
0.0
 10
172.1074758900446
 20
391.5008965254815
 30
0.0
 10
186.9378357672424
 20
395.2336154857604
 30
0.0
 10
201.3477531589234
 20
400.196041746316
 30
0.0
  0
ARC
  5
174
330
82
100
AcDbEntity
  8
$DDT_AUDIT_GENERATED_(171)
  6
Continuous
 62
     7
100
AcDbCircle
 10
116.9440819497
 20
415.2822799509
 30
0.0
 40
29.96145849830478
100
AcDbArc
 50
270.1897408213
 51
271.4842998275
  0
ARC
  5
175
330
82
100
AcDbEntity
  8
$DDT_AUDIT_GENERATED_(171)
  6
Continuous
 62
     7
100
AcDbCircle
 10
117.2104235601
 20
297.6987097565
 30
0.0
 40
87.62457290790961
100
AcDbArc
 50
90.2000677876
 51
91.0220776863
  0
SPLINE
  5
176
330
82
100
AcDbEntity
  8
$DDT_AUDIT_GENERATED_(171)
  6
Continuous
 62
     7
100
AcDbSpline
210
0.0
220
0.0
230
1.0
 70
     8
 71
     3
 72
    10
 73
     6
 74
     0
 42
0.0000000011799669
 43
0.0000000001
 40
0.0
 40
0.0
 40
0.0
 40
0.0
 40
0.4999967948077854
 40
0.4999967948077854
 40
1.0
 40
1.0
 40
1.0
 40
1.0
 10
107.172993913045
 20
385.3093131610507
 30
0.0
 10
108.5852799211589
 20
385.2879773093346
 30
0.0
 10
109.9977269056191
 20
385.2773112349868
 30
0.0
 10
112.8226359909317
 20
385.2773203440544
 30
0.0
 10
114.2351009900615
 20
385.2879958006502
 30
0.0
 10
115.6474049273224
 20
385.3093412463493
 30
0.0
  0
ARC
  5
177
330
82
100
AcDbEntity
  8
$DDT_AUDIT_GENERATED_(171)
  6
Continuous
 62
     7
100
AcDbCircle
 10
105.7980250865
 20
315.286800142
 30
0.0
 40
70.0360112283275
100
AcDbArc
 50
88.8750791075
 51
89.9035301817
  0
ARC
  5
178
330
82
100
AcDbEntity
  8
$DDT_AUDIT_GENERATED_(171)
  6
Continuous
 62
     7
100
AcDbCircle
 10
105.8764674503
 20
415.3060084949
 30
0.0
 40
29.98522468838642
100
AcDbArc
 50
268.5165890708
 51
269.8101218574
  0
SPLINE
  5
179
330
82
100
AcDbEntity
  8
$DDT_AUDIT_GENERATED_(171)
  6
Continuous
 62
     7
100
AcDbSpline
210
0.0
220
0.0
230
1.0
 70
     8
 71
     3
 72
    10
 73
     6
 74
     0
 42
0.0000000001171461
 43
0.0000000001
 40
0.0
 40
0.0
 40
0.0
 40
0.0
 40
0.5361336945983609
 40
0.5361336945983609
 40
1.0
 40
1.0
 40
1.0
 40
1.0
 10
21.47264204935492
 20
400.1960410679848
 30
0.0
 10
35.88249580312648
 20
395.2334347297754
 30
0.0
 10
50.7128513082266
 20
391.5006582177004
 30
0.0
 10
78.75625977450959
 20
386.8538621967994
 30
0.0
 10
91.91776558156748
 20
385.6274581845694
 30
0.0
 10
105.1002245706264
 20
385.3308329891257
 30
0.0
  0
ARC
  5
17A
330
82
100
AcDbEntity
  8
$DDT_AUDIT_GENERATED_(171)
  6
Continuous
 62
     7
100
AcDbCircle
 10
201.2500562492
 20
400.4797002879
 30
0.0
 40
0.3000114237227576
100
AcDbArc
 50
289.0045940034
 51
340.994543453
  0
SPLINE
  5
17B
330
82
100
AcDbEntity
  8
$DDT_AUDIT_GENERATED_(171)
  6
Continuous
 62
     7
100
AcDbSpline
210
0.0
220
0.0
230
1.0
 70
     8
 71
     3
 72
     8
 73
     4
 74
     0
 42
0.000000000321434
 43
0.0000000001
 40
0.0
 40
0.0
 40
0.0
 40
0.0
 40
1.0
 40
1.0
 40
1.0
 40
1.0
 10
201.5337133199568
 20
400.3819991078843
 30
0.0
 10
204.9034631992018
 20
410.1666166563098
 30
0.0
 10
207.7088521803872
 20
420.1383551186396
 30
0.0
 10
209.9493068164439
 20
430.2973486379365
 30
0.0
  0
ARC
  5
17C
330
82
100
AcDbEntity
  8
$DDT_AUDIT_GENERATED_(171)
  6
Continuous
 62
     7
100
AcDbCircle
 10
-63.0253526642
 20
490.3198777133
 30
0.0
 40
279.4957400662195
100
AcDbArc
 50
347.5989673459
 51
12.3049947896
  0
ARC
  5
17D
330
82
100
AcDbEntity
  8
$DDT_AUDIT_GENERATED_(171)
  6
Continuous
 62
     7
100
AcDbCircle
 10
-54.8937631289
 20
491.9797902338
 30
0.0
 40
271.1972271469949
100
AcDbArc
 50
12.3284856467
 51
18.996456647
  0
ARC
  5
17E
330
82
100
AcDbEntity
  8
$DDT_AUDIT_GENERATED_(171)
  6
Continuous
 62
     7
100
AcDbCircle
 10
201.2500543339
 20
580.1594152268
 30
0.0
 40
0.3000114237226063
100
AcDbArc
 50
19.0047379454
 51
70.9947167087
  0
SPLINE
  5
17F
330
82
100
AcDbEntity
  8
$DDT_AUDIT_GENERATED_(171)
  6
Continuous
 62
     7
100
AcDbSpline
210
0.0
220
0.0
230
1.0
 70
     8
 71
     3
 72
    14
 73
    10
 74
     0
 42
0.0000000000545301
 43
0.0000000001
 40
0.0
 40
0.0
 40
0.0
 40
0.0
 40
0.2495968501115727
 40
0.2495968501115727
 40
0.5000000000404591
 40
0.5000000000404591
 40
0.7504031499693454
 40
0.7504031499693454
 40
1.0
 40
1.0
 40
1.0
 40
1.0
 10
201.3477546561213
 20
580.4430725929742
 30
0.0
 10
186.9378817108618
 20
585.4056774624388
 30
0.0
 10
172.107542384671
 20
589.1384199047683
 30
0.0
 10
141.9889345318844
 20
594.1291323510732
 30
0.0
 10
126.6994971090672
 20
595.379460455101
 30
0.0
 10
96.12093404489963
 20
595.3794260443706
 30
0.0
 10
80.83149297270391
 20
594.1290739787336
 30
0.0
 10
50.71289991045795
 20
589.1382802596614
 30
0.0
 10
35.88257644362657
 20
585.4054951688463
 30
0.0
 10
21.47264386051784
 20
580.4430719174769
 30
0.0
  0
ARC
  5
180
330
82
100
AcDbEntity
  8
$DDT_AUDIT_GENERATED_(171)
  6
Continuous
 62
     7
100
AcDbCircle
 10
21.5703406252
 20
580.159413326
 30
0.0
 40
0.3000114237225066
100
AcDbArc
 50
109.0045647125
 51
160.99454344
  0
SPLINE
  5
181
330
82
100
AcDbEntity
  8
$DDT_AUDIT_GENERATED_(171)
  6
Continuous
 62
     7
100
AcDbSpline
210
0.0
220
0.0
230
1.0
 70
     8
 71
     3
 72
     8
 73
     4
 74
     0
 42
0.000000000321434
 43
0.0000000001
 40
0.0
 40
0.0
 40
0.0
 40
0.0
 40
1.0
 40
1.0
 40
1.0
 40
1.0
 10
21.28668355449374
 20
580.257114506028
 30
0.0
 10
17.91693366860873
 20
570.4724969447819
 30
0.0
 10
15.11154468271994
 20
560.5007584684447
 30
0.0
 10
12.87109004404706
 20
550.3417649350573
 30
0.0
  0
ARC
  5
182
330
82
100
AcDbEntity
  8
$DDT_AUDIT_GENERATED_(171)
  6
Continuous
 62
     7
100
AcDbCircle
 10
285.8457496636
 20
490.3192358606
 30
0.0
 40
279.4957402017623
100
AcDbArc
 50
167.5989673522
 51
192.3049947836
  0
ARC
  5
183
330
82
100
AcDbEntity
  8
$DDT_AUDIT_GENERATED_(171)
  6
Continuous
 62
     7
100
AcDbCircle
 10
277.714160027
 20
488.6593233506
 30
0.0
 40
271.1972271857272
100
AcDbArc
 50
192.3284856472
 51
198.996456638
  0
ELLIPSE
  5
184
330
82
100
AcDbEntity
  8
$DDT_AUDIT_GENERATED_(171)
  6
Continuous
 62
     7
100
AcDbEllipse
 10
117.0372757248
 20
385.6209137796
 30
0.0
 11
0.0
 21
0.2999999990533633
 31
0.0
210
0.0
220
0.0
230
1.0
 40
1.0
 41
3.129407087255403
 42
3.161683006985975
  0
ELLIPSE
  5
185
330
82
100
AcDbEntity
  8
$DDT_AUDIT_GENERATED_(171)
  6
Continuous
 62
     7
100
AcDbEllipse
 10
116.8985750166
 20
385.6226794473
 30
0.0
 11
0.0
 21
0.2999999989817073
 31
0.0
210
0.0
220
0.0
230
1.0
 40
1.0
 41
3.128923408870151
 42
3.161188102264658
  0
ELLIPSE
  5
186
330
82
100
AcDbEntity
  8
$DDT_AUDIT_GENERATED_(171)
  6
Continuous
 62
     7
100
AcDbEllipse
 10
105.9218218442
 20
385.6226431202
 30
0.0
 11
0.0
 21
0.2999885768954454
 31
0.0
210
0.0
220
0.0
230
1.0
 40
1.0
 41
3.122003776077836
 42
3.15428041146565
  0
ELLIPSE
  5
187
330
82
100
AcDbEntity
  8
$DDT_AUDIT_GENERATED_(171)
  6
Continuous
 62
     7
100
AcDbEllipse
 10
105.7831211359
 20
385.6208765416
 30
0.0
 11
0.0
 21
0.2999885768944157
 31
0.0
210
0.0
220
0.0
230
1.0
 40
1.0
 41
3.121508867646024
 42
3.15377288239338
  0
ARC
  5
188
330
82
100
AcDbEntity
  8
$DDT_AUDIT_GENERATED_(171)
  6
Continuous
 62
     7
100
AcDbCircle
 10
117.8468870162
 20
455.5136968033
 30
0.0
 40
70.19744094736818
100
AcDbArc
 50
269.2227780291
 51
269.3361169635
  0
ARC
  5
189
330
82
100
AcDbEntity
  8
$DDT_AUDIT_GENERATED_(171)
  6
Continuous
 62
     7
100
AcDbCircle
 10
104.9515326873
 20
455.5125595319
 30
0.0
 40
70.1966203679231
100
AcDbArc
 50
270.6818318896
 51
270.795172572
  0
ENDBLK
  5
18B
330
82
100
AcDbEntity
  8
0
100
AcDbBlockEnd
  0
BLOCK
  5
283
330
18C
100
AcDbEntity
  8
0
100
AcDbBlockBegin
  2
SE1
 70
     0
 10
0.0
 20
0.0
 30
0.0
  3
SE1
  1

  0
LINE
  5
190
330
18C
100
AcDbEntity
  8
$DDT_AUDIT_GENERATED_(18E)
  6
PHANTOM2
 62
     7
100
AcDbLine
 10
417.9653767071
 20
425.8198533085
 30
0.0
 11
418.6805741514
 21
425.8198533085
 31
0.0
  0
LINE
  5
191
330
18C
100
AcDbEntity
  8
$DDT_AUDIT_GENERATED_(18E)
  6
PHANTOM2
 62
     7
100
AcDbLine
 10
418.6805741514
 20
459.8198533085
 30
0.0
 11
417.9654123131
 21
459.8198533085
 31
0.0
  0
LINE
  5
193
330
18C
100
AcDbEntity
  8
01088031_72848__
  6
Continuous
 62
     7
100
AcDbLine
 10
418.620376071
 20
512.8198533085
 30
0.0
 11
418.620376071
 21
542.8198533085
 31
0.0
  0
LINE
  5
194
330
18C
100
AcDbEntity
  8
01088031_72848__
  6
Continuous
 62
     7
100
AcDbLine
 10
419.120376071
 20
540.6198533085
 30
0.0
 11
418.620376071
 21
540.6198533085
 31
0.0
  0
LINE
  5
195
330
18C
100
AcDbEntity
  8
01088031_72848__
  6
Continuous
 62
     7
100
AcDbLine
 10
418.620376071
 20
515.0198533085
 30
0.0
 11
419.120376071
 21
515.0198533085
 31
0.0
  0
LINE
  5
196
330
18C
100
AcDbEntity
  8
01088031_72848__
  6
Continuous
 62
     7
100
AcDbLine
 10
418.0653781023
 20
512.2648553398
 30
0.0
 11
418.620376071
 21
512.8198533085
 31
0.0
  0
LINE
  5
197
330
18C
100
AcDbEntity
  8
01088031_72848__
  6
Continuous
 62
     7
100
AcDbLine
 10
418.620376071
 20
542.8198533085
 30
0.0
 11
418.0654075811
 21
543.3748217984
 31
0.0
  0
LINE
  5
198
330
18C
100
AcDbEntity
  8
$DDT_AUDIT_GENERATED_(84)
  6
Continuous
 62
     7
100
AcDbLine
 10
474.8361010832
 20
465.705705241
 30
0.0
 11
422.0170594254
 21
465.705705241
 31
0.0
  0
LINE
  5
199
330
18C
100
AcDbEntity
  8
$DDT_AUDIT_GENERATED_(84)
  6
Continuous
 62
     7
100
AcDbLine
 10
421.1703760707
 20
416.719714774
 30
0.0
 11
421.1703760707
 21
416.7356343281
 31
0.0
  0
LINE
  5
19A
330
18C
100
AcDbEntity
  8
$DDT_AUDIT_GENERATED_(84)
  6
Continuous
 62
     7
100
AcDbLine
 10
421.1703760708
 20
418.1253035593
 30
0.0
 11
421.1703760709
 21
418.9277989533
 31
0.0
  0
LINE
  5
19B
330
18C
100
AcDbEntity
  8
$DDT_AUDIT_GENERATED_(84)
  6
Continuous
 62
     7
100
AcDbLine
 10
421.1703760709
 20
419.0301484325
 30
0.0
 11
421.170376071
 21
420.296546499
 31
0.0
  0
LINE
  5
19C
330
18C
100
AcDbEntity
  8
$DDT_AUDIT_GENERATED_(84)
  6
Continuous
 62
     7
100
AcDbLine
 10
421.170376071
 20
428.3646250299
 30
0.0
 11
421.170376071
 21
420.7346590258
 31
0.0
  0
LINE
  5
19D
330
18C
100
AcDbEntity
  8
$DDT_AUDIT_GENERATED_(84)
  6
Continuous
 62
     7
100
AcDbLine
 10
422.0170600073
 20
419.9339986713
 30
0.0
 11
474.8360685454
 21
419.9339986713
 31
0.0
  0
LINE
  5
19E
330
18C
100
AcDbEntity
  8
$DDT_AUDIT_GENERATED_(84)
  6
Continuous
 62
     7
100
AcDbLine
 10
421.1703760712
 20
468.1223358993
 30
0.0
 11
421.1703760711
 21
466.6286461139
 31
0.0
  0
LINE
  5
19F
330
18C
100
AcDbEntity
  8
$DDT_AUDIT_GENERATED_(84)
  6
Continuous
 62
     7
100
AcDbLine
 10
421.1703760711
 20
466.4160623118
 30
0.0
 11
421.170376071
 21
465.3431594756
 31
0.0
  0
SPLINE
  5
1A0
330
18C
100
AcDbEntity
  8
$DDT_AUDIT_GENERATED_(84)
  6
Continuous
 62
     7
100
AcDbSpline
210
0.0
220
0.0
230
1.0
 70
     8
 71
     3
 72
    17
 73
    13
 74
     0
 42
0.0000000258006548
 43
0.0000000001
 40
0.0
 40
0.0
 40
0.0
 40
0.0
 40
0.0832838349706029
 40
0.1663006525510511
 40
0.2492674664093682
 40
0.3324016827945941
 40
0.4159194017059144
 40
0.5000337684994014
 40
0.6259404399487878
 40
0.7507513447568382
 40
0.8751934091998531
 40
1.0
 40
1.0
 40
1.0
 40
1.0
 10
426.6796073547465
 20
469.4088272921459
 30
0.0
 10
426.6997800993178
 20
469.4099635850315
 30
0.0
 10
426.7400609124172
 20
469.4122325277193
 30
0.0
 10
426.7872715195919
 20
469.4149454753643
 30
0.0
 10
426.8245811388882
 20
469.4171175649963
 30
0.0
 10
426.8510641351374
 20
469.4186837041058
 30
0.0
 10
426.8669731741404
 20
469.4196385410883
 30
0.0
 10
426.8730771703558
 20
469.4200115460642
 30
0.0
 10
426.8627112921413
 20
469.419374717558
 30
0.0
 10
426.8265432015847
 20
469.4172249167152
 30
0.0
 10
426.7680169642027
 20
469.4138131731693
 30
0.0
 10
426.7091055580977
 20
469.4104853533784
 30
0.0
 10
426.6796067760844
 20
469.4088190100134
 30
0.0
  0
ARC
  5
1A1
330
18C
100
AcDbEntity
  8
$DDT_AUDIT_GENERATED_(84)
  6
Continuous
 62
     7
100
AcDbCircle
 10
426.4097774324
 20
476.5330124297
 30
0.0
 40
7.129301491411764
100
AcDbArc
 50
270.068743459
 51
272.1690450301
  0
ARC
  5
1A2
330
18C
100
AcDbEntity
  8
$DDT_AUDIT_GENERATED_(84)
  6
Continuous
 62
     7
100
AcDbCircle
 10
425.1703780175
 20
648.732822866
 30
0.0
 40
179.3334490033037
100
AcDbArc
 50
269.601283934
 51
270.3987154981
  0
ARC
  5
1A3
330
18C
100
AcDbEntity
  8
$DDT_AUDIT_GENERATED_(84)
  6
Continuous
 62
     7
100
AcDbCircle
 10
423.9309770353
 20
476.5332262171
 30
0.0
 40
7.129515266600669
100
AcDbArc
 50
267.8309976079
 51
269.9312569127
  0
SPLINE
  5
1A4
330
18C
100
AcDbEntity
  8
$DDT_AUDIT_GENERATED_(84)
  6
Continuous
 62
     7
100
AcDbSpline
210
0.0
220
0.0
230
1.0
 70
     8
 71
     3
 72
    14
 73
    10
 74
     0
 42
0.0000000261593332
 43
0.0000000001
 40
0.0
 40
0.0
 40
0.0
 40
0.0
 40
0.08328384669206
 40
0.1663006708687553
 40
0.2492674862163885
 40
0.3324016989514943
 40
0.4159194089895832
 40
0.500033761552325
 40
0.5001038771053633
 40
0.5001038771053633
 40
0.5001038771053633
 40
0.5001038771053633
 10
423.6611449024885
 20
469.4088189746483
 30
0.0
 10
423.6409721568523
 20
469.4099557147501
 30
0.0
 10
423.6006913428588
 20
469.4122255503669
 30
0.0
 10
423.5534807357829
 20
469.4149398642391
 30
0.0
 10
423.5161711183976
 20
469.4171133345359
 30
0.0
 10
423.4896881242334
 20
469.4186808704666
 30
0.0
 10
423.4737790859747
 20
469.4196371192818
 30
0.0
 10
423.4702917984039
 20
469.4198511685561
 30
0.0
 10
423.4702875926318
 20
469.4198515596556
 30
0.0
 10
423.4702875903404
 20
469.4198515599072
 30
0.0
  0
ARC
  5
1A5
330
18C
100
AcDbEntity
  8
$DDT_AUDIT_GENERATED_(84)
  6
Continuous
 62
     7
100
AcDbCircle
 10
447.1703762468
 20
655.0087599197
 30
0.0
 40
186.3174012695884
100
AcDbArc
 50
267.4342197324
 51
272.5657824668
  0
ARC
  5
1A6
330
18C
100
AcDbEntity
  8
$DDT_AUDIT_GENERATED_(84)
  6
Continuous
 62
     7
100
AcDbCircle
 10
475.2841979228
 20
468.9199041171
 30
0.0
 40
0.4999204327396029
100
AcDbArc
 50
14.3225389659
 51
90.0091321873
  0
ARC
  5
1A7
330
18C
100
AcDbEntity
  8
$DDT_AUDIT_GENERATED_(84)
  6
Continuous
 62
     7
100
AcDbCircle
 10
475.2841979326
 20
416.719802443
 30
0.0
 40
0.4999204366887591
100
AcDbArc
 50
269.9908676776
 51
345.6774612237
  0
ARC
  5
1A8
330
18C
100
AcDbEntity
  8
$DDT_AUDIT_GENERATED_(84)
  6
Continuous
 62
     7
100
AcDbCircle
 10
421.6701994682
 20
416.7195598767
 30
0.0
 40
0.4998234214821919
100
AcDbArc
 50
179.9822438036
 51
270.0202443079
  0
ARC
  5
1A9
330
18C
100
AcDbEntity
  8
$DDT_AUDIT_GENERATED_(84)
  6
Continuous
 62
     7
100
AcDbCircle
 10
421.6701994687
 20
468.9201466701
 30
0.0
 40
0.4998234214843506
100
AcDbArc
 50
89.9797556924
 51
180.0177561958
  0
LINE
  5
1AA
330
18C
100
AcDbEntity
  8
$DDT_AUDIT_GENERATED_(84)
  6
Continuous
 62
     7
100
AcDbLine
 10
423.4703010431
 20
469.4198515593
 30
0.0
 11
421.6703760712
 21
469.4198515593
 31
0.0
  0
LINE
  5
1AB
330
18C
100
AcDbEntity
  8
$DDT_AUDIT_GENERATED_(84)
  6
Continuous
 62
     7
100
AcDbLine
 10
437.0802502185
 20
469.4198515593
 30
0.0
 11
426.8704512825
 21
469.4198515593
 31
0.0
  0
LINE
  5
1AC
330
18C
100
AcDbEntity
  8
$DDT_AUDIT_GENERATED_(84)
  6
Continuous
 62
     7
100
AcDbLine
 10
475.2841181571
 20
469.4198515593
 30
0.0
 11
457.2605129869
 21
469.4198515593
 31
0.0
  0
LINE
  5
1AD
330
18C
100
AcDbEntity
  8
$DDT_AUDIT_GENERATED_(84)
  6
Continuous
 62
     7
100
AcDbLine
 10
421.6703760707
 20
416.2198549875
 30
0.0
 11
475.2841181558
 21
416.2198549875
 31
0.0
  0
ARC
  5
1AE
330
18C
100
AcDbEntity
  8
$DDT_AUDIT_GENERATED_(84)
  6
Continuous
 62
     7
100
AcDbCircle
 10
329.2740340317
 20
442.8192389024
 30
0.0
 40
148.8138307653861
100
AcDbArc
 50
349.8515399605
 51
10.148923649
  0
ARC
  5
1AF
330
18C
100
AcDbEntity
  8
$DDT_AUDIT_GENERATED_(84)
  6
Continuous
 62
     7
100
AcDbCircle
 10
438.8573653665
 20
470.4984793313
 30
0.0
 40
1.617038518952301
100
AcDbArc
 50
259.163152118
 51
269.2056304439
  0
ARC
  5
1B0
330
18C
100
AcDbEntity
  8
$DDT_AUDIT_GENERATED_(84)
  6
Continuous
 62
     7
100
AcDbCircle
 10
455.4195592005
 20
470.9879326568
 30
0.0
 40
2.110104961246246
100
AcDbArc
 50
270.3135199487
 51
280.0300271354
  0
ARC
  5
1B1
330
18C
100
AcDbEntity
  8
$DDT_AUDIT_GENERATED_(84)
  6
Continuous
 62
     7
100
AcDbCircle
 10
437.0703764466
 20
469.119851559
 30
0.0
 40
0.2999999999979677
100
AcDbArc
 50
69.839652671
 51
87.9942242106
  0
ARC
  5
1B2
330
18C
100
AcDbEntity
  8
$DDT_AUDIT_GENERATED_(84)
  6
Continuous
 62
     7
100
AcDbCircle
 10
462.275106833
 20
537.6345262473
 30
0.0
 40
72.70369781518893
100
AcDbArc
 50
249.8042072171
 51
250.9608947549
  0
ARC
  5
1B3
330
18C
100
AcDbEntity
  8
$DDT_AUDIT_GENERATED_(84)
  6
Continuous
 62
     7
100
AcDbCircle
 10
542.0267474941
 20
226.5426953033
 30
0.0
 40
257.2578229610689
100
AcDbArc
 50
109.2613081812
 51
109.5918084268
  0
ARC
  5
1B4
330
18C
100
AcDbEntity
  8
$DDT_AUDIT_GENERATED_(84)
  6
Continuous
 62
     7
100
AcDbCircle
 10
457.2703759407
 20
469.119851553
 30
0.0
 40
0.2999999996766721
100
AcDbArc
 50
91.9502758295
 51
109.1741593978
  0
ARC
  5
1B5
330
18C
100
AcDbEntity
  8
$DDT_AUDIT_GENERATED_(84)
  6
Continuous
 62
     7
100
AcDbCircle
 10
541.0549618942
 20
229.2749888793
 30
0.0
 40
254.357896651124
100
AcDbArc
 50
109.2577197812
 51
109.383278302
  0
ARC
  5
1B6
330
18C
100
AcDbEntity
  8
$DDT_AUDIT_GENERATED_(A7)
  6
Continuous
 62
     7
100
AcDbCircle
 10
437.9699711054
 20
469.1431525468
 30
0.0
 40
0.2998528148849932
100
AcDbArc
 50
89.9737937743
 51
165.6340472297
  0
ARC
  5
1B7
330
18C
100
AcDbEntity
  8
$DDT_AUDIT_GENERATED_(A7)
  6
Continuous
 62
     7
100
AcDbCircle
 10
456.3707784794
 20
469.1431525636
 30
0.0
 40
0.299852813858265
100
AcDbArc
 50
15.5526783369
 51
90.0262062343
  0
LINE
  5
1B8
330
18C
100
AcDbEntity
  8
$DDT_AUDIT_GENERATED_(A7)
  6
Continuous
 62
     7
100
AcDbLine
 10
456.3816326402
 20
469.4423553781
 30
0.0
 11
437.959117163
 21
469.4423553781
 31
0.0
  0
LINE
  5
1B9
330
18C
100
AcDbEntity
  8
$DDT_AUDIT_GENERATED_(B1)
  6
Continuous
 62
     7
100
AcDbLine
 10
420.9633031717
 20
418.8027735483
 30
0.0
 11
419.0125902377
 21
418.78672601
 31
0.0
  0
SPLINE
  5
1BA
330
18C
100
AcDbEntity
  8
$DDT_AUDIT_GENERATED_(B1)
  6
Continuous
 62
     7
100
AcDbSpline
210
0.0
220
0.0
230
1.0
 70
     8
 71
     3
 72
    11
 73
     7
 74
     0
 42
0.0000001741458508
 43
0.0000000001
 40
0.0
 40
0.0
 40
0.0
 40
0.0
 40
0.696118340204011
 40
0.696118340204011
 40
0.696118340204011
 40
1.0
 40
1.0
 40
1.0
 40
1.0
 10
419.0125902377181
 20
418.7867260099528
 30
0.0
 10
418.9975076430097
 20
418.7827677644706
 30
0.0
 10
418.9833839800729
 20
418.7782256892063
 30
0.0
 10
418.9722678476335
 20
418.7730165648725
 30
0.0
 10
418.9673725726562
 20
418.7707225929228
 30
0.0
 10
418.9630410534041
 20
418.7682792649845
 30
0.0
 10
418.9595319642533
 20
418.7657282180249
 30
0.0
  0
SPLINE
  5
1BB
330
18C
100
AcDbEntity
  8
$DDT_AUDIT_GENERATED_(B1)
  6
Continuous
 62
     7
100
AcDbSpline
210
0.0
220
0.0
230
1.0
 70
     8
 71
     3
 72
    17
 73
    13
 74
     0
 42
0.0000002160199067
 43
0.0000000001
 40
0.0
 40
0.0
 40
0.0
 40
0.0
 40
0.0767324202349518
 40
0.0767324202349518
 40
0.0767324202349518
 40
0.3844141332232373
 40
0.3844141332232373
 40
0.3844141332232373
 40
0.6920272183773822
 40
0.6920272183773822
 40
0.6920272183773822
 40
1.0
 40
1.0
 40
1.0
 40
1.0
 10
418.9595319642533
 20
418.7657282180249
 30
0.0
 10
418.9581654031194
 20
418.7647346682047
 30
0.0
 10
418.957125533999
 20
418.763692283645
 30
0.0
 10
418.9562711343784
 20
418.7626411394052
 30
0.0
 10
418.9528337186584
 20
418.7584121818466
 30
0.0
 10
418.9514868881242
 20
418.7540418284128
 30
0.0
 10
418.9496597517846
 20
418.749722648661
 30
0.0
 10
418.9478325736422
 20
418.7454033700916
 30
0.0
 10
418.9461066911189
 20
418.7410807261447
 30
0.0
 10
418.9449138742568
 20
418.7367490882767
 30
0.0
 10
418.9437203054031
 20
418.7324147195997
 30
0.0
 10
418.9430856891901
 20
418.7280664331053
 30
0.0
 10
418.943092637447
 20
418.7237308600305
 30
0.0
  0
SPLINE
  5
1BC
330
18C
100
AcDbEntity
  8
$DDT_AUDIT_GENERATED_(B1)
  6
Continuous
 62
     7
100
AcDbSpline
210
0.0
220
0.0
230
1.0
 70
     8
 71
     3
 72
     8
 73
     4
 74
     0
 42
0.000000001249389
 43
0.0000000001
 40
0.0
 40
0.0
 40
0.0
 40
0.0
 40
0.4999972331171658
 40
0.4999972331171658
 40
0.4999972331171658
 40
0.4999972331171658
 10
418.943092637447
 20
418.7237308600305
 30
0.0
 10
418.9417708950775
 20
416.0633646403737
 30
0.0
 10
418.9407438355405
 20
414.7219115567431
 30
0.0
 10
418.9408482821246
 20
414.7218659031946
 30
0.0
  0
SPLINE
  5
1BD
330
18C
100
AcDbEntity
  8
$DDT_AUDIT_GENERATED_(B1)
  6
Continuous
 62
     7
100
AcDbSpline
210
0.0
220
0.0
230
1.0
 70
     8
 71
     3
 72
     8
 73
     4
 74
     0
 42
0.0000000012526507
 43
0.0000000001
 40
0.5000526376422584
 40
0.5000526376422584
 40
0.5000526376422584
 40
0.5000526376422584
 40
1.0
 40
1.0
 40
1.0
 40
1.0
 10
420.9886112068798
 20
414.7494620103067
 30
0.0
 10
420.9886436652423
 20
414.7495713000657
 30
0.0
 10
420.9887010803209
 20
416.0797750010889
 30
0.0
 10
420.9886927256609
 20
418.7405727366178
 30
0.0
  0
SPLINE
  5
1BE
330
18C
100
AcDbEntity
  8
$DDT_AUDIT_GENERATED_(B1)
  6
Continuous
 62
     7
100
AcDbSpline
210
0.0
220
0.0
230
1.0
 70
     8
 71
     3
 72
    12
 73
     8
 74
     0
 42
0.0000001561377899
 43
0.0000000001
 40
0.0
 40
0.0
 40
0.0
 40
0.0
 40
0.5000000000000178
 40
0.5000000000000178
 40
0.7500000000000089
 40
0.7500000000000089
 40
1.0
 40
1.0
 40
1.0
 40
1.0
 10
420.9886927256609
 20
418.7405727366178
 30
0.0
 10
420.9886952140674
 20
418.7504144723863
 30
0.0
 10
420.9874087492219
 20
418.7602632571291
 30
0.0
 10
420.9836887497717
 20
418.7750004755782
 30
0.0
 10
420.98249445575
 20
418.7799190238189
 30
0.0
 10
420.9792037433242
 20
418.789732535472
 30
0.0
 10
420.9773880951561
 20
418.7946366164986
 30
0.0
 10
420.9701974660677
 20
418.7990383600775
 30
0.0
  0
LINE
  5
1BF
330
18C
100
AcDbEntity
  8
$DDT_AUDIT_GENERATED_(B1)
  6
Continuous
 62
     7
100
AcDbLine
 10
420.9701974661
 20
418.7990383601
 30
0.0
 11
420.9633031717
 21
418.8027735483
 31
0.0
  0
SPLINE
  5
1C0
330
18C
100
AcDbEntity
  8
$DDT_AUDIT_GENERATED_(B1)
  6
Continuous
 62
     7
100
AcDbSpline
210
0.0
220
0.0
230
1.0
 70
     8
 71
     3
 72
     8
 73
     4
 74
     0
 42
0.000000000211411
 43
0.0000000001
 40
0.0
 40
0.0
 40
0.0
 40
0.0
 40
1.0
 40
1.0
 40
1.0
 40
1.0
 10
420.9886910854562
 20
419.1692179955438
 30
0.0
 10
420.9884670422109
 20
434.3266670666214
 30
0.0
 10
420.9887054286968
 20
451.3072925311201
 30
0.0
 10
420.9886811370604
 20
466.4704442482322
 30
0.0
  0
SPLINE
  5
1C1
330
18C
100
AcDbEntity
  8
$DDT_AUDIT_GENERATED_(B1)
  6
Continuous
 62
     7
100
AcDbSpline
210
0.0
220
0.0
230
1.0
 70
     8
 71
     3
 72
    12
 73
     8
 74
     0
 42
0.0000000592252133
 43
0.0000000001
 40
0.0
 40
0.0
 40
0.0
 40
0.0
 40
0.5
 40
0.5
 40
0.75
 40
0.75
 40
1.0
 40
1.0
 40
1.0
 40
1.0
 10
420.9886811370604
 20
466.4704442482322
 30
0.0
 10
420.9886836107572
 20
466.4984848551525
 30
0.0
 10
420.9873973768595
 20
466.5265216035646
 30
0.0
 10
420.983677448315
 20
466.5684356371925
 30
0.0
 10
420.9824831360369
 20
466.5824088680033
 30
0.0
 10
420.9791923617829
 20
466.6102836887347
 30
0.0
 10
420.9773766909213
 20
466.6242029177161
 30
0.0
 10
420.9701860220586
 20
466.6368307944341
 30
0.0
  0
LINE
  5
1C2
330
18C
100
AcDbEntity
  8
$DDT_AUDIT_GENERATED_(B1)
  6
Continuous
 62
     7
100
AcDbLine
 10
420.9701860221
 20
466.6368307944
 30
0.0
 11
420.9632922208
 21
466.6475635488
 31
0.0
  0
LINE
  5
1C3
330
18C
100
AcDbEntity
  8
$DDT_AUDIT_GENERATED_(B1)
  6
Continuous
 62
     7
100
AcDbLine
 10
420.9632922208
 20
466.6475635488
 30
0.0
 11
419.0125987803
 21
466.6532450355
 31
0.0
  0
ARC
  5
1C4
330
18C
100
AcDbEntity
  8
$DDT_AUDIT_GENERATED_(B1)
  6
Continuous
 62
     7
100
AcDbCircle
 10
419.0956811695
 20
466.5239815861
 30
0.0
 40
0.1536610645413077
100
AcDbArc
 50
122.7303513116
 51
152.3702228149
  0
ARC
  5
1C5
330
18C
100
AcDbEntity
  8
$DDT_AUDIT_GENERATED_(B1)
  6
Continuous
 62
     7
100
AcDbCircle
 10
419.4068738811
 20
466.472804546
 30
0.0
 40
0.4637843145056491
100
AcDbArc
 50
164.6925479315
 51
179.5603748816
  0
SPLINE
  5
1C6
330
18C
100
AcDbEntity
  8
$DDT_AUDIT_GENERATED_(B1)
  6
Continuous
 62
     7
100
AcDbSpline
210
0.0
220
0.0
230
1.0
 70
     8
 71
     3
 72
    10
 73
     6
 74
     0
 42
0.0000000002113581
 43
0.0000000001
 40
0.0
 40
0.0
 40
0.0
 40
0.0
 40
0.5
 40
0.5
 40
1.0
 40
1.0
 40
1.0
 40
1.0
 10
418.9431032188576
 20
466.476363084482
 30
0.0
 10
418.9417780272937
 20
458.8968393380269
 30
0.0
 10
418.940747394193
 20
450.8556404183613
 30
0.0
 10
418.9409491736019
 20
434.7842027798845
 30
0.0
 10
418.9438033922567
 20
426.7455062673081
 30
0.0
 10
418.9431393334097
 20
419.1632952429224
 30
0.0
  0
ARC
  5
1C7
330
18C
100
AcDbEntity
  8
$DDT_AUDIT_GENERATED_(B1)
  6
Continuous
 62
     7
100
AcDbCircle
 10
419.4086748474
 20
419.167026673
 30
0.0
 40
0.4655504681055119
100
AcDbArc
 50
180.4592358882
 51
195.267718583
  0
ARC
  5
1C8
330
18C
100
AcDbEntity
  8
$DDT_AUDIT_GENERATED_(B1)
  6
Continuous
 62
     7
100
AcDbCircle
 10
419.0976466766
 20
419.1179659321
 30
0.0
 40
0.1564486577920485
100
AcDbArc
 50
208.0349562058
 51
235.4506673812
  0
LINE
  5
1C9
330
18C
100
AcDbEntity
  8
$DDT_AUDIT_GENERATED_(B1)
  6
Continuous
 62
     7
100
AcDbLine
 10
420.9651682399
 20
418.9947796789
 30
0.0
 11
420.9701994285
 21
419.0028406715
 31
0.0
  0
SPLINE
  5
1CA
330
18C
100
AcDbEntity
  8
$DDT_AUDIT_GENERATED_(B1)
  6
Continuous
 62
     7
100
AcDbSpline
210
0.0
220
0.0
230
1.0
 70
     8
 71
     3
 72
    12
 73
     8
 74
     0
 42
0.0000000592408485
 43
0.0000000001
 40
0.0
 40
0.0
 40
0.0
 40
0.0
 40
0.25
 40
0.25
 40
0.5
 40
0.5
 40
1.0
 40
1.0
 40
1.0
 40
1.0
 10
420.9701994661963
 20
419.0028406488325
 30
0.0
 10
420.9771476589427
 20
419.0150420961423
 30
0.0
 10
420.9792032768102
 20
419.0293726484763
 30
0.0
 10
420.9824938973918
 20
419.0572367183414
 30
0.0
 10
420.9836879805411
 20
419.071215607481
 30
0.0
 10
420.987408401519
 20
419.1131431341384
 30
0.0
 10
420.9886939531716
 20
419.1411618183533
 30
0.0
 10
420.9886910854562
 20
419.1692179955438
 30
0.0
  0
SPLINE
  5
1CB
330
18C
100
AcDbEntity
  8
$DDT_AUDIT_GENERATED_(B1)
  6
Continuous
 62
     7
100
AcDbSpline
210
0.0
220
0.0
230
1.0
 70
     8
 71
     3
 72
    10
 73
     6
 74
     0
 42
0.0000000012493713
 43
0.0000000001
 40
0.4999972331711039
 40
0.4999972331711039
 40
0.4999972331711039
 40
0.4999972331711039
 40
0.5
 40
0.5
 40
1.0
 40
1.0
 40
1.0
 40
1.0
 10
418.9408482822009
 20
470.9178407138861
 30
0.0
 10
418.9408482827788
 20
470.9178407141387
 30
0.0
 10
418.9408482833568
 20
470.9178407143503
 30
0.0
 10
418.9409527434091
 20
470.9178715223338
 30
0.0
 10
418.9438105160793
 20
469.5775859360496
 30
0.0
 10
418.943149915509
 20
466.9159485010685
 30
0.0
  0
SPLINE
  5
1CC
330
18C
100
AcDbEntity
  8
$DDT_AUDIT_GENERATED_(B1)
  6
Continuous
 62
     7
100
AcDbSpline
210
0.0
220
0.0
230
1.0
 70
     8
 71
     3
 72
    17
 73
    13
 74
     0
 42
0.0000002141191275
 43
0.0000000001
 40
0.0
 40
0.0
 40
0.0
 40
0.0
 40
0.0682037244495821
 40
0.0682037244495821
 40
0.0682037244495821
 40
0.3763496539851144
 40
0.3763496539851144
 40
0.3763496539851144
 40
0.6840837733161667
 40
0.6840837733161667
 40
0.6840837733161667
 40
1.0
 40
1.0
 40
1.0
 40
1.0
 10
418.943149915509
 20
466.9159485010685
 30
0.0
 10
418.943139951714
 20
466.9149877126155
 30
0.0
 10
418.9431662920577
 20
466.9140264079973
 30
0.0
 10
418.9432243444678
 20
466.9130649205421
 30
0.0
 10
418.9434863760828
 20
466.9087250471324
 30
0.0
 10
418.9444245547654
 20
466.904377995395
 30
0.0
 10
418.9458281134123
 20
466.9000459288548
 30
0.0
 10
418.9472306070866
 20
466.8957171493392
 30
0.0
 10
418.9490630371
 20
466.8913974175872
 30
0.0
 10
418.9509331886443
 20
466.887077519468
 30
0.0
 10
418.9528481015146
 20
466.8826542263228
 30
0.0
 10
418.9539392025475
 20
466.8780422009947
 30
0.0
 10
418.9595667839442
 20
466.8739481206695
 30
0.0
  0
ARC
  5
1CD
330
18C
100
AcDbEntity
  8
$DDT_AUDIT_GENERATED_(B1)
  6
Continuous
 62
     7
100
AcDbCircle
 10
419.04332308
 20
467.0096257619
 30
0.0
 40
0.1594476072398706
100
AcDbArc
 50
238.312205674
 51
257.543636479
  0
LINE
  5
1CE
330
18C
100
AcDbEntity
  8
$DDT_AUDIT_GENERATED_(B1)
  6
Continuous
 62
     7
100
AcDbLine
 10
420.9651572163
 20
466.8378290712
 30
0.0
 11
420.9701880221
 21
466.840635634
 31
0.0
  0
SPLINE
  5
1CF
330
18C
100
AcDbEntity
  8
$DDT_AUDIT_GENERATED_(B1)
  6
Continuous
 62
     7
100
AcDbSpline
210
0.0
220
0.0
230
1.0
 70
     8
 71
     3
 72
    12
 73
     8
 74
     0
 42
0.0000001561005261
 43
0.0000000001
 40
0.0
 40
0.0
 40
0.0
 40
0.0
 40
0.2500000000000187
 40
0.2500000000000187
 40
0.5000000000000374
 40
0.5000000000000374
 40
1.0
 40
1.0
 40
1.0
 40
1.0
 10
420.970188022086
 20
466.8406356339713
 30
0.0
 10
420.9774151205804
 20
466.8450602088456
 30
0.0
 10
420.9791982854873
 20
466.8499535553621
 30
0.0
 10
420.9824834731803
 20
466.8597552711413
 30
0.0
 10
420.9836789084465
 20
466.8646792216613
 30
0.0
 10
420.9873973137058
 20
466.879417906574
 30
0.0
 10
420.9886822201321
 20
466.8892658918891
 30
0.0
 10
420.9886825489947
 20
466.8991085524943
 30
0.0
  0
LINE
  5
1D0
330
18C
100
AcDbEntity
  8
$DDT_AUDIT_GENERATED_(B1)
  6
Continuous
 62
     7
100
AcDbLine
 10
418.6805741514
 20
419.2583627603
 30
0.0
 11
418.6805741514
 21
466.3813100089
 31
0.0
  0
LINE
  5
1D1
330
18C
100
AcDbEntity
  8
$DDT_AUDIT_GENERATED_(B1)
  6
Continuous
 62
     7
100
AcDbLine
 10
418.6805741514
 20
466.3813100089
 30
0.0
 11
418.6805741514
 21
466.5467219999
 31
0.0
  0
LINE
  5
1D2
330
18C
100
AcDbEntity
  8
$DDT_AUDIT_GENERATED_(B1)
  6
Continuous
 62
     7
100
AcDbLine
 10
418.6805741514
 20
466.5467219999
 30
0.0
 11
418.6805741514
 21
466.6448284382
 31
0.0
  0
LINE
  5
1D3
330
18C
100
AcDbEntity
  8
$DDT_AUDIT_GENERATED_(B1)
  6
Continuous
 62
     7
100
AcDbLine
 10
418.6805741514
 20
466.6448284382
 30
0.0
 11
418.6805741514
 21
470.6355032743
 31
0.0
  0
LINE
  5
1D4
330
18C
100
AcDbEntity
  8
$DDT_AUDIT_GENERATED_(B1)
  6
Continuous
 62
     7
100
AcDbLine
 10
418.6805741514
 20
418.9942542712
 30
0.0
 11
418.6805741514
 21
415.0042033428
 31
0.0
  0
LINE
  5
1D5
330
18C
100
AcDbEntity
  8
$DDT_AUDIT_GENERATED_(B1)
  6
Continuous
 62
     7
100
AcDbLine
 10
418.6805741514
 20
418.9942542712
 30
0.0
 11
418.6805741514
 21
419.0926221306
 31
0.0
  0
LINE
  5
1D6
330
18C
100
AcDbEntity
  8
$DDT_AUDIT_GENERATED_(B1)
  6
Continuous
 62
     7
100
AcDbLine
 10
418.6805741514
 20
419.0926221306
 30
0.0
 11
418.6805741514
 21
419.2583627603
 31
0.0
  0
LINE
  5
1D7
330
18C
100
AcDbEntity
  8
$DDT_AUDIT_GENERATED_(B1)
  6
Continuous
 62
     7
100
AcDbLine
 10
421.170376071
 20
419.0322512692
 30
0.0
 11
421.170376071
 21
419.2363464568
 31
0.0
  0
LINE
  5
1D8
330
18C
100
AcDbEntity
  8
$DDT_AUDIT_GENERATED_(B1)
  6
Continuous
 62
     7
100
AcDbLine
 10
421.170376071
 20
418.9318401595
 30
0.0
 11
421.170376071
 21
419.0322512692
 31
0.0
  0
LINE
  5
1D9
330
18C
100
AcDbEntity
  8
$DDT_AUDIT_GENERATED_(B1)
  6
Continuous
 62
     7
100
AcDbLine
 10
421.170376071
 20
418.9318401595
 30
0.0
 11
421.170376071
 21
414.9520262188
 31
0.0
  0
LINE
  5
1DA
330
18C
100
AcDbEntity
  8
$DDT_AUDIT_GENERATED_(B1)
  6
Continuous
 62
     7
100
AcDbLine
 10
421.170376071
 20
466.7078326192
 30
0.0
 11
421.170376071
 21
470.6876803983
 31
0.0
  0
LINE
  5
1DB
330
18C
100
AcDbEntity
  8
$DDT_AUDIT_GENERATED_(B1)
  6
Continuous
 62
     7
100
AcDbLine
 10
421.170376071
 20
466.6073803692
 30
0.0
 11
421.170376071
 21
466.7078326192
 31
0.0
  0
LINE
  5
1DC
330
18C
100
AcDbEntity
  8
$DDT_AUDIT_GENERATED_(B1)
  6
Continuous
 62
     7
100
AcDbLine
 10
421.170376071
 20
466.4032832491
 30
0.0
 11
421.170376071
 21
466.6073803692
 31
0.0
  0
LINE
  5
1DD
330
18C
100
AcDbEntity
  8
$DDT_AUDIT_GENERATED_(B1)
  6
Continuous
 62
     7
100
AcDbLine
 10
421.170376071
 20
419.2363464568
 30
0.0
 11
421.170376071
 21
466.4032832491
 31
0.0
  0
SPLINE
  5
1DE
330
18C
100
AcDbEntity
  8
$DDT_AUDIT_GENERATED_(B1)
  6
Continuous
 62
     7
100
AcDbSpline
210
0.0
220
0.0
230
1.0
 70
     8
 71
     3
 72
    14
 73
    10
 74
     0
 42
0.0000000727198129
 43
0.0000000001
 40
0.0
 40
0.0
 40
0.0
 40
0.0
 40
0.4569737294467335
 40
0.4569737294467335
 40
0.4569737294467335
 40
0.7021382733044775
 40
0.7021382733044775
 40
0.7021382733044775
 40
1.0
 40
1.0
 40
1.0
 40
1.0
 10
420.96329222081
 20
466.6475635487896
 30
0.0
 10
420.9500561188083
 20
466.6662761252394
 30
0.0
 10
420.9328736986469
 20
466.6825028415228
 30
0.0
 10
420.9208641819371
 20
466.7007697619117
 30
0.0
 10
420.9144748838824
 20
466.7104881212535
 30
0.0
 10
420.9101456167166
 20
466.7210072420971
 30
0.0
 10
420.9075695125834
 20
466.7311242695283
 30
0.0
 10
420.9044328733719
 20
466.7434426632361
 30
0.0
 10
420.9039736242574
 20
466.7554573006307
 30
0.0
 10
420.903977294959
 20
466.7663757192695
 30
0.0
  0
SPLINE
  5
1DF
330
18C
100
AcDbEntity
  8
$DDT_AUDIT_GENERATED_(B1)
  6
Continuous
 62
     7
100
AcDbSpline
210
0.0
220
0.0
230
1.0
 70
     8
 71
     3
 72
    10
 73
     6
 74
     0
 42
0.0000000943701405
 43
0.0000000001
 40
0.0
 40
0.0
 40
0.0
 40
0.0
 40
0.5
 40
0.5
 40
1.0
 40
1.0
 40
1.0
 40
1.0
 10
420.903977294959
 20
466.7663757192695
 30
0.0
 10
420.9039943670572
 20
466.7852306598449
 30
0.0
 10
420.9061313080103
 20
466.8015203792264
 30
0.0
 10
420.9306284607704
 20
466.8242634593651
 30
0.0
 10
420.9508355326108
 20
466.8303859146251
 30
0.0
 10
420.9651572163214
 20
466.8378290712022
 30
0.0
  0
SPLINE
  5
1E0
330
18C
100
AcDbEntity
  8
$DDT_AUDIT_GENERATED_(B1)
  6
Continuous
 62
     7
100
AcDbSpline
210
0.0
220
0.0
230
1.0
 70
     8
 71
     3
 72
    17
 73
    13
 74
     0
 42
0.0000000796343354
 43
0.0000000001
 40
0.0
 40
0.0
 40
0.0
 40
0.0
 40
0.3592450063709586
 40
0.3592450063709586
 40
0.3592450063709586
 40
0.5130486814158055
 40
0.5130486814158055
 40
0.5130486814158055
 40
0.6307080350266818
 40
0.6307080350266818
 40
0.6307080350266818
 40
1.0
 40
1.0
 40
1.0
 40
1.0
 10
419.0089308682569
 20
466.8539314613342
 30
0.0
 10
419.0257316970294
 20
466.8492542074172
 30
0.0
 10
419.0437560834588
 20
466.8449589934497
 30
0.0
 10
419.0591114842225
 20
466.8387825919764
 30
0.0
 10
419.0656453464444
 20
466.8361544771603
 30
0.0
 10
419.0718349067939
 20
466.8330813335066
 30
0.0
 10
419.0756841872382
 20
466.8291634856272
 30
0.0
 10
419.0786199873258
 20
466.8261753899781
 30
0.0
 10
419.0796626971267
 20
466.8225453921686
 30
0.0
 10
419.0799976470502
 20
466.8188146674754
 30
0.0
 10
419.0810513684157
 20
466.8070781539179
 30
0.0
 10
419.076634837527
 20
466.7932256739069
 30
0.0
 10
419.0766764711809
 20
466.7776518388533
 30
0.0
  0
SPLINE
  5
1E1
330
18C
100
AcDbEntity
  8
$DDT_AUDIT_GENERATED_(B1)
  6
Continuous
 62
     7
100
AcDbSpline
210
0.0
220
0.0
230
1.0
 70
     8
 71
     3
 72
    12
 73
     8
 74
     0
 42
0.0000000636079771
 43
0.0000000001
 40
0.0
 40
0.0
 40
0.0
 40
0.0
 40
0.2499999999999822
 40
0.2499999999999822
 40
0.4999999999999644
 40
0.4999999999999644
 40
1.0
 40
1.0
 40
1.0
 40
1.0
 10
419.0766764711809
 20
466.7776518388533
 30
0.0
 10
419.0766796142089
 20
466.7673097825668
 30
0.0
 10
419.0783530916964
 20
466.756311179042
 30
0.0
 10
419.0804651349802
 20
466.7330257157298
 30
0.0
 10
419.0817272313066
 20
466.7201253844819
 30
0.0
 10
419.0625730894412
 20
466.6848370200452
 30
0.0
 10
419.0355837230751
 20
466.6700811450228
 30
0.0
 10
419.0125987803236
 20
466.6532450355333
 30
0.0
  0
SPLINE
  5
1E2
330
18C
100
AcDbEntity
  8
$DDT_AUDIT_GENERATED_(B1)
  6
Continuous
 62
     7
100
AcDbSpline
210
0.0
220
0.0
230
1.0
 70
     8
 71
     3
 72
    14
 73
    10
 74
     0
 42
0.0000000978361146
 43
0.0000000001
 40
0.0
 40
0.0
 40
0.0
 40
0.0
 40
0.456967638373342
 40
0.456967638373342
 40
0.456967638373342
 40
0.7021247097306137
 40
0.7021247097306137
 40
0.7021247097306137
 40
1.0
 40
1.0
 40
1.0
 40
1.0
 10
420.9633031717477
 20
418.8027735482598
 30
0.0
 10
420.9500667940115
 20
418.8093239941407
 30
0.0
 10
420.9328842928015
 20
418.8152528114692
 30
0.0
 10
420.9208742914841
 20
418.8247580962822
 30
0.0
 10
420.9144848484909
 20
418.8298150045907
 30
0.0
 10
420.9101552649246
 20
418.8362503109612
 30
0.0
 10
420.9075788864872
 20
418.8434509791824
 30
0.0
 10
420.9044416814803
 20
418.8522190902906
 30
0.0
 10
420.9039822983394
 20
418.8623737133693
 30
0.0
 10
420.9039859692327
 20
418.8732941379603
 30
0.0
  0
SPLINE
  5
1E3
330
18C
100
AcDbEntity
  8
$DDT_AUDIT_GENERATED_(B1)
  6
Continuous
 62
     7
100
AcDbSpline
210
0.0
220
0.0
230
1.0
 70
     8
 71
     3
 72
    10
 73
     6
 74
     0
 42
0.0000000705097887
 43
0.0000000001
 40
0.0
 40
0.0
 40
0.0
 40
0.0
 40
0.5
 40
0.5
 40
1.0
 40
1.0
 40
1.0
 40
1.0
 10
420.9039859692327
 20
418.8732941379603
 30
0.0
 10
420.9040030416838
 20
418.8921518431942
 30
0.0
 10
420.9061402919199
 20
418.9142561187739
 30
0.0
 10
420.9306385083044
 20
418.9558771296327
 30
0.0
 10
420.9508460350899
 20
418.9734970423933
 30
0.0
 10
420.9651682399261
 20
418.9947796788816
 30
0.0
  0
SPLINE
  5
1E4
330
18C
100
AcDbEntity
  8
$DDT_AUDIT_GENERATED_(B1)
  6
Continuous
 62
     7
100
AcDbSpline
210
0.0
220
0.0
230
1.0
 70
     8
 71
     3
 72
    17
 73
    13
 74
     0
 42
0.0000000625315903
 43
0.0000000001
 40
0.0
 40
0.0
 40
0.0
 40
0.0
 40
0.3592403384733963
 40
0.3592403384733963
 40
0.3592403384733963
 40
0.5130383106834547
 40
0.5130383106834547
 40
0.5130383106834547
 40
0.6306831820774914
 40
0.6306831820774914
 40
0.6306831820774914
 40
1.0
 40
1.0
 40
1.0
 40
1.0
 10
419.0089222001286
 20
418.9891088415113
 30
0.0
 10
419.0257232356827
 20
418.9764089475054
 30
0.0
 10
419.0437477515625
 20
418.9649824954558
 30
0.0
 10
419.0591035875138
 20
418.9511444663359
 30
0.0
 10
419.0656374877818
 20
418.9452563920909
 30
0.0
 10
419.0718271438008
 20
418.9387204806008
 30
0.0
 10
419.0756769224364
 20
418.9313652563442
 30
0.0
 10
419.0786128382492
 20
418.9257560197501
 30
0.0
 10
419.0796561557066
 20
418.9195203300317
 30
0.0
 10
419.079991451306
 20
418.9136057563227
 30
0.0
 10
419.0810464586093
 20
418.8949955554453
 30
0.0
 10
419.0766289507575
 20
418.8775947779239
 30
0.0
 10
419.0766705881098
 20
418.8620182468344
 30
0.0
  0
SPLINE
  5
1E5
330
18C
100
AcDbEntity
  8
$DDT_AUDIT_GENERATED_(B1)
  6
Continuous
 62
     7
100
AcDbSpline
210
0.0
220
0.0
230
1.0
 70
     8
 71
     3
 72
    12
 73
     8
 74
     0
 42
0.000000080862496
 43
0.0000000001
 40
0.0
 40
0.0
 40
0.0
 40
0.0
 40
0.2499999999999946
 40
0.2499999999999946
 40
0.4999999999999891
 40
0.4999999999999891
 40
1.0
 40
1.0
 40
1.0
 40
1.0
 10
419.0766705881098
 20
418.8620182468344
 30
0.0
 10
419.0766737313618
 20
418.8516747685926
 30
0.0
 10
419.0783472684906
 20
418.8422047940338
 30
0.0
 10
419.0804592647027
 20
418.8249527584598
 30
0.0
 10
419.081721185656
 20
418.8168155307094
 30
0.0
 10
419.0625655346329
 20
418.7980594161086
 30
0.0
 10
419.0355757163927
 20
418.7929450083137
 30
0.0
 10
419.0125902377181
 20
418.7867260099528
 30
0.0
  0
SPLINE
  5
1E6
330
18C
100
AcDbEntity
  8
$DDT_AUDIT_GENERATED_(B1)
  6
Continuous
 62
     7
100
AcDbSpline
210
0.0
220
0.0
230
1.0
 70
     8
 71
     3
 72
     8
 73
     4
 74
     0
 42
0.0000000012518547
 43
0.0000000001
 40
0.0
 40
0.0
 40
0.0
 40
0.0
 40
0.5000016613673932
 40
0.5000016613673932
 40
0.5000016613673932
 40
0.5000016613673932
 10
420.9886825489947
 20
466.8991085524943
 30
0.0
 10
420.9885726801239
 20
469.5618794986824
 30
0.0
 10
420.9885794043442
 20
470.8931071249831
 30
0.0
 10
420.9886115057311
 20
470.8930247326048
 30
0.0
  0
LINE
  5
1E7
330
18C
100
AcDbEntity
  8
$DDT_AUDIT_GENERATED_(B1)
  6
Continuous
 62
     7
100
AcDbLine
 10
418.9285429687
 20
414.7217585164
 30
0.0
 11
421.0015878748
 21
414.7398497052
 31
0.0
  0
LINE
  5
1E8
330
18C
100
AcDbEntity
  8
$DDT_AUDIT_GENERATED_(B1)
  6
Continuous
 62
     7
100
AcDbLine
 10
421.0015857123
 20
470.8998569308
 30
0.0
 11
418.9285429817
 21
470.9179481006
 31
0.0
  0
ARC
  5
1E9
330
18C
100
AcDbEntity
  8
$DDT_AUDIT_GENERATED_(B1)
  6
Continuous
 62
     7
100
AcDbCircle
 10
418.9801328398
 20
470.6204845099
 30
0.0
 40
0.2999318349967875
100
AcDbArc
 50
96.0558109395
 51
178.6957937765
  0
ARC
  5
1EA
330
18C
100
AcDbEntity
  8
$DDT_AUDIT_GENERATED_(B1)
  6
Continuous
 62
     7
100
AcDbCircle
 10
420.8797997873
 20
470.6200493872
 30
0.0
 40
0.300550042125389
100
AcDbArc
 50
14.4108271648
 51
69.3854401132
  0
ARC
  5
1EB
330
18C
100
AcDbEntity
  8
$DDT_AUDIT_GENERATED_(B1)
  6
Continuous
 62
     7
100
AcDbCircle
 10
420.8797989932
 20
415.0196576625
 30
0.0
 40
0.3005509215281259
100
AcDbArc
 50
290.6678206076
 51
345.5888096941
  0
ARC
  5
1EC
330
18C
100
AcDbEntity
  8
$DDT_AUDIT_GENERATED_(B1)
  6
Continuous
 62
     7
100
AcDbCircle
 10
418.9801328398
 20
415.0192221072
 30
0.0
 40
0.2999318349988651
100
AcDbArc
 50
181.3042062239
 51
263.944189049
  0
ELLIPSE
  5
1EE
330
18C
100
AcDbEntity
  8
$DDT_AUDIT_GENERATED_(1ED)
  6
Continuous
 62
     7
100
AcDbEllipse
 10
403.470376071
 20
428.0047437878
 30
0.0
 11
-2.500000000000002
 21
1.734723475976807E-15
 31
0.0
210
0.0
220
0.0
230
1.0
 40
0.2207432135
 41
5.993677797828515
 42
6.283185307179586
  0
LINE
  5
1F0
330
18C
100
AcDbEntity
  8
$DDT_AUDIT_GENERATED_(1EF)
  6
Continuous
 62
     7
100
AcDbLine
 10
417.2079912573
 20
504.9339987416
 30
0.0
 11
414.5708916622
 21
504.9339987416
 31
0.0
  0
LINE
  5
1F1
330
18C
100
AcDbEntity
  8
$DDT_AUDIT_GENERATED_(1EF)
  6
Continuous
 62
     7
100
AcDbLine
 10
417.2079927291
 20
550.7057053113
 30
0.0
 11
414.5707376115
 21
550.7057053113
 31
0.0
  0
SPLINE
  5
1F2
330
18C
100
AcDbEntity
  8
$DDT_AUDIT_GENERATED_(1EF)
  6
Continuous
 62
     7
100
AcDbSpline
210
0.0
220
0.0
230
1.0
 70
    12
 71
     3
 72
    11
 73
     7
 74
     0
 42
0.0000000002268683
 43
0.0000000001
 40
0.650281958998147
 40
0.650281958998147
 40
0.650281958998147
 40
0.650281958998147
 40
0.7594573397505684
 40
0.7594573397505684
 40
0.7594573397505684
 40
1.0
 40
1.0
 40
1.0
 40
1.0
 10
418.0653811053853
 20
521.1457600946541
 30
0.0
 41
0.9978442619742041
 10
418.0653902189119
 20
519.5350389442118
 30
0.0
 41
0.9980408157283283
 10
418.0653930907662
 20
517.9328983571029
 30
0.0
 41
0.9987593950702602
 10
418.0653869540386
 20
516.3418289109898
 30
0.0
 41
1.0
 10
418.0653729819871
 20
512.719295008955
 30
0.0
 41
0.9979683346159639
 10
418.0653121478696
 20
509.1750638789451
 30
0.0
 41
0.9979683346159639
 10
418.0651769106324
 20
505.7307375952025
 30
0.0
 41
1.0
  0
SPLINE
  5
1F3
330
18C
100
AcDbEntity
  8
$DDT_AUDIT_GENERATED_(1EF)
  6
Continuous
 62
     7
100
AcDbSpline
210
0.0
220
0.0
230
1.0
 70
    12
 71
     3
 72
     8
 73
     4
 74
     0
 42
0.0000000023902407
 43
0.0000000001
 40
0.5979914475910968
 40
0.5979914475910968
 40
0.5979914475910968
 40
0.5979914475910968
 40
0.7003302081240239
 40
0.7003302081240239
 40
0.7003302081240239
 40
0.7003302081240239
 10
418.065364024302
 20
553.7852288010613
 30
0.0
 41
0.9979210987539591
 10
418.0653775665182
 20
553.6913382347052
 30
0.0
 41
0.9976366006139676
 10
418.0653868045366
 20
553.5485465957363
 30
0.0
 41
0.9978107960450482
 10
418.0653894379517
 20
553.3570762783522
 30
0.0
 41
0.9984436850472006
  0
LINE
  5
1F4
330
18C
100
AcDbEntity
  8
$DDT_AUDIT_GENERATED_(1EF)
  6
Continuous
 62
     7
100
AcDbLine
 10
418.065396767
 20
509.6198533085
 30
0.0
 11
418.0653967417
 21
545.7320153021
 31
0.0
  0
LINE
  5
1F5
330
18C
100
AcDbEntity
  8
$DDT_AUDIT_GENERATED_(1EF)
  6
Continuous
 62
     7
100
AcDbLine
 10
414.5709235687
 20
501.2198550578
 30
0.0
 11
417.5653226107
 21
501.2198550578
 31
0.0
  0
LINE
  5
1F6
330
18C
100
AcDbEntity
  8
$DDT_AUDIT_GENERATED_(1EF)
  6
Continuous
 62
     7
100
AcDbLine
 10
417.5653155705
 20
554.4198516296
 30
0.0
 11
414.5707239373
 21
554.4198516296
 31
0.0
  0
LINE
  5
1F7
330
18C
100
AcDbEntity
  8
$DDT_AUDIT_GENERATED_(1EF)
  6
Continuous
 62
     7
100
AcDbLine
 10
418.0654078261
 20
545.7188863836
 30
0.0
 11
418.0653645426
 21
553.7585575657
 31
0.0
  0
LINE
  5
1F8
330
18C
100
AcDbEntity
  8
$DDT_AUDIT_GENERATED_(1EF)
  6
Continuous
 62
     7
100
AcDbLine
 10
418.0653645465
 20
501.8811436143
 30
0.0
 11
418.0654077518
 21
509.9128454025
 31
0.0
  0
SPLINE
  5
1F9
330
18C
100
AcDbEntity
  8
$DDT_AUDIT_GENERATED_(1EF)
  6
Continuous
 62
     7
100
AcDbSpline
210
0.0
220
0.0
230
1.0
 70
     8
 71
     3
 72
    18
 73
    14
 74
     0
 42
0.0000000102130792
 43
0.0000000001
 40
0.0
 40
0.0
 40
0.0
 40
0.0
 40
0.0161612899781973
 40
0.0316699400719175
 40
0.048184413309528
 40
0.0669467655410495
 40
0.1140047147765931
 40
0.1945053631556716
 40
0.2981030376424572
 40
0.4135838801392281
 40
0.5398724949440492
 40
0.8453777411820642
 40
1.0
 40
1.0
 40
1.0
 40
1.0
 10
417.565315569938
 20
501.2197365506337
 30
0.0
 10
417.6031363774918
 20
501.2218715747381
 30
0.0
 10
417.6667628341821
 20
501.2259889598337
 30
0.0
 10
417.7589809494479
 20
501.2560340344186
 30
0.0
 10
417.8301025341245
 20
501.2934556832323
 30
0.0
 10
417.9100258282518
 20
501.3526073270787
 30
0.0
 10
417.9768508883153
 20
501.4326090563443
 30
0.0
 10
418.0089149725426
 20
501.4953181195468
 30
0.0
 10
418.017328891965
 20
501.5246407298226
 30
0.0
 10
418.0303736079497
 20
501.5752744129068
 30
0.0
 10
418.0437644978683
 20
501.6594319104504
 30
0.0
 10
418.0540785328992
 20
501.7676292124461
 30
0.0
 10
418.0570365572252
 20
501.8744024398618
 30
0.0
 10
418.0581231508789
 20
501.9169164839371
 30
0.0
  0
SPLINE
  5
1FA
330
18C
100
AcDbEntity
  8
$DDT_AUDIT_GENERATED_(1EF)
  6
Continuous
 62
     7
100
AcDbSpline
210
0.0
220
0.0
230
1.0
 70
     8
 71
     3
 72
    13
 73
     9
 74
     0
 42
0.0000000067288893
 43
0.0000000001
 40
0.0
 40
0.0
 40
0.0
 40
0.0
 40
0.2263896915103101
 40
0.4287460629984486
 40
0.6071666103972926
 40
0.7617357533554139
 40
0.8925728876132154
 40
1.0
 40
1.0
 40
1.0
 40
1.0
 10
418.0653886358807
 20
553.2029765333368
 30
0.0
 10
418.0658464131096
 20
553.3306992352677
 30
0.0
 10
418.064869738753
 20
553.5334438423915
 30
0.0
 10
418.0532632310627
 20
553.8131358325721
 30
0.0
 10
418.0166548929268
 20
554.0419131906631
 30
0.0
 10
417.9363037825886
 20
554.2251854535449
 30
0.0
 10
417.8057827899133
 20
554.3760348534926
 30
0.0
 10
417.649555222595
 20
554.4047918022076
 30
0.0
 10
417.5653155699276
 20
554.4199701367197
 30
0.0
  0
LINE
  5
1FB
330
18C
100
AcDbEntity
  8
$DDT_AUDIT_GENERATED_(1EF)
  6
Continuous
 62
     7
100
AcDbLine
 10
414.5708703374
 20
465.705705241
 30
0.0
 11
417.107992721
 21
465.705705241
 31
0.0
  0
LINE
  5
1FC
330
18C
100
AcDbEntity
  8
$DDT_AUDIT_GENERATED_(1EF)
  6
Continuous
 62
     7
100
AcDbLine
 10
414.57053477
 20
419.9339986713
 30
0.0
 11
417.1079911895
 21
419.9339986713
 31
0.0
  0
SPLINE
  5
1FD
330
18C
100
AcDbEntity
  8
$DDT_AUDIT_GENERATED_(1EF)
  6
Continuous
 62
     7
100
AcDbSpline
210
0.0
220
0.0
230
1.0
 70
    12
 71
     3
 72
     8
 73
     4
 74
     0
 42
0.0000000022065986
 43
0.0000000001
 40
0.5979914759815997
 40
0.5979914759815997
 40
0.5979914759815997
 40
0.5979914759815997
 40
0.7253634876046432
 40
0.7253634876046432
 40
0.7253634876046432
 40
0.7253634876046432
 10
417.9653640243159
 20
468.7852287322763
 30
0.0
 41
0.997921098873811
 10
417.9653808802921
 20
468.6683632937121
 30
0.0
 41
0.9975670088695975
 10
417.9653910648504
 20
468.4757885205945
 30
0.0
 41
0.9979234618121544
 10
417.9653901508953
 20
468.2079963684052
 30
0.0
 41
0.9989904577014816
  0
SPLINE
  5
1FE
330
18C
100
AcDbEntity
  8
$DDT_AUDIT_GENERATED_(1EF)
  6
Continuous
 62
     7
100
AcDbSpline
210
0.0
220
0.0
230
1.0
 70
    12
 71
     3
 72
    11
 73
     7
 74
     0
 42
0.0000000002268683
 43
0.0000000001
 40
0.6502819973307024
 40
0.6502819973307024
 40
0.6502819973307024
 40
0.6502819973307024
 40
0.7594573445045529
 40
0.7594573445045529
 40
0.7594573445045529
 40
1.0
 40
1.0
 40
1.0
 40
1.0
 10
417.9653811053943
 20
436.1457586049231
 30
0.0
 41
0.9978442621396965
 10
417.9653902189145
 20
434.5350379321657
 30
0.0
 41
0.9980408161432122
 10
417.9653930907654
 20
432.9328978189336
 30
0.0
 41
0.9987593954299799
 10
417.9653869540394
 20
431.341828840693
 30
0.0
 41
1.0
 10
417.965372981988
 20
427.7192949623143
 30
0.0
 41
0.9979683346073489
 10
417.9653121478711
 20
424.1750638546605
 30
0.0
 41
0.9979683346073489
 10
417.9651769106355
 20
420.7307375919289
 30
0.0
 41
1.0
  0
LINE
  5
1FF
330
18C
100
AcDbEntity
  8
$DDT_AUDIT_GENERATED_(1EF)
  6
Continuous
 62
     7
100
AcDbLine
 10
417.9653967415
 20
424.6198544456
 30
0.0
 11
417.9653967668
 21
460.7342118509
 31
0.0
  0
LINE
  5
200
330
18C
100
AcDbEntity
  8
$DDT_AUDIT_GENERATED_(1EF)
  6
Continuous
 62
     7
100
AcDbLine
 10
417.4653226107
 20
469.4198515593
 30
0.0
 11
414.5709062231
 21
469.4198515593
 31
0.0
  0
LINE
  5
201
330
18C
100
AcDbEntity
  8
$DDT_AUDIT_GENERATED_(1EF)
  6
Continuous
 62
     7
100
AcDbLine
 10
414.5705690048
 20
416.2198549875
 30
0.0
 11
417.4653155705
 21
416.2198549875
 31
0.0
  0
LINE
  5
202
330
18C
100
AcDbEntity
  8
$DDT_AUDIT_GENERATED_(1EF)
  6
Continuous
 62
     7
100
AcDbLine
 10
417.9654077802
 20
460.7267896483
 30
0.0
 11
417.9653645426
 21
468.7585574938
 31
0.0
  0
LINE
  5
203
330
18C
100
AcDbEntity
  8
$DDT_AUDIT_GENERATED_(1EF)
  6
Continuous
 62
     7
100
AcDbLine
 10
417.9653645465
 20
416.8811435425
 30
0.0
 11
417.9654077977
 21
424.9207545622
 31
0.0
  0
SPLINE
  5
204
330
18C
100
AcDbEntity
  8
$DDT_AUDIT_GENERATED_(1EF)
  6
Continuous
 62
     7
100
AcDbSpline
210
0.0
220
0.0
230
1.0
 70
     8
 71
     3
 72
    13
 73
     9
 74
     0
 42
0.000000010191334
 43
0.0000000001
 40
0.0
 40
0.0
 40
0.0
 40
0.0
 40
0.2293296225112558
 40
0.4543959404919319
 40
0.6592247529420511
 40
0.8397913841816387
 40
0.92207086728081
 40
1.0
 40
1.0
 40
1.0
 40
1.0
 10
417.9582184270755
 20
468.7284045463356
 30
0.0
 10
417.957199414625
 20
468.7828095330752
 30
0.0
 10
417.9542697171844
 20
468.8790971102151
 30
0.0
 10
417.9575781347289
 20
468.9331517747797
 30
0.0
 10
417.9388675519549
 20
469.0771623397762
 30
0.0
 10
417.8471004782434
 20
469.2583563520444
 30
0.0
 10
417.666791578253
 20
469.3923266407164
 30
0.0
 10
417.539496942493
 20
469.4099342745298
 30
0.0
 10
417.465315569938
 20
469.4199700664423
 30
0.0
  0
SPLINE
  5
205
330
18C
100
AcDbEntity
  8
$DDT_AUDIT_GENERATED_(1EF)
  6
Continuous
 62
     7
100
AcDbSpline
210
0.0
220
0.0
230
1.0
 70
     8
 71
     3
 72
    18
 73
    14
 74
     0
 42
0.000000006750818
 43
0.0000000001
 40
0.0
 40
0.0
 40
0.0
 40
0.0
 40
0.0015996730029544
 40
0.003323216506545
 40
0.0075568657374012
 40
0.0206481078842427
 40
0.0686274524096419
 40
0.147033507830626
 40
0.2561636235933221
 40
0.3960609519609859
 40
0.5666995554095102
 40
0.7680306289493753
 40
1.0
 40
1.0
 40
1.0
 40
1.0
 10
417.4653155699277
 20
416.2197364803562
 30
0.0
 10
417.471257196832
 20
416.2197887322245
 30
0.0
 10
417.4818098100262
 20
416.2198974834434
 30
0.0
 10
417.5054911884519
 20
416.221090823725
 30
0.0
 10
417.5499839351937
 20
416.2258030219742
 30
0.0
 10
417.6343721317187
 20
416.2453579704556
 30
0.0
 10
417.7145413950649
 20
416.2861948051435
 30
0.0
 10
417.7968356867491
 20
416.3547823276598
 30
0.0
 10
417.8608730461373
 20
416.4545904116106
 30
0.0
 10
417.9105898261108
 20
416.5959564712592
 30
0.0
 10
417.9437163978512
 20
416.7928012061844
 30
0.0
 10
417.962528572449
 20
417.0702482065765
 30
0.0
 10
417.9647505772444
 20
417.2933073105724
 30
0.0
 10
417.9653886358807
 20
417.4367300837354
 30
0.0
  0
LINE
  5
206
330
18C
100
AcDbEntity
  8
$DDT_AUDIT_GENERATED_(FA)
  6
Continuous
 62
     7
100
AcDbLine
 10
475.2861010832
 20
550.705705241
 30
0.0
 11
422.4670594254
 21
550.705705241
 31
0.0
  0
LINE
  5
207
330
18C
100
AcDbEntity
  8
$DDT_AUDIT_GENERATED_(FA)
  6
Continuous
 62
     7
100
AcDbLine
 10
421.6203760707
 20
501.719714774
 30
0.0
 11
421.6203760707
 21
501.7356343281
 31
0.0
  0
LINE
  5
208
330
18C
100
AcDbEntity
  8
$DDT_AUDIT_GENERATED_(FA)
  6
Continuous
 62
     7
100
AcDbLine
 10
421.6203760708
 20
503.1253035593
 30
0.0
 11
421.620376071
 21
505.296546499
 31
0.0
  0
LINE
  5
209
330
18C
100
AcDbEntity
  8
$DDT_AUDIT_GENERATED_(FA)
  6
Continuous
 62
     7
100
AcDbLine
 10
421.620376071
 20
533.5056062357
 30
0.0
 11
421.620376071
 21
525.1243242011
 31
0.0
  0
LINE
  5
20A
330
18C
100
AcDbEntity
  8
$DDT_AUDIT_GENERATED_(FA)
  6
Continuous
 62
     7
100
AcDbLine
 10
421.620376071
 20
513.3646250299
 30
0.0
 11
421.620376071
 21
505.7346590258
 31
0.0
  0
LINE
  5
20B
330
18C
100
AcDbEntity
  8
$DDT_AUDIT_GENERATED_(FA)
  6
Continuous
 62
     7
100
AcDbLine
 10
422.4670600073
 20
504.9339986713
 30
0.0
 11
475.2860685454
 21
504.9339986713
 31
0.0
  0
LINE
  5
20C
330
18C
100
AcDbEntity
  8
$DDT_AUDIT_GENERATED_(FA)
  6
Continuous
 62
     7
100
AcDbLine
 10
421.6203760712
 20
553.9199917728
 30
0.0
 11
421.6203760712
 21
553.8683940714
 31
0.0
  0
LINE
  5
20D
330
18C
100
AcDbEntity
  8
$DDT_AUDIT_GENERATED_(FA)
  6
Continuous
 62
     7
100
AcDbLine
 10
421.6203760712
 20
553.1223358993
 30
0.0
 11
421.620376071
 21
550.3431594756
 31
0.0
  0
SPLINE
  5
20E
330
18C
100
AcDbEntity
  8
$DDT_AUDIT_GENERATED_(FA)
  6
Continuous
 62
     7
100
AcDbSpline
210
0.0
220
0.0
230
1.0
 70
     8
 71
     3
 72
    17
 73
    13
 74
     0
 42
0.0000000258006548
 43
0.0000000001
 40
0.0
 40
0.0
 40
0.0
 40
0.0
 40
0.0832838349706029
 40
0.1663006525510511
 40
0.2492674664093682
 40
0.3324016827945941
 40
0.4159194017059144
 40
0.5000337684994014
 40
0.6259404399487878
 40
0.7507513447568382
 40
0.8751934091998531
 40
1.0
 40
1.0
 40
1.0
 40
1.0
 10
427.1296073547467
 20
554.408827292146
 30
0.0
 10
427.1497800993179
 20
554.4099635850316
 30
0.0
 10
427.1900609124173
 20
554.4122325277192
 30
0.0
 10
427.237271519592
 20
554.4149454753644
 30
0.0
 10
427.2745811388883
 20
554.4171175649963
 30
0.0
 10
427.3010641351375
 20
554.4186837041059
 30
0.0
 10
427.3169731741405
 20
554.4196385410884
 30
0.0
 10
427.3230771703559
 20
554.4200115460642
 30
0.0
 10
427.3127112921414
 20
554.4193747175581
 30
0.0
 10
427.2765432015848
 20
554.4172249167153
 30
0.0
 10
427.2180169642029
 20
554.4138131731694
 30
0.0
 10
427.159105558098
 20
554.4104853533785
 30
0.0
 10
427.1296067760845
 20
554.4088190100134
 30
0.0
  0
ARC
  5
20F
330
18C
100
AcDbEntity
  8
$DDT_AUDIT_GENERATED_(FA)
  6
Continuous
 62
     7
100
AcDbCircle
 10
426.8597774324
 20
561.5330124297
 30
0.0
 40
7.129301491443234
100
AcDbArc
 50
270.068743459
 51
272.1690450301
  0
ARC
  5
210
330
18C
100
AcDbEntity
  8
$DDT_AUDIT_GENERATED_(FA)
  6
Continuous
 62
     7
100
AcDbCircle
 10
425.6203780175
 20
733.732822866
 30
0.0
 40
179.3334490033735
100
AcDbArc
 50
269.601283934
 51
270.3987154981
  0
ARC
  5
211
330
18C
100
AcDbEntity
  8
$DDT_AUDIT_GENERATED_(FA)
  6
Continuous
 62
     7
100
AcDbCircle
 10
424.3809770353
 20
561.5332262171
 30
0.0
 40
7.129515266605376
100
AcDbArc
 50
267.8309976079
 51
269.9312569127
  0
SPLINE
  5
212
330
18C
100
AcDbEntity
  8
$DDT_AUDIT_GENERATED_(FA)
  6
Continuous
 62
     7
100
AcDbSpline
210
0.0
220
0.0
230
1.0
 70
     8
 71
     3
 72
    14
 73
    10
 74
     0
 42
0.0000000261593332
 43
0.0000000001
 40
0.0
 40
0.0
 40
0.0
 40
0.0
 40
0.08328384669206
 40
0.1663006708687553
 40
0.2492674862163885
 40
0.3324016989514943
 40
0.4159194089895832
 40
0.500033761552325
 40
0.5001038771053633
 40
0.5001038771053633
 40
0.5001038771053633
 40
0.5001038771053633
 10
424.1111449024887
 20
554.4088189746484
 30
0.0
 10
424.0909721568524
 20
554.4099557147501
 30
0.0
 10
424.0506913428589
 20
554.412225550367
 30
0.0
 10
424.0034807357831
 20
554.414939864239
 30
0.0
 10
423.9661711183977
 20
554.4171133345359
 30
0.0
 10
423.9396881242335
 20
554.4186808704667
 30
0.0
 10
423.9237790859748
 20
554.4196371192819
 30
0.0
 10
423.9202917984042
 20
554.4198511685561
 30
0.0
 10
423.920287592632
 20
554.4198515596556
 30
0.0
 10
423.9202875903405
 20
554.4198515599072
 30
0.0
  0
ARC
  5
213
330
18C
100
AcDbEntity
  8
$DDT_AUDIT_GENERATED_(FA)
  6
Continuous
 62
     7
100
AcDbCircle
 10
447.6203762468
 20
740.0087599197
 30
0.0
 40
186.3174012695802
100
AcDbArc
 50
267.4342197324
 51
272.5657824668
  0
ARC
  5
214
330
18C
100
AcDbEntity
  8
$DDT_AUDIT_GENERATED_(FA)
  6
Continuous
 62
     7
100
AcDbCircle
 10
475.7341979228
 20
553.9199041172
 30
0.0
 40
0.4999204327395778
100
AcDbArc
 50
14.3225389659
 51
90.0091321873
  0
ARC
  5
215
330
18C
100
AcDbEntity
  8
$DDT_AUDIT_GENERATED_(FA)
  6
Continuous
 62
     7
100
AcDbCircle
 10
475.7341979326
 20
501.719802443
 30
0.0
 40
0.4999204366887395
100
AcDbArc
 50
269.9908676776
 51
345.6774612237
  0
ARC
  5
216
330
18C
100
AcDbEntity
  8
$DDT_AUDIT_GENERATED_(FA)
  6
Continuous
 62
     7
100
AcDbCircle
 10
422.1201994682
 20
501.7195598767
 30
0.0
 40
0.4998234214822182
100
AcDbArc
 50
179.9822438036
 51
270.0202443079
  0
ARC
  5
217
330
18C
100
AcDbEntity
  8
$DDT_AUDIT_GENERATED_(FA)
  6
Continuous
 62
     7
100
AcDbCircle
 10
422.1201994687
 20
553.9201466701
 30
0.0
 40
0.4998234214843428
100
AcDbArc
 50
89.9797556924
 51
180.0177561959
  0
LINE
  5
218
330
18C
100
AcDbEntity
  8
$DDT_AUDIT_GENERATED_(FA)
  6
Continuous
 62
     7
100
AcDbLine
 10
423.9203010431
 20
554.4198515593
 30
0.0
 11
422.1203760712
 21
554.4198515593
 31
0.0
  0
LINE
  5
219
330
18C
100
AcDbEntity
  8
$DDT_AUDIT_GENERATED_(FA)
  6
Continuous
 62
     7
100
AcDbLine
 10
437.5302502185
 20
554.4198515593
 30
0.0
 11
427.3204512825
 21
554.4198515593
 31
0.0
  0
LINE
  5
21A
330
18C
100
AcDbEntity
  8
$DDT_AUDIT_GENERATED_(FA)
  6
Continuous
 62
     7
100
AcDbLine
 10
475.7341181571
 20
554.4198515593
 30
0.0
 11
457.7105129869
 21
554.4198515593
 31
0.0
  0
LINE
  5
21B
330
18C
100
AcDbEntity
  8
$DDT_AUDIT_GENERATED_(FA)
  6
Continuous
 62
     7
100
AcDbLine
 10
422.1203760707
 20
501.2198549875
 30
0.0
 11
475.7341181558
 21
501.2198549875
 31
0.0
  0
ARC
  5
21C
330
18C
100
AcDbEntity
  8
$DDT_AUDIT_GENERATED_(FA)
  6
Continuous
 62
     7
100
AcDbCircle
 10
329.7240340317
 20
527.8192389024
 30
0.0
 40
148.8138307653855
100
AcDbArc
 50
349.8515399604
 51
10.148923649
  0
ARC
  5
21D
330
18C
100
AcDbEntity
  8
$DDT_AUDIT_GENERATED_(FA)
  6
Continuous
 62
     7
100
AcDbCircle
 10
439.3073653665
 20
555.4984793313
 30
0.0
 40
1.617038518963641
100
AcDbArc
 50
259.1631521181
 51
269.2056304439
  0
ARC
  5
21E
330
18C
100
AcDbEntity
  8
$DDT_AUDIT_GENERATED_(FA)
  6
Continuous
 62
     7
100
AcDbCircle
 10
455.8695592005
 20
555.9879326568
 30
0.0
 40
2.110104961236869
100
AcDbArc
 50
270.3135199487
 51
280.0300271355
  0
ARC
  5
21F
330
18C
100
AcDbEntity
  8
$DDT_AUDIT_GENERATED_(FA)
  6
Continuous
 62
     7
100
AcDbCircle
 10
437.5203764466
 20
554.119851559
 30
0.0
 40
0.2999999999977097
100
AcDbArc
 50
69.8396526709
 51
87.9942242106
  0
ARC
  5
220
330
18C
100
AcDbEntity
  8
$DDT_AUDIT_GENERATED_(FA)
  6
Continuous
 62
     7
100
AcDbCircle
 10
462.7251068329
 20
622.6345262468
 30
0.0
 40
72.70369781470937
100
AcDbArc
 50
249.8042072171
 51
250.9608947549
  0
ARC
  5
221
330
18C
100
AcDbEntity
  8
$DDT_AUDIT_GENERATED_(FA)
  6
Continuous
 62
     7
100
AcDbCircle
 10
542.4767474938
 20
311.5426953042
 30
0.0
 40
257.2578229601494
100
AcDbArc
 50
109.2613081812
 51
109.5918084268
  0
ARC
  5
222
330
18C
100
AcDbEntity
  8
$DDT_AUDIT_GENERATED_(FA)
  6
Continuous
 62
     7
100
AcDbCircle
 10
457.7203759407
 20
554.119851553
 30
0.0
 40
0.2999999996766807
100
AcDbArc
 50
91.9502758295
 51
109.1741593977
  0
ARC
  5
223
330
18C
100
AcDbEntity
  8
$DDT_AUDIT_GENERATED_(FA)
  6
Continuous
 62
     7
100
AcDbCircle
 10
541.5049618923
 20
314.2749888847
 30
0.0
 40
254.3578966453158
100
AcDbArc
 50
109.2577197812
 51
109.3738952014
  0
ARC
  5
224
330
18C
100
AcDbEntity
  8
$DDT_AUDIT_GENERATED_(11D)
  6
Continuous
 62
     7
100
AcDbCircle
 10
438.4199711054
 20
554.3431525468
 30
0.0
 40
0.2998528148850488
100
AcDbArc
 50
89.9737937743
 51
180.0286909015
  0
ARC
  5
225
330
18C
100
AcDbEntity
  8
$DDT_AUDIT_GENERATED_(11D)
  6
Continuous
 62
     7
100
AcDbCircle
 10
456.8207784794
 20
554.3431525636
 30
0.0
 40
0.2998528138584258
100
AcDbArc
 50
359.9713089943
 51
90.0262062343
  0
LINE
  5
226
330
18C
100
AcDbEntity
  8
$DDT_AUDIT_GENERATED_(11D)
  6
Continuous
 62
     7
100
AcDbLine
 10
457.1203745232
 20
554.2274189088
 30
0.0
 11
457.1203745232
 21
554.3430012755
 31
0.0
  0
LINE
  5
227
330
18C
100
AcDbEntity
  8
$DDT_AUDIT_GENERATED_(11D)
  6
Continuous
 62
     7
100
AcDbLine
 10
456.8316326402
 20
554.6423553781
 30
0.0
 11
438.409117163
 21
554.6423553781
 31
0.0
  0
LINE
  5
228
330
18C
100
AcDbEntity
  8
$DDT_AUDIT_GENERATED_(11D)
  6
Continuous
 62
     7
100
AcDbLine
 10
438.1203750158
 20
554.3430008827
 30
0.0
 11
438.1203750158
 21
554.2209227923
 31
0.0
  0
SPLINE
  5
229
330
18C
100
AcDbEntity
  8
$DDT_AUDIT_GENERATED_(B1)
  6
Continuous
 62
     7
100
AcDbSpline
210
0.0
220
0.0
230
1.0
 70
     8
 71
     3
 72
     8
 73
     4
 74
     0
 42
0.0000000012526514
 43
0.0000000001
 40
0.5000527564809509
 40
0.5000527564809509
 40
0.5000527564809509
 40
0.5000527564809509
 40
1.0
 40
1.0
 40
1.0
 40
1.0
 10
421.4284131329819
 20
499.7494620100456
 30
0.0
 10
421.4284416899978
 20
499.7495712634018
 30
0.0
 10
421.4284952011345
 20
501.0797742958877
 30
0.0
 10
421.4284830565978
 20
503.7405707384868
 30
0.0
  0
SPLINE
  5
22A
330
18C
100
AcDbEntity
  8
$DDT_AUDIT_GENERATED_(B1)
  6
Continuous
 62
     7
100
AcDbSpline
210
0.0
220
0.0
230
1.0
 70
     8
 71
     3
 72
    12
 73
     8
 74
     0
 42
0.0000001561331257
 43
0.0000000001
 40
0.0
 40
0.0
 40
0.0
 40
0.0
 40
0.5
 40
0.5
 40
0.75
 40
0.75
 40
1.0
 40
1.0
 40
1.0
 40
1.0
 10
421.4284830565978
 20
503.7405707384868
 30
0.0
 10
421.4284855302945
 20
503.7504128080642
 30
0.0
 10
421.4271992963969
 20
503.7602619336647
 30
0.0
 10
421.4234793678524
 20
503.7749996579252
 30
0.0
 10
421.4222850555743
 20
503.7799183734839
 30
0.0
 10
421.4189942813202
 20
503.7897322211346
 30
0.0
 10
421.4171786104587
 20
503.7946364668537
 30
0.0
 10
421.409987941596
 20
503.7990383960742
 30
0.0
  0
LINE
  5
22B
330
18C
100
AcDbEntity
  8
$DDT_AUDIT_GENERATED_(B1)
  6
Continuous
 62
     7
100
AcDbLine
 10
421.4099879416
 20
503.7990383961
 30
0.0
 11
421.4030941403
 21
503.8027734575
 31
0.0
  0
LINE
  5
22C
330
18C
100
AcDbEntity
  8
$DDT_AUDIT_GENERATED_(B1)
  6
Continuous
 62
     7
100
AcDbLine
 10
421.4030941403
 20
503.8027734575
 30
0.0
 11
419.4524006999
 21
503.7867260796
 31
0.0
  0
SPLINE
  5
22D
330
18C
100
AcDbEntity
  8
$DDT_AUDIT_GENERATED_(B1)
  6
Continuous
 62
     7
100
AcDbSpline
210
0.0
220
0.0
230
1.0
 70
     8
 71
     3
 72
    11
 73
     7
 74
     0
 42
0.0000001741539943
 43
0.0000000001
 40
0.0
 40
0.0
 40
0.0
 40
0.0
 40
0.6961247732503267
 40
0.6961247732503267
 40
0.6961247732503267
 40
1.0
 40
1.0
 40
1.0
 40
1.0
 10
419.452400699861
 20
503.786726079585
 30
0.0
 10
419.4373186711475
 20
503.7827678555417
 30
0.0
 10
419.4231955777827
 20
503.778225820722
 30
0.0
 10
419.4120799873459
 20
503.7730167677977
 30
0.0
 10
419.4071850982712
 20
503.7707228962851
 30
0.0
 10
419.4028539283622
 20
503.7682796845269
 30
0.0
 10
419.3993451204811
 20
503.7657287661654
 30
0.0
  0
SPLINE
  5
22E
330
18C
100
AcDbEntity
  8
$DDT_AUDIT_GENERATED_(B1)
  6
Continuous
 62
     7
100
AcDbSpline
210
0.0
220
0.0
230
1.0
 70
     8
 71
     3
 72
    17
 73
    13
 74
     0
 42
0.0000002160083216
 43
0.0000000001
 40
0.0
 40
0.0
 40
0.0
 40
0.0
 40
0.0767399452571385
 40
0.0767399452571385
 40
0.0767399452571385
 40
0.3844191189361056
 40
0.3844191189361056
 40
0.3844191189361056
 40
0.6920297384337287
 40
0.6920297384337287
 40
0.6920297384337287
 40
1.0
 40
1.0
 40
1.0
 40
1.0
 10
419.3993451204811
 20
503.7657287661654
 30
0.0
 10
419.3979783836606
 20
503.7647350589561
 30
0.0
 10
419.3969384068537
 20
503.7636925087252
 30
0.0
 10
419.3960839237326
 20
503.7626411993538
 30
0.0
 10
419.3926465331763
 20
503.7584120217187
 30
0.0
 10
419.3912995542805
 20
503.7540414677782
 30
0.0
 10
419.3894723329303
 20
503.7497220795561
 30
0.0
 10
419.3876450695485
 20
503.745402591975
 30
0.0
 10
419.3859191364542
 20
503.7410797376054
 30
0.0
 10
419.3847263113241
 20
503.7367478894961
 30
0.0
 10
419.3835327343451
 20
503.7324133109819
 30
0.0
 10
419.3828981607787
 20
503.7280648150032
 30
0.0
 10
419.382905138395
 20
503.7237290337168
 30
0.0
  0
SPLINE
  5
22F
330
18C
100
AcDbEntity
  8
$DDT_AUDIT_GENERATED_(B1)
  6
Continuous
 62
     7
100
AcDbSpline
210
0.0
220
0.0
230
1.0
 70
     8
 71
     3
 72
     8
 73
     4
 74
     0
 42
0.0000000012493905
 43
0.0000000001
 40
0.0
 40
0.0
 40
0.0
 40
0.0
 40
0.4999972118120261
 40
0.4999972118120261
 40
0.4999972118120261
 40
0.4999972118120261
 10
419.382905138395
 20
503.7237290337168
 30
0.0
 10
419.3815799542209
 20
501.0633737266363
 30
0.0
 10
419.3805493252248
 20
499.7219115894221
 30
0.0
 10
419.3806502017471
 20
499.7218659031948
 30
0.0
  0
SPLINE
  5
230
330
18C
100
AcDbEntity
  8
$DDT_AUDIT_GENERATED_(B1)
  6
Continuous
 62
     7
100
AcDbSpline
210
0.0
220
0.0
230
1.0
 70
     8
 71
     3
 72
    10
 73
     6
 74
     0
 42
0.0000000012493719
 43
0.0000000001
 40
0.4999972117234938
 40
0.4999972117234938
 40
0.4999972117234938
 40
0.4999972117234938
 40
0.5
 40
0.5
 40
1.0
 40
1.0
 40
1.0
 40
1.0
 10
419.3806502018162
 20
555.9178407138854
 30
0.0
 10
419.3806502023788
 20
555.9178407141401
 30
0.0
 10
419.3806502029414
 20
555.9178407143532
 30
0.0
 10
419.3807510932019
 20
555.9178714399043
 30
0.0
 10
419.3836053123837
 20
554.577585290448
 30
0.0
 10
419.3829412529779
 20
551.9159466742466
 30
0.0
  0
SPLINE
  5
231
330
18C
100
AcDbEntity
  8
$DDT_AUDIT_GENERATED_(B1)
  6
Continuous
 62
     7
100
AcDbSpline
210
0.0
220
0.0
230
1.0
 70
     8
 71
     3
 72
    17
 73
    13
 74
     0
 42
0.0000002141326936
 43
0.0000000001
 40
0.0
 40
0.0
 40
0.0
 40
0.0
 40
0.0685403493455109
 40
0.0685403493455109
 40
0.0685403493455109
 40
0.3765749181426365
 40
0.3765749181426365
 40
0.3765749181426365
 40
0.6841982769387857
 40
0.6841982769387857
 40
0.6841982769387857
 40
1.0
 40
1.0
 40
1.0
 40
1.0
 10
419.3829412529779
 20
551.9159466742466
 30
0.0
 10
419.3829312864553
 20
551.9149811982066
 30
0.0
 10
419.3829579141171
 20
551.9140152011701
 30
0.0
 10
419.383016556078
 20
551.9130490209361
 30
0.0
 10
419.3832798543318
 20
551.9087109400762
 30
0.0
 10
419.3842184159758
 20
551.9043657116005
 30
0.0
 10
419.3856219565524
 20
551.9000354550772
 30
0.0
 10
419.3870244336099
 20
551.8957084797636
 30
0.0
 10
419.3888560019191
 20
551.8913905343453
 30
0.0
 10
419.3907255572769
 20
551.8870724311784
 30
0.0
 10
419.392639850111
 20
551.8826509980745
 30
0.0
 10
419.3937318657816
 20
551.8780409760785
 30
0.0
 10
419.3993574669909
 20
551.8739486689362
 30
0.0
  0
ARC
  5
232
330
18C
100
AcDbEntity
  8
$DDT_AUDIT_GENERATED_(B1)
  6
Continuous
 62
     7
100
AcDbCircle
 10
419.4831400911
 20
552.0096925346
 30
0.0
 40
0.1595177894520213
100
AcDbArc
 50
238.3166537367
 51
257.5405958049
  0
LINE
  5
233
330
18C
100
AcDbEntity
  8
$DDT_AUDIT_GENERATED_(B1)
  6
Continuous
 62
     7
100
AcDbLine
 10
421.4049701602
 20
551.8378289807
 30
0.0
 11
421.410001348
 21
551.8406356784
 31
0.0
  0
SPLINE
  5
234
330
18C
100
AcDbEntity
  8
$DDT_AUDIT_GENERATED_(B1)
  6
Continuous
 62
     7
100
AcDbSpline
210
0.0
220
0.0
230
1.0
 70
     8
 71
     3
 72
    12
 73
     8
 74
     0
 42
0.0000001562689341
 43
0.0000000001
 40
0.0
 40
0.0
 40
0.0
 40
0.0
 40
0.2500000000000184
 40
0.2500000000000184
 40
0.5000000000000367
 40
0.5000000000000367
 40
1.0
 40
1.0
 40
1.0
 40
1.0
 10
421.4100013856886
 20
551.8406356700137
 30
0.0
 10
421.4169495777492
 20
551.8448893369157
 30
0.0
 10
421.4190051959487
 20
551.8499373962659
 30
0.0
 10
421.4222958207782
 20
551.8597484467082
 30
0.0
 10
421.423489906723
 20
551.8646696887914
 30
0.0
 10
421.4272103328454
 20
551.8794138052472
 30
0.0
 10
421.4284958828588
 20
551.8892577765207
 30
0.0
 10
421.4284930049829
 20
551.8991065852748
 30
0.0
  0
SPLINE
  5
235
330
18C
100
AcDbEntity
  8
$DDT_AUDIT_GENERATED_(B1)
  6
Continuous
 62
     7
100
AcDbSpline
210
0.0
220
0.0
230
1.0
 70
     8
 71
     3
 72
     8
 73
     4
 74
     0
 42
0.0000000012528379
 43
0.0000000001
 40
0.0
 40
0.0
 40
0.0
 40
0.0
 40
0.5000527564850833
 40
0.5000527564850833
 40
0.5000527564850833
 40
0.5000527564850833
 10
421.4284930049829
 20
551.8991065852748
 30
0.0
 10
421.4283809713505
 20
554.5598078938294
 30
0.0
 10
421.4283845698108
 20
555.8903538835197
 30
0.0
 10
421.4284131329395
 20
555.8902446070459
 30
0.0
  0
SPLINE
  5
236
330
18C
100
AcDbEntity
  8
$DDT_AUDIT_GENERATED_(B1)
  6
Continuous
 62
     7
100
AcDbSpline
210
0.0
220
0.0
230
1.0
 70
     8
 71
     3
 72
    12
 73
     8
 74
     0
 42
0.000000059227221
 43
0.0000000001
 40
0.0
 40
0.0
 40
0.0
 40
0.0
 40
0.4999999999999729
 40
0.4999999999999729
 40
0.7499999999999865
 40
0.7499999999999865
 40
1.0
 40
1.0
 40
1.0
 40
1.0
 10
421.4284946451712
 20
551.4704496359474
 30
0.0
 10
421.4284970636708
 20
551.4984892835197
 30
0.0
 10
421.4272105872161
 20
551.5265250602571
 30
0.0
 10
421.4234906176653
 20
551.5684376562153
 30
0.0
 10
421.4222963406484
 20
551.582410411843
 30
0.0
 10
421.4190056538106
 20
551.6102842794292
 30
0.0
 10
421.417190014473
 20
551.6242030423973
 30
0.0
 10
421.4099993855968
 20
551.6368303932941
 30
0.0
  0
LINE
  5
237
330
18C
100
AcDbEntity
  8
$DDT_AUDIT_GENERATED_(B1)
  6
Continuous
 62
     7
100
AcDbLine
 10
421.4099993856
 20
551.6368303933
 30
0.0
 11
421.4031050927
 21
551.6475635167
 31
0.0
  0
LINE
  5
238
330
18C
100
AcDbEntity
  8
$DDT_AUDIT_GENERATED_(B1)
  6
Continuous
 62
     7
100
AcDbLine
 10
421.4031050927
 20
551.6475635167
 30
0.0
 11
419.4523925634
 21
551.653245059
 31
0.0
  0
ARC
  5
239
330
18C
100
AcDbEntity
  8
$DDT_AUDIT_GENERATED_(B1)
  6
Continuous
 62
     7
100
AcDbCircle
 10
419.5403007284
 20
551.5195615238
 30
0.0
 40
0.1599972908003155
100
AcDbArc
 50
123.3282831887
 51
151.7702171962
  0
SPLINE
  5
23A
330
18C
100
AcDbEntity
  8
$DDT_AUDIT_GENERATED_(B1)
  6
Continuous
 62
     7
100
AcDbSpline
210
0.0
220
0.0
230
1.0
 70
     8
 71
     3
 72
    10
 73
     6
 74
     0
 42
0.0000000823286603
 43
0.0000000001
 40
0.0
 40
0.0
 40
0.0
 40
0.0
 40
0.5
 40
0.5
 40
1.0
 40
1.0
 40
1.0
 40
1.0
 10
419.3993338838114
 20
551.5952416518503
 30
0.0
 10
419.3901782210514
 20
551.5766260801032
 30
0.0
 10
419.390211755891
 20
551.5561758326652
 30
0.0
 10
419.3847123099774
 20
551.5164312957047
 30
0.0
 10
419.3828894263917
 20
551.4964337334277
 30
0.0
 10
419.3828945570598
 20
551.4763685666435
 30
0.0
  0
SPLINE
  5
23B
330
18C
100
AcDbEntity
  8
$DDT_AUDIT_GENERATED_(B1)
  6
Continuous
 62
     7
100
AcDbSpline
210
0.0
220
0.0
230
1.0
 70
     8
 71
     3
 72
    10
 73
     6
 74
     0
 42
0.0000000002113581
 43
0.0000000001
 40
0.0
 40
0.0
 40
0.0
 40
0.0
 40
0.5
 40
0.5
 40
1.0
 40
1.0
 40
1.0
 40
1.0
 10
419.3828945570598
 20
551.4763685666435
 30
0.0
 10
419.3815728089421
 20
543.8968160000957
 30
0.0
 10
419.3805457439981
 20
535.8556382141724
 30
0.0
 10
419.3807546629466
 20
519.784207030292
 30
0.0
 10
419.3836124356167
 20
511.7455103101807
 30
0.0
 10
419.3829518350464
 20
504.1633007264004
 30
0.0
  0
ARC
  5
23C
330
18C
100
AcDbEntity
  8
$DDT_AUDIT_GENERATED_(B1)
  6
Continuous
 62
     7
100
AcDbCircle
 10
419.8485248182
 20
504.167032851
 30
0.0
 40
0.465587941609324
100
AcDbArc
 50
180.4592843984
 51
195.2674084016
  0
ARC
  5
23D
330
18C
100
AcDbEntity
  8
$DDT_AUDIT_GENERATED_(B1)
  6
Continuous
 62
     7
100
AcDbCircle
 10
419.5374566932
 20
504.1179607432
 30
0.0
 40
0.1564440392181801
100
AcDbArc
 50
208.0342260119
 51
235.4497566335
  0
LINE
  5
23E
330
18C
100
AcDbEntity
  8
$DDT_AUDIT_GENERATED_(B1)
  6
Continuous
 62
     7
100
AcDbLine
 10
421.4049591359
 20
503.9947796474
 30
0.0
 11
421.4099899416
 21
504.0028402477
 31
0.0
  0
SPLINE
  5
23F
330
18C
100
AcDbEntity
  8
$DDT_AUDIT_GENERATED_(B1)
  6
Continuous
 62
     7
100
AcDbSpline
210
0.0
220
0.0
230
1.0
 70
     8
 71
     3
 72
    12
 73
     8
 74
     0
 42
0.0000000592245762
 43
0.0000000001
 40
0.0
 40
0.0
 40
0.0
 40
0.0
 40
0.2500000000000187
 40
0.2500000000000187
 40
0.5000000000000374
 40
0.5000000000000374
 40
1.0
 40
1.0
 40
1.0
 40
1.0
 10
421.4099899416235
 20
504.0028402476644
 30
0.0
 10
421.4172170401178
 20
504.0155319281934
 30
0.0
 10
421.4190002050246
 20
504.0294182396439
 30
0.0
 10
421.4222853927176
 20
504.0572557832549
 30
0.0
 10
421.4234808279839
 20
504.0712423946185
 30
0.0
 10
421.4271992332432
 20
504.1131545048424
 30
0.0
 10
421.4284841396695
 20
504.141184618371
 30
0.0
 10
421.4284844685321
 20
504.1692233748016
 30
0.0
  0
LINE
  5
240
330
18C
100
AcDbEntity
  8
$DDT_AUDIT_GENERATED_(B1)
  6
Continuous
 62
     7
100
AcDbLine
 10
419.120376071
 20
503.9945531841
 30
0.0
 11
419.120376071
 21
500.0042035318
 31
0.0
  0
LINE
  5
241
330
18C
100
AcDbEntity
  8
$DDT_AUDIT_GENERATED_(B1)
  6
Continuous
 62
     7
100
AcDbLine
 10
419.120376071
 20
503.9945531841
 30
0.0
 11
419.120376071
 21
504.0929580247
 31
0.0
  0
LINE
  5
242
330
18C
100
AcDbEntity
  8
$DDT_AUDIT_GENERATED_(B1)
  6
Continuous
 62
     7
100
AcDbLine
 10
419.120376071
 20
504.0929580247
 30
0.0
 11
419.120376071
 21
504.2584767914
 31
0.0
  0
LINE
  5
243
330
18C
100
AcDbEntity
  8
$DDT_AUDIT_GENERATED_(B1)
  6
Continuous
 62
     7
100
AcDbLine
 10
419.120376071
 20
504.2584767914
 30
0.0
 11
419.120376071
 21
551.3814209022
 31
0.0
  0
LINE
  5
244
330
18C
100
AcDbEntity
  8
$DDT_AUDIT_GENERATED_(B1)
  6
Continuous
 62
     7
100
AcDbLine
 10
419.120376071
 20
551.3814209022
 30
0.0
 11
419.120376071
 21
551.5470578799
 31
0.0
  0
LINE
  5
245
330
18C
100
AcDbEntity
  8
$DDT_AUDIT_GENERATED_(B1)
  6
Continuous
 62
     7
100
AcDbLine
 10
419.120376071
 20
551.5470578799
 30
0.0
 11
419.120376071
 21
551.6451362703
 31
0.0
  0
LINE
  5
246
330
18C
100
AcDbEntity
  8
$DDT_AUDIT_GENERATED_(B1)
  6
Continuous
 62
     7
100
AcDbLine
 10
419.120376071
 20
551.6451362703
 30
0.0
 11
419.120376071
 21
555.6355030853
 31
0.0
  0
LINE
  5
247
330
18C
100
AcDbEntity
  8
$DDT_AUDIT_GENERATED_(B1)
  6
Continuous
 62
     7
100
AcDbLine
 10
421.6101779906
 20
555.6876797085
 30
0.0
 11
421.6101779906
 21
551.7078710193
 31
0.0
  0
LINE
  5
248
330
18C
100
AcDbEntity
  8
$DDT_AUDIT_GENERATED_(B1)
  6
Continuous
 62
     7
100
AcDbLine
 10
421.6101779906
 20
551.6074160612
 30
0.0
 11
421.6101779906
 21
551.7078710193
 31
0.0
  0
LINE
  5
249
330
18C
100
AcDbEntity
  8
$DDT_AUDIT_GENERATED_(B1)
  6
Continuous
 62
     7
100
AcDbLine
 10
421.6101779906
 20
551.4033027195
 30
0.0
 11
421.6101779906
 21
551.6074160612
 31
0.0
  0
LINE
  5
24A
330
18C
100
AcDbEntity
  8
$DDT_AUDIT_GENERATED_(B1)
  6
Continuous
 62
     7
100
AcDbLine
 10
421.6101779906
 20
504.2363659185
 30
0.0
 11
421.6101779906
 21
551.4033027195
 31
0.0
  0
LINE
  5
24B
330
18C
100
AcDbEntity
  8
$DDT_AUDIT_GENERATED_(B1)
  6
Continuous
 62
     7
100
AcDbLine
 10
421.6101779906
 20
504.0322869607
 30
0.0
 11
421.6101779906
 21
504.2363659185
 31
0.0
  0
LINE
  5
24C
330
18C
100
AcDbEntity
  8
$DDT_AUDIT_GENERATED_(B1)
  6
Continuous
 62
     7
100
AcDbLine
 10
421.6101779906
 20
503.9318785839
 30
0.0
 11
421.6101779906
 21
504.0322869607
 31
0.0
  0
LINE
  5
24D
330
18C
100
AcDbEntity
  8
$DDT_AUDIT_GENERATED_(B1)
  6
Continuous
 62
     7
100
AcDbLine
 10
421.6101779906
 20
499.9520269086
 30
0.0
 11
421.6101779906
 21
503.9318785839
 31
0.0
  0
SPLINE
  5
24E
330
18C
100
AcDbEntity
  8
$DDT_AUDIT_GENERATED_(B1)
  6
Continuous
 62
     7
100
AcDbSpline
210
0.0
220
0.0
230
1.0
 70
     8
 71
     3
 72
    14
 73
    10
 74
     0
 42
0.000000072719198
 43
0.0000000001
 40
0.0
 40
0.0
 40
0.0
 40
0.0
 40
0.4569676682826705
 40
0.4569676682826705
 40
0.4569676682826705
 40
0.702124784280059
 40
0.702124784280059
 40
0.702124784280059
 40
1.0
 40
1.0
 40
1.0
 40
1.0
 10
421.4031050927295
 20
551.6475635166648
 30
0.0
 10
421.3898687147749
 20
551.6662757701037
 30
0.0
 10
421.3726862127899
 20
551.6825021625117
 30
0.0
 10
421.3606762110329
 20
551.7007687409038
 30
0.0
 10
421.3542867670886
 20
551.7104867476994
 30
0.0
 10
421.3499571831696
 20
551.7210055417687
 30
0.0
 10
421.3473808048242
 20
551.7311223402581
 30
0.0
 10
421.3442436019864
 20
551.7434413573723
 30
0.0
 10
421.3437842225201
 20
551.7554566867651
 30
0.0
 10
421.343787971679
 20
551.7663756652248
 30
0.0
  0
SPLINE
  5
24F
330
18C
100
AcDbEntity
  8
$DDT_AUDIT_GENERATED_(B1)
  6
Continuous
 62
     7
100
AcDbSpline
210
0.0
220
0.0
230
1.0
 70
     8
 71
     3
 72
    10
 73
     6
 74
     0
 42
0.0000000943685545
 43
0.0000000001
 40
0.0
 40
0.0
 40
0.0
 40
0.0
 40
0.5
 40
0.5
 40
1.0
 40
1.0
 40
1.0
 40
1.0
 10
421.343787971679
 20
551.7663756652248
 30
0.0
 10
421.3438049533415
 20
551.7852307225106
 30
0.0
 10
421.3459422084768
 20
551.8015205125448
 30
0.0
 10
421.370440423796
 20
551.8242634442197
 30
0.0
 10
421.3906479539419
 20
551.8303858517593
 30
0.0
 10
421.4049701601616
 20
551.837828980697
 30
0.0
  0
SPLINE
  5
250
330
18C
100
AcDbEntity
  8
$DDT_AUDIT_GENERATED_(B1)
  6
Continuous
 62
     7
100
AcDbSpline
210
0.0
220
0.0
230
1.0
 70
     8
 71
     3
 72
    17
 73
    13
 74
     0
 42
0.0000000796282794
 43
0.0000000001
 40
0.0
 40
0.0
 40
0.0
 40
0.0
 40
0.3587722214843519
 40
0.3587722214843519
 40
0.3587722214843519
 40
0.5123166507459881
 40
0.5123166507459881
 40
0.5123166507459881
 40
0.6293564452106452
 40
0.6293564452106452
 40
0.6293564452106452
 40
1.0
 40
1.0
 40
1.0
 40
1.0
 10
419.4487244750757
 20
551.8539315300428
 30
0.0
 10
419.4655035757361
 20
551.8492595448892
 30
0.0
 10
419.4834994850484
 20
551.8449671540025
 30
0.0
 10
419.4988453605353
 20
551.8388040347853
 30
0.0
 10
419.5053733364336
 20
551.8361823079414
 30
0.0
 10
419.5115596722497
 20
551.833119604897
 30
0.0
 10
419.5154278819094
 20
551.8292160505757
 30
0.0
 10
419.518366889548
 20
551.8262501885937
 30
0.0
 10
419.5194366734899
 20
551.8226460320652
 30
0.0
 10
419.5197859671738
 20
551.8189400701202
 30
0.0
 10
419.5208945710949
 20
551.8071779222962
 30
0.0
 10
419.5164377028303
 20
551.7932806090257
 30
0.0
 10
419.5164725073876
 20
551.7776518751585
 30
0.0
  0
SPLINE
  5
251
330
18C
100
AcDbEntity
  8
$DDT_AUDIT_GENERATED_(B1)
  6
Continuous
 62
     7
100
AcDbSpline
210
0.0
220
0.0
230
1.0
 70
     8
 71
     3
 72
    12
 73
     8
 74
     0
 42
0.0000000635992127
 43
0.0000000001
 40
0.0
 40
0.0
 40
0.0
 40
0.0
 40
0.2499999999999885
 40
0.2499999999999885
 40
0.4999999999999769
 40
0.4999999999999769
 40
1.0
 40
1.0
 40
1.0
 40
1.0
 10
419.5164725073876
 20
551.7776518751585
 30
0.0
 10
419.516470954267
 20
551.7673058035507
 30
0.0
 10
419.5181428222164
 20
551.7563244715047
 30
0.0
 10
419.5202577401274
 20
551.7330435783032
 30
0.0
 10
419.5215381830862
 20
551.7201855130654
 30
0.0
 10
419.5023920438808
 20
551.684814727121
 30
0.0
 10
419.4753735216751
 20
551.6700739381729
 30
0.0
 10
419.4523925634105
 20
551.6532450590057
 30
0.0
  0
SPLINE
  5
252
330
18C
100
AcDbEntity
  8
$DDT_AUDIT_GENERATED_(B1)
  6
Continuous
 62
     7
100
AcDbSpline
210
0.0
220
0.0
230
1.0
 70
     8
 71
     3
 72
    14
 73
    10
 74
     0
 42
0.0000000978376916
 43
0.0000000001
 40
0.0
 40
0.0
 40
0.0
 40
0.0
 40
0.4569737294467335
 40
0.4569737294467335
 40
0.4569737294467335
 40
0.7021382733044775
 40
0.7021382733044775
 40
0.7021382733044775
 40
1.0
 40
1.0
 40
1.0
 40
1.0
 10
421.4030941403474
 20
503.802773457528
 30
0.0
 10
421.3898580383457
 20
503.8093240214562
 30
0.0
 10
421.3726756181842
 20
503.8152529610338
 30
0.0
 10
421.3606661014745
 20
503.8247585346234
 30
0.0
 10
421.3542768034198
 20
503.8298156859069
 30
0.0
 10
421.349947536254
 20
503.836251298038
 30
0.0
 10
421.3473714321208
 20
503.8434522605072
 30
0.0
 10
421.3442347929093
 20
503.8522200820212
 30
0.0
 10
421.3437755437949
 20
503.8623742126244
 30
0.0
 10
421.3437792144964
 20
503.8732940844361
 30
0.0
  0
SPLINE
  5
253
330
18C
100
AcDbEntity
  8
$DDT_AUDIT_GENERATED_(B1)
  6
Continuous
 62
     7
100
AcDbSpline
210
0.0
220
0.0
230
1.0
 70
     8
 71
     3
 72
    10
 73
     6
 74
     0
 42
0.0000000705104106
 43
0.0000000001
 40
0.0
 40
0.0
 40
0.0
 40
0.0
 40
0.5
 40
0.5
 40
1.0
 40
1.0
 40
1.0
 40
1.0
 10
421.3437792144964
 20
503.8732940844361
 30
0.0
 10
421.3437962865946
 20
503.8921516646246
 30
0.0
 10
421.3459332275477
 20
503.9142557661423
 30
0.0
 10
421.3704303803078
 20
503.9558769142246
 30
0.0
 10
421.3906374521482
 20
503.9734969445611
 30
0.0
 10
421.4049591358589
 20
503.9947796473989
 30
0.0
  0
SPLINE
  5
254
330
18C
100
AcDbEntity
  8
$DDT_AUDIT_GENERATED_(B1)
  6
Continuous
 62
     7
100
AcDbSpline
210
0.0
220
0.0
230
1.0
 70
     8
 71
     3
 72
    17
 73
    13
 74
     0
 42
0.0000000625324108
 43
0.0000000001
 40
0.0
 40
0.0
 40
0.0
 40
0.0
 40
0.3592450063709586
 40
0.3592450063709586
 40
0.3592450063709586
 40
0.5130486814158055
 40
0.5130486814158055
 40
0.5130486814158055
 40
0.6307080350266818
 40
0.6307080350266818
 40
0.6307080350266818
 40
1.0
 40
1.0
 40
1.0
 40
1.0
 10
419.4487327877943
 20
503.9891088669617
 30
0.0
 10
419.4655336165668
 20
503.9764087039916
 30
0.0
 10
419.4835580029962
 20
503.9649819839178
 30
0.0
 10
419.49891340376
 20
503.9511435438563
 30
0.0
 10
419.5054472659818
 20
503.9452551621644
 30
0.0
 10
419.5116368263313
 20
503.938718834416
 30
0.0
 10
419.5154861067756
 20
503.9313632317877
 30
0.0
 10
419.5184219068632
 20
503.9257532017696
 30
0.0
 10
419.519464616664
 20
503.9195167668197
 30
0.0
 10
419.5197995665876
 20
503.9136015680589
 30
0.0
 10
419.5208532879531
 20
503.894992901872
 30
0.0
 10
419.5164367570644
 20
503.8775936490186
 30
0.0
 10
419.5164783907183
 20
503.8620182831364
 30
0.0
  0
SPLINE
  5
255
330
18C
100
AcDbEntity
  8
$DDT_AUDIT_GENERATED_(B1)
  6
Continuous
 62
     7
100
AcDbSpline
210
0.0
220
0.0
230
1.0
 70
     8
 71
     3
 72
    12
 73
     8
 74
     0
 42
0.0000000808639829
 43
0.0000000001
 40
0.0
 40
0.0
 40
0.0
 40
0.0
 40
0.2499999999999822
 40
0.2499999999999822
 40
0.4999999999999644
 40
0.4999999999999644
 40
1.0
 40
1.0
 40
1.0
 40
1.0
 10
419.5164783907183
 20
503.8620182831364
 30
0.0
 10
419.5164815337463
 20
503.8516749071137
 30
0.0
 10
419.5181550112337
 20
503.842205021446
 30
0.0
 10
419.5202670545176
 20
503.8249531283575
 30
0.0
 10
419.5215291508439
 20
503.816815964651
 30
0.0
 10
419.5023750089785
 20
503.7980597218986
 30
0.0
 10
419.4753856426125
 20
503.7929451347329
 30
0.0
 10
419.452400699861
 20
503.786726079585
 30
0.0
  0
SPLINE
  5
256
330
18C
100
AcDbEntity
  8
$DDT_AUDIT_GENERATED_(B1)
  6
Continuous
 62
     7
100
AcDbSpline
210
0.0
220
0.0
230
1.0
 70
     8
 71
     3
 72
     8
 73
     4
 74
     0
 42
0.000000000211411
 43
0.0000000001
 40
0.0
 40
0.0
 40
0.0
 40
0.0
 40
1.0
 40
1.0
 40
1.0
 40
1.0
 10
421.4284844685321
 20
504.1692233748016
 30
0.0
 10
421.4282647315206
 20
519.3400169931986
 30
0.0
 10
421.4285113637745
 20
536.2995220995493
 30
0.0
 10
421.4284946451712
 20
551.4704496359474
 30
0.0
  0
LINE
  5
257
330
18C
100
AcDbEntity
  8
$DDT_AUDIT_GENERATED_(B1)
  6
Continuous
 62
     7
100
AcDbLine
 10
419.3683450495
 20
499.7217585178
 30
0.0
 11
421.4413895686
 21
499.7398497032
 31
0.0
  0
LINE
  5
258
330
18C
100
AcDbEntity
  8
$DDT_AUDIT_GENERATED_(B1)
  6
Continuous
 62
     7
100
AcDbLine
 10
421.4413895686
 20
555.8998569139
 30
0.0
 11
419.3683450494
 21
555.9179480993
 31
0.0
  0
ARC
  5
259
330
18C
100
AcDbEntity
  8
$DDT_AUDIT_GENERATED_(B1)
  6
Continuous
 62
     7
100
AcDbCircle
 10
419.4199340145
 20
555.6204851707
 30
0.0
 40
0.2999311015444652
100
AcDbArc
 50
96.05610525
 51
178.6402663958
  0
ARC
  5
25A
330
18C
100
AcDbEntity
  8
$DDT_AUDIT_GENERATED_(B1)
  6
Continuous
 62
     7
100
AcDbCircle
 10
421.3196010389
 20
555.6200491136
 30
0.0
 40
0.3005507280988517
100
AcDbArc
 50
14.4070026613
 51
69.3322426007
  0
ARC
  5
25B
330
18C
100
AcDbEntity
  8
$DDT_AUDIT_GENERATED_(B1)
  6
Continuous
 62
     7
100
AcDbCircle
 10
419.4199340145
 20
500.0192214463
 30
0.0
 40
0.2999311015445153
100
AcDbArc
 50
181.3597336063
 51
263.9438947524
  0
ARC
  5
25C
330
18C
100
AcDbEntity
  8
$DDT_AUDIT_GENERATED_(B1)
  6
Continuous
 62
     7
100
AcDbCircle
 10
421.3196010389
 20
500.0196575035
 30
0.0
 40
0.3005507280986156
100
AcDbArc
 50
290.6677573982
 51
345.5929973382
  0
ARC
  5
25D
330
18C
100
AcDbEntity
  8
$DDT_AUDIT_GENERATED_(B1)
  6
Continuous
 62
     7
100
AcDbCircle
 10
421.8101779906
 20
553.1530230218
 30
0.0
 40
0.2000000000000034
100
AcDbArc
 50
180.0
 51
197.5083642024
  0
LINE
  5
25E
330
18C
100
AcDbEntity
  8
$DDT_AUDIT_GENERATED_(171)
  6
Continuous
 62
     7
100
AcDbLine
 10
414.5709307389
 20
500.4446203271
 30
0.0
 11
414.5708940775
 21
504.2892168054
 31
0.0
  0
LINE
  5
25F
330
18C
100
AcDbEntity
  8
$DDT_AUDIT_GENERATED_(171)
  6
Continuous
 62
     7
100
AcDbLine
 10
414.5708940775
 20
504.2892168054
 30
0.0
 11
414.5708924121
 21
504.6596573343
 31
0.0
  0
LINE
  5
260
330
18C
100
AcDbEntity
  8
$DDT_AUDIT_GENERATED_(171)
  6
Continuous
 62
     7
100
AcDbLine
 10
414.5708924121
 20
504.6596573343
 30
0.0
 11
414.5708321839
 21
523.8513833021
 31
0.0
  0
LINE
  5
261
330
18C
100
AcDbEntity
  8
$DDT_AUDIT_GENERATED_(171)
  6
Continuous
 62
     7
100
AcDbLine
 10
414.5708321839
 20
523.8513833021
 30
0.0
 11
414.5708039834
 21
532.0125553005
 31
0.0
  0
LINE
  5
262
330
18C
100
AcDbEntity
  8
$DDT_AUDIT_GENERATED_(171)
  6
Continuous
 62
     7
100
AcDbLine
 10
414.5708039834
 20
532.0125553005
 30
0.0
 11
414.5707365759
 21
550.9795294834
 31
0.0
  0
LINE
  5
263
330
18C
100
AcDbEntity
  8
$DDT_AUDIT_GENERATED_(171)
  6
Continuous
 62
     7
100
AcDbLine
 10
414.5707365759
 20
550.9795294834
 30
0.0
 11
414.5707355722
 21
551.3499649797
 31
0.0
  0
SPLINE
  5
264
330
18C
100
AcDbEntity
  8
$DDT_AUDIT_GENERATED_(171)
  6
Continuous
 62
     7
100
AcDbSpline
210
0.0
220
0.0
230
1.0
 70
     8
 71
     3
 72
     8
 73
     4
 74
     0
 42
0.0000000008640042
 43
0.0000000001
 40
0.0
 40
0.0
 40
0.0
 40
0.0
 40
0.252529883711836
 40
0.252529883711836
 40
0.252529883711836
 40
0.252529883711836
 10
414.5707355721603
 20
551.3499649796935
 30
0.0
 10
414.5707362809722
 20
552.6581971205485
 30
0.0
 10
414.5707321837467
 20
553.6300803641437
 30
0.0
 10
414.5707250391973
 20
554.2727502129168
 30
0.0
  0
SPLINE
  5
265
330
18C
100
AcDbEntity
  8
$DDT_AUDIT_GENERATED_(171)
  6
Continuous
 62
     7
100
AcDbSpline
210
0.0
220
0.0
230
1.0
 70
     8
 71
     3
 72
     8
 73
     4
 74
     0
 42
0.0000000012875877
 43
0.0000000001
 40
0.5016230514816394
 40
0.5016230514816394
 40
0.5016230514816394
 40
0.5016230514816394
 40
1.0
 40
1.0
 40
1.0
 40
1.0
 10
414.5706157940771
 20
415.4187272353211
 30
0.0
 10
414.570580235735
 20
415.4186617751223
 30
0.0
 10
414.5705432022178
 20
416.7080267863669
 30
0.0
 10
414.570529656251
 20
419.2892126153699
 30
0.0
  0
LINE
  5
266
330
18C
100
AcDbEntity
  8
$DDT_AUDIT_GENERATED_(171)
  6
Continuous
 62
     7
100
AcDbLine
 10
414.5705296563
 20
419.2892126154
 30
0.0
 11
414.5705319777
 21
419.6596531406
 31
0.0
  0
LINE
  5
267
330
18C
100
AcDbEntity
  8
$DDT_AUDIT_GENERATED_(171)
  6
Continuous
 62
     7
100
AcDbLine
 10
414.5705319777
 20
419.6596531406
 30
0.0
 11
414.5707106496
 21
438.8513798677
 31
0.0
  0
LINE
  5
268
330
18C
100
AcDbEntity
  8
$DDT_AUDIT_GENERATED_(171)
  6
Continuous
 62
     7
100
AcDbLine
 10
414.5707106496
 20
438.8513798677
 30
0.0
 11
414.5707707005
 21
447.012552242
 31
0.0
  0
LINE
  5
269
330
18C
100
AcDbEntity
  8
$DDT_AUDIT_GENERATED_(171)
  6
Continuous
 62
     7
100
AcDbLine
 10
414.5707707005
 20
447.012552242
 30
0.0
 11
414.5708708927
 21
465.9795271946
 31
0.0
  0
LINE
  5
26A
330
18C
100
AcDbEntity
  8
$DDT_AUDIT_GENERATED_(171)
  6
Continuous
 62
     7
100
AcDbLine
 10
414.5708708927
 20
465.9795271946
 30
0.0
 11
414.5708729497
 21
466.3499626967
 31
0.0
  0
LINE
  5
26B
330
18C
100
AcDbEntity
  8
$DDT_AUDIT_GENERATED_(171)
  6
Continuous
 62
     7
100
AcDbLine
 10
414.5709139469
 20
470.2204240753
 30
0.0
 11
414.5708733712
 21
466.3499626967
 31
0.0
  0
SPLINE
  5
26C
330
18C
100
AcDbEntity
  8
$DDT_AUDIT_GENERATED_(171)
  6
Continuous
 62
     7
100
AcDbSpline
210
0.0
220
0.0
230
1.0
 70
     8
 71
     3
 72
    14
 73
    10
 74
     0
 42
0.0000000000837451
 43
0.0000000001
 40
0.0
 40
0.0
 40
0.0
 40
0.0
 40
0.2500000000000001
 40
0.2500000000000001
 40
0.5000000000000001
 40
0.5000000000000001
 40
0.75
 40
0.75
 40
1.0
 40
1.0
 40
1.0
 40
1.0
 10
414.5695625349174
 20
550.2528401020265
 30
0.0
 10
414.5696117913462
 20
540.442023262181
 30
0.0
 10
414.5697270433615
 20
530.5487883853723
 30
0.0
 10
414.5700017808097
 20
510.6024120532524
 30
0.0
 10
414.5701612031763
 20
500.5632597689387
 30
0.0
 10
414.5704345114183
 20
480.5114482437745
 30
0.0
 10
414.5705487741071
 20
470.4598467983189
 30
0.0
 10
414.5706427774173
 20
450.5442019618704
 30
0.0
 10
414.5706232144105
 20
440.6572026408388
 30
0.0
 10
414.5704921489826
 20
430.8428249496226
 30
0.0
  0
SPLINE
  5
26D
330
18C
100
AcDbEntity
  8
$DDT_AUDIT_GENERATED_(171)
  6
Continuous
 62
     7
100
AcDbSpline
210
0.0
220
0.0
230
1.0
 70
     8
 71
     3
 72
    12
 73
     8
 74
     0
 42
0.0000000003356788
 43
0.0000000001
 40
0.0
 40
0.0
 40
0.0
 40
0.0
 40
0.2499999999999999
 40
0.2499999999999999
 40
0.4999999999999999
 40
0.4999999999999999
 40
0.5000176806921708
 40
0.5000176806921708
 40
0.5000176806921708
 40
0.5000176806921708
 10
414.5696691088041
 20
400.5689181556547
 30
0.0
 10
414.569466137517
 20
395.6001506028335
 30
0.0
 10
414.5695196618644
 20
391.8916898739015
 30
0.0
 10
414.5698339997371
 20
386.9118862877958
 30
0.0
 10
414.5700932131793
 20
385.673467238594
 30
0.0
 10
414.5703007867356
 20
385.6732954993626
 30
0.0
 10
414.5703008014144
 20
385.6732954934083
 30
0.0
 10
414.570300816093
 20
385.6732954936448
 30
0.0
  0
SPLINE
  5
26E
330
18C
100
AcDbEntity
  8
$DDT_AUDIT_GENERATED_(171)
  6
Continuous
 62
     7
100
AcDbSpline
210
0.0
220
0.0
230
1.0
 70
     8
 71
     3
 72
    10
 73
     6
 74
     0
 42
0.0000000003356458
 43
0.0000000001
 40
0.5000208171876909
 40
0.5000208171876909
 40
0.5000208171876909
 40
0.5000208171876909
 40
0.75
 40
0.75
 40
1.0
 40
1.0
 40
1.0
 40
1.0
 10
414.5703008218225
 20
594.966009808731
 30
0.0
 10
414.5705083555254
 20
594.9660066984237
 30
0.0
 10
414.5706622359576
 20
593.7283910013546
 30
0.0
 10
414.5705537841986
 20
588.7485757008077
 30
0.0
 10
414.5702922211352
 20
585.0387270260449
 30
0.0
 10
414.5696691087923
 20
580.0701796342407
 30
0.0
  0
ARC
  5
26F
330
18C
100
AcDbEntity
  8
$DDT_AUDIT_GENERATED_(171)
  6
Continuous
 62
     7
100
AcDbCircle
 10
402.5740245581
 20
369.696740381
 30
0.0
 40
15.62821125849684
100
AcDbArc
 50
87.7881265108
 51
90.9699911021
  0
LINE
  5
270
330
18C
100
AcDbEntity
  8
$DDT_AUDIT_GENERATED_(171)
  6
Continuous
 62
     7
100
AcDbLine
 10
401.7918207029
 20
385.3209484641
 30
0.0
 11
402.309458793
 21
385.3227120978
 31
0.0
  0
ARC
  5
271
330
18C
100
AcDbEntity
  8
$DDT_AUDIT_GENERATED_(171)
  6
Continuous
 62
     7
100
AcDbCircle
 10
401.6304033595
 20
390.4695807895
 30
0.0
 40
5.151162041848358
100
AcDbArc
 50
266.0213807734
 51
271.7957204053
  0
LINE
  5
272
330
18C
100
AcDbEntity
  8
$DDT_AUDIT_GENERATED_(171)
  6
Continuous
 62
     7
100
AcDbLine
 10
400.970376071
 20
580.1594312997
 30
0.0
 11
400.970376071
 21
595.0794499153
 31
0.0
  0
LINE
  5
273
330
18C
100
AcDbEntity
  8
$DDT_AUDIT_GENERATED_(171)
  6
Continuous
 62
     7
100
AcDbLine
 10
400.9703760759
 20
550.2772730723
 30
0.0
 11
400.970376071
 21
580.1594312997
 31
0.0
  0
LINE
  5
274
330
18C
100
AcDbEntity
  8
$DDT_AUDIT_GENERATED_(171)
  6
Continuous
 62
     7
100
AcDbLine
 10
400.970376071
 20
430.8186130802
 30
0.0
 11
400.9703760759
 21
550.2772730723
 31
0.0
  0
LINE
  5
275
330
18C
100
AcDbEntity
  8
$DDT_AUDIT_GENERATED_(171)
  6
Continuous
 62
     7
100
AcDbLine
 10
400.970376071
 20
400.4796804117
 30
0.0
 11
400.970376071
 21
430.8186130802
 31
0.0
  0
LINE
  5
276
330
18C
100
AcDbEntity
  8
$DDT_AUDIT_GENERATED_(171)
  6
Continuous
 62
     7
100
AcDbLine
 10
400.970376071
 20
385.6307456501
 30
0.0
 11
400.970376071
 21
400.4796804117
 31
0.0
  0
ELLIPSE
  5
277
330
18C
100
AcDbEntity
  8
$DDT_AUDIT_GENERATED_(171)
  6
Continuous
 62
     7
100
AcDbEllipse
 10
401.270376071
 20
385.6307456501
 30
0.0
 11
-0.3000000000000225
 21
-2.053912595556540E-12
 31
0.0
210
0.0
220
0.0
230
1.0
 40
0.9997469372
 41
0.0
 42
1.579522984561115
  0
LINE
  5
278
330
18C
100
AcDbEntity
  8
$DDT_AUDIT_GENERATED_(171)
  6
Continuous
 62
     7
100
AcDbLine
 10
414.2729657179
 20
595.2659942158
 30
0.0
 11
401.2729940316
 21
595.37944325
 31
0.0
  0
LINE
  5
279
330
18C
100
AcDbEntity
  8
$DDT_AUDIT_GENERATED_(171)
  6
Continuous
 62
     7
100
AcDbLine
 10
414.5707248697
 20
554.2576742924
 30
0.0
 11
414.570534855
 21
589.2464065834
 31
0.0
  0
SPLINE
  5
27A
330
18C
100
AcDbEntity
  8
$DDT_AUDIT_GENERATED_(171)
  6
Continuous
 62
     7
100
AcDbSpline
210
0.0
220
0.0
230
1.0
 70
     8
 71
     3
 72
     8
 73
     4
 74
     0
 42
0.0000000003294691
 43
0.0000000001
 40
0.0029010888203761
 40
0.0029010888203761
 40
0.0029010888203761
 40
0.0029010888203761
 40
1.0
 40
1.0
 40
1.0
 40
1.0
 10
414.5709116189151
 20
470.1926464493016
 30
0.0
 10
414.5709376734254
 20
480.4924844381163
 30
0.0
 10
414.5709432875409
 20
490.5804195256184
 30
0.0
 10
414.5709284612617
 20
500.4564517118077
 30
0.0
  0
LINE
  5
27B
330
18C
100
AcDbEntity
  8
$DDT_AUDIT_GENERATED_(171)
  6
Continuous
 62
     7
100
AcDbLine
 10
414.5705067456
 20
386.2188964243
 30
0.0
 11
414.5706662674
 21
416.2200515147
 31
0.0
  0
ARC
  5
27C
330
18C
100
AcDbEntity
  8
$DDT_AUDIT_GENERATED_(171)
  6
Continuous
 62
     7
100
AcDbCircle
 10
414.2703008155
 20
385.6732992539
 30
0.0
 40
0.299999999972856
100
AcDbArc
 50
270.6524268951
 51
0.0024697688
  0
ARC
  5
27D
330
18C
100
AcDbEntity
  8
$DDT_AUDIT_GENERATED_(171)
  6
Continuous
 62
     7
100
AcDbCircle
 10
414.2703008212
 20
594.9660060485
 30
0.0
 40
0.2999999999999511
100
AcDbArc
 50
359.9975303028
 51
89.6593058285
  0
LINE
  5
27E
330
18C
100
AcDbEntity
  8
$DDT_AUDIT_GENERATED_(171)
  6
Continuous
 62
     7
100
AcDbLine
 10
403.2730755637
 20
385.2773164996
 30
0.0
 11
414.2729658722
 21
385.373311088
 31
0.0
  0
ARC
  5
27F
330
18C
100
AcDbEntity
  8
$DDT_AUDIT_GENERATED_(171)
  6
Continuous
 62
     7
100
AcDbCircle
 10
401.270376071
 20
595.079454041
 30
0.0
 40
0.3000000000001215
100
AcDbArc
 50
89.9954467121
 51
180.0002414229
  0
ARC
  5
280
330
18C
100
AcDbEntity
  8
$DDT_AUDIT_GENERATED_(171)
  6
Continuous
 62
     7
100
AcDbCircle
 10
403.270376071
 20
385.5773043649
 30
0.0
 40
0.299999999999999
100
AcDbArc
 50
242.0575533034
 51
270.7730322862
  0
SPLINE
  5
281
330
18C
100
AcDbEntity
  8
$DDT_AUDIT_GENERATED_(171)
  6
Continuous
 62
     7
100
AcDbSpline
210
0.0
220
0.0
230
1.0
 70
     8
 71
     3
 72
     9
 73
     5
 74
     0
 42
0.0000000651150524
 43
0.0000000001
 40
0.0
 40
0.0
 40
0.0
 40
0.0
 40
0.2999436800162833
 40
0.4149784256414301
 40
0.4149784256414301
 40
0.4149784256414301
 40
0.4149784256414301
 10
403.164209075317
 20
385.3164134553156
 30
0.0
 10
403.190604000549
 20
385.3152679802607
 30
0.0
 10
403.2173968795622
 20
385.3145037223978
 30
0.0
 10
403.2276631087196
 20
385.313389957741
 30
0.0
 10
403.2274859883484
 20
385.3134221198908
 30
0.0
  0
SPLINE
  5
282
330
18C
100
AcDbEntity
  8
$DDT_AUDIT_GENERATED_(171)
  6
Continuous
 62
     7
100
AcDbSpline
210
0.0
220
0.0
230
1.0
 70
     8
 71
     3
 72
    19
 73
    15
 74
     0
 42
0.000000010701232
 43
0.0000000001
 40
0.0
 40
0.0
 40
0.0
 40
0.0
 40
0.0665656668927038
 40
0.1303025941431386
 40
0.1844725121762555
 40
0.2296692748698675
 40
0.2641873921762392
 40
0.291811487462845
 40
0.3267157398775274
 40
0.4001853156744684
 40
0.5896270199654948
 40
0.7691127915237297
 40
0.9582290488246051
 40
1.0
 40
1.0
 40
1.0
 40
1.0
 10
400.985492557371
 20
385.5428483258095
 30
0.0
 10
400.9955116654243
 20
385.5144750718366
 30
0.0
 10
401.0131676474816
 20
385.4673468186297
 30
0.0
 10
401.0647689913185
 20
385.408285554331
 30
0.0
 10
401.1187262076069
 20
385.3692213087119
 30
0.0
 10
401.1680474632716
 20
385.347026772336
 30
0.0
 10
401.2055837104248
 20
385.3366452121076
 30
0.0
 10
401.2314035136947
 20
385.3319449323683
 30
0.0
 10
401.2572000028226
 20
385.3287451863862
 30
0.0
 10
401.3012471592301
 20
385.325562788407
 30
0.0
 10
401.3887643998571
 20
385.3227513027505
 30
0.0
 10
401.5553435309952
 20
385.3208074763592
 30
0.0
 10
401.7138176160692
 20
385.3205076757069
 30
0.0
 10
401.8021301284703
 20
385.3209615346221
 30
0.0
 10
401.8207711984173
 20
385.3210601799426
 30
0.0
  0
ENDBLK
  5
284
330
18C
100
AcDbEntity
  8
0
100
AcDbBlockEnd
  0
BLOCK
  5
376
330
285
100
AcDbEntity
  8
0
100
AcDbBlockBegin
  2
SE2
 70
     0
 10
0.0
 20
0.0
 30
0.0
  3
SE2
  1

  0
LINE
  5
287
330
285
100
AcDbEntity
  8
$DDT_AUDIT_GENERATED_(18E)
  6
PHANTOM2
 62
     7
100
AcDbLine
 10
93.9111276853
 20
169.7549636952
 30
0.0
 11
93.9111276853
 21
169.1398019195
 31
0.0
  0
LINE
  5
288
330
285
100
AcDbEntity
  8
$DDT_AUDIT_GENERATED_(18E)
  6
PHANTOM2
 62
     7
100
AcDbLine
 10
127.9111276853
 20
169.1398019195
 30
0.0
 11
127.9111276853
 21
169.7549635894
 31
0.0
  0
LINE
  5
289
330
285
100
AcDbEntity
  8
01088031_72848__
  6
Continuous
 62
     7
100
AcDbLine
 10
95.9111276853
 20
169.2
 30
0.0
 11
125.9111276853
 21
169.2
 31
0.0
  0
LINE
  5
28A
330
285
100
AcDbEntity
  8
01088031_72848__
  6
Continuous
 62
     7
100
AcDbLine
 10
123.7111276853
 20
168.7
 30
0.0
 11
123.7111276853
 21
169.2
 31
0.0
  0
LINE
  5
28B
330
285
100
AcDbEntity
  8
01088031_72848__
  6
Continuous
 62
     7
100
AcDbLine
 10
98.1111276853
 20
169.2
 30
0.0
 11
98.1111276853
 21
168.7
 31
0.0
  0
LINE
  5
28C
330
285
100
AcDbEntity
  8
01088031_72848__
  6
Continuous
 62
     7
100
AcDbLine
 10
95.3561298756
 20
169.7549978097
 30
0.0
 11
95.9111276853
 21
169.2
 31
0.0
  0
LINE
  5
28D
330
285
100
AcDbEntity
  8
01088031_72848__
  6
Continuous
 62
     7
100
AcDbLine
 10
125.9111276853
 20
169.2
 30
0.0
 11
126.4660961063
 21
169.754968421
 31
0.0
  0
LINE
  5
28F
330
285
100
AcDbEntity
  8
$DDT_AUDIT_GENERATED_(28E)
  6
Continuous
 62
     7
100
AcDbLine
 10
117.0376619994
 20
149.15
 30
0.0
 11
117.0388386134
 21
149.2436500752
 31
0.0
  0
ARC
  5
290
330
285
100
AcDbEntity
  8
$DDT_AUDIT_GENERATED_(84)
  6
Continuous
 62
     7
100
AcDbCircle
 10
137.011421082
 20
166.1501766024
 30
0.0
 40
0.4998234214825827
100
AcDbArc
 50
359.9797556922
 51
6.9275539993
  0
ARC
  5
291
330
285
100
AcDbEntity
  8
$DDT_AUDIT_GENERATED_(84)
  6
Continuous
 62
     7
100
AcDbCircle
 10
84.8108342886
 20
166.1501766024
 30
0.0
 40
0.4998234214835199
100
AcDbArc
 50
173.0724460003
 51
180.0202443077
  0
LINE
  5
292
330
285
100
AcDbEntity
  8
$DDT_AUDIT_GENERATED_(84)
  6
Continuous
 62
     7
100
AcDbLine
 10
84.3111293994
 20
166.1499999999
 30
0.0
 11
84.3111293994
 21
165.7000399999
 31
0.0
  0
LINE
  5
293
330
285
100
AcDbEntity
  8
$DDT_AUDIT_GENERATED_(84)
  6
Continuous
 62
     7
100
AcDbLine
 10
137.5111259712
 20
165.7011755568
 30
0.0
 11
137.5111259712
 21
166.1499999999
 31
0.0
  0
LINE
  5
294
330
285
100
AcDbEntity
  8
$DDT_AUDIT_GENERATED_(B1)
  6
Continuous
 62
     7
100
AcDbLine
 10
86.8788870861
 20
168.7
 30
0.0
 11
86.8780004563
 21
168.8077772907
 31
0.0
  0
SPLINE
  5
295
330
285
100
AcDbEntity
  8
$DDT_AUDIT_GENERATED_(B1)
  6
Continuous
 62
     7
100
AcDbSpline
210
0.0
220
0.0
230
1.0
 70
     8
 71
     3
 72
    11
 73
     7
 74
     0
 42
0.0000001741539943
 43
0.0000000001
 40
0.0
 40
0.0
 40
0.0
 40
0.0
 40
0.6961247732503267
 40
0.6961247732503267
 40
0.6961247732503267
 40
1.0
 40
1.0
 40
1.0
 40
1.0
 10
86.87800045634901
 20
168.8077772906605
 30
0.0
 10
86.87404223230584
 20
168.8228593193741
 30
0.0
 10
86.86950019748598
 20
168.8369824127389
 30
0.0
 10
86.86429114456173
 20
168.8480980031757
 30
0.0
 10
86.86199727304914
 20
168.8529928922504
 30
0.0
 10
86.85955406129084
 20
168.8573240621593
 30
0.0
 10
86.8570031429294
 20
168.8608328700404
 30
0.0
  0
SPLINE
  5
296
330
285
100
AcDbEntity
  8
$DDT_AUDIT_GENERATED_(B1)
  6
Continuous
 62
     7
100
AcDbSpline
210
0.0
220
0.0
230
1.0
 70
     8
 71
     3
 72
    17
 73
    13
 74
     0
 42
0.0000002160083216
 43
0.0000000001
 40
0.0
 40
0.0
 40
0.0
 40
0.0
 40
0.0767399452571385
 40
0.0767399452571385
 40
0.0767399452571385
 40
0.3844191189361056
 40
0.3844191189361056
 40
0.3844191189361056
 40
0.6920297384337287
 40
0.6920297384337287
 40
0.6920297384337287
 40
1.0
 40
1.0
 40
1.0
 40
1.0
 10
86.8570031429294
 20
168.8608328700404
 30
0.0
 10
86.85600943572015
 20
168.8621996068609
 30
0.0
 10
86.8549668854892
 20
168.8632395836678
 30
0.0
 10
86.85391557611777
 20
168.8640940667889
 30
0.0
 10
86.84968639848273
 20
168.8675314573452
 30
0.0
 10
86.84531584454223
 20
168.868878436241
 30
0.0
 10
86.84099645632018
 20
168.8707056575912
 30
0.0
 10
86.83667696873896
 20
168.8725329209731
 30
0.0
 10
86.83235411436941
 20
168.8742588540674
 30
0.0
 10
86.82802226626006
 20
168.8754516791974
 30
0.0
 10
86.82368768774599
 20
168.8766452561764
 30
0.0
 10
86.81933919176726
 20
168.8772798297429
 30
0.0
 10
86.81500341048081
 20
168.8772728521265
 30
0.0
  0
SPLINE
  5
297
330
285
100
AcDbEntity
  8
$DDT_AUDIT_GENERATED_(B1)
  6
Continuous
 62
     7
100
AcDbSpline
210
0.0
220
0.0
230
1.0
 70
     8
 71
     3
 72
     8
 73
     4
 74
     0
 42
0.0000000012493905
 43
0.0000000001
 40
0.0
 40
0.0
 40
0.0
 40
0.0
 40
0.4999972118120257
 40
0.4999972118120257
 40
0.4999972118120257
 40
0.4999972118120257
 10
86.81500341048081
 20
168.8772728521265
 30
0.0
 10
84.15464810340032
 20
168.8785980363007
 30
0.0
 10
82.81318596618613
 20
168.8796286652968
 30
0.0
 10
82.81314027995886
 20
168.8795277887744
 30
0.0
  0
SPLINE
  5
298
330
285
100
AcDbEntity
  8
$DDT_AUDIT_GENERATED_(B1)
  6
Continuous
 62
     7
100
AcDbSpline
210
0.0
220
0.0
230
1.0
 70
     8
 71
     3
 72
    10
 73
     6
 74
     0
 42
0.0000000012493719
 43
0.0000000001
 40
0.4999972117234935
 40
0.4999972117234935
 40
0.4999972117234935
 40
0.4999972117234935
 40
0.5
 40
0.5
 40
1.0
 40
1.0
 40
1.0
 40
1.0
 10
139.0091150906494
 20
168.8795277887054
 30
0.0
 10
139.0091150909041
 20
168.8795277881429
 30
0.0
 10
139.0091150911172
 20
168.8795277875803
 30
0.0
 10
139.0091458166683
 20
168.8794268973198
 30
0.0
 10
137.6688596672121
 20
168.876572678138
 30
0.0
 10
135.0072210510106
 20
168.8772367375437
 30
0.0
  0
SPLINE
  5
299
330
285
100
AcDbEntity
  8
$DDT_AUDIT_GENERATED_(B1)
  6
Continuous
 62
     7
100
AcDbSpline
210
0.0
220
0.0
230
1.0
 70
     8
 71
     3
 72
    17
 73
    13
 74
     0
 42
0.0000002141326936
 43
0.0000000001
 40
0.0
 40
0.0
 40
0.0
 40
0.0
 40
0.0685403493455109
 40
0.0685403493455109
 40
0.0685403493455109
 40
0.3765749181426365
 40
0.3765749181426365
 40
0.3765749181426365
 40
0.6841982769387857
 40
0.6841982769387857
 40
0.6841982769387857
 40
1.0
 40
1.0
 40
1.0
 40
1.0
 10
135.0072210510106
 20
168.8772367375437
 30
0.0
 10
135.0062555749707
 20
168.8772467040663
 30
0.0
 10
135.0052895779341
 20
168.8772200764046
 30
0.0
 10
135.0043233977001
 20
168.8771614344436
 30
0.0
 10
134.9999853168402
 20
168.8768981361898
 30
0.0
 10
134.9956400883645
 20
168.8759595745459
 30
0.0
 10
134.9913098318412
 20
168.8745560339692
 30
0.0
 10
134.9869828565276
 20
168.8731535569118
 30
0.0
 10
134.9826649111094
 20
168.8713219886026
 30
0.0
 10
134.9783468079425
 20
168.8694524332447
 30
0.0
 10
134.9739253748385
 20
168.8675381404107
 30
0.0
 10
134.9693153528425
 20
168.8664461247401
 30
0.0
 10
134.9652230457003
 20
168.8608205235308
 30
0.0
  0
ARC
  5
29A
330
285
100
AcDbEntity
  8
$DDT_AUDIT_GENERATED_(B1)
  6
Continuous
 62
     7
100
AcDbCircle
 10
135.1009669113
 20
168.7770378994
 30
0.0
 40
0.1595177894524475
100
AcDbArc
 50
148.3166537367
 51
167.5405958049
  0
LINE
  5
29B
330
285
100
AcDbEntity
  8
$DDT_AUDIT_GENERATED_(B1)
  6
Continuous
 62
     7
100
AcDbLine
 10
134.7442055056
 20
168.7
 30
0.0
 11
134.7445194358
 21
168.8077854271
 31
0.0
  0
ARC
  5
29C
330
285
100
AcDbEntity
  8
$DDT_AUDIT_GENERATED_(B1)
  6
Continuous
 62
     7
100
AcDbCircle
 10
134.6108359006
 20
168.7198772621
 30
0.0
 40
0.159997290800326
100
AcDbArc
 50
33.3282831887
 51
61.7702171963
  0
SPLINE
  5
29D
330
285
100
AcDbEntity
  8
$DDT_AUDIT_GENERATED_(B1)
  6
Continuous
 62
     7
100
AcDbSpline
210
0.0
220
0.0
230
1.0
 70
     8
 71
     3
 72
    10
 73
     6
 74
     0
 42
0.0000000823286603
 43
0.0000000001
 40
0.0
 40
0.0
 40
0.0
 40
0.0
 40
0.5
 40
0.5
 40
1.0
 40
1.0
 40
1.0
 40
1.0
 10
134.6865160286142
 20
168.8608441067103
 30
0.0
 10
134.6679004568671
 20
168.8699997694703
 30
0.0
 10
134.6474502094292
 20
168.8699662346307
 30
0.0
 10
134.6077056724687
 20
168.8754656805443
 30
0.0
 10
134.5877081101918
 20
168.8772885641299
 30
0.0
 10
134.5676429434075
 20
168.8772834334618
 30
0.0
  0
SPLINE
  5
29E
330
285
100
AcDbEntity
  8
$DDT_AUDIT_GENERATED_(B1)
  6
Continuous
 62
     7
100
AcDbSpline
210
0.0
220
0.0
230
1.0
 70
     8
 71
     3
 72
     8
 73
     4
 74
     0
 42
0.0000000002147503
 43
0.0000000001
 40
0.0
 40
0.0
 40
0.0
 40
0.0
 40
0.2331470994509173
 40
0.2331470994509173
 40
0.2331470994509173
 40
0.2331470994509173
 10
134.5676429434075
 20
168.8772834334618
 30
0.0
 10
131.0333415513548
 20
168.8778997569415
 30
0.0
 10
127.3986688586307
 20
168.8784520073933
 30
0.0
 10
123.7109812130857
 20
168.8788553404148
 30
0.0
  0
SPLINE
  5
29F
330
285
100
AcDbEntity
  8
$DDT_AUDIT_GENERATED_(B1)
  6
Continuous
 62
     7
100
AcDbSpline
210
0.0
220
0.0
230
1.0
 70
     8
 71
     3
 72
     8
 73
     4
 74
     0
 42
0.0000000002147282
 43
0.0000000001
 40
0.7668777643747355
 40
0.7668777643747355
 40
0.7668777643747355
 40
0.7668777643747355
 40
1.0
 40
1.0
 40
1.0
 40
1.0
 10
98.11119490255113
 20
168.8779610037954
 30
0.0
 10
94.42413465694305
 20
168.8773749904862
 30
0.0
 10
90.78973840146475
 20
168.8769181541115
 30
0.0
 10
87.25457510316437
 20
168.8772261554751
 30
0.0
  0
ARC
  5
2A0
330
285
100
AcDbEntity
  8
$DDT_AUDIT_GENERATED_(B1)
  6
Continuous
 62
     7
100
AcDbCircle
 10
87.2583072278
 20
168.4116531723
 30
0.0
 40
0.4655879416095838
100
AcDbArc
 50
90.4592843984
 51
105.2674084016
  0
ARC
  5
2A1
330
285
100
AcDbEntity
  8
$DDT_AUDIT_GENERATED_(B1)
  6
Continuous
 62
     7
100
AcDbCircle
 10
87.20923512
 20
168.7227212973
 30
0.0
 40
0.1564440392180415
100
AcDbArc
 50
118.0342260119
 51
145.4497566335
  0
LINE
  5
2A2
330
285
100
AcDbEntity
  8
$DDT_AUDIT_GENERATED_(B1)
  6
Continuous
 62
     7
100
AcDbLine
 10
87.0858275608
 20
169.1398019195
 30
0.0
 11
83.0954779085
 21
169.1398019195
 31
0.0
  0
LINE
  5
2A3
330
285
100
AcDbEntity
  8
$DDT_AUDIT_GENERATED_(B1)
  6
Continuous
 62
     7
100
AcDbLine
 10
87.0858275608
 20
169.1398019195
 30
0.0
 11
87.1842324015
 21
169.1398019195
 31
0.0
  0
LINE
  5
2A4
330
285
100
AcDbEntity
  8
$DDT_AUDIT_GENERATED_(B1)
  6
Continuous
 62
     7
100
AcDbLine
 10
87.1842324015
 20
169.1398019195
 30
0.0
 11
87.3497511682
 21
169.1398019195
 31
0.0
  0
LINE
  5
2A5
330
285
100
AcDbEntity
  8
$DDT_AUDIT_GENERATED_(B1)
  6
Continuous
 62
     7
100
AcDbLine
 10
87.3497511682
 20
169.1398019195
 30
0.0
 11
95.8958254791
 21
169.1398019195
 31
0.0
  0
LINE
  5
2A6
330
285
100
AcDbEntity
  8
$DDT_AUDIT_GENERATED_(B1)
  6
Continuous
 62
     7
100
AcDbLine
 10
125.9531993972
 20
169.1398019195
 30
0.0
 11
134.472695279
 21
169.1398019195
 31
0.0
  0
LINE
  5
2A7
330
285
100
AcDbEntity
  8
$DDT_AUDIT_GENERATED_(B1)
  6
Continuous
 62
     7
100
AcDbLine
 10
134.472695279
 20
169.1398019195
 30
0.0
 11
134.6383322567
 21
169.1398019195
 31
0.0
  0
LINE
  5
2A8
330
285
100
AcDbEntity
  8
$DDT_AUDIT_GENERATED_(B1)
  6
Continuous
 62
     7
100
AcDbLine
 10
134.6383322567
 20
169.1398019195
 30
0.0
 11
134.7364106471
 21
169.1398019195
 31
0.0
  0
LINE
  5
2A9
330
285
100
AcDbEntity
  8
$DDT_AUDIT_GENERATED_(B1)
  6
Continuous
 62
     7
100
AcDbLine
 10
134.7364106471
 20
169.1398019195
 30
0.0
 11
138.7267774621
 21
169.1398019195
 31
0.0
  0
SPLINE
  5
2AA
330
285
100
AcDbEntity
  8
$DDT_AUDIT_GENERATED_(B1)
  6
Continuous
 62
     7
100
AcDbSpline
210
0.0
220
0.0
230
1.0
 70
     8
 71
     3
 72
    17
 73
    13
 74
     0
 42
0.0000000796282794
 43
0.0000000001
 40
0.0
 40
0.0
 40
0.0
 40
0.0
 40
0.3587722214843519
 40
0.3587722214843519
 40
0.3587722214843519
 40
0.5123166507459881
 40
0.5123166507459881
 40
0.5123166507459881
 40
0.6293564452106452
 40
0.6293564452106452
 40
0.6293564452106452
 40
1.0
 40
1.0
 40
1.0
 40
1.0
 10
134.9452059068068
 20
168.811453515446
 30
0.0
 10
134.9405339216532
 20
168.7946744147855
 30
0.0
 10
134.9362415307664
 20
168.7766785054732
 30
0.0
 10
134.9300784115493
 20
168.7613326299864
 30
0.0
 10
134.9274566847054
 20
168.7548046540881
 30
0.0
 10
134.9243939816611
 20
168.7486183182719
 30
0.0
 10
134.9204904273398
 20
168.7447501086123
 30
0.0
 10
134.9175245653577
 20
168.7418111009737
 30
0.0
 10
134.9139204088293
 20
168.7407413170318
 30
0.0
 10
134.9102144468843
 20
168.7403920233479
 30
0.0
 10
134.8984522990602
 20
168.7392834194267
 30
0.0
 10
134.8845549857897
 20
168.7437402876914
 30
0.0
 10
134.8689262519227
 20
168.7437054831341
 30
0.0
  0
SPLINE
  5
2AB
330
285
100
AcDbEntity
  8
$DDT_AUDIT_GENERATED_(B1)
  6
Continuous
 62
     7
100
AcDbSpline
210
0.0
220
0.0
230
1.0
 70
     8
 71
     3
 72
    12
 73
     8
 74
     0
 42
0.0000000635992127
 43
0.0000000001
 40
0.0
 40
0.0
 40
0.0
 40
0.0
 40
0.2499999999999885
 40
0.2499999999999885
 40
0.4999999999999769
 40
0.4999999999999769
 40
1.0
 40
1.0
 40
1.0
 40
1.0
 10
134.8689262519227
 20
168.7437054831341
 30
0.0
 10
134.8585801803147
 20
168.7437070362547
 30
0.0
 10
134.8475988482687
 20
168.7420351683052
 30
0.0
 10
134.8243179550672
 20
168.7399202503943
 30
0.0
 10
134.8114598898295
 20
168.7386398074354
 30
0.0
 10
134.7760891038849
 20
168.7577859466408
 30
0.0
 10
134.7613483149369
 20
168.7848044688466
 30
0.0
 10
134.7445194357698
 20
168.8077854271112
 30
0.0
  0
SPLINE
  5
2AC
330
285
100
AcDbEntity
  8
$DDT_AUDIT_GENERATED_(B1)
  6
Continuous
 62
     7
100
AcDbSpline
210
0.0
220
0.0
230
1.0
 70
     8
 71
     3
 72
    17
 73
    13
 74
     0
 42
0.0000000625324108
 43
0.0000000001
 40
0.0
 40
0.0
 40
0.0
 40
0.0
 40
0.3592450063709586
 40
0.3592450063709586
 40
0.3592450063709586
 40
0.5130486814158055
 40
0.5130486814158055
 40
0.5130486814158055
 40
0.6307080350266818
 40
0.6307080350266818
 40
0.6307080350266818
 40
1.0
 40
1.0
 40
1.0
 40
1.0
 10
87.08038324372572
 20
168.8114452027272
 30
0.0
 10
87.0676830807557
 20
168.7946443739547
 30
0.0
 10
87.0562563606819
 20
168.7766199875253
 30
0.0
 10
87.04241792062031
 20
168.7612645867616
 30
0.0
 10
87.03652953892843
 20
168.7547307245397
 30
0.0
 10
87.02999321118
 20
168.7485411641903
 30
0.0
 10
87.0226376085517
 20
168.744691883746
 30
0.0
 10
87.01702757853357
 20
168.7417560836583
 30
0.0
 10
87.01079114358365
 20
168.7407133738575
 30
0.0
 10
87.00487594482293
 20
168.740378423934
 30
0.0
 10
86.98626727863606
 20
168.7393247025684
 30
0.0
 10
86.96886802578268
 20
168.7437412334571
 30
0.0
 10
86.95329265990043
 20
168.7436995998032
 30
0.0
  0
SPLINE
  5
2AD
330
285
100
AcDbEntity
  8
$DDT_AUDIT_GENERATED_(B1)
  6
Continuous
 62
     7
100
AcDbSpline
210
0.0
220
0.0
230
1.0
 70
     8
 71
     3
 72
    12
 73
     8
 74
     0
 42
0.0000000808639829
 43
0.0000000001
 40
0.0
 40
0.0
 40
0.0
 40
0.0
 40
0.2499999999999822
 40
0.2499999999999822
 40
0.4999999999999644
 40
0.4999999999999644
 40
1.0
 40
1.0
 40
1.0
 40
1.0
 10
86.95329265990043
 20
168.7436995998032
 30
0.0
 10
86.94294928387767
 20
168.7436964567752
 30
0.0
 10
86.9334793982101
 20
168.7420229792878
 30
0.0
 10
86.91622750512148
 20
168.7399109360039
 30
0.0
 10
86.90809034141503
 20
168.7386488396776
 30
0.0
 10
86.88933409866262
 20
168.757802981543
 30
0.0
 10
86.88421951149697
 20
168.784792347909
 30
0.0
 10
86.87800045634901
 20
168.8077772906605
 30
0.0
  0
LINE
  5
2AE
330
285
100
AcDbEntity
  8
$DDT_AUDIT_GENERATED_(B1)
  6
Continuous
 62
     7
100
AcDbLine
 10
82.8130328945
 20
168.8918329411
 30
0.0
 11
82.8169072243
 21
168.4478787268
 31
0.0
  0
LINE
  5
2AF
330
285
100
AcDbEntity
  8
$DDT_AUDIT_GENERATED_(B1)
  6
Continuous
 62
     7
100
AcDbLine
 10
139.0053481463
 20
168.4478787268
 30
0.0
 11
139.0092224761
 21
168.8918329411
 31
0.0
  0
ARC
  5
2B0
330
285
100
AcDbEntity
  8
$DDT_AUDIT_GENERATED_(B1)
  6
Continuous
 62
     7
100
AcDbCircle
 10
138.7117595475
 20
168.840243976
 30
0.0
 40
0.2999311015443462
100
AcDbArc
 50
6.05610525
 51
88.6402663959
  0
ARC
  5
2B1
330
285
100
AcDbEntity
  8
$DDT_AUDIT_GENERATED_(B1)
  6
Continuous
 62
     7
100
AcDbCircle
 10
83.1104958231
 20
168.840243976
 30
0.0
 40
0.2999311015444907
100
AcDbArc
 50
91.3597336063
 51
173.9438947524
  0
LINE
  5
2B2
330
285
100
AcDbEntity
  8
$DDT_AUDIT_GENERATED_(1EF)
  6
Continuous
 62
     7
100
AcDbLine
 10
88.0252730832
 20
170.6123833419
 30
0.0
 11
88.0252730832
 21
173.2496402185
 31
0.0
  0
SPLINE
  5
2B3
330
285
100
AcDbEntity
  8
$DDT_AUDIT_GENERATED_(1EF)
  6
Continuous
 62
     7
100
AcDbSpline
210
0.0
220
0.0
230
1.0
 70
    12
 71
     3
 72
     8
 73
     4
 74
     0
 42
0.0000000022065986
 43
0.0000000001
 40
0.5979914384389485
 40
0.5979914384389485
 40
0.5979914384389485
 40
0.5979914384389485
 40
0.7253634034321509
 40
0.7253634034321509
 40
0.7253634034321509
 40
0.7253634034321509
 10
136.8765031378693
 20
169.7550120466799
 30
0.0
 41
0.997921099077296
 10
136.7596377279827
 20
169.7549951907101
 30
0.0
 41
0.9975670092550768
 10
136.5670630241564
 20
169.7549850061546
 30
0.0
 41
0.9979234619530677
 10
136.2992709813788
 20
169.7549859201048
 30
0.0
 41
0.9989904571712691
  0
SPLINE
  5
2B4
330
285
100
AcDbEntity
  8
$DDT_AUDIT_GENERATED_(1EF)
  6
Continuous
 62
     7
100
AcDbSpline
210
0.0
220
0.0
230
1.0
 70
    12
 71
     3
 72
    11
 73
     7
 74
     0
 42
0.0000000002268683
 43
0.0000000001
 40
0.6502712224351603
 40
0.6502712224351603
 40
0.6502712224351603
 40
0.6502712224351603
 40
0.759457340546033
 40
0.759457340546033
 40
0.759457340546033
 40
1.0
 40
1.0
 40
1.0
 40
1.0
 10
104.2375106477981
 20
169.7549949682932
 30
0.0
 41
0.997844203881925
 10
102.6266296087264
 20
169.75498585264
 30
0.0
 41
0.9980406743285845
 10
101.0243304083215
 20
169.7549829796124
 30
0.0
 41
0.9987592730346094
 10
99.43310436293027
 20
169.7549891169392
 30
0.0
 41
1.0
 10
95.81057066315498
 20
169.7550030889788
 30
0.0
 41
0.9979683343949699
 10
92.26633971749604
 20
169.7550639230751
 30
0.0
 41
0.9979683343949699
 10
88.82201360142146
 20
169.7551991602804
 30
0.0
 41
1.0
  0
LINE
  5
2B5
330
285
100
AcDbEntity
  8
$DDT_AUDIT_GENERATED_(1EF)
  6
Continuous
 62
     7
100
AcDbLine
 10
133.7969796529
 20
173.2497341338
 30
0.0
 11
133.7969796529
 21
170.6123848814
 31
0.0
  0
LINE
  5
2B6
330
285
100
AcDbEntity
  8
$DDT_AUDIT_GENERATED_(1EF)
  6
Continuous
 62
     7
100
AcDbLine
 10
92.7111276399
 20
169.7549793042
 30
0.0
 11
128.8253873411
 21
169.754979342
 31
0.0
  0
LINE
  5
2B7
330
285
100
AcDbEntity
  8
$DDT_AUDIT_GENERATED_(1EF)
  6
Continuous
 62
     7
100
AcDbLine
 10
84.3111293994
 20
173.2495789093
 30
0.0
 11
84.3111293994
 21
170.2550534602
 31
0.0
  0
LINE
  5
2B8
330
285
100
AcDbEntity
  8
$DDT_AUDIT_GENERATED_(1EF)
  6
Continuous
 62
     7
100
AcDbLine
 10
128.8136382104
 20
169.7549682651
 30
0.0
 11
136.8498319005
 21
169.7550115284
 31
0.0
  0
LINE
  5
2B9
330
285
100
AcDbEntity
  8
$DDT_AUDIT_GENERATED_(1EF)
  6
Continuous
 62
     7
100
AcDbLine
 10
84.9724179578
 20
169.7550115245
 30
0.0
 11
92.9969662612
 21
169.7549683607
 31
0.0
  0
LINE
  5
2BA
330
285
100
AcDbEntity
  8
$DDT_AUDIT_GENERATED_(1EF)
  6
Continuous
 62
     7
100
AcDbLine
 10
137.5111259712
 20
170.2550534602
 30
0.0
 11
137.5111259712
 21
173.2496578394
 31
0.0
  0
SPLINE
  5
2BB
330
285
100
AcDbEntity
  8
$DDT_AUDIT_GENERATED_(1EF)
  6
Continuous
 62
     7
100
AcDbSpline
210
0.0
220
0.0
230
1.0
 70
     8
 71
     3
 72
    13
 73
     9
 74
     0
 42
0.0000000101913322
 43
0.0000000001
 40
0.0
 40
0.0
 40
0.0
 40
0.0
 40
0.2293295992777782
 40
0.4543958570498002
 40
0.6592246564477231
 40
0.8397913175538539
 40
0.9220708300535229
 40
1.0
 40
1.0
 40
1.0
 40
1.0
 10
136.8196787800997
 20
169.7621576424509
 30
0.0
 10
136.8740837907213
 20
169.7631766555373
 30
0.0
 10
136.9703713995445
 20
169.7661063540386
 30
0.0
 10
137.0244261159853
 20
169.7627979362334
 30
0.0
 10
137.1684367334475
 20
169.7815085235593
 30
0.0
 10
137.3496307680143
 20
169.8732756081651
 30
0.0
 10
137.4836010543135
 20
170.0535845038549
 30
0.0
 10
137.5012086868224
 20
170.1808791289666
 30
0.0
 10
137.5112444783355
 20
170.2550605010541
 30
0.0
  0
SPLINE
  5
2BC
330
285
100
AcDbEntity
  8
$DDT_AUDIT_GENERATED_(1EF)
  6
Continuous
 62
     7
100
AcDbSpline
210
0.0
220
0.0
230
1.0
 70
     8
 71
     3
 72
    18
 73
    14
 74
     0
 42
0.0000000102130777
 43
0.0000000001
 40
0.0
 40
0.0
 40
0.0
 40
0.0
 40
0.0161612866370787
 40
0.0316699347689168
 40
0.0481844080650367
 40
0.0669467624993436
 40
0.1140047219149695
 40
0.1945053919216962
 40
0.298103090448524
 40
0.4135839380473562
 40
0.5398725372250859
 40
0.8453776808907232
 40
1.0
 40
1.0
 40
1.0
 40
1.0
 10
84.31101089226847
 20
170.2550605010553
 30
0.0
 10
84.31314591660976
 20
170.2172396930418
 30
0.0
 10
84.31726330209956
 20
170.1536132321471
 30
0.0
 10
84.3473083788179
 20
170.0613951150795
 30
0.0
 10
84.38473002788743
 20
169.9902735323327
 30
0.0
 10
84.44388167352962
 20
169.9103502378124
 30
0.0
 10
84.52388340247516
 20
169.8435251815751
 30
0.0
 10
84.58659246779949
 20
169.8114610986259
 30
0.0
 10
84.61591508741687
 20
169.8030471799357
 30
0.0
 10
84.66654878533026
 20
169.7900024639337
 30
0.0
 10
84.75070629807239
 20
169.7766115744553
 30
0.0
 10
84.8589036415217
 20
169.7662975368313
 30
0.0
 10
84.96567689575834
 20
169.7633395112914
 30
0.0
 10
85.0081909717136
 20
169.7622529166345
 30
0.0
  0
SPLINE
  5
2BD
330
285
100
AcDbEntity
  8
$DDT_AUDIT_GENERATED_(1EF)
  6
Continuous
 62
     7
100
AcDbSpline
210
0.0
220
0.0
230
1.0
 70
    12
 71
     3
 72
     8
 73
     4
 74
     0
 42
0.0000000030377395
 43
0.0000000001
 40
0.5979914309561213
 40
0.5979914309561213
 40
0.5979914309561213
 40
0.5979914309561213
 40
0.6365166976581426
 40
0.6365166976581426
 40
0.6365166976581426
 40
0.6365166976581426
 10
136.8765031392109
 20
169.8550120466812
 30
0.0
 41
0.9979210990883334
 10
136.8411644636755
 20
169.8550069496413
 30
0.0
 41
0.9978140001298483
 10
136.7988879509466
 20
169.8550024614877
 30
0.0
 41
0.9977719042114703
 10
136.7496809854621
 20
169.8549987054167
 30
0.0
 41
0.9977948113331992
  0
SPLINE
  5
2BE
330
285
100
AcDbEntity
  8
$DDT_AUDIT_GENERATED_(1EF)
  6
Continuous
 62
     7
100
AcDbSpline
210
0.0
220
0.0
230
1.0
 70
     8
 71
     3
 72
     8
 73
     4
 74
     0
 42
0.0000000015720561
 43
0.0000000001
 40
0.0
 40
0.0
 40
0.0
 40
0.0
 40
0.0158454144824968
 40
0.0158454144824968
 40
0.0158454144824968
 40
0.0158454144824968
 10
84.31101089226864
 20
170.3550605010541
 30
0.0
 10
84.31310418747614
 20
170.3179789017156
 30
0.0
 10
84.31516488811221
 20
170.2860421236273
 30
0.0
 10
84.32106118468658
 20
170.2549458210232
 30
0.0
  0
LINE
  5
2BF
330
285
100
AcDbEntity
  8
$DDT_AUDIT_GENERATED_(FA)
  6
Continuous
 62
     7
100
AcDbLine
 10
88.0252730832
 20
165.3533166456
 30
0.0
 11
88.0252730832
 21
112.5342749878
 31
0.0
  0
LINE
  5
2C0
330
285
100
AcDbEntity
  8
$DDT_AUDIT_GENERATED_(FA)
  6
Continuous
 62
     7
100
AcDbLine
 10
133.7969796529
 20
112.5342651259
 30
0.0
 11
133.7969796529
 21
165.353319328
 31
0.0
  0
LINE
  5
2C1
330
285
100
AcDbEntity
  8
$DDT_AUDIT_GENERATED_(FA)
  6
Continuous
 62
     7
100
AcDbLine
 10
137.0112661847
 20
166.1999999999
 30
0.0
 11
136.9596684589
 21
166.1999999999
 31
0.0
  0
LINE
  5
2C2
330
285
100
AcDbEntity
  8
$DDT_AUDIT_GENERATED_(FA)
  6
Continuous
 62
     7
100
AcDbLine
 10
135.5083450163
 20
166.1999999999
 30
0.0
 11
134.6896251304
 21
166.2
 31
0.0
  0
LINE
  5
2C3
330
285
100
AcDbEntity
  8
$DDT_AUDIT_GENERATED_(FA)
  6
Continuous
 62
     7
100
AcDbLine
 10
134.5818792923
 20
166.2
 30
0.0
 11
133.4344280021
 21
166.2
 31
0.0
  0
LINE
  5
2C4
330
285
100
AcDbEntity
  8
$DDT_AUDIT_GENERATED_(FA)
  6
Continuous
 62
     7
100
AcDbLine
 10
84.8109891859
 20
166.1999999999
 30
0.0
 11
85.0408379389
 21
166.1999999999
 31
0.0
  0
LINE
  5
2C5
330
285
100
AcDbEntity
  8
$DDT_AUDIT_GENERATED_(FA)
  6
Continuous
 62
     7
100
AcDbLine
 10
100.3463752649
 20
166.2
 30
0.0
 11
88.8259540511
 21
166.2
 31
0.0
  0
ARC
  5
2C6
330
285
100
AcDbEntity
  8
$DDT_AUDIT_GENERATED_(FA)
  6
Continuous
 62
     7
100
AcDbCircle
 10
110.9111257553
 20
159.7222833666
 30
0.0
 40
3.977693921405484
100
AcDbArc
 50
72.6249288275
 51
107.375014627
  0
ARC
  5
2C7
330
285
100
AcDbEntity
  8
$DDT_AUDIT_GENERATED_(FA)
  6
Continuous
 62
     7
100
AcDbCircle
 10
113.3888442724
 20
162.1999980124
 30
0.0
 40
3.977693932264397
100
AcDbArc
 50
162.6249288764
 51
197.3750145738
  0
ARC
  5
2C8
330
285
100
AcDbEntity
  8
$DDT_AUDIT_GENERATED_(FA)
  6
Continuous
 62
     7
100
AcDbCircle
 10
108.4334110982
 20
162.2000018724
 30
0.0
 40
3.977693932256207
100
AcDbArc
 50
342.6249288764
 51
17.3750145787
  0
ARC
  5
2C9
330
285
100
AcDbEntity
  8
$DDT_AUDIT_GENERATED_(FA)
  6
Continuous
 62
     7
100
AcDbCircle
 10
110.9111296153
 20
164.6777165182
 30
0.0
 40
3.977693921500913
100
AcDbArc
 50
252.6249288279
 51
287.3750146223
  0
ARC
  5
2CA
330
285
100
AcDbEntity
  8
$DDT_AUDIT_GENERATED_(FA)
  6
Continuous
 62
     7
100
AcDbCircle
 10
109.7834015699
 20
161.072275591
 30
0.0
 40
0.1999999775226265
100
AcDbArc
 50
197.4921442109
 51
252.5084196647
  0
ARC
  5
2CB
330
285
100
AcDbEntity
  8
$DDT_AUDIT_GENERATED_(FA)
  6
Continuous
 62
     7
100
AcDbCircle
 10
109.7834033338
 20
163.3277260579
 30
0.0
 40
0.199999977357375
100
AcDbArc
 50
107.4921442694
 51
162.5084196894
  0
ARC
  5
2CC
330
285
100
AcDbEntity
  8
$DDT_AUDIT_GENERATED_(FA)
  6
Continuous
 62
     7
100
AcDbCircle
 10
112.0388538008
 20
163.3277242939
 30
0.0
 40
0.1999999773656179
100
AcDbArc
 50
17.4921442837
 51
72.5084196881
  0
ARC
  5
2CD
330
285
100
AcDbEntity
  8
$DDT_AUDIT_GENERATED_(FA)
  6
Continuous
 62
     7
100
AcDbCircle
 10
112.0388520366
 20
161.0722738271
 30
0.0
 40
0.1999999775539
100
AcDbArc
 50
287.4921442156
 51
342.50841966
  0
LINE
  5
2CE
330
285
100
AcDbEntity
  8
$DDT_AUDIT_GENERATED_(FA)
  6
Continuous
 62
     7
100
AcDbLine
 10
105.4111276853
 20
131.0023373926
 30
0.0
 11
105.4111276853
 21
131.3206875022
 31
0.0
  0
LINE
  5
2CF
330
285
100
AcDbEntity
  8
$DDT_AUDIT_GENERATED_(FA)
  6
Continuous
 62
     7
100
AcDbLine
 10
116.4111276853
 20
131.3184267699
 30
0.0
 11
116.4111276853
 21
131.0061009172
 31
0.0
  0
ARC
  5
2D0
330
285
100
AcDbEntity
  8
$DDT_AUDIT_GENERATED_(FA)
  6
Continuous
 62
     7
100
AcDbCircle
 10
95.2665701725
 20
140.1999997629
 30
0.0
 40
25.44535026914133
100
AcDbArc
 50
341.0982897785
 51
18.9017194664
  0
ARC
  5
2D1
330
285
100
AcDbEntity
  8
$DDT_AUDIT_GENERATED_(FA)
  6
Continuous
 62
     7
100
AcDbCircle
 10
119.0546987607
 20
148.3435710223
 30
0.0
 40
0.3019099596722833
100
AcDbArc
 50
19.2111008522
 51
70.7896203183
  0
ARC
  5
2D2
330
285
100
AcDbEntity
  8
$DDT_AUDIT_GENERATED_(FA)
  6
Continuous
 62
     7
100
AcDbCircle
 10
119.0547302818
 20
132.0563973581
 30
0.0
 40
0.3018699242465294
100
AcDbArc
 50
289.2074291303
 51
340.7932920403
  0
ARC
  5
2D3
330
285
100
AcDbEntity
  8
$DDT_AUDIT_GENERATED_(FA)
  6
Continuous
 62
     7
100
AcDbCircle
 10
110.9111277971
 20
124.5554565985
 30
0.0
 40
25.4453367933119
100
AcDbArc
 50
71.0982793885
 51
108.9017298564
  0
ARC
  5
2D4
330
285
100
AcDbEntity
  8
$DDT_AUDIT_GENERATED_(FA)
  6
Continuous
 62
     7
100
AcDbCircle
 10
110.9111275809
 20
155.8445411782
 30
0.0
 40
25.44533493397985
100
AcDbArc
 50
251.0982779549
 51
288.90173129
  0
ARC
  5
2D5
330
285
100
AcDbEntity
  8
$DDT_AUDIT_GENERATED_(FA)
  6
Continuous
 62
     7
100
AcDbCircle
 10
102.7675250912
 20
148.3436023887
 30
0.0
 40
0.3018699179725546
100
AcDbArc
 50
109.2074285548
 51
160.7932926158
  0
ARC
  5
2D6
330
285
100
AcDbEntity
  8
$DDT_AUDIT_GENERATED_(FA)
  6
Continuous
 62
     7
100
AcDbCircle
 10
102.7675566144
 20
132.0564287168
 30
0.0
 40
0.301909956093371
100
AcDbArc
 50
199.211100524
 51
250.7896206465
  0
ARC
  5
2D7
330
285
100
AcDbEntity
  8
$DDT_AUDIT_GENERATED_(FA)
  6
Continuous
 62
     7
100
AcDbCircle
 10
126.5556852053
 20
140.1999999791
 30
0.0
 40
25.44535026901929
100
AcDbArc
 50
161.0982897784
 51
198.9017194665
  0
ARC
  5
2D8
330
285
100
AcDbEntity
  8
$DDT_AUDIT_GENERATED_(FA)
  6
Continuous
 62
     7
100
AcDbCircle
 10
137.0111785299
 20
112.0862769554
 30
0.0
 40
0.4999203655456146
100
AcDbArc
 50
284.3235972953
 51
0.0091338458
  0
ARC
  5
2D9
330
285
100
AcDbEntity
  8
$DDT_AUDIT_GENERATED_(FA)
  6
Continuous
 62
     7
100
AcDbCircle
 10
84.8110767757
 20
112.0861207896
 30
0.0
 40
0.4999203857328984
100
AcDbArc
 50
179.990864111
 51
255.6780688515
  0
ARC
  5
2DA
330
285
100
AcDbEntity
  8
$DDT_AUDIT_GENERATED_(FA)
  6
Continuous
 62
     7
100
AcDbCircle
 10
137.011421082
 20
165.7001766024
 30
0.0
 40
0.4998234214825255
100
AcDbArc
 50
359.9797556922
 51
90.0177561956
  0
ARC
  5
2DB
330
285
100
AcDbEntity
  8
$DDT_AUDIT_GENERATED_(FA)
  6
Continuous
 62
     7
100
AcDbCircle
 10
84.8108342886
 20
165.7001766024
 30
0.0
 40
0.4998234214835868
100
AcDbArc
 50
89.9822438042
 51
180.0202443077
  0
LINE
  5
2DC
330
285
100
AcDbEntity
  8
$DDT_AUDIT_GENERATED_(FA)
  6
Continuous
 62
     7
100
AcDbLine
 10
84.3111293994
 20
165.6999999999
 30
0.0
 11
84.3111293994
 21
112.0862005888
 31
0.0
  0
LINE
  5
2DD
330
285
100
AcDbEntity
  8
$DDT_AUDIT_GENERATED_(FA)
  6
Continuous
 62
     7
100
AcDbLine
 10
137.5111259712
 20
112.0863567353
 30
0.0
 11
137.5111259712
 21
165.6999999999
 31
0.0
  0
ARC
  5
2DE
330
285
100
AcDbEntity
  8
$DDT_AUDIT_GENERATED_(FA)
  6
Continuous
 62
     7
100
AcDbCircle
 10
110.9137490333
 20
258.3602270434
 30
0.0
 40
149.0733306257962
100
AcDbArc
 50
259.8681453131
 51
280.129872184
  0
ARC
  5
2DF
330
285
100
AcDbEntity
  8
$DDT_AUDIT_GENERATED_(11D)
  6
Continuous
 62
     7
100
AcDbCircle
 10
110.9111214543
 20
124.5105583737
 30
0.0
 40
25.1886992796908
100
AcDbArc
 50
71.8889880397
 51
108.1109792049
  0
ARC
  5
2E0
330
285
100
AcDbEntity
  8
$DDT_AUDIT_GENERATED_(11D)
  6
Continuous
 62
     7
100
AcDbCircle
 10
126.5854036815
 20
140.1999947423
 30
0.0
 40
25.17432712738962
100
AcDbArc
 50
161.9140178201
 51
198.085948238
  0
ARC
  5
2E1
330
285
100
AcDbEntity
  8
$DDT_AUDIT_GENERATED_(11D)
  6
Continuous
 62
     7
100
AcDbCircle
 10
110.911133966
 20
155.869273163
 30
0.0
 40
25.16952834759085
100
AcDbArc
 50
251.8747185144
 51
288.1252579433
  0
ARC
  5
2E2
330
285
100
AcDbEntity
  8
$DDT_AUDIT_GENERATED_(11D)
  6
Continuous
 62
     7
100
AcDbCircle
 10
95.2368516789
 20
140.2000078463
 30
0.0
 40
25.17432720233667
100
AcDbArc
 50
341.9140241399
 51
18.0859511796
  0
ARC
  5
2E3
330
285
100
AcDbEntity
  8
$DDT_AUDIT_GENERATED_(11D)
  6
Continuous
 62
     7
100
AcDbCircle
 10
118.8200039114
 20
132.2911625448
 30
0.0
 40
0.2998782894204786
100
AcDbArc
 50
334.6876320216
 51
341.3210636598
  0
ARC
  5
2E4
330
285
100
AcDbEntity
  8
$DDT_AUDIT_GENERATED_(11D)
  6
Continuous
 62
     7
100
AcDbCircle
 10
118.8200039114
 20
132.2911625448
 30
0.0
 40
0.2998782894204786
100
AcDbArc
 50
314.9949066105
 51
330.42244197
  0
ARC
  5
2E5
330
285
100
AcDbEntity
  8
$DDT_AUDIT_GENERATED_(11D)
  6
Continuous
 62
     7
100
AcDbCircle
 10
118.8199636739
 20
132.2911223069
 30
0.0
 40
0.299878289424643
100
AcDbArc
 50
288.679621974
 51
302.4565553421
  0
ARC
  5
2E6
330
285
100
AcDbEntity
  8
$DDT_AUDIT_GENERATED_(11D)
  6
Continuous
 62
     7
100
AcDbCircle
 10
103.0022889621
 20
132.2911251088
 30
0.0
 40
0.2998782894263621
100
AcDbArc
 50
224.9949066108
 51
251.3210636597
  0
ARC
  5
2E7
330
285
100
AcDbEntity
  8
$DDT_AUDIT_GENERATED_(11D)
  6
Continuous
 62
     7
100
AcDbCircle
 10
103.0022487241
 20
132.2911653463
 30
0.0
 40
0.2998782894268461
100
AcDbArc
 50
198.6796219744
 51
212.448899153
  0
ARC
  5
2E8
330
285
100
AcDbEntity
  8
$DDT_AUDIT_GENERATED_(11D)
  6
Continuous
 62
     7
100
AcDbCircle
 10
103.0022515261
 20
148.1088400582
 30
0.0
 40
0.2998782894245317
100
AcDbArc
 50
147.2778439362
 51
161.32106366
  0
ARC
  5
2E9
330
285
100
AcDbEntity
  8
$DDT_AUDIT_GENERATED_(11D)
  6
Continuous
 62
     7
100
AcDbCircle
 10
103.0022917636
 20
148.1088802961
 30
0.0
 40
0.2998782894254429
100
AcDbArc
 50
108.6796219743
 51
135.0057790234
  0
ARC
  5
2EA
330
285
100
AcDbEntity
  8
$DDT_AUDIT_GENERATED_(11D)
  6
Continuous
 62
     7
100
AcDbCircle
 10
118.8199664754
 20
148.1088774941
 30
0.0
 40
0.2998782894279499
100
AcDbArc
 50
44.994906611
 51
71.3210636598
  0
ARC
  5
2EB
330
285
100
AcDbEntity
  8
$DDT_AUDIT_GENERATED_(11D)
  6
Continuous
 62
     7
100
AcDbCircle
 10
118.8200067134
 20
148.1088372566
 30
0.0
 40
0.2998782894225984
100
AcDbArc
 50
18.6796219742
 51
32.4489563861
  0
ARC
  5
2EC
330
285
100
AcDbEntity
  8
$DDT_AUDIT_GENERATED_(11D)
  6
Continuous
 62
     7
100
AcDbCircle
 10
111.5164021478
 20
126.524878504
 30
0.0
 40
23.08607566359633
100
AcDbArc
 50
71.4240251478
 51
71.7627195064
  0
LINE
  5
2ED
330
285
100
AcDbEntity
  8
$DDT_AUDIT_GENERATED_(11D)
  6
Continuous
 62
     7
100
AcDbLine
 10
118.9160069195
 20
148.3929606185
 30
0.0
 11
118.90225758
 21
148.3975952798
 31
0.0
  0
ARC
  5
2EE
330
285
100
AcDbEntity
  8
$DDT_AUDIT_GENERATED_(11D)
  6
Continuous
 62
     7
100
AcDbCircle
 10
118.5860057936
 20
148.6693141451
 30
0.0
 40
0.5659752202857171
100
AcDbArc
 50
321.6493000816
 51
322.0050883132
  0
LINE
  5
2EF
330
285
100
AcDbEntity
  8
$DDT_AUDIT_GENERATED_(11D)
  6
Continuous
 62
     7
100
AcDbLine
 10
119.1169871039
 20
148.1666369814
 30
0.0
 11
119.1040886885
 21
148.2048811003
 31
0.0
  0
ARC
  5
2F0
330
285
100
AcDbEntity
  8
$DDT_AUDIT_GENERATED_(11D)
  6
Continuous
 62
     7
100
AcDbCircle
 10
96.2923502654
 20
140.4893903281
 30
0.0
 40
24.08119936769783
100
AcDbArc
 50
18.2110722848
 51
18.5907718722
  0
ARC
  5
2F1
330
285
100
AcDbEntity
  8
$DDT_AUDIT_GENERATED_(11D)
  6
Continuous
 62
     7
100
AcDbCircle
 10
110.3054373836
 20
126.5269658668
 30
0.0
 40
23.08396688349324
100
AcDbArc
 50
108.2379152338
 51
108.5767038567
  0
LINE
  5
2F2
330
285
100
AcDbEntity
  8
$DDT_AUDIT_GENERATED_(11D)
  6
Continuous
 62
     7
100
AcDbLine
 10
102.9183047334
 20
148.3970265773
 30
0.0
 11
102.90624792
 21
148.3929622712
 31
0.0
  0
ARC
  5
2F3
330
285
100
AcDbEntity
  8
$DDT_AUDIT_GENERATED_(11D)
  6
Continuous
 62
     7
100
AcDbCircle
 10
103.2355655684
 20
148.6686781585
 30
0.0
 40
0.5650442507879844
100
AcDbArc
 50
217.9867861002
 51
218.3414601547
  0
LINE
  5
2F4
330
285
100
AcDbEntity
  8
$DDT_AUDIT_GENERATED_(11D)
  6
Continuous
 62
     7
100
AcDbLine
 10
102.7181684017
 20
148.2048805023
 30
0.0
 11
102.7052772344
 21
148.1666564296
 31
0.0
  0
ARC
  5
2F5
330
285
100
AcDbEntity
  8
$DDT_AUDIT_GENERATED_(11D)
  6
Continuous
 62
     7
100
AcDbCircle
 10
125.5323003437
 20
140.4888847016
 30
0.0
 40
24.08362852112142
100
AcDbArc
 50
161.4098540108
 51
161.789563121
  0
ARC
  5
2F6
330
285
100
AcDbEntity
  8
$DDT_AUDIT_GENERATED_(11D)
  6
Continuous
 62
     7
100
AcDbCircle
 10
110.3057284321
 20
153.8747488861
 30
0.0
 40
23.08568022313781
100
AcDbArc
 50
251.424039177
 51
251.7627270247
  0
LINE
  5
2F7
330
285
100
AcDbEntity
  8
$DDT_AUDIT_GENERATED_(11D)
  6
Continuous
 62
     7
100
AcDbLine
 10
102.9062485179
 20
132.0070419845
 30
0.0
 11
102.9201194436
 21
132.0023663408
 31
0.0
  0
ARC
  5
2F8
330
285
100
AcDbEntity
  8
$DDT_AUDIT_GENERATED_(11D)
  6
Continuous
 62
     7
100
AcDbCircle
 10
103.2363357301
 20
131.7306072808
 30
0.0
 40
0.5660930338214583
100
AcDbArc
 50
141.648285858
 51
142.0039771089
  0
LINE
  5
2F9
330
285
100
AcDbEntity
  8
$DDT_AUDIT_GENERATED_(11D)
  6
Continuous
 62
     7
100
AcDbLine
 10
102.7052659182
 20
132.2333728028
 30
0.0
 11
102.718166749
 21
132.1951215027
 31
0.0
  0
ARC
  5
2FA
330
285
100
AcDbEntity
  8
$DDT_AUDIT_GENERATED_(11D)
  6
Continuous
 62
     7
100
AcDbCircle
 10
125.5298814732
 20
139.9106044041
 30
0.0
 40
24.08117439604973
100
AcDbArc
 50
198.2110690184
 51
198.5907540724
  0
ARC
  5
2FB
330
285
100
AcDbEntity
  8
$DDT_AUDIT_GENERATED_(11D)
  6
Continuous
 62
     7
100
AcDbCircle
 10
96.290034549
 20
139.9110915904
 30
0.0
 40
24.08354482318864
100
AcDbArc
 50
341.4099422495
 51
341.789570025
  0
SPLINE
  5
2FC
330
285
100
AcDbEntity
  8
$DDT_AUDIT_GENERATED_(11D)
  6
Continuous
 62
     7
100
AcDbSpline
210
0.0
220
0.0
230
1.0
 70
     8
 71
     7
 72
    16
 73
     8
 74
     0
 42
0.0000000894849157
 43
0.0000000001
 40
0.56002581735007
 40
0.56002581735007
 40
0.56002581735007
 40
0.56002581735007
 40
0.56002581735007
 40
0.56002581735007
 40
0.56002581735007
 40
0.56002581735007
 40
1.0
 40
1.0
 40
1.0
 40
1.0
 40
1.0
 40
1.0
 40
1.0
 40
1.0
 10
119.0880222237372
 20
132.1946325426799
 30
0.0
 10
119.0950908272215
 20
132.2007277963581
 30
0.0
 10
119.1010456067459
 20
132.2065860158471
 30
0.0
 10
119.1059361429394
 20
132.2122376840974
 30
0.0
 10
119.1098510776112
 20
132.2177093255093
 30
0.0
 10
119.1129140571266
 20
132.2230236128859
 30
0.0
 10
119.1152550971605
 20
132.2282228637744
 30
0.0
 10
119.116990151608
 20
132.2333816997304
 30
0.0
  0
LINE
  5
2FD
330
285
100
AcDbEntity
  8
$DDT_AUDIT_GENERATED_(11D)
  6
Continuous
 62
     7
100
AcDbLine
 10
119.1040870358
 20
132.1951221007
 30
0.0
 11
119.1077485435
 21
132.2059789991
 31
0.0
  0
ARC
  5
2FE
330
285
100
AcDbEntity
  8
$DDT_AUDIT_GENERATED_(11D)
  6
Continuous
 62
     7
100
AcDbCircle
 10
118.5853887768
 20
131.7300932932
 30
0.0
 40
0.5668274842507638
100
AcDbArc
 50
38.0039233958
 51
38.3590582128
  0
LINE
  5
2FF
330
285
100
AcDbEntity
  8
$DDT_AUDIT_GENERATED_(11D)
  6
Continuous
 62
     7
100
AcDbLine
 10
118.8707249175
 20
131.9917757862
 30
0.0
 11
118.9160075175
 21
132.0070403318
 31
0.0
  0
ARC
  5
300
330
285
100
AcDbEntity
  8
$DDT_AUDIT_GENERATED_(11D)
  6
Continuous
 62
     7
100
AcDbCircle
 10
111.5171001778
 20
153.8721870242
 30
0.0
 40
23.0830715624803
100
AcDbArc
 50
288.2379155702
 51
288.5765991572
  0
LINE
  5
301
330
285
100
AcDbEntity
  8
$DDT_AUDIT_GENERATED_(11D)
  6
Continuous
 62
     7
100
AcDbLine
 10
106.726544374
 20
130.7519343894
 30
0.0
 11
106.7230452462
 21
130.8855606893
 31
0.0
  0
LINE
  5
302
330
285
100
AcDbEntity
  8
$DDT_AUDIT_GENERATED_(11D)
  6
Continuous
 62
     7
100
AcDbLine
 10
115.0992095617
 20
130.8855391973
 30
0.0
 11
115.095924029
 21
130.7600697655
 31
0.0
  0
ARC
  5
303
330
285
100
AcDbEntity
  8
$DDT_AUDIT_GENERATED_(11D)
  6
Continuous
 62
     7
100
AcDbCircle
 10
106.5231137812
 20
130.8803252996
 30
0.0
 40
0.2000000000000003
100
AcDbArc
 50
1.5
 51
80.0712339121
  0
ARC
  5
304
330
285
100
AcDbEntity
  8
$DDT_AUDIT_GENERATED_(11D)
  6
Continuous
 62
     7
100
AcDbCircle
 10
115.2991410267
 20
130.8803038077
 30
0.0
 40
0.2000000000000125
100
AcDbArc
 50
99.9285269514
 51
178.5
  0
LINE
  5
305
330
285
100
AcDbEntity
  8
$DDT_AUDIT_GENERATED_(11D)
  6
Continuous
 62
     7
100
AcDbLine
 10
106.3709284325
 20
149.4502475259
 30
0.0
 11
106.3741591474
 21
149.5736235512
 31
0.0
  0
ARC
  5
306
330
285
100
AcDbEntity
  8
$DDT_AUDIT_GENERATED_(11D)
  6
Continuous
 62
     7
100
AcDbCircle
 10
106.1709969675
 20
149.4554829157
 30
0.0
 40
0.1999999999999982
100
AcDbArc
 50
280.74256551
 51
358.5
  0
LINE
  5
307
330
285
100
AcDbEntity
  8
$DDT_AUDIT_GENERATED_(11D)
  6
Continuous
 62
     7
100
AcDbLine
 10
115.4477988298
 20
149.5849805476
 30
0.0
 11
115.4513274491
 21
149.4502280121
 31
0.0
  0
ARC
  5
308
330
285
100
AcDbEntity
  8
$DDT_AUDIT_GENERATED_(11D)
  6
Continuous
 62
     7
100
AcDbCircle
 10
115.6512589141
 20
149.4554634019
 30
0.0
 40
0.1999999999999999
100
AcDbArc
 50
181.5
 51
259.2576357399
  0
ARC
  5
309
330
285
100
AcDbEntity
  8
$DDT_AUDIT_GENERATED_(11D)
  6
Continuous
 62
     7
100
AcDbCircle
 10
117.1622165843
 20
149.1201736085
 30
0.0
 40
0.2000000000000008
100
AcDbArc
 50
255.7145063462
 51
358.5
  0
ARC
  5
30A
330
285
100
AcDbEntity
  8
$DDT_AUDIT_GENERATED_(11D)
  6
Continuous
 62
     7
100
AcDbCircle
 10
117.5102619371
 20
131.3711174226
 30
0.0
 40
0.1999999999999999
100
AcDbArc
 50
1.5
 51
105.1143553558
  0
ARC
  5
30B
330
285
100
AcDbEntity
  8
$DDT_AUDIT_GENERATED_(11D)
  6
Continuous
 62
     7
100
AcDbCircle
 10
104.3119938482
 20
131.3711332585
 30
0.0
 40
0.1999999999999932
100
AcDbArc
 50
74.8859769167
 51
178.5
  0
ARC
  5
30C
330
285
100
AcDbEntity
  8
$DDT_AUDIT_GENERATED_(11D)
  6
Continuous
 62
     7
100
AcDbCircle
 10
104.6600383224
 20
149.1201913269
 30
0.0
 40
0.1999999999999999
100
AcDbArc
 50
181.5
 51
284.2857558453
  0
ARC
  5
30D
330
285
100
AcDbEntity
  8
$DDT_AUDIT_GENERATED_(11D)
  6
Continuous
 62
     7
100
AcDbCircle
 10
118.9920213143
 20
148.3020992591
 30
0.0
 40
0.0411553050117419
100
AcDbArc
 50
22.8415319241
 51
47.893265441
  0
ARC
  5
30E
330
285
100
AcDbEntity
  8
$DDT_AUDIT_GENERATED_(11D)
  6
Continuous
 62
     7
100
AcDbCircle
 10
118.7390266896
 20
147.880567912
 30
0.0
 40
0.542162483028554
100
AcDbArc
 50
72.3062576521
 51
74.716814217
  0
LINE
  5
30F
330
285
100
AcDbEntity
  8
$DDT_AUDIT_GENERATED_(11D)
  6
Continuous
 62
     7
100
AcDbLine
 10
119.0745192446
 20
148.2674255449
 30
0.0
 11
119.0315620057
 21
148.3202214811
 31
0.0
  0
ARC
  5
310
330
285
100
AcDbEntity
  8
$DDT_AUDIT_GENERATED_(11D)
  6
Continuous
 62
     7
100
AcDbCircle
 10
103.0830778359
 20
147.8810111371
 30
0.0
 40
0.5416961473584725
100
AcDbArc
 50
105.2823236648
 51
107.693553394
  0
LINE
  5
311
330
285
100
AcDbEntity
  8
$DDT_AUDIT_GENERATED_(11D)
  6
Continuous
 62
     7
100
AcDbLine
 10
102.7906934949
 20
148.3202216722
 30
0.0
 11
102.7477370973
 21
148.2674253011
 31
0.0
  0
ARC
  5
312
330
285
100
AcDbEntity
  8
$DDT_AUDIT_GENERATED_(11D)
  6
Continuous
 62
     7
100
AcDbCircle
 10
102.8302362928
 20
132.0979053222
 30
0.0
 40
0.0411582274660705
100
AcDbArc
 50
202.8431506455
 51
227.892875557
  0
ARC
  5
313
330
285
100
AcDbEntity
  8
$DDT_AUDIT_GENERATED_(11D)
  6
Continuous
 62
     7
100
AcDbCircle
 10
103.0786690515
 20
132.5041955695
 30
0.0
 40
0.5262605528981428
100
AcDbArc
 50
252.2885794411
 51
254.7584005781
  0
LINE
  5
314
330
285
100
AcDbEntity
  8
$DDT_AUDIT_GENERATED_(11D)
  6
Continuous
 62
     7
100
AcDbLine
 10
102.747736193
 20
132.1325770579
 30
0.0
 11
102.7906934057
 21
132.0797810483
 31
0.0
  0
ARC
  5
315
330
285
100
AcDbEntity
  8
$DDT_AUDIT_GENERATED_(11D)
  6
Continuous
 62
     7
100
AcDbCircle
 10
119.0169460024
 20
132.1153966328
 30
0.0
 40
0.0359078127930103
100
AcDbArc
 50
291.2309336655
 51
318.3060876463
  0
ARC
  5
316
330
285
100
AcDbEntity
  8
$DDT_AUDIT_GENERATED_(11D)
  6
Continuous
 62
     7
100
AcDbCircle
 10
118.8534303125
 20
132.264489528
 30
0.0
 40
0.2577233567169633
100
AcDbArc
 50
331.8631045971
 51
337.785940506
  0
SPLINE
  5
317
330
285
100
AcDbEntity
  8
$DDT_AUDIT_GENERATED_(11D)
  6
Continuous
 62
     7
100
AcDbSpline
210
0.0
220
0.0
230
1.0
 70
     8
 71
     3
 72
     8
 73
     4
 74
     0
 42
0.0000010121347829
 43
0.0000000001
 40
0.5211496816248005
 40
0.5211496816248005
 40
0.5211496816248005
 40
0.5211496816248005
 40
1.0
 40
1.0
 40
1.0
 40
1.0
 10
119.0881573278348
 20
132.1596383366542
 30
0.0
 10
119.0888850156647
 20
132.1595095433256
 30
0.0
 10
119.0898453392218
 20
132.160575975421
 30
0.0
 10
119.0910382985059
 20
132.1628376329406
 30
0.0
  0
ARC
  5
318
330
285
100
AcDbEntity
  8
$DDT_AUDIT_GENERATED_(11D)
  6
Continuous
 62
     7
100
AcDbCircle
 10
124.2822979155
 20
130.4907222041
 30
0.0
 40
5.452383644222559
100
AcDbArc
 50
161.470285177
 51
161.8261382906
  0
LINE
  5
319
330
285
100
AcDbEntity
  8
$DDT_AUDIT_GENERATED_(11D)
  6
Continuous
 62
     7
100
AcDbLine
 10
118.9785570071
 20
132.0366129192
 30
0.0
 11
119.0315618279
 21
132.0797804319
 31
0.0
  0
LINE
  5
31B
330
285
100
AcDbEntity
  8
$DDT_AUDIT_GENERATED_(31A)
  6
Continuous
 62
     7
100
AcDbLine
 10
116.8147701024
 20
149.3
 30
0.0
 11
115.882043094
 21
149.3
 31
0.0
  0
LINE
  5
31C
330
285
100
AcDbEntity
  8
$DDT_AUDIT_GENERATED_(31A)
  6
Continuous
 62
     7
100
AcDbLine
 10
115.8021312061
 20
149.5178172419
 30
0.0
 11
115.8021312061
 21
149.3227620361
 31
0.0
  0
LINE
  5
31D
330
285
100
AcDbEntity
  8
$DDT_AUDIT_GENERATED_(31A)
  6
Continuous
 62
     7
100
AcDbLine
 10
106.0201241645
 20
149.5107438047
 30
0.0
 11
106.0201241645
 21
149.3227620361
 31
0.0
  0
LINE
  5
31E
330
285
100
AcDbEntity
  8
$DDT_AUDIT_GENERATED_(31A)
  6
Continuous
 62
     7
100
AcDbLine
 10
115.675667557
 20
149.5418035015
 30
0.0
 11
115.8021312061
 21
149.3227620361
 31
0.0
  0
LINE
  5
31F
330
285
100
AcDbEntity
  8
$DDT_AUDIT_GENERATED_(31A)
  6
Continuous
 62
     7
100
AcDbLine
 10
105.9402122766
 20
149.3
 30
0.0
 11
104.9947212321
 21
149.3
 31
0.0
  0
ARC
  5
320
330
285
100
AcDbEntity
  8
$DDT_AUDIT_GENERATED_(31A)
  6
Continuous
 62
     7
100
AcDbCircle
 10
110.9111276854
 20
131.9999999995
 30
0.0
 40
18.00000000048234
100
AcDbArc
 50
105.7667864861
 51
106.0312717848
  0
ARC
  5
321
330
285
100
AcDbEntity
  8
$DDT_AUDIT_GENERATED_(31A)
  6
Continuous
 62
     7
100
AcDbCircle
 10
110.9111276854
 20
132.0000000002
 30
0.0
 40
17.99999999975578
100
AcDbArc
 50
73.9687282152
 51
74.2332135139
  0
LINE
  5
322
330
285
100
AcDbEntity
  8
$DDT_AUDIT_GENERATED_(31A)
  6
Continuous
 62
     7
100
AcDbLine
 10
115.882043094
 20
149.3
 30
0.0
 11
115.525437093
 21
149.3
 31
0.0
  0
LINE
  5
323
330
285
100
AcDbEntity
  8
$DDT_AUDIT_GENERATED_(31A)
  6
Continuous
 62
     7
100
AcDbLine
 10
106.2967946739
 20
149.3
 30
0.0
 11
105.9402122766
 21
149.3
 31
0.0
  0
LINE
  5
324
330
285
100
AcDbEntity
  8
$DDT_AUDIT_GENERATED_(31A)
  6
Continuous
 62
     7
100
AcDbLine
 10
106.0201241645
 20
149.3227620361
 30
0.0
 11
106.141064765
 21
149.5322373009
 31
0.0
  0
LINE
  5
326
330
285
100
AcDbEntity
  8
$DDT_AUDIT_GENERATED_(325)
  6
Continuous
 62
     7
100
AcDbLine
 10
116.07672917
 20
149.15
 30
0.0
 11
117.4137220377
 21
149.15
 31
0.0
  0
SPLINE
  5
327
330
285
100
AcDbEntity
  8
$DDT_AUDIT_GENERATED_(B1)
  6
Continuous
 62
     7
100
AcDbSpline
210
0.0
220
0.0
230
1.0
 70
     8
 71
     3
 72
    10
 73
     6
 74
     0
 42
0.0000000012493713
 43
0.0000000001
 40
0.4999972331171658
 40
0.4999972331171658
 40
0.4999972331171658
 40
0.4999972331171658
 40
0.5
 40
0.5
 40
1.0
 40
1.0
 40
1.0
 40
1.0
 10
139.0091150906501
 20
168.4397258692437
 30
0.0
 10
139.0091150909028
 20
168.4397258686657
 30
0.0
 10
139.0091150911143
 20
168.4397258680877
 30
0.0
 10
139.0091458988522
 20
168.4396214078244
 30
0.0
 10
137.6688603125611
 20
168.4367636350139
 30
0.0
 10
135.0072228778205
 20
168.4374242359181
 30
0.0
  0
SPLINE
  5
328
330
285
100
AcDbEntity
  8
$DDT_AUDIT_GENERATED_(B1)
  6
Continuous
 62
     7
100
AcDbSpline
210
0.0
220
0.0
230
1.0
 70
     8
 71
     3
 72
    17
 73
    13
 74
     0
 42
0.0000002141212903
 43
0.0000000001
 40
0.0
 40
0.0
 40
0.0
 40
0.0
 40
0.0685502694321959
 40
0.0685502694321959
 40
0.0685502694321959
 40
0.3765818260781983
 40
0.3765818260781983
 40
0.3765818260781983
 40
0.684202174240848
 40
0.684202174240848
 40
0.684202174240848
 40
1.0
 40
1.0
 40
1.0
 40
1.0
 10
135.0072228778205
 20
168.4374242359181
 30
0.0
 10
135.0062572078968
 20
168.4374342135029
 30
0.0
 10
135.0052910167724
 20
168.4374075892734
 30
0.0
 10
135.0043246423623
 20
168.4373489397415
 30
0.0
 10
134.9999863598666
 20
168.4370856481691
 30
0.0
 10
134.9956409287192
 20
168.4361470700323
 30
0.0
 10
134.9913104702464
 20
168.4347434756357
 30
0.0
 10
134.9869832931732
 20
168.4333409448111
 30
0.0
 10
134.9826651464242
 20
168.4315092906151
 30
0.0
 10
134.9783468426049
 20
168.4296396306451
 30
0.0
 10
134.9739252146014
 20
168.4277252352652
 30
0.0
 10
134.9693150062758
 20
168.4266330780915
 30
0.0
 10
134.9652224974333
 20
168.4210073674952
 30
0.0
  0
ARC
  5
329
330
285
100
AcDbEntity
  8
$DDT_AUDIT_GENERATED_(B1)
  6
Continuous
 62
     7
100
AcDbCircle
 10
135.1009563731
 20
168.3372285089
 30
0.0
 40
0.1595073106377305
100
AcDbArc
 50
148.3159200167
 51
167.5402049251
  0
LINE
  5
32A
330
285
100
AcDbEntity
  8
$DDT_AUDIT_GENERATED_(B1)
  6
Continuous
 62
     7
100
AcDbLine
 10
134.9291034423
 20
166.4154162261
 30
0.0
 11
134.9319100107
 21
166.4103861294
 31
0.0
  0
SPLINE
  5
32B
330
285
100
AcDbEntity
  8
$DDT_AUDIT_GENERATED_(B1)
  6
Continuous
 62
     7
100
AcDbSpline
210
0.0
220
0.0
230
1.0
 70
     8
 71
     3
 72
    12
 73
     8
 74
     0
 42
0.0000001562649445
 43
0.0000000001
 40
0.0
 40
0.0
 40
0.0
 40
0.0
 40
0.2500000000000184
 40
0.2500000000000184
 40
0.5000000000000367
 40
0.5000000000000367
 40
1.0
 40
1.0
 40
1.0
 40
1.0
 10
134.9319100107372
 20
166.4103861293518
 30
0.0
 10
134.9361640170744
 20
166.4034381063657
 30
0.0
 10
134.9412126472358
 20
166.4013825424693
 30
0.0
 10
134.9510239200975
 20
166.3980923009428
 30
0.0
 10
134.9559452603928
 20
166.3968977940881
 30
0.0
 10
134.9706897178044
 20
166.3931772552514
 30
0.0
 10
134.9805339174971
 20
166.3918917817493
 30
0.0
 10
134.99038296033
 20
166.391894654696
 30
0.0
  0
SPLINE
  5
32C
330
285
100
AcDbEntity
  8
$DDT_AUDIT_GENERATED_(B1)
  6
Continuous
 62
     7
100
AcDbSpline
210
0.0
220
0.0
230
1.0
 70
     8
 71
     3
 72
     8
 73
     4
 74
     0
 42
0.0000000012528379
 43
0.0000000001
 40
0.0
 40
0.0
 40
0.0
 40
0.0
 40
0.5000526376422585
 40
0.5000526376422585
 40
0.5000526376422585
 40
0.5000526376422585
 10
134.99038296033
 20
166.391894654696
 30
0.0
 10
137.6510829755951
 20
166.3920029077341
 30
0.0
 10
138.9816282963059
 20
166.3919954097643
 30
0.0
 10
138.9815189835334
 20
166.391962944567
 30
0.0
  0
LINE
  5
32D
330
285
100
AcDbEntity
  8
$DDT_AUDIT_GENERATED_(B1)
  6
Continuous
 62
     7
100
AcDbLine
 10
134.7388379291
 20
166.4172829978
 30
0.0
 11
134.7445194116
 21
168.3679749602
 31
0.0
  0
ARC
  5
32E
330
285
100
AcDbEntity
  8
$DDT_AUDIT_GENERATED_(B1)
  6
Continuous
 62
     7
100
AcDbCircle
 10
134.6152909477
 20
168.2849318735
 30
0.0
 40
0.1536103841562062
100
AcDbArc
 50
32.7250749217
 51
62.3750564635
  0
ARC
  5
32F
330
285
100
AcDbEntity
  8
$DDT_AUDIT_GENERATED_(B1)
  6
Continuous
 62
     7
100
AcDbCircle
 10
134.5662149161
 20
167.9891459389
 30
0.0
 40
0.4483272505400059
100
AcDbArc
 50
74.4347229647
 51
89.8181998369
  0
SPLINE
  5
330
330
285
100
AcDbEntity
  8
$DDT_AUDIT_GENERATED_(B1)
  6
Continuous
 62
     7
100
AcDbSpline
210
0.0
220
0.0
230
1.0
 70
     8
 71
     3
 72
    10
 73
     6
 74
     0
 42
0.0000000002113581
 43
0.0000000001
 40
0.0
 40
0.0
 40
0.0
 40
0.0
 40
0.5
 40
0.5
 40
1.0
 40
1.0
 40
1.0
 40
1.0
 10
134.5676374611666
 20
168.437470932611
 30
0.0
 10
126.9881136894015
 20
168.4387961246358
 30
0.0
 10
118.9469147886598
 20
168.4398267571781
 30
0.0
 10
102.8754771550274
 20
168.4396249777822
 30
0.0
 10
94.83678064312862
 20
168.4367707586005
 30
0.0
 10
87.25456962028952
 20
168.4374348180062
 30
0.0
  0
ARC
  5
331
330
285
100
AcDbEntity
  8
$DDT_AUDIT_GENERATED_(B1)
  6
Continuous
 62
     7
100
AcDbCircle
 10
87.2582874336
 20
167.9719978941
 30
0.0
 40
0.4654517722723781
100
AcDbArc
 50
90.4576570301
 51
105.2692974382
  0
ARC
  5
332
330
285
100
AcDbEntity
  8
$DDT_AUDIT_GENERATED_(B1)
  6
Continuous
 62
     7
100
AcDbCircle
 10
87.2092794765
 20
168.2828842245
 30
0.0
 40
0.1565052428692025
100
AcDbArc
 50
118.0401707415
 51
145.4458647501
  0
LINE
  5
333
330
285
100
AcDbEntity
  8
$DDT_AUDIT_GENERATED_(B1)
  6
Continuous
 62
     7
100
AcDbLine
 10
87.0860540568
 20
166.4154059108
 30
0.0
 11
87.0941150483
 21
166.410374723
 31
0.0
  0
SPLINE
  5
334
330
285
100
AcDbEntity
  8
$DDT_AUDIT_GENERATED_(B1)
  6
Continuous
 62
     7
100
AcDbSpline
210
0.0
220
0.0
230
1.0
 70
     8
 71
     3
 72
    12
 73
     8
 74
     0
 42
0.0000000592408481
 43
0.0000000001
 40
0.0
 40
0.0
 40
0.0
 40
0.0
 40
0.2500000000000184
 40
0.2500000000000184
 40
0.5000000000000367
 40
0.5000000000000367
 40
1.0
 40
1.0
 40
1.0
 40
1.0
 10
87.09411502563039
 20
166.4103746852956
 30
0.0
 10
87.1063164717255
 20
166.403426493235
 30
0.0
 10
87.12064701812328
 20
166.4013708750355
 30
0.0
 10
87.14851108949321
 20
166.3980802502059
 30
0.0
 10
87.1624899791691
 20
166.3968861642611
 30
0.0
 10
87.2044175078068
 20
166.3931657381387
 30
0.0
 10
87.23243619371809
 20
166.3918801881254
 30
0.0
 10
87.26049237246605
 20
166.3918830660012
 30
0.0
  0
SPLINE
  5
335
330
285
100
AcDbEntity
  8
$DDT_AUDIT_GENERATED_(B1)
  6
Continuous
 62
     7
100
AcDbSpline
210
0.0
220
0.0
230
1.0
 70
     8
 71
     3
 72
     8
 73
     4
 74
     0
 42
0.000000000211411
 43
0.0000000001
 40
0.0
 40
0.0
 40
0.0
 40
0.0
 40
1.0
 40
1.0
 40
1.0
 40
1.0
 10
87.26049237246605
 20
166.3918830660012
 30
0.0
 10
102.4179414434337
 20
166.3921071096265
 30
0.0
 10
119.3985669078737
 20
166.3918687224713
 30
0.0
 10
134.5617186249573
 20
166.3918930143799
 30
0.0
  0
SPLINE
  5
336
330
285
100
AcDbEntity
  8
$DDT_AUDIT_GENERATED_(B1)
  6
Continuous
 62
     7
100
AcDbSpline
210
0.0
220
0.0
230
1.0
 70
     8
 71
     3
 72
    12
 73
     8
 74
     0
 42
0.0000000592232162
 43
0.0000000001
 40
0.0
 40
0.0
 40
0.0
 40
0.0
 40
0.5000000000000274
 40
0.5000000000000274
 40
0.7500000000000138
 40
0.7500000000000138
 40
1.0
 40
1.0
 40
1.0
 40
1.0
 10
134.5617186249573
 20
166.3918930143799
 30
0.0
 10
134.5897580816379
 20
166.3918905118825
 30
0.0
 10
134.6177888505979
 20
166.3931760198636
 30
0.0
 10
134.6597018437141
 20
166.3968954684762
 30
0.0
 10
134.6736887373652
 20
166.3980912720923
 30
0.0
 10
134.7015268351153
 20
166.4013771246628
 30
0.0
 10
134.7154134147856
 20
166.4031606067518
 30
0.0
 10
134.7281051712091
 20
166.410388129386
 30
0.0
  0
LINE
  5
337
330
285
100
AcDbEntity
  8
$DDT_AUDIT_GENERATED_(B1)
  6
Continuous
 62
     7
100
AcDbLine
 10
134.7281051712
 20
166.4103881294
 30
0.0
 11
134.7388379291
 21
166.4172829978
 31
0.0
  0
SPLINE
  5
338
330
285
100
AcDbEntity
  8
$DDT_AUDIT_GENERATED_(B1)
  6
Continuous
 62
     7
100
AcDbSpline
210
0.0
220
0.0
230
1.0
 70
     8
 71
     3
 72
    12
 73
     8
 74
     0
 42
0.0000001561378419
 43
0.0000000001
 40
0.0
 40
0.0
 40
0.0
 40
0.0
 40
0.4999999999999729
 40
0.4999999999999729
 40
0.7499999999999865
 40
0.7499999999999865
 40
1.0
 40
1.0
 40
1.0
 40
1.0
 10
86.83184711347964
 20
166.3918814258129
 30
0.0
 10
86.8416888484374
 20
166.3918790073134
 30
0.0
 10
86.85153763195784
 20
166.3931654837681
 30
0.0
 10
86.86627485097567
 20
166.3968854533188
 30
0.0
 10
86.87119339965209
 20
166.3980797303358
 30
0.0
 10
86.88100691202692
 20
166.4013704171736
 30
0.0
 10
86.8859109933859
 20
166.4031860565111
 30
0.0
 10
86.89031273682963
 20
166.4103766853872
 30
0.0
  0
LINE
  5
339
330
285
100
AcDbEntity
  8
$DDT_AUDIT_GENERATED_(B1)
  6
Continuous
 62
     7
100
AcDbLine
 10
86.8903127368
 20
166.4103766854
 30
0.0
 11
86.8940479243
 21
166.4172709783
 31
0.0
  0
LINE
  5
33A
330
285
100
AcDbEntity
  8
$DDT_AUDIT_GENERATED_(B1)
  6
Continuous
 62
     7
100
AcDbLine
 10
86.8940479243
 20
166.4172709783
 30
0.0
 11
86.8780003893
 21
168.3679835076
 31
0.0
  0
ARC
  5
33B
330
285
100
AcDbEntity
  8
$DDT_AUDIT_GENERATED_(B1)
  6
Continuous
 62
     7
100
AcDbCircle
 10
86.7137514081
 20
168.3336667672
 30
0.0
 40
0.1677956092833724
100
AcDbArc
 50
11.8011165374
 51
31.3809161708
  0
SPLINE
  5
33C
330
285
100
AcDbEntity
  8
$DDT_AUDIT_GENERATED_(B1)
  6
Continuous
 62
     7
100
AcDbSpline
210
0.0
220
0.0
230
1.0
 70
     8
 71
     3
 72
    10
 73
     6
 74
     0
 42
0.0000002086333174
 43
0.0000000001
 40
0.0
 40
0.0
 40
0.0
 40
0.0
 40
0.5
 40
0.5
 40
1.0
 40
1.0
 40
1.0
 40
1.0
 10
86.85700259479106
 20
168.4210421871727
 30
0.0
 10
86.8503458052798
 20
168.4301978499328
 30
0.0
 10
86.84313611439549
 20
168.4301643150932
 30
0.0
 10
86.82909418544138
 20
168.4356637610068
 30
0.0
 10
86.82204791931859
 20
168.4374866445924
 30
0.0
 10
86.81500523681432
 20
168.4374815139243
 30
0.0
  0
SPLINE
  5
33D
330
285
100
AcDbEntity
  8
$DDT_AUDIT_GENERATED_(B1)
  6
Continuous
 62
     7
100
AcDbSpline
210
0.0
220
0.0
230
1.0
 70
     8
 71
     3
 72
     8
 73
     4
 74
     0
 42
0.000000001249389
 43
0.0000000001
 40
0.0
 40
0.0
 40
0.0
 40
0.0
 40
0.4999972331711039
 40
0.4999972331711039
 40
0.4999972331711039
 40
0.4999972331711039
 10
86.81500523681432
 20
168.4374815139243
 30
0.0
 10
84.15463902179822
 20
168.4388032547279
 30
0.0
 10
82.8131859334634
 20
168.4398303156976
 30
0.0
 10
82.81314027995862
 20
168.4397258693243
 30
0.0
  0
LINE
  5
33E
330
285
100
AcDbEntity
  8
$DDT_AUDIT_GENERATED_(B1)
  6
Continuous
 62
     7
100
AcDbLine
 10
87.085528648
 20
168.7
 30
0.0
 11
83.0954777196
 21
168.7
 31
0.0
  0
LINE
  5
33F
330
285
100
AcDbEntity
  8
$DDT_AUDIT_GENERATED_(B1)
  6
Continuous
 62
     7
100
AcDbLine
 10
87.085528648
 20
168.7
 30
0.0
 11
87.1838965073
 21
168.7
 31
0.0
  0
LINE
  5
340
330
285
100
AcDbEntity
  8
$DDT_AUDIT_GENERATED_(B1)
  6
Continuous
 62
     7
100
AcDbLine
 10
87.1838965073
 20
168.7
 30
0.0
 11
87.3496371377
 21
168.7
 31
0.0
  0
LINE
  5
341
330
285
100
AcDbEntity
  8
$DDT_AUDIT_GENERATED_(B1)
  6
Continuous
 62
     7
100
AcDbLine
 10
87.3496371377
 20
168.7
 30
0.0
 11
134.4725843856
 21
168.7
 31
0.0
  0
LINE
  5
342
330
285
100
AcDbEntity
  8
$DDT_AUDIT_GENERATED_(B1)
  6
Continuous
 62
     7
100
AcDbLine
 10
134.4725843856
 20
168.7
 30
0.0
 11
134.6379963767
 21
168.7
 31
0.0
  0
LINE
  5
343
330
285
100
AcDbEntity
  8
$DDT_AUDIT_GENERATED_(B1)
  6
Continuous
 62
     7
100
AcDbLine
 10
134.6379963767
 20
168.7
 30
0.0
 11
134.736102815
 21
168.7
 31
0.0
  0
LINE
  5
344
330
285
100
AcDbEntity
  8
$DDT_AUDIT_GENERATED_(B1)
  6
Continuous
 62
     7
100
AcDbLine
 10
134.736102815
 20
168.7
 30
0.0
 11
138.726777651
 21
168.7
 31
0.0
  0
LINE
  5
345
330
285
100
AcDbEntity
  8
$DDT_AUDIT_GENERATED_(B1)
  6
Continuous
 62
     7
100
AcDbLine
 10
134.7991069959
 20
166.2101980804
 30
0.0
 11
138.778954775
 21
166.2101980804
 31
0.0
  0
LINE
  5
346
330
285
100
AcDbEntity
  8
$DDT_AUDIT_GENERATED_(B1)
  6
Continuous
 62
     7
100
AcDbLine
 10
134.698654746
 20
166.2101980804
 30
0.0
 11
134.7991069959
 21
166.2101980804
 31
0.0
  0
LINE
  5
347
330
285
100
AcDbEntity
  8
$DDT_AUDIT_GENERATED_(B1)
  6
Continuous
 62
     7
100
AcDbLine
 10
134.4945576258
 20
166.2101980804
 30
0.0
 11
134.698654746
 21
166.2101980804
 31
0.0
  0
LINE
  5
348
330
285
100
AcDbEntity
  8
$DDT_AUDIT_GENERATED_(B1)
  6
Continuous
 62
     7
100
AcDbLine
 10
87.3276208338
 20
166.2101980804
 30
0.0
 11
134.4945576258
 21
166.2101980804
 31
0.0
  0
LINE
  5
349
330
285
100
AcDbEntity
  8
$DDT_AUDIT_GENERATED_(B1)
  6
Continuous
 62
     7
100
AcDbLine
 10
87.1235256459
 20
166.2101980804
 30
0.0
 11
87.3276208338
 21
166.2101980804
 31
0.0
  0
LINE
  5
34A
330
285
100
AcDbEntity
  8
$DDT_AUDIT_GENERATED_(B1)
  6
Continuous
 62
     7
100
AcDbLine
 10
87.0231145364
 20
166.2101980804
 30
0.0
 11
87.1235256459
 21
166.2101980804
 31
0.0
  0
LINE
  5
34B
330
285
100
AcDbEntity
  8
$DDT_AUDIT_GENERATED_(B1)
  6
Continuous
 62
     7
100
AcDbLine
 10
87.0231145364
 20
166.2101980804
 30
0.0
 11
83.0433005956
 21
166.2101980804
 31
0.0
  0
SPLINE
  5
34C
330
285
100
AcDbEntity
  8
$DDT_AUDIT_GENERATED_(B1)
  6
Continuous
 62
     7
100
AcDbSpline
210
0.0
220
0.0
230
1.0
 70
     8
 71
     3
 72
    14
 73
    10
 74
     0
 42
0.0000000978361129
 43
0.0000000001
 40
0.0
 40
0.0
 40
0.0
 40
0.0
 40
0.4569676682826705
 40
0.4569676682826705
 40
0.4569676682826705
 40
0.702124784280059
 40
0.702124784280059
 40
0.702124784280059
 40
1.0
 40
1.0
 40
1.0
 40
1.0
 10
86.89404792431192
 20
166.4172709782546
 30
0.0
 10
86.90059837047546
 20
166.4305073562093
 30
0.0
 10
86.90652718794162
 20
166.4476898581942
 30
0.0
 10
86.91603247313958
 20
166.4596998599513
 30
0.0
 10
86.92108938222046
 20
166.4660893038955
 30
0.0
 10
86.927524689774
 20
166.4704188878145
 30
0.0
 10
86.93472535935362
 20
166.4729952661599
 30
0.0
 10
86.94349346636683
 20
166.4761324689977
 30
0.0
 10
86.95364808391298
 20
166.4765918484641
 30
0.0
 10
86.96456851523362
 20
166.4765880993051
 30
0.0
  0
SPLINE
  5
34D
330
285
100
AcDbEntity
  8
$DDT_AUDIT_GENERATED_(B1)
  6
Continuous
 62
     7
100
AcDbSpline
210
0.0
220
0.0
230
1.0
 70
     8
 71
     3
 72
    10
 73
     6
 74
     0
 42
0.0000000705097877
 43
0.0000000001
 40
0.0
 40
0.0
 40
0.0
 40
0.0
 40
0.5
 40
0.5
 40
1.0
 40
1.0
 40
1.0
 40
1.0
 10
86.96456851523362
 20
166.4765880993051
 30
0.0
 10
86.983426208997
 20
166.4765711176425
 30
0.0
 10
87.00553048777009
 20
166.4744338625073
 30
0.0
 10
87.04715150347133
 20
166.4499356471882
 30
0.0
 10
87.06477141795496
 20
166.4297281170423
 30
0.0
 10
87.08605405679607
 20
166.4154059108226
 30
0.0
  0
SPLINE
  5
34E
330
285
100
AcDbEntity
  8
$DDT_AUDIT_GENERATED_(B1)
  6
Continuous
 62
     7
100
AcDbSpline
210
0.0
220
0.0
230
1.0
 70
     8
 71
     3
 72
    17
 73
    13
 74
     0
 42
0.0000000625302484
 43
0.0000000001
 40
0.0
 40
0.0
 40
0.0
 40
0.0
 40
0.3587722214843519
 40
0.3587722214843519
 40
0.3587722214843519
 40
0.5123166507459881
 40
0.5123166507459881
 40
0.5123166507459881
 40
0.6293564452106452
 40
0.6293564452106452
 40
0.6293564452106452
 40
1.0
 40
1.0
 40
1.0
 40
1.0
 10
87.08038322042577
 20
168.3716515959084
 30
0.0
 10
87.06769729081694
 20
168.354872495248
 30
0.0
 10
87.05627936044091
 20
168.3368765859357
 30
0.0
 10
87.04246565198353
 20
168.3215307104488
 30
0.0
 10
87.03658944401137
 20
168.3150027345505
 30
0.0
 10
87.03007223119273
 20
168.3088163987344
 30
0.0
 10
87.02273622691284
 20
168.3049481890748
 30
0.0
 10
87.0171624409724
 20
168.3020091814362
 30
0.0
 10
87.01096091484463
 20
168.3009393974943
 30
0.0
 10
87.00507491171084
 20
168.3005901038104
 30
0.0
 10
86.98639365162782
 20
168.2994814998893
 30
0.0
 10
86.96892298087666
 20
168.3039383681539
 30
0.0
 10
86.9532926235958
 20
168.3039035635965
 30
0.0
  0
SPLINE
  5
34F
330
285
100
AcDbEntity
  8
$DDT_AUDIT_GENERATED_(B1)
  6
Continuous
 62
     7
100
AcDbSpline
210
0.0
220
0.0
230
1.0
 70
     8
 71
     3
 72
    12
 73
     8
 74
     0
 42
0.0000000808507495
 43
0.0000000001
 40
0.0
 40
0.0
 40
0.0
 40
0.0
 40
0.2499999999999885
 40
0.2499999999999885
 40
0.4999999999999769
 40
0.4999999999999769
 40
1.0
 40
1.0
 40
1.0
 40
1.0
 10
86.9532926235958
 20
168.3039035635965
 30
0.0
 10
86.94294517516654
 20
168.3039051167172
 30
0.0
 10
86.93349031068057
 20
168.3022332487677
 30
0.0
 10
86.91623947362636
 20
168.3001183308568
 30
0.0
 10
86.90812417929806
 20
168.2988378878979
 30
0.0
 10
86.88931832282145
 20
168.3179840271033
 30
0.0
 10
86.88421682826105
 20
168.3450025493091
 30
0.0
 10
86.87800038933426
 20
168.3679835075737
 30
0.0
  0
SPLINE
  5
350
330
285
100
AcDbEntity
  8
$DDT_AUDIT_GENERATED_(B1)
  6
Continuous
 62
     7
100
AcDbSpline
210
0.0
220
0.0
230
1.0
 70
     8
 71
     3
 72
    14
 73
    10
 74
     0
 42
0.0000000727197623
 43
0.0000000001
 40
0.0
 40
0.0
 40
0.0
 40
0.0
 40
0.4570160483154573
 40
0.4570160483154573
 40
0.4570160483154573
 40
0.7023283800955038
 40
0.7023283800955038
 40
0.7023283800955038
 40
1.0
 40
1.0
 40
1.0
 40
1.0
 10
134.7388379291345
 20
166.4172829977718
 30
0.0
 10
134.757550883293
 20
166.4305220590332
 30
0.0
 10
134.7737776313815
 20
166.4477086808466
 30
0.0
 10
134.7920479063256
 20
166.4597152679561
 30
0.0
 10
134.8017731375045
 20
166.4661063505022
 30
0.0
 10
134.8122995058517
 20
166.4704339889278
 30
0.0
 10
134.8224222193886
 20
166.4730098104023
 30
0.0
 10
134.834732316939
 20
166.4761422327028
 30
0.0
 10
134.8467385295646
 20
166.4765991859659
 30
0.0
 10
134.8576500960348
 20
166.4765968564776
 30
0.0
  0
SPLINE
  5
351
330
285
100
AcDbEntity
  8
$DDT_AUDIT_GENERATED_(B1)
  6
Continuous
 62
     7
100
AcDbSpline
210
0.0
220
0.0
230
1.0
 70
     8
 71
     3
 72
    10
 73
     6
 74
     0
 42
0.0000000943744381
 43
0.0000000001
 40
0.0
 40
0.0
 40
0.0
 40
0.0
 40
0.5
 40
0.5
 40
1.0
 40
1.0
 40
1.0
 40
1.0
 10
134.8576500960348
 20
166.4765968564776
 30
0.0
 10
134.8765009035219
 20
166.4765821531022
 30
0.0
 10
134.8927852859763
 20
166.474440198425
 30
0.0
 10
134.9155135799383
 20
166.4499807431879
 30
0.0
 10
134.9216552091667
 20
166.429745031921
 30
0.0
 10
134.9291034423412
 20
166.4154162260735
 30
0.0
  0
SPLINE
  5
352
330
285
100
AcDbEntity
  8
$DDT_AUDIT_GENERATED_(B1)
  6
Continuous
 62
     7
100
AcDbSpline
210
0.0
220
0.0
230
1.0
 70
     8
 71
     3
 72
    17
 73
    13
 74
     0
 42
0.0000000796299469
 43
0.0000000001
 40
0.0
 40
0.0
 40
0.0
 40
0.0
 40
0.3587768476965117
 40
0.3587768476965117
 40
0.3587768476965117
 40
0.512326926125857
 40
0.512326926125857
 40
0.512326926125857
 40
0.6293809511096106
 40
0.6293809511096106
 40
0.6293809511096106
 40
1.0
 40
1.0
 40
1.0
 40
1.0
 10
134.9452058354068
 20
168.3716429267183
 30
0.0
 10
134.9405337568307
 20
168.3548640335071
 30
0.0
 10
134.9362412770209
 20
168.3368682552579
 30
0.0
 10
134.9300779363032
 20
168.3215228136351
 30
0.0
 10
134.9274560566208
 20
168.3149948763603
 30
0.0
 10
134.9243931285255
 20
168.3088086358131
 30
0.0
 10
134.9204892952245
 20
168.3049409194815
 30
0.0
 10
134.9175229585155
 20
168.3020020263346
 30
0.0
 10
134.913918258819
 20
168.3009328480325
 30
0.0
 10
134.9102117777897
 20
168.3005838976307
 30
0.0
 10
134.8984501630778
 20
168.2994765885289
 30
0.0
 10
134.8845537979846
 20
168.3039324817099
 30
0.0
 10
134.8689262156177
 20
168.3038976802457
 30
0.0
  0
SPLINE
  5
353
330
285
100
AcDbEntity
  8
$DDT_AUDIT_GENERATED_(B1)
  6
Continuous
 62
     7
100
AcDbSpline
210
0.0
220
0.0
230
1.0
 70
     8
 71
     3
 72
    12
 73
     8
 74
     0
 42
0.0000000635999627
 43
0.0000000001
 40
0.0
 40
0.0
 40
0.0
 40
0.0
 40
0.2500000000000001
 40
0.2500000000000001
 40
0.5000000000000002
 40
0.5000000000000002
 40
1.0
 40
1.0
 40
1.0
 40
1.0
 10
134.8689262156177
 20
168.3038976802457
 30
0.0
 10
134.8585802409487
 20
168.3038992334868
 30
0.0
 10
134.8475990169057
 20
168.3022274226217
 30
0.0
 10
134.8243183714289
 20
168.300112457576
 30
0.0
 10
134.8114604737154
 20
168.2988318447402
 30
0.0
 10
134.7760896029646
 20
168.3179765745375
 30
0.0
 10
134.7613484481856
 20
168.3449945583583
 30
0.0
 10
134.7445194115731
 20
168.367974960173
 30
0.0
  0
SPLINE
  5
354
330
285
100
AcDbEntity
  8
$DDT_AUDIT_GENERATED_(B1)
  6
Continuous
 62
     7
100
AcDbSpline
210
0.0
220
0.0
230
1.0
 70
     8
 71
     3
 72
     8
 73
     4
 74
     0
 42
0.000000001251906
 43
0.0000000001
 40
0.5000016613673932
 40
0.5000016613673932
 40
0.5000016613673932
 40
0.5000016613673932
 40
1.0
 40
1.0
 40
1.0
 40
1.0
 10
82.83795626123523
 20
166.3919626457156
 30
0.0
 10
82.83803865306608
 20
166.3919305445419
 30
0.0
 10
84.16941336933321
 20
166.391873066539
 30
0.0
 10
86.83184711347964
 20
166.3918814258129
 30
0.0
  0
LINE
  5
355
330
285
100
AcDbEntity
  8
$DDT_AUDIT_GENERATED_(B1)
  6
Continuous
 62
     7
100
AcDbLine
 10
138.9911312887
 20
166.3789862766
 30
0.0
 11
139.0092224775
 21
168.4520311827
 31
0.0
  0
LINE
  5
356
330
285
100
AcDbEntity
  8
$DDT_AUDIT_GENERATED_(B1)
  6
Continuous
 62
     7
100
AcDbLine
 10
82.8130328932
 20
168.4520311698
 30
0.0
 11
82.8311240631
 21
166.3789884391
 31
0.0
  0
ARC
  5
357
330
285
100
AcDbEntity
  8
$DDT_AUDIT_GENERATED_(B1)
  6
Continuous
 62
     7
100
AcDbCircle
 10
83.1104964839
 20
168.4004413117
 30
0.0
 40
0.2999318349967987
100
AcDbArc
 50
91.3042062235
 51
173.9441890604
  0
ARC
  5
358
330
285
100
AcDbEntity
  8
$DDT_AUDIT_GENERATED_(B1)
  6
Continuous
 62
     7
100
AcDbCircle
 10
83.1109316066
 20
166.5007743641
 30
0.0
 40
0.300550042125511
100
AcDbArc
 50
200.6145598868
 51
255.5891728352
  0
ARC
  5
359
330
285
100
AcDbEntity
  8
$DDT_AUDIT_GENERATED_(B1)
  6
Continuous
 62
     7
100
AcDbCircle
 10
138.7113233313
 20
166.5007751582
 30
0.0
 40
0.3005509215283224
100
AcDbArc
 50
284.4111903059
 51
339.3321793924
  0
ARC
  5
35A
330
285
100
AcDbEntity
  8
$DDT_AUDIT_GENERATED_(B1)
  6
Continuous
 62
     7
100
AcDbCircle
 10
138.7117588867
 20
168.4004413117
 30
0.0
 40
0.2999318349988161
100
AcDbArc
 50
6.055810951
 51
88.6957937761
  0
ARC
  5
35B
330
285
100
AcDbEntity
  8
$DDT_AUDIT_GENERATED_(B1)
  6
Continuous
 62
     7
100
AcDbCircle
 10
136.2442973986
 20
166.0101980804
 30
0.0
 40
0.2000000000000033
100
AcDbArc
 50
90.0
 51
107.5083639531
  0
LINE
  5
35C
330
285
100
AcDbEntity
  8
$DDT_AUDIT_GENERATED_(171)
  6
Continuous
 62
     7
100
AcDbLine
 10
84.3089824979
 20
173.2495408413
 30
0.0
 11
84.1187827187
 21
173.2495438871
 31
0.0
  0
LINE
  5
35D
330
285
100
AcDbEntity
  8
$DDT_AUDIT_GENERATED_(171)
  6
Continuous
 62
     7
100
AcDbLine
 10
138.6888917625
 20
173.2495498014
 30
0.0
 11
137.5122333371
 21
173.2495283096
 31
0.0
  0
SPLINE
  5
35E
330
285
100
AcDbEntity
  8
$DDT_AUDIT_GENERATED_(171)
  6
Continuous
 62
     7
100
AcDbSpline
210
0.0
220
0.0
230
1.0
 70
     8
 71
     3
 72
     8
 73
     4
 74
     0
 42
0.0000000319745182
 43
0.0000000001
 40
0.0
 40
0.0
 40
0.0
 40
0.0
 40
1.0
 40
1.0
 40
1.0
 40
1.0
 10
84.11878271874647
 20
173.2495438870866
 30
0.0
 10
83.9693391577605
 20
173.2495531993084
 30
0.0
 10
83.97359792604664
 20
173.2495626618025
 30
0.0
 10
84.13264462947032
 20
173.2495720875443
 30
0.0
  0
LINE
  5
35F
330
285
100
AcDbEntity
  8
$DDT_AUDIT_GENERATED_(171)
  6
Continuous
 62
     7
100
AcDbLine
 10
84.1326446295
 20
173.2495720875
 30
0.0
 11
87.8798300664
 21
173.2496394951
 31
0.0
  0
LINE
  5
360
330
285
100
AcDbEntity
  8
$DDT_AUDIT_GENERATED_(171)
  6
Continuous
 62
     7
100
AcDbLine
 10
87.8798300664
 20
173.2496394951
 30
0.0
 11
88.2502829281
 21
173.2496404988
 31
0.0
  0
LINE
  5
361
330
285
100
AcDbEntity
  8
$DDT_AUDIT_GENERATED_(171)
  6
Continuous
 62
     7
100
AcDbLine
 10
88.2502829281
 20
173.2496404988
 30
0.0
 11
134.5701052876
 21
173.2497351921
 31
0.0
  0
LINE
  5
362
330
285
100
AcDbEntity
  8
$DDT_AUDIT_GENERATED_(171)
  6
Continuous
 62
     7
100
AcDbLine
 10
134.5701052876
 20
173.2497351921
 30
0.0
 11
134.9405530366
 21
173.2497332059
 31
0.0
  0
LINE
  5
363
330
285
100
AcDbEntity
  8
$DDT_AUDIT_GENERATED_(171)
  6
Continuous
 62
     7
100
AcDbLine
 10
134.9405530366
 20
173.2497332059
 30
0.0
 11
138.7005598122
 21
173.2495937689
 31
0.0
  0
SPLINE
  5
364
330
285
100
AcDbEntity
  8
$DDT_AUDIT_GENERATED_(171)
  6
Continuous
 62
     7
100
AcDbSpline
210
0.0
220
0.0
230
1.0
 70
     8
 71
     3
 72
     8
 73
     4
 74
     0
 42
0.0000000442584543
 43
0.0000000001
 40
0.0
 40
0.0
 40
0.0
 40
0.0
 40
0.4862447282529815
 40
0.4862447282529815
 40
0.4862447282529815
 40
0.4862447282529815
 10
138.7005598122024
 20
173.2495937688516
 30
0.0
 10
138.7737191391882
 20
173.2495858699688
 30
0.0
 10
138.8102982068429
 20
173.2495783461392
 30
0.0
 10
138.8104244326146
 20
173.2495711982444
 30
0.0
  0
SPLINE
  5
365
330
285
100
AcDbEntity
  8
$DDT_AUDIT_GENERATED_(171)
  6
Continuous
 62
     7
100
AcDbSpline
210
0.0
220
0.0
230
1.0
 70
     8
 71
     3
 72
     8
 73
     4
 74
     0
 42
0.0000000416306292
 43
0.0000000001
 40
0.494146342403967
 40
0.494146342403967
 40
0.494146342403967
 40
0.494146342403967
 40
1.0
 40
1.0
 40
1.0
 40
1.0
 10
138.8104017082853
 20
173.2495708500763
 30
0.0
 10
138.8093005441899
 20
173.2495634266373
 30
0.0
 10
138.768749408034
 20
173.2495564100807
 30
0.0
 10
138.6888917624748
 20
173.2495498013992
 30
0.0
  0
ARC
  5
366
330
285
100
AcDbEntity
  8
$DDT_AUDIT_GENERATED_(171)
  6
Continuous
 62
     7
100
AcDbCircle
 10
10.002825016
 20
314.4557041021
 30
0.0
 40
141.24278106388
100
AcDbArc
 50
268.6858151089
 51
271.3271785847
  0
SPLINE
  5
367
330
285
100
AcDbEntity
  8
$DDT_AUDIT_GENERATED_(171)
  6
Continuous
 62
     7
100
AcDbSpline
210
0.0
220
0.0
230
1.0
 70
     8
 71
     3
 72
    10
 73
     6
 74
     0
 42
0.0000000007770969
 43
0.0000000001
 40
0.5018128985310403
 40
0.5018128985310403
 40
0.5018128985310403
 40
0.5018128985310403
 40
0.7499999999999999
 40
0.7499999999999999
 40
1.0
 40
1.0
 40
1.0
 40
1.0
 10
216.0569527401306
 20
173.2500752486064
 30
0.0
 10
216.0569049495836
 20
173.2499399089839
 30
0.0
 10
215.5237940900667
 20
173.2498269576704
 30
0.0
 10
213.3950104369609
 20
173.2497332933021
 30
0.0
 10
211.7934717024863
 20
173.2497528558369
 30
0.0
 10
209.6461733583168
 20
173.2498839182262
 30
0.0
  0
SPLINE
  5
368
330
285
100
AcDbEntity
  8
$DDT_AUDIT_GENERATED_(171)
  6
Continuous
 62
     7
100
AcDbSpline
210
0.0
220
0.0
230
1.0
 70
     8
 71
     3
 72
    14
 73
    10
 74
     0
 42
0.0000000000557099
 43
0.0000000001
 40
0.0
 40
0.0
 40
0.0
 40
0.0
 40
0.25
 40
0.25
 40
0.5
 40
0.5
 40
0.75
 40
0.75
 40
1.0
 40
1.0
 40
1.0
 40
1.0
 10
201.1608209853093
 20
173.2507069621802
 30
0.0
 10
186.7233873613701
 20
173.2509099332001
 30
0.0
 10
171.9701976886408
 20
173.2508564077572
 30
0.0
 10
141.8532620651917
 20
173.2505420716361
 30
0.0
 10
126.6785900409681
 20
173.2502828609314
 30
0.0
 10
96.15007098942046
 20
173.2498677410892
 30
0.0
 10
80.9786399607512
 20
173.249713830511
 30
0.0
 10
50.85552085462106
 20
173.2498222867856
 30
0.0
 10
36.09699859567588
 20
173.2500838498489
 30
0.0
 10
21.65956008557778
 20
173.2507069621919
 30
0.0
  0
LINE
  5
369
330
285
100
AcDbEntity
  8
$DDT_AUDIT_GENERATED_(171)
  6
Continuous
 62
     7
100
AcDbLine
 10
216.1703968158
 20
186.85
 30
0.0
 11
209.7559547222
 21
186.8499999952
 31
0.0
  0
LINE
  5
36A
330
285
100
AcDbEntity
  8
$DDT_AUDIT_GENERATED_(171)
  6
Continuous
 62
     7
100
AcDbLine
 10
201.2500723076
 20
186.85
 30
0.0
 11
209.7559547222
 21
186.85
 31
0.0
  0
LINE
  5
36B
330
285
100
AcDbEntity
  8
$DDT_AUDIT_GENERATED_(171)
  6
Continuous
 62
     7
100
AcDbLine
 10
21.5703226518
 20
186.85
 30
0.0
 11
201.2500723076
 21
186.85
 31
0.0
  0
LINE
  5
36C
330
285
100
AcDbEntity
  8
$DDT_AUDIT_GENERATED_(171)
  6
Continuous
 62
     7
100
AcDbLine
 10
13.1634639781
 20
186.8499999951
 30
0.0
 11
21.5703226518
 21
186.85
 31
0.0
  0
LINE
  5
36D
330
285
100
AcDbEntity
  8
$DDT_AUDIT_GENERATED_(171)
  6
Continuous
 62
     7
100
AcDbLine
 10
6.6500000482
 20
186.85
 30
0.0
 11
13.1634639781
 21
186.8499999951
 31
0.0
  0
LINE
  5
36E
330
285
100
AcDbEntity
  8
$DDT_AUDIT_GENERATED_(171)
  6
Continuous
 62
     7
100
AcDbLine
 10
216.3569324818
 20
173.5471312543
 30
0.0
 11
216.4703831575
 21
186.5472911226
 31
0.0
  0
LINE
  5
36F
330
285
100
AcDbEntity
  8
$DDT_AUDIT_GENERATED_(171)
  6
Continuous
 62
     7
100
AcDbLine
 10
6.3500137064
 20
186.5472911226
 30
0.0
 11
6.4634643821
 21
173.5471312544
 31
0.0
  0
SPLINE
  5
370
330
285
100
AcDbEntity
  8
$DDT_AUDIT_GENERATED_(171)
  6
Continuous
 62
     7
100
AcDbSpline
210
0.0
220
0.0
230
1.0
 70
     8
 71
     3
 72
    14
 73
    10
 74
     0
 42
0.0000000000479755
 43
0.0000000001
 40
0.0
 40
0.0
 40
0.0
 40
0.0
 40
0.0482896653049942
 40
0.0993161274041788
 40
0.1509676191032174
 40
0.203167548501091
 40
0.2558366334700382
 40
0.3088934177373406
 40
0.3693700893321691
 40
0.3693700893321691
 40
0.3693700893321691
 40
0.3693700893321691
 10
7.321728710904196
 20
173.2498692691729
 30
0.0
 10
11.0326291247903
 20
173.2498529523405
 30
0.0
 10
17.46740319171035
 20
173.2498245431438
 30
0.0
 10
28.20035319245306
 20
173.2497639812509
 30
0.0
 10
38.91788077380446
 20
173.24970052539
 30
0.0
 10
49.8061497653448
 20
173.2496366457501
 30
0.0
 10
60.75620663277124
 20
173.2495772070135
 30
0.0
 10
72.27187278336214
 20
173.249523014865
 30
0.0
 10
80.12929390423818
 20
173.2494940852273
 30
0.0
 10
84.31315763290864
 20
173.2494813675237
 30
0.0
  0
SPLINE
  5
371
330
285
100
AcDbEntity
  8
$DDT_AUDIT_GENERATED_(171)
  6
Continuous
 62
     7
100
AcDbSpline
210
0.0
220
0.0
230
1.0
 70
     8
 71
     3
 72
    14
 73
    10
 74
     0
 42
0.0000000000481116
 43
0.0000000001
 40
0.6258277014133102
 40
0.6258277014133102
 40
0.6258277014133102
 40
0.6258277014133102
 40
0.6743921513747079
 40
0.7303243934732598
 40
0.7858512538434271
 40
0.8408773060620546
 40
0.8953096672461138
 40
0.9490586499179923
 40
0.9763075976364436
 40
0.9763075976364436
 40
0.9763075976364436
 40
0.9763075976364436
 10
137.510606904811
 20
173.249478383234
 30
0.0
 10
140.8701736726829
 20
173.2494882450692
 30
0.0
 10
148.1010706456559
 20
173.2495132489471
 30
0.0
 10
159.1852841271138
 20
173.2495626183978
 30
0.0
 10
170.7252386851356
 20
173.2496236079919
 30
0.0
 10
182.1991424219703
 20
173.2496903557838
 30
0.0
 10
193.4905775131658
 20
173.2497574086131
 30
0.0
 10
203.1173437141903
 20
173.2498122698217
 30
0.0
 10
208.4804083037444
 20
173.2498377043239
 30
0.0
 10
210.3578630618669
 20
173.2498462805313
 30
0.0
  0
ARC
  5
372
330
285
100
AcDbEntity
  8
$DDT_AUDIT_GENERATED_(171)
  6
Continuous
 62
     7
100
AcDbCircle
 10
216.0569493211
 20
173.5500752487
 30
0.0
 40
0.2999999999934754
100
AcDbArc
 50
269.9975954503
 51
0.6974033989
  0
ARC
  5
373
330
285
100
AcDbEntity
  8
$DDT_AUDIT_GENERATED_(171)
  6
Continuous
 62
     7
100
AcDbCircle
 10
6.7634475428
 20
173.5500752488
 30
0.0
 40
0.2999999999675174
100
AcDbArc
 50
181.6899011953
 51
270.0024045492
  0
ARC
  5
374
330
285
100
AcDbEntity
  8
$DDT_AUDIT_GENERATED_(171)
  6
Continuous
 62
     7
100
AcDbCircle
 10
216.1703968651
 20
186.55
 30
0.0
 40
0.3000000000064302
100
AcDbArc
 50
359.8410151225
 51
89.8832142008
  0
ARC
  5
375
330
285
100
AcDbEntity
  8
$DDT_AUDIT_GENERATED_(171)
  6
Continuous
 62
     7
100
AcDbCircle
 10
6.6499999988
 20
186.55
 30
0.0
 40
0.2999999988459687
100
AcDbArc
 50
90.1167858227
 51
180.8338197866
  0
ENDBLK
  5
377
330
285
100
AcDbEntity
  8
0
100
AcDbBlockEnd
  0
ENDSEC
  0
SECTION
  2
ENTITIES
  0
LINE
  5
5E
330
1F
100
AcDbEntity
  8
Default
  6
Continuous
 62
     7
100
AcDbLine
 10
400.9703760751
 20
554.4198516296
 30
0.0
 11
400.9703760751
 21
501.2198550578
 31
0.0
  0
INSERT
  5
60
330
1F
100
AcDbEntity
  8
Default
100
AcDbBlockReference
  2
SEANNOT_GROUP
 10
0.0
 20
0.0
 30
0.0
  0
LINE
  5
66
330
1F
100
AcDbEntity
  8
Default
  6
Continuous
 62
     7
100
AcDbLine
 10
400.9703760717
 20
469.4198515593
 30
0.0
 11
400.9703760717
 21
416.2198549875
 31
0.0
  0
INSERT
  5
68
330
1F
100
AcDbEntity
  8
Default
100
AcDbBlockReference
  2
SEANNOT_GROUP1
 10
0.0
 20
0.0
 30
0.0
  0
LINE
  5
6D
330
1F
100
AcDbEntity
  8
Default
  6
Continuous
 62
     7
100
AcDbLine
 10
84.3111293994
 20
186.85
 30
0.0
 11
137.5111259712
 21
186.85
 31
0.0
  0
INSERT
  5
6F
330
1F
100
AcDbEntity
  8
Default
100
AcDbBlockReference
  2
SEANNOT_GROUP2
 10
0.0
 20
0.0
 30
0.0
  0
LINE
  5
74
330
1F
100
AcDbEntity
  8
Default
  6
Continuous
 62
     7
100
AcDbLine
 10
110.9111385093
 20
532.8198532743
 30
0.0
 11
110.9111384
 21
522.8198532743
 31
0.0
  0
LINE
  5
75
330
1F
100
AcDbEntity
  8
Default
  6
Continuous
 62
     7
100
AcDbLine
 10
110.9111297114
 20
447.8198532743
 30
0.0
 11
110.9111255291
 21
437.8198532743
 31
0.0
  0
INSERT
  5
77
330
1F
100
AcDbEntity
  8
Default
100
AcDbBlockReference
  2
SEANNOT_GROUP3
 10
0.0
 20
0.0
 30
0.0
  0
INSERT
  5
7D
330
1F
100
AcDbEntity
  8
Default
100
AcDbBlockReference
  2
SEANNOT_GROUP4
 10
0.0
 20
0.0
 30
0.0
  0
INSERT
  5
83
330
1F
100
AcDbEntity
  8
Default
100
AcDbBlockReference
  2
SE
 10
0.0
 20
0.0
 30
0.0
  0
INSERT
  5
18D
330
1F
100
AcDbEntity
  8
Default
100
AcDbBlockReference
  2
SE1
 10
0.0
 20
0.0
 30
0.0
  0
INSERT
  5
286
330
1F
100
AcDbEntity
  8
Default
100
AcDbBlockReference
  2
SE2
 10
0.0
 20
0.0
 30
0.0
  0
TEXT
  5
379
330
1F
100
AcDbEntity
  8
Default
  6
Continuous
 62
     7
100
AcDbText
 10
5.9362635081
 20
53.4225120485
 30
0.0
 40
10.0
  1
Grohe AG^J
  7
SEACAD_seiso_ttf
 11
5.9362635081
 21
63.4225120485
 31
0.0
100
AcDbText
 73
     3
  0
TEXT
  5
37A
330
1F
100
AcDbEntity
  8
Default
  6
Continuous
 62
     7
100
AcDbText
 10
5.9362635081
 20
37.0588756849
 30
0.0
 40
10.0
  1
 
  7
SEACAD_seiso_ttf
 11
5.9362635081
 21
47.0588756849
 31
0.0
100
AcDbText
 73
     3
  0
TEXT
  5
37B
330
1F
100
AcDbEntity
  8
Default
  6
Continuous
 62
     7
100
AcDbText
 10
5.9362635081
 20
20.6952393213
 30
0.0
 40
10.0
  1
ecn:
  7
SEACAD_seiso_ttf
 11
5.9362635081
 21
30.6952393213
 31
0.0
100
AcDbText
 73
     3
  0
TEXT
  5
37C
330
1F
100
AcDbEntity
  8
Default
  6
Continuous
 62
     7
100
AcDbText
 10
5.9362635081
 20
4.3316029576
 30
0.0
 40
10.0
  1
unit: mm
  7
SEACAD_seiso_ttf
 11
5.9362635081
 21
14.3316029576
 31
0.0
100
AcDbText
 73
     3
  0
LINE
  5
37D
330
1F
100
AcDbEntity
  8
Default
  6
Continuous
 62
     7
100
AcDbLine
 10
0.0
 20
0.0
 30
0.0
 11
100.0
 21
0.0
 31
0.0
  0
LINE
  5
37E
330
1F
100
AcDbEntity
  8
Default
  6
Continuous
 62
     7
100
AcDbLine
 10
0.0
 20
0.0
 30
0.0
 11
0.0
 21
100.0
 31
0.0
  0
TEXT
  5
37F
330
1F
100
AcDbEntity
  8
Default
  6
Continuous
 62
     7
100
AcDbText
 10
24.3923665681
 20
-18.2375342018
 30
0.0
 40
10.0
  1
100 mm
  7
SEACAD_seiso_ttf
 11
24.3923665681
 21
-8.2375342018
 31
0.0
100
AcDbText
 73
     3
  0
TEXT
  5
380
330
1F
100
AcDbEntity
  8
Default
  6
Continuous
 62
     7
100
AcDbText
 10
-7.6150308803
 20
24.6231930421
 30
0.0
 40
10.0
  1
100 mm
 50
90.0
  7
SEACAD_seiso_ttf
 11
-17.6150308803
 21
24.6231930421
 31
0.0
100
AcDbText
 73
     3
  0
TEXT
  5
381
330
1F
100
AcDbEntity
  8
Default
  6
Continuous
 62
     7
100
AcDbText
 10
28.4878128572
 20
20.0907663715
 30
0.0
 40
10.0
  1
226038
  7
SEACAD_seiso_ttf
 11
28.4878128572
 21
30.0907663715
 31
0.0
100
AcDbText
 73
     3
  0
TEXT
  5
382
330
1F
100
AcDbEntity
  8
Default
  6
Continuous
 62
     7
100
AcDbText
 10
5.9012241913
 20
36.7242780188
 30
0.0
 40
10.0
  1
19937000
  7
SEACAD_seiso_ttf
 11
5.9012241913
 21
46.7242780188
 31
0.0
100
AcDbText
 73
     3
  0
ENDSEC
  0
SECTION
  2
OBJECTS
  0
DICTIONARY
  5
C
330
0
100
AcDbDictionary
281
     1
  3
ACAD_GROUP
350
D
  3
ACAD_LAYOUT
350
1A
  3
ACAD_MLEADERSTYLE
350
386
  3
ACAD_MLINESTYLE
350
17
  3
ACAD_PLOTSETTINGS
350
19
  3
ACAD_PLOTSTYLENAME
350
E
  3
ACAD_SCALELIST
350
3B
  3
ACAD_TABLESTYLE
350
385
  3
ACAD_VISUALSTYLE
350
2A
  3
AcDbVariableDictionary
350
383
  0
DICTIONARY
  5
D
102
{ACAD_REACTORS
330
C
102
}
330
C
100
AcDbDictionary
281
     1
  0
DICTIONARY
  5
1A
102
{ACAD_REACTORS
330
C
102
}
330
C
100
AcDbDictionary
281
     1
  3
Layout1
350
1E
  3
Model
350
22
  0
DICTIONARY
  5
386
102
{ACAD_REACTORS
330
C
102
}
330
C
100
AcDbDictionary
281
     1
  0
DICTIONARY
  5
17
102
{ACAD_REACTORS
330
C
102
}
330
C
100
AcDbDictionary
281
     1
  3
Standard
350
18
  0
DICTIONARY
  5
19
102
{ACAD_REACTORS
330
C
102
}
330
C
100
AcDbDictionary
281
     1
  0
ACDBDICTIONARYWDFLT
  5
E
102
{ACAD_REACTORS
330
C
102
}
330
C
100
AcDbDictionary
281
     1
  3
Normal
350
F
100
AcDbDictionaryWithDefault
340
F
  0
DICTIONARY
  5
3B
102
{ACAD_REACTORS
330
C
102
}
330
C
100
AcDbDictionary
281
     1
  3
A0
350
3C
  3
A1
350
3D
  3
A2
350
3E
  3
A3
350
3F
  3
A4
350
40
  3
A5
350
41
  3
A6
350
42
  3
A7
350
43
  3
A8
350
44
  3
A9
350
45
  3
B0
350
46
  3
B1
350
47
  3
B2
350
48
  3
B3
350
49
  3
B4
350
4A
  3
B5
350
4B
  3
B6
350
4C
  3
B7
350
4D
  3
B8
350
4E
  3
B9
350
4F
  3
C0
350
50
  3
C1
350
51
  3
C2
350
52
  3
C3
350
53
  3
C4
350
54
  3
C5
350
55
  3
C6
350
56
  3
C7
350
57
  3
C8
350
58
  3
C9
350
59
  3
D0
350
5A
  3
D1
350
5B
  3
D2
350
5C
  0
DICTIONARY
  5
385
102
{ACAD_REACTORS
330
C
102
}
330
C
100
AcDbDictionary
281
     1
  0
DICTIONARY
  5
2A
102
{ACAD_REACTORS
330
C
102
}
330
C
100
AcDbDictionary
281
     1
  3
2dWireframe
350
2F
  3
3D Hidden
350
31
  3
3dWireframe
350
30
  3
Basic
350
32
  3
Brighten
350
36
  3
ColorChange
350
3A
  3
Conceptual
350
34
  3
Dim
350
35
  3
Facepattern
350
39
  3
Flat
350
2B
  3
FlatWithEdges
350
2C
  3
Gouraud
350
2D
  3
GouraudWithEdges
350
2E
  3
Linepattern
350
38
  3
Realistic
350
33
  3
Thicken
350
37
  0
DICTIONARY
  5
383
102
{ACAD_REACTORS
330
C
102
}
330
C
100
AcDbDictionary
281
     1
  3
CANNOSCALE
350
384
  3
PSOLHEIGHT
350
388
  3
PSOLWIDTH
350
387
  0
LAYOUT
  5
1E
102
{ACAD_REACTORS
330
1A
102
}
330
1A
100
AcDbPlotSettings
  1

  2
none_device
  4

  6

 40
0.0
 41
0.0
 42
0.0
 43
0.0
 44
0.0
 45
0.0
 46
0.0
 47
0.0
 48
0.0
 49
0.0
140
0.0
141
0.0
142
1.0
143
1.0
 70
   688
 72
     0
 73
     0
 74
     5
  7

 75
    16
147
1.0
148
0.0
149
0.0
100
AcDbLayout
  1
Layout1
 70
     1
 71
     1
 10
0.0
 20
0.0
 11
3000.0
 21
4500.0
 12
0.0
 22
0.0
 32
0.0
 14
0.0
 24
0.0
 34
0.0
 15
3000.0
 25
4500.0
 35
0.0
146
0.0
 13
0.0
 23
0.0
 33
0.0
 16
1.0
 26
0.0
 36
0.0
 17
0.0
 27
1.0
 37
0.0
 76
     0
330
1B
  0
LAYOUT
  5
22
102
{ACAD_REACTORS
330
1A
102
}
330
1A
100
AcDbPlotSettings
  1

  2
none_device
  4

  6

 40
0.0
 41
0.0
 42
0.0
 43
0.0
 44
0.0
 45
0.0
 46
0.0
 47
0.0
 48
0.0
 49
0.0
140
0.0
141
0.0
142
1.0
143
1.0
 70
  1712
 72
     0
 73
     0
 74
     0
  7

 75
     0
147
1.0
148
0.0
149
0.0
100
AcDbLayout
  1
Model
 70
     1
 71
     0
 10
0.0
 20
0.0
 11
3000.0
 21
4500.0
 12
0.0
 22
0.0
 32
0.0
 14
0.0
 24
0.0
 34
0.0
 15
3000.0
 25
4500.0
 35
0.0
146
0.0
 13
0.0
 23
0.0
 33
0.0
 16
1.0
 26
0.0
 36
0.0
 17
0.0
 27
1.0
 37
0.0
 76
     0
330
1F
331
29
  0
MLINESTYLE
  5
18
102
{ACAD_REACTORS
330
17
102
}
330
17
100
AcDbMlineStyle
  2
Standard
 70
     0
  3

 62
   256
 51
90.0
 52
90.0
 71
     2
 49
0.5
 62
   256
  6
BYLAYER
 49
-0.5
 62
   256
  6
BYLAYER
  0
ACDBPLACEHOLDER
  5
F
102
{ACAD_REACTORS
330
E
102
}
330
E
  0
SCALE
  5
3C
102
{ACAD_REACTORS
330
3B
102
}
330
3B
100
AcDbScale
 70
     0
300
1:1
140
1.0
141
1.0
290
     1
  0
SCALE
  5
3D
102
{ACAD_REACTORS
330
3B
102
}
330
3B
100
AcDbScale
 70
     0
300
1:2
140
1.0
141
2.0
290
     0
  0
SCALE
  5
3E
102
{ACAD_REACTORS
330
3B
102
}
330
3B
100
AcDbScale
 70
     0
300
1:4
140
1.0
141
4.0
290
     0
  0
SCALE
  5
3F
102
{ACAD_REACTORS
330
3B
102
}
330
3B
100
AcDbScale
 70
     0
300
1:5
140
1.0
141
5.0
290
     0
  0
SCALE
  5
40
102
{ACAD_REACTORS
330
3B
102
}
330
3B
100
AcDbScale
 70
     0
300
1:8
140
1.0
141
8.0
290
     0
  0
SCALE
  5
41
102
{ACAD_REACTORS
330
3B
102
}
330
3B
100
AcDbScale
 70
     0
300
1:10
140
1.0
141
10.0
290
     0
  0
SCALE
  5
42
102
{ACAD_REACTORS
330
3B
102
}
330
3B
100
AcDbScale
 70
     0
300
1:16
140
1.0
141
16.0
290
     0
  0
SCALE
  5
43
102
{ACAD_REACTORS
330
3B
102
}
330
3B
100
AcDbScale
 70
     0
300
1:20
140
1.0
141
20.0
290
     0
  0
SCALE
  5
44
102
{ACAD_REACTORS
330
3B
102
}
330
3B
100
AcDbScale
 70
     0
300
1:30
140
1.0
141
30.0
290
     0
  0
SCALE
  5
45
102
{ACAD_REACTORS
330
3B
102
}
330
3B
100
AcDbScale
 70
     0
300
1:40
140
1.0
141
40.0
290
     0
  0
SCALE
  5
46
102
{ACAD_REACTORS
330
3B
102
}
330
3B
100
AcDbScale
 70
     0
300
1:50
140
1.0
141
50.0
290
     0
  0
SCALE
  5
47
102
{ACAD_REACTORS
330
3B
102
}
330
3B
100
AcDbScale
 70
     0
300
1:100
140
1.0
141
100.0
290
     0
  0
SCALE
  5
48
102
{ACAD_REACTORS
330
3B
102
}
330
3B
100
AcDbScale
 70
     0
300
2:1
140
2.0
141
1.0
290
     0
  0
SCALE
  5
49
102
{ACAD_REACTORS
330
3B
102
}
330
3B
100
AcDbScale
 70
     0
300
4:1
140
4.0
141
1.0
290
     0
  0
SCALE
  5
4A
102
{ACAD_REACTORS
330
3B
102
}
330
3B
100
AcDbScale
 70
     0
300
8:1
140
8.0
141
1.0
290
     0
  0
SCALE
  5
4B
102
{ACAD_REACTORS
330
3B
102
}
330
3B
100
AcDbScale
 70
     0
300
10:1
140
10.0
141
1.0
290
     0
  0
SCALE
  5
4C
102
{ACAD_REACTORS
330
3B
102
}
330
3B
100
AcDbScale
 70
     0
300
100:1
140
100.0
141
1.0
290
     0
  0
SCALE
  5
4D
102
{ACAD_REACTORS
330
3B
102
}
330
3B
100
AcDbScale
 70
     0
300
1/128" = 1'-0"
140
0.0078125
141
12.0
290
     0
  0
SCALE
  5
4E
102
{ACAD_REACTORS
330
3B
102
}
330
3B
100
AcDbScale
 70
     0
300
1/64" = 1'-0"
140
0.015625
141
12.0
290
     0
  0
SCALE
  5
4F
102
{ACAD_REACTORS
330
3B
102
}
330
3B
100
AcDbScale
 70
     0
300
1/32" = 1'-0"
140
0.03125
141
12.0
290
     0
  0
SCALE
  5
50
102
{ACAD_REACTORS
330
3B
102
}
330
3B
100
AcDbScale
 70
     0
300
1/16" = 1'-0"
140
0.0625
141
12.0
290
     0
  0
SCALE
  5
51
102
{ACAD_REACTORS
330
3B
102
}
330
3B
100
AcDbScale
 70
     0
300
3/32" = 1'-0"
140
0.09375
141
12.0
290
     0
  0
SCALE
  5
52
102
{ACAD_REACTORS
330
3B
102
}
330
3B
100
AcDbScale
 70
     0
300
1/8" = 1'-0"
140
0.125
141
12.0
290
     0
  0
SCALE
  5
53
102
{ACAD_REACTORS
330
3B
102
}
330
3B
100
AcDbScale
 70
     0
300
3/16" = 1'-0"
140
0.1875
141
12.0
290
     0
  0
SCALE
  5
54
102
{ACAD_REACTORS
330
3B
102
}
330
3B
100
AcDbScale
 70
     0
300
1/4" = 1'-0"
140
0.25
141
12.0
290
     0
  0
SCALE
  5
55
102
{ACAD_REACTORS
330
3B
102
}
330
3B
100
AcDbScale
 70
     0
300
3/8" = 1'-0"
140
0.375
141
12.0
290
     0
  0
SCALE
  5
56
102
{ACAD_REACTORS
330
3B
102
}
330
3B
100
AcDbScale
 70
     0
300
1/2" = 1'-0"
140
0.5
141
12.0
290
     0
  0
SCALE
  5
57
102
{ACAD_REACTORS
330
3B
102
}
330
3B
100
AcDbScale
 70
     0
300
3/4" = 1'-0"
140
0.75
141
12.0
290
     0
  0
SCALE
  5
58
102
{ACAD_REACTORS
330
3B
102
}
330
3B
100
AcDbScale
 70
     0
300
1" = 1'-0"
140
1.0
141
12.0
290
     0
  0
SCALE
  5
59
102
{ACAD_REACTORS
330
3B
102
}
330
3B
100
AcDbScale
 70
     0
300
1-1/2" = 1'-0"
140
1.5
141
12.0
290
     0
  0
SCALE
  5
5A
102
{ACAD_REACTORS
330
3B
102
}
330
3B
100
AcDbScale
 70
     0
300
3" = 1'-0"
140
3.0
141
12.0
290
     0
  0
SCALE
  5
5B
102
{ACAD_REACTORS
330
3B
102
}
330
3B
100
AcDbScale
 70
     0
300
6" = 1'-0"
140
6.0
141
12.0
290
     0
  0
SCALE
  5
5C
102
{ACAD_REACTORS
330
3B
102
}
330
3B
100
AcDbScale
 70
     0
300
1'-0" = 1'-0"
140
12.0
141
12.0
290
     0
  0
VISUALSTYLE
  5
2F
102
{ACAD_REACTORS
330
2A
102
}
330
2A
100
AcDbVisualStyle
  2
2dWireframe
 70
     4
 71
     0
 72
     2
 73
     0
 90
        0
 40
-0.6
 41
-30.0
 62
     5
 63
     7
 74
     1
 91
        4
 64
     7
 65
   257
 75
     1
175
     1
 42
1.0
 92
        0
 66
   257
 43
1.0
 76
     1
 77
     6
 78
     2
 67
     7
 79
     5
170
     0
171
     0
290
     0
174
     0
 93
        1
 44
0.0
173
     0
291
     0
 45
0.0
1001
ACAD
1000
AcDbSavedByObjectVersion
1070
     0
  0
VISUALSTYLE
  5
31
102
{ACAD_REACTORS
330
2A
102
}
330
2A
100
AcDbVisualStyle
  2
3D Hidden
 70
     6
 71
     1
 72
     2
 73
     2
 90
        0
 40
-0.6
 41
-30.0
 62
     5
 63
     7
 74
     2
 91
        2
 64
     7
 65
   257
 75
     2
175
     1
 42
40.0
 92
        0
 66
   257
 43
1.0
 76
     1
 77
     6
 78
     2
 67
     7
 79
     3
170
     0
171
     0
290
     0
174
     0
 93
        1
 44
0.0
173
     0
291
     0
 45
0.0
1001
ACAD
1000
AcDbSavedByObjectVersion
1070
     0
  0
VISUALSTYLE
  5
30
102
{ACAD_REACTORS
330
2A
102
}
330
2A
100
AcDbVisualStyle
  2
3dWireframe
 70
     5
 71
     0
 72
     2
 73
     0
 90
        0
 40
-0.6
 41
-30.0
 62
     5
 63
     7
 74
     1
 91
        4
 64
     7
 65
   257
 75
     1
175
     1
 42
1.0
 92
        0
 66
   257
 43
1.0
 76
     1
 77
     6
 78
     2
 67
     7
 79
     5
170
     0
171
     0
290
     0
174
     0
 93
        1
 44
0.0
173
     0
291
     0
 45
0.0
1001
ACAD
1000
AcDbSavedByObjectVersion
1070
     0
  0
VISUALSTYLE
  5
32
102
{ACAD_REACTORS
330
2A
102
}
330
2A
100
AcDbVisualStyle
  2
Basic
 70
     7
 71
     1
 72
     0
 73
     1
 90
        0
 40
-0.6
 41
-30.0
 62
     5
 63
     7
 74
     0
 91
        4
 64
     7
 65
   257
 75
     1
175
     1
 42
1.0
 92
        8
 66
     7
 43
1.0
 76
     1
 77
     6
 78
     2
 67
     7
 79
     5
170
     0
171
     0
290
     0
174
     0
 93
        1
 44
0.0
173
     0
291
     1
 45
0.0
1001
ACAD
1000
AcDbSavedByObjectVersion
1070
     0
  0
VISUALSTYLE
  5
36
102
{ACAD_REACTORS
330
2A
102
}
330
2A
100
AcDbVisualStyle
  2
Brighten
 70
    12
 71
     2
 72
     2
 73
     0
 90
        0
 40
-0.6
 41
-30.0
 62
     5
 63
     7
 74
     1
 91
        4
 64
     7
 65
   257
 75
     1
175
     1
 42
1.0
 92
        8
 66
     7
 43
1.0
 76
     1
 77
     6
 78
     2
 67
     7
 79
     5
170
     0
171
     0
290
     0
174
     0
 93
        1
 44
50.0
173
     0
291
     1
 45
0.0
1001
ACAD
1000
AcDbSavedByObjectVersion
1070
     0
  0
VISUALSTYLE
  5
3A
102
{ACAD_REACTORS
330
2A
102
}
330
2A
100
AcDbVisualStyle
  2
ColorChange
 70
    16
 71
     2
 72
     2
 73
     3
 90
        0
 40
-0.6
 41
-30.0
 62
     5
 63
     8
 74
     1
 91
        4
 64
     7
 65
   257
 75
     1
175
     1
 42
1.0
 92
        8
 66
     8
 43
1.0
 76
     1
 77
     6
 78
     2
 67
     7
 79
     5
170
     0
171
     0
290
     0
174
     0
 93
        1
 44
0.0
173
     0
291
     1
 45
0.0
1001
ACAD
1000
AcDbSavedByObjectVersion
1070
     0
  0
VISUALSTYLE
  5
34
102
{ACAD_REACTORS
330
2A
102
}
330
2A
100
AcDbVisualStyle
  2
Conceptual
 70
     9
 71
     3
 72
     2
 73
     0
 90
        0
 40
-0.6
 41
-30.0
 62
     5
 63
     7
 74
     2
 91
        2
 64
     7
 65
   257
 75
     1
175
     1
 42
40.0
 92
        8
 66
     7
 43
1.0
 76
     1
 77
     6
 78
     2
 67
     7
 79
     3
170
     0
171
     0
290
     0
174
     0
 93
        1
 44
0.0
173
     0
291
     0
 45
0.0
1001
ACAD
1000
AcDbSavedByObjectVersion
1070
     0
  0
VISUALSTYLE
  5
35
102
{ACAD_REACTORS
330
2A
102
}
330
2A
100
AcDbVisualStyle
  2
Dim
 70
    11
 71
     2
 72
     2
 73
     0
 90
        0
 40
-0.6
 41
-30.0
 62
     5
 63
     7
 74
     1
 91
        4
 64
     7
 65
   257
 75
     1
175
     1
 42
1.0
 92
        8
 66
     7
 43
1.0
 76
     1
 77
     6
 78
     2
 67
     7
 79
     5
170
     0
171
     0
290
     0
174
     0
 93
        1
 44
-50.0
173
     0
291
     1
 45
0.0
1001
ACAD
1000
AcDbSavedByObjectVersion
1070
     0
  0
VISUALSTYLE
  5
39
102
{ACAD_REACTORS
330
2A
102
}
330
2A
100
AcDbVisualStyle
  2
Facepattern
 70
    15
 71
     2
 72
     2
 73
     0
 90
        0
 40
-0.6
 41
-30.0
 62
     5
 63
     7
 74
     1
 91
        4
 64
     7
 65
   257
 75
     1
175
     1
 42
1.0
 92
        8
 66
     7
 43
1.0
 76
     1
 77
     6
 78
     2
 67
     7
 79
     5
170
     0
171
     0
290
     0
174
     0
 93
        1
 44
0.0
173
     0
291
     1
 45
0.0
1001
ACAD
1000
AcDbSavedByObjectVersion
1070
     0
  0
VISUALSTYLE
  5
2B
102
{ACAD_REACTORS
330
2A
102
}
330
2A
100
AcDbVisualStyle
  2
Flat
 70
     0
 71
     2
 72
     1
 73
     1
 90
        2
 40
-0.6
 41
30.0
 62
     5
 63
     7
 74
     0
 91
        4
 64
     7
 65
   257
 75
     1
175
     1
 42
1.0
 92
        8
 66
     7
 43
1.0
 76
     1
 77
     6
 78
     2
 67
     7
 79
     5
170
     0
171
     0
290
     0
174
     0
 93
       13
 44
0.0
173
     0
291
     1
 45
0.0
1001
ACAD
1000
AcDbSavedByObjectVersion
1070
     0
  0
VISUALSTYLE
  5
2C
102
{ACAD_REACTORS
330
2A
102
}
330
2A
100
AcDbVisualStyle
  2
FlatWithEdges
 70
     1
 71
     2
 72
     1
 73
     1
 90
        2
 40
-0.6
 41
30.0
 62
     5
 63
     7
 74
     1
 91
        4
 64
     7
 65
   257
 75
     1
175
     1
 42
1.0
 92
        0
 66
   257
 43
1.0
 76
     1
 77
     6
 78
     2
 67
     7
 79
     5
170
     0
171
     0
290
     0
174
     0
 93
       13
 44
0.0
173
     0
291
     1
 45
0.0
1001
ACAD
1000
AcDbSavedByObjectVersion
1070
     0
  0
VISUALSTYLE
  5
2D
102
{ACAD_REACTORS
330
2A
102
}
330
2A
100
AcDbVisualStyle
  2
Gouraud
 70
     2
 71
     2
 72
     2
 73
     1
 90
        2
 40
-0.6
 41
30.0
 62
     5
 63
     7
 74
     0
 91
        4
 64
     7
 65
   257
 75
     1
175
     1
 42
1.0
 92
        0
 66
     7
 43
1.0
 76
     1
 77
     6
 78
     2
 67
     7
 79
     5
170
     0
171
     0
290
     0
174
     0
 93
       13
 44
0.0
173
     0
291
     1
 45
0.0
1001
ACAD
1000
AcDbSavedByObjectVersion
1070
     0
  0
VISUALSTYLE
  5
2E
102
{ACAD_REACTORS
330
2A
102
}
330
2A
100
AcDbVisualStyle
  2
GouraudWithEdges
 70
     3
 71
     2
 72
     2
 73
     1
 90
        2
 40
-0.6
 41
30.0
 62
     5
 63
     7
 74
     1
 91
        4
 64
     7
 65
   257
 75
     1
175
     1
 42
1.0
 92
        0
 66
   257
 43
1.0
 76
     1
 77
     6
 78
     2
 67
     7
 79
     5
170
     0
171
     0
290
     0
174
     0
 93
       13
 44
0.0
173
     0
291
     1
 45
0.0
1001
ACAD
1000
AcDbSavedByObjectVersion
1070
     0
  0
VISUALSTYLE
  5
38
102
{ACAD_REACTORS
330
2A
102
}
330
2A
100
AcDbVisualStyle
  2
Linepattern
 70
    14
 71
     2
 72
     2
 73
     0
 90
        0
 40
-0.6
 41
-30.0
 62
     5
 63
     7
 74
     1
 91
        4
 64
     7
 65
   257
 75
     7
175
     7
 42
1.0
 92
        8
 66
     7
 43
1.0
 76
     1
 77
     6
 78
     2
 67
     7
 79
     5
170
     0
171
     0
290
     0
174
     0
 93
        1
 44
0.0
173
     0
291
     1
 45
0.0
1001
ACAD
1000
AcDbSavedByObjectVersion
1070
     0
  0
VISUALSTYLE
  5
33
102
{ACAD_REACTORS
330
2A
102
}
330
2A
100
AcDbVisualStyle
  2
Realistic
 70
     8
 71
     2
 72
     2
 73
     0
 90
        0
 40
-0.6
 41
-30.0
 62
     5
 63
     7
 74
     1
 91
        0
 64
     7
 65
   257
 75
     1
175
     1
 42
1.0
 92
        8
 66
     8
 43
1.0
 76
     1
 77
     6
 78
     2
 67
     7
 79
     5
170
     0
171
     0
290
     0
174
     0
 93
       13
 44
0.0
173
     0
291
     0
 45
0.0
1001
ACAD
1000
AcDbSavedByObjectVersion
1070
     0
  0
VISUALSTYLE
  5
37
102
{ACAD_REACTORS
330
2A
102
}
330
2A
100
AcDbVisualStyle
  2
Thicken
 70
    13
 71
     2
 72
     2
 73
     0
 90
        0
 40
-0.6
 41
-30.0
 62
     5
 63
     7
 74
     1
 91
        4
 64
     7
 65
   257
 75
     1
175
     1
 42
1.0
 92
       12
 66
     7
 43
1.0
 76
     1
 77
     6
 78
     2
 67
     7
 79
     5
170
     0
171
     0
290
     0
174
     0
 93
        1
 44
0.0
173
     0
291
     1
 45
0.0
1001
ACAD
1000
AcDbSavedByObjectVersion
1070
     0
  0
DICTIONARYVAR
  5
384
102
{ACAD_REACTORS
330
383
102
}
330
383
100
DictionaryVariables
280
     0
  1
1:1
  0
DICTIONARYVAR
  5
388
102
{ACAD_REACTORS
330
383
102
}
330
383
100
DictionaryVariables
280
     0
  1
80.000000
  0
DICTIONARYVAR
  5
387
102
{ACAD_REACTORS
330
383
102
}
330
383
100
DictionaryVariables
280
     0
  1
5.000000
  0
ENDSEC
  0
EOF
