  0
SECTION
  2
HEADER
  9
$ACADVER
  1
AC1015
  9
$ACADMAINTVER
 70
     6
  9
$DWGCODEPAGE
  3
ANSI_1252
  9
$INSBASE
 10
0.0
 20
0.0
 30
0.0
  9
$EXTMIN
 10
0.0
 20
0.0
 30
0.0
  9
$EXTMAX
 10
3000.0
 20
4500.0
 30
0.0
  9
$LIMMIN
 10
0.0
 20
0.0
  9
$LIMMAX
 10
3000.0
 20
4500.0
  9
$ORTHOMODE
 70
     0
  9
$REGENMODE
 70
     1
  9
$FILLMODE
 70
     1
  9
$QTEXTMODE
 70
     0
  9
$MIRRTEXT
 70
     1
  9
$LTSCALE
 40
1.0
  9
$ATTMODE
 70
     1
  9
$TEXTSIZE
 40
2.5
  9
$TRACEWID
 40
1.0
  9
$TEXTSTYLE
  7
Standard
  9
$CLAYER
  8
0
  9
$CELTYPE
  6
ByLayer
  9
$CECOLOR
 62
   256
  9
$CELTSCALE
 40
1.0
  9
$DISPSILH
 70
     0
  9
$DIMSCALE
 40
1.0
  9
$DIMASZ
 40
2.5
  9
$DIMEXO
 40
0.625
  9
$DIMDLI
 40
3.75
  9
$DIMRND
 40
0.0
  9
$DIMDLE
 40
0.0
  9
$DIMEXE
 40
1.25
  9
$DIMTP
 40
0.0
  9
$DIMTM
 40
0.0
  9
$DIMTXT
 40
2.5
  9
$DIMCEN
 40
2.5
  9
$DIMTSZ
 40
0.0
  9
$DIMTOL
 70
     0
  9
$DIMLIM
 70
     0
  9
$DIMTIH
 70
     0
  9
$DIMTOH
 70
     0
  9
$DIMSE1
 70
     0
  9
$DIMSE2
 70
     0
  9
$DIMTAD
 70
     1
  9
$DIMZIN
 70
     8
  9
$DIMBLK
  1

  9
$DIMASO
 70
     1
  9
$DIMSHO
 70
     1
  9
$DIMPOST
  1

  9
$DIMAPOST
  1

  9
$DIMALT
 70
     0
  9
$DIMALTD
 70
     3
  9
$DIMALTF
 40
0.0393700787
  9
$DIMLFAC
 40
1.0
  9
$DIMTOFL
 70
     1
  9
$DIMTVP
 40
0.0
  9
$DIMTIX
 70
     0
  9
$DIMSOXD
 70
     0
  9
$DIMSAH
 70
     0
  9
$DIMBLK1
  1

  9
$DIMBLK2
  1

  9
$DIMSTYLE
  2
ISO-25
  9
$DIMCLRD
 70
     0
  9
$DIMCLRE
 70
     0
  9
$DIMCLRT
 70
     0
  9
$DIMTFAC
 40
1.0
  9
$DIMGAP
 40
0.625
  9
$DIMJUST
 70
     0
  9
$DIMSD1
 70
     0
  9
$DIMSD2
 70
     0
  9
$DIMTOLJ
 70
     0
  9
$DIMTZIN
 70
     8
  9
$DIMALTZ
 70
     0
  9
$DIMALTTZ
 70
     0
  9
$DIMUPT
 70
     0
  9
$DIMDEC
 70
     2
  9
$DIMTDEC
 70
     2
  9
$DIMALTU
 70
     2
  9
$DIMALTTD
 70
     3
  9
$DIMTXSTY
  7
Standard
  9
$DIMAUNIT
 70
     0
  9
$DIMADEC
 70
     0
  9
$DIMALTRND
 40
0.0
  9
$DIMAZIN
 70
     0
  9
$DIMDSEP
 70
    44
  9
$DIMATFIT
 70
     3
  9
$DIMFRAC
 70
     0
  9
$DIMLDRBLK
  1

  9
$DIMLUNIT
 70
     2
  9
$DIMLWD
 70
    -2
  9
$DIMLWE
 70
    -2
  9
$DIMTMOVE
 70
     0
  9
$LUNITS
 70
     2
  9
$LUPREC
 70
     4
  9
$SKETCHINC
 40
1.0
  9
$FILLETRAD
 40
10.0
  9
$AUNITS
 70
     0
  9
$AUPREC
 70
     0
  9
$MENU
  1
.
  9
$ELEVATION
 40
0.0
  9
$PELEVATION
 40
0.0
  9
$THICKNESS
 40
0.0
  9
$LIMCHECK
 70
     0
  9
$CHAMFERA
 40
10.0
  9
$CHAMFERB
 40
10.0
  9
$CHAMFERC
 40
20.0
  9
$CHAMFERD
 40
0.0
  9
$SKPOLY
 70
     0
  9
$TDCREATE
 40
2456217.421367002
  9
$TDUCREATE
 40
2456217.338033669
  9
$TDUPDATE
 40
2456217.421367014
  9
$TDUUPDATE
 40
2456217.33803368
  9
$TDINDWG
 40
0.0000000116
  9
$TDUSRTIMER
 40
0.0000000116
  9
$USRTIMER
 70
     1
  9
$ANGBASE
 50
0.0
  9
$ANGDIR
 70
     0
  9
$PDMODE
 70
     0
  9
$PDSIZE
 40
0.0
  9
$PLINEWID
 40
0.0
  9
$SPLFRAME
 70
     0
  9
$SPLINETYPE
 70
     6
  9
$SPLINESEGS
 70
     8
  9
$HANDSEED
  5
1FD
  9
$SURFTAB1
 70
     6
  9
$SURFTAB2
 70
     6
  9
$SURFTYPE
 70
     6
  9
$SURFU
 70
     6
  9
$SURFV
 70
     6
  9
$UCSBASE
  2

  9
$UCSNAME
  2

  9
$UCSORG
 10
0.0
 20
0.0
 30
0.0
  9
$UCSXDIR
 10
1.0
 20
0.0
 30
0.0
  9
$UCSYDIR
 10
0.0
 20
1.0
 30
0.0
  9
$UCSORTHOREF
  2

  9
$UCSORTHOVIEW
 70
     0
  9
$UCSORGTOP
 10
0.0
 20
0.0
 30
0.0
  9
$UCSORGBOTTOM
 10
0.0
 20
0.0
 30
0.0
  9
$UCSORGLEFT
 10
0.0
 20
0.0
 30
0.0
  9
$UCSORGRIGHT
 10
0.0
 20
0.0
 30
0.0
  9
$UCSORGFRONT
 10
0.0
 20
0.0
 30
0.0
  9
$UCSORGBACK
 10
0.0
 20
0.0
 30
0.0
  9
$PUCSBASE
  2

  9
$PUCSNAME
  2

  9
$PUCSORG
 10
0.0
 20
0.0
 30
0.0
  9
$PUCSXDIR
 10
1.0
 20
0.0
 30
0.0
  9
$PUCSYDIR
 10
0.0
 20
1.0
 30
0.0
  9
$PUCSORTHOREF
  2

  9
$PUCSORTHOVIEW
 70
     0
  9
$PUCSORGTOP
 10
0.0
 20
0.0
 30
0.0
  9
$PUCSORGBOTTOM
 10
0.0
 20
0.0
 30
0.0
  9
$PUCSORGLEFT
 10
0.0
 20
0.0
 30
0.0
  9
$PUCSORGRIGHT
 10
0.0
 20
0.0
 30
0.0
  9
$PUCSORGFRONT
 10
0.0
 20
0.0
 30
0.0
  9
$PUCSORGBACK
 10
0.0
 20
0.0
 30
0.0
  9
$USERI1
 70
     0
  9
$USERI2
 70
     0
  9
$USERI3
 70
     0
  9
$USERI4
 70
     0
  9
$USERI5
 70
     0
  9
$USERR1
 40
0.0
  9
$USERR2
 40
0.0
  9
$USERR3
 40
0.0
  9
$USERR4
 40
0.0
  9
$USERR5
 40
0.0
  9
$WORLDVIEW
 70
     1
  9
$SHADEDGE
 70
     3
  9
$SHADEDIF
 70
    70
  9
$TILEMODE
 70
     1
  9
$MAXACTVP
 70
    64
  9
$PINSBASE
 10
0.0
 20
0.0
 30
0.0
  9
$PLIMCHECK
 70
     0
  9
$PEXTMIN
 10
0.0
 20
0.0
 30
0.0
  9
$PEXTMAX
 10
3000.0
 20
4500.0
 30
0.0
  9
$PLIMMIN
 10
0.0
 20
0.0
  9
$PLIMMAX
 10
3000.0
 20
4500.0
  9
$UNITMODE
 70
     0
  9
$VISRETAIN
 70
     1
  9
$PLINEGEN
 70
     0
  9
$PSLTSCALE
 70
     1
  9
$TREEDEPTH
 70
  3020
  9
$CMLSTYLE
  2
Standard
  9
$CMLJUST
 70
     0
  9
$CMLSCALE
 40
20.0
  9
$PROXYGRAPHICS
 70
     1
  9
$MEASUREMENT
 70
     1
  9
$CELWEIGHT
370
    -1
  9
$ENDCAPS
280
     0
  9
$JOINSTYLE
280
     0
  9
$LWDISPLAY
290
     0
  9
$INSUNITS
 70
     4
  9
$HYPERLINKBASE
  1

  9
$STYLESHEET
  1

  9
$XEDIT
290
     1
  9
$CEPSNTYPE
380
     0
  9
$PSTYLEMODE
290
     1
  9
$FINGERPRINTGUID
  2
{367DFE70-3AC7-4A0D-A67B-0F1B741891EF}
  9
$VERSIONGUID
  2
{FAEB1C32-E019-11D5-929B-00C0DF256EC4}
  9
$EXTNAMES
290
     1
  9
$PSVPSCALE
 40
0.0
  9
$OLESTARTUP
290
     0
  0
ENDSEC
  0
SECTION
  2
CLASSES
  0
CLASS
  1
ACDBDICTIONARYWDFLT
  2
AcDbDictionaryWithDefault
  3
ObjectDBX Classes
 90
        0
280
     0
281
     0
  0
CLASS
  1
VISUALSTYLE
  2
AcDbVisualStyle
  3
ObjectDBX Classes
 90
     4095
280
     0
281
     0
  0
CLASS
  1
SCALE
  2
AcDbScale
  3
ObjectDBX Classes
 90
     1153
280
     0
281
     0
  0
CLASS
  1
DICTIONARYVAR
  2
AcDbDictionaryVar
  3
ObjectDBX Classes
 90
        0
280
     0
281
     0
  0
CLASS
  1
ACDBPLACEHOLDER
  2
AcDbPlaceHolder
  3
ObjectDBX Classes
 90
        0
280
     0
281
     0
  0
CLASS
  1
LAYOUT
  2
AcDbLayout
  3
ObjectDBX Classes
 90
        0
280
     0
281
     0
  0
ENDSEC
  0
SECTION
  2
TABLES
  0
TABLE
  2
VPORT
  5
8
330
0
100
AcDbSymbolTable
 70
     1
  0
VPORT
  5
29
330
8
100
AcDbSymbolTableRecord
100
AcDbViewportTableRecord
  2
*Active
 70
     0
 10
0.0
 20
0.0
 11
1.0
 21
1.0
 12
344.1869158879
 22
148.5
 13
0.0
 23
0.0
 14
10.0
 24
10.0
 15
10.0
 25
10.0
 16
0.0
 26
0.0
 36
1.0
 17
0.0
 27
0.0
 37
0.0
 40
297.0
 41
1.9729729729
 42
50.0
 43
0.0
 44
0.0
 50
0.0
 51
0.0
 71
     0
 72
   100
 73
     1
 74
     3
 75
     0
 76
     0
 77
     0
 78
     0
281
     0
 65
     1
110
0.0
120
0.0
130
0.0
111
1.0
121
0.0
131
0.0
112
0.0
122
1.0
132
0.0
 79
     0
146
0.0
  0
ENDTAB
  0
TABLE
  2
LTYPE
  5
5
330
0
100
AcDbSymbolTable
 70
     2
  0
LTYPE
  5
14
330
5
100
AcDbSymbolTableRecord
100
AcDbLinetypeTableRecord
  2
ByBlock
 70
     0
  3

 72
    65
 73
     0
 40
0.0
  0
LTYPE
  5
15
330
5
100
AcDbSymbolTableRecord
100
AcDbLinetypeTableRecord
  2
ByLayer
 70
     0
  3

 72
    65
 73
     0
 40
0.0
  0
LTYPE
  5
16
330
5
100
AcDbSymbolTableRecord
100
AcDbLinetypeTableRecord
  2
Continuous
 70
     0
  3
Solid line
 72
    65
 73
     0
 40
0.0
  0
LTYPE
  5
60
330
5
100
AcDbSymbolTableRecord
100
AcDbLinetypeTableRecord
  2
CENTER2
 70
     0
  3
Center (.5x) ___ _ ___ _ ___ _ ___ _ ___ _ ___
 72
    65
 73
     4
 40
28.575
 49
19.05
 74
     4
 75
     0
340
0
 46
0.0
 50
0.0
 44
0.0
 45
0.0
 49
-3.175
 74
     4
 75
     0
340
0
 46
0.0
 50
0.0
 44
0.0
 45
0.0
 49
3.175
 74
     4
 75
     0
340
0
 46
0.0
 50
0.0
 44
0.0
 45
0.0
 49
-3.175
 74
     4
 75
     0
340
0
 46
0.0
 50
0.0
 44
0.0
 45
0.0
  0
ENDTAB
  0
TABLE
  2
LAYER
  5
2
330
0
100
AcDbSymbolTable
 70
     9
  0
LAYER
  5
10
330
2
100
AcDbSymbolTableRecord
100
AcDbLayerTableRecord
  2
0
 70
     0
 62
     7
  6
Continuous
370
    -3
390
F
  0
LAYER
  5
5D
330
2
100
AcDbSymbolTableRecord
100
AcDbLayerTableRecord
  2
Default
 70
     0
 62
     7
  6
Continuous
370
    -3
390
F
  0
LAYER
  5
7C
330
2
100
AcDbSymbolTableRecord
100
AcDbLayerTableRecord
  2
$DDT_AUDIT_GENERATED_(7C)
 70
     0
 62
     7
  6
Continuous
370
    -3
390
F
  0
LAYER
  5
AB
330
2
100
AcDbSymbolTableRecord
100
AcDbLayerTableRecord
  2
$DDT_AUDIT_GENERATED_(AB)
 70
     0
 62
     7
  6
Continuous
370
    -3
390
F
  0
LAYER
  5
CD
330
2
100
AcDbSymbolTableRecord
100
AcDbLayerTableRecord
  2
$DDT_AUDIT_GENERATED_(CD)
 70
     0
 62
     7
  6
Continuous
370
    -3
390
F
  0
LAYER
  5
DF
330
2
100
AcDbSymbolTableRecord
100
AcDbLayerTableRecord
  2
$DDT_AUDIT_GENERATED_(DF)
 70
     0
 62
     7
  6
Continuous
370
    -3
390
F
  0
LAYER
  5
EE
330
2
100
AcDbSymbolTableRecord
100
AcDbLayerTableRecord
  2
$DDT_AUDIT_GENERATED_(EE)
 70
     0
 62
     7
  6
Continuous
370
    -3
390
F
  0
LAYER
  5
115
330
2
100
AcDbSymbolTableRecord
100
AcDbLayerTableRecord
  2
$DDT_AUDIT_GENERATED_(115)
 70
     0
 62
     7
  6
Continuous
370
    -3
390
F
  0
LAYER
  5
179
330
2
100
AcDbSymbolTableRecord
100
AcDbLayerTableRecord
  2
$DDT_AUDIT_GENERATED_(179)
 70
     0
 62
     7
  6
Continuous
370
    -3
390
F
  0
ENDTAB
  0
TABLE
  2
STYLE
  5
3
330
0
100
AcDbSymbolTable
 70
     2
  0
STYLE
  5
11
330
3
100
AcDbSymbolTableRecord
100
AcDbTextStyleTableRecord
  2
Standard
 70
     0
 40
0.0
 41
1.0
 50
0.0
 71
     0
 42
2.5
  3
txt
  4

  0
STYLE
  5
1EC
330
3
100
AcDbSymbolTableRecord
100
AcDbTextStyleTableRecord
  2
SEACAD_seiso_ttf
 70
     0
 40
0.0
 41
1.0
 50
0.0
 71
     0
 42
0.2
  3
seiso.ttf
  4

  0
ENDTAB
  0
TABLE
  2
VIEW
  5
6
330
0
100
AcDbSymbolTable
 70
     0
  0
ENDTAB
  0
TABLE
  2
UCS
  5
7
330
0
100
AcDbSymbolTable
 70
     0
  0
ENDTAB
  0
TABLE
  2
APPID
  5
9
330
0
100
AcDbSymbolTable
 70
     1
  0
APPID
  5
12
330
9
100
AcDbSymbolTableRecord
100
AcDbRegAppTableRecord
  2
ACAD
 70
     0
  0
ENDTAB
  0
TABLE
  2
DIMSTYLE
  5
A
330
0
100
AcDbSymbolTable
 70
     1
100
AcDbDimStyleTable
  0
DIMSTYLE
105
27
330
A
100
AcDbSymbolTableRecord
100
AcDbDimStyleTableRecord
  2
ISO-25
 70
     0
 41
2.5
 42
0.625
 43
3.75
 44
1.25
 73
     0
 74
     0
 77
     1
 78
     8
140
2.5
141
2.5
143
0.0393700787
147
0.625
171
     3
172
     1
271
     2
272
     2
274
     3
278
    44
283
     0
284
     8
340
11
  0
ENDTAB
  0
TABLE
  2
BLOCK_RECORD
  5
1
330
0
100
AcDbSymbolTable
 70
     7
  0
BLOCK_RECORD
  5
1F
330
1
100
AcDbSymbolTableRecord
100
AcDbBlockTableRecord
  2
*Model_Space
340
22
  0
BLOCK_RECORD
  5
1B
330
1
100
AcDbSymbolTableRecord
100
AcDbBlockTableRecord
  2
*Paper_Space
340
1E
  0
BLOCK_RECORD
  5
5E
330
1
100
AcDbSymbolTableRecord
100
AcDbBlockTableRecord
  2
SEANNOT_GROUP
340
0
102
{BLKREFS
331
5F
102
}
  0
BLOCK_RECORD
  5
69
330
1
100
AcDbSymbolTableRecord
100
AcDbBlockTableRecord
  2
SEANNOT_GROUP1
340
0
102
{BLKREFS
331
6A
102
}
  0
BLOCK_RECORD
  5
74
330
1
100
AcDbSymbolTableRecord
100
AcDbBlockTableRecord
  2
SEANNOT_GROUP2
340
0
102
{BLKREFS
331
75
102
}
  0
BLOCK_RECORD
  5
7A
330
1
100
AcDbSymbolTableRecord
100
AcDbBlockTableRecord
  2
SE
340
0
102
{BLKREFS
331
7B
102
}
  0
BLOCK_RECORD
  5
FB
330
1
100
AcDbSymbolTableRecord
100
AcDbBlockTableRecord
  2
SE1
340
0
102
{BLKREFS
331
FC
102
}
  0
BLOCK_RECORD
  5
17D
330
1
100
AcDbSymbolTableRecord
100
AcDbBlockTableRecord
  2
SE2
340
0
102
{BLKREFS
331
17E
102
}
  0
ENDTAB
  0
ENDSEC
  0
SECTION
  2
BLOCKS
  0
BLOCK
  5
20
330
1F
100
AcDbEntity
  8
0
100
AcDbBlockBegin
  2
*Model_Space
 70
     0
 10
0.0
 20
0.0
 30
0.0
  3
*Model_Space
  1

  0
ENDBLK
  5
21
330
1F
100
AcDbEntity
  8
0
100
AcDbBlockEnd
  0
BLOCK
  5
1C
330
1B
100
AcDbEntity
 67
     1
  8
0
100
AcDbBlockBegin
  2
*Paper_Space
 70
     0
 10
0.0
 20
0.0
 30
0.0
  3
*Paper_Space
  1

  0
ENDBLK
  5
1D
330
1B
100
AcDbEntity
 67
     1
  8
0
100
AcDbBlockEnd
  0
BLOCK
  5
67
330
5E
100
AcDbEntity
  8
0
100
AcDbBlockBegin
  2
SEANNOT_GROUP
 70
     0
 10
0.0
 20
0.0
 30
0.0
  3
SEANNOT_GROUP
  1

  0
LINE
  5
61
330
5E
100
AcDbEntity
  8
Default
  6
CENTER2
 62
     7
100
AcDbLine
 10
62.974254919
 20
198.7287119868
 30
0.0
 11
22.974255813
 21
198.7287119868
 31
0.0
  0
LINE
  5
62
330
5E
100
AcDbEntity
  8
Default
  6
CENTER2
 62
     7
100
AcDbLine
 10
42.974255366
 20
218.7287115397
 30
0.0
 11
42.974255366
 21
178.7287124338
 31
0.0
  0
LINE
  5
63
330
5E
100
AcDbEntity
  8
Default
  6
CENTER2
 62
     7
100
AcDbLine
 10
67.9742548072
 20
198.7287119868
 30
0.0
 11
46.474255366
 21
198.7287119868
 31
0.0
  0
LINE
  5
64
330
5E
100
AcDbEntity
  8
Default
  6
CENTER2
 62
     7
100
AcDbLine
 10
42.974255366
 20
223.728711428
 30
0.0
 11
42.974255366
 21
202.2287119868
 31
0.0
  0
LINE
  5
65
330
5E
100
AcDbEntity
  8
Default
  6
CENTER2
 62
     7
100
AcDbLine
 10
17.9742559248
 20
198.7287119868
 30
0.0
 11
39.474255366
 21
198.7287119868
 31
0.0
  0
LINE
  5
66
330
5E
100
AcDbEntity
  8
Default
  6
CENTER2
 62
     7
100
AcDbLine
 10
42.974255366
 20
173.7287125456
 30
0.0
 11
42.974255366
 21
195.2287119868
 31
0.0
  0
ENDBLK
  5
68
330
5E
100
AcDbEntity
  8
0
100
AcDbBlockEnd
  0
BLOCK
  5
71
330
69
100
AcDbEntity
  8
0
100
AcDbBlockBegin
  2
SEANNOT_GROUP1
 70
     0
 10
0.0
 20
0.0
 30
0.0
  3
SEANNOT_GROUP1
  1

  0
LINE
  5
6B
330
69
100
AcDbEntity
  8
Default
  6
CENTER2
 62
     7
100
AcDbLine
 10
198.9262661576
 20
348.4059124762
 30
0.0
 11
158.9262670517
 21
348.4059124762
 31
0.0
  0
LINE
  5
6C
330
69
100
AcDbEntity
  8
Default
  6
CENTER2
 62
     7
100
AcDbLine
 10
178.9262666046
 20
368.4059120292
 30
0.0
 11
178.9262666046
 21
328.4059129233
 31
0.0
  0
LINE
  5
6D
330
69
100
AcDbEntity
  8
Default
  6
CENTER2
 62
     7
100
AcDbLine
 10
203.9262660458
 20
348.4059124762
 30
0.0
 11
182.4262666046
 21
348.4059124762
 31
0.0
  0
LINE
  5
6E
330
69
100
AcDbEntity
  8
Default
  6
CENTER2
 62
     7
100
AcDbLine
 10
178.9262666046
 20
373.4059119174
 30
0.0
 11
178.9262666046
 21
351.9059124762
 31
0.0
  0
LINE
  5
6F
330
69
100
AcDbEntity
  8
Default
  6
CENTER2
 62
     7
100
AcDbLine
 10
153.9262671634
 20
348.4059124762
 30
0.0
 11
175.4262666046
 21
348.4059124762
 31
0.0
  0
LINE
  5
70
330
69
100
AcDbEntity
  8
Default
  6
CENTER2
 62
     7
100
AcDbLine
 10
178.9262666046
 20
323.405913035
 30
0.0
 11
178.9262666046
 21
344.9059124762
 31
0.0
  0
ENDBLK
  5
72
330
69
100
AcDbEntity
  8
0
100
AcDbBlockEnd
  0
BLOCK
  5
78
330
74
100
AcDbEntity
  8
0
100
AcDbBlockBegin
  2
SEANNOT_GROUP2
 70
     0
 10
0.0
 20
0.0
 30
0.0
  3
SEANNOT_GROUP2
  1

  0
LINE
  5
76
330
74
100
AcDbEntity
  8
Default
  6
CENTER2
 62
     7
100
AcDbLine
 10
62.9771095443
 20
348.407974634
 30
0.0
 11
22.9771104384
 21
348.407974634
 31
0.0
  0
LINE
  5
77
330
74
100
AcDbEntity
  8
Default
  6
CENTER2
 62
     7
100
AcDbLine
 10
42.9771099913
 20
368.407974187
 30
0.0
 11
42.9771099913
 21
328.4079750811
 31
0.0
  0
ENDBLK
  5
79
330
74
100
AcDbEntity
  8
0
100
AcDbBlockEnd
  0
BLOCK
  5
F9
330
7A
100
AcDbEntity
  8
0
100
AcDbBlockBegin
  2
SE
 70
     0
 10
0.0
 20
0.0
 30
0.0
  3
SE
  1

  0
ARC
  5
7D
330
7A
100
AcDbEntity
  8
$DDT_AUDIT_GENERATED_(7C)
  6
Continuous
 62
     7
100
AcDbCircle
 10
42.9771162872
 20
290.8214510663
 30
0.0
 40
92.59353667610274
100
AcDbArc
 50
71.3030877912
 51
108.6969178697
  0
LINE
  5
7E
330
7A
100
AcDbEntity
  8
$DDT_AUDIT_GENERATED_(7C)
  6
Continuous
 62
     7
100
AcDbLine
 10
13.2951436003
 20
378.5285974775
 30
0.0
 11
13.2041870065
 21
378.4975551691
 31
0.0
  0
LINE
  5
7F
330
7A
100
AcDbEntity
  8
$DDT_AUDIT_GENERATED_(7C)
  6
Continuous
 62
     7
100
AcDbLine
 10
13.2041870065
 20
378.4975551691
 30
0.0
 11
13.1076807729
 21
378.4644999089
 31
0.0
  0
LINE
  5
80
330
7A
100
AcDbEntity
  8
$DDT_AUDIT_GENERATED_(7C)
  6
Continuous
 62
     7
100
AcDbLine
 10
72.8465401565
 20
378.4645012878
 30
0.0
 11
72.7500370696
 21
378.497556805
 31
0.0
  0
LINE
  5
81
330
7A
100
AcDbEntity
  8
$DDT_AUDIT_GENERATED_(7C)
  6
Continuous
 62
     7
100
AcDbLine
 10
72.7500370696
 20
378.497556805
 30
0.0
 11
72.6590803084
 21
378.5286004102
 31
0.0
  0
ARC
  5
82
330
7A
100
AcDbEntity
  8
$DDT_AUDIT_GENERATED_(7C)
  6
Continuous
 62
     7
100
AcDbCircle
 10
-14.6101278858
 20
348.4086826909
 30
0.0
 40
92.59353664729963
100
AcDbArc
 50
341.3030879204
 51
18.6969174987
  0
LINE
  5
83
330
7A
100
AcDbEntity
  8
$DDT_AUDIT_GENERATED_(7C)
  6
Continuous
 62
     7
100
AcDbLine
 10
73.0970186904
 20
378.0906548006
 30
0.0
 11
73.0659762547
 21
378.1816117687
 31
0.0
  0
SPLINE
  5
84
330
7A
100
AcDbEntity
  8
$DDT_AUDIT_GENERATED_(7C)
  6
Continuous
 62
     7
100
AcDbSpline
210
0.0
220
0.0
230
1.0
 70
    12
 71
     3
 72
     8
 73
     4
 74
     0
 42
0.0000002660383515
 43
0.0000000001
 40
0.6517213852029143
 40
0.6517213852029143
 40
0.6517213852029143
 40
0.6517213852029143
 40
1.0
 40
1.0
 40
1.0
 40
1.0
 10
73.03717110160528
 20
378.2657360409725
 30
0.0
 41
0.9451838643476652
 10
73.03432644223514
 20
378.2740281237303
 30
0.0
 41
0.9536913648649848
 10
73.03292092551324
 20
378.2781182039093
 30
0.0
 41
0.9719634100824298
 10
73.03292092551324
 20
378.2781182039093
 30
0.0
 41
1.0
  0
SPLINE
  5
85
330
7A
100
AcDbEntity
  8
$DDT_AUDIT_GENERATED_(7C)
  6
Continuous
 62
     7
100
AcDbSpline
210
0.0
220
0.0
230
1.0
 70
    12
 71
     3
 72
     8
 73
     4
 74
     0
 42
0.0000002255176135
 43
0.0000000001
 40
0.0
 40
0.0
 40
0.0
 40
0.0
 40
0.409314481121413
 40
0.409314481121413
 40
0.409314481121413
 40
0.409314481121413
 10
73.03292230448534
 20
318.5392588203461
 30
0.0
 41
1.0
 10
73.03292230448515
 20
318.5392588203455
 30
0.0
 41
0.9670474053287559
 10
73.03487614682894
 20
318.5449443083114
 30
0.0
 41
0.9475827848469762
 10
73.03881398590379
 20
318.5564259570601
 30
0.0
 41
0.9416061385546611
  0
LINE
  5
86
330
7A
100
AcDbEntity
  8
$DDT_AUDIT_GENERATED_(7C)
  6
Continuous
 62
     7
100
AcDbLine
 10
73.0659778
 20
318.635761844
 30
0.0
 11
73.0970214977
 21
318.7267188767
 31
0.0
  0
ARC
  5
87
330
7A
100
AcDbEntity
  8
$DDT_AUDIT_GENERATED_(7C)
  6
Continuous
 62
     7
100
AcDbCircle
 10
89.7923248444
 20
351.8933225977
 30
0.0
 40
81.27307244409023
100
AcDbArc
 50
161.0560057662
 51
161.1031028475
  0
LINE
  5
88
330
7A
100
AcDbEntity
  8
$DDT_AUDIT_GENERATED_(7C)
  6
Continuous
 62
     7
100
AcDbLine
 10
12.8882421815
 20
378.1816160813
 30
0.0
 11
12.8571983767
 21
378.0906587343
 31
0.0
  0
ARC
  5
89
330
7A
100
AcDbEntity
  8
$DDT_AUDIT_GENERATED_(7C)
  6
Continuous
 62
     7
100
AcDbCircle
 10
100.5643478903
 20
348.4086952703
 30
0.0
 40
92.59353665820163
100
AcDbArc
 50
161.3030881515
 51
198.6969174703
  0
LINE
  5
8A
330
7A
100
AcDbEntity
  8
$DDT_AUDIT_GENERATED_(7C)
  6
Continuous
 62
     7
100
AcDbLine
 10
12.8572012891
 20
318.7267232007
 30
0.0
 11
12.8882437379
 21
318.6357661941
 31
0.0
  0
ARC
  5
8B
330
7A
100
AcDbEntity
  8
$DDT_AUDIT_GENERATED_(7C)
  6
Continuous
 62
     7
100
AcDbCircle
 10
89.7999611863
 20
344.9256095267
 30
0.0
 40
81.28079812173891
100
AcDbArc
 50
198.8713741847
 51
198.943282595
  0
SPLINE
  5
8C
330
7A
100
AcDbEntity
  8
$DDT_AUDIT_GENERATED_(7C)
  6
Continuous
 62
     7
100
AcDbSpline
210
0.0
220
0.0
230
1.0
 70
    12
 71
     3
 72
     8
 73
     4
 74
     0
 42
0.0000001186207193
 43
0.0000000001
 40
0.2062431986894782
 40
0.2062431986894782
 40
0.2062431986894782
 40
0.2062431986894782
 40
1.0
 40
1.0
 40
1.0
 40
1.0
 10
13.17098009914164
 20
318.3311795957312
 30
0.0
 41
0.9604610579862551
 10
13.12963229460964
 20
318.3453326160947
 30
0.0
 41
0.9229169249531386
 10
13.10767983698924
 20
318.3528766723555
 30
0.0
 41
0.9360965722910536
 10
13.10767983698924
 20
318.3528766723555
 30
0.0
 41
1.0
  0
LINE
  5
8D
330
7A
100
AcDbEntity
  8
$DDT_AUDIT_GENERATED_(7C)
  6
Continuous
 62
     7
100
AcDbLine
 10
13.2951395193
 20
318.2887775988
 30
0.0
 11
13.2041828942
 21
318.3198211653
 31
0.0
  0
ARC
  5
8E
330
7A
100
AcDbEntity
  8
$DDT_AUDIT_GENERATED_(7C)
  6
Continuous
 62
     7
100
AcDbCircle
 10
42.977103685
 20
406.0392090711
 30
0.0
 40
92.6345357861843
100
AcDbArc
 50
272.759736007
 51
288.6883356621
  0
ARC
  5
8F
330
7A
100
AcDbEntity
  8
$DDT_AUDIT_GENERATED_(7C)
  6
Continuous
 62
     7
100
AcDbCircle
 10
42.977103685
 20
406.0392090711
 30
0.0
 40
92.6345357861843
100
AcDbArc
 50
251.3116693463
 51
267.240304121
  0
LINE
  5
90
330
7A
100
AcDbEntity
  8
$DDT_AUDIT_GENERATED_(7C)
  6
Continuous
 62
     7
100
AcDbLine
 10
72.7500328395
 20
318.3198227407
 30
0.0
 11
72.6590755212
 21
318.2887801934
 31
0.0
  0
SPLINE
  5
91
330
7A
100
AcDbEntity
  8
$DDT_AUDIT_GENERATED_(7C)
  6
Continuous
 62
     7
100
AcDbSpline
210
0.0
220
0.0
230
1.0
 70
    12
 71
     3
 72
     8
 73
     4
 74
     0
 42
0.0000000980291292
 43
0.0000000001
 40
0.0
 40
0.0
 40
0.0
 40
0.0
 40
1.0
 40
1.0
 40
1.0
 40
1.0
 10
72.84653922055433
 20
318.3528780513262
 30
0.0
 41
1.0
 10
72.84653922055433
 20
318.3528780513262
 30
0.0
 41
0.919500182423951
 10
72.81156613169395
 20
318.3408598856187
 30
0.0
 41
0.919500182423951
 10
72.75003283951624
 20
318.3198227406941
 30
0.0
 41
1.0
  0
ARC
  5
92
330
7A
100
AcDbEntity
  8
$DDT_AUDIT_GENERATED_(7C)
  6
Continuous
 62
     7
100
AcDbCircle
 10
13.2049901417
 20
378.1808444965
 30
0.0
 40
0.2998824873188142
100
AcDbArc
 50
108.9347807458
 51
135.0048115493
  0
ARC
  5
93
330
7A
100
AcDbEntity
  8
$DDT_AUDIT_GENERATED_(7C)
  6
Continuous
 62
     7
100
AcDbCircle
 10
13.2049520703
 20
378.180805923
 30
0.0
 40
0.299882760712997
100
AcDbArc
 50
134.9944568011
 51
161.0644598979
  0
ARC
  5
94
330
7A
100
AcDbEntity
  8
$DDT_AUDIT_GENERATED_(7C)
  6
Continuous
 62
     7
100
AcDbCircle
 10
13.2049505946
 20
378.1808065603
 30
0.0
 40
0.2998811580999335
100
AcDbArc
 50
134.9943428743
 51
161.0644835666
  0
ARC
  5
95
330
7A
100
AcDbEntity
  8
$DDT_AUDIT_GENERATED_(7C)
  6
Continuous
 62
     7
100
AcDbCircle
 10
13.2049856691
 20
378.1808480674
 30
0.0
 40
0.2998766090897512
100
AcDbArc
 50
108.9341938378
 51
130.1421608789
  0
ARC
  5
96
330
7A
100
AcDbEntity
  8
$DDT_AUDIT_GENERATED_(7C)
  6
Continuous
 62
     7
100
AcDbCircle
 10
13.2049544803
 20
318.636569125
 30
0.0
 40
0.2998824873323754
100
AcDbArc
 50
198.9347807462
 51
225.0048115483
  0
ARC
  5
97
330
7A
100
AcDbEntity
  8
$DDT_AUDIT_GENERATED_(7C)
  6
Continuous
 62
     7
100
AcDbCircle
 10
13.2049930538
 20
318.6365310536
 30
0.0
 40
0.2998827607048452
100
AcDbArc
 50
224.9944568002
 51
251.0644598978
  0
ARC
  5
98
330
7A
100
AcDbEntity
  8
$DDT_AUDIT_GENERATED_(7C)
  6
Continuous
 62
     7
100
AcDbCircle
 10
13.2049924166
 20
318.6365295779
 30
0.0
 40
0.2998811580890827
100
AcDbArc
 50
224.9943428736
 51
251.0644835666
  0
ARC
  5
99
330
7A
100
AcDbEntity
  8
$DDT_AUDIT_GENERATED_(7C)
  6
Continuous
 62
     7
100
AcDbCircle
 10
13.2049509094
 20
318.6365646525
 30
0.0
 40
0.299876609089876
100
AcDbArc
 50
198.9341938372
 51
220.1421859666
  0
ARC
  5
9A
330
7A
100
AcDbEntity
  8
$DDT_AUDIT_GENERATED_(7C)
  6
Continuous
 62
     7
100
AcDbCircle
 10
72.7492693989
 20
318.6365713999
 30
0.0
 40
0.2998811580596876
100
AcDbArc
 50
314.9943428742
 51
341.0644835685
  0
ARC
  5
9B
330
7A
100
AcDbEntity
  8
$DDT_AUDIT_GENERATED_(7C)
  6
Continuous
 62
     7
100
AcDbCircle
 10
72.7492298518
 20
318.6365334637
 30
0.0
 40
0.2998824053597829
100
AcDbArc
 50
288.9347807458
 51
315.0048115486
  0
ARC
  5
9C
330
7A
100
AcDbEntity
  8
$DDT_AUDIT_GENERATED_(7C)
  6
Continuous
 62
     7
100
AcDbCircle
 10
72.7492679232
 20
318.6365720372
 30
0.0
 40
0.2998827607084367
100
AcDbArc
 50
314.9944568005
 51
341.0644598983
  0
ARC
  5
9D
330
7A
100
AcDbEntity
  8
$DDT_AUDIT_GENERATED_(7C)
  6
Continuous
 62
     7
100
AcDbCircle
 10
72.7492655132
 20
378.1808088352
 30
0.0
 40
0.2998824873197062
100
AcDbArc
 50
18.9347807455
 51
45.0048115487
  0
ARC
  5
9E
330
7A
100
AcDbEntity
  8
$DDT_AUDIT_GENERATED_(7C)
  6
Continuous
 62
     7
100
AcDbCircle
 10
72.7492269397
 20
378.1808469066
 30
0.0
 40
0.2998827607089469
100
AcDbArc
 50
44.9944568005
 51
71.064459898
  0
ARC
  5
9F
330
7A
100
AcDbEntity
  8
$DDT_AUDIT_GENERATED_(7C)
  6
Continuous
 62
     7
100
AcDbCircle
 10
72.7492690841
 20
378.1808133077
 30
0.0
 40
0.2998766090806594
100
AcDbArc
 50
18.9341938367
 51
45.0046892092
  0
SPLINE
  5
A0
330
7A
100
AcDbEntity
  8
$DDT_AUDIT_GENERATED_(7C)
  6
Continuous
 62
     7
100
AcDbSpline
210
0.0
220
0.0
230
1.0
 70
     8
 71
     7
 72
    16
 73
     8
 74
     0
 42
0.0000000630564772
 43
0.0000000001
 40
0.0
 40
0.0
 40
0.0
 40
0.0
 40
0.0
 40
0.0
 40
0.0
 40
0.0
 40
0.2656250596248342
 40
0.2656250596248342
 40
0.2656250596248342
 40
0.2656250596248342
 40
0.2656250596248342
 40
0.2656250596248342
 40
0.2656250596248342
 40
0.2656250596248342
 10
73.06597743451263
 20
378.1816083176672
 30
0.0
 10
73.06413643012836
 20
378.186993225002
 30
0.0
 10
73.06207573116625
 20
378.1923392226017
 30
0.0
 10
73.05976044464255
 20
378.1976714890873
 30
0.0
 10
73.05715388309902
 20
378.2030074228377
 30
0.0
 10
73.05421949119938
 20
378.2083586995
 30
0.0
 10
73.05092361768128
 20
378.2137341324671
 30
0.0
 10
73.04723744393135
 20
378.2191416828324
 30
0.0
  0
SPLINE
  5
A1
330
7A
100
AcDbEntity
  8
$DDT_AUDIT_GENERATED_(7C)
  6
Continuous
 62
     7
100
AcDbSpline
210
0.0
220
0.0
230
1.0
 70
     8
 71
     7
 72
    16
 73
     8
 74
     0
 42
0.0000000640889663
 43
0.0000000001
 40
0.0
 40
0.0
 40
0.0
 40
0.0
 40
0.0
 40
0.0
 40
0.0
 40
0.0
 40
0.2145865868249065
 40
0.2145865868249065
 40
0.2145865868249065
 40
0.2145865868249065
 40
0.2145865868249065
 40
0.2145865868249065
 40
0.2145865868249065
 40
0.2145865868249065
 10
12.88824218154104
 20
378.1816160813192
 30
0.0
 10
12.88972952782742
 20
378.1859663686211
 30
0.0
 10
12.89136023993243
 20
378.1902912549472
 30
0.0
 10
12.89315271524582
 20
378.1946040149414
 30
0.0
 10
12.89512611503919
 20
378.1989146092691
 30
0.0
 10
12.8972997016574
 20
378.203230392636
 30
0.0
 10
12.899691940769
 20
378.2075570449122
 30
0.0
 10
12.90231974783199
 20
378.211899354158
 30
0.0
  0
SPLINE
  5
A2
330
7A
100
AcDbEntity
  8
$DDT_AUDIT_GENERATED_(7C)
  6
Continuous
 62
     7
100
AcDbSpline
210
0.0
220
0.0
230
1.0
 70
     8
 71
     7
 72
    16
 73
     8
 74
     0
 42
0.0000000638136931
 43
0.0000000001
 40
0.0
 40
0.0
 40
0.0
 40
0.0
 40
0.0
 40
0.0
 40
0.0
 40
0.0
 40
0.2287480552651025
 40
0.2287480552651025
 40
0.2287480552651025
 40
0.2287480552651025
 40
0.2287480552651025
 40
0.2287480552651025
 40
0.2287480552651025
 40
0.2287480552651025
 10
73.06597625467653
 20
378.1816117686679
 30
0.0
 10
73.06439074272308
 20
378.1862493642561
 30
0.0
 10
73.06264231679644
 20
378.1908580941021
 30
0.0
 10
73.06070869202144
 20
378.1954540390041
 30
0.0
 10
73.05856659704007
 20
378.200049000305
 30
0.0
 10
73.05619268637722
 20
378.2046514745201
 30
0.0
 10
73.05356479748139
 20
378.2092679552907
 30
0.0
 10
73.05066295945328
 20
378.213903982088
 30
0.0
  0
SPLINE
  5
A3
330
7A
100
AcDbEntity
  8
$DDT_AUDIT_GENERATED_(7C)
  6
Continuous
 62
     7
100
AcDbSpline
210
0.0
220
0.0
230
1.0
 70
     8
 71
     7
 72
    16
 73
     8
 74
     0
 42
0.0000000631766251
 43
0.0000000001
 40
0.7403717934057426
 40
0.7403717934057426
 40
0.7403717934057426
 40
0.7403717934057426
 40
0.7403717934057426
 40
0.7403717934057426
 40
0.7403717934057426
 40
0.7403717934057426
 40
1.0
 40
1.0
 40
1.0
 40
1.0
 40
1.0
 40
1.0
 40
1.0
 40
1.0
 10
73.04782013304701
 20
318.5990963016578
 30
0.0
 10
73.05137197430642
 20
318.6043782255218
 30
0.0
 10
73.05455406885135
 20
318.6096303471625
 30
0.0
 10
73.0573937279555
 20
318.6148601748358
 30
0.0
 10
73.059922553011
 20
318.620076119789
 30
0.0
 10
73.06217468181451
 20
318.6252893228913
 30
0.0
 10
73.0641843327425
 20
318.6305161903575
 30
0.0
 10
73.06598408588144
 20
318.635780229301
 30
0.0
  0
SPLINE
  5
A4
330
7A
100
AcDbEntity
  8
$DDT_AUDIT_GENERATED_(7C)
  6
Continuous
 62
     7
100
AcDbSpline
210
0.0
220
0.0
230
1.0
 70
     8
 71
     7
 72
    16
 73
     8
 74
     0
 42
0.000000063686184
 43
0.0000000001
 40
0.7646943952964185
 40
0.7646943952964185
 40
0.7646943952964185
 40
0.7646943952964185
 40
0.7646943952964185
 40
0.7646943952964185
 40
0.7646943952964185
 40
0.7646943952964185
 40
1.0
 40
1.0
 40
1.0
 40
1.0
 40
1.0
 40
1.0
 40
1.0
 40
1.0
 10
73.05007753946171
 20
318.6025405403372
 30
0.0
 10
73.05311127515066
 20
318.6073127734088
 30
0.0
 10
73.05585211971892
 20
318.6120634920743
 30
0.0
 10
73.05832153242721
 20
318.6167986124115
 30
0.0
 10
73.06054352314199
 20
318.6215250184512
 30
0.0
 10
73.06254350741509
 20
318.6262517527853
 30
0.0
 10
73.0643468471987
 20
318.630991526954
 30
0.0
 10
73.06597780000874
 20
318.6357618439644
 30
0.0
  0
SPLINE
  5
A5
330
7A
100
AcDbEntity
  8
$DDT_AUDIT_GENERATED_(7C)
  6
Continuous
 62
     7
100
AcDbSpline
210
0.0
220
0.0
230
1.0
 70
     8
 71
     7
 72
    16
 73
     8
 74
     0
 42
0.0000000631770238
 43
0.0000000001
 40
0.7403895430824627
 40
0.7403895430824627
 40
0.7403895430824627
 40
0.7403895430824627
 40
0.7403895430824627
 40
0.7403895430824627
 40
0.7403895430824627
 40
0.7403895430824627
 40
1.0
 40
1.0
 40
1.0
 40
1.0
 40
1.0
 40
1.0
 40
1.0
 40
1.0
 10
13.16751981680892
 20
318.3379771549851
 30
0.0
 10
13.1728013653523
 20
318.3344257087683
 30
0.0
 10
13.17805311829639
 20
318.331243949339
 30
0.0
 10
13.18328258261661
 20
318.3284045698663
 30
0.0
 10
13.18849816840699
 20
318.3258759749369
 30
0.0
 10
13.19371101498438
 20
318.323624033767
 30
0.0
 10
13.19893752570017
 20
318.3216145351392
 30
0.0
 10
13.20420120286844
 20
318.3198149056866
 30
0.0
  0
SPLINE
  5
A6
330
7A
100
AcDbEntity
  8
$DDT_AUDIT_GENERATED_(7C)
  6
Continuous
 62
     7
100
AcDbSpline
210
0.0
220
0.0
230
1.0
 70
     8
 71
     7
 72
    16
 73
     8
 74
     0
 42
0.0000000638632832
 43
0.0000000001
 40
0.7736568759780984
 40
0.7736568759780984
 40
0.7736568759780984
 40
0.7736568759780984
 40
0.7736568759780984
 40
0.7736568759780984
 40
0.7736568759780984
 40
0.7736568759780984
 40
1.0
 40
1.0
 40
1.0
 40
1.0
 40
1.0
 40
1.0
 40
1.0
 40
1.0
 10
13.17223331478196
 20
318.3349214579668
 30
0.0
 10
13.17681917645343
 20
318.3320672055203
 30
0.0
 10
13.18138618752493
 20
318.3294801424143
 30
0.0
 10
13.18593975401871
 20
318.327140832359
 30
0.0
 10
13.19048622827649
 20
318.3250277685627
 30
0.0
 10
13.19503390866788
 20
318.3231183354602
 30
0.0
 10
13.19959427126199
 20
318.321389997659
 30
0.0
 10
13.20418289424444
 20
318.3198211653316
 30
0.0
  0
SPLINE
  5
A7
330
7A
100
AcDbEntity
  8
$DDT_AUDIT_GENERATED_(7C)
  6
Continuous
 62
     7
100
AcDbSpline
210
0.0
220
0.0
230
1.0
 70
     8
 71
     3
 72
     8
 73
     4
 74
     0
 42
0.0000010737781631
 43
0.0000000001
 40
0.0
 40
0.0
 40
0.0
 40
0.0
 40
1.0
 40
1.0
 40
1.0
 40
1.0
 10
12.90261728383523
 20
378.2236272615282
 30
0.0
 10
12.90185238653833
 20
378.2224085769064
 30
0.0
 10
12.90253789538389
 20
378.2195663252083
 30
0.0
 10
12.90467381037189
 20
378.2151005064339
 30
0.0
  0
ARC
  5
A8
330
7A
100
AcDbEntity
  8
$DDT_AUDIT_GENERATED_(7C)
  6
Continuous
 62
     7
100
AcDbCircle
 10
72.4129387772
 20
378.0834806712
 30
0.0
 40
0.6500680813789962
100
AcDbArc
 50
11.6814664174
 51
16.743351387
  0
ARC
  5
A9
330
7A
100
AcDbEntity
  8
$DDT_AUDIT_GENERATED_(7C)
  6
Continuous
 62
     7
100
AcDbCircle
 10
72.4130323042
 20
318.7338907643
 30
0.0
 40
0.6499784494968709
100
AcDbArc
 50
343.2550623883
 51
348.3174679806
  0
SPLINE
  5
AA
330
7A
100
AcDbEntity
  8
$DDT_AUDIT_GENERATED_(7C)
  6
Continuous
 62
     7
100
AcDbSpline
210
0.0
220
0.0
230
1.0
 70
     8
 71
     3
 72
     8
 73
     4
 74
     0
 42
0.0000010665599846
 43
0.0000000001
 40
0.0
 40
0.0
 40
0.0
 40
0.0
 40
1.0
 40
1.0
 40
1.0
 40
1.0
 10
13.16209676606849
 20
318.3342219336971
 30
0.0
 10
13.1633329024878
 20
318.333451132067
 30
0.0
 10
13.16619928310277
 20
318.3341286444971
 30
0.0
 10
13.1706959079134
 20
318.3362544709871
 30
0.0
  0
ARC
  5
AC
330
7A
100
AcDbEntity
  8
$DDT_AUDIT_GENERATED_(AB)
  6
Continuous
 62
     7
100
AcDbCircle
 10
4082.8827409197
 20
-3653.6221379083
 30
0.0
 40
5686.634009143057
100
AcDbArc
 50
134.883585909
 51
135.0825084347
  0
ARC
  5
AD
330
7A
100
AcDbEntity
  8
$DDT_AUDIT_GENERATED_(AB)
  6
Continuous
 62
     7
100
AcDbCircle
 10
-8984.04749884
 20
-8645.2249610032
 30
0.0
 40
12742.65263312377
100
AcDbArc
 50
44.9774365181
 51
45.0662078539
  0
SPLINE
  5
AE
330
7A
100
AcDbEntity
  8
$DDT_AUDIT_GENERATED_(AB)
  6
Continuous
 62
     7
100
AcDbSpline
210
0.0
220
0.0
230
1.0
 70
    12
 71
     3
 72
    11
 73
     7
 74
     0
 42
0.0000000497629294
 43
0.0000000001
 40
0.0
 40
0.0
 40
0.0
 40
0.0
 40
0.0012333535055359
 40
0.0012333535055359
 40
0.0012333535055359
 40
1.0
 40
1.0
 40
1.0
 40
1.0
 10
15.95063329845624
 20
375.5970497650034
 30
0.0
 41
1.0
 10
15.95057789235914
 20
375.5971051199609
 30
0.0
 41
1.0
 10
15.95052261303594
 20
375.5971605353828
 30
0.0
 41
1.0
 10
15.95046746089604
 20
375.5972160112395
 30
0.0
 41
1.0
 10
15.91433558856537
 20
375.6335599605047
 30
0.0
 41
0.8619704624480881
 10
15.93958267895793
 20
375.6870985026959
 30
0.0
 41
0.8619704624480881
 10
16.01583508330924
 20
375.735425194227
 30
0.0
 41
1.0
  0
ARC
  5
AF
330
7A
100
AcDbEntity
  8
$DDT_AUDIT_GENERATED_(AB)
  6
Continuous
 62
     7
100
AcDbCircle
 10
-3996.9284501503
 20
4350.436710319
 30
0.0
 40
5686.633909133339
100
AcDbArc
 50
314.8835859078
 51
315.0825084361
  0
ARC
  5
B0
330
7A
100
AcDbEntity
  8
$DDT_AUDIT_GENERATED_(AB)
  6
Continuous
 62
     7
100
AcDbCircle
 10
9070.0017291901
 20
9342.0396144282
 30
0.0
 40
12742.65264769981
100
AcDbArc
 50
224.9774401426
 51
225.0662078539
  0
SPLINE
  5
B1
330
7A
100
AcDbEntity
  8
$DDT_AUDIT_GENERATED_(AB)
  6
Continuous
 62
     7
100
AcDbSpline
210
0.0
220
0.0
230
1.0
 70
    12
 71
     3
 72
    11
 73
     7
 74
     0
 42
0.0000000497629424
 43
0.0000000001
 40
0.0
 40
0.0
 40
0.0
 40
0.0
 40
0.0012333537264827
 40
0.0012333537264827
 40
0.0012333537264827
 40
1.0
 40
1.0
 40
1.0
 40
1.0
 10
70.00358675414924
 20
321.2175933437952
 30
0.0
 41
1.0
 10
70.00364216024364
 20
321.2175379888405
 30
0.0
 41
1.0
 10
70.00369743956414
 20
321.2174825734213
 30
0.0
 41
1.0
 10
70.00375259170134
 20
321.2174270975671
 30
0.0
 41
1.0
 10
70.03988445849247
 20
321.1810831538742
 30
0.0
 41
0.861970438260422
 10
70.01463738171095
 20
321.1275446204276
 30
0.0
 41
0.861970438260422
 10
69.93838500636554
 20
321.0792179409364
 30
0.0
 41
1.0
  0
SPLINE
  5
B2
330
7A
100
AcDbEntity
  8
$DDT_AUDIT_GENERATED_(AB)
  6
Continuous
 62
     7
100
AcDbSpline
210
0.0
220
0.0
230
1.0
 70
    12
 71
     3
 72
    11
 73
     7
 74
     0
 42
0.0000000497628317
 43
0.0000000001
 40
0.0
 40
0.0
 40
0.0
 40
0.0
 40
0.0012333469103895
 40
0.0012333469103895
 40
0.0012333469103895
 40
1.0
 40
1.0
 40
1.0
 40
1.0
 10
70.16683844542413
 20
375.4337985011029
 30
0.0
 41
1.0
 10
70.16689380013484
 20
375.4338539069532
 30
0.0
 41
1.0
 10
70.16694921530994
 20
375.43390918603
 30
0.0
 41
1.0
 10
70.16700469091954
 20
375.4339643379241
 30
0.0
 41
1.0
 10
70.20334859806965
 20
375.4700961683876
 30
0.0
 41
0.861970966818267
 10
70.25688711058487
 20
375.44484882637
 30
0.0
 41
0.861970966818267
 10
70.30521387683483
 20
375.3685960261739
 30
0.0
 41
1.0
  0
SPLINE
  5
B3
330
7A
100
AcDbEntity
  8
$DDT_AUDIT_GENERATED_(AB)
  6
Continuous
 62
     7
100
AcDbSpline
210
0.0
220
0.0
230
1.0
 70
    12
 71
     3
 72
    11
 73
     7
 74
     0
 42
0.0000000497628827
 43
0.0000000001
 40
0.0
 40
0.0
 40
0.0
 40
0.0
 40
0.0012333495956158
 40
0.0012333495956158
 40
0.0012333495956158
 40
1.0
 40
1.0
 40
1.0
 40
1.0
 10
15.78738166568504
 20
321.3808446865485
 30
0.0
 41
1.0
 10
15.78732631088654
 20
321.3807892806105
 30
0.0
 41
1.0
 10
15.78727089562364
 20
321.3807340014461
 30
0.0
 41
1.0
 10
15.78721541992614
 20
321.3806788494645
 30
0.0
 41
1.0
 10
15.75087150373445
 20
321.3445470100128
 30
0.0
 41
0.86197075405707
 10
15.69733299051862
 20
321.3697942436347
 30
0.0
 41
0.86197075405707
 10
15.64900626571474
 20
321.4460468645752
 30
0.0
 41
1.0
  0
SPLINE
  5
B4
330
7A
100
AcDbEntity
  8
$DDT_AUDIT_GENERATED_(AB)
  6
Continuous
 62
     7
100
AcDbSpline
210
0.0
220
0.0
230
1.0
 70
    12
 71
     7
 72
    16
 73
     8
 74
     0
 42
0.0000000317397199
 43
0.0000000001
 40
0.3421422680479527
 40
0.3421422680479527
 40
0.3421422680479527
 40
0.3421422680479527
 40
0.3421422680479527
 40
0.3421422680479527
 40
0.3421422680479527
 40
0.3421422680479527
 40
0.4371912928352971
 40
0.4371912928352971
 40
0.4371912928352971
 40
0.4371912928352971
 40
0.4371912928352971
 40
0.4371912928352971
 40
0.4371912928352971
 40
0.4371912928352971
 10
15.86847310456601
 20
375.7053949128909
 30
0.0
 41
1.0
 10
15.87208284031468
 20
375.7080984083337
 30
0.0
 41
1.0
 10
15.87566857661325
 20
375.7107034087756
 30
0.0
 41
1.0
 10
15.87923002160333
 20
375.7132088653531
 30
0.0
 41
1.0
 10
15.88276695930641
 20
375.7156137846674
 30
0.0
 41
1.0
 10
15.88627921219708
 20
375.7179172652036
 30
0.0
 41
1.0
 10
15.88976661393503
 20
375.7201185237377
 30
0.0
 41
1.0
 10
15.89322899038565
 20
375.7222169135861
 30
0.0
 41
1.0
  0
SPLINE
  5
B5
330
7A
100
AcDbEntity
  8
$DDT_AUDIT_GENERATED_(AB)
  6
Continuous
 62
     7
100
AcDbSpline
210
0.0
220
0.0
230
1.0
 70
    12
 71
     7
 72
    16
 73
     8
 74
     0
 42
0.0000000317396632
 43
0.0000000001
 40
0.3421428918357219
 40
0.3421428918357219
 40
0.3421428918357219
 40
0.3421428918357219
 40
0.3421428918357219
 40
0.3421428918357219
 40
0.3421428918357219
 40
0.3421428918357219
 40
0.4371920806767085
 40
0.4371920806767085
 40
0.4371920806767085
 40
0.4371920806767085
 40
0.4371920806767085
 40
0.4371920806767085
 40
0.4371920806767085
 40
0.4371920806767085
 10
70.2751838227938
 20
375.5159579783648
 30
0.0
 41
1.0
 10
70.27788732452574
 20
375.5123482256116
 30
0.0
 41
1.0
 10
70.28049233045273
 20
375.508762472803
 30
0.0
 41
1.0
 10
70.28299779171115
 20
375.5052010118065
 30
0.0
 41
1.0
 10
70.28540271490202
 20
375.5016640586068
 30
0.0
 41
1.0
 10
70.28770619851055
 20
375.4981517907324
 30
0.0
 41
1.0
 10
70.28990745931412
 20
375.4946643745257
 30
0.0
 41
1.0
 10
70.29200585063201
 20
375.4912019841223
 30
0.0
 41
1.0
  0
SPLINE
  5
B6
330
7A
100
AcDbEntity
  8
$DDT_AUDIT_GENERATED_(AB)
  6
Continuous
 62
     7
100
AcDbSpline
210
0.0
220
0.0
230
1.0
 70
    12
 71
     7
 72
    16
 73
     8
 74
     0
 42
0.0000000317396992
 43
0.0000000001
 40
0.3421420058261693
 40
0.3421420058261693
 40
0.3421420058261693
 40
0.3421420058261693
 40
0.3421420058261693
 40
0.3421420058261693
 40
0.3421420058261693
 40
0.3421420058261693
 40
0.4371914033914555
 40
0.4371914033914555
 40
0.4371914033914555
 40
0.4371914033914555
 40
0.4371914033914555
 40
0.4371914033914555
 40
0.4371914033914555
 40
0.4371914033914555
 10
70.08574677897191
 20
321.1092480723187
 30
0.0
 41
1.0
 10
70.08213702529939
 20
321.1065445620551
 30
0.0
 41
1.0
 10
70.07855127176181
 20
321.1039395479078
 30
0.0
 41
1.0
 10
70.07498981022367
 20
321.101434078753
 30
0.0
 41
1.0
 10
70.07145285666489
 20
321.0990291480019
 30
0.0
 41
1.0
 10
70.06794058860899
 20
321.0967256571813
 30
0.0
 41
1.0
 10
70.06445317239242
 20
321.0945243895245
 30
0.0
 41
1.0
 10
70.06099078214483
 20
321.0924259917223
 30
0.0
 41
1.0
  0
SPLINE
  5
B7
330
7A
100
AcDbEntity
  8
$DDT_AUDIT_GENERATED_(AB)
  6
Continuous
 62
     7
100
AcDbSpline
210
0.0
220
0.0
230
1.0
 70
    12
 71
     7
 72
    16
 73
     8
 74
     0
 42
0.0000000317397044
 43
0.0000000001
 40
0.3421434302953088
 40
0.3421434302953088
 40
0.3421434302953088
 40
0.3421434302953088
 40
0.3421434302953088
 40
0.3421434302953088
 40
0.3421434302953088
 40
0.3421434302953088
 40
0.4371922396011162
 40
0.4371922396011162
 40
0.4371922396011162
 40
0.4371922396011162
 40
0.4371922396011162
 40
0.4371922396011162
 40
0.4371922396011162
 40
0.4371922396011162
 10
15.67903619336843
 20
321.2986852613062
 30
0.0
 41
1.0
 10
15.67633270722079
 20
321.3022949952869
 30
0.0
 41
1.0
 10
15.67372771599858
 20
321.3058807293804
 30
0.0
 41
1.0
 10
15.67122226855788
 20
321.309442171732
 30
0.0
 41
1.0
 10
15.66881735829064
 20
321.312979106369
 30
0.0
 41
1.0
 10
15.66651388670592
 20
321.3164913557732
 30
0.0
 41
1.0
 10
15.66431263702224
 20
321.3199787536128
 30
0.0
 41
1.0
 10
15.66221425591833
 20
321.3234411257623
 30
0.0
 41
1.0
  0
ARC
  5
B8
330
7A
100
AcDbEntity
  8
$DDT_AUDIT_GENERATED_(AB)
  6
Continuous
 62
     7
100
AcDbCircle
 10
42.9771104979
 20
296.0012149842
 30
0.0
 40
84.21718620493382
100
AcDbArc
 50
71.3787625116
 51
108.6212417511
  0
ARC
  5
B9
330
7A
100
AcDbEntity
  8
$DDT_AUDIT_GENERATED_(AB)
  6
Continuous
 62
     7
100
AcDbCircle
 10
-9.4289965618
 20
348.4073210853
 30
0.0
 40
84.21718621287052
100
AcDbArc
 50
341.378762445
 51
18.6212413878
  0
ARC
  5
BA
330
7A
100
AcDbEntity
  8
$DDT_AUDIT_GENERATED_(AB)
  6
Continuous
 62
     7
100
AcDbCircle
 10
95.383216586
 20
348.4073220314
 30
0.0
 40
84.21718619438738
100
AcDbArc
 50
161.3787618743
 51
198.6212415761
  0
ARC
  5
BB
330
7A
100
AcDbEntity
  8
$DDT_AUDIT_GENERATED_(AB)
  6
Continuous
 62
     7
100
AcDbCircle
 10
42.9771095442
 20
400.8134281306
 30
0.0
 40
84.21718620093796
100
AcDbArc
 50
251.3787625231
 51
267.0074812817
  0
ARC
  5
BC
330
7A
100
AcDbEntity
  8
$DDT_AUDIT_GENERATED_(AB)
  6
Continuous
 62
     7
100
AcDbCircle
 10
42.9771095442
 20
400.8134281306
 30
0.0
 40
84.21718620093796
100
AcDbArc
 50
272.9926558399
 51
288.6212417982
  0
ARC
  5
BD
330
7A
100
AcDbEntity
  8
$DDT_AUDIT_GENERATED_(AB)
  6
Continuous
 62
     7
100
AcDbCircle
 10
16.3896807313
 20
374.9877594669
 30
0.0
 40
0.886985504306474
100
AcDbArc
 50
125.1786278083
 51
134.680557985
  0
ARC
  5
BE
330
7A
100
AcDbEntity
  8
$DDT_AUDIT_GENERATED_(AB)
  6
Continuous
 62
     7
100
AcDbCircle
 10
16.5154907399
 20
374.6230648864
 30
0.0
 40
1.262071615662883
100
AcDbArc
 50
109.9124017842
 51
120.3321719016
  0
ARC
  5
BF
330
7A
100
AcDbEntity
  8
$DDT_AUDIT_GENERATED_(AB)
  6
Continuous
 62
     7
100
AcDbCircle
 10
16.7614882209
 20
374.8688860175
 30
0.0
 40
1.262204745450566
100
AcDbArc
 50
149.668506776
 51
160.0873269728
  0
SPLINE
  5
C0
330
7A
100
AcDbEntity
  8
$DDT_AUDIT_GENERATED_(AB)
  6
Continuous
 62
     7
100
AcDbSpline
210
0.0
220
0.0
230
1.0
 70
     8
 71
     3
 72
    14
 73
    10
 74
     0
 42
0.0000000683209222
 43
0.0000000001
 40
0.0
 40
0.0
 40
0.0
 40
0.0
 40
0.3634005669358427
 40
0.4893252257958344
 40
0.5929351984828765
 40
0.6861621302049383
 40
0.7800505675884124
 40
0.882825040524612
 40
1.0
 40
1.0
 40
1.0
 40
1.0
 10
15.76599382954517
 20
375.6184399346022
 30
0.0
 10
15.75276993005752
 20
375.6037812817035
 30
0.0
 10
15.73749117930581
 20
375.586852376586
 30
0.0
 10
15.7169662524702
 20
375.5604951723922
 30
0.0
 10
15.70525396822358
 20
375.5457231861486
 30
0.0
 10
15.6946727899244
 20
375.5329717360379
 30
0.0
 10
15.68535215885303
 20
375.5223044458792
 30
0.0
 10
15.6771369241741
 20
375.513101715395
 30
0.0
 10
15.67395636508351
 20
375.5088509760791
 30
0.0
 10
15.6720540247991
 20
375.5062985779854
 30
0.0
  0
ARC
  5
C1
330
7A
100
AcDbEntity
  8
$DDT_AUDIT_GENERATED_(AB)
  6
Continuous
 62
     7
100
AcDbCircle
 10
69.5575493974
 20
374.99475241
 30
0.0
 40
0.8869834693928205
100
AcDbArc
 50
35.1785517569
 51
44.6805523719
  0
ARC
  5
C2
330
7A
100
AcDbEntity
  8
$DDT_AUDIT_GENERATED_(AB)
  6
Continuous
 62
     7
100
AcDbCircle
 10
69.1928497983
 20
374.8689399823
 30
0.0
 40
1.262075235028493
100
AcDbArc
 50
19.9123595238
 51
30.3320943691
  0
ARC
  5
C3
330
7A
100
AcDbEntity
  8
$DDT_AUDIT_GENERATED_(AB)
  6
Continuous
 62
     7
100
AcDbCircle
 10
69.438668647
 20
374.622930147
 30
0.0
 40
1.262219136075838
100
AcDbArc
 50
59.6686120676
 51
70.0873244833
  0
SPLINE
  5
C4
330
7A
100
AcDbEntity
  8
$DDT_AUDIT_GENERATED_(AB)
  6
Continuous
 62
     7
100
AcDbSpline
210
0.0
220
0.0
230
1.0
 70
     8
 71
     3
 72
    14
 73
    10
 74
     0
 42
0.0000000683205954
 43
0.0000000001
 40
0.0
 40
0.0
 40
0.0
 40
0.0
 40
0.3634003021021979
 40
0.4893250166215
 40
0.5929351567180255
 40
0.6861623029654149
 40
0.7800508856951701
 40
0.8828253269227239
 40
1.0
 40
1.0
 40
1.0
 40
1.0
 10
70.18822847930332
 20
375.6184378191344
 30
0.0
 10
70.173569801524
 20
375.631661747414
 30
0.0
 10
70.15664086047236
 20
375.6469405341601
 30
0.0
 10
70.13028356737524
 20
375.6674654931223
 30
0.0
 10
70.11551150637938
 20
375.679177799641
 30
0.0
 10
70.1027599735873
 20
375.6897590038712
 30
0.0
 10
70.09209258547091
 20
375.6990796739829
 30
0.0
 10
70.08288973684418
 20
375.7072949656008
 30
0.0
 10
70.07863891887715
 20
375.7104755682272
 30
0.0
 10
70.07608647267466
 20
375.7123779353468
 30
0.0
  0
ARC
  5
C5
330
7A
100
AcDbEntity
  8
$DDT_AUDIT_GENERATED_(AB)
  6
Continuous
 62
     7
100
AcDbCircle
 10
69.1927244063
 20
321.9457607304
 30
0.0
 40
1.262212936754044
100
AcDbArc
 50
329.668554143
 51
340.0873244404
  0
SPLINE
  5
C6
330
7A
100
AcDbEntity
  8
$DDT_AUDIT_GENERATED_(AB)
  6
Continuous
 62
     7
100
AcDbSpline
210
0.0
220
0.0
230
1.0
 70
     8
 71
     3
 72
    14
 73
    10
 74
     0
 42
0.0000000683207147
 43
0.0000000001
 40
0.0
 40
0.0
 40
0.0
 40
0.0
 40
0.3634004517119088
 40
0.4893251162014097
 40
0.5929351696654089
 40
0.686162217001414
 40
0.7800507348258636
 40
0.8828251930234439
 40
1.0
 40
1.0
 40
1.0
 40
1.0
 10
70.18822618942377
 20
321.1962031741941
 30
0.0
 10
70.20145011785256
 20
321.2108618349088
 30
0.0
 10
70.21672890579953
 20
321.2277907548018
 30
0.0
 10
70.23725383957141
 20
321.2541480446864
 30
0.0
 10
70.24896613149109
 20
321.2689200845633
 30
0.0
 10
70.25954732740016
 20
321.2816715844998
 30
0.0
 10
70.26886798665153
 20
321.292338929715
 30
0.0
 10
70.27708325897275
 20
321.3015417258493
 30
0.0
 10
70.28026384349927
 20
321.3057925090501
 30
0.0
 10
70.28216619942654
 20
321.3083449339742
 30
0.0
  0
ARC
  5
C7
330
7A
100
AcDbEntity
  8
$DDT_AUDIT_GENERATED_(AB)
  6
Continuous
 62
     7
100
AcDbCircle
 10
69.564538848
 20
321.8268839219
 30
0.0
 40
0.8869860125407444
100
AcDbArc
 50
305.1786232934
 51
314.6805654582
  0
ARC
  5
C8
330
7A
100
AcDbEntity
  8
$DDT_AUDIT_GENERATED_(AB)
  6
Continuous
 62
     7
100
AcDbCircle
 10
69.4387315999
 20
322.1915739092
 30
0.0
 40
1.262066769691899
100
AcDbArc
 50
289.9123736367
 51
300.3321676562
  0
ARC
  5
C9
330
7A
100
AcDbEntity
  8
$DDT_AUDIT_GENERATED_(AB)
  6
Continuous
 62
     7
100
AcDbCircle
 10
16.396672875
 20
321.8198924661
 30
0.0
 40
0.886986252841219
100
AcDbArc
 50
215.178555591
 51
224.6805312841
  0
ARC
  5
CA
330
7A
100
AcDbEntity
  8
$DDT_AUDIT_GENERATED_(AB)
  6
Continuous
 62
     7
100
AcDbCircle
 10
16.7613727247
 20
321.945704624
 30
0.0
 40
1.262078079355982
100
AcDbArc
 50
199.9123970508
 51
210.332093974
  0
ARC
  5
CB
330
7A
100
AcDbEntity
  8
$DDT_AUDIT_GENERATED_(AB)
  6
Continuous
 62
     7
100
AcDbCircle
 10
16.5155499475
 20
322.1917102202
 30
0.0
 40
1.262216055351886
100
AcDbArc
 50
239.6686135752
 51
250.0873445575
  0
SPLINE
  5
CC
330
7A
100
AcDbEntity
  8
$DDT_AUDIT_GENERATED_(AB)
  6
Continuous
 62
     7
100
AcDbSpline
210
0.0
220
0.0
230
1.0
 70
     8
 71
     3
 72
    14
 73
    10
 74
     0
 42
0.0000000683205104
 43
0.0000000001
 40
0.0
 40
0.0
 40
0.0
 40
0.0
 40
0.3634004242047309
 40
0.4893251899878903
 40
0.5929353909746442
 40
0.6861625638234333
 40
0.7800511150330547
 40
0.8828254675410148
 40
1.0
 40
1.0
 40
1.0
 40
1.0
 10
15.76599158435306
 20
321.1962053318996
 30
0.0
 10
15.78065028914604
 20
321.1829813626471
 30
0.0
 10
15.79757925924207
 20
321.1677025266438
 30
0.0
 10
15.82393662418862
 20
321.1471775518033
 30
0.0
 10
15.83870870299065
 20
321.1354652318172
 30
0.0
 10
15.85146023909378
 20
321.1248840111722
 30
0.0
 10
15.8621276235105
 20
321.1155633291756
 30
0.0
 10
15.87133046157438
 20
321.1073480349276
 30
0.0
 10
15.87558126798432
 20
321.1041674373512
 30
0.0
 10
15.87813370641561
 20
321.1022650739928
 30
0.0
  0
ARC
  5
CE
330
7A
100
AcDbEntity
  8
$DDT_AUDIT_GENERATED_(CD)
  6
Continuous
 62
     7
100
AcDbCircle
 10
54.6489818168
 20
336.735441464
 30
0.0
 40
0.5000000000000001
100
AcDbArc
 50
291.6113491665
 51
338.3886507931
  0
ARC
  5
CF
330
7A
100
AcDbEntity
  8
$DDT_AUDIT_GENERATED_(CD)
  6
Continuous
 62
     7
100
AcDbCircle
 10
42.9771016095
 20
365.1512550181
 30
0.0
 40
31.21951930192168
100
AcDbArc
 50
247.6809644863
 51
292.319035359
  0
ARC
  5
D0
330
7A
100
AcDbEntity
  8
$DDT_AUDIT_GENERATED_(CD)
  6
Continuous
 62
     7
100
AcDbCircle
 10
31.3052213253
 20
336.7354414956
 30
0.0
 40
0.4999999999999989
100
AcDbArc
 50
201.6113492599
 51
248.3886506998
  0
ARC
  5
D1
330
7A
100
AcDbEntity
  8
$DDT_AUDIT_GENERATED_(CD)
  6
Continuous
 62
     7
100
AcDbCircle
 10
59.7210347839
 20
348.4073217256
 30
0.0
 40
31.21951922218761
100
AcDbArc
 50
157.6809645345
 51
202.3190354655
  0
ARC
  5
D2
330
7A
100
AcDbEntity
  8
$DDT_AUDIT_GENERATED_(CD)
  6
Continuous
 62
     7
100
AcDbCircle
 10
31.3052213253
 20
360.0792019555
 30
0.0
 40
0.4999999999999993
100
AcDbArc
 50
111.6113493002
 51
158.3886507401
  0
ARC
  5
D3
330
7A
100
AcDbEntity
  8
$DDT_AUDIT_GENERATED_(CD)
  6
Continuous
 62
     7
100
AcDbCircle
 10
42.9771016095
 20
331.6633884331
 30
0.0
 40
31.21951930189403
100
AcDbArc
 50
67.680964641
 51
112.3190355137
  0
ARC
  5
D4
330
7A
100
AcDbEntity
  8
$DDT_AUDIT_GENERATED_(CD)
  6
Continuous
 62
     7
100
AcDbCircle
 10
54.6489818168
 20
360.0792019871
 30
0.0
 40
0.4999999999999994
100
AcDbArc
 50
21.6113492069
 51
68.3886508335
  0
ARC
  5
D5
330
7A
100
AcDbEntity
  8
$DDT_AUDIT_GENERATED_(CD)
  6
Continuous
 62
     7
100
AcDbCircle
 10
26.2331681989
 20
348.4073217256
 30
0.0
 40
31.21951938162703
100
AcDbArc
 50
337.6809645928
 51
22.3190354072
  0
LINE
  5
D6
330
7A
100
AcDbEntity
  8
$DDT_AUDIT_GENERATED_(CD)
  6
Continuous
 62
     7
100
AcDbLine
 10
38.2211405323
 20
289.0126369723
 30
0.0
 11
38.2212175906
 21
289.0126369723
 31
0.0
  0
LINE
  5
D7
330
7A
100
AcDbEntity
  8
$DDT_AUDIT_GENERATED_(CD)
  6
Continuous
 62
     7
100
AcDbLine
 10
38.8648255484
 20
289.0126369722
 30
0.0
 11
38.8837380154
 21
289.0126369722
 31
0.0
  0
LINE
  5
D8
330
7A
100
AcDbEntity
  8
$DDT_AUDIT_GENERATED_(CD)
  6
Continuous
 62
     7
100
AcDbLine
 10
47.0704656082
 20
289.0126369715
 30
0.0
 11
38.8837374289
 21
289.0126369722
 31
0.0
  0
ARC
  5
D9
330
7A
100
AcDbEntity
  8
$DDT_AUDIT_GENERATED_(CD)
  6
Continuous
 62
     7
100
AcDbCircle
 10
-980.7814889766
 20
335.4093406295
 30
0.0
 40
1019.535443438675
100
AcDbArc
 50
357.4210752941
 51
359.8847961679
  0
ARC
  5
DA
330
7A
100
AcDbEntity
  8
$DDT_AUDIT_GENERATED_(CD)
  6
Continuous
 62
     7
100
AcDbCircle
 10
1066.7843860696
 20
335.4099480967
 30
0.0
 40
1019.584082652281
100
AcDbArc
 50
180.1152324269
 51
182.5788392335
  0
ARC
  5
DB
330
7A
100
AcDbEntity
  8
$DDT_AUDIT_GENERATED_(CD)
  6
Continuous
 62
     7
100
AcDbCircle
 10
38.2211404399
 20
289.5126369725
 30
0.0
 40
0.5000000002055565
100
AcDbArc
 50
177.2630644163
 51
270.0001939285
  0
ARC
  5
DC
330
7A
100
AcDbEntity
  8
$DDT_AUDIT_GENERATED_(CD)
  6
Continuous
 62
     7
100
AcDbCircle
 10
47.7330629942
 20
289.5126369716
 30
0.0
 40
0.4999999978429969
100
AcDbArc
 50
269.9999874053
 51
2.620094518
  0
ARC
  5
DD
330
7A
100
AcDbEntity
  8
$DDT_AUDIT_GENERATED_(CD)
  6
Continuous
 62
     7
100
AcDbCircle
 10
48.2021568269
 20
333.3636364351
 30
0.0
 40
0.9999999999675236
100
AcDbArc
 50
99.9068076069
 51
180.243846465
  0
ARC
  5
DE
330
7A
100
AcDbEntity
  8
$DDT_AUDIT_GENERATED_(CD)
  6
Continuous
 62
     7
100
AcDbCircle
 10
37.752046607
 20
333.3636363993
 30
0.0
 40
0.9999999998980655
100
AcDbArc
 50
359.7262838304
 51
80.0931895207
  0
LINE
  5
E0
330
7A
100
AcDbEntity
  8
$DDT_AUDIT_GENERATED_(DF)
  6
Continuous
 62
     7
100
AcDbLine
 10
47.2959892522
 20
289.0126365485
 30
0.0
 11
47.4037854796
 21
289.0126365485
 31
0.0
  0
LINE
  5
E1
330
7A
100
AcDbEntity
  8
$DDT_AUDIT_GENERATED_(DF)
  6
Continuous
 62
     7
100
AcDbLine
 10
47.4037854796
 20
289.0126365485
 30
0.0
 11
48.0429329951
 21
289.0126365484
 31
0.0
  0
LINE
  5
E2
330
7A
100
AcDbEntity
  8
$DDT_AUDIT_GENERATED_(DF)
  6
Continuous
 62
     7
100
AcDbLine
 10
38.7004259042
 20
289.0126365492
 30
0.0
 11
38.0612784412
 21
289.0126365493
 31
0.0
  0
LINE
  5
E3
330
7A
100
AcDbEntity
  8
$DDT_AUDIT_GENERATED_(DF)
  6
Continuous
 62
     7
100
AcDbLine
 10
38.7004161235
 20
289.0126365493
 30
0.0
 11
38.8082269943
 21
289.0126365493
 31
0.0
  0
LINE
  5
E4
330
7A
100
AcDbEntity
  8
$DDT_AUDIT_GENERATED_(DF)
  6
Continuous
 62
     7
100
AcDbLine
 10
38.8082269943
 20
289.0126365493
 30
0.0
 11
38.9860318434
 21
289.0126365493
 31
0.0
  0
LINE
  5
E5
330
7A
100
AcDbEntity
  8
$DDT_AUDIT_GENERATED_(DF)
  6
Continuous
 62
     7
100
AcDbLine
 10
38.9860318434
 20
289.0126365493
 30
0.0
 11
47.1181520684
 21
289.0126365485
 31
0.0
  0
LINE
  5
E6
330
7A
100
AcDbEntity
  8
$DDT_AUDIT_GENERATED_(DF)
  6
Continuous
 62
     7
100
AcDbLine
 10
47.1181520684
 20
289.0126365485
 30
0.0
 11
47.2959892522
 21
289.0126365485
 31
0.0
  0
ARC
  5
E7
330
7A
100
AcDbEntity
  8
$DDT_AUDIT_GENERATED_(DF)
  6
Continuous
 62
     7
100
AcDbCircle
 10
43.0521057126
 20
299.1288296881
 30
0.0
 40
15.78247027329531
100
AcDbArc
 50
250.3800517693
 51
289.6199482128
  0
ARC
  5
E8
330
7A
100
AcDbEntity
  8
$DDT_AUDIT_GENERATED_(DF)
  6
Continuous
 62
     7
100
AcDbCircle
 10
37.8707088961
 20
284.5335117862
 30
0.0
 40
0.2999381970426716
100
AcDbArc
 50
177.3048319624
 51
246.5024906808
  0
ARC
  5
E9
330
7A
100
AcDbEntity
  8
$DDT_AUDIT_GENERATED_(DF)
  6
Continuous
 62
     7
100
AcDbCircle
 10
48.2335025397
 20
284.5335117852
 30
0.0
 40
0.2999381970426083
100
AcDbArc
 50
293.4975093085
 51
2.6951680268
  0
LINE
  5
EA
330
7A
100
AcDbEntity
  8
$DDT_AUDIT_GENERATED_(DF)
  6
Continuous
 62
     7
100
AcDbLine
 10
37.76120123
 20
288.7254267879
 30
0.0
 11
37.569819738
 21
284.5218054643
 31
0.0
  0
LINE
  5
EB
330
7A
100
AcDbEntity
  8
$DDT_AUDIT_GENERATED_(DF)
  6
Continuous
 62
     7
100
AcDbLine
 10
48.534391697
 20
284.5218054808
 30
0.0
 11
48.3430102058
 21
288.7254268069
 31
0.0
  0
ARC
  5
EC
330
7A
100
AcDbEntity
  8
$DDT_AUDIT_GENERATED_(DF)
  6
Continuous
 62
     7
100
AcDbCircle
 10
38.0608130939
 20
288.7127059041
 30
0.0
 40
0.2999306682754248
100
AcDbArc
 50
89.9775175234
 51
177.4895319469
  0
ARC
  5
ED
330
7A
100
AcDbEntity
  8
$DDT_AUDIT_GENERATED_(DF)
  6
Continuous
 62
     7
100
AcDbCircle
 10
48.0433983428
 20
288.7127059032
 30
0.0
 40
0.2999306682706531
100
AcDbArc
 50
2.510468042
 51
90.0224824655
  0
SPLINE
  5
EF
330
7A
100
AcDbEntity
  8
$DDT_AUDIT_GENERATED_(EE)
  6
Continuous
 62
     7
100
AcDbSpline
210
0.0
220
0.0
230
1.0
 70
    12
 71
     3
 72
     8
 73
     4
 74
     0
 42
0.0000000003639794
 43
0.0000000001
 40
0.0
 40
0.0
 40
0.0
 40
0.0
 40
1.0
 40
1.0
 40
1.0
 40
1.0
 10
29.69297756145492
 20
335.3918151290613
 30
0.0
 41
1.0
 10
26.09396185441156
 20
344.0070061946587
 30
0.0
 41
1.0
 10
26.09396184252644
 20
352.807636888224
 30
0.0
 41
1.0
 10
29.6929775271487
 20
361.4228279549466
 30
0.0
 41
1.0
  0
ARC
  5
F0
330
7A
100
AcDbEntity
  8
$DDT_AUDIT_GENERATED_(EE)
  6
Continuous
 62
     7
100
AcDbCircle
 10
42.9771100028
 20
365.2750361605
 30
0.0
 40
32.84109148050182
100
AcDbArc
 50
246.6518179809
 51
262.5966950125
  0
ARC
  5
F1
330
7A
100
AcDbEntity
  8
$DDT_AUDIT_GENERATED_(EE)
  6
Continuous
 62
     7
100
AcDbCircle
 10
30.154338006
 20
335.5845495065
 30
0.0
 40
0.5000000000000007
100
AcDbArc
 50
202.6728442166
 51
247.327155913
  0
SPLINE
  5
F2
330
7A
100
AcDbEntity
  8
$DDT_AUDIT_GENERATED_(EE)
  6
Continuous
 62
     7
100
AcDbSpline
210
0.0
220
0.0
230
1.0
 70
    12
 71
     3
 72
     8
 73
     4
 74
     0
 42
0.000000000368845
 43
0.0000000001
 40
0.0
 40
0.0
 40
0.0
 40
0.0
 40
0.3380338958092156
 40
0.3380338958092156
 40
0.3380338958092156
 40
0.3380338958092156
 10
55.99261645548076
 20
335.123189095846
 30
0.0
 41
1.0
 10
53.08038985643168
 20
333.9065997953144
 30
0.0
 41
1.0
 10
50.14697364323043
 20
333.1012589142834
 30
0.0
 41
1.0
 10
47.20669343147925
 20
332.7071664528048
 30
0.0
 41
1.0
  0
SPLINE
  5
F3
330
7A
100
AcDbEntity
  8
$DDT_AUDIT_GENERATED_(EE)
  6
Continuous
 62
     7
100
AcDbSpline
210
0.0
220
0.0
230
1.0
 70
    12
 71
     3
 72
     8
 73
     4
 74
     0
 42
0.0000000003688448
 43
0.0000000001
 40
0.6619739338483762
 40
0.6619739338483762
 40
0.6619739338483762
 40
0.6619739338483762
 40
1.0
 40
1.0
 40
1.0
 40
1.0
 10
38.74732234299402
 20
332.707193826571
 30
0.0
 41
1.0
 10
35.80711055287783
 20
333.1012962026747
 30
0.0
 41
1.0
 10
32.87376277501534
 20
333.9066279476459
 30
0.0
 41
1.0
 10
29.96160362958733
 20
335.1231890615365
 30
0.0
 41
1.0
  0
ARC
  5
F4
330
7A
100
AcDbEntity
  8
$DDT_AUDIT_GENERATED_(EE)
  6
Continuous
 62
     7
100
AcDbCircle
 10
55.799882078
 20
335.5845495404
 30
0.0
 40
0.500000000006909
100
AcDbArc
 50
292.6728442188
 51
337.3271559145
  0
SPLINE
  5
F5
330
7A
100
AcDbEntity
  8
$DDT_AUDIT_GENERATED_(EE)
  6
Continuous
 62
     7
100
AcDbSpline
210
0.0
220
0.0
230
1.0
 70
    12
 71
     3
 72
     8
 73
     4
 74
     0
 42
0.0000000003639794
 43
0.0000000001
 40
0.0
 40
0.0
 40
0.0
 40
0.0
 40
1.0
 40
1.0
 40
1.0
 40
1.0
 10
29.96160359467354
 20
361.691454023079
 30
0.0
 41
1.0
 10
38.5767946602815
 20
365.2904697301225
 30
0.0
 41
1.0
 10
47.37742535384149
 20
365.2904697420055
 30
0.0
 41
1.0
 10
55.99261642055213
 20
361.6914540573881
 30
0.0
 41
1.0
  0
SPLINE
  5
F6
330
7A
100
AcDbEntity
  8
$DDT_AUDIT_GENERATED_(EE)
  6
Continuous
 62
     7
100
AcDbSpline
210
0.0
220
0.0
230
1.0
 70
    12
 71
     3
 72
     8
 73
     4
 74
     0
 42
0.0000000003639794
 43
0.0000000001
 40
0.0
 40
0.0
 40
0.0
 40
0.0
 40
1.0
 40
1.0
 40
1.0
 40
1.0
 10
56.26124248868739
 20
361.4228279898701
 30
0.0
 41
1.0
 10
59.86025819573471
 20
352.807636924259
 30
0.0
 41
1.0
 10
59.8602582076191
 20
344.0070062306958
 30
0.0
 41
1.0
 10
56.26124252299989
 20
335.3918151639809
 30
0.0
 41
1.0
  0
ARC
  5
F7
330
7A
100
AcDbEntity
  8
$DDT_AUDIT_GENERATED_(EE)
  6
Continuous
 62
     7
100
AcDbCircle
 10
30.1543379721
 20
361.2300935786
 30
0.0
 40
0.5000000000000092
100
AcDbArc
 50
112.6728442166
 51
157.327155913
  0
ARC
  5
F8
330
7A
100
AcDbEntity
  8
$DDT_AUDIT_GENERATED_(EE)
  6
Continuous
 62
     7
100
AcDbCircle
 10
55.7998820442
 20
361.2300936124
 30
0.0
 40
0.500000000008468
100
AcDbArc
 50
22.6728442192
 51
67.3271559148
  0
ENDBLK
  5
FA
330
7A
100
AcDbEntity
  8
0
100
AcDbBlockEnd
  0
BLOCK
  5
17B
330
FB
100
AcDbEntity
  8
0
100
AcDbBlockBegin
  2
SE1
 70
     0
 10
0.0
 20
0.0
 30
0.0
  3
SE1
  1

  0
SPLINE
  5
FD
330
FB
100
AcDbEntity
  8
$DDT_AUDIT_GENERATED_(7C)
  6
Continuous
 62
     7
100
AcDbSpline
210
0.0
220
0.0
230
1.0
 70
     8
 71
     3
 72
    73
 73
    69
 74
     0
 42
0.0000000020559566
 43
0.0000000001
 40
0.0
 40
0.0
 40
0.0
 40
0.0
 40
0.0627295480867383
 40
0.125459571347208
 40
0.1881904909927414
 40
0.2509227897637387
 40
0.3136570427570837
 40
0.3763939482421854
 40
0.4391343584593846
 40
0.5018793103923598
 40
0.607278943774257
 40
0.7520601243225343
 40
0.8234742954570418
 40
0.8763905442638145
 40
0.9382945938928915
 40
0.9691733554954906
 40
0.9845933443042769
 40
0.9922983576783972
 40
0.9961496025749716
 40
0.9980749075151182
 40
0.9990374803509755
 40
0.9992781152525629
 40
0.9993382734584048
 40
0.9993683524833791
 40
0.999383391976377
 40
0.9993984314563826
 40
0.999413470923399
 40
0.9994285103774194
 40
0.9994435498184473
 40
0.999458589246483
 40
0.9994736286615266
 40
0.999488668063574
 40
0.9995037074526262
 40
0.9995187468286864
 40
0.999533786191751
 40
0.9995488255418233
 40
0.9995638648788973
 40
0.9995789042029789
 40
0.9995939435140627
 40
0.9996089828121504
 40
0.9996240220972401
 40
0.9996390613693384
 40
0.9996541006284347
 40
0.999669139874536
 40
0.9996841791076425
 40
0.9996992183277478
 40
0.9997142575348578
 40
0.99972929672897
 40
0.9997443359100812
 40
0.9997593750781976
 40
0.9997744142333125
 40
0.9997894533754266
 40
0.999804492504546
 40
0.9998195316206607
 40
0.9998345707237781
 40
0.9998496098138948
 40
0.9998646488910135
 40
0.999879687955128
 40
0.9998947270062423
 40
0.9999097660443554
 40
0.9999248050694681
 40
0.9999398440815802
 40
0.9999548830806881
 40
0.9999699220667926
 40
0.9999849610398966
 40
0.9999924805215705
 40
0.9999962402611917
 40
1.0
 40
1.0
 40
1.0
 40
1.0
 10
178.926266605164
 20
383.1085365374586
 30
0.0
 10
178.9261692450908
 20
383.104867828603
 30
0.0
 10
178.9261856870998
 20
383.0975303831013
 30
0.0
 10
178.9262077800861
 20
383.037925205508
 30
0.0
 10
178.9262272275251
 20
382.9427431105532
 30
0.0
 10
178.9262432891722
 20
382.8084948028811
 30
0.0
 10
178.9262554064438
 20
382.6361151567128
 30
0.0
 10
178.9262629762459
 20
382.4253540600699
 30
0.0
 10
178.9262654093458
 20
382.1762771009941
 30
0.0
 10
178.92626137854
 20
381.823754437838
 30
0.0
 10
178.9262418301342
 20
381.260628920779
 30
0.0
 10
178.9261969733544
 20
380.5514949676686
 30
0.0
 10
178.9261383028419
 20
379.8641613091336
 30
0.0
 10
178.9260886483694
 20
379.3511609007243
 30
0.0
 10
178.9260429132237
 20
378.9228749149797
 30
0.0
 10
178.9260045723534
 20
378.5886845157636
 30
0.0
 10
178.92598431668
 20
378.4178777289266
 30
0.0
 10
178.9259739153673
 20
378.3315547726017
 30
0.0
 10
178.9259686460796
 20
378.2881644418365
 30
0.0
 10
178.9259659942459
 20
378.266412196118
 30
0.0
 10
178.9259647590347
 20
378.2562996339721
 30
0.0
 10
178.9259642595296
 20
378.252213509812
 30
0.0
 10
178.9259641286648
 20
378.2511432053778
 30
0.0
 10
178.925964087022
 20
378.2508026412152
 30
0.0
 10
178.9259640632249
 20
378.2506080292257
 30
0.0
 10
178.9259640453764
 20
378.2504620682707
 30
0.0
 10
178.9259640275274
 20
378.2503161052573
 30
0.0
 10
178.9259640096778
 20
378.2501701401941
 30
0.0
 10
178.9259639918275
 20
378.2500241730788
 30
0.0
 10
178.9259639739766
 20
378.2498782039121
 30
0.0
 10
178.9259639561251
 20
378.2497322326938
 30
0.0
 10
178.9259639382731
 20
378.2495862594238
 30
0.0
 10
178.9259639204204
 20
378.2494402841024
 30
0.0
 10
178.9259639025671
 20
378.2492943067295
 30
0.0
 10
178.9259638847132
 20
378.249148327305
 30
0.0
 10
178.9259638668587
 20
378.2490023458289
 30
0.0
 10
178.9259638490036
 20
378.2488563623014
 30
0.0
 10
178.9259638311478
 20
378.2487103767224
 30
0.0
 10
178.9259638132914
 20
378.2485643890919
 30
0.0
 10
178.9259637954345
 20
378.2484183994098
 30
0.0
 10
178.925963777577
 20
378.2482724076764
 30
0.0
 10
178.9259637597188
 20
378.2481264138914
 30
0.0
 10
178.92596374186
 20
378.247980418055
 30
0.0
 10
178.9259637240007
 20
378.2478344201672
 30
0.0
 10
178.9259637061407
 20
378.2476884202279
 30
0.0
 10
178.9259636882801
 20
378.2475424182372
 30
0.0
 10
178.9259636704189
 20
378.2473964141951
 30
0.0
 10
178.925963652557
 20
378.2472504081016
 30
0.0
 10
178.9259636346946
 20
378.2471043999566
 30
0.0
 10
178.9259636168316
 20
378.2469583897604
 30
0.0
 10
178.9259635989679
 20
378.2468123775127
 30
0.0
 10
178.9259635811037
 20
378.2466663632136
 30
0.0
 10
178.9259635632389
 20
378.2465203468632
 30
0.0
 10
178.9259635453734
 20
378.2463743284614
 30
0.0
 10
178.9259635275073
 20
378.2462283080084
 30
0.0
 10
178.9259635096406
 20
378.2460822855039
 30
0.0
 10
178.9259634917734
 20
378.2459362609482
 30
0.0
 10
178.9259634739055
 20
378.2457902343411
 30
0.0
 10
178.925963456037
 20
378.2456442056828
 30
0.0
 10
178.9259634381679
 20
378.2454981749731
 30
0.0
 10
178.9259634202981
 20
378.2453521422121
 30
0.0
 10
178.9259634024278
 20
378.2452061073999
 30
0.0
 10
178.9259633845569
 20
378.2450600705366
 30
0.0
 10
178.9259633666853
 20
378.2449140316209
 30
0.0
 10
178.9259633517918
 20
378.2447923307928
 30
0.0
 10
178.9259633413662
 20
378.2447071392985
 30
0.0
 10
178.9259633354086
 20
378.2446584582113
 30
0.0
 10
178.9259633324297
 20
378.2446341175585
 30
0.0
 10
178.925963333635
 20
378.2446219472334
 30
0.0
  0
LINE
  5
FE
330
FB
100
AcDbEntity
  8
$DDT_AUDIT_GENERATED_(7C)
  6
Continuous
 62
     7
100
AcDbLine
 10
178.9259633336
 20
378.2446219472
 30
0.0
 11
178.9259568868
 21
378.1483825352
 31
0.0
  0
LINE
  5
FF
330
FB
100
AcDbEntity
  8
$DDT_AUDIT_GENERATED_(7C)
  6
Continuous
 62
     7
100
AcDbLine
 10
178.9259568868
 20
378.1483825352
 30
0.0
 11
178.925952955
 21
377.9938862037
 31
0.0
  0
SPLINE
  5
100
330
FB
100
AcDbEntity
  8
$DDT_AUDIT_GENERATED_(7C)
  6
Continuous
 62
     7
100
AcDbSpline
210
0.0
220
0.0
230
1.0
 70
     8
 71
     3
 72
    73
 73
    69
 74
     0
 42
0.0000000003380384
 43
0.0000000001
 40
0.0
 40
0.0
 40
0.0
 40
0.0
 40
0.0627295483045838
 40
0.1254595717678131
 40
0.1881904916016386
 40
0.2509227905464424
 40
0.3136570436987739
 40
0.3763939493277092
 40
0.4391343596735822
 40
0.5018793117207062
 40
0.6072792072459476
 40
0.7520601284852075
 40
0.823474051281232
 40
0.8763905476015379
 40
0.9382945959173047
 40
0.9691733566022099
 40
0.9845933448819536
 40
0.9922983579734006
 40
0.9961496027240286
 40
0.9980749075900364
 40
0.9990374803885322
 40
0.9992781152807493
 40
0.9993382734842474
 40
0.9993683525080469
 40
0.9993833920004592
 40
0.9993984314798827
 40
0.9994134709463102
 40
0.9994285103997452
 40
0.9994435498401878
 40
0.9994585892676346
 40
0.9994736286820896
 40
0.9994886680835517
 40
0.9995037074720189
 40
0.9995187468474935
 40
0.9995337862099697
 40
0.9995488255594536
 40
0.9995638648959426
 40
0.9995789042194361
 40
0.9995939435299311
 40
0.9996089828274342
 40
0.9996240221119392
 40
0.999639061383446
 40
0.9996541006419576
 40
0.9996691398874711
 40
0.9996841791199895
 40
0.9996992183395099
 40
0.9997142575460289
 40
0.9997292967395532
 40
0.9997443359200798
 40
0.9997593750876048
 40
0.9997744142421322
 40
0.9997894533836618
 40
0.9998044925121902
 40
0.9998195316277211
 40
0.9998345707302507
 40
0.9998496098197804
 40
0.9998646488963081
 40
0.9998796879598357
 40
0.9998947270103623
 40
0.9999097660478885
 40
0.9999248050724138
 40
0.9999398440839351
 40
0.9999548830824561
 40
0.9999699220679734
 40
0.9999849610404867
 40
0.9999924805218687
 40
0.9999962402613425
 40
1.0
 40
1.0
 40
1.0
 40
1.0
 10
178.9262666046378
 20
348.4059124762285
 30
0.0
 10
178.9261692440707
 20
347.7762332598707
 30
0.0
 10
178.9261856861688
 20
346.5168700575125
 30
0.0
 10
178.9262077793047
 20
344.6285900854442
 30
0.0
 10
178.9262272268994
 20
342.7418377940547
 30
0.0
 10
178.9262432887052
 20
340.8573788276566
 30
0.0
 10
178.9262554061338
 20
338.9759786751957
 30
0.0
 10
178.9262629760867
 20
337.0984039237885
 30
0.0
 10
178.9262654093266
 20
335.2254169713025
 30
0.0
 10
178.9262613786694
 20
332.9346441344386
 30
0.0
 10
178.9262418304028
 20
329.8438332231452
 30
0.0
 10
178.9261969736959
 20
326.6931400248288
 30
0.0
 10
178.9261383032294
 20
324.0805367049816
 30
0.0
 10
178.9260886487106
 20
322.2828167315323
 30
0.0
 10
178.9260429134035
 20
320.8843070266074
 30
0.0
 10
178.9260045724499
 20
319.8508606687839
 30
0.0
 10
178.9259843167295
 20
319.3363912664683
 30
0.0
 10
178.925973915392
 20
319.0797362032719
 30
0.0
 10
178.9259686460915
 20
318.951555498503
 30
0.0
 10
178.9259659942514
 20
318.8875020981377
 30
0.0
 10
178.9259647590372
 20
318.8577714201489
 30
0.0
 10
178.9259642595308
 20
318.8457663126528
 30
0.0
 10
178.9259641286657
 20
318.8426222616947
 30
0.0
 10
178.9259640870228
 20
318.8416218943808
 30
0.0
 10
178.9259640632256
 20
318.8410502586196
 30
0.0
 10
178.9259640453771
 20
318.840621533087
 30
0.0
 10
178.925964027528
 20
318.8401928086686
 30
0.0
 10
178.9259640096783
 20
318.8397640853613
 30
0.0
 10
178.925963991828
 20
318.8393353631661
 30
0.0
 10
178.9259639739771
 20
318.8389066420826
 30
0.0
 10
178.9259639561256
 20
318.8384779221111
 30
0.0
 10
178.9259639382735
 20
318.8380492032513
 30
0.0
 10
178.9259639204208
 20
318.8376204855035
 30
0.0
 10
178.9259639025674
 20
318.8371917688676
 30
0.0
 10
178.9259638847134
 20
318.8367630533436
 30
0.0
 10
178.9259638668589
 20
318.8363343389315
 30
0.0
 10
178.9259638490037
 20
318.8359056256315
 30
0.0
 10
178.925963831148
 20
318.8354769134434
 30
0.0
 10
178.9259638132916
 20
318.8350482023673
 30
0.0
 10
178.9259637954346
 20
318.8346194924032
 30
0.0
 10
178.925963777577
 20
318.8341907835513
 30
0.0
 10
178.9259637597187
 20
318.8337620758113
 30
0.0
 10
178.92596374186
 20
318.8333333691834
 30
0.0
 10
178.9259637240006
 20
318.8329046636676
 30
0.0
 10
178.9259637061405
 20
318.8324759592638
 30
0.0
 10
178.9259636882798
 20
318.8320472559723
 30
0.0
 10
178.9259636704186
 20
318.8316185537929
 30
0.0
 10
178.9259636525568
 20
318.8311898527256
 30
0.0
 10
178.9259636346943
 20
318.8307611527705
 30
0.0
 10
178.9259636168312
 20
318.8303324539276
 30
0.0
 10
178.9259635989675
 20
318.8299037561969
 30
0.0
 10
178.9259635811032
 20
318.8294750595784
 30
0.0
 10
178.9259635632383
 20
318.8290463640722
 30
0.0
 10
178.9259635453728
 20
318.8286176696782
 30
0.0
 10
178.9259635275067
 20
318.8281889763965
 30
0.0
 10
178.92596350964
 20
318.8277602842272
 30
0.0
 10
178.9259634917727
 20
318.8273315931701
 30
0.0
 10
178.9259634739047
 20
318.8269029032254
 30
0.0
 10
178.9259634560362
 20
318.8264742143931
 30
0.0
 10
178.925963438167
 20
318.8260455266731
 30
0.0
 10
178.9259634202973
 20
318.8256168400654
 30
0.0
 10
178.9259634024269
 20
318.8251881545702
 30
0.0
 10
178.9259633845559
 20
318.8247594701874
 30
0.0
 10
178.9259633666843
 20
318.8243307869174
 30
0.0
 10
178.9259633517908
 20
318.8239735517075
 30
0.0
 10
178.9259633413651
 20
318.823723487523
 30
0.0
 10
178.9259633354075
 20
318.8235805938689
 30
0.0
 10
178.9259633324286
 20
318.8235091470963
 30
0.0
 10
178.9259633336338
 20
318.8234734237139
 30
0.0
  0
LINE
  5
101
330
FB
100
AcDbEntity
  8
$DDT_AUDIT_GENERATED_(7C)
  6
Continuous
 62
     7
100
AcDbLine
 10
178.9259633336
 20
318.8234734237
 30
0.0
 11
178.9259568868
 21
318.6690041882
 31
0.0
  0
LINE
  5
102
330
FB
100
AcDbEntity
  8
$DDT_AUDIT_GENERATED_(7C)
  6
Continuous
 62
     7
100
AcDbLine
 10
178.9259568868
 20
318.6690041882
 30
0.0
 11
178.9259529549
 21
318.5727539481
 31
0.0
  0
ARC
  5
103
330
FB
100
AcDbEntity
  8
$DDT_AUDIT_GENERATED_(7C)
  6
Continuous
 62
     7
100
AcDbCircle
 10
180.5474360944
 20
318.6210783289
 30
0.0
 40
5.378733981256815
100
AcDbArc
 50
359.4850446157
 51
0.5102742973
  0
ARC
  5
104
330
FB
100
AcDbEntity
  8
$DDT_AUDIT_GENERATED_(7C)
  6
Continuous
 62
     7
100
AcDbCircle
 10
171.5270940975
 20
318.7468189307
 30
0.0
 40
14.39907305972929
100
AcDbArc
 50
359.6902693611
 51
0.3049480767
  0
SPLINE
  5
105
330
FB
100
AcDbEntity
  8
$DDT_AUDIT_GENERATED_(7C)
  6
Continuous
 62
     7
100
AcDbSpline
210
0.0
220
0.0
230
1.0
 70
     8
 71
     2
 72
    12
 73
     9
 74
     0
 42
0.0000000003380066
 43
0.0000000001
 40
0.0
 40
0.0
 40
0.0
 40
0.25
 40
0.25
 40
0.5
 40
0.5
 40
0.75
 40
0.75
 40
1.0
 40
1.0
 40
1.0
 10
185.9262664673145
 20
348.4086786369909
 30
0.0
 10
185.9263720670128
 20
344.6261954380211
 30
0.0
 10
185.9263720670121
 20
340.8600065876225
 30
0.0
 10
185.9263720670114
 20
337.0862503221379
 30
0.0
 10
185.9263720670104
 20
333.3602652891144
 30
0.0
 10
185.9263720670096
 20
329.635651422344
 30
0.0
 10
185.9263720670085
 20
325.9836308549538
 30
0.0
 10
185.9263720670075
 20
322.3501625650777
 30
0.0
 10
185.9259632136698
 20
318.8234554463601
 30
0.0
  0
ARC
  5
106
330
FB
100
AcDbEntity
  8
$DDT_AUDIT_GENERATED_(7C)
  6
Continuous
 62
     7
100
AcDbCircle
 10
171.6803244003
 20
378.0715119884
 30
0.0
 40
14.24583979365239
100
AcDbArc
 50
359.6878922686
 51
0.3091912629
  0
ARC
  5
107
330
FB
100
AcDbEntity
  8
$DDT_AUDIT_GENERATED_(7C)
  6
Continuous
 62
     7
100
AcDbCircle
 10
180.4550189637
 20
378.1968727663
 30
0.0
 40
5.471152641001109
100
AcDbArc
 50
359.4922437343
 51
0.5000795339
  0
SPLINE
  5
108
330
FB
100
AcDbEntity
  8
$DDT_AUDIT_GENERATED_(7C)
  6
Continuous
 62
     7
100
AcDbSpline
210
0.0
220
0.0
230
1.0
 70
     8
 71
     2
 72
    12
 73
     9
 74
     0
 42
0.0000000018139148
 43
0.0000000001
 40
0.1336077177226722
 40
0.1336077177226722
 40
0.1336077177226722
 40
0.25
 40
0.25
 40
0.5
 40
0.5
 40
0.75
 40
0.75
 40
1.0
 40
1.0
 40
1.0
 10
185.9263491777851
 20
383.0209914927423
 30
0.0
 10
185.9263720670041
 20
382.9447382004466
 30
0.0
 10
185.9263720670049
 20
382.8020713591615
 30
0.0
 10
185.9263720670068
 20
382.4950202823171
 30
0.0
 10
185.9263720670086
 20
381.8827219278743
 30
0.0
 10
185.9263720670104
 20
381.2706488994457
 30
0.0
 10
185.9263720670122
 20
380.3560438025634
 30
0.0
 10
185.9263720670139
 20
379.4460849055204
 30
0.0
 10
185.9259632136562
 20
378.2446245684021
 30
0.0
  0
LINE
  5
109
330
FB
100
AcDbEntity
  8
$DDT_AUDIT_GENERATED_(7C)
  6
Continuous
 62
     7
100
AcDbLine
 10
185.4187036954
 20
378.4644999089
 30
0.0
 11
179.4332249165
 21
378.4644999089
 31
0.0
  0
LINE
  5
10A
330
FB
100
AcDbEntity
  8
$DDT_AUDIT_GENERATED_(7C)
  6
Continuous
 62
     7
100
AcDbLine
 10
185.4187031413
 20
318.5392597563
 30
0.0
 11
179.4332247866
 21
318.5392597563
 31
0.0
  0
SPLINE
  5
10B
330
FB
100
AcDbEntity
  8
$DDT_AUDIT_GENERATED_(7C)
  6
Continuous
 62
     7
100
AcDbSpline
210
0.0
220
0.0
230
1.0
 70
     8
 71
     3
 72
    32
 73
    28
 74
     0
 42
0.0000000018229611
 43
0.0000000001
 40
0.0
 40
0.0
 40
0.0
 40
0.0
 40
0.0004812523803441
 40
0.0009625180730317
 40
0.0019250893573398
 40
0.0038503912644803
 40
0.0077016303736035
 40
0.0154066332725392
 40
0.0308266054141486
 40
0.0617053498951776
 40
0.1236094228711779
 40
0.1768208609183138
 40
0.2479400761440683
 40
0.4212934514465154
 40
0.4981150163600702
 40
0.5315800674668563
 40
0.5650436480971073
 40
0.5985059412976097
 40
0.631967112779283
 40
0.6654273122459397
 40
0.6988866747240222
 40
0.732345321893152
 40
0.7658033634173623
 40
0.7992608982768781
 40
0.8327180161003571
 40
0.8661747984974895
 40
0.872205327920583
 40
0.872205327920583
 40
0.872205327920583
 40
0.872205327920583
 10
178.9259529549459
 20
318.5727539481075
 30
0.0
 10
178.9259528951273
 20
318.5711959994107
 30
0.0
 10
178.9259527737676
 20
318.5680800589214
 30
0.0
 10
178.9259525318032
 20
318.5618517560079
 30
0.0
 10
178.9259521098462
 20
318.5509589137552
 30
0.0
 10
178.9259512722074
 20
318.5292020057742
 30
0.0
 10
178.9259496217438
 20
318.485802218472
 30
0.0
 10
178.9259464199033
 20
318.3994606788883
 30
0.0
 10
178.9259404096852
 20
318.2286174472936
 30
0.0
 10
178.925929940734
 20
317.8943574833957
 30
0.0
 10
178.9259199092296
 20
317.4651199594891
 30
0.0
 10
178.9259130861803
 20
316.9521149317411
 30
0.0
 10
178.9259117372068
 20
316.1918325325221
 30
0.0
 10
178.9259283536276
 20
315.4980700278644
 30
0.0
 10
178.9259545225647
 20
315.0007476599335
 30
0.0
 10
178.9259696548367
 20
314.7745492018884
 30
0.0
 10
178.925981052241
 20
314.6274533228837
 30
0.0
 10
178.9259931539409
 20
314.4912608882532
 30
0.0
 10
178.9260058787019
 20
314.3659659258656
 30
0.0
 10
178.9260191337847
 20
314.2515699648337
 30
0.0
 10
178.9260328296774
 20
314.1480724976455
 30
0.0
 10
178.9260468761409
 20
314.0554736825349
 30
0.0
 10
178.926061183292
 20
313.9737730714307
 30
0.0
 10
178.9260756612267
 20
313.902971995854
 30
0.0
 10
178.9260902204395
 20
313.8430652955286
 30
0.0
 10
178.9261007947447
 20
313.8074593207479
 30
0.0
 10
178.9261064967955
 20
313.7907016901291
 30
0.0
 10
178.9261073670012
 20
313.7882014208436
 30
0.0
  0
SPLINE
  5
10C
330
FB
100
AcDbEntity
  8
$DDT_AUDIT_GENERATED_(7C)
  6
Continuous
 62
     7
100
AcDbSpline
210
0.0
220
0.0
230
1.0
 70
     8
 71
     3
 72
    35
 73
    31
 74
     0
 42
0.0000000003379752
 43
0.0000000001
 40
0.0
 40
0.0
 40
0.0
 40
0.0
 40
0.0004812522491252
 40
0.0009625178105518
 40
0.0019250888322278
 40
0.0038503902136681
 40
0.0077016282697008
 40
0.0154066290562282
 40
0.0308265969522471
 40
0.0617053328920315
 40
0.1236093888458082
 40
0.1768140408224244
 40
0.2479400100935205
 40
0.4212916747069196
 40
0.4981149110225701
 40
0.5315799691810656
 40
0.5650435568426966
 40
0.5985058570579347
 40
0.6319670355414202
 40
0.6654272420007126
 40
0.698886611466018
 40
0.7323452656207288
 40
0.7658033141326452
 40
0.7992608559857469
 40
0.8327179808124232
 40
0.8661747702260627
 40
0.8996312991539324
 40
0.9330876371702771
 40
0.9665438498295906
 40
1.0
 40
1.0
 40
1.0
 40
1.0
 10
178.9259529549547
 20
377.9938862036607
 30
0.0
 10
178.9259528951362
 20
377.9893126635013
 30
0.0
 10
178.9259527737769
 20
377.9801654566698
 30
0.0
 10
178.9259525318131
 20
377.9618692601588
 30
0.0
 10
178.9259521098572
 20
377.9298461743998
 30
0.0
 10
178.9259512722207
 20
377.8657813695684
 30
0.0
 10
178.9259496217614
 20
377.7375778785074
 30
0.0
 10
178.9259464199289
 20
377.480877040406
 30
0.0
 10
178.9259404097248
 20
376.966315528782
 30
0.0
 10
178.9259299407931
 20
375.9326823727958
 30
0.0
 10
178.9259199097582
 20
374.5311530003669
 30
0.0
 10
178.9259130863296
 20
372.733069233657
 30
0.0
 10
178.9259117367899
 20
369.8425628302097
 30
0.0
 10
178.925928353211
 20
366.6900889448601
 30
0.0
 10
178.9259545217697
 20
363.8859799204151
 30
0.0
 10
178.9259696540691
 20
362.4605652752986
 30
0.0
 10
178.9259810514048
 20
361.4634457973623
 30
0.0
 10
178.9259931530554
 20
360.4648175163772
 30
0.0
 10
178.9260058777834
 20
359.4647979411108
 30
0.0
 10
178.9260191328448
 20
358.4635026726396
 30
0.0
 10
178.9260328287238
 20
357.4610478227025
 30
0.0
 10
178.9260468751786
 20
356.4575493657906
 30
0.0
 10
178.9260611823233
 20
355.4531233127731
 30
0.0
 10
178.9260756602523
 20
354.447885664496
 30
0.0
 10
178.926090219459
 20
353.4419524239857
 30
0.0
 10
178.9261047695347
 20
352.4354395942472
 30
0.0
 10
178.9261192239534
 20
351.4284631750797
 30
0.0
 10
178.9261334822309
 20
350.4211391782264
 30
0.0
 10
178.9261474965014
 20
349.4135835701696
 30
0.0
 10
178.9261565142052
 20
348.741802631752
 30
0.0
 10
178.9262666046378
 20
348.4059124762285
 30
0.0
  0
SPLINE
  5
10D
330
FB
100
AcDbEntity
  8
$DDT_AUDIT_GENERATED_(7C)
  6
Continuous
 62
     7
100
AcDbSpline
210
0.0
220
0.0
230
1.0
 70
     8
 71
     2
 72
     8
 73
     5
 74
     0
 42
0.0000000020555428
 43
0.0000000001
 40
0.0
 40
0.0
 40
0.0
 40
0.5
 40
0.5
 40
1.0
 40
1.0
 40
1.0
 10
185.9259528349682
 20
318.5727367100258
 30
0.0
 10
185.9263720670022
 20
316.160386244051
 30
0.0
 10
185.9263720669982
 20
314.9345565477162
 30
0.0
 10
185.9263720669942
 20
313.708344289404
 30
0.0
 10
185.9262664672972
 20
313.7088355926719
 30
0.0
  0
SPLINE
  5
10E
330
FB
100
AcDbEntity
  8
$DDT_AUDIT_GENERATED_(7C)
  6
Continuous
 62
     7
100
AcDbSpline
210
0.0
220
0.0
230
1.0
 70
     8
 71
     2
 72
     8
 73
     5
 74
     0
 42
0.0000000003380065
 43
0.0000000001
 40
0.0
 40
0.0
 40
0.0
 40
0.5
 40
0.5
 40
1.0
 40
1.0
 40
1.0
 10
185.9259528349668
 20
377.9939109017279
 30
0.0
 10
185.9263720670157
 20
370.9131230773709
 30
0.0
 10
185.9263720670152
 20
363.4571020412789
 30
0.0
 10
185.9263720670146
 20
355.9987574713515
 30
0.0
 10
185.9262664673145
 20
348.4086786369909
 30
0.0
  0
LINE
  5
10F
330
FB
100
AcDbEntity
  8
$DDT_AUDIT_GENERATED_(7C)
  6
Continuous
 62
     7
100
AcDbLine
 10
185.6259580219
 20
383.4086154919
 30
0.0
 11
179.2259581592
 21
383.4086154919
 31
0.0
  0
LINE
  5
110
330
FB
100
AcDbEntity
  8
$DDT_AUDIT_GENERATED_(7C)
  6
Continuous
 62
     7
100
AcDbLine
 10
179.2259581136
 20
313.4087624682
 30
0.0
 11
185.6259581657
 21
313.4087624682
 31
0.0
  0
SPLINE
  5
111
330
FB
100
AcDbEntity
  8
$DDT_AUDIT_GENERATED_(7C)
  6
Continuous
 62
     7
100
AcDbSpline
210
0.0
220
0.0
230
1.0
 70
     8
 71
     3
 72
    18
 73
    14
 74
     0
 42
0.0000000200086336
 43
0.0000000001
 40
0.0
 40
0.0
 40
0.0
 40
0.0
 40
0.009822327481982
 40
0.0193105591630486
 40
0.0290691576391465
 40
0.0396120154501333
 40
0.0644218868831442
 40
0.0957160156849015
 40
0.1790888325510029
 40
0.2907271914888777
 40
0.4066960170392716
 40
0.6748486591169448
 40
1.0
 40
1.0
 40
1.0
 40
1.0
 10
179.2261609969273
 20
383.408892236206
 30
0.0
 10
179.2108167463412
 20
383.4083319039326
 30
0.0
 10
179.185157035785
 20
383.4072102760894
 30
0.0
 10
179.1458120930209
 20
383.398777715146
 30
0.0
 10
179.1121386771757
 20
383.3871300499804
 30
0.0
 10
179.0708169389304
 20
383.3672203084437
 30
0.0
 10
179.0312165557732
 20
383.3384926900115
 30
0.0
 10
178.9852726181807
 20
383.2915531071977
 30
0.0
 10
178.9616134437447
 20
383.2484981790006
 30
0.0
 10
178.95480148927
 20
383.2309028076095
 30
0.0
 10
178.9439212006261
 20
383.195721371823
 30
0.0
 10
178.9351932399057
 20
383.1438890251491
 30
0.0
 10
178.9340112294333
 20
383.1045709085707
 30
0.0
 10
178.9336545446774
 20
383.078889336664
 30
0.0
  0
SPLINE
  5
112
330
FB
100
AcDbEntity
  8
$DDT_AUDIT_GENERATED_(7C)
  6
Continuous
 62
     7
100
AcDbSpline
210
0.0
220
0.0
230
1.0
 70
     8
 71
     3
 72
    18
 73
    14
 74
     0
 42
0.0000000200903913
 43
0.0000000001
 40
0.0
 40
0.0
 40
0.0
 40
0.0
 40
0.3612762979925916
 40
0.5635922937693989
 40
0.7695970524362123
 40
0.8573195977713495
 40
0.9217064941623553
 40
0.945983606367165
 40
0.9659038981035972
 40
0.974706654271119
 40
0.983081832931434
 40
0.9913823985424092
 40
1.0
 40
1.0
 40
1.0
 40
1.0
 10
185.9167339616301
 20
383.081042609111
 30
0.0
 10
185.9169712190934
 20
383.1103357400214
 30
0.0
 10
185.9175356995211
 20
383.1471637457249
 30
0.0
 10
185.9052314806583
 20
383.2053180782283
 30
0.0
 10
185.8996699834192
 20
383.2293080870144
 30
0.0
 10
185.8803123021218
 20
383.2685387190382
 30
0.0
 10
185.849218383111
 20
383.3130077823292
 30
0.0
 10
185.8010998057407
 20
383.3540070242611
 30
0.0
 10
185.7627426004202
 20
383.3773049916208
 30
0.0
 10
185.7253556042993
 20
383.3926191995958
 30
0.0
 10
185.6953584238293
 20
383.401451531652
 30
0.0
 10
185.6612357080835
 20
383.4076658890935
 30
0.0
 10
185.6393225856255
 20
383.4084880585295
 30
0.0
 10
185.626160860035
 20
383.4088925237745
 30
0.0
  0
ARC
  5
113
330
FB
100
AcDbEntity
  8
$DDT_AUDIT_GENERATED_(7C)
  6
Continuous
 62
     7
100
AcDbCircle
 10
179.2217722166
 20
313.6996531921
 30
0.0
 40
0.2912005420766468
100
AcDbArc
 50
173.9172035999
 51
270.8635535707
  0
SPLINE
  5
114
330
FB
100
AcDbEntity
  8
$DDT_AUDIT_GENERATED_(7C)
  6
Continuous
 62
     7
100
AcDbSpline
210
0.0
220
0.0
230
1.0
 70
     8
 71
     3
 72
    18
 73
    14
 74
     0
 42
0.0000000200672766
 43
0.0000000001
 40
0.0
 40
0.0
 40
0.0
 40
0.0
 40
0.0085759817256593
 40
0.0168364587495269
 40
0.0251711883354029
 40
0.0339314301597474
 40
0.0537555127922596
 40
0.077915372747937
 40
0.1598453065516668
 40
0.2762951702660336
 40
0.4738413484071626
 40
0.8172476539560194
 40
1.0
 40
1.0
 40
1.0
 40
1.0
 10
185.6261608631355
 20
313.4084854364484
 30
0.0
 10
185.6393225886285
 20
313.408889901822
 30
0.0
 10
185.6612357339619
 20
313.4097120737254
 30
0.0
 10
185.6953583479645
 20
313.4159264214907
 30
0.0
 10
185.7253559055678
 20
313.4247587904791
 30
0.0
 10
185.762740787179
 20
313.4400727921625
 30
0.0
 10
185.8011181690784
 20
313.4633727275807
 30
0.0
 10
185.8569998264288
 20
313.511127737295
 30
0.0
 10
185.8873699660861
 20
313.5621226572875
 30
0.0
 10
185.8987823713939
 20
313.588466385075
 30
0.0
 10
185.9110211269975
 20
313.6327218744757
 30
0.0
 10
185.9183774114742
 20
313.6854184823525
 30
0.0
 10
185.9185646645571
 20
313.7217813790396
 30
0.0
 10
185.9185315060705
 20
313.7366997251534
 30
0.0
  0
LINE
  5
116
330
FB
100
AcDbEntity
  8
$DDT_AUDIT_GENERATED_(115)
  6
Continuous
 62
     7
100
AcDbLine
 10
185.926372067
 20
331.4073215595
 30
0.0
 11
185.9265736801
 21
331.4073215595
 31
0.0
  0
LINE
  5
117
330
FB
100
AcDbEntity
  8
$DDT_AUDIT_GENERATED_(115)
  6
Continuous
 62
     7
100
AcDbLine
 10
185.9265736801
 20
365.4073215595
 30
0.0
 11
185.926372067
 21
365.4073215595
 31
0.0
  0
ARC
  5
118
330
FB
100
AcDbEntity
  8
$DDT_AUDIT_GENERATED_(AB)
  6
Continuous
 62
     7
100
AcDbCircle
 10
258.4100579335
 20
532.8168252615
 30
0.0
 40
172.8477004050879
100
AcDbArc
 50
245.4481441755
 51
264.233116258
  0
ARC
  5
119
330
FB
100
AcDbEntity
  8
$DDT_AUDIT_GENERATED_(AB)
  6
Continuous
 62
     7
100
AcDbCircle
 10
186.8341336979
 20
376.1634188322
 30
0.0
 40
0.6171570015069916
100
AcDbArc
 50
223.9071956713
 51
246.5930755949
  0
ARC
  5
11A
330
FB
100
AcDbEntity
  8
$DDT_AUDIT_GENERATED_(AB)
  6
Continuous
 62
     7
100
AcDbCircle
 10
255.2309620192
 20
173.8578086204
 30
0.0
 40
162.5626985312718
100
AcDbArc
 50
92.192412918
 51
114.9766826949
  0
LINE
  5
11B
330
FB
100
AcDbEntity
  8
$DDT_AUDIT_GENERATED_(AB)
  6
Continuous
 62
     7
100
AcDbLine
 10
249.5265736801
 20
336.6107294422
 30
0.0
 11
249.5265736801
 21
336.5066406635
 31
0.0
  0
LINE
  5
11C
330
FB
100
AcDbEntity
  8
$DDT_AUDIT_GENERATED_(AB)
  6
Continuous
 62
     7
100
AcDbLine
 10
249.5265736801
 20
336.769583295
 30
0.0
 11
249.5265736801
 21
336.6107294422
 31
0.0
  0
LINE
  5
11D
330
FB
100
AcDbEntity
  8
$DDT_AUDIT_GENERATED_(AB)
  6
Continuous
 62
     7
100
AcDbLine
 10
249.5265736801
 20
360.0450604487
 30
0.0
 11
249.5265736801
 21
336.769583295
 31
0.0
  0
LINE
  5
11E
330
FB
100
AcDbEntity
  8
$DDT_AUDIT_GENERATED_(AB)
  6
Continuous
 62
     7
100
AcDbLine
 10
249.5265736801
 20
360.2039136304
 30
0.0
 11
249.5265736801
 21
360.0450604487
 31
0.0
  0
LINE
  5
11F
330
FB
100
AcDbEntity
  8
$DDT_AUDIT_GENERATED_(AB)
  6
Continuous
 62
     7
100
AcDbLine
 10
249.5265736801
 20
360.3080026361
 30
0.0
 11
249.5265736801
 21
360.2039136304
 31
0.0
  0
LINE
  5
120
330
FB
100
AcDbEntity
  8
$DDT_AUDIT_GENERATED_(AB)
  6
Continuous
 62
     7
100
AcDbLine
 10
249.5265736801
 20
360.3080019885
 30
0.0
 11
249.5265750153
 21
362.587828041
 31
0.0
  0
LINE
  5
121
330
FB
100
AcDbEntity
  8
$DDT_AUDIT_GENERATED_(AB)
  6
Continuous
 62
     7
100
AcDbLine
 10
249.5265750153
 20
334.2268150785
 30
0.0
 11
249.5265736801
 21
336.5066412629
 31
0.0
  0
SPLINE
  5
122
330
FB
100
AcDbEntity
  8
$DDT_AUDIT_GENERATED_(AB)
  6
Continuous
 62
     7
100
AcDbSpline
210
0.0
220
0.0
230
1.0
 70
    12
 71
     3
 72
    11
 73
     7
 74
     0
 42
0.0000000387591284
 43
0.0000000001
 40
0.0
 40
0.0
 40
0.0
 40
0.0
 40
0.0012333495956158
 40
0.0012333495956158
 40
0.0012333495956158
 40
1.0
 40
1.0
 40
1.0
 40
1.0
 10
186.5889623004977
 20
321.3808446865485
 30
0.0
 41
1.0
 10
186.5888344334577
 20
321.3807892806105
 30
0.0
 41
1.0
 10
186.5887065375806
 20
321.3807340014461
 30
0.0
 41
1.0
 10
186.5885786131596
 20
321.3806788494645
 30
0.0
 41
1.0
 10
186.5047712047726
 20
321.3445470100128
 30
0.0
 41
0.86197075405707
 10
186.4278363213507
 20
321.3697942436347
 30
0.0
 41
0.86197075405707
 10
186.3894942167843
 20
321.4460468645752
 30
0.0
 41
1.0
  0
LINE
  5
123
330
FB
100
AcDbEntity
  8
$DDT_AUDIT_GENERATED_(AB)
  6
Continuous
 62
     7
100
AcDbLine
 10
250.0265736801
 20
337.3556940277
 30
0.0
 11
250.0265736801
 21
335.2073215601
 31
0.0
  0
LINE
  5
124
330
FB
100
AcDbEntity
  8
$DDT_AUDIT_GENERATED_(AB)
  6
Continuous
 62
     7
100
AcDbLine
 10
250.0265736801
 20
337.3556940277
 30
0.0
 11
249.5265736801
 21
337.3556940277
 31
0.0
  0
LINE
  5
125
330
FB
100
AcDbEntity
  8
$DDT_AUDIT_GENERATED_(AB)
  6
Continuous
 62
     7
100
AcDbLine
 10
250.0265736801
 20
337.3556940277
 30
0.0
 11
250.0265736801
 21
359.4589490978
 31
0.0
  0
LINE
  5
126
330
FB
100
AcDbEntity
  8
$DDT_AUDIT_GENERATED_(AB)
  6
Continuous
 62
     7
100
AcDbLine
 10
250.0265736801
 20
359.4589490978
 30
0.0
 11
249.5265736801
 21
359.4589490978
 31
0.0
  0
LINE
  5
127
330
FB
100
AcDbEntity
  8
$DDT_AUDIT_GENERATED_(AB)
  6
Continuous
 62
     7
100
AcDbLine
 10
250.0265736801
 20
359.4589490978
 30
0.0
 11
250.0265736801
 21
361.6073215639
 31
0.0
  0
ARC
  5
128
330
FB
100
AcDbEntity
  8
$DDT_AUDIT_GENERATED_(AB)
  6
Continuous
 62
     7
100
AcDbCircle
 10
221.9192412963
 20
254.6730855351
 30
0.0
 40
71.34179955481683
100
AcDbArc
 50
112.4490195211
 51
118.2273830917
  0
ARC
  5
129
330
FB
100
AcDbEntity
  8
$DDT_AUDIT_GENERATED_(AB)
  6
Continuous
 62
     7
100
AcDbCircle
 10
253.8618258961
 20
502.5809080399
 30
0.0
 40
139.7685959622465
100
AcDbArc
 50
241.12288184
 51
268.0976886303
  0
ARC
  5
12A
330
FB
100
AcDbEntity
  8
$DDT_AUDIT_GENERATED_(AB)
  6
Continuous
 62
     7
100
AcDbCircle
 10
251.786203019
 20
205.0871104092
 30
0.0
 40
128.8610126779555
100
AcDbArc
 50
91.1401374128
 51
116.3062366867
  0
LINE
  5
12B
330
FB
100
AcDbEntity
  8
$DDT_AUDIT_GENERATED_(AB)
  6
Continuous
 62
     7
100
AcDbLine
 10
186.3630062852
 20
316.6231484707
 30
0.0
 11
188.190775707
 21
317.5256355758
 31
0.0
  0
ARC
  5
12C
330
FB
100
AcDbEntity
  8
$DDT_AUDIT_GENERATED_(AB)
  6
Continuous
 62
     7
100
AcDbCircle
 10
186.2263851168
 20
379.9203856707
 30
0.0
 40
0.2998140784052262
100
AcDbArc
 50
63.249472214
 51
180.3757882279
  0
LINE
  5
12D
330
FB
100
AcDbEntity
  8
$DDT_AUDIT_GENERATED_(AB)
  6
Continuous
 62
     7
100
AcDbLine
 10
185.9265814416
 20
378.1180289754
 30
0.0
 11
185.9264178795
 21
376.0829277973
 31
0.0
  0
ARC
  5
12E
330
FB
100
AcDbEntity
  8
$DDT_AUDIT_GENERATED_(AB)
  6
Continuous
 62
     7
100
AcDbCircle
 10
249.2266722693
 20
334.2267018065
 30
0.0
 40
0.2999027673515403
100
AcDbArc
 50
269.1366892946
 51
0.0216403823
  0
ARC
  5
12F
330
FB
100
AcDbEntity
  8
$DDT_AUDIT_GENERATED_(AB)
  6
Continuous
 62
     7
100
AcDbCircle
 10
249.2266722693
 20
362.587941313
 30
0.0
 40
0.2999027673554769
100
AcDbArc
 50
359.9783596175
 51
90.8633107053
  0
ARC
  5
130
330
FB
100
AcDbEntity
  8
$DDT_AUDIT_GENERATED_(AB)
  6
Continuous
 62
     7
100
AcDbCircle
 10
186.2264209148
 20
316.894115311
 30
0.0
 40
0.2996710422416787
100
AcDbArc
 50
179.6695465035
 51
296.7566479306
  0
LINE
  5
131
330
FB
100
AcDbEntity
  8
$DDT_AUDIT_GENERATED_(AB)
  6
Continuous
 62
     7
100
AcDbLine
 10
249.5265736801
 20
335.207321555
 30
0.0
 11
250.0265736801
 21
335.207321555
 31
0.0
  0
LINE
  5
132
330
FB
100
AcDbEntity
  8
$DDT_AUDIT_GENERATED_(AB)
  6
Continuous
 62
     7
100
AcDbLine
 10
250.0265736801
 20
361.6073215639
 30
0.0
 11
249.5265736801
 21
361.6073215639
 31
0.0
  0
LINE
  5
133
330
FB
100
AcDbEntity
  8
$DDT_AUDIT_GENERATED_(AB)
  6
Continuous
 62
     7
100
AcDbLine
 10
250.0265736801
 20
337.9073215595
 30
0.0
 11
250.3265736946
 21
337.9073215595
 31
0.0
  0
LINE
  5
134
330
FB
100
AcDbEntity
  8
$DDT_AUDIT_GENERATED_(AB)
  6
Continuous
 62
     7
100
AcDbLine
 10
250.3265735955
 20
358.9073215595
 30
0.0
 11
250.0265736801
 21
358.9073215595
 31
0.0
  0
SPLINE
  5
135
330
FB
100
AcDbEntity
  8
$DDT_AUDIT_GENERATED_(CD)
  6
Continuous
 62
     7
100
AcDbSpline
210
0.0
220
0.0
230
1.0
 70
     8
 71
     3
 72
    12
 73
     8
 74
     0
 42
0.0000000760691718
 43
0.0000000001
 40
0.0
 40
0.0
 40
0.0
 40
0.0
 40
0.250000000000005
 40
0.250000000000005
 40
0.50000000000001
 40
0.50000000000001
 40
1.0
 40
1.0
 40
1.0
 40
1.0
 10
252.6651235845553
 20
336.2705822664751
 30
0.0
 10
252.6548938997813
 20
336.2758615571921
 30
0.0
 10
252.6462082077834
 20
336.282219329443
 30
0.0
 10
252.6348192445766
 20
336.2974302883447
 30
0.0
 10
252.631488416256
 20
336.3062664870358
 30
0.0
 10
252.6194842543494
 20
336.3346529991385
 30
0.0
 10
252.608379658809
 20
336.3562919788655
 30
0.0
 10
252.6083819654651
 20
336.3818881217739
 30
0.0
  0
SPLINE
  5
136
330
FB
100
AcDbEntity
  8
$DDT_AUDIT_GENERATED_(CD)
  6
Continuous
 62
     7
100
AcDbSpline
210
0.0
220
0.0
230
1.0
 70
     8
 71
     3
 72
    12
 73
     8
 74
     0
 42
0.0000000550741477
 43
0.0000000001
 40
0.0
 40
0.0
 40
0.0
 40
0.0
 40
0.4999999999999836
 40
0.4999999999999836
 40
0.7499999999999918
 40
0.7499999999999918
 40
1.0
 40
1.0
 40
1.0
 40
1.0
 10
252.6083819654651
 20
336.3818881217739
 30
0.0
 10
252.6083762992415
 20
336.4073240764539
 30
0.0
 10
252.6193991414747
 20
336.4342061462205
 30
0.0
 10
252.6314033006733
 20
336.4779756391367
 30
0.0
 10
252.634692390159
 20
336.4932727902304
 30
0.0
 10
252.64600960637
 20
336.5231988675005
 30
0.0
 10
252.6549211514886
 20
336.5379962299564
 30
0.0
 10
252.6651590953755
 20
336.5512942846889
 30
0.0
  0
LINE
  5
137
330
FB
100
AcDbEntity
  8
$DDT_AUDIT_GENERATED_(CD)
  6
Continuous
 62
     7
100
AcDbLine
 10
252.6651485732
 20
336.5512871369
 30
0.0
 11
268.8616768361
 21
336.5512871369
 31
0.0
  0
SPLINE
  5
138
330
FB
100
AcDbEntity
  8
$DDT_AUDIT_GENERATED_(CD)
  6
Continuous
 62
     7
100
AcDbSpline
210
0.0
220
0.0
230
1.0
 70
     8
 71
     3
 72
    12
 73
     8
 74
     0
 42
0.000000055070292
 43
0.0000000001
 40
0.0
 40
0.0
 40
0.0
 40
0.0
 40
0.249999999999995
 40
0.249999999999995
 40
0.49999999999999
 40
0.49999999999999
 40
1.0
 40
1.0
 40
1.0
 40
1.0
 10
252.6651582826519
 20
360.2633489723558
 30
0.0
 10
252.6549034144309
 20
360.2766702993318
 30
0.0
 10
252.6462146311693
 20
360.2910319687794
 30
0.0
 10
252.6348160781601
 20
360.3209195705777
 30
0.0
 10
252.6314893765971
 20
360.3363254216138
 30
0.0
 10
252.6194881905872
 20
360.3801702305763
 30
0.0
 10
252.608375903565
 20
360.4071579546981
 30
0.0
 10
252.6083817799227
 20
360.4327553153266
 30
0.0
  0
SPLINE
  5
139
330
FB
100
AcDbEntity
  8
$DDT_AUDIT_GENERATED_(CD)
  6
Continuous
 62
     7
100
AcDbSpline
210
0.0
220
0.0
230
1.0
 70
     8
 71
     3
 72
    12
 73
     8
 74
     0
 42
0.0000000760614128
 43
0.0000000001
 40
0.0
 40
0.0
 40
0.0
 40
0.0
 40
0.5000000000000064
 40
0.5000000000000064
 40
0.7500000000000032
 40
0.7500000000000032
 40
1.0
 40
1.0
 40
1.0
 40
1.0
 10
252.6083817799227
 20
360.4327553153266
 30
0.0
 10
252.6083798174178
 20
360.4582142132498
 30
0.0
 10
252.6194120416511
 20
360.479824682124
 30
0.0
 10
252.631424193889
 20
360.5082269232839
 30
0.0
 10
252.634728510109
 20
360.5170283281074
 30
0.0
 10
252.6460323955087
 20
360.5322573260823
 30
0.0
 10
252.6549013351782
 20
360.5387865973277
 30
0.0
 10
252.6651588722946
 20
360.5440565613874
 30
0.0
  0
LINE
  5
13A
330
FB
100
AcDbEntity
  8
$DDT_AUDIT_GENERATED_(CD)
  6
Continuous
 62
     7
100
AcDbLine
 10
252.6651483503
 20
360.5440537298
 30
0.0
 11
268.8616768361
 21
360.5440537298
 31
0.0
  0
ARC
  5
13B
330
FB
100
AcDbEntity
  8
$DDT_AUDIT_GENERATED_(CD)
  6
Continuous
 62
     7
100
AcDbCircle
 10
-258.1236767667
 20
348.4073217256
 30
0.0
 40
527.1187043427451
100
AcDbArc
 50
358.711185873
 51
1.288814127
  0
LINE
  5
13C
330
FB
100
AcDbEntity
  8
$DDT_AUDIT_GENERATED_(CD)
  6
Continuous
 62
     7
100
AcDbLine
 10
264.9243327801
 20
289.0126369722
 30
0.0
 11
256.7376040143
 21
289.0126369722
 31
0.0
  0
LINE
  5
13D
330
FB
100
AcDbEntity
  8
$DDT_AUDIT_GENERATED_(CD)
  6
Continuous
 62
     7
100
AcDbLine
 10
264.9243323833
 20
289.0126369715
 30
0.0
 11
265.5869277243
 21
289.0126369718
 31
0.0
  0
LINE
  5
13E
330
FB
100
AcDbEntity
  8
$DDT_AUDIT_GENERATED_(CD)
  6
Continuous
 62
     7
100
AcDbLine
 10
256.0750098021
 20
289.0126369718
 30
0.0
 11
256.7376047905
 21
289.0126369714
 31
0.0
  0
ARC
  5
13F
330
FB
100
AcDbEntity
  8
$DDT_AUDIT_GENERATED_(CD)
  6
Continuous
 62
     7
100
AcDbCircle
 10
260.8309703828
 20
259.3830748479
 30
0.0
 40
74.96625043531907
100
AcDbArc
 50
87.1952085809
 51
92.8047952492
  0
ARC
  5
140
330
FB
100
AcDbEntity
  8
$DDT_AUDIT_GENERATED_(CD)
  6
Continuous
 62
     7
100
AcDbCircle
 10
-762.090839622
 20
335.3702307747
 30
0.0
 40
1018.697655913606
100
AcDbArc
 50
357.4212243429
 51
359.8628046409
  0
ARC
  5
141
330
FB
100
AcDbEntity
  8
$DDT_AUDIT_GENERATED_(CD)
  6
Continuous
 62
     7
100
AcDbCircle
 10
1284.0380319068
 20
335.3758751561
 30
0.0
 40
1018.982880509808
100
AcDbArc
 50
180.1374741275
 51
182.5783710234
  0
ARC
  5
142
330
FB
100
AcDbEntity
  8
$DDT_AUDIT_GENERATED_(CD)
  6
Continuous
 62
     7
100
AcDbCircle
 10
252.6264817458
 20
334.2216948465
 30
0.0
 40
0.2999082039732883
100
AcDbArc
 50
179.9795402916
 51
270.0175407692
  0
SPLINE
  5
143
330
FB
100
AcDbEntity
  8
$DDT_AUDIT_GENERATED_(CD)
  6
Continuous
 62
     7
100
AcDbSpline
210
0.0
220
0.0
230
1.0
 70
     8
 71
     3
 72
    19
 73
    15
 74
     0
 42
0.0000000003486566
 43
0.0000000001
 40
0.0
 40
0.0
 40
0.0
 40
0.0
 40
0.0587199167703349
 40
0.122962994532368
 40
0.1863994894412228
 40
0.2494198553772821
 40
0.374869682491995
 40
0.4999999999422411
 40
0.6251303173924753
 40
0.7505801445071474
 40
0.8136005104431601
 40
0.8770370053519263
 40
0.9412800831137861
 40
1.0
 40
1.0
 40
1.0
 40
1.0
 10
269.4455765822047
 20
334.2575176087086
 30
0.0
 10
269.6499091540886
 20
334.8398946258142
 30
0.0
 10
270.0073510600283
 20
335.8714282214457
 30
0.0
 10
270.4072928220185
 20
337.6470927942376
 30
0.0
 10
270.7066889946988
 20
339.4348802897164
 30
0.0
 10
270.9966704497127
 20
341.8282286563229
 30
0.0
 10
271.2150009110871
 20
344.8167767040642
 30
0.0
 10
271.3049785919315
 20
348.4073217254229
 30
0.0
 10
271.2150009111005
 20
351.9978667467809
 30
0.0
 10
270.9966704497393
 20
354.986414794524
 30
0.0
 10
270.7066889947367
 20
357.3797631611266
 30
0.0
 10
270.4072928220809
 20
359.1675506566167
 30
0.0
 10
270.0073510598272
 20
360.9432152304705
 30
0.0
 10
269.6499091535621
 20
361.9747488270481
 30
0.0
 10
269.4455765812723
 20
362.5571258453021
 30
0.0
  0
ARC
  5
144
330
FB
100
AcDbEntity
  8
$DDT_AUDIT_GENERATED_(CD)
  6
Continuous
 62
     7
100
AcDbCircle
 10
252.6264817458
 20
362.5929486046
 30
0.0
 40
0.2999082039725806
100
AcDbArc
 50
89.9824592308
 51
180.0204597086
  0
LINE
  5
145
330
FB
100
AcDbEntity
  8
$DDT_AUDIT_GENERATED_(CD)
  6
Continuous
 62
     7
100
AcDbLine
 10
268.9826369488
 20
362.8924802406
 30
0.0
 11
252.6265735609
 21
362.8924802406
 31
0.0
  0
LINE
  5
146
330
FB
100
AcDbEntity
  8
$DDT_AUDIT_GENERATED_(CD)
  6
Continuous
 62
     7
100
AcDbLine
 10
266.0576234694
 20
333.9221632106
 30
0.0
 11
268.9826369488
 21
333.9221632106
 31
0.0
  0
LINE
  5
147
330
FB
100
AcDbEntity
  8
$DDT_AUDIT_GENERATED_(CD)
  6
Continuous
 62
     7
100
AcDbLine
 10
252.6265735609
 20
333.9221632106
 30
0.0
 11
255.6043136556
 21
333.9221632106
 31
0.0
  0
SPLINE
  5
148
330
FB
100
AcDbEntity
  8
$DDT_AUDIT_GENERATED_(CD)
  6
Continuous
 62
     7
100
AcDbSpline
210
0.0
220
0.0
230
1.0
 70
     8
 71
     3
 72
    13
 73
     9
 74
     0
 42
0.0000000159935297
 43
0.0000000001
 40
0.0
 40
0.0
 40
0.0
 40
0.0
 40
0.0876973246683805
 40
0.3745457833069304
 40
0.6026848353465908
 40
0.7944100893968125
 40
0.9555335944841792
 40
1.0
 40
1.0
 40
1.0
 40
1.0
 10
268.9808552173685
 20
333.9290548554143
 30
0.0
 10
269.0005562724277
 20
333.9266669583904
 30
0.0
 10
269.0730537007345
 20
333.9184526567445
 30
0.0
 10
269.1986348027892
 20
333.9630183755015
 30
0.0
 10
269.319539465291
 20
334.0438569923286
 30
0.0
 10
269.3970734319009
 20
334.1349936281656
 30
0.0
 10
269.4391220589459
 20
334.2090007304232
 30
0.0
 10
269.4507171356073
 20
334.2463514511775
 30
0.0
 10
269.4535958740429
 20
334.2557913176773
 30
0.0
  0
SPLINE
  5
149
330
FB
100
AcDbEntity
  8
$DDT_AUDIT_GENERATED_(CD)
  6
Continuous
 62
     7
100
AcDbSpline
210
0.0
220
0.0
230
1.0
 70
     8
 71
     3
 72
    12
 73
     8
 74
     0
 42
0.0000000158729366
 43
0.0000000001
 40
0.0
 40
0.0
 40
0.0
 40
0.0
 40
0.1125739340826236
 40
0.3772329890261633
 40
0.670073828623695
 40
0.9611126057121576
 40
1.0
 40
1.0
 40
1.0
 40
1.0
 10
269.4532601843632
 20
362.5588784108675
 30
0.0
 10
269.4446822834193
 20
362.5826473256637
 30
0.0
 10
269.4192777656644
 20
362.6503165022144
 30
0.0
 10
269.3305991985721
 20
362.7666839834857
 30
0.0
 10
269.1847348096347
 20
362.8589299127885
 30
0.0
 10
269.050929858495
 20
362.9010077390445
 30
0.0
 10
268.9873950856704
 20
362.889997269621
 30
0.0
 10
268.9787138043265
 20
362.8884662646036
 30
0.0
  0
ARC
  5
14A
330
FB
100
AcDbEntity
  8
$DDT_AUDIT_GENERATED_(CD)
  6
Continuous
 62
     7
100
AcDbCircle
 10
265.5869292054
 20
289.5126369746
 30
0.0
 40
0.4999999754543963
100
AcDbArc
 50
269.9998583363
 51
3.1836457406
  0
ARC
  5
14B
330
FB
100
AcDbEntity
  8
$DDT_AUDIT_GENERATED_(CD)
  6
Continuous
 62
     7
100
AcDbCircle
 10
256.0750077786
 20
289.5126369747
 30
0.0
 40
0.5000000029659438
100
AcDbArc
 50
176.5254033118
 51
270.0001416656
  0
ARC
  5
14C
330
FB
100
AcDbEntity
  8
$DDT_AUDIT_GENERATED_(CD)
  6
Continuous
 62
     7
100
AcDbCircle
 10
266.0524316694
 20
332.9348060395
 30
0.0
 40
0.9868817586453806
100
AcDbArc
 50
89.6965101913
 51
180.3135543263
  0
ARC
  5
14D
330
FB
100
AcDbEntity
  8
$DDT_AUDIT_GENERATED_(CD)
  6
Continuous
 62
     7
100
AcDbCircle
 10
255.6192961752
 20
332.9381648574
 30
0.0
 40
0.9778763960840388
100
AcDbArc
 50
359.4327111503
 51
90.9028073194
  0
ARC
  5
14E
330
FB
100
AcDbEntity
  8
$DDT_AUDIT_GENERATED_(DF)
  6
Continuous
 62
     7
100
AcDbCircle
 10
260.7559921257
 20
494.3404513684
 30
0.0
 40
210.0868361449504
100
AcDbArc
 50
268.8357141842
 51
271.1642660041
  0
LINE
  5
14F
330
FB
100
AcDbEntity
  8
$DDT_AUDIT_GENERATED_(DF)
  6
Continuous
 62
     7
100
AcDbLine
 10
256.4042779659
 20
289.0126365484
 30
0.0
 11
255.7651402233
 21
289.0126365488
 31
0.0
  0
LINE
  5
150
330
FB
100
AcDbEntity
  8
$DDT_AUDIT_GENERATED_(DF)
  6
Continuous
 62
     7
100
AcDbLine
 10
256.4042779659
 20
289.0126365492
 30
0.0
 11
256.5120887374
 21
289.0126365492
 31
0.0
  0
LINE
  5
151
330
FB
100
AcDbEntity
  8
$DDT_AUDIT_GENERATED_(DF)
  6
Continuous
 62
     7
100
AcDbLine
 10
256.5120887374
 20
289.0126365492
 30
0.0
 11
256.6898947272
 21
289.0126365492
 31
0.0
  0
LINE
  5
152
330
FB
100
AcDbEntity
  8
$DDT_AUDIT_GENERATED_(DF)
  6
Continuous
 62
     7
100
AcDbLine
 10
256.6898947272
 20
289.0126365492
 30
0.0
 11
264.822012302
 21
289.0126365493
 31
0.0
  0
LINE
  5
153
330
FB
100
AcDbEntity
  8
$DDT_AUDIT_GENERATED_(DF)
  6
Continuous
 62
     7
100
AcDbLine
 10
264.822012302
 20
289.0126365493
 30
0.0
 11
264.9998503935
 21
289.0126365493
 31
0.0
  0
LINE
  5
154
330
FB
100
AcDbEntity
  8
$DDT_AUDIT_GENERATED_(DF)
  6
Continuous
 62
     7
100
AcDbLine
 10
264.9998503935
 20
289.0126365493
 30
0.0
 11
265.1076469678
 21
289.0126365493
 31
0.0
  0
LINE
  5
155
330
FB
100
AcDbEntity
  8
$DDT_AUDIT_GENERATED_(DF)
  6
Continuous
 62
     7
100
AcDbLine
 10
265.1076469678
 20
289.0126365493
 30
0.0
 11
265.7467947769
 21
289.0126365489
 31
0.0
  0
ARC
  5
156
330
FB
100
AcDbEntity
  8
$DDT_AUDIT_GENERATED_(DF)
  6
Continuous
 62
     7
100
AcDbCircle
 10
260.755967527
 20
299.1278030273
 30
0.0
 40
15.78104981021501
100
AcDbArc
 50
250.1268232761
 51
289.8731756596
  0
ARC
  5
157
330
FB
100
AcDbEntity
  8
$DDT_AUDIT_GENERATED_(DF)
  6
Continuous
 62
     7
100
AcDbCircle
 10
255.5745706771
 20
284.533511757
 30
0.0
 40
0.2999381970450927
100
AcDbArc
 50
177.3048319647
 51
246.5024916678
  0
ARC
  5
158
330
FB
100
AcDbEntity
  8
$DDT_AUDIT_GENERATED_(DF)
  6
Continuous
 62
     7
100
AcDbCircle
 10
265.9373643234
 20
284.5335117572
 30
0.0
 40
0.2999381970293116
100
AcDbArc
 50
293.4975083198
 51
2.695168032
  0
ARC
  5
159
330
FB
100
AcDbEntity
  8
$DDT_AUDIT_GENERATED_(DF)
  6
Continuous
 62
     7
100
AcDbCircle
 10
-1220.3042670894
 20
353.8077415398
 30
0.0
 40
1477.203717623607
100
AcDbArc
 50
357.3116445216
 51
357.4748578452
  0
ARC
  5
15A
330
FB
100
AcDbEntity
  8
$DDT_AUDIT_GENERATED_(DF)
  6
Continuous
 62
     7
100
AcDbCircle
 10
1742.9328622886
 20
353.8585806071
 30
0.0
 40
1478.321533385468
100
AcDbArc
 50
182.5252038616
 51
182.6882937726
  0
ARC
  5
15B
330
FB
100
AcDbEntity
  8
$DDT_AUDIT_GENERATED_(DF)
  6
Continuous
 62
     7
100
AcDbCircle
 10
255.7646748757
 20
288.7127059036
 30
0.0
 40
0.2999306682752438
100
AcDbArc
 50
89.9775175287
 51
177.4895319531
  0
ARC
  5
15C
330
FB
100
AcDbEntity
  8
$DDT_AUDIT_GENERATED_(DF)
  6
Continuous
 62
     7
100
AcDbCircle
 10
265.7472601246
 20
288.7127059037
 30
0.0
 40
0.2999306682760443
100
AcDbArc
 50
2.5104680481
 51
90.0224824713
  0
LINE
  5
15D
330
FB
100
AcDbEntity
  8
$DDT_AUDIT_GENERATED_(EE)
  6
Continuous
 62
     7
100
AcDbLine
 10
252.3358087513
 20
360.6928257388
 30
0.0
 11
252.3358087513
 21
360.7114887516
 31
0.0
  0
ARC
  5
15E
330
FB
100
AcDbEntity
  8
$DDT_AUDIT_GENERATED_(EE)
  6
Continuous
 62
     7
100
AcDbCircle
 10
252.7280627008
 20
360.7334092299
 30
0.0
 40
0.394347791530744
100
AcDbArc
 50
185.9069354438
 51
200.6185835695
  0
SPLINE
  5
15F
330
FB
100
AcDbEntity
  8
$DDT_AUDIT_GENERATED_(EE)
  6
Continuous
 62
     7
100
AcDbSpline
210
0.0
220
0.0
230
1.0
 70
     8
 71
     3
 72
     8
 73
     4
 74
     0
 42
0.0000005369782064
 43
0.0000000001
 40
0.0
 40
0.0
 40
0.0
 40
0.0
 40
0.1009169915051721
 40
0.1009169915051721
 40
0.1009169915051721
 40
0.1009169915051721
 10
252.3358087513028
 20
360.7114887516146
 30
0.0
 10
252.3358087513033
 20
360.7125884579812
 30
0.0
 10
252.3359160589329
 20
360.7131383848171
 30
0.0
 10
252.3361354033673
 20
360.7131379086607
 30
0.0
  0
ARC
  5
160
330
FB
100
AcDbEntity
  8
$DDT_AUDIT_GENERATED_(EE)
  6
Continuous
 62
     7
100
AcDbCircle
 10
252.8245945806
 20
361.3517396694
 30
0.0
 40
0.497828732016204
100
AcDbArc
 50
190.9373268832
 51
202.9922856748
  0
ARC
  5
161
330
FB
100
AcDbEntity
  8
$DDT_AUDIT_GENERATED_(EE)
  6
Continuous
 62
     7
100
AcDbCircle
 10
252.7256991365
 20
336.0817913089
 30
0.0
 40
0.3919396308926648
100
AcDbArc
 50
159.3360204832
 51
174.1385615949
  0
LINE
  5
162
330
FB
100
AcDbEntity
  8
$DDT_AUDIT_GENERATED_(EE)
  6
Continuous
 62
     7
100
AcDbLine
 10
252.3358086545
 20
336.1031543673
 30
0.0
 11
252.3358086546
 21
336.1218173801
 31
0.0
  0
SPLINE
  5
163
330
FB
100
AcDbEntity
  8
$DDT_AUDIT_GENERATED_(EE)
  6
Continuous
 62
     7
100
AcDbSpline
210
0.0
220
0.0
230
1.0
 70
     8
 71
     3
 72
     8
 73
     4
 74
     0
 42
0.0000005371976148
 43
0.0000000001
 40
0.8992047519077626
 40
0.8992047519077626
 40
0.8992047519077626
 40
0.8992047519077626
 40
1.0
 40
1.0
 40
1.0
 40
1.0
 10
252.3361349709854
 20
336.1015082596215
 30
0.0
 10
252.3359157724377
 20
336.1015076162639
 30
0.0
 10
252.3358086545352
 20
336.1020559185886
 30
0.0
 10
252.3358086545381
 20
336.1031543673224
 30
0.0
  0
ARC
  5
164
330
FB
100
AcDbEntity
  8
$DDT_AUDIT_GENERATED_(EE)
  6
Continuous
 62
     7
100
AcDbCircle
 10
252.8245607684
 20
335.4629142679
 30
0.0
 40
0.4977935780248179
100
AcDbArc
 50
157.0073500952
 51
169.0631594257
  0
LINE
  5
165
330
FB
100
AcDbEntity
  8
$DDT_AUDIT_GENERATED_(EE)
  6
Continuous
 62
     7
100
AcDbLine
 10
252.3358086872
 20
354.4757006593
 30
0.0
 11
252.3358086871
 21
354.3753948885
 31
0.0
  0
SPLINE
  5
166
330
FB
100
AcDbEntity
  8
$DDT_AUDIT_GENERATED_(EE)
  6
Continuous
 62
     7
100
AcDbSpline
210
0.0
220
0.0
230
1.0
 70
     8
 71
     3
 72
    20
 73
    16
 74
     0
 42
0.0000001099875578
 43
0.0000000001
 40
0.0
 40
0.0
 40
0.0
 40
0.0
 40
0.2347118080962501
 40
0.2347118080962501
 40
0.2347118080962501
 40
0.469408268271079
 40
0.469408268271079
 40
0.469408268271079
 40
0.7043465285547046
 40
0.7043465285547046
 40
0.7043465285547046
 40
0.9422538774935331
 40
0.9422538774935331
 40
0.9422538774935331
 40
1.0
 40
1.0
 40
1.0
 40
1.0
 10
252.3358086871798
 20
354.4757006593464
 30
0.0
 10
252.3358086871933
 20
354.4865033877881
 30
0.0
 10
252.3361614247234
 20
354.4971110546736
 30
0.0
 10
252.3368950849783
 20
354.5066468281208
 30
0.0
 10
252.3376287209976
 20
354.5161822865676
 30
0.0
 10
252.3387690878647
 20
354.5249071159433
 30
0.0
 10
252.3403654518847
 20
354.5321169375494
 30
0.0
 10
252.3419638048218
 20
354.5393357419042
 30
0.0
 10
252.3440705384481
 20
354.5452302939186
 30
0.0
 10
252.3466733273447
 20
354.5493875964919
 30
0.0
 10
252.3493100753129
 20
354.5535991401661
 30
0.0
 10
252.3525294787875
 20
354.5561434215611
 30
0.0
 10
252.3561912247616
 20
354.5569568830747
 30
0.0
 10
252.3570908707988
 20
354.5571567405832
 30
0.0
 10
252.3580197209712
 20
354.5572557387106
 30
0.0
 10
252.3589745867479
 20
354.5572557387125
 30
0.0
  0
LINE
  5
167
330
FB
100
AcDbEntity
  8
$DDT_AUDIT_GENERATED_(EE)
  6
Continuous
 62
     7
100
AcDbLine
 10
252.3358086766
 20
342.3389431451
 30
0.0
 11
252.3358086766
 21
342.4392471261
 31
0.0
  0
SPLINE
  5
168
330
FB
100
AcDbEntity
  8
$DDT_AUDIT_GENERATED_(EE)
  6
Continuous
 62
     7
100
AcDbSpline
210
0.0
220
0.0
230
1.0
 70
     8
 71
     3
 72
    20
 73
    16
 74
     0
 42
0.0000001098194029
 43
0.0000000001
 40
0.0
 40
0.0
 40
0.0
 40
0.0
 40
0.2484125201332993
 40
0.2484125201332993
 40
0.2484125201332993
 40
0.4975157446874607
 40
0.4975157446874607
 40
0.4975157446874607
 40
0.737125695978915
 40
0.737125695978915
 40
0.737125695978915
 40
0.9722524555119166
 40
0.9722524555119166
 40
0.9722524555119166
 40
1.0
 40
1.0
 40
1.0
 40
1.0
 10
252.3589745661042
 20
342.2573880644042
 30
0.0
 10
252.3549172670857
 20
342.2573880643961
 30
0.0
 10
252.3513050006867
 20
342.2592273246086
 30
0.0
 10
252.3483302105701
 20
342.2629166509855
 30
0.0
 10
252.34535032598
 20
342.2666122955143
 30
0.0
 10
252.3429225870452
 20
342.272280002789
 30
0.0
 10
252.3410841706954
 20
342.2795001700022
 30
0.0
 10
252.3393143628542
 20
342.2864508852471
 30
0.0
 10
252.3380301527068
 20
342.2950342650486
 30
0.0
 10
252.337182401627
 20
342.3045343770281
 30
0.0
 10
252.3363500970458
 20
342.3138613916577
 30
0.0
 10
252.3359086594602
 20
342.3243293699653
 30
0.0
 10
252.3358238927396
 20
342.3350696471523
 30
0.0
 10
252.3358137465199
 20
342.3363552131228
 30
0.0
 10
252.3358086765517
 20
342.3376469034346
 30
0.0
 10
252.3358086765524
 20
342.3389431451383
 30
0.0
  0
SPLINE
  5
169
330
FB
100
AcDbEntity
  8
$DDT_AUDIT_GENERATED_(EE)
  6
Continuous
 62
     7
100
AcDbSpline
210
0.0
220
0.0
230
1.0
 70
     8
 71
     3
 72
    23
 73
    19
 74
     0
 42
0.0000000747588873
 43
0.0000000001
 40
0.0
 40
0.0
 40
0.0
 40
0.0
 40
0.1829682350591606
 40
0.1829682350591606
 40
0.1829682350591606
 40
0.3659245058004041
 40
0.3659245058004041
 40
0.3659245058004041
 40
0.5490692693614764
 40
0.5490692693614764
 40
0.5490692693614764
 40
0.7345285650380805
 40
0.7345285650380805
 40
0.7345285650380805
 40
0.9276267337137449
 40
0.9276267337137449
 40
0.9276267337137449
 40
1.0
 40
1.0
 40
1.0
 40
1.0
 10
252.3358086766023
 20
342.4392471260504
 30
0.0
 10
252.3358086766077
 20
342.4500560897125
 30
0.0
 10
252.3361614139243
 20
342.4613526383922
 30
0.0
 10
252.3368950737812
 20
342.4721984834536
 30
0.0
 10
252.3376287094028
 20
342.4830439702403
 30
0.0
 10
252.3387690756771
 20
342.4937361899451
 30
0.0
 10
252.3403654389724
 20
342.5033915344105
 30
0.0
 10
252.3419637911741
 20
342.5130589084543
 30
0.0
 10
252.3440705239101
 20
342.5219464202278
 30
0.0
 10
252.3466733118508
 20
342.529368725379
 30
0.0
 10
252.3493100587966
 20
342.5368878705738
 30
0.0
 10
252.3525294611394
 20
342.5431023576936
 30
0.0
 10
252.3561912059599
 20
342.5476373525929
 30
0.0
 10
252.360004687639
 20
342.5523602704397
 30
0.0
 10
252.3643931483334
 20
342.5553913287452
 30
0.0
 10
252.3690702881404
 20
342.5566655917353
 30
0.0
 10
252.3708415250573
 20
342.557148156239
 30
0.0
 10
252.372663356294
 20
342.5573871700262
 30
0.0
 10
252.3745173227634
 20
342.5573871700299
 30
0.0
  0
SPLINE
  5
16A
330
FB
100
AcDbEntity
  8
$DDT_AUDIT_GENERATED_(EE)
  6
Continuous
 62
     7
100
AcDbSpline
210
0.0
220
0.0
230
1.0
 70
     8
 71
     3
 72
    20
 73
    16
 74
     0
 42
0.0000000889906888
 43
0.0000000001
 40
0.0
 40
0.0
 40
0.0
 40
0.0
 40
0.2265447624555934
 40
0.2265447624555934
 40
0.2265447624555934
 40
0.4539668291961941
 40
0.4539668291961941
 40
0.4539668291961941
 40
0.6688391523372795
 40
0.6688391523372795
 40
0.6688391523372795
 40
0.8763105502138399
 40
0.8763105502138399
 40
0.8763105502138399
 40
1.0
 40
1.0
 40
1.0
 40
1.0
 10
252.3663144757509
 20
348.2573214477454
 30
0.0
 10
252.3615887226357
 20
348.257321447736
 30
0.0
 10
252.3572232685465
 20
348.2592335347492
 30
0.0
 10
252.3535155543143
 20
348.2630861761774
 30
0.0
 10
252.3497991890917
 20
348.2669478067459
 30
0.0
 10
252.3466377646515
 20
348.2728895184921
 30
0.0
 10
252.344161024095
 20
348.2804854168831
 30
0.0
 10
252.3418184146912
 20
348.287669949374
 30
0.0
 10
252.3400099551774
 20
348.2965403477789
 30
0.0
 10
252.3387129228037
 20
348.3063423887899
 30
0.0
 10
252.3374594473084
 20
348.3158152581341
 30
0.0
 10
252.3366392059432
 20
348.3264209783829
 30
0.0
 10
252.3362016411341
 20
348.3372696911925
 30
0.0
 10
252.335938332644
 20
348.3437979999824
 30
0.0
 10
252.3358086806665
 20
348.3505001688375
 30
0.0
 10
252.3358086806751
 20
348.3571690080092
 30
0.0
  0
SPLINE
  5
16B
330
FB
100
AcDbEntity
  8
$DDT_AUDIT_GENERATED_(EE)
  6
Continuous
 62
     7
100
AcDbSpline
210
0.0
220
0.0
230
1.0
 70
     8
 71
     3
 72
    20
 73
    16
 74
     0
 42
0.0000000891237997
 43
0.0000000001
 40
0.0
 40
0.0
 40
0.0
 40
0.0
 40
0.205854606827354
 40
0.205854606827354
 40
0.205854606827354
 40
0.4116957527649547
 40
0.4116957527649547
 40
0.4116957527649547
 40
0.6177489693967967
 40
0.6177489693967967
 40
0.6177489693967967
 40
0.8264062304268106
 40
0.8264062304268106
 40
0.8264062304268106
 40
1.0
 40
1.0
 40
1.0
 40
1.0
 10
252.3358086807629
 20
348.4574743346241
 30
0.0
 10
252.3358086807725
 20
348.4684656389148
 30
0.0
 10
252.3361614181746
 20
348.4796057639726
 30
0.0
 10
252.33689507819
 20
348.4899715689356
 30
0.0
 10
252.3376287139701
 20
348.5003370314805
 30
0.0
 10
252.3387690804801
 20
348.5102123213831
 30
0.0
 10
252.3403654440635
 20
348.5187898053086
 30
0.0
 10
252.3419637965575
 20
348.5273779759279
 30
0.0
 10
252.3440705296471
 20
348.5348960719705
 30
0.0
 10
252.3466733179675
 20
348.5407854779716
 30
0.0
 10
252.3493100653191
 20
348.5467517240755
 30
0.0
 10
252.352529468111
 20
348.5512065327836
 30
0.0
 10
252.3561912133891
 20
348.5539269239717
 30
0.0
 10
252.3592518975133
 20
348.5562007735949
 30
0.0
 10
252.3626738552067
 20
348.5573218949455
 30
0.0
 10
252.3663144763074
 20
348.5573218949526
 30
0.0
  0
SPLINE
  5
16C
330
FB
100
AcDbEntity
  8
$DDT_AUDIT_GENERATED_(EE)
  6
Continuous
 62
     7
100
AcDbSpline
210
0.0
220
0.0
230
1.0
 70
     8
 71
     3
 72
    20
 73
    16
 74
     0
 42
0.000000074645108
 43
0.0000000001
 40
0.0
 40
0.0
 40
0.0
 40
0.0
 40
0.2106301492049844
 40
0.2106301492049844
 40
0.2106301492049844
 40
0.4222427183374001
 40
0.4222427183374001
 40
0.4222427183374001
 40
0.6190941086178477
 40
0.6190941086178477
 40
0.6190941086178477
 40
0.8053716741841555
 40
0.8053716741841555
 40
0.8053716741841555
 40
1.0
 40
1.0
 40
1.0
 40
1.0
 10
252.3745173461258
 20
354.2572548486777
 30
0.0
 10
252.3691777615024
 20
354.2572548486671
 30
0.0
 10
252.364069052448
 20
354.2592822311154
 30
0.0
 10
252.3596012898707
 20
354.2633583780284
 30
0.0
 10
252.3551212465378
 20
354.2674457292438
 30
0.0
 10
252.3511587021502
 20
354.2737409383083
 30
0.0
 10
252.3479648006316
 20
354.2818069680305
 30
0.0
 10
252.3449901223144
 20
354.2893193611274
 30
0.0
 10
252.3425849244563
 20
354.2985922452458
 30
0.0
 10
252.3407810093766
 20
354.3088176248244
 30
0.0
 10
252.3390716783468
 20
354.3185068606438
 30
0.0
 10
252.3378423828154
 20
354.3293231232726
 30
0.0
 10
252.3370425795606
 20
354.3403397676798
 30
0.0
 10
252.3362080749415
 20
354.3518343953771
 30
0.0
 10
252.3358086870396
 20
354.363896372484
 30
0.0
 10
252.335808687054
 20
354.3753948885231
 30
0.0
  0
LINE
  5
16D
330
FB
100
AcDbEntity
  8
$DDT_AUDIT_GENERATED_(EE)
  6
Continuous
 62
     7
100
AcDbLine
 10
252.3265735615
 20
332.9239274618
 30
0.0
 11
252.3265735614
 21
335.5845495404
 31
0.0
  0
LINE
  5
16E
330
FB
100
AcDbEntity
  8
$DDT_AUDIT_GENERATED_(EE)
  6
Continuous
 62
     7
100
AcDbLine
 10
250.3265737039
 20
335.5845495041
 30
0.0
 11
250.3265735828
 21
361.2300935762
 31
0.0
  0
LINE
  5
16F
330
FB
100
AcDbEntity
  8
$DDT_AUDIT_GENERATED_(EE)
  6
Continuous
 62
     7
100
AcDbLine
 10
250.3265736536
 20
335.584549538
 30
0.0
 11
250.3265736913
 21
332.9239274594
 31
0.0
  0
LINE
  5
170
330
FB
100
AcDbEntity
  8
$DDT_AUDIT_GENERATED_(EE)
  6
Continuous
 62
     7
100
AcDbLine
 10
252.326573561
 20
361.2300935786
 30
0.0
 11
252.3265735615
 21
335.5845495065
 31
0.0
  0
LINE
  5
171
330
FB
100
AcDbEntity
  8
$DDT_AUDIT_GENERATED_(EE)
  6
Continuous
 62
     7
100
AcDbLine
 10
252.3265735609
 20
363.8907156941
 30
0.0
 11
252.326573561
 21
361.2300935786
 31
0.0
  0
LINE
  5
172
330
FB
100
AcDbEntity
  8
$DDT_AUDIT_GENERATED_(EE)
  6
Continuous
 62
     7
100
AcDbLine
 10
250.3265735828
 20
361.2300935762
 30
0.0
 11
250.3265735451
 21
363.8907156917
 31
0.0
  0
LINE
  5
173
330
FB
100
AcDbEntity
  8
$DDT_AUDIT_GENERATED_(EE)
  6
Continuous
 62
     7
100
AcDbLine
 10
251.8265735609
 20
364.3907158121
 30
0.0
 11
250.8205735322
 21
364.3907158121
 31
0.0
  0
LINE
  5
174
330
FB
100
AcDbEntity
  8
$DDT_AUDIT_GENERATED_(EE)
  6
Continuous
 62
     7
100
AcDbLine
 10
250.8205736542
 20
332.4239273068
 30
0.0
 11
251.8265735615
 21
332.4239273068
 31
0.0
  0
ARC
  5
175
330
FB
100
AcDbEntity
  8
$DDT_AUDIT_GENERATED_(EE)
  6
Continuous
 62
     7
100
AcDbCircle
 10
250.8265736919
 20
332.9239325825
 30
0.0
 40
0.4999999146465604
100
AcDbArc
 50
179.998790991
 51
270.2288575735
  0
ARC
  5
176
330
FB
100
AcDbEntity
  8
$DDT_AUDIT_GENERATED_(EE)
  6
Continuous
 62
     7
100
AcDbCircle
 10
251.8265735622
 20
332.9239325825
 30
0.0
 40
0.4999999993211566
100
AcDbArc
 50
270.228857626
 51
0.0012092802
  0
ARC
  5
177
330
FB
100
AcDbEntity
  8
$DDT_AUDIT_GENERATED_(EE)
  6
Continuous
 62
     7
100
AcDbCircle
 10
251.8265735605
 20
363.8907108548
 30
0.0
 40
0.4999999197736076
100
AcDbArc
 50
359.9988636827
 51
90.1214703354
  0
ARC
  5
178
330
FB
100
AcDbEntity
  8
$DDT_AUDIT_GENERATED_(EE)
  6
Continuous
 62
     7
100
AcDbCircle
 10
250.8265735447
 20
363.8907108547
 30
0.0
 40
0.499999999587378
100
AcDbArc
 50
90.1483301833
 51
180.0011365886
  0
LINE
  5
17A
330
FB
100
AcDbEntity
  8
$DDT_AUDIT_GENERATED_(179)
  6
Continuous
 62
     7
100
AcDbLine
 10
185.9265736801
 20
372.3336885907
 30
0.0
 11
185.926372067
 21
372.3336885907
 31
0.0
  0
ENDBLK
  5
17C
330
FB
100
AcDbEntity
  8
0
100
AcDbBlockEnd
  0
BLOCK
  5
1EA
330
17D
100
AcDbEntity
  8
0
100
AcDbBlockBegin
  2
SE2
 70
     0
 10
0.0
 20
0.0
 30
0.0
  3
SE2
  1

  0
SPLINE
  5
17F
330
17D
100
AcDbEntity
  8
$DDT_AUDIT_GENERATED_(7C)
  6
Continuous
 62
     7
100
AcDbSpline
210
0.0
220
0.0
230
1.0
 70
     8
 71
     3
 72
    17
 73
    13
 74
     0
 42
0.0000000028680738
 43
0.0000000001
 40
0.0
 40
0.0
 40
0.0
 40
0.0
 40
0.0627295483454038
 40
0.1254595718465847
 40
0.1881904917154298
 40
0.2509227906922467
 40
0.3136570438735155
 40
0.3763939495282644
 40
0.4391343598968111
 40
0.5018793119635031
 40
0.6072798078505443
 40
0.7163796019478865
 40
0.7163796019478865
 40
0.7163796019478865
 40
0.7163796019478865
 10
77.67695755678875
 20
198.7287119873334
 30
0.0
 10
77.67328937780938
 20
198.7288093479027
 30
0.0
 10
77.66595299206546
 20
198.7287929058006
 30
0.0
 10
77.6063491408261
 20
198.7287708126576
 30
0.0
 10
77.51116817948068
 20
198.7287513650556
 30
0.0
 10
77.37692079376727
 20
198.7287353032426
 30
0.0
 10
77.20454186296402
 20
198.7287231858073
 30
0.0
 10
76.99378127373168
 20
198.7287156158486
 30
0.0
 10
76.7447046144577
 20
198.7287131826037
 30
0.0
 10
76.39218074772413
 20
198.7287172132671
 30
0.0
 10
75.89326345095543
 20
198.7287345326342
 30
0.0
 10
75.43268312077652
 20
198.728762095668
 30
0.0
 10
75.17918629940232
 20
198.7287802760002
 30
0.0
  0
LINE
  5
180
330
17D
100
AcDbEntity
  8
$DDT_AUDIT_GENERATED_(7C)
  6
Continuous
 62
     7
100
AcDbLine
 10
72.8130429138
 20
198.7290152583
 30
0.0
 11
72.7168035426
 21
198.7290217052
 31
0.0
  0
LINE
  5
181
330
17D
100
AcDbEntity
  8
$DDT_AUDIT_GENERATED_(7C)
  6
Continuous
 62
     7
100
AcDbLine
 10
72.7168035426
 20
198.7290217052
 30
0.0
 11
72.5623077741
 21
198.729025637
 31
0.0
  0
SPLINE
  5
182
330
17D
100
AcDbEntity
  8
$DDT_AUDIT_GENERATED_(7C)
  6
Continuous
 62
     7
100
AcDbSpline
210
0.0
220
0.0
230
1.0
 70
     8
 71
     3
 72
    73
 73
    69
 74
     0
 42
0.0000000003380393
 43
0.0000000001
 40
0.0
 40
0.0
 40
0.0
 40
0.0
 40
0.0627295480867383
 40
0.125459571347208
 40
0.1881904909927414
 40
0.2509227897637387
 40
0.3136570427570837
 40
0.3763939482421854
 40
0.4391343584593846
 40
0.5018793103923598
 40
0.607278943774257
 40
0.7520601243225343
 40
0.8234742954570418
 40
0.8763905442638145
 40
0.9382945938928915
 40
0.9691733554954906
 40
0.9845933443042769
 40
0.9922983576783972
 40
0.9961496025749716
 40
0.9980749075151182
 40
0.9990374803509755
 40
0.9992781152525629
 40
0.9993382734584048
 40
0.9993683524833791
 40
0.999383391976377
 40
0.9993984314563826
 40
0.999413470923399
 40
0.9994285103774194
 40
0.9994435498184473
 40
0.999458589246483
 40
0.9994736286615266
 40
0.999488668063574
 40
0.9995037074526262
 40
0.9995187468286864
 40
0.999533786191751
 40
0.9995488255418233
 40
0.9995638648788973
 40
0.9995789042029789
 40
0.9995939435140627
 40
0.9996089828121504
 40
0.9996240220972401
 40
0.9996390613693384
 40
0.9996541006284347
 40
0.999669139874536
 40
0.9996841791076425
 40
0.9996992183277478
 40
0.9997142575348578
 40
0.99972929672897
 40
0.9997443359100812
 40
0.9997593750781976
 40
0.9997744142333125
 40
0.9997894533754266
 40
0.999804492504546
 40
0.9998195316206607
 40
0.9998345707237781
 40
0.9998496098138948
 40
0.9998646488910135
 40
0.999879687955128
 40
0.9998947270062423
 40
0.9999097660443554
 40
0.9999248050694681
 40
0.9999398440815802
 40
0.9999548830806881
 40
0.9999699220667926
 40
0.9999849610398966
 40
0.9999924805215705
 40
0.9999962402611917
 40
1.0
 40
1.0
 40
1.0
 40
1.0
 10
42.97425536599344
 20
198.7287119867675
 30
0.0
 10
42.34457778399484
 20
198.7288093468406
 30
0.0
 10
41.08521785021599
 20
198.7287929048317
 30
0.0
 10
39.19694281555995
 20
198.7287708118454
 30
0.0
 10
37.31019547903693
 20
198.7287513644063
 30
0.0
 10
35.42574148194826
 20
198.7287353027592
 30
0.0
 10
33.54434630652703
 20
198.7287231854876
 30
0.0
 10
31.66677653413923
 20
198.7287156156856
 30
0.0
 10
29.79379455675441
 20
198.7287131825856
 30
0.0
 10
27.50303040883694
 20
198.7287172133915
 30
0.0
 10
24.41222771979846
 20
198.7287367617973
 30
0.0
 10
21.26154043316517
 20
198.728781618577
 30
0.0
 10
18.64894150068167
 20
198.7288402890896
 30
0.0
 10
16.85122624733186
 20
198.728889943562
 30
0.0
 10
15.45272255031884
 20
198.7289356787078
 30
0.0
 10
14.41927885391805
 20
198.7289740195781
 30
0.0
 10
13.90481076991887
 20
198.7289942752515
 30
0.0
 10
13.64815636266835
 20
198.7290046765641
 30
0.0
 10
13.51997598505543
 20
198.7290099458518
 30
0.0
 10
13.45592274806199
 20
198.7290125976855
 30
0.0
 10
13.42619214587782
 20
198.7290138328967
 30
0.0
 10
13.41418706898648
 20
198.7290143324019
 30
0.0
 10
13.41104302604315
 20
198.7290144632666
 30
0.0
 10
13.41004266127921
 20
198.7290145049095
 30
0.0
 10
13.40947102697535
 20
198.7290145287066
 30
0.0
 10
13.40904230253566
 20
198.729014546555
 30
0.0
 10
13.40861357921009
 20
198.7290145644041
 30
0.0
 10
13.40818485699568
 20
198.7290145822537
 30
0.0
 10
13.40775613589328
 20
198.7290146001039
 30
0.0
 10
13.40732741590266
 20
198.7290146179548
 30
0.0
 10
13.40689869702387
 20
198.7290146358063
 30
0.0
 10
13.406469979257
 20
198.7290146536584
 30
0.0
 10
13.40604126260202
 20
198.7290146715111
 30
0.0
 10
13.40561254705894
 20
198.7290146893644
 30
0.0
 10
13.40518383262775
 20
198.7290147072183
 30
0.0
 10
13.40475511930853
 20
198.7290147250728
 30
0.0
 10
13.40432640710123
 20
198.7290147429279
 30
0.0
 10
13.40389769600594
 20
198.7290147607836
 30
0.0
 10
13.40346898602264
 20
198.72901477864
 30
0.0
 10
13.40304027715138
 20
198.7290147964969
 30
0.0
 10
13.40261156939214
 20
198.7290148143545
 30
0.0
 10
13.40218286274493
 20
198.7290148322127
 30
0.0
 10
13.40175415720981
 20
198.7290148500715
 30
0.0
 10
13.40132545278676
 20
198.7290148679308
 30
0.0
 10
13.40089674947582
 20
198.7290148857908
 30
0.0
 10
13.40046804727696
 20
198.7290149036514
 30
0.0
 10
13.40003934619026
 20
198.7290149215126
 30
0.0
 10
13.3996106462157
 20
198.7290149393744
 30
0.0
 10
13.39918194735333
 20
198.7290149572368
 30
0.0
 10
13.39875324960312
 20
198.7290149750999
 30
0.0
 10
13.39832455296515
 20
198.7290149929635
 30
0.0
 10
13.39789585743939
 20
198.7290150108277
 30
0.0
 10
13.39746716302589
 20
198.7290150286926
 30
0.0
 10
13.39703846972463
 20
198.729015046558
 30
0.0
 10
13.39660977753568
 20
198.7290150644241
 30
0.0
 10
13.39618108645897
 20
198.7290150822908
 30
0.0
 10
13.3957523964946
 20
198.7290151001581
 30
0.0
 10
13.39532370764254
 20
198.729015118026
 30
0.0
 10
13.39489501990288
 20
198.7290151358945
 30
0.0
 10
13.39446633327552
 20
198.7290151537636
 30
0.0
 10
13.39403764776056
 20
198.7290151716333
 30
0.0
 10
13.39360896335801
 20
198.7290151895037
 30
0.0
 10
13.39318028006778
 20
198.7290152073746
 30
0.0
 10
13.39275159789044
 20
198.7290152252461
 30
0.0
 10
13.39239436359109
 20
198.7290152401396
 30
0.0
 10
13.39214430004396
 20
198.7290152505653
 30
0.0
 10
13.39200140675408
 20
198.7290152565229
 30
0.0
 10
13.39192996016354
 20
198.7290152595018
 30
0.0
 10
13.39189423687214
 20
198.7290152582965
 30
0.0
  0
LINE
  5
183
330
17D
100
AcDbEntity
  8
$DDT_AUDIT_GENERATED_(7C)
  6
Continuous
 62
     7
100
AcDbLine
 10
13.3918942369
 20
198.7290152583
 30
0.0
 11
13.2374252388
 21
198.7290217052
 31
0.0
  0
LINE
  5
184
330
17D
100
AcDbEntity
  8
$DDT_AUDIT_GENERATED_(7C)
  6
Continuous
 62
     7
100
AcDbLine
 10
13.2374252388
 20
198.7290217052
 30
0.0
 11
13.1411749616
 21
198.729025637
 31
0.0
  0
ARC
  5
185
330
17D
100
AcDbEntity
  8
$DDT_AUDIT_GENERATED_(7C)
  6
Continuous
 62
     7
100
AcDbCircle
 10
13.1894992769
 20
197.107586271
 30
0.0
 40
5.378777754616211
100
AcDbArc
 50
269.4850467591
 51
270.5102721539
  0
ARC
  5
186
330
17D
100
AcDbEntity
  8
$DDT_AUDIT_GENERATED_(7C)
  6
Continuous
 62
     7
100
AcDbCircle
 10
13.3152397229
 20
206.1277586813
 30
0.0
 40
14.39894724662949
100
AcDbArc
 50
269.6902680253
 51
270.3049494121
  0
SPLINE
  5
187
330
17D
100
AcDbEntity
  8
$DDT_AUDIT_GENERATED_(7C)
  6
Continuous
 62
     7
100
AcDbSpline
210
0.0
220
0.0
230
1.0
 70
     8
 71
     2
 72
    12
 73
     9
 74
     0
 42
0.0000000003380066
 43
0.0000000001
 40
0.0
 40
0.0
 40
0.0
 40
0.25
 40
0.25
 40
0.5
 40
0.5
 40
0.75
 40
0.75
 40
1.0
 40
1.0
 40
1.0
 10
42.97709968186005
 20
191.7287121246112
 30
0.0
 10
39.19461640412931
 20
191.7286065249284
 30
0.0
 10
35.4284274768707
 20
191.7286065249265
 30
0.0
 10
31.65467112853358
 20
191.7286065249246
 30
0.0
 10
27.92868602556138
 20
191.7286065249228
 30
0.0
 10
24.20407208644404
 20
191.728606524921
 30
0.0
 10
20.55205143822803
 20
191.7286065249193
 30
0.0
 10
16.91858307865133
 20
191.7286065249176
 30
0.0
 10
13.39187590458304
 20
191.7290153782753
 30
0.0
  0
ARC
  5
188
330
17D
100
AcDbEntity
  8
$DDT_AUDIT_GENERATED_(7C)
  6
Continuous
 62
     7
100
AcDbCircle
 10
72.639933239
 20
205.9745380222
 30
0.0
 40
14.24572362426714
100
AcDbArc
 50
269.687891017
 51
270.3091925113
  0
ARC
  5
189
330
17D
100
AcDbEntity
  8
$DDT_AUDIT_GENERATED_(7C)
  6
Continuous
 62
     7
100
AcDbCircle
 10
72.7652938404
 20
197.1999922335
 30
0.0
 40
5.47118524620157
100
AcDbArc
 50
269.4922452943
 51
270.5000779663
  0
SPLINE
  5
18A
330
17D
100
AcDbEntity
  8
$DDT_AUDIT_GENERATED_(7C)
  6
Continuous
 62
     7
100
AcDbSpline
210
0.0
220
0.0
230
1.0
 70
     8
 71
     2
 72
    10
 73
     7
 74
     0
 42
0.0000000016002858
 43
0.0000000001
 40
0.2857142857142857
 40
0.2857142857142857
 40
0.2857142857142857
 40
0.5
 40
0.5
 40
0.75
 40
0.75
 40
1.0
 40
1.0
 40
1.0
 10
77.27653407675145
 20
191.7286065249519
 30
0.0
 10
76.97597025620358
 20
191.7286065249512
 30
0.0
 10
76.451143115006
 20
191.7286065249505
 30
0.0
 10
75.83907010891222
 20
191.7286065249496
 30
0.0
 10
74.92446502010155
 20
191.7286065249486
 30
0.0
 10
74.0145061286547
 20
191.7286065249475
 30
0.0
 10
72.81304577737053
 20
191.7290153782644
 30
0.0
  0
LINE
  5
18B
330
17D
100
AcDbEntity
  8
$DDT_AUDIT_GENERATED_(7C)
  6
Continuous
 62
     7
100
AcDbLine
 10
13.1076807729
 20
192.2362748965
 30
0.0
 11
13.1076807729
 21
198.2217536754
 31
0.0
  0
LINE
  5
18C
330
17D
100
AcDbEntity
  8
$DDT_AUDIT_GENERATED_(7C)
  6
Continuous
 62
     7
100
AcDbLine
 10
72.8465401565
 20
198.2217280058
 30
0.0
 11
72.8465401565
 21
192.2362734374
 31
0.0
  0
ARC
  5
18D
330
17D
100
AcDbEntity
  8
$DDT_AUDIT_GENERATED_(7C)
  6
Continuous
 62
     7
100
AcDbCircle
 10
72.8119551253
 20
198.4531520849
 30
0.0
 40
0.2758653181136465
100
AcDbArc
 50
77.7744988689
 51
89.7740714497
  0
SPLINE
  5
18E
330
17D
100
AcDbEntity
  8
$DDT_AUDIT_GENERATED_(7C)
  6
Continuous
 62
     7
100
AcDbSpline
210
0.0
220
0.0
230
1.0
 70
     8
 71
     3
 72
    35
 73
    31
 74
     0
 42
0.0000000003379743
 43
0.0000000001
 40
0.0
 40
0.0
 40
0.0
 40
0.0
 40
0.0004812523876656
 40
0.0009625180876762
 40
0.0019250893866408
 40
0.0038503913231311
 40
0.0077016304910859
 40
0.0154066335081964
 40
0.0308266058879334
 40
0.0617053508503699
 40
0.1236094247940793
 40
0.1768208037137435
 40
0.2479400799000072
 40
0.4212938332112824
 40
0.4981150223565087
 40
0.531580073057341
 40
0.5650436532834009
 40
0.5985059460812792
 40
0.6319671171616966
 40
0.665427316228264
 40
0.6988866783072192
 40
0.7323453250779787
 40
0.7658033662043666
 40
0.7992609006664002
 40
0.8327180180925273
 40
0.866174800092227
 40
0.8996313215888982
 40
0.9330876521529726
 40
0.9665438573351904
 40
1.0
 40
1.0
 40
1.0
 40
1.0
 10
72.56230777408243
 20
198.7290256369787
 30
0.0
 10
72.55773422065853
 20
198.7290256967974
 30
0.0
 10
72.5485869872976
 20
198.729025818157
 30
0.0
 10
72.53029073771751
 20
198.7290260601215
 30
0.0
 10
72.4982675590602
 20
198.7290264820787
 30
0.0
 10
72.43420256832636
 20
198.7290273197176
 30
0.0
 10
72.30599870504665
 20
198.7290289701817
 30
0.0
 10
72.04929712090325
 20
198.729032172023
 30
0.0
 10
71.53473411129686
 20
198.7290381822427
 30
0.0
 10
70.50109793867995
 20
198.7290486511965
 30
0.0
 10
69.09950002935587
 20
198.7290586826988
 30
0.0
 10
67.30141038523479
 20
198.7290655057517
 30
0.0
 10
64.41087488243971
 20
198.7290668547278
 30
0.0
 10
61.25845748431505
 20
198.7290502382675
 30
0.0
 10
58.45434044545338
 20
198.729024069298
 30
0.0
 10
57.02894242930643
 20
198.7290089370571
 30
0.0
 10
56.0318205002761
 20
198.728997539649
 30
0.0
 10
55.03318976428915
 20
198.7289854379461
 30
0.0
 10
54.03316773092452
 20
198.7289727131832
 30
0.0
 10
53.0318700025339
 20
198.728959458099
 30
0.0
 10
52.02941269200694
 20
198.7289457622055
 30
0.0
 10
51.02591177501938
 20
198.7289317157411
 30
0.0
 10
50.02148326361593
 20
198.7289174085893
 30
0.0
 10
49.01624315982186
 20
198.7289029306539
 30
0.0
 10
48.01030746783641
 20
198.7288883714402
 30
0.0
 10
47.00379219186013
 20
198.7288738213566
 30
0.0
 10
45.99681333280381
 20
198.7288593669293
 30
0.0
 10
44.98948690383543
 20
198.7288451086435
 30
0.0
 10
43.9819288716917
 20
198.7288310943661
 30
0.0
 10
43.31014632534003
 20
198.7288220766619
 30
0.0
 10
42.97425536599344
 20
198.7287119867675
 30
0.0
  0
SPLINE
  5
18F
330
17D
100
AcDbEntity
  8
$DDT_AUDIT_GENERATED_(7C)
  6
Continuous
 62
     7
100
AcDbSpline
210
0.0
220
0.0
230
1.0
 70
     8
 71
     3
 72
    16
 73
    12
 74
     0
 42
0.0000000020244018
 43
0.0000000001
 40
0.2644748862726117
 40
0.2644748862726117
 40
0.2644748862726117
 40
0.2644748862726117
 40
0.4212916747069196
 40
0.4981149110225701
 40
0.5315799691810656
 40
0.5650435568426966
 40
0.5985058570579347
 40
0.6319670355414202
 40
0.6654272420007126
 40
0.698886611466018
 40
0.72048533774682
 40
0.72048533774682
 40
0.72048533774682
 40
0.72048533774682
 10
10.90986091359954
 20
198.7290644539237
 30
0.0
 10
10.53573440858278
 20
198.7290614222395
 30
0.0
 10
10.03750942962002
 20
198.7290487132165
 30
0.0
 10
9.569178077365535
 20
198.7290240701618
 30
0.0
 10
9.34297697894628
 20
198.7290089378624
 30
0.0
 10
9.195881005011412
 20
198.7289975405266
 30
0.0
 10
9.059688418418567
 20
198.7289854388761
 30
0.0
 10
8.934393243514062
 20
198.7289727141481
 30
0.0
 10
8.819997010287475
 20
198.7289594590867
 30
0.0
 10
8.72872772337699
 20
198.7289473814085
 30
0.0
 10
8.676876096898878
 20
198.7289397107829
 30
0.0
 10
8.657292029630781
 20
198.7289366813378
 30
0.0
  0
SPLINE
  5
190
330
17D
100
AcDbEntity
  8
$DDT_AUDIT_GENERATED_(7C)
  6
Continuous
 62
     7
100
AcDbSpline
210
0.0
220
0.0
230
1.0
 70
     8
 71
     2
 72
     8
 73
     5
 74
     0
 42
0.0000000003380065
 43
0.0000000001
 40
0.0
 40
0.0
 40
0.0
 40
0.5
 40
0.5
 40
1.0
 40
1.0
 40
1.0
 10
72.56233247395335
 20
191.7290257569665
 30
0.0
 10
65.48154628166785
 20
191.7286065249422
 30
0.0
 10
58.0255267361572
 20
191.7286065249382
 30
0.0
 10
50.56718047279711
 20
191.7286065249342
 30
0.0
 10
42.97709968186005
 20
191.7287121246112
 30
0.0
  0
SPLINE
  5
191
330
17D
100
AcDbEntity
  8
$DDT_AUDIT_GENERATED_(7C)
  6
Continuous
 62
     7
100
AcDbSpline
210
0.0
220
0.0
230
1.0
 70
     8
 71
     2
 72
     8
 73
     5
 74
     0
 42
0.0000000020555425
 43
0.0000000001
 40
0.0
 40
0.0
 40
0.0
 40
0.5
 40
0.5
 40
1.0
 40
1.0
 40
1.0
 10
13.14115746584624
 20
191.7290257569647
 30
0.0
 10
10.72880638605286
 20
191.7286065249157
 30
0.0
 10
9.50297658737649
 20
191.7286065249163
 30
0.0
 10
8.276764781058287
 20
191.7286065249168
 30
0.0
 10
8.277256609312722
 20
191.728712124617
 30
0.0
  0
LINE
  5
192
330
17D
100
AcDbEntity
  8
$DDT_AUDIT_GENERATED_(7C)
  6
Continuous
 62
     7
100
AcDbLine
 10
77.9770365085
 20
192.02902057
 30
0.0
 11
77.9770365085
 21
198.4290204329
 31
0.0
  0
LINE
  5
193
330
17D
100
AcDbEntity
  8
$DDT_AUDIT_GENERATED_(7C)
  6
Continuous
 62
     7
100
AcDbLine
 10
7.9771834849
 20
198.4290204328
 30
0.0
 11
7.9771834849
 21
192.02902057
 31
0.0
  0
SPLINE
  5
194
330
17D
100
AcDbEntity
  8
$DDT_AUDIT_GENERATED_(7C)
  6
Continuous
 62
     7
100
AcDbSpline
210
0.0
220
0.0
230
1.0
 70
     8
 71
     3
 72
    17
 73
    13
 74
     0
 42
0.0000000195285212
 43
0.0000000001
 40
0.0
 40
0.0
 40
0.0
 40
0.0
 40
0.0176118580772522
 40
0.033645879964795
 40
0.0497119707235064
 40
0.0671315726588174
 40
0.1094206968698389
 40
0.2231245390175604
 40
0.3388148623603138
 40
0.4525215090504993
 40
0.7132469778041796
 40
1.0
 40
1.0
 40
1.0
 40
1.0
 10
77.9773132528243
 20
198.4288175951422
 30
0.0
 10
77.97537943204134
 20
198.4569517405268
 30
0.0
 10
77.97169075077606
 20
198.5030328314987
 30
0.0
 10
77.94529043595112
 20
198.5682268318096
 30
0.0
 10
77.91380994700123
 20
198.6156542280748
 30
0.0
 10
77.86795073982292
 20
198.6637756915399
 30
0.0
 10
77.80016984019119
 20
198.7052689107432
 30
0.0
 10
77.78907099402461
 20
198.7053337263218
 30
0.0
 10
77.74885128065532
 20
198.7187559727929
 30
0.0
 10
77.71375236670029
 20
198.7231687482013
 30
0.0
 10
77.69473358844567
 20
198.7225180001857
 30
0.0
 10
77.65892290984131
 20
198.7228951304072
 30
0.0
 10
77.63820523456694
 20
198.7227730161074
 30
0.0
  0
LINE
  5
195
330
17D
100
AcDbEntity
  8
$DDT_AUDIT_GENERATED_(7C)
  6
Continuous
 62
     7
100
AcDbLine
 10
75.2414364165
 20
198.7226835454
 30
0.0
 11
72.8702882993
 21
198.722917946
 31
0.0
  0
SPLINE
  5
196
330
17D
100
AcDbEntity
  8
$DDT_AUDIT_GENERATED_(7C)
  6
Continuous
 62
     7
100
AcDbSpline
210
0.0
220
0.0
230
1.0
 70
     8
 71
     3
 72
    23
 73
    19
 74
     0
 42
0.0000000123999493
 43
0.0000000001
 40
0.0
 40
0.0
 40
0.0
 40
0.0
 40
0.0509463064091469
 40
0.1420041980538693
 40
0.2330606612049198
 40
0.3241158548682772
 40
0.5064712410167542
 40
0.6943357720452399
 40
0.7911550423458611
 40
0.8897395861158646
 40
0.9317196216842892
 40
0.9625322733880373
 40
0.9741501996939808
 40
0.9836831492553292
 40
0.9878957498080809
 40
0.9919037311572252
 40
0.9958760060867897
 40
1.0
 40
1.0
 40
1.0
 40
1.0
 10
77.34077492195657
 20
191.7347649700386
 30
0.0
 10
77.35608951754861
 20
191.7347924461554
 30
0.0
 10
77.39218452752986
 20
191.7348585748867
 30
0.0
 10
77.44906287821163
 20
191.7348288166292
 30
0.0
 10
77.50800102185937
 20
191.7348335855947
 30
0.0
 10
77.57851783244955
 20
191.7349126467514
 30
0.0
 10
77.64626325087434
 20
191.7343721881005
 30
0.0
 10
77.71370738862512
 20
191.737524841134
 30
0.0
 10
77.77364133456027
 20
191.7496302479687
 30
0.0
 10
77.79773956159403
 20
191.7553211088735
 30
0.0
 10
77.83695844081917
 20
191.7746647415045
 30
0.0
 10
77.881428902081
 20
191.8057603319498
 30
0.0
 10
77.9224280280195
 20
191.8538787708836
 30
0.0
 10
77.94572600975468
 20
191.8922359935476
 30
0.0
 10
77.96104021605404
 20
191.9296229875681
 30
0.0
 10
77.969872548333
 20
191.9596201682517
 30
0.0
 10
77.97608690567893
 20
191.9937428837437
 30
0.0
 10
77.97690907513886
 20
192.0156560062613
 30
0.0
 10
77.97731354038986
 20
192.0288177318656
 30
0.0
  0
SPLINE
  5
197
330
17D
100
AcDbEntity
  8
$DDT_AUDIT_GENERATED_(7C)
  6
Continuous
 62
     7
100
AcDbSpline
210
0.0
220
0.0
230
1.0
 70
     8
 71
     3
 72
    19
 73
    15
 74
     0
 42
0.0000000125508849
 43
0.0000000001
 40
0.0
 40
0.0
 40
0.0
 40
0.0
 40
0.1876800553854006
 40
0.4008025563276248
 40
0.6215286622856631
 40
0.8528725707745296
 40
0.9097455255348382
 40
0.9522059488736129
 40
0.9678321023912868
 40
0.9802204601958434
 40
0.9854848444775987
 40
0.9903576232009803
 40
0.9950953992480909
 40
1.0
 40
1.0
 40
1.0
 40
1.0
 10
8.60344440225532
 20
198.7228382456193
 30
0.0
 10
8.54992059930789
 20
198.7228296464618
 30
0.0
 10
8.454437394405941
 20
198.7228149362826
 30
0.0
 10
8.344352893697108
 20
198.7227819915546
 30
0.0
 10
8.256555429859015
 20
198.7227676217308
 30
0.0
 10
8.175505492778075
 20
198.708215973952
 30
0.0
 10
8.138002902065733
 20
198.6936630289855
 30
0.0
 10
8.09481406014844
 20
198.6702462595111
 30
0.0
 10
8.047305189950123
 20
198.6237629002455
 30
0.0
 10
8.018578770224286
 20
198.5841615720012
 30
0.0
 10
7.998668910791908
 20
198.5428399270013
 30
0.0
 10
7.987021265643622
 20
198.5091664954215
 30
0.0
 10
7.978588699583337
 20
198.4698215568975
 30
0.0
 10
7.977467072928082
 20
198.4441618455927
 30
0.0
 10
7.976906740662197
 20
198.4288175950347
 30
0.0
  0
LINE
  5
198
330
17D
100
AcDbEntity
  8
$DDT_AUDIT_GENERATED_(7C)
  6
Continuous
 62
     7
100
AcDbLine
 10
13.0839424965
 20
198.7229327466
 30
0.0
 11
10.8648809143
 21
198.7229687759
 31
0.0
  0
ARC
  5
199
330
17D
100
AcDbEntity
  8
$DDT_AUDIT_GENERATED_(7C)
  6
Continuous
 62
     7
100
AcDbCircle
 10
11.7318950264
 20
611.741772035
 30
0.0
 40
413.0210670608013
100
AcDbArc
 50
269.7499594083
 51
269.7701373843
  0
SPLINE
  5
19A
330
17D
100
AcDbEntity
  8
$DDT_AUDIT_GENERATED_(7C)
  6
Continuous
 62
     7
100
AcDbSpline
210
0.0
220
0.0
230
1.0
 70
     8
 71
     3
 72
    24
 73
    20
 74
     0
 42
0.0000000088727714
 43
0.0000000001
 40
0.0
 40
0.0
 40
0.0
 40
0.0
 40
0.0031297227030575
 40
0.0061443049776798
 40
0.0091859850569592
 40
0.0123829518408166
 40
0.0196175621717316
 40
0.0284344735096149
 40
0.0583340254005084
 40
0.1008312988729463
 40
0.1729239018985002
 40
0.2982467677459382
 40
0.5129039278130867
 40
0.591877999108706
 40
0.6708533507379542
 40
0.7498301658601074
 40
0.8364515354598803
 40
0.9429239498463906
 40
1.0
 40
1.0
 40
1.0
 40
1.0
 10
7.976906453095199
 20
192.0288177319093
 30
0.0
 10
7.97731091833858
 20
192.0156560063407
 30
0.0
 10
7.978133090024382
 20
191.9937428607966
 30
0.0
 10
7.984347437584985
 20
191.9596202463704
 30
0.0
 10
7.993179806382707
 20
191.9296226881038
 30
0.0
 10
8.008493808421814
 20
191.8922378073715
 30
0.0
 10
8.031793740956376
 20
191.8538604091636
 30
0.0
 10
8.079548778275512
 20
191.7979788997433
 30
0.0
 10
8.130543259308606
 20
191.7676063568113
 30
0.0
 10
8.156890259701733
 20
191.7562118690145
 30
0.0
 10
8.201117896548801
 20
191.7438205319421
 30
0.0
 10
8.283583752328447
 20
191.7336943373248
 30
0.0
 10
8.358370393144542
 20
191.7349802549376
 30
0.0
 10
8.453826920050277
 20
191.7348275149781
 30
0.0
 10
8.523232586660198
 20
191.7348147875471
 30
0.0
 10
8.603376340819556
 20
191.7349176285421
 30
0.0
 10
8.706166395468173
 20
191.7343976829248
 30
0.0
 10
8.819601710526918
 20
191.7325622870065
 30
0.0
 10
8.9002912925008
 20
191.731653243984
 30
0.0
 10
8.933662148076712
 20
191.7312611173049
 30
0.0
  0
LINE
  5
19B
330
17D
100
AcDbEntity
  8
$DDT_AUDIT_GENERATED_(115)
  6
Continuous
 62
     7
100
AcDbLine
 10
25.9771100212
 20
191.7286065249
 30
0.0
 11
25.9771100212
 21
191.7284049118
 31
0.0
  0
LINE
  5
19C
330
17D
100
AcDbEntity
  8
$DDT_AUDIT_GENERATED_(115)
  6
Continuous
 62
     7
100
AcDbLine
 10
59.9771100212
 20
191.7284049118
 30
0.0
 11
59.9771100212
 21
191.7286065249
 31
0.0
  0
ARC
  5
19D
330
17D
100
AcDbEntity
  8
$DDT_AUDIT_GENERATED_(AB)
  6
Continuous
 62
     7
100
AcDbCircle
 10
216.9123445976
 20
122.5207959798
 30
0.0
 40
162.1130177016732
100
AcDbArc
 50
154.9870135034
 51
177.8357322555
  0
ARC
  5
19E
330
17D
100
AcDbEntity
  8
$DDT_AUDIT_GENERATED_(AB)
  6
Continuous
 62
     7
100
AcDbCircle
 10
-140.8812206091
 20
119.3187143056
 30
0.0
 40
172.4642156872314
100
AcDbArc
 50
5.7551100499
 51
24.5831063574
  0
SPLINE
  5
19F
330
17D
100
AcDbEntity
  8
$DDT_AUDIT_GENERATED_(AB)
  6
Continuous
 62
     7
100
AcDbSpline
210
0.0
220
0.0
230
1.0
 70
    12
 71
     3
 72
    11
 73
     7
 74
     0
 42
0.0000000387591276
 43
0.0000000001
 40
0.0
 40
0.0
 40
0.0
 40
0.0
 40
0.0012333535055359
 40
0.0012333535055359
 40
0.0012333535055359
 40
1.0
 40
1.0
 40
1.0
 40
1.0
 10
15.95063329845624
 20
191.0660159449206
 30
0.0
 41
1.0
 10
15.95057789235914
 20
191.0661438123281
 30
0.0
 41
1.0
 10
15.95052261303594
 20
191.066271708573
 30
0.0
 41
1.0
 10
15.95046746089604
 20
191.0663996333618
 30
0.0
 41
1.0
 10
15.91433558856537
 20
191.1502071183488
 30
0.0
 41
0.8619704624480881
 10
15.93958267895793
 20
191.2271421363728
 30
0.0
 41
0.8619704624480881
 10
16.01583508330924
 20
191.2654843101037
 30
0.0
 41
1.0
  0
ARC
  5
1A0
330
17D
100
AcDbEntity
  8
$DDT_AUDIT_GENERATED_(AB)
  6
Continuous
 62
     7
100
AcDbCircle
 10
70.7332040657
 20
190.82084689
 30
0.0
 40
0.6171532459269611
100
AcDbArc
 50
133.9070868229
 51
156.5930754865
  0
LINE
  5
1A1
330
17D
100
AcDbEntity
  8
$DDT_AUDIT_GENERATED_(AB)
  6
Continuous
 62
     7
100
AcDbLine
 10
31.0764295165
 20
128.1284049118
 30
0.0
 11
28.7966035403
 21
128.1284035767
 31
0.0
  0
LINE
  5
1A2
330
17D
100
AcDbEntity
  8
$DDT_AUDIT_GENERATED_(AB)
  6
Continuous
 62
     7
100
AcDbLine
 10
31.1805177202
 20
128.1284049118
 30
0.0
 11
31.0764295165
 21
128.1284049118
 31
0.0
  0
LINE
  5
1A3
330
17D
100
AcDbEntity
  8
$DDT_AUDIT_GENERATED_(AB)
  6
Continuous
 62
     7
100
AcDbLine
 10
31.3393725259
 20
128.1284049118
 30
0.0
 11
31.1805177202
 21
128.1284049118
 31
0.0
  0
LINE
  5
1A4
330
17D
100
AcDbEntity
  8
$DDT_AUDIT_GENERATED_(AB)
  6
Continuous
 62
     7
100
AcDbLine
 10
54.6148491039
 20
128.1284049118
 30
0.0
 11
31.3393725259
 21
128.1284049118
 31
0.0
  0
LINE
  5
1A5
330
17D
100
AcDbEntity
  8
$DDT_AUDIT_GENERATED_(AB)
  6
Continuous
 62
     7
100
AcDbLine
 10
54.7737023085
 20
128.1284049118
 30
0.0
 11
54.6148491039
 21
128.1284049118
 31
0.0
  0
LINE
  5
1A6
330
17D
100
AcDbEntity
  8
$DDT_AUDIT_GENERATED_(AB)
  6
Continuous
 62
     7
100
AcDbLine
 10
54.8777906078
 20
128.1284049118
 30
0.0
 11
54.7737023085
 21
128.1284049118
 31
0.0
  0
LINE
  5
1A7
330
17D
100
AcDbEntity
  8
$DDT_AUDIT_GENERATED_(AB)
  6
Continuous
 62
     7
100
AcDbLine
 10
57.1576165027
 20
128.1284035767
 30
0.0
 11
54.8777906078
 21
128.1284049118
 31
0.0
  0
LINE
  5
1A8
330
17D
100
AcDbEntity
  8
$DDT_AUDIT_GENERATED_(AB)
  6
Continuous
 62
     7
100
AcDbLine
 10
29.7771100206
 20
127.6284049118
 30
0.0
 11
31.9254824867
 21
127.6284049118
 31
0.0
  0
LINE
  5
1A9
330
17D
100
AcDbEntity
  8
$DDT_AUDIT_GENERATED_(AB)
  6
Continuous
 62
     7
100
AcDbLine
 10
31.9254824867
 20
127.6284049118
 30
0.0
 11
31.9254824867
 21
128.1284049118
 31
0.0
  0
LINE
  5
1AA
330
17D
100
AcDbEntity
  8
$DDT_AUDIT_GENERATED_(AB)
  6
Continuous
 62
     7
100
AcDbLine
 10
31.9254824867
 20
127.6284049118
 30
0.0
 11
54.0287375634
 21
127.6284049118
 31
0.0
  0
LINE
  5
1AB
330
17D
100
AcDbEntity
  8
$DDT_AUDIT_GENERATED_(AB)
  6
Continuous
 62
     7
100
AcDbLine
 10
54.0287375634
 20
127.6284049118
 30
0.0
 11
54.0287375634
 21
128.1284049118
 31
0.0
  0
LINE
  5
1AC
330
17D
100
AcDbEntity
  8
$DDT_AUDIT_GENERATED_(AB)
  6
Continuous
 62
     7
100
AcDbLine
 10
54.0287375634
 20
127.6284049118
 30
0.0
 11
56.1771100295
 21
127.6284049118
 31
0.0
  0
ARC
  5
1AD
330
17D
100
AcDbEntity
  8
$DDT_AUDIT_GENERATED_(AB)
  6
Continuous
 62
     7
100
AcDbCircle
 10
196.9489922025
 20
123.8485813243
 30
0.0
 40
139.5659780436908
100
AcDbArc
 50
151.1028347268
 51
178.1176959655
  0
ARC
  5
1AE
330
17D
100
AcDbEntity
  8
$DDT_AUDIT_GENERATED_(AB)
  6
Continuous
 62
     7
100
AcDbCircle
 10
-110.2492994469
 20
124.0544383581
 30
0.0
 40
138.8141428409276
100
AcDbArc
 50
1.8074908759
 51
28.9714610429
  0
ARC
  5
1AF
330
17D
100
AcDbEntity
  8
$DDT_AUDIT_GENERATED_(AB)
  6
Continuous
 62
     7
100
AcDbCircle
 10
74.4901724337
 20
191.428594181
 30
0.0
 40
0.299815913103993
100
AcDbArc
 50
333.2494979336
 51
90.314442918
  0
LINE
  5
1B0
330
17D
100
AcDbEntity
  8
$DDT_AUDIT_GENERATED_(AB)
  6
Continuous
 62
     7
100
AcDbLine
 10
72.7044312875
 20
191.7284003252
 30
0.0
 11
70.6531756623
 21
191.7285606625
 31
0.0
  0
ARC
  5
1B1
330
17D
100
AcDbEntity
  8
$DDT_AUDIT_GENERATED_(AB)
  6
Continuous
 62
     7
100
AcDbCircle
 10
11.4637189968
 20
191.4285349186
 30
0.0
 40
0.2994958115459276
100
AcDbArc
 50
89.5482269023
 51
206.768674512
  0
ARC
  5
1B2
330
17D
100
AcDbEntity
  8
$DDT_AUDIT_GENERATED_(AB)
  6
Continuous
 62
     7
100
AcDbCircle
 10
28.7964902683
 20
128.4283063226
 30
0.0
 40
0.2999027673525184
100
AcDbArc
 50
179.1366892947
 51
270.0216403821
  0
ARC
  5
1B3
330
17D
100
AcDbEntity
  8
$DDT_AUDIT_GENERATED_(AB)
  6
Continuous
 62
     7
100
AcDbCircle
 10
57.1577297748
 20
128.4283063226
 30
0.0
 40
0.2999027673547298
100
AcDbArc
 50
269.9783596173
 51
0.863310705
  0
LINE
  5
1B4
330
17D
100
AcDbEntity
  8
$DDT_AUDIT_GENERATED_(AB)
  6
Continuous
 62
     7
100
AcDbLine
 10
29.7771100206
 20
128.1284049118
 30
0.0
 11
29.7771100206
 21
127.6284049118
 31
0.0
  0
LINE
  5
1B5
330
17D
100
AcDbEntity
  8
$DDT_AUDIT_GENERATED_(AB)
  6
Continuous
 62
     7
100
AcDbLine
 10
56.1771100295
 20
127.6284049118
 30
0.0
 11
56.1771100295
 21
128.1284049118
 31
0.0
  0
LINE
  5
1B6
330
17D
100
AcDbEntity
  8
$DDT_AUDIT_GENERATED_(AB)
  6
Continuous
 62
     7
100
AcDbLine
 10
32.4771100251
 20
127.6284049118
 30
0.0
 11
32.4771100251
 21
127.3284050178
 31
0.0
  0
LINE
  5
1B7
330
17D
100
AcDbEntity
  8
$DDT_AUDIT_GENERATED_(AB)
  6
Continuous
 62
     7
100
AcDbLine
 10
53.4771100251
 20
127.328405059
 30
0.0
 11
53.4771100251
 21
127.6284049118
 31
0.0
  0
LINE
  5
1B8
330
17D
100
AcDbEntity
  8
$DDT_AUDIT_GENERATED_(CD)
  6
Continuous
 62
     7
100
AcDbLine
 10
28.791581786
 20
125.3284050308
 30
0.0
 11
29.1571115845
 21
125.3284050308
 31
0.0
  0
LINE
  5
1B9
330
17D
100
AcDbEntity
  8
$DDT_AUDIT_GENERATED_(CD)
  6
Continuous
 62
     7
100
AcDbLine
 10
30.2079634836
 20
125.3284050309
 30
0.0
 11
31.076471077
 21
125.328405031
 31
0.0
  0
LINE
  5
1BA
330
17D
100
AcDbEntity
  8
$DDT_AUDIT_GENERATED_(CD)
  6
Continuous
 62
     7
100
AcDbLine
 10
54.8777320144
 20
125.328405031
 30
0.0
 11
55.7462665011
 21
125.3284050309
 31
0.0
  0
LINE
  5
1BB
330
17D
100
AcDbEntity
  8
$DDT_AUDIT_GENERATED_(CD)
  6
Continuous
 62
     7
100
AcDbLine
 10
56.7969865121
 20
125.3284050308
 30
0.0
 11
57.1626213561
 21
125.3284050307
 31
0.0
  0
LINE
  5
1BC
330
17D
100
AcDbEntity
  8
$DDT_AUDIT_GENERATED_(CD)
  6
Continuous
 62
     7
100
AcDbLine
 10
54.7733087643
 20
125.328405031
 30
0.0
 11
54.8777320144
 21
125.328405031
 31
0.0
  0
SPLINE
  5
1BD
330
17D
100
AcDbEntity
  8
$DDT_AUDIT_GENERATED_(CD)
  6
Continuous
 62
     7
100
AcDbSpline
210
0.0
220
0.0
230
1.0
 70
     8
 71
     3
 72
    12
 73
     8
 74
     0
 42
0.0000000760523812
 43
0.0000000001
 40
0.0
 40
0.0
 40
0.0
 40
0.0
 40
0.249999999999995
 40
0.249999999999995
 40
0.49999999999999
 40
0.49999999999999
 40
1.0
 40
1.0
 40
1.0
 40
1.0
 10
30.84036664236728
 20
124.9898203092795
 30
0.0
 10
30.84564398156747
 20
125.0000751775006
 30
0.0
 10
30.85200041111917
 20
125.0087639607622
 30
0.0
 10
30.86721019971182
 20
125.0201625137714
 30
0.0
 10
30.87604693820611
 20
125.0234892153344
 30
0.0
 10
30.90443382186603
 20
125.0354904013443
 30
0.0
 10
30.92607054335669
 20
125.0466026883664
 30
0.0
 10
30.95166796525528
 20
125.0465968120087
 30
0.0
  0
SPLINE
  5
1BE
330
17D
100
AcDbEntity
  8
$DDT_AUDIT_GENERATED_(CD)
  6
Continuous
 62
     7
100
AcDbSpline
210
0.0
220
0.0
230
1.0
 70
     8
 71
     3
 72
    12
 73
     8
 74
     0
 42
0.0000000550735494
 43
0.0000000001
 40
0.0
 40
0.0
 40
0.0
 40
0.0
 40
0.5000000000000064
 40
0.5000000000000064
 40
0.7500000000000032
 40
0.7500000000000032
 40
1.0
 40
1.0
 40
1.0
 40
1.0
 10
30.95166796525528
 20
125.0465968120087
 30
0.0
 10
30.97712680187006
 20
125.0465987745136
 30
0.0
 10
31.00403510312364
 20
125.0355665502804
 30
0.0
 10
31.04784901835902
 20
125.0235543980425
 30
0.0
 10
31.06316951915736
 20
125.0202500818225
 30
0.0
 10
31.09303781841067
 20
125.0089461964228
 30
0.0
 10
31.10777140366161
 20
125.0000772567532
 30
0.0
 10
31.12107411391433
 20
124.9898197196369
 30
0.0
  0
LINE
  5
1BF
330
17D
100
AcDbEntity
  8
$DDT_AUDIT_GENERATED_(CD)
  6
Continuous
 62
     7
100
AcDbLine
 10
31.1210669663
 20
124.9898302416
 30
0.0
 11
31.1210669663
 21
108.7933017559
 31
0.0
  0
SPLINE
  5
1C0
330
17D
100
AcDbEntity
  8
$DDT_AUDIT_GENERATED_(CD)
  6
Continuous
 62
     7
100
AcDbSpline
210
0.0
220
0.0
230
1.0
 70
     8
 71
     3
 72
    12
 73
     8
 74
     0
 42
0.0000000550700388
 43
0.0000000001
 40
0.0
 40
0.0
 40
0.0
 40
0.0
 40
0.2499999999999918
 40
0.2499999999999918
 40
0.4999999999999837
 40
0.4999999999999837
 40
1.0
 40
1.0
 40
1.0
 40
1.0
 10
54.83312883277065
 20
124.9898200802634
 30
0.0
 10
54.84644269459803
 20
125.0000858233875
 30
0.0
 10
54.86080809492645
 20
125.0087723250328
 30
0.0
 10
54.89069816213967
 20
125.0201616020891
 30
0.0
 10
54.90610323838063
 20
125.0234920510241
 30
0.0
 10
54.94994841217456
 20
125.0354940192862
 30
0.0
 10
54.97693860507331
 20
125.0465984254153
 30
0.0
 10
55.0025351906484
 20
125.0465966246864
 30
0.0
  0
SPLINE
  5
1C1
330
17D
100
AcDbEntity
  8
$DDT_AUDIT_GENERATED_(CD)
  6
Continuous
 62
     7
100
AcDbSpline
210
0.0
220
0.0
230
1.0
 70
     8
 71
     3
 72
    12
 73
     8
 74
     0
 42
0.0000000760633018
 43
0.0000000001
 40
0.0
 40
0.0
 40
0.0
 40
0.0
 40
0.5
 40
0.5
 40
0.75
 40
0.75
 40
1.0
 40
1.0
 40
1.0
 40
1.0
 10
55.0025351906484
 20
125.0465966246864
 30
0.0
 10
55.02797107322138
 20
125.0466027931055
 30
0.0
 10
55.0495646539155
 20
125.0355797726505
 30
0.0
 10
55.07794948649082
 20
125.0235733930422
 30
0.0
 10
55.08674426819555
 20
125.0202838939199
 30
0.0
 10
55.10201024794957
 20
125.0089669787596
 30
0.0
 10
55.10856797545051
 20
125.0000562437656
 30
0.0
 10
55.11383642259407
 20
124.9898196673026
 30
0.0
  0
LINE
  5
1C2
330
17D
100
AcDbEntity
  8
$DDT_AUDIT_GENERATED_(CD)
  6
Continuous
 62
     7
100
AcDbLine
 10
55.1138335914
 20
124.9898301878
 30
0.0
 11
55.1138335914
 21
108.7933017561
 31
0.0
  0
ARC
  5
1C3
330
17D
100
AcDbEntity
  8
$DDT_AUDIT_GENERATED_(CD)
  6
Continuous
 62
     7
100
AcDbCircle
 10
42.9771015663
 20
635.7786563763
 30
0.0
 40
527.1187053604804
100
AcDbArc
 50
268.7111858743
 51
271.2888141267
  0
LINE
  5
1C4
330
17D
100
AcDbEntity
  8
$DDT_AUDIT_GENERATED_(CD)
  6
Continuous
 62
     7
100
AcDbLine
 10
28.4919430561
 20
125.028405031
 30
0.0
 11
28.4919430561
 21
108.6719768349
 31
0.0
  0
SPLINE
  5
1C5
330
17D
100
AcDbEntity
  8
$DDT_AUDIT_GENERATED_(CD)
  6
Continuous
 62
     7
100
AcDbSpline
210
0.0
220
0.0
230
1.0
 70
     8
 71
     3
 72
    19
 73
    15
 74
     0
 42
0.0000000003486566
 43
0.0000000001
 40
0.0
 40
0.0
 40
0.0
 40
0.0
 40
0.0587199168181052
 40
0.1229629945800564
 40
0.1863994894888697
 40
0.2494198554249071
 40
0.3748696825396012
 40
0.499999999989842
 40
0.6251303174400821
 40
0.7505801445547737
 40
0.8136005104908084
 40
0.8770370053996163
 40
0.9412800831615571
 40
1.0
 40
1.0
 40
1.0
 40
1.0
 10
28.82729745303568
 20
108.2094020101052
 30
0.0
 10
29.40967447061497
 20
108.0050694380545
 30
0.0
 10
30.44120806663672
 20
107.6476275319816
 30
0.0
 10
32.21687263986649
 20
107.2476857698841
 30
0.0
 10
34.00466013534993
 20
106.9482895972148
 30
0.0
 10
36.39800850195481
 20
106.6583081422061
 30
0.0
 10
39.38655654969681
 20
106.4399776808381
 30
0.0
 10
42.97710157105527
 20
106.35
 30
0.0
 10
46.5676465924136
 20
106.4399776808373
 30
0.0
 10
49.55619464015593
 20
106.6583081422043
 30
0.0
 10
51.94954300676011
 20
106.9482895972129
 30
0.0
 10
53.73733050224561
 20
107.2476857698795
 30
0.0
 10
55.51299507566155
 20
107.6476275320258
 30
0.0
 10
56.54452867184887
 20
108.0050694381577
 30
0.0
 10
57.1269056896293
 20
108.2094020102808
 30
0.0
  0
LINE
  5
1C6
330
17D
100
AcDbEntity
  8
$DDT_AUDIT_GENERATED_(CD)
  6
Continuous
 62
     7
100
AcDbLine
 10
57.4622600861
 20
108.6719768349
 30
0.0
 11
57.4622600861
 21
125.028405031
 31
0.0
  0
ARC
  5
1C7
330
17D
100
AcDbEntity
  8
$DDT_AUDIT_GENERATED_(CD)
  6
Continuous
 62
     7
100
AcDbCircle
 10
28.791474692
 20
125.0284968462
 30
0.0
 40
0.2999082039739719
100
AcDbArc
 50
89.9795402917
 51
180.0175407689
  0
ARC
  5
1C8
330
17D
100
AcDbEntity
  8
$DDT_AUDIT_GENERATED_(CD)
  6
Continuous
 62
     7
100
AcDbCircle
 10
57.1627284501
 20
125.0284968462
 30
0.0
 40
0.2999082039750947
100
AcDbArc
 50
359.9824592311
 51
90.0204597081
  0
ARC
  5
1C9
330
17D
100
AcDbEntity
  8
$DDT_AUDIT_GENERATED_(CD)
  6
Continuous
 62
     7
100
AcDbCircle
 10
28.9817465148
 20
108.6595929545
 30
0.0
 40
0.4845393405811696
100
AcDbArc
 50
178.4847366901
 51
251.1529003594
  0
ARC
  5
1CA
330
17D
100
AcDbEntity
  8
$DDT_AUDIT_GENERATED_(CD)
  6
Continuous
 62
     7
100
AcDbCircle
 10
56.975047442
 20
108.6634123328
 30
0.0
 40
0.4849068633123809
100
AcDbArc
 50
288.5989603098
 51
0.8414009931
  0
LINE
  5
1CB
330
17D
100
AcDbEntity
  8
$DDT_AUDIT_GENERATED_(EE)
  6
Continuous
 62
     7
100
AcDbLine
 10
49.045489125
 20
125.31916984
 30
0.0
 11
48.9451833541
 21
125.31916984
 31
0.0
  0
SPLINE
  5
1CC
330
17D
100
AcDbEntity
  8
$DDT_AUDIT_GENERATED_(EE)
  6
Continuous
 62
     7
100
AcDbSpline
210
0.0
220
0.0
230
1.0
 70
     8
 71
     3
 72
    20
 73
    16
 74
     0
 42
0.0000001099875194
 43
0.0000000001
 40
0.0
 40
0.0
 40
0.0
 40
0.0
 40
0.2347117601991763
 40
0.2347117601991763
 40
0.2347117601991763
 40
0.4694081719513145
 40
0.4694081719513145
 40
0.4694081719513145
 40
0.7043463922527501
 40
0.7043463922527501
 40
0.7043463922527501
 40
0.9422537301177195
 40
0.9422537301177195
 40
0.9422537301177195
 40
1.0
 40
1.0
 40
1.0
 40
1.0
 10
49.04548912495109
 20
125.3191698399944
 30
0.0
 10
49.05629185218312
 20
125.319169839994
 30
0.0
 10
49.06689951791739
 20
125.318817101245
 30
0.0
 10
49.07643529036635
 20
125.3180834386694
 30
0.0
 10
49.0859707478032
 20
125.3173498003301
 30
0.0
 10
49.09469557628444
 20
125.3162094299803
 30
0.0
 10
49.10190539735355
 20
125.3146130616919
 30
0.0
 10
49.10912420144096
 20
125.3130147044213
 30
0.0
 10
49.11501875340474
 20
125.3109079655383
 30
0.0
 10
49.11917605652192
 20
125.3083051709902
 30
0.0
 10
49.12338760126794
 20
125.3056684169709
 30
0.0
 10
49.12593188392681
 20
125.3024490067877
 30
0.0
 10
49.12674534724643
 20
125.2987872539602
 30
0.0
 10
49.12694520571613
 20
125.2978876039098
 30
0.0
 10
49.12704420431464
 20
125.2969587495565
 30
0.0
 10
49.12704420431652
 20
125.296003879462
 30
0.0
  0
LINE
  5
1CD
330
17D
100
AcDbEntity
  8
$DDT_AUDIT_GENERATED_(EE)
  6
Continuous
 62
     7
100
AcDbLine
 10
36.9087316107
 20
125.3191698406
 30
0.0
 11
37.0090355917
 21
125.3191698406
 31
0.0
  0
SPLINE
  5
1CE
330
17D
100
AcDbEntity
  8
$DDT_AUDIT_GENERATED_(EE)
  6
Continuous
 62
     7
100
AcDbSpline
210
0.0
220
0.0
230
1.0
 70
     8
 71
     3
 72
    20
 73
    16
 74
     0
 42
0.0000001098193581
 43
0.0000000001
 40
0.0
 40
0.0
 40
0.0
 40
0.0
 40
0.2484125733453398
 40
0.2484125733453398
 40
0.2484125733453398
 40
0.4975158549522674
 40
0.4975158549522674
 40
0.4975158549522674
 40
0.7371258073714742
 40
0.7371258073714742
 40
0.7371258073714742
 40
0.9722525248757287
 40
0.9722525248757287
 40
0.9722525248757287
 40
1.0
 40
1.0
 40
1.0
 40
1.0
 10
36.82717653000816
 20
125.2960038801902
 30
0.0
 10
36.8271765300002
 20
125.3000611894002
 30
0.0
 10
36.82901579028444
 20
125.3036734657794
 30
0.0
 10
36.83270511744636
 20
125.3066482648071
 30
0.0
 10
36.83640076279391
 20
125.3096281583497
 30
0.0
 10
36.84206847175587
 20
125.3120559053941
 30
0.0
 10
36.84928864165358
 20
125.3138943281886
 30
0.0
 10
36.85623935794833
 20
125.3156641418433
 30
0.0
 10
36.86482273916926
 20
125.3169483566872
 30
0.0
 10
36.87432285272352
 20
125.3177961108827
 30
0.0
 10
36.88364986722624
 20
125.3186284183736
 30
0.0
 10
36.89411784526074
 20
125.3190698575849
 30
0.0
 10
36.90485812195738
 20
125.3191546244561
 30
0.0
 10
36.90614368488938
 20
125.3191647706703
 30
0.0
 10
36.90743537213078
 20
125.3191698406361
 30
0.0
 10
36.90873161074288
 20
125.319169840636
 30
0.0
  0
SPLINE
  5
1CF
330
17D
100
AcDbEntity
  8
$DDT_AUDIT_GENERATED_(EE)
  6
Continuous
 62
     7
100
AcDbSpline
210
0.0
220
0.0
230
1.0
 70
     8
 71
     3
 72
    23
 73
    19
 74
     0
 42
0.0000000747588557
 43
0.0000000001
 40
0.0
 40
0.0
 40
0.0
 40
0.0
 40
0.1829681818189426
 40
0.1829681818189426
 40
0.1829681818189426
 40
0.365924398846216
 40
0.365924398846216
 40
0.365924398846216
 40
0.5490691163012579
 40
0.5490691163012579
 40
0.5490691163012579
 40
0.7345283918609048
 40
0.7345283918609048
 40
0.7345283918609048
 40
0.927626582996449
 40
0.927626582996449
 40
0.927626582996449
 40
1.0
 40
1.0
 40
1.0
 40
1.0
 10
37.00903559165502
 20
125.3191698406286
 30
0.0
 10
37.01984455391769
 20
125.3191698406278
 30
0.0
 10
37.03114110109438
 20
125.3188171018907
 30
0.0
 10
37.04198694463945
 20
125.3180834393379
 30
0.0
 10
37.05283242989449
 20
125.3173498010215
 30
0.0
 10
37.06352464799294
 20
125.3162094307062
 30
0.0
 10
37.07317999102832
 20
125.3146130624603
 30
0.0
 10
37.08284736405945
 20
125.3130147052324
 30
0.0
 10
37.09173487483368
 20
125.3109079664011
 30
0.0
 10
37.09915717946654
 20
125.3083051719087
 30
0.0
 10
37.10667632521397
 20
125.3056684179478
 30
0.0
 10
37.11289081292412
 20
125.3024490078291
 30
0.0
 10
37.11742580895651
 20
125.2987872550667
 30
0.0
 10
37.12214872903795
 20
125.2949737642652
 30
0.0
 10
37.12517978939453
 20
125.2905852938683
 30
0.0
 10
37.12645405465485
 20
125.2859081442918
 30
0.0
 10
37.12693662096132
 20
125.2841369002139
 30
0.0
 10
37.12717563562994
 20
125.2823150615838
 30
0.0
 10
37.12717563563357
 20
125.2804610876135
 30
0.0
  0
SPLINE
  5
1D0
330
17D
100
AcDbEntity
  8
$DDT_AUDIT_GENERATED_(EE)
  6
Continuous
 62
     7
100
AcDbSpline
210
0.0
220
0.0
230
1.0
 70
     8
 71
     3
 72
    20
 73
    16
 74
     0
 42
0.0000000889906536
 43
0.0000000001
 40
0.0
 40
0.0
 40
0.0
 40
0.0
 40
0.2265448389310193
 40
0.2265448389310193
 40
0.2265448389310193
 40
0.4539669860444557
 40
0.4539669860444557
 40
0.4539669860444557
 40
0.6688393296964878
 40
0.6688393296964878
 40
0.6688393296964878
 40
0.8763107001238277
 40
0.8763107001238277
 40
0.8763107001238277
 40
1.0
 40
1.0
 40
1.0
 40
1.0
 10
42.82710991334925
 20
125.2886639610626
 30
0.0
 10
42.82710991333999
 20
125.29338972524
 30
0.0
 10
42.82902200082773
 20
125.2977551903083
 30
0.0
 10
42.8328746438229
 20
125.3014629145544
 30
0.0
 10
42.83673627599767
 20
125.3051792898484
 30
0.0
 10
42.84267799065739
 20
125.3083407236646
 30
0.0
 10
42.85027389333784
 20
125.3108174719185
 30
0.0
 10
42.8574584280614
 20
125.3131600880078
 30
0.0
 10
42.86632882931744
 20
125.3149685532378
 30
0.0
 10
42.87613087340598
 20
125.3162655897852
 30
0.0
 10
42.88560374361374
 20
125.3175190690347
 30
0.0
 10
42.89620946461247
 20
125.3183393130462
 30
0.0
 10
42.90705817784109
 20
125.3187768790833
 30
0.0
 10
42.91358647992118
 20
125.3190401880316
 30
0.0
 10
42.92028864156016
 20
125.3191698402579
 30
0.0
 10
42.92695747361385
 20
125.3191698402548
 30
0.0
  0
SPLINE
  5
1D1
330
17D
100
AcDbEntity
  8
$DDT_AUDIT_GENERATED_(EE)
  6
Continuous
 62
     7
100
AcDbSpline
210
0.0
220
0.0
230
1.0
 70
     8
 71
     3
 72
    20
 73
    16
 74
     0
 42
0.0000000891237645
 43
0.0000000001
 40
0.0
 40
0.0
 40
0.0
 40
0.0
 40
0.2058545549274415
 40
0.2058545549274415
 40
0.2058545549274415
 40
0.4116956484595922
 40
0.4116956484595922
 40
0.4116956484595922
 40
0.6177488208041507
 40
0.6177488208041507
 40
0.6177488208041507
 40
0.8264060653117626
 40
0.8264060653117626
 40
0.8264060653117626
 40
1.0
 40
1.0
 40
1.0
 40
1.0
 10
43.02726280022861
 20
125.3191698402495
 30
0.0
 10
43.03825410316978
 20
125.3191698402489
 30
0.0
 10
43.04939422686044
 20
125.3188171015044
 30
0.0
 10
43.05976003053525
 20
125.3180834389376
 30
0.0
 10
43.07012549177803
 20
125.3173498006071
 30
0.0
 10
43.080000780407
 20
125.3162094302705
 30
0.0
 10
43.08857826334327
 20
125.3146130619986
 30
0.0
 10
43.09716643332506
 20
125.3130147047444
 30
0.0
 10
43.10468452885751
 20
125.3109079658813
 30
0.0
 10
43.11057393491205
 20
125.3083051713545
 30
0.0
 10
43.11654018188039
 20
125.3056684173576
 30
0.0
 10
43.12099499157835
 20
125.302449007199
 30
0.0
 10
43.12371538432046
 20
125.2987872543963
 30
0.0
 10
43.12598923754794
 20
125.2957265608796
 30
0.0
 10
43.12711036054942
 20
125.2923045928344
 30
0.0
 10
43.12711036055652
 20
125.2886639610515
 30
0.0
  0
SPLINE
  5
1D2
330
17D
100
AcDbEntity
  8
$DDT_AUDIT_GENERATED_(EE)
  6
Continuous
 62
     7
100
AcDbSpline
210
0.0
220
0.0
230
1.0
 70
     8
 71
     3
 72
    20
 73
    16
 74
     0
 42
0.0000000746450805
 43
0.0000000001
 40
0.0
 40
0.0
 40
0.0
 40
0.0
 40
0.2106302385821611
 40
0.2106302385821611
 40
0.2106302385821611
 40
0.4222429006594757
 40
0.4222429006594757
 40
0.4222429006594757
 40
0.6190943260061987
 40
0.6190943260061987
 40
0.6190943260061987
 40
0.8053718784830382
 40
0.8053718784830382
 40
0.8053718784830382
 40
1.0
 40
1.0
 40
1.0
 40
1.0
 10
48.82704331428135
 20
125.2804610879733
 30
0.0
 10
48.82704331427087
 20
125.2858006839895
 30
0.0
 10
48.82907069758416
 20
125.2909094044945
 30
0.0
 10
48.83314684673405
 20
125.2953771776859
 30
0.0
 10
48.83723420022723
 20
125.2998572316999
 30
0.0
 10
48.84352941319868
 20
125.3038197862444
 30
0.0
 10
48.8515954484615
 20
125.3070136962952
 30
0.0
 10
48.85910784478627
 20
125.3099883817938
 30
0.0
 10
48.868380732953
 20
125.3123935860142
 30
0.0
 10
48.87860611684595
 20
125.3141975059888
 30
0.0
 10
48.88829535439896
 20
125.3159068412416
 30
0.0
 10
48.89911161868438
 20
125.3171361400824
 30
0.0
 10
48.91012826430756
 20
125.3179359453592
 30
0.0
 10
48.92162288235698
 20
125.3187704512955
 30
0.0
 10
48.93368484821618
 20
125.3191698399979
 30
0.0
 10
48.94518335412776
 20
125.3191698399976
 30
0.0
  0
ARC
  5
1D3
330
17D
100
AcDbEntity
  8
$DDT_AUDIT_GENERATED_(EE)
  6
Continuous
 62
     7
100
AcDbCircle
 10
55.3031975644
 20
124.9269157604
 30
0.0
 40
0.3943479385337752
100
AcDbArc
 50
95.9069272568
 51
110.6185691386
  0
ARC
  5
1D4
330
17D
100
AcDbEntity
  8
$DDT_AUDIT_GENERATED_(EE)
  6
Continuous
 62
     7
100
AcDbCircle
 10
55.9215279976
 20
124.8303840035
 30
0.0
 40
0.4978287405708212
100
AcDbArc
 50
100.9373105885
 51
112.9922680807
  0
LINE
  5
1D5
330
17D
100
AcDbEntity
  8
$DDT_AUDIT_GENERATED_(EE)
  6
Continuous
 62
     7
100
AcDbLine
 10
55.2812774588
 20
125.3191698621
 30
0.0
 11
55.2626141142
 21
125.319169862
 31
0.0
  0
SPLINE
  5
1D6
330
17D
100
AcDbEntity
  8
$DDT_AUDIT_GENERATED_(EE)
  6
Continuous
 62
     7
100
AcDbSpline
210
0.0
220
0.0
230
1.0
 70
     8
 71
     3
 72
     8
 73
     4
 74
     0
 42
0.000000536978447
 43
0.0000000001
 40
0.0
 40
0.0
 40
0.0
 40
0.0
 40
0.1009169758975338
 40
0.1009169758975338
 40
0.1009169758975338
 40
0.1009169758975338
 10
55.28127745877369
 20
125.3191698620618
 30
0.0
 10
55.28237716465012
 20
125.3191698620678
 30
0.0
 10
55.28292709123991
 20
125.3190625546256
 30
0.0
 10
55.2829266150846
 20
125.3188432105562
 30
0.0
  0
LINE
  5
1D7
330
17D
100
AcDbEntity
  8
$DDT_AUDIT_GENERATED_(EE)
  6
Continuous
 62
     7
100
AcDbLine
 10
30.6916059359
 20
125.3191699048
 30
0.0
 11
30.6729425914
 21
125.3191699049
 31
0.0
  0
ARC
  5
1D8
330
17D
100
AcDbEntity
  8
$DDT_AUDIT_GENERATED_(EE)
  6
Continuous
 62
     7
100
AcDbCircle
 10
30.6515798068
 20
124.929279664
 30
0.0
 40
0.3919393968623971
100
AcDbArc
 50
69.3359985807
 51
84.1385495776
  0
ARC
  5
1D9
330
17D
100
AcDbEntity
  8
$DDT_AUDIT_GENERATED_(EE)
  6
Continuous
 62
     7
100
AcDbCircle
 10
30.0327025916
 20
124.8304178238
 30
0.0
 40
0.4977935776798555
100
AcDbArc
 50
67.0073323441
 51
79.0631427906
  0
SPLINE
  5
1DA
330
17D
100
AcDbEntity
  8
$DDT_AUDIT_GENERATED_(EE)
  6
Continuous
 62
     7
100
AcDbSpline
210
0.0
220
0.0
230
1.0
 70
     8
 71
     3
 72
     8
 73
     4
 74
     0
 42
0.0000005371975774
 43
0.0000000001
 40
0.8992047794855553
 40
0.8992047794855553
 40
0.8992047794855553
 40
0.8992047794855553
 40
1.0
 40
1.0
 40
1.0
 40
1.0
 10
30.67129648438081
 20
125.3188435879906
 30
0.0
 10
30.67129584102248
 20
125.3190627868306
 30
0.0
 10
30.67184414311206
 20
125.3191699048849
 30
0.0
 10
30.67294259137245
 20
125.3191699048774
 30
0.0
  0
LINE
  5
1DB
330
17D
100
AcDbEntity
  8
$DDT_AUDIT_GENERATED_(EE)
  6
Continuous
 62
     7
100
AcDbLine
 10
30.154338005
 20
127.328404888
 30
0.0
 11
27.4937156981
 21
127.3284049434
 31
0.0
  0
LINE
  5
1DC
330
17D
100
AcDbEntity
  8
$DDT_AUDIT_GENERATED_(EE)
  6
Continuous
 62
     7
100
AcDbLine
 10
58.4605041772
 20
125.3284050308
 30
0.0
 11
55.7998820442
 21
125.328405031
 31
0.0
  0
LINE
  5
1DD
330
17D
100
AcDbEntity
  8
$DDT_AUDIT_GENERATED_(EE)
  6
Continuous
 62
     7
100
AcDbLine
 10
27.4937318735
 20
125.3284050307
 30
0.0
 11
30.154338006
 21
125.3284050305
 31
0.0
  0
LINE
  5
1DE
330
17D
100
AcDbEntity
  8
$DDT_AUDIT_GENERATED_(EE)
  6
Continuous
 62
     7
100
AcDbLine
 10
55.7998820442
 20
125.328405031
 30
0.0
 11
30.1543379721
 21
125.328405031
 31
0.0
  0
LINE
  5
1DF
330
17D
100
AcDbEntity
  8
$DDT_AUDIT_GENERATED_(EE)
  6
Continuous
 62
     7
100
AcDbLine
 10
55.7998820432
 20
127.3284050594
 30
0.0
 11
58.4605040991
 21
127.3284050041
 31
0.0
  0
LINE
  5
1E0
330
17D
100
AcDbEntity
  8
$DDT_AUDIT_GENERATED_(EE)
  6
Continuous
 62
     7
100
AcDbLine
 10
30.1543379711
 20
127.3284050091
 30
0.0
 11
55.7998820432
 21
127.3284050594
 31
0.0
  0
LINE
  5
1E1
330
17D
100
AcDbEntity
  8
$DDT_AUDIT_GENERATED_(EE)
  6
Continuous
 62
     7
100
AcDbLine
 10
58.9605042777
 20
125.8284050307
 30
0.0
 11
58.9605042777
 21
126.8344050593
 31
0.0
  0
LINE
  5
1E2
330
17D
100
AcDbEntity
  8
$DDT_AUDIT_GENERATED_(EE)
  6
Continuous
 62
     7
100
AcDbLine
 10
26.9937157724
 20
126.8344050087
 30
0.0
 11
26.9937157724
 21
125.8284050307
 31
0.0
  0
ARC
  5
1E3
330
17D
100
AcDbEntity
  8
$DDT_AUDIT_GENERATED_(EE)
  6
Continuous
 62
     7
100
AcDbCircle
 10
30.0314545316
 20
124.8284050307
 30
0.0
 40
0.5000000000000004
100
AcDbArc
 50
78.9694765189
 51
90.0000000001
  0
ARC
  5
1E4
330
17D
100
AcDbEntity
  8
$DDT_AUDIT_GENERATED_(EE)
  6
Continuous
 62
     7
100
AcDbCircle
 10
27.4937207298
 20
126.8284049428
 30
0.0
 40
0.499999919770224
100
AcDbArc
 50
89.9988637937
 51
180.2355496067
  0
ARC
  5
1E5
330
17D
100
AcDbEntity
  8
$DDT_AUDIT_GENERATED_(EE)
  6
Continuous
 62
     7
100
AcDbCircle
 10
27.4937207298
 20
125.82840503
 30
0.0
 40
0.4999999993136964
100
AcDbArc
 50
180.2461892439
 51
270.0011363182
  0
ARC
  5
1E6
330
17D
100
AcDbEntity
  8
$DDT_AUDIT_GENERATED_(EE)
  6
Continuous
 62
     7
100
AcDbCircle
 10
58.4604993204
 20
126.8284050049
 30
0.0
 40
0.4999999993123755
100
AcDbArc
 50
0.2461892543
 51
90.0011364306
  0
ARC
  5
1E7
330
17D
100
AcDbEntity
  8
$DDT_AUDIT_GENERATED_(EE)
  6
Continuous
 62
     7
100
AcDbCircle
 10
58.4604993204
 20
125.8284050314
 30
0.0
 40
0.4999999197715575
100
AcDbArc
 50
269.9988636816
 51
0.2355495925
  0
LINE
  5
1E8
330
17D
100
AcDbEntity
  8
$DDT_AUDIT_GENERATED_(179)
  6
Continuous
 62
     7
100
AcDbLine
 10
41.3271100212
 20
191.7286065249
 30
0.0
 11
41.3271100212
 21
191.7284049118
 31
0.0
  0
LINE
  5
1E9
330
17D
100
AcDbEntity
  8
$DDT_AUDIT_GENERATED_(179)
  6
Continuous
 62
     7
100
AcDbLine
 10
44.6271100212
 20
191.7284049118
 30
0.0
 11
44.6271100212
 21
191.7286065249
 31
0.0
  0
ENDBLK
  5
1EB
330
17D
100
AcDbEntity
  8
0
100
AcDbBlockEnd
  0
ENDSEC
  0
SECTION
  2
ENTITIES
  0
INSERT
  5
5F
330
1F
100
AcDbEntity
  8
Default
100
AcDbBlockReference
  2
SEANNOT_GROUP
 10
0.0
 20
0.0
 30
0.0
  0
INSERT
  5
6A
330
1F
100
AcDbEntity
  8
Default
100
AcDbBlockReference
  2
SEANNOT_GROUP1
 10
0.0
 20
0.0
 30
0.0
  0
LINE
  5
73
330
1F
100
AcDbEntity
  8
Default
  6
Continuous
 62
     7
100
AcDbLine
 10
39.0813701594
 20
348.4080543258
 30
0.0
 11
46.8728498233
 21
348.4078949422
 31
0.0
  0
INSERT
  5
75
330
1F
100
AcDbEntity
  8
Default
100
AcDbBlockReference
  2
SEANNOT_GROUP2
 10
0.0
 20
0.0
 30
0.0
  0
INSERT
  5
7B
330
1F
100
AcDbEntity
  8
Default
100
AcDbBlockReference
  2
SE
 10
0.0
 20
0.0
 30
0.0
  0
INSERT
  5
FC
330
1F
100
AcDbEntity
  8
Default
100
AcDbBlockReference
  2
SE1
 10
0.0
 20
0.0
 30
0.0
  0
INSERT
  5
17E
330
1F
100
AcDbEntity
  8
Default
100
AcDbBlockReference
  2
SE2
 10
0.0
 20
0.0
 30
0.0
  0
TEXT
  5
1ED
330
1F
100
AcDbEntity
  8
Default
  6
Continuous
 62
     7
100
AcDbText
 10
5.9362635081
 20
53.4225120485
 30
0.0
 40
10.0
  1
Grohe AG^J
  7
SEACAD_seiso_ttf
 11
5.9362635081
 21
63.4225120485
 31
0.0
100
AcDbText
 73
     3
  0
TEXT
  5
1EE
330
1F
100
AcDbEntity
  8
Default
  6
Continuous
 62
     7
100
AcDbText
 10
5.9362635081
 20
37.0588756849
 30
0.0
 40
10.0
  1
 
  7
SEACAD_seiso_ttf
 11
5.9362635081
 21
47.0588756849
 31
0.0
100
AcDbText
 73
     3
  0
TEXT
  5
1EF
330
1F
100
AcDbEntity
  8
Default
  6
Continuous
 62
     7
100
AcDbText
 10
5.9362635081
 20
20.6952393213
 30
0.0
 40
10.0
  1
ecn:
  7
SEACAD_seiso_ttf
 11
5.9362635081
 21
30.6952393213
 31
0.0
100
AcDbText
 73
     3
  0
TEXT
  5
1F0
330
1F
100
AcDbEntity
  8
Default
  6
Continuous
 62
     7
100
AcDbText
 10
5.9362635081
 20
4.3316029576
 30
0.0
 40
10.0
  1
unit: mm
  7
SEACAD_seiso_ttf
 11
5.9362635081
 21
14.3316029576
 31
0.0
100
AcDbText
 73
     3
  0
LINE
  5
1F1
330
1F
100
AcDbEntity
  8
Default
  6
Continuous
 62
     7
100
AcDbLine
 10
0.0
 20
0.0
 30
0.0
 11
100.0
 21
0.0
 31
0.0
  0
LINE
  5
1F2
330
1F
100
AcDbEntity
  8
Default
  6
Continuous
 62
     7
100
AcDbLine
 10
0.0
 20
0.0
 30
0.0
 11
0.0
 21
100.0
 31
0.0
  0
TEXT
  5
1F3
330
1F
100
AcDbEntity
  8
Default
  6
Continuous
 62
     7
100
AcDbText
 10
24.3923665681
 20
-18.2375342018
 30
0.0
 40
10.0
  1
100 mm
  7
SEACAD_seiso_ttf
 11
24.3923665681
 21
-8.2375342018
 31
0.0
100
AcDbText
 73
     3
  0
TEXT
  5
1F4
330
1F
100
AcDbEntity
  8
Default
  6
Continuous
 62
     7
100
AcDbText
 10
-7.6150308803
 20
24.6231930421
 30
0.0
 40
10.0
  1
100 mm
 50
90.0
  7
SEACAD_seiso_ttf
 11
-17.6150308803
 21
24.6231930421
 31
0.0
100
AcDbText
 73
     3
  0
TEXT
  5
1F5
330
1F
100
AcDbEntity
  8
Default
  6
Continuous
 62
     7
100
AcDbText
 10
28.4878128572
 20
20.0907663715
 30
0.0
 40
10.0
  1
226396
  7
SEACAD_seiso_ttf
 11
28.4878128572
 21
30.0907663715
 31
0.0
100
AcDbText
 73
     3
  0
TEXT
  5
1F6
330
1F
100
AcDbEntity
  8
Default
  6
Continuous
 62
     7
100
AcDbText
 10
5.9012241913
 20
36.7242780188
 30
0.0
 40
10.0
  1
19944000
  7
SEACAD_seiso_ttf
 11
5.9012241913
 21
46.7242780188
 31
0.0
100
AcDbText
 73
     3
  0
ENDSEC
  0
SECTION
  2
OBJECTS
  0
DICTIONARY
  5
C
330
0
100
AcDbDictionary
281
     1
  3
ACAD_GROUP
350
D
  3
ACAD_LAYOUT
350
1A
  3
ACAD_MLEADERSTYLE
350
1FA
  3
ACAD_MLINESTYLE
350
17
  3
ACAD_PLOTSETTINGS
350
19
  3
ACAD_PLOTSTYLENAME
350
E
  3
ACAD_SCALELIST
350
3B
  3
ACAD_TABLESTYLE
350
1F9
  3
ACAD_VISUALSTYLE
350
2A
  3
AcDbVariableDictionary
350
1F7
  0
DICTIONARY
  5
D
102
{ACAD_REACTORS
330
C
102
}
330
C
100
AcDbDictionary
281
     1
  0
DICTIONARY
  5
1A
102
{ACAD_REACTORS
330
C
102
}
330
C
100
AcDbDictionary
281
     1
  3
Layout1
350
1E
  3
Model
350
22
  0
DICTIONARY
  5
1FA
102
{ACAD_REACTORS
330
C
102
}
330
C
100
AcDbDictionary
281
     1
  0
DICTIONARY
  5
17
102
{ACAD_REACTORS
330
C
102
}
330
C
100
AcDbDictionary
281
     1
  3
Standard
350
18
  0
DICTIONARY
  5
19
102
{ACAD_REACTORS
330
C
102
}
330
C
100
AcDbDictionary
281
     1
  0
ACDBDICTIONARYWDFLT
  5
E
102
{ACAD_REACTORS
330
C
102
}
330
C
100
AcDbDictionary
281
     1
  3
Normal
350
F
100
AcDbDictionaryWithDefault
340
F
  0
DICTIONARY
  5
3B
102
{ACAD_REACTORS
330
C
102
}
330
C
100
AcDbDictionary
281
     1
  3
A0
350
3C
  3
A1
350
3D
  3
A2
350
3E
  3
A3
350
3F
  3
A4
350
40
  3
A5
350
41
  3
A6
350
42
  3
A7
350
43
  3
A8
350
44
  3
A9
350
45
  3
B0
350
46
  3
B1
350
47
  3
B2
350
48
  3
B3
350
49
  3
B4
350
4A
  3
B5
350
4B
  3
B6
350
4C
  3
B7
350
4D
  3
B8
350
4E
  3
B9
350
4F
  3
C0
350
50
  3
C1
350
51
  3
C2
350
52
  3
C3
350
53
  3
C4
350
54
  3
C5
350
55
  3
C6
350
56
  3
C7
350
57
  3
C8
350
58
  3
C9
350
59
  3
D0
350
5A
  3
D1
350
5B
  3
D2
350
5C
  0
DICTIONARY
  5
1F9
102
{ACAD_REACTORS
330
C
102
}
330
C
100
AcDbDictionary
281
     1
  0
DICTIONARY
  5
2A
102
{ACAD_REACTORS
330
C
102
}
330
C
100
AcDbDictionary
281
     1
  3
2dWireframe
350
2F
  3
3D Hidden
350
31
  3
3dWireframe
350
30
  3
Basic
350
32
  3
Brighten
350
36
  3
ColorChange
350
3A
  3
Conceptual
350
34
  3
Dim
350
35
  3
Facepattern
350
39
  3
Flat
350
2B
  3
FlatWithEdges
350
2C
  3
Gouraud
350
2D
  3
GouraudWithEdges
350
2E
  3
Linepattern
350
38
  3
Realistic
350
33
  3
Thicken
350
37
  0
DICTIONARY
  5
1F7
102
{ACAD_REACTORS
330
C
102
}
330
C
100
AcDbDictionary
281
     1
  3
CANNOSCALE
350
1F8
  3
PSOLHEIGHT
350
1FC
  3
PSOLWIDTH
350
1FB
  0
LAYOUT
  5
1E
102
{ACAD_REACTORS
330
1A
102
}
330
1A
100
AcDbPlotSettings
  1

  2
none_device
  4

  6

 40
0.0
 41
0.0
 42
0.0
 43
0.0
 44
0.0
 45
0.0
 46
0.0
 47
0.0
 48
0.0
 49
0.0
140
0.0
141
0.0
142
1.0
143
1.0
 70
   688
 72
     0
 73
     0
 74
     5
  7

 75
    16
147
1.0
148
0.0
149
0.0
100
AcDbLayout
  1
Layout1
 70
     1
 71
     1
 10
0.0
 20
0.0
 11
3000.0
 21
4500.0
 12
0.0
 22
0.0
 32
0.0
 14
0.0
 24
0.0
 34
0.0
 15
3000.0
 25
4500.0
 35
0.0
146
0.0
 13
0.0
 23
0.0
 33
0.0
 16
1.0
 26
0.0
 36
0.0
 17
0.0
 27
1.0
 37
0.0
 76
     0
330
1B
  0
LAYOUT
  5
22
102
{ACAD_REACTORS
330
1A
102
}
330
1A
100
AcDbPlotSettings
  1

  2
none_device
  4

  6

 40
0.0
 41
0.0
 42
0.0
 43
0.0
 44
0.0
 45
0.0
 46
0.0
 47
0.0
 48
0.0
 49
0.0
140
0.0
141
0.0
142
1.0
143
1.0
 70
  1712
 72
     0
 73
     0
 74
     0
  7

 75
     0
147
1.0
148
0.0
149
0.0
100
AcDbLayout
  1
Model
 70
     1
 71
     0
 10
0.0
 20
0.0
 11
3000.0
 21
4500.0
 12
0.0
 22
0.0
 32
0.0
 14
0.0
 24
0.0
 34
0.0
 15
3000.0
 25
4500.0
 35
0.0
146
0.0
 13
0.0
 23
0.0
 33
0.0
 16
1.0
 26
0.0
 36
0.0
 17
0.0
 27
1.0
 37
0.0
 76
     0
330
1F
331
29
  0
MLINESTYLE
  5
18
102
{ACAD_REACTORS
330
17
102
}
330
17
100
AcDbMlineStyle
  2
Standard
 70
     0
  3

 62
   256
 51
90.0
 52
90.0
 71
     2
 49
0.5
 62
   256
  6
BYLAYER
 49
-0.5
 62
   256
  6
BYLAYER
  0
ACDBPLACEHOLDER
  5
F
102
{ACAD_REACTORS
330
E
102
}
330
E
  0
SCALE
  5
3C
102
{ACAD_REACTORS
330
3B
102
}
330
3B
100
AcDbScale
 70
     0
300
1:1
140
1.0
141
1.0
290
     1
  0
SCALE
  5
3D
102
{ACAD_REACTORS
330
3B
102
}
330
3B
100
AcDbScale
 70
     0
300
1:2
140
1.0
141
2.0
290
     0
  0
SCALE
  5
3E
102
{ACAD_REACTORS
330
3B
102
}
330
3B
100
AcDbScale
 70
     0
300
1:4
140
1.0
141
4.0
290
     0
  0
SCALE
  5
3F
102
{ACAD_REACTORS
330
3B
102
}
330
3B
100
AcDbScale
 70
     0
300
1:5
140
1.0
141
5.0
290
     0
  0
SCALE
  5
40
102
{ACAD_REACTORS
330
3B
102
}
330
3B
100
AcDbScale
 70
     0
300
1:8
140
1.0
141
8.0
290
     0
  0
SCALE
  5
41
102
{ACAD_REACTORS
330
3B
102
}
330
3B
100
AcDbScale
 70
     0
300
1:10
140
1.0
141
10.0
290
     0
  0
SCALE
  5
42
102
{ACAD_REACTORS
330
3B
102
}
330
3B
100
AcDbScale
 70
     0
300
1:16
140
1.0
141
16.0
290
     0
  0
SCALE
  5
43
102
{ACAD_REACTORS
330
3B
102
}
330
3B
100
AcDbScale
 70
     0
300
1:20
140
1.0
141
20.0
290
     0
  0
SCALE
  5
44
102
{ACAD_REACTORS
330
3B
102
}
330
3B
100
AcDbScale
 70
     0
300
1:30
140
1.0
141
30.0
290
     0
  0
SCALE
  5
45
102
{ACAD_REACTORS
330
3B
102
}
330
3B
100
AcDbScale
 70
     0
300
1:40
140
1.0
141
40.0
290
     0
  0
SCALE
  5
46
102
{ACAD_REACTORS
330
3B
102
}
330
3B
100
AcDbScale
 70
     0
300
1:50
140
1.0
141
50.0
290
     0
  0
SCALE
  5
47
102
{ACAD_REACTORS
330
3B
102
}
330
3B
100
AcDbScale
 70
     0
300
1:100
140
1.0
141
100.0
290
     0
  0
SCALE
  5
48
102
{ACAD_REACTORS
330
3B
102
}
330
3B
100
AcDbScale
 70
     0
300
2:1
140
2.0
141
1.0
290
     0
  0
SCALE
  5
49
102
{ACAD_REACTORS
330
3B
102
}
330
3B
100
AcDbScale
 70
     0
300
4:1
140
4.0
141
1.0
290
     0
  0
SCALE
  5
4A
102
{ACAD_REACTORS
330
3B
102
}
330
3B
100
AcDbScale
 70
     0
300
8:1
140
8.0
141
1.0
290
     0
  0
SCALE
  5
4B
102
{ACAD_REACTORS
330
3B
102
}
330
3B
100
AcDbScale
 70
     0
300
10:1
140
10.0
141
1.0
290
     0
  0
SCALE
  5
4C
102
{ACAD_REACTORS
330
3B
102
}
330
3B
100
AcDbScale
 70
     0
300
100:1
140
100.0
141
1.0
290
     0
  0
SCALE
  5
4D
102
{ACAD_REACTORS
330
3B
102
}
330
3B
100
AcDbScale
 70
     0
300
1/128" = 1'-0"
140
0.0078125
141
12.0
290
     0
  0
SCALE
  5
4E
102
{ACAD_REACTORS
330
3B
102
}
330
3B
100
AcDbScale
 70
     0
300
1/64" = 1'-0"
140
0.015625
141
12.0
290
     0
  0
SCALE
  5
4F
102
{ACAD_REACTORS
330
3B
102
}
330
3B
100
AcDbScale
 70
     0
300
1/32" = 1'-0"
140
0.03125
141
12.0
290
     0
  0
SCALE
  5
50
102
{ACAD_REACTORS
330
3B
102
}
330
3B
100
AcDbScale
 70
     0
300
1/16" = 1'-0"
140
0.0625
141
12.0
290
     0
  0
SCALE
  5
51
102
{ACAD_REACTORS
330
3B
102
}
330
3B
100
AcDbScale
 70
     0
300
3/32" = 1'-0"
140
0.09375
141
12.0
290
     0
  0
SCALE
  5
52
102
{ACAD_REACTORS
330
3B
102
}
330
3B
100
AcDbScale
 70
     0
300
1/8" = 1'-0"
140
0.125
141
12.0
290
     0
  0
SCALE
  5
53
102
{ACAD_REACTORS
330
3B
102
}
330
3B
100
AcDbScale
 70
     0
300
3/16" = 1'-0"
140
0.1875
141
12.0
290
     0
  0
SCALE
  5
54
102
{ACAD_REACTORS
330
3B
102
}
330
3B
100
AcDbScale
 70
     0
300
1/4" = 1'-0"
140
0.25
141
12.0
290
     0
  0
SCALE
  5
55
102
{ACAD_REACTORS
330
3B
102
}
330
3B
100
AcDbScale
 70
     0
300
3/8" = 1'-0"
140
0.375
141
12.0
290
     0
  0
SCALE
  5
56
102
{ACAD_REACTORS
330
3B
102
}
330
3B
100
AcDbScale
 70
     0
300
1/2" = 1'-0"
140
0.5
141
12.0
290
     0
  0
SCALE
  5
57
102
{ACAD_REACTORS
330
3B
102
}
330
3B
100
AcDbScale
 70
     0
300
3/4" = 1'-0"
140
0.75
141
12.0
290
     0
  0
SCALE
  5
58
102
{ACAD_REACTORS
330
3B
102
}
330
3B
100
AcDbScale
 70
     0
300
1" = 1'-0"
140
1.0
141
12.0
290
     0
  0
SCALE
  5
59
102
{ACAD_REACTORS
330
3B
102
}
330
3B
100
AcDbScale
 70
     0
300
1-1/2" = 1'-0"
140
1.5
141
12.0
290
     0
  0
SCALE
  5
5A
102
{ACAD_REACTORS
330
3B
102
}
330
3B
100
AcDbScale
 70
     0
300
3" = 1'-0"
140
3.0
141
12.0
290
     0
  0
SCALE
  5
5B
102
{ACAD_REACTORS
330
3B
102
}
330
3B
100
AcDbScale
 70
     0
300
6" = 1'-0"
140
6.0
141
12.0
290
     0
  0
SCALE
  5
5C
102
{ACAD_REACTORS
330
3B
102
}
330
3B
100
AcDbScale
 70
     0
300
1'-0" = 1'-0"
140
12.0
141
12.0
290
     0
  0
VISUALSTYLE
  5
2F
102
{ACAD_REACTORS
330
2A
102
}
330
2A
100
AcDbVisualStyle
  2
2dWireframe
 70
     4
 71
     0
 72
     2
 73
     0
 90
        0
 40
-0.6
 41
-30.0
 62
     5
 63
     7
 74
     1
 91
        4
 64
     7
 65
   257
 75
     1
175
     1
 42
1.0
 92
        0
 66
   257
 43
1.0
 76
     1
 77
     6
 78
     2
 67
     7
 79
     5
170
     0
171
     0
290
     0
174
     0
 93
        1
 44
0.0
173
     0
291
     0
 45
0.0
1001
ACAD
1000
AcDbSavedByObjectVersion
1070
     0
  0
VISUALSTYLE
  5
31
102
{ACAD_REACTORS
330
2A
102
}
330
2A
100
AcDbVisualStyle
  2
3D Hidden
 70
     6
 71
     1
 72
     2
 73
     2
 90
        0
 40
-0.6
 41
-30.0
 62
     5
 63
     7
 74
     2
 91
        2
 64
     7
 65
   257
 75
     2
175
     1
 42
40.0
 92
        0
 66
   257
 43
1.0
 76
     1
 77
     6
 78
     2
 67
     7
 79
     3
170
     0
171
     0
290
     0
174
     0
 93
        1
 44
0.0
173
     0
291
     0
 45
0.0
1001
ACAD
1000
AcDbSavedByObjectVersion
1070
     0
  0
VISUALSTYLE
  5
30
102
{ACAD_REACTORS
330
2A
102
}
330
2A
100
AcDbVisualStyle
  2
3dWireframe
 70
     5
 71
     0
 72
     2
 73
     0
 90
        0
 40
-0.6
 41
-30.0
 62
     5
 63
     7
 74
     1
 91
        4
 64
     7
 65
   257
 75
     1
175
     1
 42
1.0
 92
        0
 66
   257
 43
1.0
 76
     1
 77
     6
 78
     2
 67
     7
 79
     5
170
     0
171
     0
290
     0
174
     0
 93
        1
 44
0.0
173
     0
291
     0
 45
0.0
1001
ACAD
1000
AcDbSavedByObjectVersion
1070
     0
  0
VISUALSTYLE
  5
32
102
{ACAD_REACTORS
330
2A
102
}
330
2A
100
AcDbVisualStyle
  2
Basic
 70
     7
 71
     1
 72
     0
 73
     1
 90
        0
 40
-0.6
 41
-30.0
 62
     5
 63
     7
 74
     0
 91
        4
 64
     7
 65
   257
 75
     1
175
     1
 42
1.0
 92
        8
 66
     7
 43
1.0
 76
     1
 77
     6
 78
     2
 67
     7
 79
     5
170
     0
171
     0
290
     0
174
     0
 93
        1
 44
0.0
173
     0
291
     1
 45
0.0
1001
ACAD
1000
AcDbSavedByObjectVersion
1070
     0
  0
VISUALSTYLE
  5
36
102
{ACAD_REACTORS
330
2A
102
}
330
2A
100
AcDbVisualStyle
  2
Brighten
 70
    12
 71
     2
 72
     2
 73
     0
 90
        0
 40
-0.6
 41
-30.0
 62
     5
 63
     7
 74
     1
 91
        4
 64
     7
 65
   257
 75
     1
175
     1
 42
1.0
 92
        8
 66
     7
 43
1.0
 76
     1
 77
     6
 78
     2
 67
     7
 79
     5
170
     0
171
     0
290
     0
174
     0
 93
        1
 44
50.0
173
     0
291
     1
 45
0.0
1001
ACAD
1000
AcDbSavedByObjectVersion
1070
     0
  0
VISUALSTYLE
  5
3A
102
{ACAD_REACTORS
330
2A
102
}
330
2A
100
AcDbVisualStyle
  2
ColorChange
 70
    16
 71
     2
 72
     2
 73
     3
 90
        0
 40
-0.6
 41
-30.0
 62
     5
 63
     8
 74
     1
 91
        4
 64
     7
 65
   257
 75
     1
175
     1
 42
1.0
 92
        8
 66
     8
 43
1.0
 76
     1
 77
     6
 78
     2
 67
     7
 79
     5
170
     0
171
     0
290
     0
174
     0
 93
        1
 44
0.0
173
     0
291
     1
 45
0.0
1001
ACAD
1000
AcDbSavedByObjectVersion
1070
     0
  0
VISUALSTYLE
  5
34
102
{ACAD_REACTORS
330
2A
102
}
330
2A
100
AcDbVisualStyle
  2
Conceptual
 70
     9
 71
     3
 72
     2
 73
     0
 90
        0
 40
-0.6
 41
-30.0
 62
     5
 63
     7
 74
     2
 91
        2
 64
     7
 65
   257
 75
     1
175
     1
 42
40.0
 92
        8
 66
     7
 43
1.0
 76
     1
 77
     6
 78
     2
 67
     7
 79
     3
170
     0
171
     0
290
     0
174
     0
 93
        1
 44
0.0
173
     0
291
     0
 45
0.0
1001
ACAD
1000
AcDbSavedByObjectVersion
1070
     0
  0
VISUALSTYLE
  5
35
102
{ACAD_REACTORS
330
2A
102
}
330
2A
100
AcDbVisualStyle
  2
Dim
 70
    11
 71
     2
 72
     2
 73
     0
 90
        0
 40
-0.6
 41
-30.0
 62
     5
 63
     7
 74
     1
 91
        4
 64
     7
 65
   257
 75
     1
175
     1
 42
1.0
 92
        8
 66
     7
 43
1.0
 76
     1
 77
     6
 78
     2
 67
     7
 79
     5
170
     0
171
     0
290
     0
174
     0
 93
        1
 44
-50.0
173
     0
291
     1
 45
0.0
1001
ACAD
1000
AcDbSavedByObjectVersion
1070
     0
  0
VISUALSTYLE
  5
39
102
{ACAD_REACTORS
330
2A
102
}
330
2A
100
AcDbVisualStyle
  2
Facepattern
 70
    15
 71
     2
 72
     2
 73
     0
 90
        0
 40
-0.6
 41
-30.0
 62
     5
 63
     7
 74
     1
 91
        4
 64
     7
 65
   257
 75
     1
175
     1
 42
1.0
 92
        8
 66
     7
 43
1.0
 76
     1
 77
     6
 78
     2
 67
     7
 79
     5
170
     0
171
     0
290
     0
174
     0
 93
        1
 44
0.0
173
     0
291
     1
 45
0.0
1001
ACAD
1000
AcDbSavedByObjectVersion
1070
     0
  0
VISUALSTYLE
  5
2B
102
{ACAD_REACTORS
330
2A
102
}
330
2A
100
AcDbVisualStyle
  2
Flat
 70
     0
 71
     2
 72
     1
 73
     1
 90
        2
 40
-0.6
 41
30.0
 62
     5
 63
     7
 74
     0
 91
        4
 64
     7
 65
   257
 75
     1
175
     1
 42
1.0
 92
        8
 66
     7
 43
1.0
 76
     1
 77
     6
 78
     2
 67
     7
 79
     5
170
     0
171
     0
290
     0
174
     0
 93
       13
 44
0.0
173
     0
291
     1
 45
0.0
1001
ACAD
1000
AcDbSavedByObjectVersion
1070
     0
  0
VISUALSTYLE
  5
2C
102
{ACAD_REACTORS
330
2A
102
}
330
2A
100
AcDbVisualStyle
  2
FlatWithEdges
 70
     1
 71
     2
 72
     1
 73
     1
 90
        2
 40
-0.6
 41
30.0
 62
     5
 63
     7
 74
     1
 91
        4
 64
     7
 65
   257
 75
     1
175
     1
 42
1.0
 92
        0
 66
   257
 43
1.0
 76
     1
 77
     6
 78
     2
 67
     7
 79
     5
170
     0
171
     0
290
     0
174
     0
 93
       13
 44
0.0
173
     0
291
     1
 45
0.0
1001
ACAD
1000
AcDbSavedByObjectVersion
1070
     0
  0
VISUALSTYLE
  5
2D
102
{ACAD_REACTORS
330
2A
102
}
330
2A
100
AcDbVisualStyle
  2
Gouraud
 70
     2
 71
     2
 72
     2
 73
     1
 90
        2
 40
-0.6
 41
30.0
 62
     5
 63
     7
 74
     0
 91
        4
 64
     7
 65
   257
 75
     1
175
     1
 42
1.0
 92
        0
 66
     7
 43
1.0
 76
     1
 77
     6
 78
     2
 67
     7
 79
     5
170
     0
171
     0
290
     0
174
     0
 93
       13
 44
0.0
173
     0
291
     1
 45
0.0
1001
ACAD
1000
AcDbSavedByObjectVersion
1070
     0
  0
VISUALSTYLE
  5
2E
102
{ACAD_REACTORS
330
2A
102
}
330
2A
100
AcDbVisualStyle
  2
GouraudWithEdges
 70
     3
 71
     2
 72
     2
 73
     1
 90
        2
 40
-0.6
 41
30.0
 62
     5
 63
     7
 74
     1
 91
        4
 64
     7
 65
   257
 75
     1
175
     1
 42
1.0
 92
        0
 66
   257
 43
1.0
 76
     1
 77
     6
 78
     2
 67
     7
 79
     5
170
     0
171
     0
290
     0
174
     0
 93
       13
 44
0.0
173
     0
291
     1
 45
0.0
1001
ACAD
1000
AcDbSavedByObjectVersion
1070
     0
  0
VISUALSTYLE
  5
38
102
{ACAD_REACTORS
330
2A
102
}
330
2A
100
AcDbVisualStyle
  2
Linepattern
 70
    14
 71
     2
 72
     2
 73
     0
 90
        0
 40
-0.6
 41
-30.0
 62
     5
 63
     7
 74
     1
 91
        4
 64
     7
 65
   257
 75
     7
175
     7
 42
1.0
 92
        8
 66
     7
 43
1.0
 76
     1
 77
     6
 78
     2
 67
     7
 79
     5
170
     0
171
     0
290
     0
174
     0
 93
        1
 44
0.0
173
     0
291
     1
 45
0.0
1001
ACAD
1000
AcDbSavedByObjectVersion
1070
     0
  0
VISUALSTYLE
  5
33
102
{ACAD_REACTORS
330
2A
102
}
330
2A
100
AcDbVisualStyle
  2
Realistic
 70
     8
 71
     2
 72
     2
 73
     0
 90
        0
 40
-0.6
 41
-30.0
 62
     5
 63
     7
 74
     1
 91
        0
 64
     7
 65
   257
 75
     1
175
     1
 42
1.0
 92
        8
 66
     8
 43
1.0
 76
     1
 77
     6
 78
     2
 67
     7
 79
     5
170
     0
171
     0
290
     0
174
     0
 93
       13
 44
0.0
173
     0
291
     0
 45
0.0
1001
ACAD
1000
AcDbSavedByObjectVersion
1070
     0
  0
VISUALSTYLE
  5
37
102
{ACAD_REACTORS
330
2A
102
}
330
2A
100
AcDbVisualStyle
  2
Thicken
 70
    13
 71
     2
 72
     2
 73
     0
 90
        0
 40
-0.6
 41
-30.0
 62
     5
 63
     7
 74
     1
 91
        4
 64
     7
 65
   257
 75
     1
175
     1
 42
1.0
 92
       12
 66
     7
 43
1.0
 76
     1
 77
     6
 78
     2
 67
     7
 79
     5
170
     0
171
     0
290
     0
174
     0
 93
        1
 44
0.0
173
     0
291
     1
 45
0.0
1001
ACAD
1000
AcDbSavedByObjectVersion
1070
     0
  0
DICTIONARYVAR
  5
1F8
102
{ACAD_REACTORS
330
1F7
102
}
330
1F7
100
DictionaryVariables
280
     0
  1
1:1
  0
DICTIONARYVAR
  5
1FC
102
{ACAD_REACTORS
330
1F7
102
}
330
1F7
100
DictionaryVariables
280
     0
  1
80.000000
  0
DICTIONARYVAR
  5
1FB
102
{ACAD_REACTORS
330
1F7
102
}
330
1F7
100
DictionaryVariables
280
     0
  1
5.000000
  0
ENDSEC
  0
EOF
