  0
SECTION
  2
HEADER
  9
$ACADVER
  1
AC1015
  9
$ACADMAINTVER
 70
     6
  9
$DWGCODEPAGE
  3
ANSI_1252
  9
$INSBASE
 10
0.0
 20
0.0
 30
0.0
  9
$EXTMIN
 10
0.0
 20
0.0
 30
0.0
  9
$EXTMAX
 10
3000.0
 20
4500.0
 30
0.0
  9
$LIMMIN
 10
0.0
 20
0.0
  9
$LIMMAX
 10
3000.0
 20
4500.0
  9
$ORTHOMODE
 70
     0
  9
$REGENMODE
 70
     1
  9
$FILLMODE
 70
     1
  9
$QTEXTMODE
 70
     0
  9
$MIRRTEXT
 70
     1
  9
$LTSCALE
 40
1.0
  9
$ATTMODE
 70
     1
  9
$TEXTSIZE
 40
2.5
  9
$TRACEWID
 40
1.0
  9
$TEXTSTYLE
  7
Standard
  9
$CLAYER
  8
0
  9
$CELTYPE
  6
ByLayer
  9
$CECOLOR
 62
   256
  9
$CELTSCALE
 40
1.0
  9
$DISPSILH
 70
     0
  9
$DIMSCALE
 40
1.0
  9
$DIMASZ
 40
2.5
  9
$DIMEXO
 40
0.625
  9
$DIMDLI
 40
3.75
  9
$DIMRND
 40
0.0
  9
$DIMDLE
 40
0.0
  9
$DIMEXE
 40
1.25
  9
$DIMTP
 40
0.0
  9
$DIMTM
 40
0.0
  9
$DIMTXT
 40
2.5
  9
$DIMCEN
 40
2.5
  9
$DIMTSZ
 40
0.0
  9
$DIMTOL
 70
     0
  9
$DIMLIM
 70
     0
  9
$DIMTIH
 70
     0
  9
$DIMTOH
 70
     0
  9
$DIMSE1
 70
     0
  9
$DIMSE2
 70
     0
  9
$DIMTAD
 70
     1
  9
$DIMZIN
 70
     8
  9
$DIMBLK
  1

  9
$DIMASO
 70
     1
  9
$DIMSHO
 70
     1
  9
$DIMPOST
  1

  9
$DIMAPOST
  1

  9
$DIMALT
 70
     0
  9
$DIMALTD
 70
     3
  9
$DIMALTF
 40
0.0393700787
  9
$DIMLFAC
 40
1.0
  9
$DIMTOFL
 70
     1
  9
$DIMTVP
 40
0.0
  9
$DIMTIX
 70
     0
  9
$DIMSOXD
 70
     0
  9
$DIMSAH
 70
     0
  9
$DIMBLK1
  1

  9
$DIMBLK2
  1

  9
$DIMSTYLE
  2
ISO-25
  9
$DIMCLRD
 70
     0
  9
$DIMCLRE
 70
     0
  9
$DIMCLRT
 70
     0
  9
$DIMTFAC
 40
1.0
  9
$DIMGAP
 40
0.625
  9
$DIMJUST
 70
     0
  9
$DIMSD1
 70
     0
  9
$DIMSD2
 70
     0
  9
$DIMTOLJ
 70
     0
  9
$DIMTZIN
 70
     8
  9
$DIMALTZ
 70
     0
  9
$DIMALTTZ
 70
     0
  9
$DIMUPT
 70
     0
  9
$DIMDEC
 70
     2
  9
$DIMTDEC
 70
     2
  9
$DIMALTU
 70
     2
  9
$DIMALTTD
 70
     3
  9
$DIMTXSTY
  7
Standard
  9
$DIMAUNIT
 70
     0
  9
$DIMADEC
 70
     0
  9
$DIMALTRND
 40
0.0
  9
$DIMAZIN
 70
     0
  9
$DIMDSEP
 70
    44
  9
$DIMATFIT
 70
     3
  9
$DIMFRAC
 70
     0
  9
$DIMLDRBLK
  1

  9
$DIMLUNIT
 70
     2
  9
$DIMLWD
 70
    -2
  9
$DIMLWE
 70
    -2
  9
$DIMTMOVE
 70
     0
  9
$LUNITS
 70
     2
  9
$LUPREC
 70
     4
  9
$SKETCHINC
 40
1.0
  9
$FILLETRAD
 40
10.0
  9
$AUNITS
 70
     0
  9
$AUPREC
 70
     0
  9
$MENU
  1
.
  9
$ELEVATION
 40
0.0
  9
$PELEVATION
 40
0.0
  9
$THICKNESS
 40
0.0
  9
$LIMCHECK
 70
     0
  9
$CHAMFERA
 40
10.0
  9
$CHAMFERB
 40
10.0
  9
$CHAMFERC
 40
20.0
  9
$CHAMFERD
 40
0.0
  9
$SKPOLY
 70
     0
  9
$TDCREATE
 40
2456210.542453125
  9
$TDUCREATE
 40
2456210.459119792
  9
$TDUPDATE
 40
2456210.542453137
  9
$TDUUPDATE
 40
2456210.459119803
  9
$TDINDWG
 40
0.0000000116
  9
$TDUSRTIMER
 40
0.0000000116
  9
$USRTIMER
 70
     1
  9
$ANGBASE
 50
0.0
  9
$ANGDIR
 70
     0
  9
$PDMODE
 70
     0
  9
$PDSIZE
 40
0.0
  9
$PLINEWID
 40
0.0
  9
$SPLFRAME
 70
     0
  9
$SPLINETYPE
 70
     6
  9
$SPLINESEGS
 70
     8
  9
$HANDSEED
  5
388
  9
$SURFTAB1
 70
     6
  9
$SURFTAB2
 70
     6
  9
$SURFTYPE
 70
     6
  9
$SURFU
 70
     6
  9
$SURFV
 70
     6
  9
$UCSBASE
  2

  9
$UCSNAME
  2

  9
$UCSORG
 10
0.0
 20
0.0
 30
0.0
  9
$UCSXDIR
 10
1.0
 20
0.0
 30
0.0
  9
$UCSYDIR
 10
0.0
 20
1.0
 30
0.0
  9
$UCSORTHOREF
  2

  9
$UCSORTHOVIEW
 70
     0
  9
$UCSORGTOP
 10
0.0
 20
0.0
 30
0.0
  9
$UCSORGBOTTOM
 10
0.0
 20
0.0
 30
0.0
  9
$UCSORGLEFT
 10
0.0
 20
0.0
 30
0.0
  9
$UCSORGRIGHT
 10
0.0
 20
0.0
 30
0.0
  9
$UCSORGFRONT
 10
0.0
 20
0.0
 30
0.0
  9
$UCSORGBACK
 10
0.0
 20
0.0
 30
0.0
  9
$PUCSBASE
  2

  9
$PUCSNAME
  2

  9
$PUCSORG
 10
0.0
 20
0.0
 30
0.0
  9
$PUCSXDIR
 10
1.0
 20
0.0
 30
0.0
  9
$PUCSYDIR
 10
0.0
 20
1.0
 30
0.0
  9
$PUCSORTHOREF
  2

  9
$PUCSORTHOVIEW
 70
     0
  9
$PUCSORGTOP
 10
0.0
 20
0.0
 30
0.0
  9
$PUCSORGBOTTOM
 10
0.0
 20
0.0
 30
0.0
  9
$PUCSORGLEFT
 10
0.0
 20
0.0
 30
0.0
  9
$PUCSORGRIGHT
 10
0.0
 20
0.0
 30
0.0
  9
$PUCSORGFRONT
 10
0.0
 20
0.0
 30
0.0
  9
$PUCSORGBACK
 10
0.0
 20
0.0
 30
0.0
  9
$USERI1
 70
     0
  9
$USERI2
 70
     0
  9
$USERI3
 70
     0
  9
$USERI4
 70
     0
  9
$USERI5
 70
     0
  9
$USERR1
 40
0.0
  9
$USERR2
 40
0.0
  9
$USERR3
 40
0.0
  9
$USERR4
 40
0.0
  9
$USERR5
 40
0.0
  9
$WORLDVIEW
 70
     1
  9
$SHADEDGE
 70
     3
  9
$SHADEDIF
 70
    70
  9
$TILEMODE
 70
     1
  9
$MAXACTVP
 70
    64
  9
$PINSBASE
 10
0.0
 20
0.0
 30
0.0
  9
$PLIMCHECK
 70
     0
  9
$PEXTMIN
 10
0.0
 20
0.0
 30
0.0
  9
$PEXTMAX
 10
3000.0
 20
4500.0
 30
0.0
  9
$PLIMMIN
 10
0.0
 20
0.0
  9
$PLIMMAX
 10
3000.0
 20
4500.0
  9
$UNITMODE
 70
     0
  9
$VISRETAIN
 70
     1
  9
$PLINEGEN
 70
     0
  9
$PSLTSCALE
 70
     1
  9
$TREEDEPTH
 70
  3020
  9
$CMLSTYLE
  2
Standard
  9
$CMLJUST
 70
     0
  9
$CMLSCALE
 40
20.0
  9
$PROXYGRAPHICS
 70
     1
  9
$MEASUREMENT
 70
     1
  9
$CELWEIGHT
370
    -1
  9
$ENDCAPS
280
     0
  9
$JOINSTYLE
280
     0
  9
$LWDISPLAY
290
     0
  9
$INSUNITS
 70
     4
  9
$HYPERLINKBASE
  1

  9
$STYLESHEET
  1

  9
$XEDIT
290
     1
  9
$CEPSNTYPE
380
     0
  9
$PSTYLEMODE
290
     1
  9
$FINGERPRINTGUID
  2
{C1F8C553-33AA-42EC-B844-8F9889D4FFD5}
  9
$VERSIONGUID
  2
{FAEB1C32-E019-11D5-929B-00C0DF256EC4}
  9
$EXTNAMES
290
     1
  9
$PSVPSCALE
 40
0.0
  9
$OLESTARTUP
290
     0
  0
ENDSEC
  0
SECTION
  2
CLASSES
  0
CLASS
  1
ACDBDICTIONARYWDFLT
  2
AcDbDictionaryWithDefault
  3
ObjectDBX Classes
 90
        0
280
     0
281
     0
  0
CLASS
  1
VISUALSTYLE
  2
AcDbVisualStyle
  3
ObjectDBX Classes
 90
     4095
280
     0
281
     0
  0
CLASS
  1
SCALE
  2
AcDbScale
  3
ObjectDBX Classes
 90
     1153
280
     0
281
     0
  0
CLASS
  1
DICTIONARYVAR
  2
AcDbDictionaryVar
  3
ObjectDBX Classes
 90
        0
280
     0
281
     0
  0
CLASS
  1
ACDBPLACEHOLDER
  2
AcDbPlaceHolder
  3
ObjectDBX Classes
 90
        0
280
     0
281
     0
  0
CLASS
  1
LAYOUT
  2
AcDbLayout
  3
ObjectDBX Classes
 90
        0
280
     0
281
     0
  0
ENDSEC
  0
SECTION
  2
TABLES
  0
TABLE
  2
VPORT
  5
8
330
0
100
AcDbSymbolTable
 70
     1
  0
VPORT
  5
29
330
8
100
AcDbSymbolTableRecord
100
AcDbViewportTableRecord
  2
*Active
 70
     0
 10
0.0
 20
0.0
 11
1.0
 21
1.0
 12
344.1869158879
 22
148.5
 13
0.0
 23
0.0
 14
10.0
 24
10.0
 15
10.0
 25
10.0
 16
0.0
 26
0.0
 36
1.0
 17
0.0
 27
0.0
 37
0.0
 40
297.0
 41
1.9729729729
 42
50.0
 43
0.0
 44
0.0
 50
0.0
 51
0.0
 71
     0
 72
   100
 73
     1
 74
     3
 75
     0
 76
     0
 77
     0
 78
     0
281
     0
 65
     1
110
0.0
120
0.0
130
0.0
111
1.0
121
0.0
131
0.0
112
0.0
122
1.0
132
0.0
 79
     0
146
0.0
  0
ENDTAB
  0
TABLE
  2
LTYPE
  5
5
330
0
100
AcDbSymbolTable
 70
     2
  0
LTYPE
  5
14
330
5
100
AcDbSymbolTableRecord
100
AcDbLinetypeTableRecord
  2
ByBlock
 70
     0
  3

 72
    65
 73
     0
 40
0.0
  0
LTYPE
  5
15
330
5
100
AcDbSymbolTableRecord
100
AcDbLinetypeTableRecord
  2
ByLayer
 70
     0
  3

 72
    65
 73
     0
 40
0.0
  0
LTYPE
  5
16
330
5
100
AcDbSymbolTableRecord
100
AcDbLinetypeTableRecord
  2
Continuous
 70
     0
  3
Solid line
 72
    65
 73
     0
 40
0.0
  0
LTYPE
  5
60
330
5
100
AcDbSymbolTableRecord
100
AcDbLinetypeTableRecord
  2
CENTER2
 70
     0
  3
Center (.5x) ___ _ ___ _ ___ _ ___ _ ___ _ ___
 72
    65
 73
     4
 40
28.575
 49
19.05
 74
     4
 75
     0
340
0
 46
0.0
 50
0.0
 44
0.0
 45
0.0
 49
-3.175
 74
     4
 75
     0
340
0
 46
0.0
 50
0.0
 44
0.0
 45
0.0
 49
3.175
 74
     4
 75
     0
340
0
 46
0.0
 50
0.0
 44
0.0
 45
0.0
 49
-3.175
 74
     4
 75
     0
340
0
 46
0.0
 50
0.0
 44
0.0
 45
0.0
  0
ENDTAB
  0
TABLE
  2
LAYER
  5
2
330
0
100
AcDbSymbolTable
 70
     5
  0
LAYER
  5
10
330
2
100
AcDbSymbolTableRecord
100
AcDbLayerTableRecord
  2
0
 70
     0
 62
     7
  6
Continuous
370
    -3
390
F
  0
LAYER
  5
5D
330
2
100
AcDbSymbolTableRecord
100
AcDbLayerTableRecord
  2
Default
 70
     0
 62
     7
  6
Continuous
370
    -3
390
F
  0
LAYER
  5
89
330
2
100
AcDbSymbolTableRecord
100
AcDbLayerTableRecord
  2
DV1_Default
 70
     0
 62
     7
  6
Continuous
370
    -3
390
F
  0
LAYER
  5
1E5
330
2
100
AcDbSymbolTableRecord
100
AcDbLayerTableRecord
  2
DV2_Default
 70
     0
 62
     7
  6
Continuous
370
    -3
390
F
  0
LAYER
  5
28F
330
2
100
AcDbSymbolTableRecord
100
AcDbLayerTableRecord
  2
DV3_Default
 70
     0
 62
     7
  6
Continuous
370
    -3
390
F
  0
ENDTAB
  0
TABLE
  2
STYLE
  5
3
330
0
100
AcDbSymbolTable
 70
     2
  0
STYLE
  5
11
330
3
100
AcDbSymbolTableRecord
100
AcDbTextStyleTableRecord
  2
Standard
 70
     0
 40
0.0
 41
1.0
 50
0.0
 71
     0
 42
2.5
  3
txt
  4

  0
STYLE
  5
377
330
3
100
AcDbSymbolTableRecord
100
AcDbTextStyleTableRecord
  2
SEACAD_seiso_ttf
 70
     0
 40
0.0
 41
1.0
 50
0.0
 71
     0
 42
0.2
  3
seiso.ttf
  4

  0
ENDTAB
  0
TABLE
  2
VIEW
  5
6
330
0
100
AcDbSymbolTable
 70
     0
  0
ENDTAB
  0
TABLE
  2
UCS
  5
7
330
0
100
AcDbSymbolTable
 70
     0
  0
ENDTAB
  0
TABLE
  2
APPID
  5
9
330
0
100
AcDbSymbolTable
 70
     1
  0
APPID
  5
12
330
9
100
AcDbSymbolTableRecord
100
AcDbRegAppTableRecord
  2
ACAD
 70
     0
  0
ENDTAB
  0
TABLE
  2
DIMSTYLE
  5
A
330
0
100
AcDbSymbolTable
 70
     1
100
AcDbDimStyleTable
  0
DIMSTYLE
105
27
330
A
100
AcDbSymbolTableRecord
100
AcDbDimStyleTableRecord
  2
ISO-25
 70
     0
 41
2.5
 42
0.625
 43
3.75
 44
1.25
 73
     0
 74
     0
 77
     1
 78
     8
140
2.5
141
2.5
143
0.0393700787
147
0.625
171
     3
172
     1
271
     2
272
     2
274
     3
278
    44
283
     0
284
     8
340
11
  0
ENDTAB
  0
TABLE
  2
BLOCK_RECORD
  5
1
330
0
100
AcDbSymbolTable
 70
    10
  0
BLOCK_RECORD
  5
1F
330
1
100
AcDbSymbolTableRecord
100
AcDbBlockTableRecord
  2
*Model_Space
340
22
  0
BLOCK_RECORD
  5
1B
330
1
100
AcDbSymbolTableRecord
100
AcDbBlockTableRecord
  2
*Paper_Space
340
1E
  0
BLOCK_RECORD
  5
5E
330
1
100
AcDbSymbolTableRecord
100
AcDbBlockTableRecord
  2
SEANNOT_GROUP
340
0
102
{BLKREFS
331
5F
102
}
  0
BLOCK_RECORD
  5
65
330
1
100
AcDbSymbolTableRecord
100
AcDbBlockTableRecord
  2
SEANNOT_GROUP1
340
0
102
{BLKREFS
331
66
102
}
  0
BLOCK_RECORD
  5
6B
330
1
100
AcDbSymbolTableRecord
100
AcDbBlockTableRecord
  2
SEANNOT_GROUP2
340
0
102
{BLKREFS
331
6C
102
}
  0
BLOCK_RECORD
  5
71
330
1
100
AcDbSymbolTableRecord
100
AcDbBlockTableRecord
  2
SEANNOT_GROUP3
340
0
102
{BLKREFS
331
72
102
}
  0
BLOCK_RECORD
  5
77
330
1
100
AcDbSymbolTableRecord
100
AcDbBlockTableRecord
  2
SEANNOT_GROUP4
340
0
102
{BLKREFS
331
78
102
}
  0
BLOCK_RECORD
  5
81
330
1
100
AcDbSymbolTableRecord
100
AcDbBlockTableRecord
  2
SEANNOT_GROUP5
340
0
102
{BLKREFS
331
82
102
}
  0
BLOCK_RECORD
  5
87
330
1
100
AcDbSymbolTableRecord
100
AcDbBlockTableRecord
  2
SE
340
0
102
{BLKREFS
331
88
102
}
  0
BLOCK_RECORD
  5
1E3
330
1
100
AcDbSymbolTableRecord
100
AcDbBlockTableRecord
  2
SE1
340
0
102
{BLKREFS
331
1E4
102
}
  0
BLOCK_RECORD
  5
28D
330
1
100
AcDbSymbolTableRecord
100
AcDbBlockTableRecord
  2
SE2
340
0
102
{BLKREFS
331
28E
102
}
  0
ENDTAB
  0
ENDSEC
  0
SECTION
  2
BLOCKS
  0
BLOCK
  5
20
330
1F
100
AcDbEntity
  8
0
100
AcDbBlockBegin
  2
*Model_Space
 70
     0
 10
0.0
 20
0.0
 30
0.0
  3
*Model_Space
  1

  0
ENDBLK
  5
21
330
1F
100
AcDbEntity
  8
0
100
AcDbBlockEnd
  0
BLOCK
  5
1C
330
1B
100
AcDbEntity
 67
     1
  8
0
100
AcDbBlockBegin
  2
*Paper_Space
 70
     0
 10
0.0
 20
0.0
 30
0.0
  3
*Paper_Space
  1

  0
ENDBLK
  5
1D
330
1B
100
AcDbEntity
 67
     1
  8
0
100
AcDbBlockEnd
  0
BLOCK
  5
63
330
5E
100
AcDbEntity
  8
0
100
AcDbBlockBegin
  2
SEANNOT_GROUP
 70
     0
 10
0.0
 20
0.0
 30
0.0
  3
SEANNOT_GROUP
  1

  0
LINE
  5
61
330
5E
100
AcDbEntity
  8
Default
  6
CENTER2
 62
     7
100
AcDbLine
 10
469.5089516092
 20
358.6540000452
 30
0.0
 11
429.5089525032
 21
358.6540000452
 31
0.0
  0
LINE
  5
62
330
5E
100
AcDbEntity
  8
Default
  6
CENTER2
 62
     7
100
AcDbLine
 10
449.5089520562
 20
378.6539995982
 30
0.0
 11
449.5089520562
 21
338.6540004923
 31
0.0
  0
ENDBLK
  5
64
330
5E
100
AcDbEntity
  8
0
100
AcDbBlockEnd
  0
BLOCK
  5
69
330
65
100
AcDbEntity
  8
0
100
AcDbBlockBegin
  2
SEANNOT_GROUP1
 70
     0
 10
0.0
 20
0.0
 30
0.0
  3
SEANNOT_GROUP1
  1

  0
LINE
  5
67
330
65
100
AcDbEntity
  8
Default
  6
CENTER2
 62
     7
100
AcDbLine
 10
522.5384366011
 20
355.1540000452
 30
0.0
 11
482.5384374952
 21
355.1540000452
 31
0.0
  0
LINE
  5
68
330
65
100
AcDbEntity
  8
Default
  6
CENTER2
 62
     7
100
AcDbLine
 10
502.5384370481
 20
375.1539995982
 30
0.0
 11
502.5384370481
 21
335.1540004923
 31
0.0
  0
ENDBLK
  5
6A
330
65
100
AcDbEntity
  8
0
100
AcDbBlockEnd
  0
BLOCK
  5
6F
330
6B
100
AcDbEntity
  8
0
100
AcDbBlockBegin
  2
SEANNOT_GROUP2
 70
     0
 10
0.0
 20
0.0
 30
0.0
  3
SEANNOT_GROUP2
  1

  0
LINE
  5
6D
330
6B
100
AcDbEntity
  8
Default
  6
CENTER2
 62
     7
100
AcDbLine
 10
780.2700376751
 20
358.6540000452
 30
0.0
 11
740.2700385691
 21
358.6540000452
 31
0.0
  0
LINE
  5
6E
330
6B
100
AcDbEntity
  8
Default
  6
CENTER2
 62
     7
100
AcDbLine
 10
760.2700381221
 20
378.6539995982
 30
0.0
 11
760.2700381221
 21
338.6540004923
 31
0.0
  0
ENDBLK
  5
70
330
6B
100
AcDbEntity
  8
0
100
AcDbBlockEnd
  0
BLOCK
  5
75
330
71
100
AcDbEntity
  8
0
100
AcDbBlockBegin
  2
SEANNOT_GROUP3
 70
     0
 10
0.0
 20
0.0
 30
0.0
  3
SEANNOT_GROUP3
  1

  0
LINE
  5
73
330
71
100
AcDbEntity
  8
Default
  6
CENTER2
 62
     7
100
AcDbLine
 10
518.0089516092
 20
821.1540000452
 30
0.0
 11
478.0089525032
 21
821.1540000452
 31
0.0
  0
LINE
  5
74
330
71
100
AcDbEntity
  8
Default
  6
CENTER2
 62
     7
100
AcDbLine
 10
498.0089520562
 20
841.1539995982
 30
0.0
 11
498.0089520562
 21
801.1540004923
 31
0.0
  0
ENDBLK
  5
76
330
71
100
AcDbEntity
  8
0
100
AcDbBlockEnd
  0
BLOCK
  5
7F
330
77
100
AcDbEntity
  8
0
100
AcDbBlockBegin
  2
SEANNOT_GROUP4
 70
     0
 10
0.0
 20
0.0
 30
0.0
  3
SEANNOT_GROUP4
  1

  0
LINE
  5
79
330
77
100
AcDbEntity
  8
Default
  6
CENTER2
 62
     7
100
AcDbLine
 10
780.2700376751
 20
821.1540000452
 30
0.0
 11
740.2700385691
 21
821.1540000452
 31
0.0
  0
LINE
  5
7A
330
77
100
AcDbEntity
  8
Default
  6
CENTER2
 62
     7
100
AcDbLine
 10
760.2700381221
 20
841.1539995982
 30
0.0
 11
760.2700381221
 21
801.1540004923
 31
0.0
  0
LINE
  5
7B
330
77
100
AcDbEntity
  8
Default
  6
CENTER2
 62
     7
100
AcDbLine
 10
785.2700375633
 20
821.1540000452
 30
0.0
 11
777.0945714544
 21
821.1540000452
 31
0.0
  0
LINE
  5
7C
330
77
100
AcDbEntity
  8
Default
  6
CENTER2
 62
     7
100
AcDbLine
 10
760.2700381221
 20
846.1539994864
 30
0.0
 11
760.2700381221
 21
837.9785333776
 31
0.0
  0
LINE
  5
7D
330
77
100
AcDbEntity
  8
Default
  6
CENTER2
 62
     7
100
AcDbLine
 10
735.2700386809
 20
821.1540000452
 30
0.0
 11
743.4455047897
 21
821.1540000452
 31
0.0
  0
LINE
  5
7E
330
77
100
AcDbEntity
  8
Default
  6
CENTER2
 62
     7
100
AcDbLine
 10
760.2700381221
 20
796.154000604
 30
0.0
 11
760.2700381221
 21
804.3294667129
 31
0.0
  0
ENDBLK
  5
80
330
77
100
AcDbEntity
  8
0
100
AcDbBlockEnd
  0
BLOCK
  5
85
330
81
100
AcDbEntity
  8
0
100
AcDbBlockBegin
  2
SEANNOT_GROUP5
 70
     0
 10
0.0
 20
0.0
 30
0.0
  3
SEANNOT_GROUP5
  1

  0
LINE
  5
83
330
81
100
AcDbEntity
  8
Default
  6
CENTER2
 62
     7
100
AcDbLine
 10
517.0089516092
 20
187.9176262714
 30
0.0
 11
477.0089525032
 21
187.9176262714
 31
0.0
  0
LINE
  5
84
330
81
100
AcDbEntity
  8
Default
  6
CENTER2
 62
     7
100
AcDbLine
 10
497.0089520562
 20
207.9176258244
 30
0.0
 11
497.0089520562
 21
167.9176267184
 31
0.0
  0
ENDBLK
  5
86
330
81
100
AcDbEntity
  8
0
100
AcDbBlockEnd
  0
BLOCK
  5
1E1
330
87
100
AcDbEntity
  8
0
100
AcDbBlockBegin
  2
SE
 70
     0
 10
0.0
 20
0.0
 30
0.0
  3
SE
  1

  0
LINE
  5
8A
330
87
100
AcDbEntity
  8
DV1_Default
  6
Continuous
 62
     7
100
AcDbLine
 10
443.1589520562
 20
358.6540000452
 30
0.0
 11
455.8589520562
 21
358.6540000452
 31
0.0
  0
LINE
  5
8B
330
87
100
AcDbEntity
  8
DV1_Default
  6
Continuous
 62
     7
100
AcDbLine
 10
443.6589520562
 20
358.1540000452
 30
0.0
 11
455.3589520562
 21
358.1540000452
 31
0.0
  0
LINE
  5
8C
330
87
100
AcDbEntity
  8
DV1_Default
  6
Continuous
 62
     7
100
AcDbLine
 10
443.1589520562
 20
373.1540000452
 30
0.0
 11
443.1589520562
 21
358.6540000452
 31
0.0
  0
LINE
  5
8D
330
87
100
AcDbEntity
  8
DV1_Default
  6
Continuous
 62
     7
100
AcDbLine
 10
455.8589520562
 20
358.6540000452
 30
0.0
 11
455.8589520562
 21
373.1540000452
 31
0.0
  0
LINE
  5
8E
330
87
100
AcDbEntity
  8
DV1_Default
  6
Continuous
 62
     7
100
AcDbLine
 10
443.1589520562
 20
358.6540000452
 30
0.0
 11
443.6589520562
 21
358.1540000452
 31
0.0
  0
LINE
  5
8F
330
87
100
AcDbEntity
  8
DV1_Default
  6
Continuous
 62
     7
100
AcDbLine
 10
455.3589520562
 20
358.1540000452
 30
0.0
 11
455.8589520562
 21
358.6540000452
 31
0.0
  0
LINE
  5
90
330
87
100
AcDbEntity
  8
DV1_Default
  6
Continuous
 62
     7
100
AcDbLine
 10
444.5139520562
 20
358.1540000452
 30
0.0
 11
444.5139520562
 21
373.1540000452
 31
0.0
  0
LINE
  5
91
330
87
100
AcDbEntity
  8
DV1_Default
  6
Continuous
 62
     7
100
AcDbLine
 10
454.5039520562
 20
358.1540000452
 30
0.0
 11
454.5039520562
 21
373.1540000452
 31
0.0
  0
LINE
  5
92
330
87
100
AcDbEntity
  8
DV1_Default
  6
Continuous
 62
     7
100
AcDbLine
 10
489.8184370481
 20
355.1540000452
 30
0.0
 11
515.2584370481
 21
355.1540000452
 31
0.0
  0
LINE
  5
93
330
87
100
AcDbEntity
  8
DV1_Default
  6
Continuous
 62
     7
100
AcDbLine
 10
515.7584370481
 20
355.6540000452
 30
0.0
 11
489.3184370481
 21
355.6540000452
 31
0.0
  0
LINE
  5
94
330
87
100
AcDbEntity
  8
DV1_Default
  6
Continuous
 62
     7
100
AcDbLine
 10
515.7584370481
 20
355.6540000452
 30
0.0
 11
515.7584370481
 21
373.1540000452
 31
0.0
  0
LINE
  5
95
330
87
100
AcDbEntity
  8
DV1_Default
  6
Continuous
 62
     7
100
AcDbLine
 10
489.3184370481
 20
373.1540000452
 30
0.0
 11
489.3184370481
 21
355.6540000452
 31
0.0
  0
LINE
  5
96
330
87
100
AcDbEntity
  8
DV1_Default
  6
Continuous
 62
     7
100
AcDbLine
 10
489.3184370481
 20
355.6540000452
 30
0.0
 11
489.8184370481
 21
355.1540000452
 31
0.0
  0
LINE
  5
97
330
87
100
AcDbEntity
  8
DV1_Default
  6
Continuous
 62
     7
100
AcDbLine
 10
515.2584370481
 20
355.1540000452
 30
0.0
 11
515.7584370481
 21
355.6540000452
 31
0.0
  0
LINE
  5
98
330
87
100
AcDbEntity
  8
DV1_Default
  6
Continuous
 62
     7
100
AcDbLine
 10
514.5984370481
 20
373.1540000452
 30
0.0
 11
514.5984370481
 21
355.1540000452
 31
0.0
  0
LINE
  5
99
330
87
100
AcDbEntity
  8
DV1_Default
  6
Continuous
 62
     7
100
AcDbLine
 10
490.4784370481
 20
373.1540000452
 30
0.0
 11
490.4784370481
 21
355.1540000452
 31
0.0
  0
LINE
  5
9A
330
87
100
AcDbEntity
  8
DV1_Default
  6
Continuous
 62
     7
100
AcDbLine
 10
490.0089520562
 20
813.8240000452
 30
0.0
 11
490.0089520562
 21
828.4840000452
 31
0.0
  0
LINE
  5
9B
330
87
100
AcDbEntity
  8
DV1_Default
  6
Continuous
 62
     7
100
AcDbLine
 10
497.0089520562
 20
813.8240000452
 30
0.0
 11
497.0089520562
 21
828.4840000452
 31
0.0
  0
LINE
  5
9C
330
87
100
AcDbEntity
  8
DV1_Default
  6
Continuous
 62
     7
100
AcDbLine
 10
498.0089520562
 20
814.4013503144
 30
0.0
 11
498.0089520562
 21
827.906649776
 31
0.0
  0
LINE
  5
9D
330
87
100
AcDbEntity
  8
DV1_Default
  6
Continuous
 62
     7
100
AcDbLine
 10
490.2589520562
 20
820.9040000452
 30
0.0
 11
490.2589520562
 21
821.4040000452
 31
0.0
  0
LINE
  5
9E
330
87
100
AcDbEntity
  8
DV1_Default
  6
Continuous
 62
     7
100
AcDbLine
 10
490.5089520562
 20
821.6540000452
 30
0.0
 11
494.0089520562
 21
821.6540000452
 31
0.0
  0
LINE
  5
9F
330
87
100
AcDbEntity
  8
DV1_Default
  6
Continuous
 62
     7
100
AcDbLine
 10
494.0089520562
 20
820.6540000452
 30
0.0
 11
490.5089520562
 21
820.6540000452
 31
0.0
  0
LINE
  5
A0
330
87
100
AcDbEntity
  8
DV1_Default
  6
Continuous
 62
     7
100
AcDbLine
 10
494.0089520562
 20
820.9040000452
 30
0.0
 11
494.0089520562
 21
821.4040000452
 31
0.0
  0
LINE
  5
A1
330
87
100
AcDbEntity
  8
DV1_Default
  6
Continuous
 62
     7
100
AcDbLine
 10
490.5089520562
 20
820.9040000452
 30
0.0
 11
494.0089520562
 21
820.9040000452
 31
0.0
  0
LINE
  5
A2
330
87
100
AcDbEntity
  8
DV1_Default
  6
Continuous
 62
     7
100
AcDbLine
 10
494.0089520562
 20
821.4040000452
 30
0.0
 11
490.5089520562
 21
821.4040000452
 31
0.0
  0
LINE
  5
A3
330
87
100
AcDbEntity
  8
DV1_Default
  6
Continuous
 62
     7
100
AcDbLine
 10
490.5089520562
 20
821.4040000452
 30
0.0
 11
490.5089520562
 21
820.9040000452
 31
0.0
  0
LINE
  5
A4
330
87
100
AcDbEntity
  8
DV1_Default
  6
Continuous
 62
     7
100
AcDbLine
 10
494.2589520562
 20
821.4040000452
 30
0.0
 11
494.2589520562
 21
820.9040000452
 31
0.0
  0
ARC
  5
A5
330
87
100
AcDbEntity
  8
DV1_Default
  6
Continuous
 62
     7
100
AcDbCircle
 10
494.0089520562
 20
820.9040000452
 30
0.0
 40
0.250000000000028
100
AcDbArc
 50
270.0
 51
0.0
  0
LINE
  5
A6
330
87
100
AcDbEntity
  8
DV1_Default
  6
Continuous
 62
     7
100
AcDbLine
 10
494.0089520562
 20
820.9040000452
 30
0.0
 11
494.2589520562
 21
820.9040000452
 31
0.0
  0
LINE
  5
A7
330
87
100
AcDbEntity
  8
DV1_Default
  6
Continuous
 62
     7
100
AcDbLine
 10
494.0089520562
 20
820.6540000452
 30
0.0
 11
494.0089520562
 21
820.9040000452
 31
0.0
  0
ARC
  5
A8
330
87
100
AcDbEntity
  8
DV1_Default
  6
Continuous
 62
     7
100
AcDbCircle
 10
494.0089520562
 20
821.4040000452
 30
0.0
 40
0.2500000000000002
100
AcDbArc
 50
0.0
 51
90.0
  0
LINE
  5
A9
330
87
100
AcDbEntity
  8
DV1_Default
  6
Continuous
 62
     7
100
AcDbLine
 10
494.0089520562
 20
821.4040000452
 30
0.0
 11
494.2589520562
 21
821.4040000452
 31
0.0
  0
LINE
  5
AA
330
87
100
AcDbEntity
  8
DV1_Default
  6
Continuous
 62
     7
100
AcDbLine
 10
490.5089520562
 20
820.6540000452
 30
0.0
 11
490.5089520562
 21
820.9040000452
 31
0.0
  0
ARC
  5
AB
330
87
100
AcDbEntity
  8
DV1_Default
  6
Continuous
 62
     7
100
AcDbCircle
 10
490.5089520562
 20
820.9040000452
 30
0.0
 40
0.2500000000000002
100
AcDbArc
 50
180.0
 51
270.0
  0
LINE
  5
AC
330
87
100
AcDbEntity
  8
DV1_Default
  6
Continuous
 62
     7
100
AcDbLine
 10
494.0089520562
 20
821.4040000452
 30
0.0
 11
494.0089520562
 21
821.6540000452
 31
0.0
  0
LINE
  5
AD
330
87
100
AcDbEntity
  8
DV1_Default
  6
Continuous
 62
     7
100
AcDbLine
 10
490.2589520562
 20
820.9040000452
 30
0.0
 11
490.5089520562
 21
820.9040000452
 31
0.0
  0
LINE
  5
AE
330
87
100
AcDbEntity
  8
DV1_Default
  6
Continuous
 62
     7
100
AcDbLine
 10
490.5089520562
 20
821.4040000452
 30
0.0
 11
490.5089520562
 21
821.6540000452
 31
0.0
  0
LINE
  5
AF
330
87
100
AcDbEntity
  8
DV1_Default
  6
Continuous
 62
     7
100
AcDbLine
 10
490.2589520562
 20
821.4040000452
 30
0.0
 11
490.5089520562
 21
821.4040000452
 31
0.0
  0
ARC
  5
B0
330
87
100
AcDbEntity
  8
DV1_Default
  6
Continuous
 62
     7
100
AcDbCircle
 10
490.5089520562
 20
821.4040000452
 30
0.0
 40
0.2500000000000002
100
AcDbArc
 50
90.0
 51
180.0
  0
LINE
  5
B1
330
87
100
AcDbEntity
  8
DV1_Default
  6
Continuous
 62
     7
100
AcDbLine
 10
494.0089520562
 20
827.889753957
 30
0.0
 11
494.0089520562
 21
828.231260308
 31
0.0
  0
ELLIPSE
  5
B2
330
87
100
AcDbEntity
  8
DV1_Default
  6
Continuous
 62
     7
100
AcDbEllipse
 10
494.0089520562
 20
828.014753957
 30
0.0
 11
-0.250000000000028
 21
5.551115123125783E-14
 31
0.0
210
0.0
220
0.0
230
1.0
 40
0.5
 41
1.57079632679478
 42
3.141592653589793
  0
ELLIPSE
  5
B3
330
87
100
AcDbEntity
  8
DV1_Default
  6
Continuous
 62
     7
100
AcDbEllipse
 10
494.0089520562
 20
828.014753957
 30
0.0
 11
-0.2500000000000002
 21
2.220446049250313E-13
 31
0.0
210
0.0
220
0.0
230
1.0
 40
0.8660254038
 41
3.141592653589793
 42
4.712388980385459
  0
ELLIPSE
  5
B4
330
87
100
AcDbEntity
  8
DV1_Default
  6
Continuous
 62
     7
100
AcDbEllipse
 10
494.0089520562
 20
828.264753957
 30
0.0
 11
-0.2500000000000002
 21
0.0
 31
0.0
210
0.0
220
0.0
230
1.0
 40
0.8660254038
 41
3.141592653589793
 42
4.71238898038469
  0
LINE
  5
B5
330
87
100
AcDbEntity
  8
DV1_Default
  6
Continuous
 62
     7
100
AcDbLine
 10
494.0089520562
 20
828.514753957
 30
0.0
 11
494.0089520562
 21
828.481260308
 31
0.0
  0
ELLIPSE
  5
B6
330
87
100
AcDbEntity
  8
DV1_Default
  6
Continuous
 62
     7
100
AcDbEllipse
 10
490.5089520562
 20
828.014753957
 30
0.0
 11
-0.2500000000000002
 21
0.0
 31
0.0
210
0.0
220
0.0
230
1.0
 40
0.5
 41
0.0
 42
1.570796326794897
  0
LINE
  5
B7
330
87
100
AcDbEntity
  8
DV1_Default
  6
Continuous
 62
     7
100
AcDbLine
 10
490.5089520562
 20
827.889753957
 30
0.0
 11
490.5089520562
 21
828.231260308
 31
0.0
  0
ELLIPSE
  5
B8
330
87
100
AcDbEntity
  8
DV1_Default
  6
Continuous
 62
     7
100
AcDbEllipse
 10
490.5089520562
 20
828.014753957
 30
0.0
 11
-0.2500000000000002
 21
0.0
 31
0.0
210
0.0
220
0.0
230
1.0
 40
0.8660254038
 41
4.71238898038469
 42
6.283185307179586
  0
ELLIPSE
  5
B9
330
87
100
AcDbEntity
  8
DV1_Default
  6
Continuous
 62
     7
100
AcDbEllipse
 10
490.5089520562
 20
828.264753957
 30
0.0
 11
-0.2500000000000002
 21
-2.220446049250313E-13
 31
0.0
210
0.0
220
0.0
230
1.0
 40
0.8660254038
 41
4.712388980383921
 42
6.28318530717856
  0
LINE
  5
BA
330
87
100
AcDbEntity
  8
DV1_Default
  6
Continuous
 62
     7
100
AcDbLine
 10
490.5089520562
 20
828.514753957
 30
0.0
 11
490.5089520562
 21
828.481260308
 31
0.0
  0
LINE
  5
BB
330
87
100
AcDbEntity
  8
DV1_Default
  6
Continuous
 62
     7
100
AcDbLine
 10
494.2589520562
 20
828.264753957
 30
0.0
 11
494.2589520562
 21
828.014753957
 31
0.0
  0
LINE
  5
BC
330
87
100
AcDbEntity
  8
DV1_Default
  6
Continuous
 62
     7
100
AcDbLine
 10
494.0089520562
 20
828.231260308
 30
0.0
 11
494.0089520562
 21
828.481260308
 31
0.0
  0
LINE
  5
BD
330
87
100
AcDbEntity
  8
DV1_Default
  6
Continuous
 62
     7
100
AcDbLine
 10
490.5089520562
 20
828.231260308
 30
0.0
 11
494.0089520562
 21
828.231260308
 31
0.0
  0
LINE
  5
BE
330
87
100
AcDbEntity
  8
DV1_Default
  6
Continuous
 62
     7
100
AcDbLine
 10
494.0089520562
 20
827.889753957
 30
0.0
 11
490.5089520562
 21
827.889753957
 31
0.0
  0
LINE
  5
BF
330
87
100
AcDbEntity
  8
DV1_Default
  6
Continuous
 62
     7
100
AcDbLine
 10
494.0089520562
 20
827.2402349042
 30
0.0
 11
494.0089520562
 21
827.889753957
 31
0.0
  0
ELLIPSE
  5
C0
330
87
100
AcDbEntity
  8
DV1_Default
  6
Continuous
 62
     7
100
AcDbEllipse
 10
494.0089520562
 20
827.3652349042
 30
0.0
 11
0.2500000000000002
 21
0.0
 31
0.0
210
0.0
220
0.0
230
1.0
 40
0.5
 41
4.71238898038469
 42
5.385795961385169
  0
SPLINE
  5
C1
330
87
100
AcDbEntity
  8
DV1_Default
  6
Continuous
 62
     7
100
AcDbSpline
210
0.0
220
0.0
230
1.0
 70
     8
 71
     3
 72
     8
 73
     4
 74
     0
 42
0.000000063504507
 43
0.0000000001
 40
0.0
 40
0.0
 40
0.0
 40
0.0
 40
1.0
 40
1.0
 40
1.0
 40
1.0
 10
494.258952056204
 20
827.3732730532303
 30
0.0
 10
494.258952056204
 20
827.333333971624
 30
0.0
 10
494.2238127107087
 20
827.2935163361196
 30
0.0
 10
494.16486526704
 20
827.267522224994
 30
0.0
  0
LINE
  5
C2
330
87
100
AcDbEntity
  8
DV1_Default
  6
Continuous
 62
     7
100
AcDbLine
 10
494.2589520562
 20
828.014753957
 30
0.0
 11
494.2589520562
 21
827.3732730532
 31
0.0
  0
LINE
  5
C3
330
87
100
AcDbEntity
  8
DV1_Default
  6
Continuous
 62
     7
100
AcDbLine
 10
494.0089520562
 20
828.481260308
 30
0.0
 11
490.5089520562
 21
828.481260308
 31
0.0
  0
LINE
  5
C4
330
87
100
AcDbEntity
  8
DV1_Default
  6
Continuous
 62
     7
100
AcDbLine
 10
490.5089520562
 20
828.481260308
 30
0.0
 11
490.5089520562
 21
828.231260308
 31
0.0
  0
LINE
  5
C5
330
87
100
AcDbEntity
  8
DV1_Default
  6
Continuous
 62
     7
100
AcDbLine
 10
490.2589520562
 20
828.014753957
 30
0.0
 11
490.2589520562
 21
828.264753957
 31
0.0
  0
ELLIPSE
  5
C6
330
87
100
AcDbEntity
  8
DV1_Default
  6
Continuous
 62
     7
100
AcDbEllipse
 10
490.5089520562
 20
827.3652349042
 30
0.0
 11
0.250000000000028
 21
0.0
 31
0.0
210
0.0
220
0.0
230
1.0
 40
0.5
 41
4.038981999383717
 42
4.712388980384917
  0
LINE
  5
C7
330
87
100
AcDbEntity
  8
DV1_Default
  6
Continuous
 62
     7
100
AcDbLine
 10
490.5089520562
 20
827.889753957
 30
0.0
 11
490.5089520562
 21
827.2402349042
 31
0.0
  0
LINE
  5
C8
330
87
100
AcDbEntity
  8
DV1_Default
  6
Continuous
 62
     7
100
AcDbLine
 10
490.2589520562
 20
827.3732730532
 30
0.0
 11
490.2589520562
 21
828.014753957
 31
0.0
  0
SPLINE
  5
C9
330
87
100
AcDbEntity
  8
DV1_Default
  6
Continuous
 62
     7
100
AcDbSpline
210
0.0
220
0.0
230
1.0
 70
     8
 71
     3
 72
     8
 73
     4
 74
     0
 42
0.0000000635044992
 43
0.0000000001
 40
0.0
 40
0.0
 40
0.0
 40
0.0
 40
1.0
 40
1.0
 40
1.0
 40
1.0
 10
490.3530388453679
 20
827.267522224994
 30
0.0
 10
490.2940909736478
 20
827.2935165248782
 30
0.0
 10
490.2589520562028
 20
827.3333340670764
 30
0.0
 10
490.258952056204
 20
827.3732730532303
 30
0.0
  0
LINE
  5
CA
330
87
100
AcDbEntity
  8
DV1_Default
  6
Continuous
 62
     7
100
AcDbLine
 10
490.5089520562
 20
827.2402349042
 30
0.0
 11
494.0089520562
 21
827.2402349042
 31
0.0
  0
LINE
  5
CB
330
87
100
AcDbEntity
  8
DV1_Default
  6
Continuous
 62
     7
100
AcDbLine
 10
494.0089520562
 20
813.8267397825
 30
0.0
 11
494.0089520562
 21
813.7932461335
 31
0.0
  0
ELLIPSE
  5
CC
330
87
100
AcDbEntity
  8
DV1_Default
  6
Continuous
 62
     7
100
AcDbEllipse
 10
494.0089520562
 20
814.0432461335
 30
0.0
 11
-0.2500000000000002
 21
2.220446049250313E-13
 31
0.0
210
0.0
220
0.0
230
1.0
 40
0.8660254038
 41
1.570796326795666
 42
3.141592653589793
  0
ELLIPSE
  5
CD
330
87
100
AcDbEntity
  8
DV1_Default
  6
Continuous
 62
     7
100
AcDbEllipse
 10
494.0089520562
 20
814.2932461335
 30
0.0
 11
-0.2499999999999586
 21
0.0
 31
0.0
210
0.0
220
0.0
230
1.0
 40
0.8660254038
 41
1.570796326794897
 42
3.141592653589793
  0
ELLIPSE
  5
CE
330
87
100
AcDbEntity
  8
DV1_Default
  6
Continuous
 62
     7
100
AcDbEllipse
 10
494.0089520562
 20
814.2932461335
 30
0.0
 11
0.2500000000000002
 21
5.551115123125783E-14
 31
0.0
210
0.0
220
0.0
230
1.0
 40
0.5
 41
0.0
 42
1.570796326794786
  0
LINE
  5
CF
330
87
100
AcDbEntity
  8
DV1_Default
  6
Continuous
 62
     7
100
AcDbLine
 10
494.0089520562
 20
814.0767397825
 30
0.0
 11
494.0089520562
 21
814.4182461335
 31
0.0
  0
LINE
  5
D0
330
87
100
AcDbEntity
  8
DV1_Default
  6
Continuous
 62
     7
100
AcDbLine
 10
490.5089520562
 20
813.8267397825
 30
0.0
 11
490.5089520562
 21
813.7932461335
 31
0.0
  0
ELLIPSE
  5
D1
330
87
100
AcDbEntity
  8
DV1_Default
  6
Continuous
 62
     7
100
AcDbEllipse
 10
490.5089520562
 20
814.0432461335
 30
0.0
 11
-0.2500000000000002
 21
0.0
 31
0.0
210
0.0
220
0.0
230
1.0
 40
0.8660254038
 41
0.0
 42
1.570796326794897
  0
ELLIPSE
  5
D2
330
87
100
AcDbEntity
  8
DV1_Default
  6
Continuous
 62
     7
100
AcDbEllipse
 10
490.5089520562
 20
814.2932461335
 30
0.0
 11
-0.2500000000000002
 21
0.0
 31
0.0
210
0.0
220
0.0
230
1.0
 40
0.8660254038
 41
0.0
 42
1.570796326794897
  0
LINE
  5
D3
330
87
100
AcDbEntity
  8
DV1_Default
  6
Continuous
 62
     7
100
AcDbLine
 10
490.5089520562
 20
814.0767397825
 30
0.0
 11
490.5089520562
 21
814.4182461335
 31
0.0
  0
ELLIPSE
  5
D4
330
87
100
AcDbEntity
  8
DV1_Default
  6
Continuous
 62
     7
100
AcDbEllipse
 10
490.5089520562
 20
814.2932461335
 30
0.0
 11
-0.2500000000000002
 21
5.551115123125783E-14
 31
0.0
210
0.0
220
0.0
230
1.0
 40
0.5
 41
4.712388980384573
 42
6.283185307179586
  0
LINE
  5
D5
330
87
100
AcDbEntity
  8
DV1_Default
  6
Continuous
 62
     7
100
AcDbLine
 10
494.2589520562
 20
814.2932461335
 30
0.0
 11
494.2589520562
 21
814.0432461335
 31
0.0
  0
LINE
  5
D6
330
87
100
AcDbEntity
  8
DV1_Default
  6
Continuous
 62
     7
100
AcDbLine
 10
494.0089520562
 20
813.8267397825
 30
0.0
 11
494.0089520562
 21
814.0767397825
 31
0.0
  0
LINE
  5
D7
330
87
100
AcDbEntity
  8
DV1_Default
  6
Continuous
 62
     7
100
AcDbLine
 10
490.5089520562
 20
813.8267397825
 30
0.0
 11
494.0089520562
 21
813.8267397825
 31
0.0
  0
ELLIPSE
  5
D8
330
87
100
AcDbEntity
  8
DV1_Default
  6
Continuous
 62
     7
100
AcDbEllipse
 10
494.0089520562
 20
814.9427651863
 30
0.0
 11
-0.250000000000028
 21
0.0
 31
0.0
210
0.0
220
0.0
230
1.0
 40
0.5
 41
4.038981999384008
 42
4.71238898038469
  0
LINE
  5
D9
330
87
100
AcDbEntity
  8
DV1_Default
  6
Continuous
 62
     7
100
AcDbLine
 10
494.0089520562
 20
814.4182461335
 30
0.0
 11
494.0089520562
 21
815.0677651863
 31
0.0
  0
LINE
  5
DA
330
87
100
AcDbEntity
  8
DV1_Default
  6
Continuous
 62
     7
100
AcDbLine
 10
494.2589520562
 20
814.9347270372
 30
0.0
 11
494.2589520562
 21
814.2932461335
 31
0.0
  0
SPLINE
  5
DB
330
87
100
AcDbEntity
  8
DV1_Default
  6
Continuous
 62
     7
100
AcDbSpline
210
0.0
220
0.0
230
1.0
 70
     8
 71
     3
 72
     8
 73
     4
 74
     0
 42
0.0000000635044992
 43
0.0000000001
 40
0.0
 40
0.0
 40
0.0
 40
0.0
 40
1.0
 40
1.0
 40
1.0
 40
1.0
 10
494.16486526704
 20
815.0404778654723
 30
0.0
 10
494.2238131387601
 20
815.0144835655881
 30
0.0
 10
494.2589520562052
 20
814.9746660233899
 30
0.0
 10
494.258952056204
 20
814.9347270372361
 30
0.0
  0
LINE
  5
DC
330
87
100
AcDbEntity
  8
DV1_Default
  6
Continuous
 62
     7
100
AcDbLine
 10
490.5089520562
 20
814.4182461335
 30
0.0
 11
494.0089520562
 21
814.4182461335
 31
0.0
  0
LINE
  5
DD
330
87
100
AcDbEntity
  8
DV1_Default
  6
Continuous
 62
     7
100
AcDbLine
 10
494.0089520562
 20
814.0767397825
 30
0.0
 11
490.5089520562
 21
814.0767397825
 31
0.0
  0
LINE
  5
DE
330
87
100
AcDbEntity
  8
DV1_Default
  6
Continuous
 62
     7
100
AcDbLine
 10
490.5089520562
 20
814.0767397825
 30
0.0
 11
490.5089520562
 21
813.8267397825
 31
0.0
  0
LINE
  5
DF
330
87
100
AcDbEntity
  8
DV1_Default
  6
Continuous
 62
     7
100
AcDbLine
 10
490.2589520562
 20
814.0432461335
 30
0.0
 11
490.2589520562
 21
814.2932461335
 31
0.0
  0
LINE
  5
E0
330
87
100
AcDbEntity
  8
DV1_Default
  6
Continuous
 62
     7
100
AcDbLine
 10
490.5089520562
 20
815.0677651863
 30
0.0
 11
490.5089520562
 21
814.4182461335
 31
0.0
  0
ELLIPSE
  5
E1
330
87
100
AcDbEntity
  8
DV1_Default
  6
Continuous
 62
     7
100
AcDbEllipse
 10
490.5089520562
 20
814.9427651863
 30
0.0
 11
-0.250000000000028
 21
5.551115123125783E-14
 31
0.0
210
0.0
220
0.0
230
1.0
 40
0.5
 41
4.712388980385255
 42
5.385795961386064
  0
SPLINE
  5
E2
330
87
100
AcDbEntity
  8
DV1_Default
  6
Continuous
 62
     7
100
AcDbSpline
210
0.0
220
0.0
230
1.0
 70
     8
 71
     3
 72
     8
 73
     4
 74
     0
 42
0.000000063504507
 43
0.0000000001
 40
0.0
 40
0.0
 40
0.0
 40
0.0
 40
1.0
 40
1.0
 40
1.0
 40
1.0
 10
490.258952056204
 20
814.9347270372361
 30
0.0
 10
490.258952056204
 20
814.9746661188424
 30
0.0
 10
490.2940914016992
 20
815.0144837543467
 30
0.0
 10
490.353038845368
 20
815.0404778654723
 30
0.0
  0
LINE
  5
E3
330
87
100
AcDbEntity
  8
DV1_Default
  6
Continuous
 62
     7
100
AcDbLine
 10
490.2589520562
 20
814.2932461335
 30
0.0
 11
490.2589520562
 21
814.9347270372
 31
0.0
  0
LINE
  5
E4
330
87
100
AcDbEntity
  8
DV1_Default
  6
Continuous
 62
     7
100
AcDbLine
 10
494.0089520562
 20
815.0677651863
 30
0.0
 11
490.5089520562
 21
815.0677651863
 31
0.0
  0
LINE
  5
E5
330
87
100
AcDbEntity
  8
DV1_Default
  6
Continuous
 62
     7
100
AcDbLine
 10
485.0089520562
 20
816.1540000452
 30
0.0
 11
490.0089520562
 21
816.1540000452
 31
0.0
  0
LINE
  5
E6
330
87
100
AcDbEntity
  8
DV1_Default
  6
Continuous
 62
     7
100
AcDbLine
 10
490.0089520562
 20
826.1540000452
 30
0.0
 11
485.0089520562
 21
826.1540000452
 31
0.0
  0
LINE
  5
E7
330
87
100
AcDbEntity
  8
DV1_Default
  6
Continuous
 62
     7
100
AcDbLine
 10
494.1290817894
 20
813.8240000452
 30
0.0
 11
497.0089520562
 21
813.8240000452
 31
0.0
  0
LINE
  5
E8
330
87
100
AcDbEntity
  8
DV1_Default
  6
Continuous
 62
     7
100
AcDbLine
 10
497.0089520562
 20
828.4840000452
 30
0.0
 11
494.1290817894
 21
828.4840000452
 31
0.0
  0
LINE
  5
E9
330
87
100
AcDbEntity
  8
DV1_Default
  6
Continuous
 62
     7
100
AcDbLine
 10
490.388822323
 20
828.4840000452
 30
0.0
 11
490.0089520562
 21
828.4840000452
 31
0.0
  0
LINE
  5
EA
330
87
100
AcDbEntity
  8
DV1_Default
  6
Continuous
 62
     7
100
AcDbLine
 10
497.0089520562
 20
813.8240000452
 30
0.0
 11
498.0089520562
 21
814.4013503144
 31
0.0
  0
LINE
  5
EB
330
87
100
AcDbEntity
  8
DV1_Default
  6
Continuous
 62
     7
100
AcDbLine
 10
498.0089520562
 20
827.906649776
 30
0.0
 11
497.0089520562
 21
828.4840000452
 31
0.0
  0
ARC
  5
EC
330
87
100
AcDbEntity
  8
DV1_Default
  6
Continuous
 62
     7
100
AcDbCircle
 10
494.0089520562
 20
828.264753957
 30
0.0
 40
0.2500000000000002
100
AcDbArc
 50
0.0
 51
90.0
  0
ARC
  5
ED
330
87
100
AcDbEntity
  8
DV1_Default
  6
Continuous
 62
     7
100
AcDbCircle
 10
490.5089520562
 20
828.264753957
 30
0.0
 40
0.250000000000028
100
AcDbArc
 50
90.0
 51
180.0
  0
LINE
  5
EE
330
87
100
AcDbEntity
  8
DV1_Default
  6
Continuous
 62
     7
100
AcDbLine
 10
494.0089520562
 20
828.514753957
 30
0.0
 11
490.5089520562
 21
828.514753957
 31
0.0
  0
ARC
  5
EF
330
87
100
AcDbEntity
  8
DV1_Default
  6
Continuous
 62
     7
100
AcDbCircle
 10
494.0089520562
 20
814.0432461335
 30
0.0
 40
0.2499999999999725
100
AcDbArc
 50
270.0
 51
0.0
  0
LINE
  5
F0
330
87
100
AcDbEntity
  8
DV1_Default
  6
Continuous
 62
     7
100
AcDbLine
 10
490.5089520562
 20
813.7932461335
 30
0.0
 11
494.0089520562
 21
813.7932461335
 31
0.0
  0
LINE
  5
F1
330
87
100
AcDbEntity
  8
DV1_Default
  6
Continuous
 62
     7
100
AcDbLine
 10
490.0089520562
 20
816.7675000452
 30
0.0
 11
485.0089520562
 21
816.7675000452
 31
0.0
  0
LINE
  5
F2
330
87
100
AcDbEntity
  8
DV1_Default
  6
Continuous
 62
     7
100
AcDbLine
 10
490.0089520562
 20
825.5405000452
 30
0.0
 11
485.0089520562
 21
825.5405000452
 31
0.0
  0
LINE
  5
F3
330
87
100
AcDbEntity
  8
DV1_Default
  6
Continuous
 62
     7
100
AcDbLine
 10
478.0089520562
 20
834.1540000452
 30
0.0
 11
478.0089520562
 21
808.1540000452
 31
0.0
  0
LINE
  5
F4
330
87
100
AcDbEntity
  8
DV1_Default
  6
Continuous
 62
     7
100
AcDbLine
 10
479.5089520562
 20
808.1540000452
 30
0.0
 11
479.5089520562
 21
834.1540000452
 31
0.0
  0
LINE
  5
F5
330
87
100
AcDbEntity
  8
DV1_Default
  6
Continuous
 62
     7
100
AcDbLine
 10
480.0089520562
 20
833.6540000452
 30
0.0
 11
480.0089520562
 21
808.6540000452
 31
0.0
  0
LINE
  5
F6
330
87
100
AcDbEntity
  8
DV1_Default
  6
Continuous
 62
     7
100
AcDbLine
 10
483.6604462802
 20
830.6540000452
 30
0.0
 11
480.0089520562
 21
830.6540000452
 31
0.0
  0
LINE
  5
F7
330
87
100
AcDbEntity
  8
DV1_Default
  6
Continuous
 62
     7
100
AcDbLine
 10
483.6604462802
 20
821.1540000452
 30
0.0
 11
480.0089520562
 21
821.1540000452
 31
0.0
  0
LINE
  5
F8
330
87
100
AcDbEntity
  8
DV1_Default
  6
Continuous
 62
     7
100
AcDbLine
 10
483.6604462802
 20
811.6540000452
 30
0.0
 11
480.0089520562
 21
811.6540000452
 31
0.0
  0
LINE
  5
F9
330
87
100
AcDbEntity
  8
DV1_Default
  6
Continuous
 62
     7
100
AcDbLine
 10
483.6604462802
 20
811.6540000452
 30
0.0
 11
484.5089519459
 21
811.6540000452
 31
0.0
  0
ARC
  5
FA
330
87
100
AcDbEntity
  8
DV1_Default
  6
Continuous
 62
     7
100
AcDbCircle
 10
470.6693962677
 20
816.4040000452
 30
0.0
 40
13.83220446738994
100
AcDbArc
 50
339.9157510623
 51
20.0842489377
  0
ARC
  5
FB
330
87
100
AcDbEntity
  8
DV1_Default
  6
Continuous
 62
     7
100
AcDbCircle
 10
470.6693962677
 20
825.9040000452
 30
0.0
 40
13.83220446739005
100
AcDbArc
 50
339.9157510623
 51
20.0842489377
  0
LINE
  5
FC
330
87
100
AcDbEntity
  8
DV1_Default
  6
Continuous
 62
     7
100
AcDbLine
 10
483.6604462802
 20
830.6540000452
 30
0.0
 11
484.5089519459
 21
830.6540000452
 31
0.0
  0
LINE
  5
FD
330
87
100
AcDbEntity
  8
DV1_Default
  6
Continuous
 62
     7
100
AcDbLine
 10
485.0089520562
 20
829.7879746414
 30
0.0
 11
485.0089520562
 21
812.520025449
 31
0.0
  0
LINE
  5
FE
330
87
100
AcDbEntity
  8
DV1_Default
  6
Continuous
 62
     7
100
AcDbLine
 10
478.0089520562
 20
808.1540000452
 30
0.0
 11
479.5089520562
 21
808.1540000452
 31
0.0
  0
LINE
  5
FF
330
87
100
AcDbEntity
  8
DV1_Default
  6
Continuous
 62
     7
100
AcDbLine
 10
479.5089520562
 20
834.1540000452
 30
0.0
 11
478.0089520562
 21
834.1540000452
 31
0.0
  0
ARC
  5
100
330
87
100
AcDbEntity
  8
DV1_Default
  6
Continuous
 62
     7
100
AcDbCircle
 10
479.5089520562
 20
808.6540000452
 30
0.0
 40
0.5000000000000004
100
AcDbArc
 50
270.0
 51
0.0
  0
ARC
  5
101
330
87
100
AcDbEntity
  8
DV1_Default
  6
Continuous
 62
     7
100
AcDbCircle
 10
479.5089520562
 20
833.6540000452
 30
0.0
 40
0.5000000000000004
100
AcDbArc
 50
0.0
 51
90.0
  0
LINE
  5
102
330
87
100
AcDbEntity
  8
DV1_Default
  6
Continuous
 62
     7
100
AcDbLine
 10
484.5089520562
 20
811.6540000452
 30
0.0
 11
485.0089520562
 21
812.520025449
 31
0.0
  0
LINE
  5
103
330
87
100
AcDbEntity
  8
DV1_Default
  6
Continuous
 62
     7
100
AcDbLine
 10
485.0089520562
 20
829.7879746414
 30
0.0
 11
484.5089520562
 21
830.6540000452
 31
0.0
  0
LINE
  5
104
330
87
100
AcDbEntity
  8
DV1_Default
  6
Continuous
 62
     7
100
AcDbLine
 10
397.8422853895
 20
363.1540000452
 30
0.0
 11
384.5089520562
 21
363.1540000452
 31
0.0
  0
LINE
  5
105
330
87
100
AcDbEntity
  8
DV1_Default
  6
Continuous
 62
     7
100
AcDbLine
 10
397.8422853895
 20
363.1540000452
 30
0.0
 11
397.8422853895
 21
348.1540000452
 31
0.0
  0
LINE
  5
106
330
87
100
AcDbEntity
  8
DV1_Default
  6
Continuous
 62
     7
100
AcDbLine
 10
397.8422853895
 20
348.1540000452
 30
0.0
 11
411.1756187229
 21
348.1540000452
 31
0.0
  0
LINE
  5
107
330
87
100
AcDbEntity
  8
DV1_Default
  6
Continuous
 62
     7
100
AcDbLine
 10
411.1756187229
 20
348.1540000452
 30
0.0
 11
411.1756187229
 21
363.1540000452
 31
0.0
  0
LINE
  5
108
330
87
100
AcDbEntity
  8
DV1_Default
  6
Continuous
 62
     7
100
AcDbLine
 10
411.1756187229
 20
363.1540000452
 30
0.0
 11
424.5089520562
 21
363.1540000452
 31
0.0
  0
LINE
  5
109
330
87
100
AcDbEntity
  8
DV1_Default
  6
Continuous
 62
     7
100
AcDbLine
 10
414.5089520562
 20
358.1540000452
 30
0.0
 11
419.5089520562
 21
358.1540000452
 31
0.0
  0
LINE
  5
10A
330
87
100
AcDbEntity
  8
DV1_Default
  6
Continuous
 62
     7
100
AcDbLine
 10
414.5089520562
 20
358.7250902165
 30
0.0
 11
414.5089520562
 21
348.1540000452
 31
0.0
  0
LINE
  5
10B
330
87
100
AcDbEntity
  8
DV1_Default
  6
Continuous
 62
     7
100
AcDbLine
 10
409.5089520562
 20
343.1540000452
 30
0.0
 11
399.5089520562
 21
343.1540000452
 31
0.0
  0
LINE
  5
10C
330
87
100
AcDbEntity
  8
DV1_Default
  6
Continuous
 62
     7
100
AcDbLine
 10
394.5089520562
 20
348.1540000452
 30
0.0
 11
394.5089520562
 21
358.7250902165
 31
0.0
  0
LINE
  5
10D
330
87
100
AcDbEntity
  8
DV1_Default
  6
Continuous
 62
     7
100
AcDbLine
 10
389.5089520562
 20
358.1540000452
 30
0.0
 11
394.5089520562
 21
358.1540000452
 31
0.0
  0
SPLINE
  5
10E
330
87
100
AcDbEntity
  8
DV1_Default
  6
Continuous
 62
     7
100
AcDbSpline
210
0.0
220
0.0
230
1.0
 70
     8
 71
     3
 72
    22
 73
    18
 74
     0
 42
0.0000000017707937
 43
0.0000000001
 40
0.0
 40
0.0
 40
0.0
 40
0.0
 40
0.0625
 40
0.0625
 40
0.1249999999999998
 40
0.1249999999999998
 40
0.2500000000000001
 40
0.2500000000000001
 40
0.3750000000000003
 40
0.3750000000000003
 40
0.5000000000000006
 40
0.5000000000000006
 40
0.6250000000000009
 40
0.6250000000000009
 40
0.7500000000000011
 40
0.7500000000000011
 40
1.0
 40
1.0
 40
1.0
 40
1.0
 10
397.8422853895373
 20
363.1540000452333
 30
0.0
 10
397.7299991234858
 20
363.0508584895017
 30
0.0
 10
397.6167747458113
 20
362.9455237915394
 30
0.0
 10
397.3962236013325
 20
362.7374390002405
 30
0.0
 10
397.287659170021
 20
362.6335533704726
 30
0.0
 10
396.9672605517607
 20
362.3222180478295
 30
0.0
 10
396.7608531290687
 20
362.1151692377006
 30
0.0
 10
396.3695001940954
 20
361.707689871883
 30
0.0
 10
396.1836794475431
 20
361.5064319713246
 30
0.0
 10
395.8330888859002
 20
361.1083130833075
 30
0.0
 10
395.6676479246449
 20
360.9106074794866
 30
0.0
 10
395.3635392396187
 20
360.523248043142
 30
0.0
 10
395.2258927383069
 20
360.3350090225043
 30
0.0
 10
394.9816037902006
 20
359.9694870838458
 30
0.0
 10
394.8745963891558
 20
359.7915582510461
 30
0.0
 10
394.6092327029378
 20
359.2800056515104
 30
0.0
 10
394.508952056204
 20
358.9771545892636
 30
0.0
 10
394.508952056204
 20
358.7250902165437
 30
0.0
  0
ARC
  5
10F
330
87
100
AcDbEntity
  8
DV1_Default
  6
Continuous
 62
     7
100
AcDbCircle
 10
399.5089520562
 20
348.1540000452
 30
0.0
 40
5.000000000000004
100
AcDbArc
 50
180.0
 51
270.0
  0
LINE
  5
110
330
87
100
AcDbEntity
  8
DV1_Default
  6
Continuous
 62
     7
100
AcDbLine
 10
397.8422853895
 20
348.1540000452
 30
0.0
 11
394.5089520562
 21
348.1540000452
 31
0.0
  0
ELLIPSE
  5
111
330
87
100
AcDbEntity
  8
DV1_Default
  6
Continuous
 62
     7
100
AcDbEllipse
 10
399.5089520562
 20
348.1540000452
 30
0.0
 11
0.0
 21
1.666666666666686
 31
0.0
210
0.0
220
0.0
230
1.0
 40
1.0
 41
1.570796326794897
 42
3.141592653589793
  0
ARC
  5
112
330
87
100
AcDbEntity
  8
DV1_Default
  6
Continuous
 62
     7
100
AcDbCircle
 10
409.5089520562
 20
348.1540000452
 30
0.0
 40
5.000000000000001
100
AcDbArc
 50
270.0
 51
0.0
  0
ELLIPSE
  5
113
330
87
100
AcDbEntity
  8
DV1_Default
  6
Continuous
 62
     7
100
AcDbEllipse
 10
409.5089520562
 20
348.1540000452
 30
0.0
 11
0.0
 21
5.0
 31
0.0
210
0.0
220
0.0
230
1.0
 40
1.0
 41
3.141592653589793
 42
4.71238898038469
  0
LINE
  5
114
330
87
100
AcDbEntity
  8
DV1_Default
  6
Continuous
 62
     7
100
AcDbLine
 10
411.1756187229
 20
348.1540000452
 30
0.0
 11
414.5089520562
 21
348.1540000452
 31
0.0
  0
SPLINE
  5
115
330
87
100
AcDbEntity
  8
DV1_Default
  6
Continuous
 62
     7
100
AcDbSpline
210
0.0
220
0.0
230
1.0
 70
     8
 71
     3
 72
    22
 73
    18
 74
     0
 42
0.0000000017707937
 43
0.0000000001
 40
0.0
 40
0.0
 40
0.0
 40
0.0
 40
0.0625
 40
0.0625
 40
0.1250000000000001
 40
0.1250000000000001
 40
0.2500000000000003
 40
0.2500000000000003
 40
0.3750000000000007
 40
0.3750000000000007
 40
0.5000000000000008
 40
0.5000000000000008
 40
0.625000000000001
 40
0.625000000000001
 40
0.7500000000000012
 40
0.7500000000000012
 40
1.0
 40
1.0
 40
1.0
 40
1.0
 10
411.1756187228706
 20
363.1540000452333
 30
0.0
 10
411.287904988919
 20
363.0508584894978
 30
0.0
 10
411.4011293665966
 20
362.9455237915394
 30
0.0
 10
411.6216805110753
 20
362.7374390002404
 30
0.0
 10
411.7302449423869
 20
362.6335533704726
 30
0.0
 10
412.0506435606472
 20
362.3222180478295
 30
0.0
 10
412.2570509833391
 20
362.1151692377006
 30
0.0
 10
412.6484039183125
 20
361.707689871883
 30
0.0
 10
412.8342246648648
 20
361.5064319713246
 30
0.0
 10
413.1848152265077
 20
361.1083130833075
 30
0.0
 10
413.350256187763
 20
360.9106074794866
 30
0.0
 10
413.6543648727893
 20
360.523248043142
 30
0.0
 10
413.792011374101
 20
360.3350090225042
 30
0.0
 10
414.0363003222074
 20
359.9694870838458
 30
0.0
 10
414.1433077232521
 20
359.7915582510461
 30
0.0
 10
414.4086714094701
 20
359.2800056515104
 30
0.0
 10
414.508952056204
 20
358.9771545892636
 30
0.0
 10
414.508952056204
 20
358.7250902165437
 30
0.0
  0
LINE
  5
116
330
87
100
AcDbEntity
  8
DV1_Default
  6
Continuous
 62
     7
100
AcDbLine
 10
384.5089520562
 20
373.1540000452
 30
0.0
 11
384.5089520562
 21
363.1540000452
 31
0.0
  0
LINE
  5
117
330
87
100
AcDbEntity
  8
DV1_Default
  6
Continuous
 62
     7
100
AcDbLine
 10
424.5089520562
 20
363.1540000452
 30
0.0
 11
424.5089520562
 21
373.1540000452
 31
0.0
  0
ARC
  5
118
330
87
100
AcDbEntity
  8
DV1_Default
  6
Continuous
 62
     7
100
AcDbCircle
 10
389.5089520562
 20
363.1540000452
 30
0.0
 40
4.999999999999977
100
AcDbArc
 50
180.0
 51
270.0
  0
ARC
  5
119
330
87
100
AcDbEntity
  8
DV1_Default
  6
Continuous
 62
     7
100
AcDbCircle
 10
419.5089520562
 20
363.1540000452
 30
0.0
 40
5.000000000000001
100
AcDbArc
 50
270.0
 51
0.0
  0
LINE
  5
11A
330
87
100
AcDbEntity
  8
DV1_Default
  6
Continuous
 62
     7
100
AcDbLine
 10
436.5089520562
 20
848.9040000452
 30
0.0
 11
462.5089520562
 21
848.9040000452
 31
0.0
  0
LINE
  5
11B
330
87
100
AcDbEntity
  8
DV1_Default
  6
Continuous
 62
     7
100
AcDbLine
 10
436.5089520562
 20
850.4040000452
 30
0.0
 11
462.5089520562
 21
850.4040000452
 31
0.0
  0
LINE
  5
11C
330
87
100
AcDbEntity
  8
DV1_Default
  6
Continuous
 62
     7
100
AcDbLine
 10
437.0089520562
 20
850.9040000452
 30
0.0
 11
462.0089520562
 21
850.9040000452
 31
0.0
  0
LINE
  5
11D
330
87
100
AcDbEntity
  8
DV1_Default
  6
Continuous
 62
     7
100
AcDbLine
 10
440.0089520562
 20
854.5554942692
 30
0.0
 11
440.0089520562
 21
850.9040000452
 31
0.0
  0
LINE
  5
11E
330
87
100
AcDbEntity
  8
DV1_Default
  6
Continuous
 62
     7
100
AcDbLine
 10
449.5089520562
 20
854.5554942692
 30
0.0
 11
449.5089520562
 21
850.9040000452
 31
0.0
  0
LINE
  5
11F
330
87
100
AcDbEntity
  8
DV1_Default
  6
Continuous
 62
     7
100
AcDbLine
 10
459.0089520562
 20
854.5554942692
 30
0.0
 11
459.0089520562
 21
850.9040000452
 31
0.0
  0
LINE
  5
120
330
87
100
AcDbEntity
  8
DV1_Default
  6
Continuous
 62
     7
100
AcDbLine
 10
459.0089520562
 20
854.5554942692
 30
0.0
 11
459.0089520562
 21
855.4039999349
 31
0.0
  0
ARC
  5
121
330
87
100
AcDbEntity
  8
DV1_Default
  6
Continuous
 62
     7
100
AcDbCircle
 10
454.2589520562
 20
841.5644442567
 30
0.0
 40
13.83220446738993
100
AcDbArc
 50
69.9157510623
 51
110.0842489377
  0
ARC
  5
122
330
87
100
AcDbEntity
  8
DV1_Default
  6
Continuous
 62
     7
100
AcDbCircle
 10
444.7589520562
 20
841.5644442567
 30
0.0
 40
13.83220446738998
100
AcDbArc
 50
69.9157510623
 51
110.0842489377
  0
LINE
  5
123
330
87
100
AcDbEntity
  8
DV1_Default
  6
Continuous
 62
     7
100
AcDbLine
 10
440.0089520562
 20
854.5554942692
 30
0.0
 11
440.0089520562
 21
855.4039999349
 31
0.0
  0
LINE
  5
124
330
87
100
AcDbEntity
  8
DV1_Default
  6
Continuous
 62
     7
100
AcDbLine
 10
440.87497746
 20
855.9040000452
 30
0.0
 11
458.1429266524
 21
855.9040000452
 31
0.0
  0
LINE
  5
125
330
87
100
AcDbEntity
  8
DV1_Default
  6
Continuous
 62
     7
100
AcDbLine
 10
462.5089520562
 20
848.9040000452
 30
0.0
 11
462.5089520562
 21
850.4040000452
 31
0.0
  0
LINE
  5
126
330
87
100
AcDbEntity
  8
DV1_Default
  6
Continuous
 62
     7
100
AcDbLine
 10
436.5089520562
 20
850.4040000452
 30
0.0
 11
436.5089520562
 21
848.9040000452
 31
0.0
  0
ARC
  5
127
330
87
100
AcDbEntity
  8
DV1_Default
  6
Continuous
 62
     7
100
AcDbCircle
 10
462.0089520562
 20
850.4040000452
 30
0.0
 40
0.5000000000000004
100
AcDbArc
 50
0.0
 51
90.0
  0
ARC
  5
128
330
87
100
AcDbEntity
  8
DV1_Default
  6
Continuous
 62
     7
100
AcDbCircle
 10
437.0089520562
 20
850.4040000452
 30
0.0
 40
0.5000000000000004
100
AcDbArc
 50
90.0
 51
180.0
  0
LINE
  5
129
330
87
100
AcDbEntity
  8
DV1_Default
  6
Continuous
 62
     7
100
AcDbLine
 10
459.0089520562
 20
855.4040000452
 30
0.0
 11
458.1429266524
 21
855.9040000452
 31
0.0
  0
LINE
  5
12A
330
87
100
AcDbEntity
  8
DV1_Default
  6
Continuous
 62
     7
100
AcDbLine
 10
440.87497746
 20
855.9040000452
 30
0.0
 11
440.0089520562
 21
855.4040000452
 31
0.0
  0
LINE
  5
12B
330
87
100
AcDbEntity
  8
DV1_Default
  6
Continuous
 62
     7
100
AcDbLine
 10
449.5089520562
 20
821.1540000452
 30
0.0
 11
460.5089520562
 21
808.1540000452
 31
0.0
  0
LINE
  5
12C
330
87
100
AcDbEntity
  8
DV1_Default
  6
Continuous
 62
     7
100
AcDbLine
 10
449.5089520562
 20
821.1540000452
 30
0.0
 11
460.5089520562
 21
834.1540000452
 31
0.0
  0
LINE
  5
12D
330
87
100
AcDbEntity
  8
DV1_Default
  6
Continuous
 62
     7
100
AcDbLine
 10
449.5089520562
 20
821.1540000452
 30
0.0
 11
462.5089520562
 21
810.1540000452
 31
0.0
  0
LINE
  5
12E
330
87
100
AcDbEntity
  8
DV1_Default
  6
Continuous
 62
     7
100
AcDbLine
 10
449.5089520562
 20
821.1540000452
 30
0.0
 11
462.5089520562
 21
832.1540000452
 31
0.0
  0
LINE
  5
12F
330
87
100
AcDbEntity
  8
DV1_Default
  6
Continuous
 62
     7
100
AcDbLine
 10
462.2589520562
 20
793.4040000452
 30
0.0
 11
436.7589520562
 21
793.4040000452
 31
0.0
  0
LINE
  5
130
330
87
100
AcDbEntity
  8
DV1_Default
  6
Continuous
 62
     7
100
AcDbLine
 10
436.0089520562
 20
794.1540000452
 30
0.0
 11
463.0089520562
 21
794.1540000452
 31
0.0
  0
LINE
  5
131
330
87
100
AcDbEntity
  8
DV1_Default
  6
Continuous
 62
     7
100
AcDbLine
 10
477.2589520562
 20
807.6540000452
 30
0.0
 11
477.2589520562
 21
834.6540000452
 31
0.0
  0
LINE
  5
132
330
87
100
AcDbEntity
  8
DV1_Default
  6
Continuous
 62
     7
100
AcDbLine
 10
474.2998390246
 20
807.8294667129
 30
0.0
 11
474.2998390246
 21
834.4785333776
 31
0.0
  0
LINE
  5
133
330
87
100
AcDbEntity
  8
DV1_Default
  6
Continuous
 62
     7
100
AcDbLine
 10
474.7819297319
 20
834.6540000452
 30
0.0
 11
474.7819297319
 21
807.6540000452
 31
0.0
  0
LINE
  5
134
330
87
100
AcDbEntity
  8
DV1_Default
  6
Continuous
 62
     7
100
AcDbLine
 10
471.256590399
 20
810.1540000452
 30
0.0
 11
471.256590399
 21
832.1540000452
 31
0.0
  0
LINE
  5
135
330
87
100
AcDbEntity
  8
DV1_Default
  6
Continuous
 62
     7
100
AcDbLine
 10
471.7386811063
 20
832.3294667129
 30
0.0
 11
471.7386811063
 21
809.9785333776
 31
0.0
  0
LINE
  5
136
330
87
100
AcDbEntity
  8
DV1_Default
  6
Continuous
 62
     7
100
AcDbLine
 10
463.0089520562
 20
848.1540000452
 30
0.0
 11
436.0089520562
 21
848.1540000452
 31
0.0
  0
LINE
  5
137
330
87
100
AcDbEntity
  8
DV1_Default
  6
Continuous
 62
     7
100
AcDbLine
 10
462.908471109
 20
845.2299619396
 30
0.0
 11
436.1094330034
 21
845.2299619396
 31
0.0
  0
LINE
  5
138
330
87
100
AcDbEntity
  8
DV1_Default
  6
Continuous
 62
     7
100
AcDbLine
 10
436.0089520562
 20
845.6049619396
 30
0.0
 11
463.0089520562
 21
845.6049619396
 31
0.0
  0
LINE
  5
139
330
87
100
AcDbEntity
  8
DV1_Default
  6
Continuous
 62
     7
100
AcDbLine
 10
460.5089520562
 20
840.872911132
 30
0.0
 11
438.5089520562
 21
840.872911132
 31
0.0
  0
LINE
  5
13A
330
87
100
AcDbEntity
  8
DV1_Default
  6
Continuous
 62
     7
100
AcDbLine
 10
438.408471109
 20
841.247911132
 30
0.0
 11
460.6094330034
 21
841.247911132
 31
0.0
  0
LINE
  5
13B
330
87
100
AcDbEntity
  8
DV1_Default
  6
Continuous
 62
     7
100
AcDbLine
 10
460.6094330034
 20
801.0600889585
 30
0.0
 11
438.408471109
 21
801.0600889585
 31
0.0
  0
LINE
  5
13C
330
87
100
AcDbEntity
  8
DV1_Default
  6
Continuous
 62
     7
100
AcDbLine
 10
438.5089520562
 20
801.4350889585
 30
0.0
 11
460.5089520562
 21
801.4350889585
 31
0.0
  0
LINE
  5
13D
330
87
100
AcDbEntity
  8
DV1_Default
  6
Continuous
 62
     7
100
AcDbLine
 10
463.0089520562
 20
796.7030381509
 30
0.0
 11
436.0089520562
 21
796.7030381509
 31
0.0
  0
LINE
  5
13E
330
87
100
AcDbEntity
  8
DV1_Default
  6
Continuous
 62
     7
100
AcDbLine
 10
436.1094330034
 20
797.0780381509
 30
0.0
 11
462.908471109
 21
797.0780381509
 31
0.0
  0
LINE
  5
13F
330
87
100
AcDbEntity
  8
DV1_Default
  6
Continuous
 62
     7
100
AcDbLine
 10
463.0089520562
 20
845.6049619396
 30
0.0
 11
463.0089520562
 21
848.1540000452
 31
0.0
  0
LINE
  5
140
330
87
100
AcDbEntity
  8
DV1_Default
  6
Continuous
 62
     7
100
AcDbLine
 10
436.0089520562
 20
848.1540000452
 30
0.0
 11
436.0089520562
 21
845.6049619396
 31
0.0
  0
LINE
  5
141
330
87
100
AcDbEntity
  8
DV1_Default
  6
Continuous
 62
     7
100
AcDbLine
 10
436.1094330034
 20
845.2299619396
 30
0.0
 11
438.408471109
 21
841.247911132
 31
0.0
  0
LINE
  5
142
330
87
100
AcDbEntity
  8
DV1_Default
  6
Continuous
 62
     7
100
AcDbLine
 10
460.6094330034
 20
841.247911132
 30
0.0
 11
462.908471109
 21
845.2299619396
 31
0.0
  0
LINE
  5
143
330
87
100
AcDbEntity
  8
DV1_Default
  6
Continuous
 62
     7
100
AcDbLine
 10
460.5089520562
 20
834.1540000452
 30
0.0
 11
460.5089520562
 21
840.872911132
 31
0.0
  0
LINE
  5
144
330
87
100
AcDbEntity
  8
DV1_Default
  6
Continuous
 62
     7
100
AcDbLine
 10
460.5089520562
 20
801.4350889585
 30
0.0
 11
460.5089520562
 21
808.1540000452
 31
0.0
  0
LINE
  5
145
330
87
100
AcDbEntity
  8
DV1_Default
  6
Continuous
 62
     7
100
AcDbLine
 10
438.5089520562
 20
840.872911132
 30
0.0
 11
438.5089520562
 21
801.4350889585
 31
0.0
  0
LINE
  5
146
330
87
100
AcDbEntity
  8
DV1_Default
  6
Continuous
 62
     7
100
AcDbLine
 10
462.908471109
 20
797.0780381509
 30
0.0
 11
460.6094330034
 21
801.0600889585
 31
0.0
  0
LINE
  5
147
330
87
100
AcDbEntity
  8
DV1_Default
  6
Continuous
 62
     7
100
AcDbLine
 10
438.408471109
 20
801.0600889585
 30
0.0
 11
436.1094330034
 21
797.0780381509
 31
0.0
  0
LINE
  5
148
330
87
100
AcDbEntity
  8
DV1_Default
  6
Continuous
 62
     7
100
AcDbLine
 10
463.0089520562
 20
794.1540000452
 30
0.0
 11
463.0089520562
 21
796.7030381509
 31
0.0
  0
LINE
  5
149
330
87
100
AcDbEntity
  8
DV1_Default
  6
Continuous
 62
     7
100
AcDbLine
 10
436.0089520562
 20
796.7030381509
 30
0.0
 11
436.0089520562
 21
794.1540000452
 31
0.0
  0
LINE
  5
14A
330
87
100
AcDbEntity
  8
DV1_Default
  6
Continuous
 62
     7
100
AcDbLine
 10
462.5089520562
 20
810.1540000452
 30
0.0
 11
471.256590399
 21
810.1540000452
 31
0.0
  0
LINE
  5
14B
330
87
100
AcDbEntity
  8
DV1_Default
  6
Continuous
 62
     7
100
AcDbLine
 10
471.256590399
 20
832.1540000452
 30
0.0
 11
462.5089520562
 21
832.1540000452
 31
0.0
  0
LINE
  5
14C
330
87
100
AcDbEntity
  8
DV1_Default
  6
Continuous
 62
     7
100
AcDbLine
 10
474.7819297319
 20
807.6540000452
 30
0.0
 11
477.2589520562
 21
807.6540000452
 31
0.0
  0
LINE
  5
14D
330
87
100
AcDbEntity
  8
DV1_Default
  6
Continuous
 62
     7
100
AcDbLine
 10
477.2589520562
 20
834.6540000452
 30
0.0
 11
474.7819297319
 21
834.6540000452
 31
0.0
  0
LINE
  5
14E
330
87
100
AcDbEntity
  8
DV1_Default
  6
Continuous
 62
     7
100
AcDbLine
 10
474.2998390246
 20
834.4785333776
 30
0.0
 11
471.7386811063
 21
832.3294667129
 31
0.0
  0
LINE
  5
14F
330
87
100
AcDbEntity
  8
DV1_Default
  6
Continuous
 62
     7
100
AcDbLine
 10
471.7386811063
 20
809.9785333776
 30
0.0
 11
474.2998390246
 21
807.8294667129
 31
0.0
  0
ARC
  5
150
330
87
100
AcDbEntity
  8
DV1_Default
  6
Continuous
 62
     7
100
AcDbCircle
 10
462.5089520562
 20
834.1540000452
 30
0.0
 40
1.999999999999988
100
AcDbArc
 50
183.0625469991
 51
266.7278423586
  0
ARC
  5
151
330
87
100
AcDbEntity
  8
DV1_Default
  6
Continuous
 62
     7
100
AcDbCircle
 10
462.5089520562
 20
808.1540000452
 30
0.0
 40
2.000000000000015
100
AcDbArc
 50
93.0625469991
 51
176.7278423586
  0
ARC
  5
152
330
87
100
AcDbEntity
  8
DV1_Default
  6
Continuous
 62
     7
100
AcDbCircle
 10
462.2589520562
 20
794.1540000452
 30
0.0
 40
0.7499999999999729
100
AcDbArc
 50
270.0
 51
0.0
  0
ARC
  5
153
330
87
100
AcDbEntity
  8
DV1_Default
  6
Continuous
 62
     7
100
AcDbCircle
 10
436.7589520562
 20
794.1540000452
 30
0.0
 40
0.7500000000000007
100
AcDbArc
 50
180.0
 51
270.0
  0
ARC
  5
154
330
87
100
AcDbEntity
  8
DV1_Default
  6
Continuous
 62
     7
100
AcDbCircle
 10
477.2589520562
 20
808.4040000452
 30
0.0
 40
0.7500000000000284
100
AcDbArc
 50
270.0
 51
0.0
  0
ARC
  5
155
330
87
100
AcDbEntity
  8
DV1_Default
  6
Continuous
 62
     7
100
AcDbCircle
 10
477.2589520562
 20
833.9040000452
 30
0.0
 40
0.7500000000000007
100
AcDbArc
 50
0.0
 51
90.0
  0
ARC
  5
156
330
87
100
AcDbEntity
  8
DV1_Default
  6
Continuous
 62
     7
100
AcDbCircle
 10
474.7819297319
 20
833.9040000452
 30
0.0
 40
0.7500000000000284
100
AcDbArc
 50
90.0
 51
130.0
  0
ARC
  5
157
330
87
100
AcDbEntity
  8
DV1_Default
  6
Continuous
 62
     7
100
AcDbCircle
 10
474.7819297319
 20
808.4040000452
 30
0.0
 40
0.7500000000000164
100
AcDbArc
 50
230.0
 51
270.0
  0
ARC
  5
158
330
87
100
AcDbEntity
  8
DV1_Default
  6
Continuous
 62
     7
100
AcDbCircle
 10
471.256590399
 20
809.4040000452
 30
0.0
 40
0.7499999999999729
100
AcDbArc
 50
50.0
 51
90.0
  0
ARC
  5
159
330
87
100
AcDbEntity
  8
DV1_Default
  6
Continuous
 62
     7
100
AcDbCircle
 10
471.256590399
 20
832.9040000452
 30
0.0
 40
0.7499999999999738
100
AcDbArc
 50
270.0
 51
310.0
  0
ARC
  5
15A
330
87
100
AcDbEntity
  8
DV1_Default
  6
Continuous
 62
     7
100
AcDbCircle
 10
436.7589520562
 20
848.1540000452
 30
0.0
 40
0.7500000000000284
100
AcDbArc
 50
90.0
 51
180.0
  0
ARC
  5
15B
330
87
100
AcDbEntity
  8
DV1_Default
  6
Continuous
 62
     7
100
AcDbCircle
 10
462.2589520562
 20
848.1540000452
 30
0.0
 40
0.7500000000000007
100
AcDbArc
 50
0.0
 51
90.0
  0
ARC
  5
15C
330
87
100
AcDbEntity
  8
DV1_Default
  6
Continuous
 62
     7
100
AcDbCircle
 10
436.7589520562
 20
845.6049619396
 30
0.0
 40
0.7500000000000007
100
AcDbArc
 50
180.0
 51
210.0
  0
ARC
  5
15D
330
87
100
AcDbEntity
  8
DV1_Default
  6
Continuous
 62
     7
100
AcDbCircle
 10
462.2589520562
 20
845.6049619396
 30
0.0
 40
0.7500000000000098
100
AcDbArc
 50
330.0
 51
0.0
  0
ARC
  5
15E
330
87
100
AcDbEntity
  8
DV1_Default
  6
Continuous
 62
     7
100
AcDbCircle
 10
461.2589520562
 20
840.872911132
 30
0.0
 40
0.7500000000000007
100
AcDbArc
 50
150.0
 51
180.0
  0
ARC
  5
15F
330
87
100
AcDbEntity
  8
DV1_Default
  6
Continuous
 62
     7
100
AcDbCircle
 10
437.7589520562
 20
840.872911132
 30
0.0
 40
0.7499999999999821
100
AcDbArc
 50
0.0
 51
30.0
  0
ARC
  5
160
330
87
100
AcDbEntity
  8
DV1_Default
  6
Continuous
 62
     7
100
AcDbCircle
 10
461.2589520562
 20
801.4350889585
 30
0.0
 40
0.74999999999997
100
AcDbArc
 50
180.0
 51
210.0
  0
ARC
  5
161
330
87
100
AcDbEntity
  8
DV1_Default
  6
Continuous
 62
     7
100
AcDbCircle
 10
437.7589520562
 20
801.4350889585
 30
0.0
 40
0.7500000000000007
100
AcDbArc
 50
330.0
 51
0.0
  0
ARC
  5
162
330
87
100
AcDbEntity
  8
DV1_Default
  6
Continuous
 62
     7
100
AcDbCircle
 10
436.7589520562
 20
796.7030381509
 30
0.0
 40
0.7499999999999821
100
AcDbArc
 50
150.0
 51
180.0
  0
ARC
  5
163
330
87
100
AcDbEntity
  8
DV1_Default
  6
Continuous
 62
     7
100
AcDbCircle
 10
462.2589520562
 20
796.7030381509
 30
0.0
 40
0.7500000000000007
100
AcDbArc
 50
0.0
 51
30.0
  0
LINE
  5
164
330
87
100
AcDbEntity
  8
DV1_Default
  6
Continuous
 62
     7
100
AcDbLine
 10
424.5089520562
 20
789.1540000452
 30
0.0
 11
424.5089520562
 21
792.1540000452
 31
0.0
  0
LINE
  5
165
330
87
100
AcDbEntity
  8
DV1_Default
  6
Continuous
 62
     7
100
AcDbLine
 10
425.5089520562
 20
793.1540000452
 30
0.0
 11
473.5089520562
 21
793.1540000452
 31
0.0
  0
LINE
  5
166
330
87
100
AcDbEntity
  8
DV1_Default
  6
Continuous
 62
     7
100
AcDbLine
 10
474.5089520562
 20
792.1540000452
 30
0.0
 11
474.5089520562
 21
789.1540000452
 31
0.0
  0
LINE
  5
167
330
87
100
AcDbEntity
  8
DV1_Default
  6
Continuous
 62
     7
100
AcDbLine
 10
424.5089520562
 20
789.1540000452
 30
0.0
 11
474.5089520562
 21
789.1540000452
 31
0.0
  0
LINE
  5
168
330
87
100
AcDbEntity
  8
DV1_Default
  6
Continuous
 62
     7
100
AcDbLine
 10
474.5089520562
 20
792.1540000452
 30
0.0
 11
424.5089520562
 21
792.1540000452
 31
0.0
  0
ARC
  5
169
330
87
100
AcDbEntity
  8
DV1_Default
  6
Continuous
 62
     7
100
AcDbCircle
 10
473.5089520562
 20
789.1540000452
 30
0.0
 40
1.000000000000001
100
AcDbArc
 50
270.0
 51
0.0
  0
ARC
  5
16A
330
87
100
AcDbEntity
  8
DV1_Default
  6
Continuous
 62
     7
100
AcDbCircle
 10
425.5089520562
 20
789.1540000452
 30
0.0
 40
1.000000000000001
100
AcDbArc
 50
180.0
 51
270.0
  0
ARC
  5
16B
330
87
100
AcDbEntity
  8
DV1_Default
  6
Continuous
 62
     7
100
AcDbCircle
 10
473.5089520562
 20
792.1540000452
 30
0.0
 40
1.000000000000001
100
AcDbArc
 50
0.0
 51
90.0
  0
ARC
  5
16C
330
87
100
AcDbEntity
  8
DV1_Default
  6
Continuous
 62
     7
100
AcDbCircle
 10
425.5089520562
 20
792.1540000452
 30
0.0
 40
1.000000000000001
100
AcDbArc
 50
90.0
 51
180.0
  0
LINE
  5
16D
330
87
100
AcDbEntity
  8
DV1_Default
  6
Continuous
 62
     7
100
AcDbLine
 10
134.5089520562
 20
788.1540000452
 30
0.0
 11
150.4469944629
 21
788.1540000452
 31
0.0
  0
LINE
  5
16E
330
87
100
AcDbEntity
  8
DV1_Default
  6
Continuous
 62
     7
100
AcDbLine
 10
129.5784081299
 20
783.1540000452
 30
0.0
 11
129.5784081299
 21
378.1540000452
 31
0.0
  0
ARC
  5
16F
330
87
100
AcDbEntity
  8
DV1_Default
  6
Continuous
 62
     7
100
AcDbCircle
 10
134.5089520562
 20
783.1540000452
 30
0.0
 40
5.000000000000004
100
AcDbArc
 50
90.0
 51
180.0
  0
LINE
  5
170
330
87
100
AcDbEntity
  8
DV1_Default
  6
Continuous
 62
     7
100
AcDbLine
 10
129.5089520562
 20
783.1540000452
 30
0.0
 11
129.5784081299
 21
783.1540000452
 31
0.0
  0
ELLIPSE
  5
171
330
87
100
AcDbEntity
  8
DV1_Default
  6
Continuous
 62
     7
100
AcDbEllipse
 10
134.5089520562
 20
783.1540000452
 30
0.0
 11
0.0
 21
5.0
 31
0.0
210
0.0
220
0.0
230
1.0
 40
1.0
 41
0.0
 42
1.570796326794897
  0
LINE
  5
172
330
87
100
AcDbEntity
  8
DV1_Default
  6
Continuous
 62
     7
100
AcDbLine
 10
150.4469944629
 20
788.1540000452
 30
0.0
 11
164.7320292164
 21
788.1540000452
 31
0.0
  0
LINE
  5
173
330
87
100
AcDbEntity
  8
DV1_Default
  6
Continuous
 62
     7
100
AcDbLine
 10
164.7320292164
 20
788.1540000452
 30
0.0
 11
185.2339493845
 21
788.1540000452
 31
0.0
  0
LINE
  5
174
330
87
100
AcDbEntity
  8
DV1_Default
  6
Continuous
 62
     7
100
AcDbLine
 10
164.7320292164
 20
783.1540000452
 30
0.0
 11
164.7320292164
 21
378.1540000452
 31
0.0
  0
LINE
  5
175
330
87
100
AcDbEntity
  8
DV1_Default
  6
Continuous
 62
     7
100
AcDbLine
 10
146.7353614741
 20
783.1540000452
 30
0.0
 11
146.7353614741
 21
378.1540000452
 31
0.0
  0
LINE
  5
176
330
87
100
AcDbEntity
  8
DV1_Default
  6
Continuous
 62
     7
100
AcDbLine
 10
161.0203962277
 20
783.1540000452
 30
0.0
 11
146.7353614741
 21
783.1540000452
 31
0.0
  0
LINE
  5
177
330
87
100
AcDbEntity
  8
DV1_Default
  6
Continuous
 62
     7
100
AcDbLine
 10
145.5164505366
 20
783.1540000452
 30
0.0
 11
129.5784081299
 21
783.1540000452
 31
0.0
  0
ELLIPSE
  5
178
330
87
100
AcDbEntity
  8
DV1_Default
  6
Continuous
 62
     7
100
AcDbEllipse
 10
150.4469944629
 20
783.1540000452
 30
0.0
 11
-1.110223024625157E-13
 21
-5.000000000000004
 31
0.0
210
0.0
220
0.0
230
1.0
 40
0.9861087853
 41
3.141592653589793
 42
4.712388980384711
  0
LINE
  5
179
330
87
100
AcDbEntity
  8
DV1_Default
  6
Continuous
 62
     7
100
AcDbLine
 10
145.5164505366
 20
783.1540000452
 30
0.0
 11
146.7353614741
 21
783.1540000452
 31
0.0
  0
ELLIPSE
  5
17A
330
87
100
AcDbEntity
  8
DV1_Default
  6
Continuous
 62
     7
100
AcDbEllipse
 10
150.4469944629
 20
783.1540000452
 30
0.0
 11
0.0
 21
5.0
 31
0.0
210
0.0
220
0.0
230
1.0
 40
1.0
 41
0.0
 42
1.570796326794897
  0
LINE
  5
17B
330
87
100
AcDbEntity
  8
DV1_Default
  6
Continuous
 62
     7
100
AcDbLine
 10
161.0203962277
 20
783.1540000452
 30
0.0
 11
164.7320292164
 21
783.1540000452
 31
0.0
  0
ELLIPSE
  5
17C
330
87
100
AcDbEntity
  8
DV1_Default
  6
Continuous
 62
     7
100
AcDbEllipse
 10
164.7320292164
 20
783.1540000452
 30
0.0
 11
0.0
 21
5.0
 31
0.0
210
0.0
220
0.0
230
1.0
 40
1.0
 41
0.0
 42
1.570796326794897
  0
LINE
  5
17D
330
87
100
AcDbEntity
  8
DV1_Default
  6
Continuous
 62
     7
100
AcDbLine
 10
164.7320292164
 20
788.1540000452
 30
0.0
 11
164.7320292164
 21
783.1540000452
 31
0.0
  0
LINE
  5
17E
330
87
100
AcDbEntity
  8
DV1_Default
  6
Continuous
 62
     7
100
AcDbLine
 10
574.5089520562
 20
783.1540000452
 30
0.0
 11
574.5089520562
 21
378.1540000452
 31
0.0
  0
LINE
  5
17F
330
87
100
AcDbEntity
  8
DV1_Default
  6
Continuous
 62
     7
100
AcDbLine
 10
538.5649975823
 20
788.1540000452
 30
0.0
 11
552.8632085149
 21
788.1540000452
 31
0.0
  0
LINE
  5
180
330
87
100
AcDbEntity
  8
DV1_Default
  6
Continuous
 62
     7
100
AcDbLine
 10
552.8632085149
 20
788.1540000452
 30
0.0
 11
569.5089520562
 21
788.1540000452
 31
0.0
  0
LINE
  5
181
330
87
100
AcDbEntity
  8
DV1_Default
  6
Continuous
 62
     7
100
AcDbLine
 10
557.7875954344
 20
783.1540000452
 30
0.0
 11
557.7875954344
 21
378.1540000452
 31
0.0
  0
LINE
  5
182
330
87
100
AcDbEntity
  8
DV1_Default
  6
Continuous
 62
     7
100
AcDbLine
 10
574.4333389757
 20
783.1540000452
 30
0.0
 11
557.7875954344
 21
783.1540000452
 31
0.0
  0
LINE
  5
183
330
87
100
AcDbEntity
  8
DV1_Default
  6
Continuous
 62
     7
100
AcDbLine
 10
542.2766305711
 20
783.1540000452
 30
0.0
 11
542.2766305711
 21
378.1540000452
 31
0.0
  0
LINE
  5
184
330
87
100
AcDbEntity
  8
DV1_Default
  6
Continuous
 62
     7
100
AcDbLine
 10
556.5748415037
 20
783.1540000452
 30
0.0
 11
542.2766305711
 21
783.1540000452
 31
0.0
  0
LINE
  5
185
330
87
100
AcDbEntity
  8
DV1_Default
  6
Continuous
 62
     7
100
AcDbLine
 10
538.5649975823
 20
783.1540000452
 30
0.0
 11
518.0630774142
 21
783.1540000452
 31
0.0
  0
LINE
  5
186
330
87
100
AcDbEntity
  8
DV1_Default
  6
Continuous
 62
     7
100
AcDbLine
 10
538.5649975823
 20
783.1540000452
 30
0.0
 11
538.5649975823
 21
788.1540000452
 31
0.0
  0
LINE
  5
187
330
87
100
AcDbEntity
  8
DV1_Default
  6
Continuous
 62
     7
100
AcDbLine
 10
538.5649975823
 20
783.1540000452
 30
0.0
 11
542.2766305711
 21
783.1540000452
 31
0.0
  0
ELLIPSE
  5
188
330
87
100
AcDbEntity
  8
DV1_Default
  6
Continuous
 62
     7
100
AcDbEllipse
 10
538.5649975823
 20
783.1540000452
 30
0.0
 11
0.0
 21
3.711632988735005
 31
0.0
210
0.0
220
0.0
230
1.0
 40
1.0
 41
-1.570796326794897
 42
0.0
  0
LINE
  5
189
330
87
100
AcDbEntity
  8
DV1_Default
  6
Continuous
 62
     7
100
AcDbLine
 10
556.5748415037
 20
783.1540000452
 30
0.0
 11
557.7875954344
 21
783.1540000452
 31
0.0
  0
ELLIPSE
  5
18A
330
87
100
AcDbEntity
  8
DV1_Default
  6
Continuous
 62
     7
100
AcDbEllipse
 10
552.8632085149
 20
783.1540000452
 30
0.0
 11
0.0
 21
3.711632988735005
 31
0.0
210
0.0
220
0.0
230
1.0
 40
1.0
 41
-1.570796326794897
 42
0.0
  0
ELLIPSE
  5
18B
330
87
100
AcDbEntity
  8
DV1_Default
  6
Continuous
 62
     7
100
AcDbEllipse
 10
552.8632085149
 20
783.1540000452
 30
0.0
 11
0.0
 21
4.924386919492122
 31
0.0
210
0.0
220
0.0
230
1.0
 40
1.0
 41
-1.570796326794897
 42
0.0
  0
LINE
  5
18C
330
87
100
AcDbEntity
  8
DV1_Default
  6
Continuous
 62
     7
100
AcDbLine
 10
574.4333389757
 20
783.1540000452
 30
0.0
 11
574.5089520562
 21
783.1540000452
 31
0.0
  0
ELLIPSE
  5
18D
330
87
100
AcDbEntity
  8
DV1_Default
  6
Continuous
 62
     7
100
AcDbEllipse
 10
569.5089520562
 20
783.1540000452
 30
0.0
 11
0.0
 21
4.924386919492122
 31
0.0
210
0.0
220
0.0
230
1.0
 40
1.0
 41
-1.570796326794897
 42
0.0
  0
ARC
  5
18E
330
87
100
AcDbEntity
  8
DV1_Default
  6
Continuous
 62
     7
100
AcDbCircle
 10
569.5089520562
 20
783.1540000452
 30
0.0
 40
5.000000000000004
100
AcDbArc
 50
0.0
 51
90.0
  0
LINE
  5
18F
330
87
100
AcDbEntity
  8
DV1_Default
  6
Continuous
 62
     7
100
AcDbLine
 10
164.7320292164
 20
378.1540000452
 30
0.0
 11
185.2339493845
 21
378.1540000452
 31
0.0
  0
LINE
  5
190
330
87
100
AcDbEntity
  8
DV1_Default
  6
Continuous
 62
     7
100
AcDbLine
 10
569.5089520562
 20
373.1540000452
 30
0.0
 11
552.8632085149
 21
373.1540000452
 31
0.0
  0
LINE
  5
191
330
87
100
AcDbEntity
  8
DV1_Default
  6
Continuous
 62
     7
100
AcDbLine
 10
150.4469944629
 20
373.1540000452
 30
0.0
 11
134.5089520562
 21
373.1540000452
 31
0.0
  0
LINE
  5
192
330
87
100
AcDbEntity
  8
DV1_Default
  6
Continuous
 62
     7
100
AcDbLine
 10
552.8632085149
 20
373.1540000452
 30
0.0
 11
538.5649975823
 21
373.1540000452
 31
0.0
  0
LINE
  5
193
330
87
100
AcDbEntity
  8
DV1_Default
  6
Continuous
 62
     7
100
AcDbLine
 10
164.7320292164
 20
373.1540000452
 30
0.0
 11
150.4469944629
 21
373.1540000452
 31
0.0
  0
LINE
  5
194
330
87
100
AcDbEntity
  8
DV1_Default
  6
Continuous
 62
     7
100
AcDbLine
 10
538.5649975823
 20
373.1540000452
 30
0.0
 11
518.0630774142
 21
373.1540000452
 31
0.0
  0
LINE
  5
195
330
87
100
AcDbEntity
  8
DV1_Default
  6
Continuous
 62
     7
100
AcDbLine
 10
538.5649975823
 20
378.1540000452
 30
0.0
 11
538.5649975823
 21
783.1540000452
 31
0.0
  0
LINE
  5
196
330
87
100
AcDbEntity
  8
DV1_Default
  6
Continuous
 62
     7
100
AcDbLine
 10
161.0203962277
 20
378.1540000452
 30
0.0
 11
161.0203962277
 21
783.1540000452
 31
0.0
  0
LINE
  5
197
330
87
100
AcDbEntity
  8
DV1_Default
  6
Continuous
 62
     7
100
AcDbLine
 10
161.0203962277
 20
378.1540000452
 30
0.0
 11
164.7320292164
 21
378.1540000452
 31
0.0
  0
LINE
  5
198
330
87
100
AcDbEntity
  8
DV1_Default
  6
Continuous
 62
     7
100
AcDbLine
 10
538.5649975823
 20
378.1540000452
 30
0.0
 11
542.2766305711
 21
378.1540000452
 31
0.0
  0
LINE
  5
199
330
87
100
AcDbEntity
  8
DV1_Default
  6
Continuous
 62
     7
100
AcDbLine
 10
146.7353614741
 20
378.1540000452
 30
0.0
 11
161.0203962277
 21
378.1540000452
 31
0.0
  0
LINE
  5
19A
330
87
100
AcDbEntity
  8
DV1_Default
  6
Continuous
 62
     7
100
AcDbLine
 10
556.5748415037
 20
378.1540000452
 30
0.0
 11
556.5748415037
 21
783.1540000452
 31
0.0
  0
LINE
  5
19B
330
87
100
AcDbEntity
  8
DV1_Default
  6
Continuous
 62
     7
100
AcDbLine
 10
542.2766305711
 20
378.1540000452
 30
0.0
 11
556.5748415037
 21
378.1540000452
 31
0.0
  0
LINE
  5
19C
330
87
100
AcDbEntity
  8
DV1_Default
  6
Continuous
 62
     7
100
AcDbLine
 10
145.5164505366
 20
378.1540000452
 30
0.0
 11
145.5164505366
 21
783.1540000452
 31
0.0
  0
LINE
  5
19D
330
87
100
AcDbEntity
  8
DV1_Default
  6
Continuous
 62
     7
100
AcDbLine
 10
145.5164505366
 20
378.1540000452
 30
0.0
 11
146.7353614741
 21
378.1540000452
 31
0.0
  0
LINE
  5
19E
330
87
100
AcDbEntity
  8
DV1_Default
  6
Continuous
 62
     7
100
AcDbLine
 10
556.5748415037
 20
378.1540000452
 30
0.0
 11
557.7875954344
 21
378.1540000452
 31
0.0
  0
LINE
  5
19F
330
87
100
AcDbEntity
  8
DV1_Default
  6
Continuous
 62
     7
100
AcDbLine
 10
129.5784081299
 20
378.1540000452
 30
0.0
 11
145.5164505366
 21
378.1540000452
 31
0.0
  0
LINE
  5
1A0
330
87
100
AcDbEntity
  8
DV1_Default
  6
Continuous
 62
     7
100
AcDbLine
 10
574.4333389757
 20
378.1540000452
 30
0.0
 11
574.4333389757
 21
783.1540000452
 31
0.0
  0
LINE
  5
1A1
330
87
100
AcDbEntity
  8
DV1_Default
  6
Continuous
 62
     7
100
AcDbLine
 10
557.7875954344
 20
378.1540000452
 30
0.0
 11
574.4333389757
 21
378.1540000452
 31
0.0
  0
LINE
  5
1A2
330
87
100
AcDbEntity
  8
DV1_Default
  6
Continuous
 62
     7
100
AcDbLine
 10
129.5089520562
 20
378.1540000452
 30
0.0
 11
129.5089520562
 21
783.1540000452
 31
0.0
  0
LINE
  5
1A3
330
87
100
AcDbEntity
  8
DV1_Default
  6
Continuous
 62
     7
100
AcDbLine
 10
129.5089520562
 20
378.1540000452
 30
0.0
 11
129.5784081299
 21
378.1540000452
 31
0.0
  0
LINE
  5
1A4
330
87
100
AcDbEntity
  8
DV1_Default
  6
Continuous
 62
     7
100
AcDbLine
 10
574.4333389757
 20
378.1540000452
 30
0.0
 11
574.5089520562
 21
378.1540000452
 31
0.0
  0
ARC
  5
1A5
330
87
100
AcDbEntity
  8
DV1_Default
  6
Continuous
 62
     7
100
AcDbCircle
 10
569.5089520562
 20
378.1540000452
 30
0.0
 40
5.0
100
AcDbArc
 50
270.0
 51
0.0
  0
ARC
  5
1A6
330
87
100
AcDbEntity
  8
DV1_Default
  6
Continuous
 62
     7
100
AcDbCircle
 10
134.5089520562
 20
378.1540000452
 30
0.0
 40
5.000000000000004
100
AcDbArc
 50
180.0
 51
270.0
  0
ELLIPSE
  5
1A7
330
87
100
AcDbEntity
  8
DV1_Default
  6
Continuous
 62
     7
100
AcDbEllipse
 10
569.5089520562
 20
378.1540000452
 30
0.0
 11
-8.760353553682876E-14
 21
-4.999999999999996
 31
0.0
210
0.0
220
0.0
230
1.0
 40
0.9848773839
 41
0.0000000000000178
 42
1.570796326794914
  0
ELLIPSE
  5
1A8
330
87
100
AcDbEntity
  8
DV1_Default
  6
Continuous
 62
     7
100
AcDbEllipse
 10
134.5089520562
 20
378.1540000452
 30
0.0
 11
0.0
 21
4.930543926283718
 31
0.0
210
0.0
220
0.0
230
1.0
 40
1.0
 41
1.570796326794897
 42
3.141592653589793
  0
ELLIPSE
  5
1A9
330
87
100
AcDbEntity
  8
DV1_Default
  6
Continuous
 62
     7
100
AcDbEllipse
 10
552.8632085149
 20
378.1540000452
 30
0.0
 11
-3.122502256758253E-14
 21
-4.999999999999996
 31
0.0
210
0.0
220
0.0
230
1.0
 40
0.9848773839
 41
0.0000000000000063
 42
1.570796326794903
  0
ELLIPSE
  5
1AA
330
87
100
AcDbEntity
  8
DV1_Default
  6
Continuous
 62
     7
100
AcDbEllipse
 10
150.4469944629
 20
378.1540000452
 30
0.0
 11
0.0
 21
4.930543926283775
 31
0.0
210
0.0
220
0.0
230
1.0
 40
1.0
 41
1.570796326794897
 42
3.141592653589793
  0
ELLIPSE
  5
1AB
330
87
100
AcDbEntity
  8
DV1_Default
  6
Continuous
 62
     7
100
AcDbEllipse
 10
552.8632085149
 20
378.1540000452
 30
0.0
 11
-6.938893903907228E-15
 21
-4.999999999999999
 31
0.0
210
0.0
220
0.0
230
1.0
 40
0.7423265977
 41
0.0000000000000019
 42
1.570796326794898
  0
ELLIPSE
  5
1AC
330
87
100
AcDbEntity
  8
DV1_Default
  6
Continuous
 62
     7
100
AcDbEllipse
 10
150.4469944629
 20
378.1540000452
 30
0.0
 11
0.0
 21
3.711632988735005
 31
0.0
210
0.0
220
0.0
230
1.0
 40
1.0
 41
1.570796326794897
 42
3.141592653589793
  0
ELLIPSE
  5
1AD
330
87
100
AcDbEntity
  8
DV1_Default
  6
Continuous
 62
     7
100
AcDbEllipse
 10
538.5649975823
 20
378.1540000452
 30
0.0
 11
-6.938893903907228E-15
 21
-5.0
 31
0.0
210
0.0
220
0.0
230
1.0
 40
0.7423265977
 41
0.0000000000000019
 42
1.570796326794909
  0
ELLIPSE
  5
1AE
330
87
100
AcDbEntity
  8
DV1_Default
  6
Continuous
 62
     7
100
AcDbEllipse
 10
164.7320292164
 20
378.1540000452
 30
0.0
 11
0.0
 21
3.711632988735005
 31
0.0
210
0.0
220
0.0
230
1.0
 40
1.0
 41
1.570796326794897
 42
3.141592653589793
  0
LINE
  5
1AF
330
87
100
AcDbEntity
  8
DV1_Default
  6
Continuous
 62
     7
100
AcDbLine
 10
538.5649975823
 20
373.1540000452
 30
0.0
 11
538.5649975823
 21
378.1540000452
 31
0.0
  0
LINE
  5
1B0
330
87
100
AcDbEntity
  8
DV1_Default
  6
Continuous
 62
     7
100
AcDbLine
 10
164.7320292164
 20
378.1540000452
 30
0.0
 11
164.7320292164
 21
373.1540000452
 31
0.0
  0
LINE
  5
1B1
330
87
100
AcDbEntity
  8
DV1_Default
  6
Continuous
 62
     7
100
AcDbLine
 10
189.4974814074
 20
788.1540000452
 30
0.0
 11
513.7995453913
 21
788.1540000452
 31
0.0
  0
LINE
  5
1B2
330
87
100
AcDbEntity
  8
DV1_Default
  6
Continuous
 62
     7
100
AcDbLine
 10
513.7995453913
 20
373.1540000452
 30
0.0
 11
189.4974814074
 21
373.1540000452
 31
0.0
  0
LINE
  5
1B3
330
87
100
AcDbEntity
  8
DV1_Default
  6
Continuous
 62
     7
100
AcDbLine
 10
518.0630774142
 20
373.1540000452
 30
0.0
 11
513.7995453913
 21
373.1540000452
 31
0.0
  0
LINE
  5
1B4
330
87
100
AcDbEntity
  8
DV1_Default
  6
Continuous
 62
     7
100
AcDbLine
 10
514.2928299449
 20
783.1540000452
 30
0.0
 11
511.5986819875
 21
783.1540000452
 31
0.0
  0
LINE
  5
1B5
330
87
100
AcDbEntity
  8
DV1_Default
  6
Continuous
 62
     7
100
AcDbLine
 10
514.2928299449
 20
378.1540000452
 30
0.0
 11
514.2928299449
 21
783.1540000452
 31
0.0
  0
LINE
  5
1B6
330
87
100
AcDbEntity
  8
DV1_Default
  6
Continuous
 62
     7
100
AcDbLine
 10
518.0630774142
 20
378.1540000452
 30
0.0
 11
538.5649975823
 21
378.1540000452
 31
0.0
  0
LINE
  5
1B7
330
87
100
AcDbEntity
  8
DV1_Default
  6
Continuous
 62
     7
100
AcDbLine
 10
518.0630774142
 20
378.1540000452
 30
0.0
 11
518.0630774142
 21
373.1540000452
 31
0.0
  0
LINE
  5
1B8
330
87
100
AcDbEntity
  8
DV1_Default
  6
Continuous
 62
     7
100
AcDbLine
 10
518.0630774142
 20
783.1540000452
 30
0.0
 11
518.0630774142
 21
378.1540000452
 31
0.0
  0
LINE
  5
1B9
330
87
100
AcDbEntity
  8
DV1_Default
  6
Continuous
 62
     7
100
AcDbLine
 10
518.0630774142
 20
788.1540000452
 30
0.0
 11
538.5649975823
 21
788.1540000452
 31
0.0
  0
LINE
  5
1BA
330
87
100
AcDbEntity
  8
DV1_Default
  6
Continuous
 62
     7
100
AcDbLine
 10
518.0630774142
 20
788.1540000452
 30
0.0
 11
518.0630774142
 21
783.1540000452
 31
0.0
  0
LINE
  5
1BB
330
87
100
AcDbEntity
  8
DV1_Default
  6
Continuous
 62
     7
100
AcDbLine
 10
513.7995453913
 20
788.1540000452
 30
0.0
 11
518.0630774142
 21
788.1540000452
 31
0.0
  0
ELLIPSE
  5
1BC
330
87
100
AcDbEntity
  8
DV1_Default
  6
Continuous
 62
     7
100
AcDbEllipse
 10
518.0630774142
 20
783.1540000452
 30
0.0
 11
0.0
 21
5.0
 31
0.0
210
0.0
220
0.0
230
1.0
 40
1.0
 41
0.0
 42
1.570796326794897
  0
LINE
  5
1BD
330
87
100
AcDbEntity
  8
DV1_Default
  6
Continuous
 62
     7
100
AcDbLine
 10
518.0630774142
 20
783.1540000452
 30
0.0
 11
514.2928299449
 21
783.1540000452
 31
0.0
  0
LINE
  5
1BE
330
87
100
AcDbEntity
  8
DV1_Default
  6
Continuous
 62
     7
100
AcDbLine
 10
518.0630774142
 20
378.1540000452
 30
0.0
 11
514.2928299449
 21
378.1540000452
 31
0.0
  0
ELLIPSE
  5
1BF
330
87
100
AcDbEntity
  8
DV1_Default
  6
Continuous
 62
     7
100
AcDbEllipse
 10
518.0630774142
 20
378.1540000452
 30
0.0
 11
6.938893903907229E-15
 21
-5.000000000000002
 31
0.0
210
0.0
220
0.0
230
1.0
 40
0.7540494939
 41
4.712388980384677
 42
6.283185307179586
  0
LINE
  5
1C0
330
87
100
AcDbEntity
  8
DV1_Default
  6
Continuous
 62
     7
100
AcDbLine
 10
185.2339493845
 20
373.1540000452
 30
0.0
 11
164.7320292164
 21
373.1540000452
 31
0.0
  0
LINE
  5
1C1
330
87
100
AcDbEntity
  8
DV1_Default
  6
Continuous
 62
     7
100
AcDbLine
 10
189.4974814074
 20
373.1540000452
 30
0.0
 11
185.2339493845
 21
373.1540000452
 31
0.0
  0
LINE
  5
1C2
330
87
100
AcDbEntity
  8
DV1_Default
  6
Continuous
 62
     7
100
AcDbLine
 10
189.0041968539
 20
783.1540000452
 30
0.0
 11
189.0041968539
 21
378.1540000452
 31
0.0
  0
LINE
  5
1C3
330
87
100
AcDbEntity
  8
DV1_Default
  6
Continuous
 62
     7
100
AcDbLine
 10
189.0041968539
 20
378.1540000452
 30
0.0
 11
191.6983448112
 21
378.1540000452
 31
0.0
  0
LINE
  5
1C4
330
87
100
AcDbEntity
  8
DV1_Default
  6
Continuous
 62
     7
100
AcDbLine
 10
185.2339493845
 20
788.1540000452
 30
0.0
 11
189.4974814074
 21
788.1540000452
 31
0.0
  0
LINE
  5
1C5
330
87
100
AcDbEntity
  8
DV1_Default
  6
Continuous
 62
     7
100
AcDbLine
 10
185.2339493845
 20
373.1540000452
 30
0.0
 11
185.2339493845
 21
378.1540000452
 31
0.0
  0
LINE
  5
1C6
330
87
100
AcDbEntity
  8
DV1_Default
  6
Continuous
 62
     7
100
AcDbLine
 10
185.2339493845
 20
783.1540000452
 30
0.0
 11
164.7320292164
 21
783.1540000452
 31
0.0
  0
LINE
  5
1C7
330
87
100
AcDbEntity
  8
DV1_Default
  6
Continuous
 62
     7
100
AcDbLine
 10
185.2339493845
 20
783.1540000452
 30
0.0
 11
185.2339493845
 21
788.1540000452
 31
0.0
  0
LINE
  5
1C8
330
87
100
AcDbEntity
  8
DV1_Default
  6
Continuous
 62
     7
100
AcDbLine
 10
185.2339493845
 20
378.1540000452
 30
0.0
 11
185.2339493845
 21
783.1540000452
 31
0.0
  0
ELLIPSE
  5
1C9
330
87
100
AcDbEntity
  8
DV1_Default
  6
Continuous
 62
     7
100
AcDbEllipse
 10
185.2339493845
 20
783.1540000452
 30
0.0
 11
1.110223024625157E-13
 21
-4.999999999999948
 31
0.0
210
0.0
220
0.0
230
1.0
 40
0.7540494939
 41
1.570796326794857
 42
3.141592653589793
  0
LINE
  5
1CA
330
87
100
AcDbEntity
  8
DV1_Default
  6
Continuous
 62
     7
100
AcDbLine
 10
189.0041968539
 20
783.1540000452
 30
0.0
 11
185.2339493845
 21
783.1540000452
 31
0.0
  0
LINE
  5
1CB
330
87
100
AcDbEntity
  8
DV1_Default
  6
Continuous
 62
     7
100
AcDbLine
 10
189.0041968539
 20
378.1540000452
 30
0.0
 11
185.2339493845
 21
378.1540000452
 31
0.0
  0
ELLIPSE
  5
1CC
330
87
100
AcDbEntity
  8
DV1_Default
  6
Continuous
 62
     7
100
AcDbEllipse
 10
185.2339493845
 20
378.1540000452
 30
0.0
 11
0.0
 21
4.999999999999943
 31
0.0
210
0.0
220
0.0
230
1.0
 40
1.0
 41
3.141592653589793
 42
4.71238898038469
  0
LINE
  5
1CD
330
87
100
AcDbEntity
  8
DV1_Default
  6
Continuous
 62
     7
100
AcDbLine
 10
191.8868571847
 20
378.1540000452
 30
0.0
 11
511.4101696141
 21
378.1540000452
 31
0.0
  0
ELLIPSE
  5
1CE
330
87
100
AcDbEntity
  8
DV1_Default
  6
Continuous
 62
     7
100
AcDbEllipse
 10
189.4974814074
 20
378.1540000452
 30
0.0
 11
0.0
 21
5.0
 31
0.0
210
0.0
220
0.0
230
1.0
 40
1.0
 41
3.141592653589793
 42
4.71238898038469
  0
ELLIPSE
  5
1CF
330
87
100
AcDbEntity
  8
DV1_Default
  6
Continuous
 62
     7
100
AcDbEllipse
 10
189.4974814074
 20
378.1540000452
 30
0.0
 11
-5.551115123125783E-14
 21
-5.000000000000007
 31
0.0
210
0.0
220
0.0
230
1.0
 40
0.4401726808
 41
0.0
 42
1.57079632679489
  0
ELLIPSE
  5
1D0
330
87
100
AcDbEntity
  8
DV1_Default
  6
Continuous
 62
     7
100
AcDbEllipse
 10
189.4974814074
 20
783.1540000452
 30
0.0
 11
0.0
 21
2.38937577728106
 31
0.0
210
0.0
220
0.0
230
1.0
 40
1.0
 41
-1.570796326794897
 42
0.0
  0
LINE
  5
1D1
330
87
100
AcDbEntity
  8
DV1_Default
  6
Continuous
 62
     7
100
AcDbLine
 10
191.6983448112
 20
783.1540000452
 30
0.0
 11
189.0041968539
 21
783.1540000452
 31
0.0
  0
ELLIPSE
  5
1D2
330
87
100
AcDbEntity
  8
DV1_Default
  6
Continuous
 62
     7
100
AcDbEllipse
 10
189.4974814074
 20
783.1540000452
 30
0.0
 11
-5.551115123125783E-14
 21
-4.999999999999948
 31
0.0
210
0.0
220
0.0
230
1.0
 40
0.4401726808
 41
1.570796326794879
 42
3.141592653589793
  0
LINE
  5
1D3
330
87
100
AcDbEntity
  8
DV1_Default
  6
Continuous
 62
     7
100
AcDbLine
 10
191.8868571847
 20
783.1540000452
 30
0.0
 11
191.8868571847
 21
378.1540000452
 31
0.0
  0
LINE
  5
1D4
330
87
100
AcDbEntity
  8
DV1_Default
  6
Continuous
 62
     7
100
AcDbLine
 10
191.6983448112
 20
378.1540000452
 30
0.0
 11
191.6983448112
 21
783.1540000452
 31
0.0
  0
LINE
  5
1D5
330
87
100
AcDbEntity
  8
DV1_Default
  6
Continuous
 62
     7
100
AcDbLine
 10
191.8868571847
 20
783.1540000452
 30
0.0
 11
191.6983448112
 21
783.1540000452
 31
0.0
  0
LINE
  5
1D6
330
87
100
AcDbEntity
  8
DV1_Default
  6
Continuous
 62
     7
100
AcDbLine
 10
191.8868571847
 20
378.1540000452
 30
0.0
 11
191.6983448112
 21
378.1540000452
 31
0.0
  0
ELLIPSE
  5
1D7
330
87
100
AcDbEntity
  8
DV1_Default
  6
Continuous
 62
     7
100
AcDbEllipse
 10
513.7995453913
 20
378.1540000452
 30
0.0
 11
1.387778780781446E-14
 21
-5.000000000000003
 31
0.0
210
0.0
220
0.0
230
1.0
 40
0.4778751555
 41
4.712388980384699
 42
6.283185307179586
  0
LINE
  5
1D8
330
87
100
AcDbEntity
  8
DV1_Default
  6
Continuous
 62
     7
100
AcDbLine
 10
511.5986819875
 20
378.1540000452
 30
0.0
 11
514.2928299449
 21
378.1540000452
 31
0.0
  0
ELLIPSE
  5
1D9
330
87
100
AcDbEntity
  8
DV1_Default
  6
Continuous
 62
     7
100
AcDbEllipse
 10
513.7995453913
 20
378.1540000452
 30
0.0
 11
0.0
 21
2.20086340381232
 31
0.0
210
0.0
220
0.0
230
1.0
 40
1.0
 41
1.570796326794897
 42
3.141592653589793
  0
LINE
  5
1DA
330
87
100
AcDbEntity
  8
DV1_Default
  6
Continuous
 62
     7
100
AcDbLine
 10
511.5986819875
 20
783.1540000452
 30
0.0
 11
511.5986819875
 21
378.1540000452
 31
0.0
  0
LINE
  5
1DB
330
87
100
AcDbEntity
  8
DV1_Default
  6
Continuous
 62
     7
100
AcDbLine
 10
511.4101696141
 20
783.1540000452
 30
0.0
 11
191.8868571847
 21
783.1540000452
 31
0.0
  0
LINE
  5
1DC
330
87
100
AcDbEntity
  8
DV1_Default
  6
Continuous
 62
     7
100
AcDbLine
 10
511.4101696141
 20
378.1540000452
 30
0.0
 11
511.4101696141
 21
783.1540000452
 31
0.0
  0
ELLIPSE
  5
1DD
330
87
100
AcDbEntity
  8
DV1_Default
  6
Continuous
 62
     7
100
AcDbEllipse
 10
513.7995453913
 20
783.1540000452
 30
0.0
 11
0.0
 21
-5.000000000000004
 31
0.0
210
0.0
220
0.0
230
1.0
 40
0.4778751555
 41
3.141592653589793
 42
4.71238898038469
  0
ELLIPSE
  5
1DE
330
87
100
AcDbEntity
  8
DV1_Default
  6
Continuous
 62
     7
100
AcDbEllipse
 10
513.7995453913
 20
783.1540000452
 30
0.0
 11
0.0
 21
5.0
 31
0.0
210
0.0
220
0.0
230
1.0
 40
1.0
 41
0.0
 42
1.570796326794897
  0
LINE
  5
1DF
330
87
100
AcDbEntity
  8
DV1_Default
  6
Continuous
 62
     7
100
AcDbLine
 10
511.5986819875
 20
783.1540000452
 30
0.0
 11
511.4101696141
 21
783.1540000452
 31
0.0
  0
LINE
  5
1E0
330
87
100
AcDbEntity
  8
DV1_Default
  6
Continuous
 62
     7
100
AcDbLine
 10
511.5986819875
 20
378.1540000452
 30
0.0
 11
511.4101696141
 21
378.1540000452
 31
0.0
  0
ENDBLK
  5
1E2
330
87
100
AcDbEntity
  8
0
100
AcDbBlockEnd
  0
BLOCK
  5
28B
330
1E3
100
AcDbEntity
  8
0
100
AcDbBlockBegin
  2
SE1
 70
     0
 10
0.0
 20
0.0
 30
0.0
  3
SE1
  1

  0
LINE
  5
1E6
330
1E3
100
AcDbEntity
  8
DV2_Default
  6
Continuous
 62
     7
100
AcDbLine
 10
753.9200381221
 20
358.6540000452
 30
0.0
 11
766.6200381221
 21
358.6540000452
 31
0.0
  0
LINE
  5
1E7
330
1E3
100
AcDbEntity
  8
DV2_Default
  6
Continuous
 62
     7
100
AcDbLine
 10
766.1200381221
 20
358.1540000452
 30
0.0
 11
754.4200381221
 21
358.1540000452
 31
0.0
  0
LINE
  5
1E8
330
1E3
100
AcDbEntity
  8
DV2_Default
  6
Continuous
 62
     7
100
AcDbLine
 10
753.9200381221
 20
373.1540000452
 30
0.0
 11
753.9200381221
 21
358.6540000452
 31
0.0
  0
LINE
  5
1E9
330
1E3
100
AcDbEntity
  8
DV2_Default
  6
Continuous
 62
     7
100
AcDbLine
 10
766.6200381221
 20
358.6540000452
 30
0.0
 11
766.6200381221
 21
373.1540000452
 31
0.0
  0
LINE
  5
1EA
330
1E3
100
AcDbEntity
  8
DV2_Default
  6
Continuous
 62
     7
100
AcDbLine
 10
753.9200381221
 20
358.6540000452
 30
0.0
 11
754.4200381221
 21
358.1540000452
 31
0.0
  0
LINE
  5
1EB
330
1E3
100
AcDbEntity
  8
DV2_Default
  6
Continuous
 62
     7
100
AcDbLine
 10
766.1200381221
 20
358.1540000452
 30
0.0
 11
766.6200381221
 21
358.6540000452
 31
0.0
  0
LINE
  5
1EC
330
1E3
100
AcDbEntity
  8
DV2_Default
  6
Continuous
 62
     7
100
AcDbLine
 10
755.2750381221
 20
358.1540000452
 30
0.0
 11
755.2750381221
 21
373.1540000452
 31
0.0
  0
LINE
  5
1ED
330
1E3
100
AcDbEntity
  8
DV2_Default
  6
Continuous
 62
     7
100
AcDbLine
 10
765.2650381221
 20
358.1540000452
 30
0.0
 11
765.2650381221
 21
373.1540000452
 31
0.0
  0
LINE
  5
1EE
330
1E3
100
AcDbEntity
  8
DV2_Default
  6
Continuous
 62
     7
100
AcDbLine
 10
823.0192255274
 20
355.1540000452
 30
0.0
 11
820.2700381221
 21
355.1540000452
 31
0.0
  0
LINE
  5
1EF
330
1E3
100
AcDbEntity
  8
DV2_Default
  6
Continuous
 62
     7
100
AcDbLine
 10
820.2700381221
 20
355.6540000452
 30
0.0
 11
823.5192255274
 21
355.6540000452
 31
0.0
  0
LINE
  5
1F0
330
1E3
100
AcDbEntity
  8
DV2_Default
  6
Continuous
 62
     7
100
AcDbLine
 10
823.5192255274
 20
355.6540000452
 30
0.0
 11
823.5192255274
 21
373.1540000452
 31
0.0
  0
LINE
  5
1F1
330
1E3
100
AcDbEntity
  8
DV2_Default
  6
Continuous
 62
     7
100
AcDbLine
 10
823.0192255274
 20
355.1540000452
 30
0.0
 11
823.5192255274
 21
355.6540000452
 31
0.0
  0
LINE
  5
1F2
330
1E3
100
AcDbEntity
  8
DV2_Default
  6
Continuous
 62
     7
100
AcDbLine
 10
822.3592255274
 20
373.1540000452
 30
0.0
 11
822.3592255274
 21
355.1540000452
 31
0.0
  0
LINE
  5
1F3
330
1E3
100
AcDbEntity
  8
DV2_Default
  6
Continuous
 62
     7
100
AcDbLine
 10
781.4138572904
 20
363.1540000452
 30
0.0
 11
819.1262189537
 21
363.1540000452
 31
0.0
  0
LINE
  5
1F4
330
1E3
100
AcDbEntity
  8
DV2_Default
  6
Continuous
 62
     7
100
AcDbLine
 10
781.4138572904
 20
348.1540000452
 30
0.0
 11
781.4138572904
 21
363.1540000452
 31
0.0
  0
LINE
  5
1F5
330
1E3
100
AcDbEntity
  8
DV2_Default
  6
Continuous
 62
     7
100
AcDbLine
 10
819.1262189537
 20
363.1540000452
 30
0.0
 11
819.1262189537
 21
348.1540000452
 31
0.0
  0
LINE
  5
1F6
330
1E3
100
AcDbEntity
  8
DV2_Default
  6
Continuous
 62
     7
100
AcDbLine
 10
781.4138572904
 20
348.1540000452
 30
0.0
 11
780.2700381221
 21
348.1540000452
 31
0.0
  0
LINE
  5
1F7
330
1E3
100
AcDbEntity
  8
DV2_Default
  6
Continuous
 62
     7
100
AcDbLine
 10
819.1262189537
 20
348.1540000452
 30
0.0
 11
820.2700381221
 21
348.1540000452
 31
0.0
  0
LINE
  5
1F8
330
1E3
100
AcDbEntity
  8
DV2_Default
  6
Continuous
 62
     7
100
AcDbLine
 10
786.1279024984
 20
343.1540000452
 30
0.0
 11
785.2700381221
 21
343.1540000452
 31
0.0
  0
LINE
  5
1F9
330
1E3
100
AcDbEntity
  8
DV2_Default
  6
Continuous
 62
     7
100
AcDbLine
 10
814.4121737458
 20
343.1540000452
 30
0.0
 11
786.1279024984
 21
343.1540000452
 31
0.0
  0
LINE
  5
1FA
330
1E3
100
AcDbEntity
  8
DV2_Default
  6
Continuous
 62
     7
100
AcDbLine
 10
814.4121737458
 20
343.1540000452
 30
0.0
 11
815.2700381221
 21
343.1540000452
 31
0.0
  0
LINE
  5
1FB
330
1E3
100
AcDbEntity
  8
DV2_Default
  6
Continuous
 62
     7
100
AcDbLine
 10
786.1279024984
 20
358.7250902165
 30
0.0
 11
786.1279024984
 21
348.1540000452
 31
0.0
  0
LINE
  5
1FC
330
1E3
100
AcDbEntity
  8
DV2_Default
  6
Continuous
 62
     7
100
AcDbLine
 10
786.1279024984
 20
348.1540000452
 30
0.0
 11
814.4121737458
 21
348.1540000452
 31
0.0
  0
LINE
  5
1FD
330
1E3
100
AcDbEntity
  8
DV2_Default
  6
Continuous
 62
     7
100
AcDbLine
 10
814.4121737458
 20
348.1540000452
 30
0.0
 11
814.4121737458
 21
358.7250902165
 31
0.0
  0
LINE
  5
1FE
330
1E3
100
AcDbEntity
  8
DV2_Default
  6
Continuous
 62
     7
100
AcDbLine
 10
811.4503780096
 20
358.1540000452
 30
0.0
 11
789.0896982346
 21
358.1540000452
 31
0.0
  0
SPLINE
  5
1FF
330
1E3
100
AcDbEntity
  8
DV2_Default
  6
Continuous
 62
     7
100
AcDbSpline
210
0.0
220
0.0
230
1.0
 70
     8
 71
     3
 72
    10
 73
     6
 74
     0
 42
0.0000000032870723
 43
0.0000000001
 40
0.0
 40
0.0
 40
0.0
 40
0.0
 40
0.5
 40
0.5
 40
1.0
 40
1.0
 40
1.0
 40
1.0
 10
814.4121737458189
 20
358.7250902165437
 30
0.0
 10
813.9419405034025
 20
358.5239245113412
 30
0.0
 10
813.4581819098686
 20
358.3828870221508
 30
0.0
 10
812.4688822345391
 20
358.1976481368301
 30
0.0
 10
811.9603140746634
 20
358.1540000452333
 30
0.0
 10
811.4503780095869
 20
358.1540000452333
 30
0.0
  0
SPLINE
  5
200
330
1E3
100
AcDbEntity
  8
DV2_Default
  6
Continuous
 62
     7
100
AcDbSpline
210
0.0
220
0.0
230
1.0
 70
     8
 71
     3
 72
    12
 73
     8
 74
     0
 42
0.0000000032895824
 43
0.0000000001
 40
0.0
 40
0.0
 40
0.0
 40
0.0
 40
0.5
 40
0.5
 40
0.75
 40
0.75
 40
1.0
 40
1.0
 40
1.0
 40
1.0
 10
789.0896982345889
 20
358.1540000452333
 30
0.0
 10
788.5804120498381
 20
358.1540000452333
 30
0.0
 10
788.0778803651933
 20
358.1968537692089
 30
0.0
 10
787.3357460022477
 20
358.3351309505975
 30
0.0
 10
787.0903217246589
 20
358.3936194453855
 30
0.0
 10
786.6038377610479
 20
358.5382874556612
 30
0.0
 10
786.3626489159093
 20
358.6246657370067
 30
0.0
 10
786.127902498357
 20
358.7250902165437
 30
0.0
  0
ARC
  5
201
330
1E3
100
AcDbEntity
  8
DV2_Default
  6
Continuous
 62
     7
100
AcDbCircle
 10
811.0735923674
 20
367.0018348812
 30
0.0
 40
8.924720043991535
100
AcDbArc
 50
291.9676156509
 51
334.4598499916
  0
ARC
  5
202
330
1E3
100
AcDbEntity
  8
DV2_Default
  6
Continuous
 62
     7
100
AcDbCircle
 10
789.4664838768
 20
367.0018348812
 30
0.0
 40
8.924720043991604
100
AcDbArc
 50
205.5401500084
 51
248.0323843491
  0
LINE
  5
203
330
1E3
100
AcDbEntity
  8
DV2_Default
  6
Continuous
 62
     7
100
AcDbLine
 10
814.4121737458
 20
348.1540000452
 30
0.0
 11
814.4121737458
 21
343.1540000452
 31
0.0
  0
LINE
  5
204
330
1E3
100
AcDbEntity
  8
DV2_Default
  6
Continuous
 62
     7
100
AcDbLine
 10
819.1262189537
 20
348.1540000452
 30
0.0
 11
814.4121737458
 21
348.1540000452
 31
0.0
  0
LINE
  5
205
330
1E3
100
AcDbEntity
  8
DV2_Default
  6
Continuous
 62
     7
100
AcDbLine
 10
786.1279024984
 20
348.1540000452
 30
0.0
 11
781.4138572904
 21
348.1540000452
 31
0.0
  0
LINE
  5
206
330
1E3
100
AcDbEntity
  8
DV2_Default
  6
Continuous
 62
     7
100
AcDbLine
 10
786.1279024984
 20
343.1540000452
 30
0.0
 11
786.1279024984
 21
348.1540000452
 31
0.0
  0
ELLIPSE
  5
207
330
1E3
100
AcDbEntity
  8
DV2_Default
  6
Continuous
 62
     7
100
AcDbEllipse
 10
814.4121737458
 20
348.1540000452
 30
0.0
 11
0.0
 21
5.0
 31
0.0
210
0.0
220
0.0
230
1.0
 40
1.0
 41
3.141592653589793
 42
4.71238898038469
  0
ELLIPSE
  5
208
330
1E3
100
AcDbEntity
  8
DV2_Default
  6
Continuous
 62
     7
100
AcDbEllipse
 10
786.1279024984
 20
348.1540000452
 30
0.0
 11
1.387778780781446E-14
 21
-5.000000000000004
 31
0.0
210
0.0
220
0.0
230
1.0
 40
0.9428090416
 41
4.712388980384687
 42
6.283185307179586
  0
LINE
  5
209
330
1E3
100
AcDbEntity
  8
DV2_Default
  6
Continuous
 62
     7
100
AcDbLine
 10
780.2700381221
 20
373.1540000452
 30
0.0
 11
780.2700381221
 21
348.1540000452
 31
0.0
  0
LINE
  5
20A
330
1E3
100
AcDbEntity
  8
DV2_Default
  6
Continuous
 62
     7
100
AcDbLine
 10
820.2700381221
 20
348.1540000452
 30
0.0
 11
820.2700381221
 21
373.1540000452
 31
0.0
  0
ARC
  5
20B
330
1E3
100
AcDbEntity
  8
DV2_Default
  6
Continuous
 62
     7
100
AcDbCircle
 10
815.2700381221
 20
348.1540000452
 30
0.0
 40
5.000000000000001
100
AcDbArc
 50
270.0
 51
0.0
  0
ARC
  5
20C
330
1E3
100
AcDbEntity
  8
DV2_Default
  6
Continuous
 62
     7
100
AcDbCircle
 10
785.2700381221
 20
348.1540000452
 30
0.0
 40
5.000000000000004
100
AcDbArc
 50
180.0
 51
270.0
  0
LINE
  5
20D
330
1E3
100
AcDbEntity
  8
DV2_Default
  6
Continuous
 62
     7
100
AcDbLine
 10
747.2700381221
 20
848.9040000452
 30
0.0
 11
773.2700381221
 21
848.9040000452
 31
0.0
  0
LINE
  5
20E
330
1E3
100
AcDbEntity
  8
DV2_Default
  6
Continuous
 62
     7
100
AcDbLine
 10
773.2700381221
 20
850.4040000452
 30
0.0
 11
747.2700381221
 21
850.4040000452
 31
0.0
  0
LINE
  5
20F
330
1E3
100
AcDbEntity
  8
DV2_Default
  6
Continuous
 62
     7
100
AcDbLine
 10
747.7700381221
 20
850.9040000452
 30
0.0
 11
772.7700381221
 21
850.9040000452
 31
0.0
  0
LINE
  5
210
330
1E3
100
AcDbEntity
  8
DV2_Default
  6
Continuous
 62
     7
100
AcDbLine
 10
754.7852105648
 20
854.5554942692
 30
0.0
 11
754.7852105648
 21
850.9040000452
 31
0.0
  0
LINE
  5
211
330
1E3
100
AcDbEntity
  8
DV2_Default
  6
Continuous
 62
     7
100
AcDbLine
 10
749.3003830075
 20
854.5554942692
 30
0.0
 11
749.3003830075
 21
850.9040000452
 31
0.0
  0
ARC
  5
212
330
1E3
100
AcDbEntity
  8
DV2_Default
  6
Continuous
 62
     7
100
AcDbCircle
 10
752.0427967861
 20
850.4833904163
 30
0.0
 40
4.909466684078826
100
AcDbArc
 50
56.0411677555
 51
123.9588322445
  0
LINE
  5
213
330
1E3
100
AcDbEntity
  8
DV2_Default
  6
Continuous
 62
     7
100
AcDbLine
 10
765.7548656794
 20
854.5554942692
 30
0.0
 11
765.7548656794
 21
850.9040000452
 31
0.0
  0
LINE
  5
214
330
1E3
100
AcDbEntity
  8
DV2_Default
  6
Continuous
 62
     7
100
AcDbLine
 10
771.2396932367
 20
854.5554942692
 30
0.0
 11
771.2396932367
 21
850.9040000452
 31
0.0
  0
ARC
  5
215
330
1E3
100
AcDbEntity
  8
DV2_Default
  6
Continuous
 62
     7
100
AcDbCircle
 10
768.497279458
 20
850.4833904163
 30
0.0
 40
4.909466684078791
100
AcDbArc
 50
56.0411677555
 51
123.9588322445
  0
SPLINE
  5
216
330
1E3
100
AcDbEntity
  8
DV2_Default
  6
Continuous
 62
     7
100
AcDbSpline
210
0.0
220
0.0
230
1.0
 70
     8
 71
     3
 72
    16
 73
    12
 74
     0
 42
0.0000000008972749
 43
0.0000000001
 40
0.0
 40
0.0
 40
0.0
 40
0.0
 40
0.2500000000000001
 40
0.2500000000000001
 40
0.5000000000000001
 40
0.5000000000000001
 40
0.6250000000000001
 40
0.6250000000000001
 40
0.7500000000000002
 40
0.7500000000000002
 40
1.0
 40
1.0
 40
1.0
 40
1.0
 10
765.7548656793895
 20
854.5554942692013
 30
0.0
 10
764.861867166879
 20
854.8132807349933
 30
0.0
 10
763.9481424690863
 20
855.0292022061598
 30
0.0
 10
762.1171045426605
 20
855.3243919578317
 30
0.0
 10
761.1959388339757
 20
855.4041073667674
 30
0.0
 10
759.8042298377284
 20
855.4039462190045
 30
0.0
 10
759.3384151821382
 20
855.3841458988547
 30
0.0
 10
758.4046420068995
 20
855.3056283004378
 30
0.0
 10
757.9427578859984
 20
855.2475093067629
 30
0.0
 10
756.5699952240012
 20
855.024555848116
 30
0.0
 10
755.6719163912061
 20
854.811464192989
 30
0.0
 10
754.7852105647866
 20
854.5554942692013
 30
0.0
  0
LINE
  5
217
330
1E3
100
AcDbEntity
  8
DV2_Default
  6
Continuous
 62
     7
100
AcDbLine
 10
751.6360635259
 20
855.9040000452
 30
0.0
 11
768.9040127183
 21
855.9040000452
 31
0.0
  0
LINE
  5
218
330
1E3
100
AcDbEntity
  8
DV2_Default
  6
Continuous
 62
     7
100
AcDbLine
 10
773.2700381221
 20
848.9040000452
 30
0.0
 11
773.2700381221
 21
850.4040000452
 31
0.0
  0
LINE
  5
219
330
1E3
100
AcDbEntity
  8
DV2_Default
  6
Continuous
 62
     7
100
AcDbLine
 10
747.2700381221
 20
850.4040000452
 30
0.0
 11
747.2700381221
 21
848.9040000452
 31
0.0
  0
ARC
  5
21A
330
1E3
100
AcDbEntity
  8
DV2_Default
  6
Continuous
 62
     7
100
AcDbCircle
 10
772.7700381221
 20
850.4040000452
 30
0.0
 40
0.5000000000000004
100
AcDbArc
 50
0.0
 51
90.0
  0
ARC
  5
21B
330
1E3
100
AcDbEntity
  8
DV2_Default
  6
Continuous
 62
     7
100
AcDbCircle
 10
747.7700381221
 20
850.4040000452
 30
0.0
 40
0.5000000000000004
100
AcDbArc
 50
90.0
 51
180.0
  0
LINE
  5
21C
330
1E3
100
AcDbEntity
  8
DV2_Default
  6
Continuous
 62
     7
100
AcDbLine
 10
771.2396932367
 20
854.5554942692
 30
0.0
 11
768.9040127183
 21
855.9040000452
 31
0.0
  0
LINE
  5
21D
330
1E3
100
AcDbEntity
  8
DV2_Default
  6
Continuous
 62
     7
100
AcDbLine
 10
751.6360635259
 20
855.9040000452
 30
0.0
 11
749.3003830075
 21
854.5554942692
 31
0.0
  0
LINE
  5
21E
330
1E3
100
AcDbEntity
  8
DV2_Default
  6
Continuous
 62
     7
100
AcDbLine
 10
773.0200381221
 20
793.4040000452
 30
0.0
 11
747.5200381221
 21
793.4040000452
 31
0.0
  0
LINE
  5
21F
330
1E3
100
AcDbEntity
  8
DV2_Default
  6
Continuous
 62
     7
100
AcDbLine
 10
746.7700381221
 20
794.1540000452
 30
0.0
 11
773.7700381221
 21
794.1540000452
 31
0.0
  0
ARC
  5
220
330
1E3
100
AcDbEntity
  8
DV2_Default
  6
Continuous
 62
     7
100
AcDbCircle
 10
760.2700381221
 20
821.1540000452
 30
0.0
 40
13.32453333233923
100
AcDbArc
 50
0.0
 51
34.3562293292
  0
ARC
  5
221
330
1E3
100
AcDbEntity
  8
DV2_Default
  6
Continuous
 62
     7
100
AcDbCircle
 10
760.2700381221
 20
821.1540000452
 30
0.0
 40
13.32453333233923
100
AcDbArc
 50
145.6437706708
 51
214.3562293292
  0
ARC
  5
222
330
1E3
100
AcDbEntity
  8
DV2_Default
  6
Continuous
 62
     7
100
AcDbCircle
 10
760.2700381221
 20
821.1540000452
 30
0.0
 40
13.32453333233923
100
AcDbArc
 50
325.6437706708
 51
0.0
  0
ARC
  5
223
330
1E3
100
AcDbEntity
  8
DV2_Default
  6
Continuous
 62
     7
100
AcDbCircle
 10
760.2700381221
 20
821.1540000452
 30
0.0
 40
13.5
100
AcDbArc
 50
324.5690553127
 51
0.0
  0
ARC
  5
224
330
1E3
100
AcDbEntity
  8
DV2_Default
  6
Continuous
 62
     7
100
AcDbCircle
 10
760.2700381221
 20
821.1540000452
 30
0.0
 40
13.5
100
AcDbArc
 50
144.5690553127
 51
215.4309446873
  0
ARC
  5
225
330
1E3
100
AcDbEntity
  8
DV2_Default
  6
Continuous
 62
     7
100
AcDbCircle
 10
760.2700381221
 20
821.1540000452
 30
0.0
 40
13.5
100
AcDbArc
 50
0.0
 51
35.4309446873
  0
ARC
  5
226
330
1E3
100
AcDbEntity
  8
DV2_Default
  6
Continuous
 62
     7
100
AcDbCircle
 10
760.2700381221
 20
821.1540000452
 30
0.0
 40
11.17546666766077
100
AcDbArc
 50
349.8334876222
 51
0.0
  0
ARC
  5
227
330
1E3
100
AcDbEntity
  8
DV2_Default
  6
Continuous
 62
     7
100
AcDbCircle
 10
760.2700381221
 20
821.1540000452
 30
0.0
 40
11.17546666766077
100
AcDbArc
 50
169.8334876222
 51
190.1665123778
  0
ARC
  5
228
330
1E3
100
AcDbEntity
  8
DV2_Default
  6
Continuous
 62
     7
100
AcDbCircle
 10
760.2700381221
 20
821.1540000452
 30
0.0
 40
11.17546666766077
100
AcDbArc
 50
0.0
 51
10.1665123778
  0
LINE
  5
229
330
1E3
100
AcDbEntity
  8
DV2_Default
  6
Continuous
 62
     7
100
AcDbLine
 10
773.7700381221
 20
848.1540000452
 30
0.0
 11
746.7700381221
 21
848.1540000452
 31
0.0
  0
LINE
  5
22A
330
1E3
100
AcDbEntity
  8
DV2_Default
  6
Continuous
 62
     7
100
AcDbLine
 10
773.6695571749
 20
845.2299619396
 30
0.0
 11
746.8705190692
 21
845.2299619396
 31
0.0
  0
LINE
  5
22B
330
1E3
100
AcDbEntity
  8
DV2_Default
  6
Continuous
 62
     7
100
AcDbLine
 10
746.7700381221
 20
845.6049619396
 30
0.0
 11
773.7700381221
 21
845.6049619396
 31
0.0
  0
LINE
  5
22C
330
1E3
100
AcDbEntity
  8
DV2_Default
  6
Continuous
 62
     7
100
AcDbLine
 10
771.2700381221
 20
840.872911132
 30
0.0
 11
749.2700381221
 21
840.872911132
 31
0.0
  0
LINE
  5
22D
330
1E3
100
AcDbEntity
  8
DV2_Default
  6
Continuous
 62
     7
100
AcDbLine
 10
749.1695571749
 20
841.247911132
 30
0.0
 11
771.3705190692
 21
841.247911132
 31
0.0
  0
LINE
  5
22E
330
1E3
100
AcDbEntity
  8
DV2_Default
  6
Continuous
 62
     7
100
AcDbLine
 10
771.3705190692
 20
801.0600889585
 30
0.0
 11
749.1695571749
 21
801.0600889585
 31
0.0
  0
LINE
  5
22F
330
1E3
100
AcDbEntity
  8
DV2_Default
  6
Continuous
 62
     7
100
AcDbLine
 10
749.2700381221
 20
801.4350889585
 30
0.0
 11
771.2700381221
 21
801.4350889585
 31
0.0
  0
LINE
  5
230
330
1E3
100
AcDbEntity
  8
DV2_Default
  6
Continuous
 62
     7
100
AcDbLine
 10
773.7700381221
 20
796.7030381509
 30
0.0
 11
746.7700381221
 21
796.7030381509
 31
0.0
  0
LINE
  5
231
330
1E3
100
AcDbEntity
  8
DV2_Default
  6
Continuous
 62
     7
100
AcDbLine
 10
746.8705190692
 20
797.0780381509
 30
0.0
 11
773.6695571749
 21
797.0780381509
 31
0.0
  0
LINE
  5
232
330
1E3
100
AcDbEntity
  8
DV2_Default
  6
Continuous
 62
     7
100
AcDbLine
 10
773.7700381221
 20
845.6049619396
 30
0.0
 11
773.7700381221
 21
848.1540000452
 31
0.0
  0
LINE
  5
233
330
1E3
100
AcDbEntity
  8
DV2_Default
  6
Continuous
 62
     7
100
AcDbLine
 10
746.7700381221
 20
848.1540000452
 30
0.0
 11
746.7700381221
 21
845.6049619396
 31
0.0
  0
LINE
  5
234
330
1E3
100
AcDbEntity
  8
DV2_Default
  6
Continuous
 62
     7
100
AcDbLine
 10
746.8705190692
 20
845.2299619396
 30
0.0
 11
749.1695571749
 21
841.247911132
 31
0.0
  0
LINE
  5
235
330
1E3
100
AcDbEntity
  8
DV2_Default
  6
Continuous
 62
     7
100
AcDbLine
 10
771.3705190692
 20
841.247911132
 30
0.0
 11
773.6695571749
 21
845.2299619396
 31
0.0
  0
LINE
  5
236
330
1E3
100
AcDbEntity
  8
DV2_Default
  6
Continuous
 62
     7
100
AcDbLine
 10
771.2700381221
 20
821.1540000452
 30
0.0
 11
771.2700381221
 21
840.872911132
 31
0.0
  0
LINE
  5
237
330
1E3
100
AcDbEntity
  8
DV2_Default
  6
Continuous
 62
     7
100
AcDbLine
 10
771.2700381221
 20
801.4350889585
 30
0.0
 11
771.2700381221
 21
821.1540000452
 31
0.0
  0
LINE
  5
238
330
1E3
100
AcDbEntity
  8
DV2_Default
  6
Continuous
 62
     7
100
AcDbLine
 10
749.2700381221
 20
821.1540000452
 30
0.0
 11
749.2700381221
 21
801.4350889585
 31
0.0
  0
LINE
  5
239
330
1E3
100
AcDbEntity
  8
DV2_Default
  6
Continuous
 62
     7
100
AcDbLine
 10
749.2700381221
 20
840.872911132
 30
0.0
 11
749.2700381221
 21
821.1540000452
 31
0.0
  0
LINE
  5
23A
330
1E3
100
AcDbEntity
  8
DV2_Default
  6
Continuous
 62
     7
100
AcDbLine
 10
773.6695571749
 20
797.0780381509
 30
0.0
 11
771.3705190692
 21
801.0600889585
 31
0.0
  0
LINE
  5
23B
330
1E3
100
AcDbEntity
  8
DV2_Default
  6
Continuous
 62
     7
100
AcDbLine
 10
749.1695571749
 20
801.0600889585
 30
0.0
 11
746.8705190692
 21
797.0780381509
 31
0.0
  0
LINE
  5
23C
330
1E3
100
AcDbEntity
  8
DV2_Default
  6
Continuous
 62
     7
100
AcDbLine
 10
773.7700381221
 20
794.1540000452
 30
0.0
 11
773.7700381221
 21
796.7030381509
 31
0.0
  0
LINE
  5
23D
330
1E3
100
AcDbEntity
  8
DV2_Default
  6
Continuous
 62
     7
100
AcDbLine
 10
746.7700381221
 20
796.7030381509
 30
0.0
 11
746.7700381221
 21
794.1540000452
 31
0.0
  0
ARC
  5
23E
330
1E3
100
AcDbEntity
  8
DV2_Default
  6
Continuous
 62
     7
100
AcDbCircle
 10
773.0200381221
 20
794.1540000452
 30
0.0
 40
0.7499999999999729
100
AcDbArc
 50
270.0
 51
0.0
  0
ARC
  5
23F
330
1E3
100
AcDbEntity
  8
DV2_Default
  6
Continuous
 62
     7
100
AcDbCircle
 10
747.5200381221
 20
794.1540000452
 30
0.0
 40
0.7500000000000007
100
AcDbArc
 50
180.0
 51
270.0
  0
ARC
  5
240
330
1E3
100
AcDbEntity
  8
DV2_Default
  6
Continuous
 62
     7
100
AcDbCircle
 10
747.5200381221
 20
848.1540000452
 30
0.0
 40
0.7500000000000284
100
AcDbArc
 50
90.0
 51
180.0
  0
ARC
  5
241
330
1E3
100
AcDbEntity
  8
DV2_Default
  6
Continuous
 62
     7
100
AcDbCircle
 10
773.0200381221
 20
848.1540000452
 30
0.0
 40
0.7500000000000007
100
AcDbArc
 50
0.0
 51
90.0
  0
ARC
  5
242
330
1E3
100
AcDbEntity
  8
DV2_Default
  6
Continuous
 62
     7
100
AcDbCircle
 10
747.5200381221
 20
845.6049619396
 30
0.0
 40
0.7500000000000007
100
AcDbArc
 50
180.0
 51
210.0
  0
ARC
  5
243
330
1E3
100
AcDbEntity
  8
DV2_Default
  6
Continuous
 62
     7
100
AcDbCircle
 10
773.0200381221
 20
845.6049619396
 30
0.0
 40
0.7499999999999979
100
AcDbArc
 50
330.0
 51
0.0
  0
ARC
  5
244
330
1E3
100
AcDbEntity
  8
DV2_Default
  6
Continuous
 62
     7
100
AcDbCircle
 10
772.0200381221
 20
840.872911132
 30
0.0
 40
0.7500000000000007
100
AcDbArc
 50
150.0
 51
180.0
  0
ARC
  5
245
330
1E3
100
AcDbEntity
  8
DV2_Default
  6
Continuous
 62
     7
100
AcDbCircle
 10
748.5200381221
 20
840.872911132
 30
0.0
 40
0.7499999999999821
100
AcDbArc
 50
0.0
 51
30.0
  0
ARC
  5
246
330
1E3
100
AcDbEntity
  8
DV2_Default
  6
Continuous
 62
     7
100
AcDbCircle
 10
772.0200381221
 20
801.4350889585
 30
0.0
 40
0.7499999999999821
100
AcDbArc
 50
180.0
 51
210.0
  0
ARC
  5
247
330
1E3
100
AcDbEntity
  8
DV2_Default
  6
Continuous
 62
     7
100
AcDbCircle
 10
748.5200381221
 20
801.4350889585
 30
0.0
 40
0.7500000000000007
100
AcDbArc
 50
330.0
 51
0.0
  0
ARC
  5
248
330
1E3
100
AcDbEntity
  8
DV2_Default
  6
Continuous
 62
     7
100
AcDbCircle
 10
747.5200381221
 20
796.7030381509
 30
0.0
 40
0.7500000000000098
100
AcDbArc
 50
150.0
 51
180.0
  0
ARC
  5
249
330
1E3
100
AcDbEntity
  8
DV2_Default
  6
Continuous
 62
     7
100
AcDbCircle
 10
773.0200381221
 20
796.7030381509
 30
0.0
 40
0.7500000000000007
100
AcDbArc
 50
0.0
 51
30.0
  0
LINE
  5
24A
330
1E3
100
AcDbEntity
  8
DV2_Default
  6
Continuous
 62
     7
100
AcDbLine
 10
780.2700381221
 20
789.1540000452
 30
0.0
 11
780.2700381221
 21
792.1540000452
 31
0.0
  0
LINE
  5
24B
330
1E3
100
AcDbEntity
  8
DV2_Default
  6
Continuous
 62
     7
100
AcDbLine
 10
706.2700381221
 20
792.1540000452
 30
0.0
 11
706.2700381221
 21
789.1540000452
 31
0.0
  0
LINE
  5
24C
330
1E3
100
AcDbEntity
  8
DV2_Default
  6
Continuous
 62
     7
100
AcDbLine
 10
706.2700381221
 20
789.1540000452
 30
0.0
 11
780.2700381221
 21
789.1540000452
 31
0.0
  0
LINE
  5
24D
330
1E3
100
AcDbEntity
  8
DV2_Default
  6
Continuous
 62
     7
100
AcDbLine
 10
780.2700381221
 20
792.1540000452
 30
0.0
 11
706.2700381221
 21
792.1540000452
 31
0.0
  0
LINE
  5
24E
330
1E3
100
AcDbEntity
  8
DV2_Default
  6
Continuous
 62
     7
100
AcDbLine
 10
780.2700381221
 20
793.1540000452
 30
0.0
 11
804.2700381221
 21
793.1540000452
 31
0.0
  0
LINE
  5
24F
330
1E3
100
AcDbEntity
  8
DV2_Default
  6
Continuous
 62
     7
100
AcDbLine
 10
706.2700381221
 20
793.1540000452
 30
0.0
 11
780.2700381221
 21
793.1540000452
 31
0.0
  0
LINE
  5
250
330
1E3
100
AcDbEntity
  8
DV2_Default
  6
Continuous
 62
     7
100
AcDbLine
 10
780.2700381221
 20
789.1540000452
 30
0.0
 11
805.2700381221
 21
789.1540000452
 31
0.0
  0
LINE
  5
251
330
1E3
100
AcDbEntity
  8
DV2_Default
  6
Continuous
 62
     7
100
AcDbLine
 10
780.2700381221
 20
792.1540000452
 30
0.0
 11
805.2700381221
 21
792.1540000452
 31
0.0
  0
LINE
  5
252
330
1E3
100
AcDbEntity
  8
DV2_Default
  6
Continuous
 62
     7
100
AcDbLine
 10
710.2700381221
 20
788.1540000452
 30
0.0
 11
706.2700381221
 21
788.1540000452
 31
0.0
  0
LINE
  5
253
330
1E3
100
AcDbEntity
  8
DV2_Default
  6
Continuous
 62
     7
100
AcDbLine
 10
705.2700381221
 20
789.1540000452
 30
0.0
 11
705.2700381221
 21
792.1540000452
 31
0.0
  0
LINE
  5
254
330
1E3
100
AcDbEntity
  8
DV2_Default
  6
Continuous
 62
     7
100
AcDbLine
 10
780.2700381221
 20
788.1540000452
 30
0.0
 11
780.2700381221
 21
789.1540000452
 31
0.0
  0
LINE
  5
255
330
1E3
100
AcDbEntity
  8
DV2_Default
  6
Continuous
 62
     7
100
AcDbLine
 10
706.2700381221
 20
788.1540000452
 30
0.0
 11
706.2700381221
 21
789.1540000452
 31
0.0
  0
ARC
  5
256
330
1E3
100
AcDbEntity
  8
DV2_Default
  6
Continuous
 62
     7
100
AcDbCircle
 10
706.2700381221
 20
789.1540000452
 30
0.0
 40
1.000000000000001
100
AcDbArc
 50
180.0
 51
270.0
  0
LINE
  5
257
330
1E3
100
AcDbEntity
  8
DV2_Default
  6
Continuous
 62
     7
100
AcDbLine
 10
705.2700381221
 20
789.1540000452
 30
0.0
 11
706.2700381221
 21
789.1540000452
 31
0.0
  0
LINE
  5
258
330
1E3
100
AcDbEntity
  8
DV2_Default
  6
Continuous
 62
     7
100
AcDbLine
 10
705.2700381221
 20
792.1540000452
 30
0.0
 11
706.2700381221
 21
792.1540000452
 31
0.0
  0
ARC
  5
259
330
1E3
100
AcDbEntity
  8
DV2_Default
  6
Continuous
 62
     7
100
AcDbCircle
 10
706.2700381221
 20
792.1540000452
 30
0.0
 40
1.000000000000001
100
AcDbArc
 50
90.0
 51
180.0
  0
LINE
  5
25A
330
1E3
100
AcDbEntity
  8
DV2_Default
  6
Continuous
 62
     7
100
AcDbLine
 10
780.2700381221
 20
792.1540000452
 30
0.0
 11
780.2700381221
 21
793.1540000452
 31
0.0
  0
LINE
  5
25B
330
1E3
100
AcDbEntity
  8
DV2_Default
  6
Continuous
 62
     7
100
AcDbLine
 10
706.2700381221
 20
793.1540000452
 30
0.0
 11
706.2700381221
 21
792.1540000452
 31
0.0
  0
LINE
  5
25C
330
1E3
100
AcDbEntity
  8
DV2_Default
  6
Continuous
 62
     7
100
AcDbLine
 10
805.2700381221
 20
789.1540000452
 30
0.0
 11
805.2700381221
 21
792.1540000452
 31
0.0
  0
ARC
  5
25D
330
1E3
100
AcDbEntity
  8
DV2_Default
  6
Continuous
 62
     7
100
AcDbCircle
 10
804.2700381221
 20
789.1540000452
 30
0.0
 40
1.000000000000001
100
AcDbArc
 50
270.0
 51
0.0
  0
ARC
  5
25E
330
1E3
100
AcDbEntity
  8
DV2_Default
  6
Continuous
 62
     7
100
AcDbCircle
 10
804.2700381221
 20
792.1540000452
 30
0.0
 40
1.000000000000001
100
AcDbArc
 50
0.0
 51
90.0
  0
LINE
  5
25F
330
1E3
100
AcDbEntity
  8
DV2_Default
  6
Continuous
 62
     7
100
AcDbLine
 10
705.2700381221
 20
783.1540000452
 30
0.0
 11
705.2700381221
 21
378.1540000452
 31
0.0
  0
LINE
  5
260
330
1E3
100
AcDbEntity
  8
DV2_Default
  6
Continuous
 62
     7
100
AcDbLine
 10
719.8518818641
 20
788.1540000452
 30
0.0
 11
814.4730220965
 21
788.1540000452
 31
0.0
  0
LINE
  5
261
330
1E3
100
AcDbEntity
  8
DV2_Default
  6
Continuous
 62
     7
100
AcDbLine
 10
720.6823856817
 20
783.1540000452
 30
0.0
 11
720.6823856817
 21
378.1540000452
 31
0.0
  0
LINE
  5
262
330
1E3
100
AcDbEntity
  8
DV2_Default
  6
Continuous
 62
     7
100
AcDbLine
 10
719.8518818641
 20
783.1540000452
 30
0.0
 11
710.2700381221
 21
783.1540000452
 31
0.0
  0
LINE
  5
263
330
1E3
100
AcDbEntity
  8
DV2_Default
  6
Continuous
 62
     7
100
AcDbLine
 10
719.8518818641
 20
783.1540000452
 30
0.0
 11
719.8518818641
 21
788.1540000452
 31
0.0
  0
LINE
  5
264
330
1E3
100
AcDbEntity
  8
DV2_Default
  6
Continuous
 62
     7
100
AcDbLine
 10
719.8518818641
 20
783.1540000452
 30
0.0
 11
720.6823856817
 21
783.1540000452
 31
0.0
  0
ELLIPSE
  5
265
330
1E3
100
AcDbEntity
  8
DV2_Default
  6
Continuous
 62
     7
100
AcDbEllipse
 10
719.8518818641
 20
783.1540000452
 30
0.0
 11
0.0
 21
0.8305038175626578
 31
0.0
210
0.0
220
0.0
230
1.0
 40
1.0
 41
-1.570796326794897
 42
0.0
  0
LINE
  5
266
330
1E3
100
AcDbEntity
  8
DV2_Default
  6
Continuous
 62
     7
100
AcDbLine
 10
814.4730220965
 20
788.1540000452
 30
0.0
 11
830.2992255274
 21
788.1540000452
 31
0.0
  0
LINE
  5
267
330
1E3
100
AcDbEntity
  8
DV2_Default
  6
Continuous
 62
     7
100
AcDbLine
 10
835.2992255274
 20
783.1540000452
 30
0.0
 11
835.2992255274
 21
378.1540000452
 31
0.0
  0
LINE
  5
268
330
1E3
100
AcDbEntity
  8
DV2_Default
  6
Continuous
 62
     7
100
AcDbLine
 10
817.8232132189
 20
783.1540000452
 30
0.0
 11
817.8232132189
 21
378.1540000452
 31
0.0
  0
LINE
  5
269
330
1E3
100
AcDbEntity
  8
DV2_Default
  6
Continuous
 62
     7
100
AcDbLine
 10
833.6494166499
 20
783.1540000452
 30
0.0
 11
817.8232132189
 21
783.1540000452
 31
0.0
  0
LINE
  5
26A
330
1E3
100
AcDbEntity
  8
DV2_Default
  6
Continuous
 62
     7
100
AcDbLine
 10
815.303525914
 20
783.1540000452
 30
0.0
 11
720.6823856817
 21
783.1540000452
 31
0.0
  0
ELLIPSE
  5
26B
330
1E3
100
AcDbEntity
  8
DV2_Default
  6
Continuous
 62
     7
100
AcDbEllipse
 10
814.4730220965
 20
783.1540000452
 30
0.0
 11
1.387778780781446E-14
 21
-5.000000000000004
 31
0.0
210
0.0
220
0.0
230
1.0
 40
0.1661007635
 41
1.570796326794896
 42
3.141592653589793
  0
LINE
  5
26C
330
1E3
100
AcDbEntity
  8
DV2_Default
  6
Continuous
 62
     7
100
AcDbLine
 10
815.303525914
 20
783.1540000452
 30
0.0
 11
817.8232132189
 21
783.1540000452
 31
0.0
  0
ELLIPSE
  5
26D
330
1E3
100
AcDbEntity
  8
DV2_Default
  6
Continuous
 62
     7
100
AcDbEllipse
 10
814.4730220965
 20
783.1540000452
 30
0.0
 11
0.0
 21
3.350191122448678
 31
0.0
210
0.0
220
0.0
230
1.0
 40
1.0
 41
-1.570796326794897
 42
0.0
  0
LINE
  5
26E
330
1E3
100
AcDbEntity
  8
DV2_Default
  6
Continuous
 62
     7
100
AcDbLine
 10
833.6494166499
 20
783.1540000452
 30
0.0
 11
835.2992255274
 21
783.1540000452
 31
0.0
  0
ELLIPSE
  5
26F
330
1E3
100
AcDbEntity
  8
DV2_Default
  6
Continuous
 62
     7
100
AcDbEllipse
 10
830.2992255274
 20
783.1540000452
 30
0.0
 11
0.0
 21
3.350191122448678
 31
0.0
210
0.0
220
0.0
230
1.0
 40
1.0
 41
-1.570796326794897
 42
0.0
  0
ARC
  5
270
330
1E3
100
AcDbEntity
  8
DV2_Default
  6
Continuous
 62
     7
100
AcDbCircle
 10
830.2992255274
 20
783.1540000452
 30
0.0
 40
5.000000000000004
100
AcDbArc
 50
0.0
 51
90.0
  0
LINE
  5
271
330
1E3
100
AcDbEntity
  8
DV2_Default
  6
Continuous
 62
     7
100
AcDbLine
 10
710.2700381221
 20
788.1540000452
 30
0.0
 11
719.8518818641
 21
788.1540000452
 31
0.0
  0
LINE
  5
272
330
1E3
100
AcDbEntity
  8
DV2_Default
  6
Continuous
 62
     7
100
AcDbLine
 10
710.2700381221
 20
788.1540000452
 30
0.0
 11
710.2700381221
 21
783.1540000452
 31
0.0
  0
LINE
  5
273
330
1E3
100
AcDbEntity
  8
DV2_Default
  6
Continuous
 62
     7
100
AcDbLine
 10
710.2700381221
 20
783.1540000452
 30
0.0
 11
710.2700381221
 21
378.1540000452
 31
0.0
  0
LINE
  5
274
330
1E3
100
AcDbEntity
  8
DV2_Default
  6
Continuous
 62
     7
100
AcDbLine
 10
705.2700381221
 20
783.1540000452
 30
0.0
 11
710.2700381221
 21
783.1540000452
 31
0.0
  0
ARC
  5
275
330
1E3
100
AcDbEntity
  8
DV2_Default
  6
Continuous
 62
     7
100
AcDbCircle
 10
710.2700381221
 20
783.1540000452
 30
0.0
 40
5.0
100
AcDbArc
 50
90.0
 51
180.0
  0
LINE
  5
276
330
1E3
100
AcDbEntity
  8
DV2_Default
  6
Continuous
 62
     7
100
AcDbLine
 10
719.8518818641
 20
373.1540000452
 30
0.0
 11
710.2700381221
 21
373.1540000452
 31
0.0
  0
LINE
  5
277
330
1E3
100
AcDbEntity
  8
DV2_Default
  6
Continuous
 62
     7
100
AcDbLine
 10
814.4730220965
 20
373.1540000452
 30
0.0
 11
719.8518818641
 21
373.1540000452
 31
0.0
  0
LINE
  5
278
330
1E3
100
AcDbEntity
  8
DV2_Default
  6
Continuous
 62
     7
100
AcDbLine
 10
830.2992255274
 20
373.1540000452
 30
0.0
 11
814.4730220965
 21
373.1540000452
 31
0.0
  0
LINE
  5
279
330
1E3
100
AcDbEntity
  8
DV2_Default
  6
Continuous
 62
     7
100
AcDbLine
 10
833.6494166499
 20
378.1540000452
 30
0.0
 11
833.6494166499
 21
783.1540000452
 31
0.0
  0
LINE
  5
27A
330
1E3
100
AcDbEntity
  8
DV2_Default
  6
Continuous
 62
     7
100
AcDbLine
 10
833.6494166499
 20
378.1540000452
 30
0.0
 11
835.2992255274
 21
378.1540000452
 31
0.0
  0
LINE
  5
27B
330
1E3
100
AcDbEntity
  8
DV2_Default
  6
Continuous
 62
     7
100
AcDbLine
 10
817.8232132189
 20
378.1540000452
 30
0.0
 11
833.6494166499
 21
378.1540000452
 31
0.0
  0
LINE
  5
27C
330
1E3
100
AcDbEntity
  8
DV2_Default
  6
Continuous
 62
     7
100
AcDbLine
 10
815.303525914
 20
378.1540000452
 30
0.0
 11
815.303525914
 21
783.1540000452
 31
0.0
  0
LINE
  5
27D
330
1E3
100
AcDbEntity
  8
DV2_Default
  6
Continuous
 62
     7
100
AcDbLine
 10
815.303525914
 20
378.1540000452
 30
0.0
 11
817.8232132189
 21
378.1540000452
 31
0.0
  0
LINE
  5
27E
330
1E3
100
AcDbEntity
  8
DV2_Default
  6
Continuous
 62
     7
100
AcDbLine
 10
720.6823856817
 20
378.1540000452
 30
0.0
 11
815.303525914
 21
378.1540000452
 31
0.0
  0
LINE
  5
27F
330
1E3
100
AcDbEntity
  8
DV2_Default
  6
Continuous
 62
     7
100
AcDbLine
 10
719.8518818641
 20
378.1540000452
 30
0.0
 11
719.8518818641
 21
783.1540000452
 31
0.0
  0
LINE
  5
280
330
1E3
100
AcDbEntity
  8
DV2_Default
  6
Continuous
 62
     7
100
AcDbLine
 10
719.8518818641
 20
378.1540000452
 30
0.0
 11
720.6823856817
 21
378.1540000452
 31
0.0
  0
LINE
  5
281
330
1E3
100
AcDbEntity
  8
DV2_Default
  6
Continuous
 62
     7
100
AcDbLine
 10
710.2700381221
 20
378.1540000452
 30
0.0
 11
719.8518818641
 21
378.1540000452
 31
0.0
  0
LINE
  5
282
330
1E3
100
AcDbEntity
  8
DV2_Default
  6
Continuous
 62
     7
100
AcDbLine
 10
705.2700381221
 20
378.1540000452
 30
0.0
 11
710.2700381221
 21
378.1540000452
 31
0.0
  0
ARC
  5
283
330
1E3
100
AcDbEntity
  8
DV2_Default
  6
Continuous
 62
     7
100
AcDbCircle
 10
710.2700381221
 20
378.1540000452
 30
0.0
 40
5.0
100
AcDbArc
 50
180.0
 51
270.0
  0
LINE
  5
284
330
1E3
100
AcDbEntity
  8
DV2_Default
  6
Continuous
 62
     7
100
AcDbLine
 10
710.2700381221
 20
378.1540000452
 30
0.0
 11
710.2700381221
 21
373.1540000452
 31
0.0
  0
LINE
  5
285
330
1E3
100
AcDbEntity
  8
DV2_Default
  6
Continuous
 62
     7
100
AcDbLine
 10
719.8518818641
 20
378.1540000452
 30
0.0
 11
719.8518818641
 21
373.1540000452
 31
0.0
  0
ELLIPSE
  5
286
330
1E3
100
AcDbEntity
  8
DV2_Default
  6
Continuous
 62
     7
100
AcDbEllipse
 10
719.8518818641
 20
378.1540000452
 30
0.0
 11
0.0
 21
5.0
 31
0.0
210
0.0
220
0.0
230
1.0
 40
1.0
 41
3.141592653589793
 42
4.71238898038469
  0
ELLIPSE
  5
287
330
1E3
100
AcDbEntity
  8
DV2_Default
  6
Continuous
 62
     7
100
AcDbEllipse
 10
814.4730220965
 20
378.1540000452
 30
0.0
 11
0.0
 21
5.0
 31
0.0
210
0.0
220
0.0
230
1.0
 40
1.0
 41
3.141592653589793
 42
4.71238898038469
  0
ELLIPSE
  5
288
330
1E3
100
AcDbEntity
  8
DV2_Default
  6
Continuous
 62
     7
100
AcDbEllipse
 10
814.4730220965
 20
378.1540000452
 30
0.0
 11
0.0
 21
5.0
 31
0.0
210
0.0
220
0.0
230
1.0
 40
1.0
 41
3.141592653589793
 42
4.71238898038469
  0
ELLIPSE
  5
289
330
1E3
100
AcDbEntity
  8
DV2_Default
  6
Continuous
 62
     7
100
AcDbEllipse
 10
830.2992255274
 20
378.1540000452
 30
0.0
 11
0.0
 21
5.0
 31
0.0
210
0.0
220
0.0
230
1.0
 40
1.0
 41
3.141592653589793
 42
4.71238898038469
  0
ARC
  5
28A
330
1E3
100
AcDbEntity
  8
DV2_Default
  6
Continuous
 62
     7
100
AcDbCircle
 10
830.2992255274
 20
378.1540000452
 30
0.0
 40
5.000000000000004
100
AcDbArc
 50
270.0
 51
0.0
  0
ENDBLK
  5
28C
330
1E3
100
AcDbEntity
  8
0
100
AcDbBlockEnd
  0
BLOCK
  5
375
330
28D
100
AcDbEntity
  8
0
100
AcDbBlockBegin
  2
SE2
 70
     0
 10
0.0
 20
0.0
 30
0.0
  3
SE2
  1

  0
LINE
  5
290
330
28D
100
AcDbEntity
  8
DV3_Default
  6
Continuous
 62
     7
100
AcDbLine
 10
490.0089520562
 20
195.2476262714
 30
0.0
 11
490.0089520562
 21
180.5876262714
 31
0.0
  0
LINE
  5
291
330
28D
100
AcDbEntity
  8
DV3_Default
  6
Continuous
 62
     7
100
AcDbLine
 10
497.0089520562
 20
195.2476262714
 30
0.0
 11
497.0089520562
 21
180.5876262714
 31
0.0
  0
LINE
  5
292
330
28D
100
AcDbEntity
  8
DV3_Default
  6
Continuous
 62
     7
100
AcDbLine
 10
498.0089520562
 20
194.6702760022
 30
0.0
 11
498.0089520562
 21
181.1649765406
 31
0.0
  0
LINE
  5
293
330
28D
100
AcDbEntity
  8
DV3_Default
  6
Continuous
 62
     7
100
AcDbLine
 10
490.2589520562
 20
179.8511724685
 30
0.0
 11
490.2589520562
 21
180.5918908134
 31
0.0
  0
LINE
  5
294
330
28D
100
AcDbEntity
  8
DV3_Default
  6
Continuous
 62
     7
100
AcDbLine
 10
494.0089520562
 20
180.6011724685
 30
0.0
 11
490.5089520562
 21
180.6011724685
 31
0.0
  0
LINE
  5
295
330
28D
100
AcDbEntity
  8
DV3_Default
  6
Continuous
 62
     7
100
AcDbLine
 10
494.0089520562
 20
180.6011724685
 30
0.0
 11
494.164865267
 21
180.6011724685
 31
0.0
  0
LINE
  5
296
330
28D
100
AcDbEntity
  8
DV3_Default
  6
Continuous
 62
     7
100
AcDbLine
 10
490.3530388454
 20
180.6011724685
 30
0.0
 11
490.5089520562
 21
180.6011724685
 31
0.0
  0
LINE
  5
297
330
28D
100
AcDbEntity
  8
DV3_Default
  6
Continuous
 62
     7
100
AcDbLine
 10
494.0089520562
 20
179.8511724685
 30
0.0
 11
494.0089520562
 21
180.6011724685
 31
0.0
  0
LINE
  5
298
330
28D
100
AcDbEntity
  8
DV3_Default
  6
Continuous
 62
     7
100
AcDbLine
 10
490.5089520562
 20
179.8511724685
 30
0.0
 11
494.0089520562
 21
179.8511724685
 31
0.0
  0
LINE
  5
299
330
28D
100
AcDbEntity
  8
DV3_Default
  6
Continuous
 62
     7
100
AcDbLine
 10
490.5089520562
 20
180.6011724685
 30
0.0
 11
490.5089520562
 21
179.8511724685
 31
0.0
  0
LINE
  5
29A
330
28D
100
AcDbEntity
  8
DV3_Default
  6
Continuous
 62
     7
100
AcDbLine
 10
494.0089520562
 20
179.6011724685
 30
0.0
 11
490.5089520562
 21
179.6011724685
 31
0.0
  0
LINE
  5
29B
330
28D
100
AcDbEntity
  8
DV3_Default
  6
Continuous
 62
     7
100
AcDbLine
 10
494.2589520562
 20
180.5918908134
 30
0.0
 11
494.2589520562
 21
179.8511724685
 31
0.0
  0
ARC
  5
29C
330
28D
100
AcDbEntity
  8
DV3_Default
  6
Continuous
 62
     7
100
AcDbCircle
 10
490.3499384417
 20
180.1510879242
 30
0.0
 40
0.4500952227317913
100
AcDbArc
 50
89.6053247397
 51
101.6626661302
  0
ARC
  5
29D
330
28D
100
AcDbEntity
  8
DV3_Default
  6
Continuous
 62
     7
100
AcDbCircle
 10
494.1679658012
 20
180.1510892468
 30
0.0
 40
0.4500939010270675
100
AcDbArc
 50
78.3373161009
 51
90.3946930292
  0
LINE
  5
29E
330
28D
100
AcDbEntity
  8
DV3_Default
  6
Continuous
 62
     7
100
AcDbLine
 10
494.2589520562
 20
179.8511724685
 30
0.0
 11
494.0089520562
 21
179.8511724685
 31
0.0
  0
ARC
  5
29F
330
28D
100
AcDbEntity
  8
DV3_Default
  6
Continuous
 62
     7
100
AcDbCircle
 10
494.0089520562
 20
179.8511724685
 30
0.0
 40
0.2500000000000002
100
AcDbArc
 50
270.0
 51
0.0
  0
LINE
  5
2A0
330
28D
100
AcDbEntity
  8
DV3_Default
  6
Continuous
 62
     7
100
AcDbLine
 10
494.0089520562
 20
179.6011724685
 30
0.0
 11
494.0089520562
 21
179.8511724685
 31
0.0
  0
LINE
  5
2A1
330
28D
100
AcDbEntity
  8
DV3_Default
  6
Continuous
 62
     7
100
AcDbLine
 10
490.5089520562
 20
179.6011724685
 30
0.0
 11
490.5089520562
 21
179.8511724685
 31
0.0
  0
ARC
  5
2A2
330
28D
100
AcDbEntity
  8
DV3_Default
  6
Continuous
 62
     7
100
AcDbCircle
 10
490.5089520562
 20
179.8511724685
 30
0.0
 40
0.2500000000000002
100
AcDbArc
 50
180.0
 51
270.0
  0
LINE
  5
2A3
330
28D
100
AcDbEntity
  8
DV3_Default
  6
Continuous
 62
     7
100
AcDbLine
 10
490.2589520562
 20
179.8511724685
 30
0.0
 11
490.5089520562
 21
179.8511724685
 31
0.0
  0
LINE
  5
2A4
330
28D
100
AcDbEntity
  8
DV3_Default
  6
Continuous
 62
     7
100
AcDbLine
 10
494.0089520562
 20
183.417893019
 30
0.0
 11
494.0089520562
 21
183.542893019
 31
0.0
  0
ELLIPSE
  5
2A5
330
28D
100
AcDbEntity
  8
DV3_Default
  6
Continuous
 62
     7
100
AcDbEllipse
 10
494.0089520562
 20
183.667893019
 30
0.0
 11
-0.2500000000000002
 21
-1.530808498934023E-17
 31
0.0
210
0.0
220
0.0
230
1.0
 40
0.5
 41
1.570796326794897
 42
3.141592653589793
  0
ELLIPSE
  5
2A6
330
28D
100
AcDbEntity
  8
DV3_Default
  6
Continuous
 62
     7
100
AcDbEllipse
 10
494.0089520562
 20
184.1009057209
 30
0.0
 11
-0.2500000000000002
 21
-1.530808498934193E-17
 31
0.0
210
0.0
220
0.0
230
1.0
 40
0.5
 41
1.570796326794897
 42
3.141592653589793
  0
ELLIPSE
  5
2A7
330
28D
100
AcDbEntity
  8
DV3_Default
  6
Continuous
 62
     7
100
AcDbEllipse
 10
494.0089520562
 20
184.1009057209
 30
0.0
 11
0.2500000000000002
 21
1.530808498934363E-17
 31
0.0
210
0.0
220
0.0
230
1.0
 40
0.8660254038
 41
0.0
 42
1.570796326794897
  0
LINE
  5
2A8
330
28D
100
AcDbEntity
  8
DV3_Default
  6
Continuous
 62
     7
100
AcDbLine
 10
494.0089520562
 20
183.9759057209
 30
0.0
 11
494.0089520562
 21
184.3174120718
 31
0.0
  0
LINE
  5
2A9
330
28D
100
AcDbEntity
  8
DV3_Default
  6
Continuous
 62
     7
100
AcDbLine
 10
490.5089520562
 20
183.417893019
 30
0.0
 11
490.5089520562
 21
183.542893019
 31
0.0
  0
ELLIPSE
  5
2AA
330
28D
100
AcDbEntity
  8
DV3_Default
  6
Continuous
 62
     7
100
AcDbEllipse
 10
490.5089520562
 20
183.667893019
 30
0.0
 11
-0.2500000000000002
 21
-1.530808498934023E-17
 31
0.0
210
0.0
220
0.0
230
1.0
 40
0.5
 41
0.0
 42
1.570796326794897
  0
ELLIPSE
  5
2AB
330
28D
100
AcDbEntity
  8
DV3_Default
  6
Continuous
 62
     7
100
AcDbEllipse
 10
490.5089520562
 20
184.1009057209
 30
0.0
 11
-0.2500000000000002
 21
-1.530808498934023E-17
 31
0.0
210
0.0
220
0.0
230
1.0
 40
0.5
 41
0.0
 42
1.570796326794897
  0
LINE
  5
2AC
330
28D
100
AcDbEntity
  8
DV3_Default
  6
Continuous
 62
     7
100
AcDbLine
 10
490.5089520562
 20
183.9759057209
 30
0.0
 11
490.5089520562
 21
184.3174120718
 31
0.0
  0
ELLIPSE
  5
2AD
330
28D
100
AcDbEntity
  8
DV3_Default
  6
Continuous
 62
     7
100
AcDbEllipse
 10
490.5089520562
 20
184.1009057209
 30
0.0
 11
-0.2500000000000002
 21
-1.530808498934023E-17
 31
0.0
210
0.0
220
0.0
230
1.0
 40
0.8660254038
 41
4.71238898038469
 42
6.283185307179586
  0
LINE
  5
2AE
330
28D
100
AcDbEntity
  8
DV3_Default
  6
Continuous
 62
     7
100
AcDbLine
 10
494.2589520562
 20
184.1009057209
 30
0.0
 11
494.2589520562
 21
183.667893019
 31
0.0
  0
LINE
  5
2AF
330
28D
100
AcDbEntity
  8
DV3_Default
  6
Continuous
 62
     7
100
AcDbLine
 10
494.0089520562
 20
183.542893019
 30
0.0
 11
494.0089520562
 21
183.9759057209
 31
0.0
  0
LINE
  5
2B0
330
28D
100
AcDbEntity
  8
DV3_Default
  6
Continuous
 62
     7
100
AcDbLine
 10
490.5089520562
 20
183.542893019
 30
0.0
 11
494.0089520562
 21
183.542893019
 31
0.0
  0
ELLIPSE
  5
2B1
330
28D
100
AcDbEntity
  8
DV3_Default
  6
Continuous
 62
     7
100
AcDbEllipse
 10
494.0089520562
 20
184.4759057209
 30
0.0
 11
-0.2499999999999725
 21
2.289681907439492E-13
 31
0.0
210
0.0
220
0.0
230
1.0
 40
0.8660254038
 41
4.038981999384625
 42
4.71238898038571
  0
LINE
  5
2B2
330
28D
100
AcDbEntity
  8
DV3_Default
  6
Continuous
 62
     7
100
AcDbLine
 10
494.0089520562
 20
184.3174120718
 30
0.0
 11
494.0089520562
 21
184.6924120718
 31
0.0
  0
LINE
  5
2B3
330
28D
100
AcDbEntity
  8
DV3_Default
  6
Continuous
 62
     7
100
AcDbLine
 10
494.2589520562
 20
184.4712648934
 30
0.0
 11
494.2589520562
 21
184.1009057209
 31
0.0
  0
ARC
  5
2B4
330
28D
100
AcDbEntity
  8
DV3_Default
  6
Continuous
 62
     7
100
AcDbCircle
 10
494.0420597232
 20
184.46630359
 30
0.0
 40
0.2169490692721632
100
AcDbArc
 50
1.3103837144
 51
55.5242750269
  0
LINE
  5
2B5
330
28D
100
AcDbEntity
  8
DV3_Default
  6
Continuous
 62
     7
100
AcDbLine
 10
490.5089520562
 20
184.3174120718
 30
0.0
 11
494.0089520562
 21
184.3174120718
 31
0.0
  0
LINE
  5
2B6
330
28D
100
AcDbEntity
  8
DV3_Default
  6
Continuous
 62
     7
100
AcDbLine
 10
494.0089520562
 20
183.9759057209
 30
0.0
 11
490.5089520562
 21
183.9759057209
 31
0.0
  0
LINE
  5
2B7
330
28D
100
AcDbEntity
  8
DV3_Default
  6
Continuous
 62
     7
100
AcDbLine
 10
490.5089520562
 20
183.9759057209
 30
0.0
 11
490.5089520562
 21
183.542893019
 31
0.0
  0
LINE
  5
2B8
330
28D
100
AcDbEntity
  8
DV3_Default
  6
Continuous
 62
     7
100
AcDbLine
 10
490.2589520562
 20
183.667893019
 30
0.0
 11
490.2589520562
 21
184.1009057209
 31
0.0
  0
LINE
  5
2B9
330
28D
100
AcDbEntity
  8
DV3_Default
  6
Continuous
 62
     7
100
AcDbLine
 10
490.5089520562
 20
184.6924120718
 30
0.0
 11
490.5089520562
 21
184.3174120718
 31
0.0
  0
ELLIPSE
  5
2BA
330
28D
100
AcDbEntity
  8
DV3_Default
  6
Continuous
 62
     7
100
AcDbEllipse
 10
490.5089520562
 20
184.4759057209
 30
0.0
 11
-0.2500000000000141
 21
6.923585818917886E-15
 31
0.0
210
0.0
220
0.0
230
1.0
 40
0.8660254038
 41
4.712388980384941
 42
5.385795961386021
  0
ARC
  5
2BB
330
28D
100
AcDbEntity
  8
DV3_Default
  6
Continuous
 62
     7
100
AcDbCircle
 10
490.4758447759
 20
184.4663033808
 30
0.0
 40
0.2169494606258794
100
AcDbArc
 50
124.4757778785
 51
178.6895633802
  0
LINE
  5
2BC
330
28D
100
AcDbEntity
  8
DV3_Default
  6
Continuous
 62
     7
100
AcDbLine
 10
490.2589520562
 20
184.1009057209
 30
0.0
 11
490.2589520562
 21
184.4712648934
 31
0.0
  0
LINE
  5
2BD
330
28D
100
AcDbEntity
  8
DV3_Default
  6
Continuous
 62
     7
100
AcDbLine
 10
494.0089520562
 20
184.6924120718
 30
0.0
 11
490.5089520562
 21
184.6924120718
 31
0.0
  0
LINE
  5
2BE
330
28D
100
AcDbEntity
  8
DV3_Default
  6
Continuous
 62
     7
100
AcDbLine
 10
494.0089520562
 20
191.517840471
 30
0.0
 11
494.0089520562
 21
191.8593468219
 31
0.0
  0
ELLIPSE
  5
2BF
330
28D
100
AcDbEntity
  8
DV3_Default
  6
Continuous
 62
     7
100
AcDbEllipse
 10
494.0089520562
 20
191.7343468219
 30
0.0
 11
-0.2500000000000141
 21
-1.530808498934107E-17
 31
0.0
210
0.0
220
0.0
230
1.0
 40
0.8660254038
 41
1.570796326794897
 42
3.141592653589793
  0
ELLIPSE
  5
2C0
330
28D
100
AcDbEntity
  8
DV3_Default
  6
Continuous
 62
     7
100
AcDbEllipse
 10
494.0089520562
 20
191.7343468219
 30
0.0
 11
-0.2500000000000002
 21
-1.530808498934193E-17
 31
0.0
210
0.0
220
0.0
230
1.0
 40
0.5
 41
3.141592653589793
 42
4.71238898038469
  0
ELLIPSE
  5
2C1
330
28D
100
AcDbEntity
  8
DV3_Default
  6
Continuous
 62
     7
100
AcDbEllipse
 10
494.0089520562
 20
192.1673595238
 30
0.0
 11
-0.2500000000000002
 21
-1.530808498934193E-17
 31
0.0
210
0.0
220
0.0
230
1.0
 40
0.5
 41
3.141592653589793
 42
4.71238898038469
  0
LINE
  5
2C2
330
28D
100
AcDbEntity
  8
DV3_Default
  6
Continuous
 62
     7
100
AcDbLine
 10
494.0089520562
 20
192.2923595238
 30
0.0
 11
494.0089520562
 21
192.4173595238
 31
0.0
  0
ELLIPSE
  5
2C3
330
28D
100
AcDbEntity
  8
DV3_Default
  6
Continuous
 62
     7
100
AcDbEllipse
 10
490.5089520562
 20
191.7343468219
 30
0.0
 11
-0.2500000000000002
 21
-1.530808498934023E-17
 31
0.0
210
0.0
220
0.0
230
1.0
 40
0.8660254038
 41
0.0
 42
1.570796326794897
  0
LINE
  5
2C4
330
28D
100
AcDbEntity
  8
DV3_Default
  6
Continuous
 62
     7
100
AcDbLine
 10
490.5089520562
 20
191.517840471
 30
0.0
 11
490.5089520562
 21
191.8593468219
 31
0.0
  0
ELLIPSE
  5
2C5
330
28D
100
AcDbEntity
  8
DV3_Default
  6
Continuous
 62
     7
100
AcDbEllipse
 10
490.5089520562
 20
191.7343468219
 30
0.0
 11
-0.2500000000000002
 21
-1.530808498934023E-17
 31
0.0
210
0.0
220
0.0
230
1.0
 40
0.5
 41
4.71238898038469
 42
6.283185307179586
  0
ELLIPSE
  5
2C6
330
28D
100
AcDbEntity
  8
DV3_Default
  6
Continuous
 62
     7
100
AcDbEllipse
 10
490.5089520562
 20
192.1673595238
 30
0.0
 11
-0.2500000000000002
 21
-1.530808498934023E-17
 31
0.0
210
0.0
220
0.0
230
1.0
 40
0.5
 41
4.71238898038469
 42
6.283185307179586
  0
LINE
  5
2C7
330
28D
100
AcDbEntity
  8
DV3_Default
  6
Continuous
 62
     7
100
AcDbLine
 10
490.5089520562
 20
192.2923595238
 30
0.0
 11
490.5089520562
 21
192.4173595238
 31
0.0
  0
LINE
  5
2C8
330
28D
100
AcDbEntity
  8
DV3_Default
  6
Continuous
 62
     7
100
AcDbLine
 10
494.2589520562
 20
192.1673595238
 30
0.0
 11
494.2589520562
 21
191.7343468219
 31
0.0
  0
LINE
  5
2C9
330
28D
100
AcDbEntity
  8
DV3_Default
  6
Continuous
 62
     7
100
AcDbLine
 10
494.0089520562
 20
191.8593468219
 30
0.0
 11
494.0089520562
 21
192.2923595238
 31
0.0
  0
LINE
  5
2CA
330
28D
100
AcDbEntity
  8
DV3_Default
  6
Continuous
 62
     7
100
AcDbLine
 10
490.5089520562
 20
191.8593468219
 30
0.0
 11
494.0089520562
 21
191.8593468219
 31
0.0
  0
LINE
  5
2CB
330
28D
100
AcDbEntity
  8
DV3_Default
  6
Continuous
 62
     7
100
AcDbLine
 10
494.0089520562
 20
191.517840471
 30
0.0
 11
490.5089520562
 21
191.517840471
 31
0.0
  0
LINE
  5
2CC
330
28D
100
AcDbEntity
  8
DV3_Default
  6
Continuous
 62
     7
100
AcDbLine
 10
494.0089520562
 20
191.142840471
 30
0.0
 11
494.0089520562
 21
191.517840471
 31
0.0
  0
ELLIPSE
  5
2CD
330
28D
100
AcDbEntity
  8
DV3_Default
  6
Continuous
 62
     7
100
AcDbEllipse
 10
494.0089520562
 20
191.3593468219
 30
0.0
 11
0.250000000000028
 21
-1.110069943775263E-13
 31
0.0
210
0.0
220
0.0
230
1.0
 40
0.8660254038
 41
4.712388980385302
 42
5.385795961386047
  0
ARC
  5
2CE
330
28D
100
AcDbEntity
  8
DV3_Default
  6
Continuous
 62
     7
100
AcDbCircle
 10
494.0420593365
 20
191.368949162
 30
0.0
 40
0.2169494606258583
100
AcDbArc
 50
304.4757778785
 51
358.6895633802
  0
LINE
  5
2CF
330
28D
100
AcDbEntity
  8
DV3_Default
  6
Continuous
 62
     7
100
AcDbLine
 10
494.2589520562
 20
191.7343468219
 30
0.0
 11
494.2589520562
 21
191.3639876494
 31
0.0
  0
LINE
  5
2D0
330
28D
100
AcDbEntity
  8
DV3_Default
  6
Continuous
 62
     7
100
AcDbLine
 10
494.0089520562
 20
192.2923595238
 30
0.0
 11
490.5089520562
 21
192.2923595238
 31
0.0
  0
LINE
  5
2D1
330
28D
100
AcDbEntity
  8
DV3_Default
  6
Continuous
 62
     7
100
AcDbLine
 10
490.5089520562
 20
192.2923595238
 30
0.0
 11
490.5089520562
 21
191.8593468219
 31
0.0
  0
LINE
  5
2D2
330
28D
100
AcDbEntity
  8
DV3_Default
  6
Continuous
 62
     7
100
AcDbLine
 10
490.2589520562
 20
191.7343468219
 30
0.0
 11
490.2589520562
 21
192.1673595238
 31
0.0
  0
ELLIPSE
  5
2D3
330
28D
100
AcDbEntity
  8
DV3_Default
  6
Continuous
 62
     7
100
AcDbEllipse
 10
490.5089520562
 20
191.3593468219
 30
0.0
 11
-0.2500000000000002
 21
-5.552645931624717E-14
 31
0.0
210
0.0
220
0.0
230
1.0
 40
0.8660254038
 41
0.8973893457936432
 42
1.570796326794704
  0
LINE
  5
2D4
330
28D
100
AcDbEntity
  8
DV3_Default
  6
Continuous
 62
     7
100
AcDbLine
 10
490.5089520562
 20
191.517840471
 30
0.0
 11
490.5089520562
 21
191.142840471
 31
0.0
  0
LINE
  5
2D5
330
28D
100
AcDbEntity
  8
DV3_Default
  6
Continuous
 62
     7
100
AcDbLine
 10
490.2589520562
 20
191.3639876494
 30
0.0
 11
490.2589520562
 21
191.7343468219
 31
0.0
  0
ARC
  5
2D6
330
28D
100
AcDbEntity
  8
DV3_Default
  6
Continuous
 62
     7
100
AcDbCircle
 10
490.4758443892
 20
191.3689489528
 30
0.0
 40
0.2169490692721111
100
AcDbArc
 50
181.3103837144
 51
235.5242750269
  0
LINE
  5
2D7
330
28D
100
AcDbEntity
  8
DV3_Default
  6
Continuous
 62
     7
100
AcDbLine
 10
490.5089520562
 20
191.142840471
 30
0.0
 11
494.0089520562
 21
191.142840471
 31
0.0
  0
LINE
  5
2D8
330
28D
100
AcDbEntity
  8
DV3_Default
  6
Continuous
 62
     7
100
AcDbLine
 10
494.0089520562
 20
195.9840800743
 30
0.0
 11
494.0089520562
 21
196.2340800743
 31
0.0
  0
LINE
  5
2D9
330
28D
100
AcDbEntity
  8
DV3_Default
  6
Continuous
 62
     7
100
AcDbLine
 10
494.0089520562
 20
195.9840800743
 30
0.0
 11
494.2589520562
 21
195.9840800743
 31
0.0
  0
ARC
  5
2DA
330
28D
100
AcDbEntity
  8
DV3_Default
  6
Continuous
 62
     7
100
AcDbCircle
 10
494.0089520562
 20
195.9840800743
 30
0.0
 40
0.2500000000000002
100
AcDbArc
 50
0.0
 51
90.0
  0
LINE
  5
2DB
330
28D
100
AcDbEntity
  8
DV3_Default
  6
Continuous
 62
     7
100
AcDbLine
 10
490.2589520562
 20
195.9840800743
 30
0.0
 11
490.5089520562
 21
195.9840800743
 31
0.0
  0
LINE
  5
2DC
330
28D
100
AcDbEntity
  8
DV3_Default
  6
Continuous
 62
     7
100
AcDbLine
 10
490.5089520562
 20
195.9840800743
 30
0.0
 11
490.5089520562
 21
196.2340800743
 31
0.0
  0
ARC
  5
2DD
330
28D
100
AcDbEntity
  8
DV3_Default
  6
Continuous
 62
     7
100
AcDbCircle
 10
490.5089520562
 20
195.9840800743
 30
0.0
 40
0.2500000000000002
100
AcDbArc
 50
90.0
 51
180.0
  0
LINE
  5
2DE
330
28D
100
AcDbEntity
  8
DV3_Default
  6
Continuous
 62
     7
100
AcDbLine
 10
490.5089520562
 20
196.2340800743
 30
0.0
 11
494.0089520562
 21
196.2340800743
 31
0.0
  0
LINE
  5
2DF
330
28D
100
AcDbEntity
  8
DV3_Default
  6
Continuous
 62
     7
100
AcDbLine
 10
494.0089520562
 20
195.9840800743
 30
0.0
 11
490.5089520562
 21
195.9840800743
 31
0.0
  0
LINE
  5
2E0
330
28D
100
AcDbEntity
  8
DV3_Default
  6
Continuous
 62
     7
100
AcDbLine
 10
494.0089520562
 20
195.2340800743
 30
0.0
 11
494.0089520562
 21
195.9840800743
 31
0.0
  0
LINE
  5
2E1
330
28D
100
AcDbEntity
  8
DV3_Default
  6
Continuous
 62
     7
100
AcDbLine
 10
494.164865267
 20
195.2340800743
 30
0.0
 11
494.0089520562
 21
195.2340800743
 31
0.0
  0
ARC
  5
2E2
330
28D
100
AcDbEntity
  8
DV3_Default
  6
Continuous
 62
     7
100
AcDbCircle
 10
494.1679656707
 20
195.6841646186
 30
0.0
 40
0.4500952227314007
100
AcDbArc
 50
269.6053247397
 51
281.6626661302
  0
LINE
  5
2E3
330
28D
100
AcDbEntity
  8
DV3_Default
  6
Continuous
 62
     7
100
AcDbLine
 10
494.2589520562
 20
195.9840800743
 30
0.0
 11
494.2589520562
 21
195.2433617294
 31
0.0
  0
LINE
  5
2E4
330
28D
100
AcDbEntity
  8
DV3_Default
  6
Continuous
 62
     7
100
AcDbLine
 10
490.5089520562
 20
195.2340800743
 30
0.0
 11
490.3530388454
 21
195.2340800743
 31
0.0
  0
LINE
  5
2E5
330
28D
100
AcDbEntity
  8
DV3_Default
  6
Continuous
 62
     7
100
AcDbLine
 10
490.5089520562
 20
195.9840800743
 30
0.0
 11
490.5089520562
 21
195.2340800743
 31
0.0
  0
LINE
  5
2E6
330
28D
100
AcDbEntity
  8
DV3_Default
  6
Continuous
 62
     7
100
AcDbLine
 10
490.2589520562
 20
195.2433617294
 30
0.0
 11
490.2589520562
 21
195.9840800743
 31
0.0
  0
ARC
  5
2E7
330
28D
100
AcDbEntity
  8
DV3_Default
  6
Continuous
 62
     7
100
AcDbCircle
 10
490.3499383112
 20
195.684163296
 30
0.0
 40
0.4500939010280537
100
AcDbArc
 50
258.337316101
 51
270.3946930292
  0
LINE
  5
2E8
330
28D
100
AcDbEntity
  8
DV3_Default
  6
Continuous
 62
     7
100
AcDbLine
 10
490.5089520562
 20
195.2340800743
 30
0.0
 11
494.0089520562
 21
195.2340800743
 31
0.0
  0
LINE
  5
2E9
330
28D
100
AcDbEntity
  8
DV3_Default
  6
Continuous
 62
     7
100
AcDbLine
 10
485.0089520562
 20
182.9176262714
 30
0.0
 11
490.0089520562
 21
182.9176262714
 31
0.0
  0
LINE
  5
2EA
330
28D
100
AcDbEntity
  8
DV3_Default
  6
Continuous
 62
     7
100
AcDbLine
 10
490.0089520562
 20
192.9176262714
 30
0.0
 11
485.0089520562
 21
192.9176262714
 31
0.0
  0
LINE
  5
2EB
330
28D
100
AcDbEntity
  8
DV3_Default
  6
Continuous
 62
     7
100
AcDbLine
 10
494.2589520562
 20
180.5876262714
 30
0.0
 11
497.0089520562
 21
180.5876262714
 31
0.0
  0
LINE
  5
2EC
330
28D
100
AcDbEntity
  8
DV3_Default
  6
Continuous
 62
     7
100
AcDbLine
 10
490.0089520562
 20
180.5876262714
 30
0.0
 11
490.2589520562
 21
180.5876262714
 31
0.0
  0
LINE
  5
2ED
330
28D
100
AcDbEntity
  8
DV3_Default
  6
Continuous
 62
     7
100
AcDbLine
 10
490.2589520562
 20
195.2476262714
 30
0.0
 11
490.0089520562
 21
195.2476262714
 31
0.0
  0
LINE
  5
2EE
330
28D
100
AcDbEntity
  8
DV3_Default
  6
Continuous
 62
     7
100
AcDbLine
 10
497.0089520562
 20
195.2476262714
 30
0.0
 11
494.2589520562
 21
195.2476262714
 31
0.0
  0
LINE
  5
2EF
330
28D
100
AcDbEntity
  8
DV3_Default
  6
Continuous
 62
     7
100
AcDbLine
 10
497.0089520562
 20
180.5876262714
 30
0.0
 11
498.0089520562
 21
181.1649765406
 31
0.0
  0
LINE
  5
2F0
330
28D
100
AcDbEntity
  8
DV3_Default
  6
Continuous
 62
     7
100
AcDbLine
 10
498.0089520562
 20
194.6702760022
 30
0.0
 11
497.0089520562
 21
195.2476262714
 31
0.0
  0
ARC
  5
2F1
330
28D
100
AcDbEntity
  8
DV3_Default
  6
Continuous
 62
     7
100
AcDbCircle
 10
494.0089520562
 20
183.667893019
 30
0.0
 40
0.2500000000000002
100
AcDbArc
 50
270.0
 51
0.0
  0
ARC
  5
2F2
330
28D
100
AcDbEntity
  8
DV3_Default
  6
Continuous
 62
     7
100
AcDbCircle
 10
490.5089520562
 20
183.667893019
 30
0.0
 40
0.2500000000000002
100
AcDbArc
 50
180.0
 51
270.0
  0
LINE
  5
2F3
330
28D
100
AcDbEntity
  8
DV3_Default
  6
Continuous
 62
     7
100
AcDbLine
 10
490.5089520562
 20
183.417893019
 30
0.0
 11
494.0089520562
 21
183.417893019
 31
0.0
  0
ARC
  5
2F4
330
28D
100
AcDbEntity
  8
DV3_Default
  6
Continuous
 62
     7
100
AcDbCircle
 10
494.0089520562
 20
192.1673595238
 30
0.0
 40
0.2500000000000002
100
AcDbArc
 50
0.0
 51
90.0
  0
ARC
  5
2F5
330
28D
100
AcDbEntity
  8
DV3_Default
  6
Continuous
 62
     7
100
AcDbCircle
 10
490.5089520562
 20
192.1673595238
 30
0.0
 40
0.2500000000000002
100
AcDbArc
 50
90.0
 51
180.0
  0
LINE
  5
2F6
330
28D
100
AcDbEntity
  8
DV3_Default
  6
Continuous
 62
     7
100
AcDbLine
 10
494.0089520562
 20
192.4173595238
 30
0.0
 11
490.5089520562
 21
192.4173595238
 31
0.0
  0
LINE
  5
2F7
330
28D
100
AcDbEntity
  8
DV3_Default
  6
Continuous
 62
     7
100
AcDbLine
 10
490.0089520562
 20
183.5311262714
 30
0.0
 11
485.0089520562
 21
183.5311262714
 31
0.0
  0
LINE
  5
2F8
330
28D
100
AcDbEntity
  8
DV3_Default
  6
Continuous
 62
     7
100
AcDbLine
 10
490.0089520562
 20
192.3041262714
 30
0.0
 11
485.0089520562
 21
192.3041262714
 31
0.0
  0
LINE
  5
2F9
330
28D
100
AcDbEntity
  8
DV3_Default
  6
Continuous
 62
     7
100
AcDbLine
 10
478.0089520562
 20
174.9176262714
 30
0.0
 11
478.0089520562
 21
200.9176262714
 31
0.0
  0
LINE
  5
2FA
330
28D
100
AcDbEntity
  8
DV3_Default
  6
Continuous
 62
     7
100
AcDbLine
 10
479.5089520562
 20
200.9176262714
 30
0.0
 11
479.5089520562
 21
174.9176262714
 31
0.0
  0
LINE
  5
2FB
330
28D
100
AcDbEntity
  8
DV3_Default
  6
Continuous
 62
     7
100
AcDbLine
 10
480.0089520562
 20
175.4176262714
 30
0.0
 11
480.0089520562
 21
200.4176262714
 31
0.0
  0
LINE
  5
2FC
330
28D
100
AcDbEntity
  8
DV3_Default
  6
Continuous
 62
     7
100
AcDbLine
 10
483.6604462802
 20
193.4024538287
 30
0.0
 11
480.0089520562
 21
193.4024538287
 31
0.0
  0
LINE
  5
2FD
330
28D
100
AcDbEntity
  8
DV3_Default
  6
Continuous
 62
     7
100
AcDbLine
 10
483.6604462802
 20
198.887281386
 30
0.0
 11
480.0089520562
 21
198.887281386
 31
0.0
  0
ARC
  5
2FE
330
28D
100
AcDbEntity
  8
DV3_Default
  6
Continuous
 62
     7
100
AcDbCircle
 10
479.5883424273
 20
196.1448676074
 30
0.0
 40
4.909466684078866
100
AcDbArc
 50
326.0411677555
 51
33.9588322445
  0
LINE
  5
2FF
330
28D
100
AcDbEntity
  8
DV3_Default
  6
Continuous
 62
     7
100
AcDbLine
 10
483.6604462802
 20
182.4327987141
 30
0.0
 11
480.0089520562
 21
182.4327987141
 31
0.0
  0
LINE
  5
300
330
28D
100
AcDbEntity
  8
DV3_Default
  6
Continuous
 62
     7
100
AcDbLine
 10
483.6604462802
 20
176.9479711568
 30
0.0
 11
480.0089520562
 21
176.9479711568
 31
0.0
  0
ARC
  5
301
330
28D
100
AcDbEntity
  8
DV3_Default
  6
Continuous
 62
     7
100
AcDbCircle
 10
479.5883424273
 20
179.6903849354
 30
0.0
 40
4.909466684078811
100
AcDbArc
 50
326.0411677555
 51
33.9588322445
  0
SPLINE
  5
302
330
28D
100
AcDbEntity
  8
DV3_Default
  6
Continuous
 62
     7
100
AcDbSpline
210
0.0
220
0.0
230
1.0
 70
     8
 71
     3
 72
    16
 73
    12
 74
     0
 42
0.0000000008972749
 43
0.0000000001
 40
0.0
 40
0.0
 40
0.0
 40
0.0
 40
0.2500000000000001
 40
0.2500000000000001
 40
0.5000000000000001
 40
0.5000000000000001
 40
0.6250000000000001
 40
0.6250000000000001
 40
0.7500000000000002
 40
0.7500000000000002
 40
1.0
 40
1.0
 40
1.0
 40
1.0
 10
483.660446280172
 20
182.4327987140977
 30
0.0
 10
483.9182327459639
 20
183.325797226608
 30
0.0
 10
484.1341542171305
 20
184.2395219244008
 30
0.0
 10
484.4293439688023
 20
186.0705598508267
 30
0.0
 10
484.509059377738
 20
186.9917255595115
 30
0.0
 10
484.5088982299752
 20
188.3834345557588
 30
0.0
 10
484.4890979098253
 20
188.8492492113489
 30
0.0
 10
484.4105803114084
 20
189.7830223865876
 30
0.0
 10
484.3524613177336
 20
190.2449065074887
 30
0.0
 10
484.1295078590868
 20
191.6176691694858
 30
0.0
 10
483.9164162039597
 20
192.515748002281
 30
0.0
 10
483.660446280172
 20
193.4024538287006
 30
0.0
  0
LINE
  5
303
330
28D
100
AcDbEntity
  8
DV3_Default
  6
Continuous
 62
     7
100
AcDbLine
 10
485.0089520562
 20
179.2836516752
 30
0.0
 11
485.0089520562
 21
196.5516008676
 31
0.0
  0
LINE
  5
304
330
28D
100
AcDbEntity
  8
DV3_Default
  6
Continuous
 62
     7
100
AcDbLine
 10
478.0089520562
 20
174.9176262714
 30
0.0
 11
479.5089520562
 21
174.9176262714
 31
0.0
  0
LINE
  5
305
330
28D
100
AcDbEntity
  8
DV3_Default
  6
Continuous
 62
     7
100
AcDbLine
 10
479.5089520562
 20
200.9176262714
 30
0.0
 11
478.0089520562
 21
200.9176262714
 31
0.0
  0
ARC
  5
306
330
28D
100
AcDbEntity
  8
DV3_Default
  6
Continuous
 62
     7
100
AcDbCircle
 10
479.5089520562
 20
175.4176262714
 30
0.0
 40
0.5000000000000004
100
AcDbArc
 50
270.0
 51
0.0
  0
ARC
  5
307
330
28D
100
AcDbEntity
  8
DV3_Default
  6
Continuous
 62
     7
100
AcDbCircle
 10
479.5089520562
 20
200.4176262714
 30
0.0
 40
0.5000000000000004
100
AcDbArc
 50
0.0
 51
90.0
  0
LINE
  5
308
330
28D
100
AcDbEntity
  8
DV3_Default
  6
Continuous
 62
     7
100
AcDbLine
 10
483.6604462802
 20
176.9479711568
 30
0.0
 11
485.0089520562
 21
179.2836516752
 31
0.0
  0
LINE
  5
309
330
28D
100
AcDbEntity
  8
DV3_Default
  6
Continuous
 62
     7
100
AcDbLine
 10
485.0089520562
 20
196.5516008676
 30
0.0
 11
483.6604462802
 21
198.887281386
 31
0.0
  0
CIRCLE
  5
30A
330
28D
100
AcDbEntity
  8
DV3_Default
  6
Continuous
 62
     7
100
AcDbCircle
 10
449.5089520562
 20
187.9176262714
 30
0.0
 40
13.0
  0
CIRCLE
  5
30B
330
28D
100
AcDbEntity
  8
DV3_Default
  6
Continuous
 62
     7
100
AcDbCircle
 10
449.5089520562
 20
187.9176262714
 30
0.0
 40
12.5
  0
LINE
  5
30C
330
28D
100
AcDbEntity
  8
DV3_Default
  6
Continuous
 62
     7
100
AcDbLine
 10
440.0089520562
 20
193.4024538287
 30
0.0
 11
449.5089520562
 21
198.887281386
 31
0.0
  0
LINE
  5
30D
330
28D
100
AcDbEntity
  8
DV3_Default
  6
Continuous
 62
     7
100
AcDbLine
 10
449.5089520562
 20
198.887281386
 30
0.0
 11
459.0089520562
 21
193.4024538287
 31
0.0
  0
LINE
  5
30E
330
28D
100
AcDbEntity
  8
DV3_Default
  6
Continuous
 62
     7
100
AcDbLine
 10
459.0089520562
 20
193.4024538287
 30
0.0
 11
459.0089520562
 21
182.4327987141
 31
0.0
  0
LINE
  5
30F
330
28D
100
AcDbEntity
  8
DV3_Default
  6
Continuous
 62
     7
100
AcDbLine
 10
459.0089520562
 20
182.4327987141
 30
0.0
 11
449.5089520562
 21
176.9479711568
 31
0.0
  0
LINE
  5
310
330
28D
100
AcDbEntity
  8
DV3_Default
  6
Continuous
 62
     7
100
AcDbLine
 10
449.5089520562
 20
176.9479711568
 30
0.0
 11
440.0089520562
 21
182.4327987141
 31
0.0
  0
LINE
  5
311
330
28D
100
AcDbEntity
  8
DV3_Default
  6
Continuous
 62
     7
100
AcDbLine
 10
440.0089520562
 20
182.4327987141
 30
0.0
 11
440.0089520562
 21
193.4024538287
 31
0.0
  0
CIRCLE
  5
312
330
28D
100
AcDbEntity
  8
DV3_Default
  6
Continuous
 62
     7
100
AcDbCircle
 10
449.5089520562
 20
187.9176262714
 30
0.0
 40
8.633974596215559
  0
LINE
  5
313
330
28D
100
AcDbEntity
  8
DV3_Default
  6
Continuous
 62
     7
100
AcDbLine
 10
477.2589520562
 20
201.4176262714
 30
0.0
 11
477.2589520562
 21
174.4176262714
 31
0.0
  0
LINE
  5
314
330
28D
100
AcDbEntity
  8
DV3_Default
  6
Continuous
 62
     7
100
AcDbLine
 10
474.2998390246
 20
201.2421596037
 30
0.0
 11
474.2998390246
 21
174.5930929391
 31
0.0
  0
LINE
  5
315
330
28D
100
AcDbEntity
  8
DV3_Default
  6
Continuous
 62
     7
100
AcDbLine
 10
474.7819297319
 20
174.4176262714
 30
0.0
 11
474.7819297319
 21
201.4176262714
 31
0.0
  0
LINE
  5
316
330
28D
100
AcDbEntity
  8
DV3_Default
  6
Continuous
 62
     7
100
AcDbLine
 10
471.256590399
 20
198.9176262714
 30
0.0
 11
471.256590399
 21
176.9176262714
 31
0.0
  0
LINE
  5
317
330
28D
100
AcDbEntity
  8
DV3_Default
  6
Continuous
 62
     7
100
AcDbLine
 10
471.7386811063
 20
176.7421596037
 30
0.0
 11
471.7386811063
 21
199.0930929391
 31
0.0
  0
CIRCLE
  5
318
330
28D
100
AcDbEntity
  8
DV3_Default
  6
Continuous
 62
     7
100
AcDbCircle
 10
449.5089520562
 20
187.9176262714
 30
0.0
 40
13.49999999999999
  0
LINE
  5
319
330
28D
100
AcDbEntity
  8
DV3_Default
  6
Continuous
 62
     7
100
AcDbLine
 10
457.3351899775
 20
176.9176262714
 30
0.0
 11
471.256590399
 21
176.9176262714
 31
0.0
  0
LINE
  5
31A
330
28D
100
AcDbEntity
  8
DV3_Default
  6
Continuous
 62
     7
100
AcDbLine
 10
471.256590399
 20
198.9176262714
 30
0.0
 11
457.3351899775
 21
198.9176262714
 31
0.0
  0
LINE
  5
31B
330
28D
100
AcDbEntity
  8
DV3_Default
  6
Continuous
 62
     7
100
AcDbLine
 10
474.7819297319
 20
174.4176262714
 30
0.0
 11
477.2589520562
 21
174.4176262714
 31
0.0
  0
LINE
  5
31C
330
28D
100
AcDbEntity
  8
DV3_Default
  6
Continuous
 62
     7
100
AcDbLine
 10
477.2589520562
 20
201.4176262714
 30
0.0
 11
474.7819297319
 21
201.4176262714
 31
0.0
  0
LINE
  5
31D
330
28D
100
AcDbEntity
  8
DV3_Default
  6
Continuous
 62
     7
100
AcDbLine
 10
474.2998390246
 20
201.2421596037
 30
0.0
 11
471.7386811063
 21
199.0930929391
 31
0.0
  0
LINE
  5
31E
330
28D
100
AcDbEntity
  8
DV3_Default
  6
Continuous
 62
     7
100
AcDbLine
 10
471.7386811063
 20
176.7421596037
 30
0.0
 11
474.2998390246
 21
174.5930929391
 31
0.0
  0
ARC
  5
31F
330
28D
100
AcDbEntity
  8
DV3_Default
  6
Continuous
 62
     7
100
AcDbCircle
 10
477.2589520562
 20
175.1676262714
 30
0.0
 40
0.7500000000000007
100
AcDbArc
 50
270.0
 51
0.0
  0
ARC
  5
320
330
28D
100
AcDbEntity
  8
DV3_Default
  6
Continuous
 62
     7
100
AcDbCircle
 10
477.2589520562
 20
200.6676262714
 30
0.0
 40
0.7500000000000007
100
AcDbArc
 50
0.0
 51
90.0
  0
ARC
  5
321
330
28D
100
AcDbEntity
  8
DV3_Default
  6
Continuous
 62
     7
100
AcDbCircle
 10
474.7819297319
 20
200.6676262714
 30
0.0
 40
0.7500000000000007
100
AcDbArc
 50
90.0
 51
130.0
  0
ARC
  5
322
330
28D
100
AcDbEntity
  8
DV3_Default
  6
Continuous
 62
     7
100
AcDbCircle
 10
474.7819297319
 20
175.1676262714
 30
0.0
 40
0.749999999999995
100
AcDbArc
 50
230.0
 51
270.0
  0
ARC
  5
323
330
28D
100
AcDbEntity
  8
DV3_Default
  6
Continuous
 62
     7
100
AcDbCircle
 10
471.256590399
 20
176.1676262714
 30
0.0
 40
0.7500000000000007
100
AcDbArc
 50
50.0
 51
90.0
  0
ARC
  5
324
330
28D
100
AcDbEntity
  8
DV3_Default
  6
Continuous
 62
     7
100
AcDbCircle
 10
471.256590399
 20
199.6676262714
 30
0.0
 40
0.7500000000000094
100
AcDbArc
 50
270.0
 51
310.0
  0
LINE
  5
325
330
28D
100
AcDbEntity
  8
DV3_Default
  6
Continuous
 62
     7
100
AcDbLine
 10
424.5089520562
 20
167.9176262714
 30
0.0
 11
424.5089520562
 21
241.9176262714
 31
0.0
  0
LINE
  5
326
330
28D
100
AcDbEntity
  8
DV3_Default
  6
Continuous
 62
     7
100
AcDbLine
 10
473.5089520562
 20
167.9176262714
 30
0.0
 11
473.5089520562
 21
175.2567259026
 31
0.0
  0
LINE
  5
327
330
28D
100
AcDbEntity
  8
DV3_Default
  6
Continuous
 62
     7
100
AcDbLine
 10
473.5089520562
 20
200.5785266402
 30
0.0
 11
473.5089520562
 21
241.9176262714
 31
0.0
  0
LINE
  5
328
330
28D
100
AcDbEntity
  8
DV3_Default
  6
Continuous
 62
     7
100
AcDbLine
 10
473.5089520562
 20
241.9176262714
 30
0.0
 11
425.5089520562
 21
241.9176262714
 31
0.0
  0
ARC
  5
329
330
28D
100
AcDbEntity
  8
DV3_Default
  6
Continuous
 62
     7
100
AcDbCircle
 10
449.5089520562
 20
167.9176262714
 30
0.0
 40
23.99999999999999
100
AcDbArc
 50
180.0
 51
0.0
  0
LINE
  5
32A
330
28D
100
AcDbEntity
  8
DV3_Default
  6
Continuous
 62
     7
100
AcDbLine
 10
425.5089520562
 20
241.9176262714
 30
0.0
 11
425.5089520562
 21
167.9176262714
 31
0.0
  0
ARC
  5
32B
330
28D
100
AcDbEntity
  8
DV3_Default
  6
Continuous
 62
     7
100
AcDbCircle
 10
449.5089520562
 20
167.9176262714
 30
0.0
 40
25.00000000000001
100
AcDbArc
 50
180.0
 51
0.0
  0
LINE
  5
32C
330
28D
100
AcDbEntity
  8
DV3_Default
  6
Continuous
 62
     7
100
AcDbLine
 10
425.5089520562
 20
242.9176262714
 30
0.0
 11
473.5089520562
 21
242.9176262714
 31
0.0
  0
LINE
  5
32D
330
28D
100
AcDbEntity
  8
DV3_Default
  6
Continuous
 62
     7
100
AcDbLine
 10
474.5089520562
 20
241.9176262714
 30
0.0
 11
474.5089520562
 21
201.3661842064
 31
0.0
  0
LINE
  5
32E
330
28D
100
AcDbEntity
  8
DV3_Default
  6
Continuous
 62
     7
100
AcDbLine
 10
474.5089520562
 20
174.4690683364
 30
0.0
 11
474.5089520562
 21
167.9176262714
 31
0.0
  0
ARC
  5
32F
330
28D
100
AcDbEntity
  8
DV3_Default
  6
Continuous
 62
     7
100
AcDbCircle
 10
473.5089520562
 20
241.9176262714
 30
0.0
 40
1.000000000000001
100
AcDbArc
 50
0.0
 51
90.0
  0
LINE
  5
330
330
28D
100
AcDbEntity
  8
DV3_Default
  6
Continuous
 62
     7
100
AcDbLine
 10
474.5089520562
 20
241.9176262714
 30
0.0
 11
473.5089520562
 21
241.9176262714
 31
0.0
  0
LINE
  5
331
330
28D
100
AcDbEntity
  8
DV3_Default
  6
Continuous
 62
     7
100
AcDbLine
 10
473.5089520562
 20
241.9176262714
 30
0.0
 11
473.5089520562
 21
242.9176262714
 31
0.0
  0
LINE
  5
332
330
28D
100
AcDbEntity
  8
DV3_Default
  6
Continuous
 62
     7
100
AcDbLine
 10
474.5089520562
 20
167.9176262714
 30
0.0
 11
473.5089520562
 21
167.9176262714
 31
0.0
  0
ARC
  5
333
330
28D
100
AcDbEntity
  8
DV3_Default
  6
Continuous
 62
     7
100
AcDbCircle
 10
425.5089520562
 20
241.9176262714
 30
0.0
 40
1.000000000000001
100
AcDbArc
 50
90.0
 51
180.0
  0
LINE
  5
334
330
28D
100
AcDbEntity
  8
DV3_Default
  6
Continuous
 62
     7
100
AcDbLine
 10
425.5089520562
 20
241.9176262714
 30
0.0
 11
425.5089520562
 21
242.9176262714
 31
0.0
  0
LINE
  5
335
330
28D
100
AcDbEntity
  8
DV3_Default
  6
Continuous
 62
     7
100
AcDbLine
 10
424.5089520562
 20
167.9176262714
 30
0.0
 11
425.5089520562
 21
167.9176262714
 31
0.0
  0
LINE
  5
336
330
28D
100
AcDbEntity
  8
DV3_Default
  6
Continuous
 62
     7
100
AcDbLine
 10
425.5089520562
 20
241.9176262714
 30
0.0
 11
424.5089520562
 21
241.9176262714
 31
0.0
  0
LINE
  5
337
330
28D
100
AcDbEntity
  8
DV3_Default
  6
Continuous
 62
     7
100
AcDbLine
 10
569.5089520562
 20
242.9176262714
 30
0.0
 11
473.5089520562
 21
242.9176262714
 31
0.0
  0
LINE
  5
338
330
28D
100
AcDbEntity
  8
DV3_Default
  6
Continuous
 62
     7
100
AcDbLine
 10
425.5089520562
 20
242.9176262714
 30
0.0
 11
134.5089520562
 21
242.9176262714
 31
0.0
  0
LINE
  5
339
330
28D
100
AcDbEntity
  8
DV3_Default
  6
Continuous
 62
     7
100
AcDbLine
 10
134.5089520562
 20
228.3357825294
 30
0.0
 11
150.4469944629
 21
133.714642297
 31
0.0
  0
LINE
  5
33A
330
28D
100
AcDbEntity
  8
DV3_Default
  6
Continuous
 62
     7
100
AcDbLine
 10
129.5089520562
 20
228.3357825294
 30
0.0
 11
129.5089520562
 21
237.9176262714
 31
0.0
  0
LINE
  5
33B
330
28D
100
AcDbEntity
  8
DV3_Default
  6
Continuous
 62
     7
100
AcDbLine
 10
129.5089520562
 20
228.3357825294
 30
0.0
 11
134.5089520562
 21
228.3357825294
 31
0.0
  0
ARC
  5
33C
330
28D
100
AcDbEntity
  8
DV3_Default
  6
Continuous
 62
     7
100
AcDbCircle
 10
134.5089520562
 20
228.3357825294
 30
0.0
 40
5.000000000000004
100
AcDbArc
 50
180.0
 51
189.5611860217
  0
LINE
  5
33D
330
28D
100
AcDbEntity
  8
DV3_Default
  6
Continuous
 62
     7
100
AcDbLine
 10
134.5089520562
 20
228.3357825294
 30
0.0
 11
129.5784081299
 21
227.5052787118
 31
0.0
  0
LINE
  5
33E
330
28D
100
AcDbEntity
  8
DV3_Default
  6
Continuous
 62
     7
100
AcDbLine
 10
150.4469944629
 20
133.714642297
 30
0.0
 11
164.7320292164
 21
117.8884388661
 31
0.0
  0
LINE
  5
33F
330
28D
100
AcDbEntity
  8
DV3_Default
  6
Continuous
 62
     7
100
AcDbLine
 10
164.7320292164
 20
117.8884388661
 30
0.0
 11
185.2339493845
 21
117.8884388661
 31
0.0
  0
LINE
  5
340
330
28D
100
AcDbEntity
  8
DV3_Default
  6
Continuous
 62
     7
100
AcDbLine
 10
161.0203962277
 20
114.5382477436
 30
0.0
 11
146.7353614741
 21
130.3644511746
 31
0.0
  0
LINE
  5
341
330
28D
100
AcDbEntity
  8
DV3_Default
  6
Continuous
 62
     7
100
AcDbLine
 10
145.5164505366
 20
132.8841384795
 30
0.0
 11
129.5784081299
 21
227.5052787118
 31
0.0
  0
LINE
  5
342
330
28D
100
AcDbEntity
  8
DV3_Default
  6
Continuous
 62
     7
100
AcDbLine
 10
145.5164505366
 20
132.8841384795
 30
0.0
 11
150.4469944629
 21
133.714642297
 31
0.0
  0
ARC
  5
343
330
28D
100
AcDbEntity
  8
DV3_Default
  6
Continuous
 62
     7
100
AcDbCircle
 10
150.4469944629
 20
133.714642297
 30
0.0
 40
5.000000000000003
100
AcDbArc
 50
189.5611860217
 51
222.0700150552
  0
LINE
  5
344
330
28D
100
AcDbEntity
  8
DV3_Default
  6
Continuous
 62
     7
100
AcDbLine
 10
150.4469944629
 20
133.714642297
 30
0.0
 11
146.7353614741
 21
130.3644511746
 31
0.0
  0
ARC
  5
345
330
28D
100
AcDbEntity
  8
DV3_Default
  6
Continuous
 62
     7
100
AcDbCircle
 10
164.7320292164
 20
117.8884388661
 30
0.0
 40
5.000000000000015
100
AcDbArc
 50
222.0700150552
 51
270.0
  0
LINE
  5
346
330
28D
100
AcDbEntity
  8
DV3_Default
  6
Continuous
 62
     7
100
AcDbLine
 10
164.7320292164
 20
117.8884388661
 30
0.0
 11
161.0203962277
 21
114.5382477436
 31
0.0
  0
LINE
  5
347
330
28D
100
AcDbEntity
  8
DV3_Default
  6
Continuous
 62
     7
100
AcDbLine
 10
164.7320292164
 20
117.8884388661
 30
0.0
 11
164.7320292164
 21
112.8884388661
 31
0.0
  0
LINE
  5
348
330
28D
100
AcDbEntity
  8
DV3_Default
  6
Continuous
 62
     7
100
AcDbLine
 10
574.5089520562
 20
237.9176262714
 30
0.0
 11
574.5089520562
 21
228.3540583116
 31
0.0
  0
LINE
  5
349
330
28D
100
AcDbEntity
  8
DV3_Default
  6
Continuous
 62
     7
100
AcDbLine
 10
538.5649975823
 20
117.8884388661
 30
0.0
 11
552.8632085149
 21
133.7292400137
 31
0.0
  0
LINE
  5
34A
330
28D
100
AcDbEntity
  8
DV3_Default
  6
Continuous
 62
     7
100
AcDbLine
 10
552.8632085149
 20
133.7292400137
 30
0.0
 11
569.5089520562
 21
228.3540583116
 31
0.0
  0
LINE
  5
34B
330
28D
100
AcDbEntity
  8
DV3_Default
  6
Continuous
 62
     7
100
AcDbLine
 10
569.5089520562
 20
228.3540583116
 30
0.0
 11
569.5089520562
 21
237.9176262714
 31
0.0
  0
LINE
  5
34C
330
28D
100
AcDbEntity
  8
DV3_Default
  6
Continuous
 62
     7
100
AcDbLine
 10
574.4333389757
 20
227.4877942254
 30
0.0
 11
557.7875954344
 21
132.8629759274
 31
0.0
  0
LINE
  5
34D
330
28D
100
AcDbEntity
  8
DV3_Default
  6
Continuous
 62
     7
100
AcDbLine
 10
556.5748415037
 20
130.3790488912
 30
0.0
 11
542.2766305711
 21
114.5382477436
 31
0.0
  0
LINE
  5
34E
330
28D
100
AcDbEntity
  8
DV3_Default
  6
Continuous
 62
     7
100
AcDbLine
 10
538.5649975823
 20
112.8884388661
 30
0.0
 11
518.0630774142
 21
112.8884388661
 31
0.0
  0
LINE
  5
34F
330
28D
100
AcDbEntity
  8
DV3_Default
  6
Continuous
 62
     7
100
AcDbLine
 10
538.5649975823
 20
112.8884388661
 30
0.0
 11
538.5649975823
 21
117.8884388661
 31
0.0
  0
ARC
  5
350
330
28D
100
AcDbEntity
  8
DV3_Default
  6
Continuous
 62
     7
100
AcDbCircle
 10
538.5649975823
 20
117.8884388661
 30
0.0
 40
5.000000000000004
100
AcDbArc
 50
270.0
 51
317.9299849448
  0
LINE
  5
351
330
28D
100
AcDbEntity
  8
DV3_Default
  6
Continuous
 62
     7
100
AcDbLine
 10
538.5649975823
 20
117.8884388661
 30
0.0
 11
542.2766305711
 21
114.5382477436
 31
0.0
  0
ARC
  5
352
330
28D
100
AcDbEntity
  8
DV3_Default
  6
Continuous
 62
     7
100
AcDbCircle
 10
552.8632085149
 20
133.7292400137
 30
0.0
 40
5.0
100
AcDbArc
 50
317.9299849448
 51
350.0230011208
  0
LINE
  5
353
330
28D
100
AcDbEntity
  8
DV3_Default
  6
Continuous
 62
     7
100
AcDbLine
 10
552.8632085149
 20
133.7292400137
 30
0.0
 11
556.5748415037
 21
130.3790488912
 31
0.0
  0
LINE
  5
354
330
28D
100
AcDbEntity
  8
DV3_Default
  6
Continuous
 62
     7
100
AcDbLine
 10
552.8632085149
 20
133.7292400137
 30
0.0
 11
557.7875954344
 21
132.8629759274
 31
0.0
  0
ARC
  5
355
330
28D
100
AcDbEntity
  8
DV3_Default
  6
Continuous
 62
     7
100
AcDbCircle
 10
569.5089520562
 20
228.3540583116
 30
0.0
 40
5.0
100
AcDbArc
 50
350.0230011208
 51
0.0
  0
LINE
  5
356
330
28D
100
AcDbEntity
  8
DV3_Default
  6
Continuous
 62
     7
100
AcDbLine
 10
569.5089520562
 20
228.3540583116
 30
0.0
 11
574.4333389757
 21
227.4877942254
 31
0.0
  0
LINE
  5
357
330
28D
100
AcDbEntity
  8
DV3_Default
  6
Continuous
 62
     7
100
AcDbLine
 10
569.5089520562
 20
228.3540583116
 30
0.0
 11
574.5089520562
 21
228.3540583116
 31
0.0
  0
ARC
  5
358
330
28D
100
AcDbEntity
  8
DV3_Default
  6
Continuous
 62
     7
100
AcDbCircle
 10
569.5089520562
 20
237.9176262714
 30
0.0
 40
5.0
100
AcDbArc
 50
0.0
 51
90.0
  0
LINE
  5
359
330
28D
100
AcDbEntity
  8
DV3_Default
  6
Continuous
 62
     7
100
AcDbLine
 10
574.5089520562
 20
237.9176262714
 30
0.0
 11
569.5089520562
 21
237.9176262714
 31
0.0
  0
LINE
  5
35A
330
28D
100
AcDbEntity
  8
DV3_Default
  6
Continuous
 62
     7
100
AcDbLine
 10
134.5089520562
 20
237.9176262714
 30
0.0
 11
134.5089520562
 21
228.3357825294
 31
0.0
  0
LINE
  5
35B
330
28D
100
AcDbEntity
  8
DV3_Default
  6
Continuous
 62
     7
100
AcDbLine
 10
569.5089520562
 20
237.9176262714
 30
0.0
 11
474.5089520562
 21
237.9176262714
 31
0.0
  0
LINE
  5
35C
330
28D
100
AcDbEntity
  8
DV3_Default
  6
Continuous
 62
     7
100
AcDbLine
 10
424.5089520562
 20
237.9176262714
 30
0.0
 11
134.5089520562
 21
237.9176262714
 31
0.0
  0
LINE
  5
35D
330
28D
100
AcDbEntity
  8
DV3_Default
  6
Continuous
 62
     7
100
AcDbLine
 10
134.5089520562
 20
237.9176262714
 30
0.0
 11
129.5089520562
 21
237.9176262714
 31
0.0
  0
ARC
  5
35E
330
28D
100
AcDbEntity
  8
DV3_Default
  6
Continuous
 62
     7
100
AcDbCircle
 10
134.5089520562
 20
237.9176262714
 30
0.0
 40
5.0
100
AcDbArc
 50
90.0
 51
180.0
  0
LINE
  5
35F
330
28D
100
AcDbEntity
  8
DV3_Default
  6
Continuous
 62
     7
100
AcDbLine
 10
134.5089520562
 20
242.9176262714
 30
0.0
 11
134.5089520562
 21
237.9176262714
 31
0.0
  0
LINE
  5
360
330
28D
100
AcDbEntity
  8
DV3_Default
  6
Continuous
 62
     7
100
AcDbLine
 10
569.5089520562
 20
242.9176262714
 30
0.0
 11
569.5089520562
 21
237.9176262714
 31
0.0
  0
LINE
  5
361
330
28D
100
AcDbEntity
  8
DV3_Default
  6
Continuous
 62
     7
100
AcDbLine
 10
189.4974814074
 20
122.7831221995
 30
0.0
 11
513.7995453913
 21
122.7831221995
 31
0.0
  0
LINE
  5
362
330
28D
100
AcDbEntity
  8
DV3_Default
  6
Continuous
 62
     7
100
AcDbLine
 10
514.2928299449
 20
114.6043508618
 30
0.0
 11
511.5986819875
 21
117.6973265997
 31
0.0
  0
LINE
  5
363
330
28D
100
AcDbEntity
  8
DV3_Default
  6
Continuous
 62
     7
100
AcDbLine
 10
518.0630774142
 20
117.8884388661
 30
0.0
 11
538.5649975823
 21
117.8884388661
 31
0.0
  0
LINE
  5
364
330
28D
100
AcDbEntity
  8
DV3_Default
  6
Continuous
 62
     7
100
AcDbLine
 10
518.0630774142
 20
117.8884388661
 30
0.0
 11
518.0630774142
 21
112.8884388661
 31
0.0
  0
LINE
  5
365
330
28D
100
AcDbEntity
  8
DV3_Default
  6
Continuous
 62
     7
100
AcDbLine
 10
513.7995453913
 20
122.7831221995
 30
0.0
 11
518.0630774142
 21
117.8884388661
 31
0.0
  0
LINE
  5
366
330
28D
100
AcDbEntity
  8
DV3_Default
  6
Continuous
 62
     7
100
AcDbLine
 10
518.0630774142
 20
117.8884388661
 30
0.0
 11
514.2928299449
 21
114.6043508618
 31
0.0
  0
ARC
  5
367
330
28D
100
AcDbEntity
  8
DV3_Default
  6
Continuous
 62
     7
100
AcDbCircle
 10
518.0630774142
 20
117.8884388661
 30
0.0
 40
5.000000000000004
100
AcDbArc
 50
221.0576141852
 51
270.0
  0
LINE
  5
368
330
28D
100
AcDbEntity
  8
DV3_Default
  6
Continuous
 62
     7
100
AcDbLine
 10
185.2339493845
 20
117.8884388661
 30
0.0
 11
189.4974814074
 21
122.7831221995
 31
0.0
  0
LINE
  5
369
330
28D
100
AcDbEntity
  8
DV3_Default
  6
Continuous
 62
     7
100
AcDbLine
 10
185.2339493845
 20
112.8884388661
 30
0.0
 11
164.7320292164
 21
112.8884388661
 31
0.0
  0
LINE
  5
36A
330
28D
100
AcDbEntity
  8
DV3_Default
  6
Continuous
 62
     7
100
AcDbLine
 10
185.2339493845
 20
112.8884388661
 30
0.0
 11
185.2339493845
 21
117.8884388661
 31
0.0
  0
LINE
  5
36B
330
28D
100
AcDbEntity
  8
DV3_Default
  6
Continuous
 62
     7
100
AcDbLine
 10
189.0041968539
 20
114.6043508618
 30
0.0
 11
185.2339493845
 21
117.8884388661
 31
0.0
  0
ARC
  5
36C
330
28D
100
AcDbEntity
  8
DV3_Default
  6
Continuous
 62
     7
100
AcDbCircle
 10
185.2339493845
 20
117.8884388661
 30
0.0
 40
5.000000000000008
100
AcDbArc
 50
270.0
 51
318.9423858148
  0
LINE
  5
36D
330
28D
100
AcDbEntity
  8
DV3_Default
  6
Continuous
 62
     7
100
AcDbLine
 10
189.4974814074
 20
122.7831221995
 30
0.0
 11
191.8868571847
 21
117.7831221995
 31
0.0
  0
LINE
  5
36E
330
28D
100
AcDbEntity
  8
DV3_Default
  6
Continuous
 62
     7
100
AcDbLine
 10
191.6983448112
 20
117.6973265997
 30
0.0
 11
189.0041968539
 21
114.6043508618
 31
0.0
  0
LINE
  5
36F
330
28D
100
AcDbEntity
  8
DV3_Default
  6
Continuous
 62
     7
100
AcDbLine
 10
191.6983448112
 20
117.6973265997
 30
0.0
 11
189.4974814074
 21
122.7831221995
 31
0.0
  0
ARC
  5
370
330
28D
100
AcDbEntity
  8
DV3_Default
  6
Continuous
 62
     7
100
AcDbCircle
 10
191.8868571847
 20
117.5331221995
 30
0.0
 40
0.2500000000000002
100
AcDbArc
 50
90.0
 51
138.9423858148
  0
LINE
  5
371
330
28D
100
AcDbEntity
  8
DV3_Default
  6
Continuous
 62
     7
100
AcDbLine
 10
511.4101696141
 20
117.7831221995
 30
0.0
 11
191.8868571847
 21
117.7831221995
 31
0.0
  0
LINE
  5
372
330
28D
100
AcDbEntity
  8
DV3_Default
  6
Continuous
 62
     7
100
AcDbLine
 10
511.4101696141
 20
117.7831221995
 30
0.0
 11
513.7995453913
 21
122.7831221995
 31
0.0
  0
LINE
  5
373
330
28D
100
AcDbEntity
  8
DV3_Default
  6
Continuous
 62
     7
100
AcDbLine
 10
513.7995453913
 20
122.7831221995
 30
0.0
 11
511.5986819875
 21
117.6973265997
 31
0.0
  0
ARC
  5
374
330
28D
100
AcDbEntity
  8
DV3_Default
  6
Continuous
 62
     7
100
AcDbCircle
 10
511.4101696141
 20
117.5331221995
 30
0.0
 40
0.2500000000000124
100
AcDbArc
 50
41.0576141852
 51
90.0
  0
ENDBLK
  5
376
330
28D
100
AcDbEntity
  8
0
100
AcDbBlockEnd
  0
ENDSEC
  0
SECTION
  2
ENTITIES
  0
INSERT
  5
5F
330
1F
100
AcDbEntity
  8
Default
100
AcDbBlockReference
  2
SEANNOT_GROUP
 10
0.0
 20
0.0
 30
0.0
  0
INSERT
  5
66
330
1F
100
AcDbEntity
  8
Default
100
AcDbBlockReference
  2
SEANNOT_GROUP1
 10
0.0
 20
0.0
 30
0.0
  0
INSERT
  5
6C
330
1F
100
AcDbEntity
  8
Default
100
AcDbBlockReference
  2
SEANNOT_GROUP2
 10
0.0
 20
0.0
 30
0.0
  0
INSERT
  5
72
330
1F
100
AcDbEntity
  8
Default
100
AcDbBlockReference
  2
SEANNOT_GROUP3
 10
0.0
 20
0.0
 30
0.0
  0
INSERT
  5
78
330
1F
100
AcDbEntity
  8
Default
100
AcDbBlockReference
  2
SEANNOT_GROUP4
 10
0.0
 20
0.0
 30
0.0
  0
INSERT
  5
82
330
1F
100
AcDbEntity
  8
Default
100
AcDbBlockReference
  2
SEANNOT_GROUP5
 10
0.0
 20
0.0
 30
0.0
  0
INSERT
  5
88
330
1F
100
AcDbEntity
  8
Default
100
AcDbBlockReference
  2
SE
 10
0.0
 20
0.0
 30
0.0
  0
INSERT
  5
1E4
330
1F
100
AcDbEntity
  8
Default
100
AcDbBlockReference
  2
SE1
 10
0.0
 20
0.0
 30
0.0
  0
INSERT
  5
28E
330
1F
100
AcDbEntity
  8
Default
100
AcDbBlockReference
  2
SE2
 10
0.0
 20
0.0
 30
0.0
  0
TEXT
  5
378
330
1F
100
AcDbEntity
  8
Default
  6
Continuous
 62
     7
100
AcDbText
 10
5.9362635081
 20
53.4225120485
 30
0.0
 40
10.0
  1
Grohe AG^J
  7
SEACAD_seiso_ttf
 11
5.9362635081
 21
63.4225120485
 31
0.0
100
AcDbText
 73
     3
  0
TEXT
  5
379
330
1F
100
AcDbEntity
  8
Default
  6
Continuous
 62
     7
100
AcDbText
 10
5.9362635081
 20
37.0588756849
 30
0.0
 40
10.0
  1
 
  7
SEACAD_seiso_ttf
 11
5.9362635081
 21
47.0588756849
 31
0.0
100
AcDbText
 73
     3
  0
TEXT
  5
37A
330
1F
100
AcDbEntity
  8
Default
  6
Continuous
 62
     7
100
AcDbText
 10
5.9362635081
 20
20.6952393213
 30
0.0
 40
10.0
  1
ecn:
  7
SEACAD_seiso_ttf
 11
5.9362635081
 21
30.6952393213
 31
0.0
100
AcDbText
 73
     3
  0
TEXT
  5
37B
330
1F
100
AcDbEntity
  8
Default
  6
Continuous
 62
     7
100
AcDbText
 10
5.9362635081
 20
4.3316029576
 30
0.0
 40
10.0
  1
unit: mm
  7
SEACAD_seiso_ttf
 11
5.9362635081
 21
14.3316029576
 31
0.0
100
AcDbText
 73
     3
  0
LINE
  5
37C
330
1F
100
AcDbEntity
  8
Default
  6
Continuous
 62
     7
100
AcDbLine
 10
0.0
 20
0.0
 30
0.0
 11
100.0
 21
0.0
 31
0.0
  0
LINE
  5
37D
330
1F
100
AcDbEntity
  8
Default
  6
Continuous
 62
     7
100
AcDbLine
 10
0.0
 20
0.0
 30
0.0
 11
0.0
 21
100.0
 31
0.0
  0
TEXT
  5
37E
330
1F
100
AcDbEntity
  8
Default
  6
Continuous
 62
     7
100
AcDbText
 10
24.3923665681
 20
-18.2375342018
 30
0.0
 40
10.0
  1
100 mm
  7
SEACAD_seiso_ttf
 11
24.3923665681
 21
-8.2375342018
 31
0.0
100
AcDbText
 73
     3
  0
TEXT
  5
37F
330
1F
100
AcDbEntity
  8
Default
  6
Continuous
 62
     7
100
AcDbText
 10
-7.6150308803
 20
24.6231930421
 30
0.0
 40
10.0
  1
100 mm
 50
90.0
  7
SEACAD_seiso_ttf
 11
-17.6150308803
 21
24.6231930421
 31
0.0
100
AcDbText
 73
     3
  0
TEXT
  5
380
330
1F
100
AcDbEntity
  8
Default
  6
Continuous
 62
     7
100
AcDbText
 10
28.4878128572
 20
20.0907663715
 30
0.0
 40
10.0
  1
223581
  7
SEACAD_seiso_ttf
 11
28.4878128572
 21
30.0907663715
 31
0.0
100
AcDbText
 73
     3
  0
TEXT
  5
381
330
1F
100
AcDbEntity
  8
Default
  6
Continuous
 62
     7
100
AcDbText
 10
5.9012241913
 20
36.7242780188
 30
0.0
 40
10.0
  1
36362000
  7
SEACAD_seiso_ttf
 11
5.9012241913
 21
46.7242780188
 31
0.0
100
AcDbText
 73
     3
  0
ENDSEC
  0
SECTION
  2
OBJECTS
  0
DICTIONARY
  5
C
330
0
100
AcDbDictionary
281
     1
  3
ACAD_GROUP
350
D
  3
ACAD_LAYOUT
350
1A
  3
ACAD_MLEADERSTYLE
350
385
  3
ACAD_MLINESTYLE
350
17
  3
ACAD_PLOTSETTINGS
350
19
  3
ACAD_PLOTSTYLENAME
350
E
  3
ACAD_SCALELIST
350
3B
  3
ACAD_TABLESTYLE
350
384
  3
ACAD_VISUALSTYLE
350
2A
  3
AcDbVariableDictionary
350
382
  0
DICTIONARY
  5
D
102
{ACAD_REACTORS
330
C
102
}
330
C
100
AcDbDictionary
281
     1
  0
DICTIONARY
  5
1A
102
{ACAD_REACTORS
330
C
102
}
330
C
100
AcDbDictionary
281
     1
  3
Layout1
350
1E
  3
Model
350
22
  0
DICTIONARY
  5
385
102
{ACAD_REACTORS
330
C
102
}
330
C
100
AcDbDictionary
281
     1
  0
DICTIONARY
  5
17
102
{ACAD_REACTORS
330
C
102
}
330
C
100
AcDbDictionary
281
     1
  3
Standard
350
18
  0
DICTIONARY
  5
19
102
{ACAD_REACTORS
330
C
102
}
330
C
100
AcDbDictionary
281
     1
  0
ACDBDICTIONARYWDFLT
  5
E
102
{ACAD_REACTORS
330
C
102
}
330
C
100
AcDbDictionary
281
     1
  3
Normal
350
F
100
AcDbDictionaryWithDefault
340
F
  0
DICTIONARY
  5
3B
102
{ACAD_REACTORS
330
C
102
}
330
C
100
AcDbDictionary
281
     1
  3
A0
350
3C
  3
A1
350
3D
  3
A2
350
3E
  3
A3
350
3F
  3
A4
350
40
  3
A5
350
41
  3
A6
350
42
  3
A7
350
43
  3
A8
350
44
  3
A9
350
45
  3
B0
350
46
  3
B1
350
47
  3
B2
350
48
  3
B3
350
49
  3
B4
350
4A
  3
B5
350
4B
  3
B6
350
4C
  3
B7
350
4D
  3
B8
350
4E
  3
B9
350
4F
  3
C0
350
50
  3
C1
350
51
  3
C2
350
52
  3
C3
350
53
  3
C4
350
54
  3
C5
350
55
  3
C6
350
56
  3
C7
350
57
  3
C8
350
58
  3
C9
350
59
  3
D0
350
5A
  3
D1
350
5B
  3
D2
350
5C
  0
DICTIONARY
  5
384
102
{ACAD_REACTORS
330
C
102
}
330
C
100
AcDbDictionary
281
     1
  0
DICTIONARY
  5
2A
102
{ACAD_REACTORS
330
C
102
}
330
C
100
AcDbDictionary
281
     1
  3
2dWireframe
350
2F
  3
3D Hidden
350
31
  3
3dWireframe
350
30
  3
Basic
350
32
  3
Brighten
350
36
  3
ColorChange
350
3A
  3
Conceptual
350
34
  3
Dim
350
35
  3
Facepattern
350
39
  3
Flat
350
2B
  3
FlatWithEdges
350
2C
  3
Gouraud
350
2D
  3
GouraudWithEdges
350
2E
  3
Linepattern
350
38
  3
Realistic
350
33
  3
Thicken
350
37
  0
DICTIONARY
  5
382
102
{ACAD_REACTORS
330
C
102
}
330
C
100
AcDbDictionary
281
     1
  3
CANNOSCALE
350
383
  3
PSOLHEIGHT
350
387
  3
PSOLWIDTH
350
386
  0
LAYOUT
  5
1E
102
{ACAD_REACTORS
330
1A
102
}
330
1A
100
AcDbPlotSettings
  1

  2
none_device
  4

  6

 40
0.0
 41
0.0
 42
0.0
 43
0.0
 44
0.0
 45
0.0
 46
0.0
 47
0.0
 48
0.0
 49
0.0
140
0.0
141
0.0
142
1.0
143
1.0
 70
   688
 72
     0
 73
     0
 74
     5
  7

 75
    16
147
1.0
148
0.0
149
0.0
100
AcDbLayout
  1
Layout1
 70
     1
 71
     1
 10
0.0
 20
0.0
 11
3000.0
 21
4500.0
 12
0.0
 22
0.0
 32
0.0
 14
0.0
 24
0.0
 34
0.0
 15
3000.0
 25
4500.0
 35
0.0
146
0.0
 13
0.0
 23
0.0
 33
0.0
 16
1.0
 26
0.0
 36
0.0
 17
0.0
 27
1.0
 37
0.0
 76
     0
330
1B
  0
LAYOUT
  5
22
102
{ACAD_REACTORS
330
1A
102
}
330
1A
100
AcDbPlotSettings
  1

  2
none_device
  4

  6

 40
0.0
 41
0.0
 42
0.0
 43
0.0
 44
0.0
 45
0.0
 46
0.0
 47
0.0
 48
0.0
 49
0.0
140
0.0
141
0.0
142
1.0
143
1.0
 70
  1712
 72
     0
 73
     0
 74
     0
  7

 75
     0
147
1.0
148
0.0
149
0.0
100
AcDbLayout
  1
Model
 70
     1
 71
     0
 10
0.0
 20
0.0
 11
3000.0
 21
4500.0
 12
0.0
 22
0.0
 32
0.0
 14
0.0
 24
0.0
 34
0.0
 15
3000.0
 25
4500.0
 35
0.0
146
0.0
 13
0.0
 23
0.0
 33
0.0
 16
1.0
 26
0.0
 36
0.0
 17
0.0
 27
1.0
 37
0.0
 76
     0
330
1F
331
29
  0
MLINESTYLE
  5
18
102
{ACAD_REACTORS
330
17
102
}
330
17
100
AcDbMlineStyle
  2
Standard
 70
     0
  3

 62
   256
 51
90.0
 52
90.0
 71
     2
 49
0.5
 62
   256
  6
BYLAYER
 49
-0.5
 62
   256
  6
BYLAYER
  0
ACDBPLACEHOLDER
  5
F
102
{ACAD_REACTORS
330
E
102
}
330
E
  0
SCALE
  5
3C
102
{ACAD_REACTORS
330
3B
102
}
330
3B
100
AcDbScale
 70
     0
300
1:1
140
1.0
141
1.0
290
     1
  0
SCALE
  5
3D
102
{ACAD_REACTORS
330
3B
102
}
330
3B
100
AcDbScale
 70
     0
300
1:2
140
1.0
141
2.0
290
     0
  0
SCALE
  5
3E
102
{ACAD_REACTORS
330
3B
102
}
330
3B
100
AcDbScale
 70
     0
300
1:4
140
1.0
141
4.0
290
     0
  0
SCALE
  5
3F
102
{ACAD_REACTORS
330
3B
102
}
330
3B
100
AcDbScale
 70
     0
300
1:5
140
1.0
141
5.0
290
     0
  0
SCALE
  5
40
102
{ACAD_REACTORS
330
3B
102
}
330
3B
100
AcDbScale
 70
     0
300
1:8
140
1.0
141
8.0
290
     0
  0
SCALE
  5
41
102
{ACAD_REACTORS
330
3B
102
}
330
3B
100
AcDbScale
 70
     0
300
1:10
140
1.0
141
10.0
290
     0
  0
SCALE
  5
42
102
{ACAD_REACTORS
330
3B
102
}
330
3B
100
AcDbScale
 70
     0
300
1:16
140
1.0
141
16.0
290
     0
  0
SCALE
  5
43
102
{ACAD_REACTORS
330
3B
102
}
330
3B
100
AcDbScale
 70
     0
300
1:20
140
1.0
141
20.0
290
     0
  0
SCALE
  5
44
102
{ACAD_REACTORS
330
3B
102
}
330
3B
100
AcDbScale
 70
     0
300
1:30
140
1.0
141
30.0
290
     0
  0
SCALE
  5
45
102
{ACAD_REACTORS
330
3B
102
}
330
3B
100
AcDbScale
 70
     0
300
1:40
140
1.0
141
40.0
290
     0
  0
SCALE
  5
46
102
{ACAD_REACTORS
330
3B
102
}
330
3B
100
AcDbScale
 70
     0
300
1:50
140
1.0
141
50.0
290
     0
  0
SCALE
  5
47
102
{ACAD_REACTORS
330
3B
102
}
330
3B
100
AcDbScale
 70
     0
300
1:100
140
1.0
141
100.0
290
     0
  0
SCALE
  5
48
102
{ACAD_REACTORS
330
3B
102
}
330
3B
100
AcDbScale
 70
     0
300
2:1
140
2.0
141
1.0
290
     0
  0
SCALE
  5
49
102
{ACAD_REACTORS
330
3B
102
}
330
3B
100
AcDbScale
 70
     0
300
4:1
140
4.0
141
1.0
290
     0
  0
SCALE
  5
4A
102
{ACAD_REACTORS
330
3B
102
}
330
3B
100
AcDbScale
 70
     0
300
8:1
140
8.0
141
1.0
290
     0
  0
SCALE
  5
4B
102
{ACAD_REACTORS
330
3B
102
}
330
3B
100
AcDbScale
 70
     0
300
10:1
140
10.0
141
1.0
290
     0
  0
SCALE
  5
4C
102
{ACAD_REACTORS
330
3B
102
}
330
3B
100
AcDbScale
 70
     0
300
100:1
140
100.0
141
1.0
290
     0
  0
SCALE
  5
4D
102
{ACAD_REACTORS
330
3B
102
}
330
3B
100
AcDbScale
 70
     0
300
1/128" = 1'-0"
140
0.0078125
141
12.0
290
     0
  0
SCALE
  5
4E
102
{ACAD_REACTORS
330
3B
102
}
330
3B
100
AcDbScale
 70
     0
300
1/64" = 1'-0"
140
0.015625
141
12.0
290
     0
  0
SCALE
  5
4F
102
{ACAD_REACTORS
330
3B
102
}
330
3B
100
AcDbScale
 70
     0
300
1/32" = 1'-0"
140
0.03125
141
12.0
290
     0
  0
SCALE
  5
50
102
{ACAD_REACTORS
330
3B
102
}
330
3B
100
AcDbScale
 70
     0
300
1/16" = 1'-0"
140
0.0625
141
12.0
290
     0
  0
SCALE
  5
51
102
{ACAD_REACTORS
330
3B
102
}
330
3B
100
AcDbScale
 70
     0
300
3/32" = 1'-0"
140
0.09375
141
12.0
290
     0
  0
SCALE
  5
52
102
{ACAD_REACTORS
330
3B
102
}
330
3B
100
AcDbScale
 70
     0
300
1/8" = 1'-0"
140
0.125
141
12.0
290
     0
  0
SCALE
  5
53
102
{ACAD_REACTORS
330
3B
102
}
330
3B
100
AcDbScale
 70
     0
300
3/16" = 1'-0"
140
0.1875
141
12.0
290
     0
  0
SCALE
  5
54
102
{ACAD_REACTORS
330
3B
102
}
330
3B
100
AcDbScale
 70
     0
300
1/4" = 1'-0"
140
0.25
141
12.0
290
     0
  0
SCALE
  5
55
102
{ACAD_REACTORS
330
3B
102
}
330
3B
100
AcDbScale
 70
     0
300
3/8" = 1'-0"
140
0.375
141
12.0
290
     0
  0
SCALE
  5
56
102
{ACAD_REACTORS
330
3B
102
}
330
3B
100
AcDbScale
 70
     0
300
1/2" = 1'-0"
140
0.5
141
12.0
290
     0
  0
SCALE
  5
57
102
{ACAD_REACTORS
330
3B
102
}
330
3B
100
AcDbScale
 70
     0
300
3/4" = 1'-0"
140
0.75
141
12.0
290
     0
  0
SCALE
  5
58
102
{ACAD_REACTORS
330
3B
102
}
330
3B
100
AcDbScale
 70
     0
300
1" = 1'-0"
140
1.0
141
12.0
290
     0
  0
SCALE
  5
59
102
{ACAD_REACTORS
330
3B
102
}
330
3B
100
AcDbScale
 70
     0
300
1-1/2" = 1'-0"
140
1.5
141
12.0
290
     0
  0
SCALE
  5
5A
102
{ACAD_REACTORS
330
3B
102
}
330
3B
100
AcDbScale
 70
     0
300
3" = 1'-0"
140
3.0
141
12.0
290
     0
  0
SCALE
  5
5B
102
{ACAD_REACTORS
330
3B
102
}
330
3B
100
AcDbScale
 70
     0
300
6" = 1'-0"
140
6.0
141
12.0
290
     0
  0
SCALE
  5
5C
102
{ACAD_REACTORS
330
3B
102
}
330
3B
100
AcDbScale
 70
     0
300
1'-0" = 1'-0"
140
12.0
141
12.0
290
     0
  0
VISUALSTYLE
  5
2F
102
{ACAD_REACTORS
330
2A
102
}
330
2A
100
AcDbVisualStyle
  2
2dWireframe
 70
     4
 71
     0
 72
     2
 73
     0
 90
        0
 40
-0.6
 41
-30.0
 62
     5
 63
     7
 74
     1
 91
        4
 64
     7
 65
   257
 75
     1
175
     1
 42
1.0
 92
        0
 66
   257
 43
1.0
 76
     1
 77
     6
 78
     2
 67
     7
 79
     5
170
     0
171
     0
290
     0
174
     0
 93
        1
 44
0.0
173
     0
291
     0
 45
0.0
1001
ACAD
1000
AcDbSavedByObjectVersion
1070
     0
  0
VISUALSTYLE
  5
31
102
{ACAD_REACTORS
330
2A
102
}
330
2A
100
AcDbVisualStyle
  2
3D Hidden
 70
     6
 71
     1
 72
     2
 73
     2
 90
        0
 40
-0.6
 41
-30.0
 62
     5
 63
     7
 74
     2
 91
        2
 64
     7
 65
   257
 75
     2
175
     1
 42
40.0
 92
        0
 66
   257
 43
1.0
 76
     1
 77
     6
 78
     2
 67
     7
 79
     3
170
     0
171
     0
290
     0
174
     0
 93
        1
 44
0.0
173
     0
291
     0
 45
0.0
1001
ACAD
1000
AcDbSavedByObjectVersion
1070
     0
  0
VISUALSTYLE
  5
30
102
{ACAD_REACTORS
330
2A
102
}
330
2A
100
AcDbVisualStyle
  2
3dWireframe
 70
     5
 71
     0
 72
     2
 73
     0
 90
        0
 40
-0.6
 41
-30.0
 62
     5
 63
     7
 74
     1
 91
        4
 64
     7
 65
   257
 75
     1
175
     1
 42
1.0
 92
        0
 66
   257
 43
1.0
 76
     1
 77
     6
 78
     2
 67
     7
 79
     5
170
     0
171
     0
290
     0
174
     0
 93
        1
 44
0.0
173
     0
291
     0
 45
0.0
1001
ACAD
1000
AcDbSavedByObjectVersion
1070
     0
  0
VISUALSTYLE
  5
32
102
{ACAD_REACTORS
330
2A
102
}
330
2A
100
AcDbVisualStyle
  2
Basic
 70
     7
 71
     1
 72
     0
 73
     1
 90
        0
 40
-0.6
 41
-30.0
 62
     5
 63
     7
 74
     0
 91
        4
 64
     7
 65
   257
 75
     1
175
     1
 42
1.0
 92
        8
 66
     7
 43
1.0
 76
     1
 77
     6
 78
     2
 67
     7
 79
     5
170
     0
171
     0
290
     0
174
     0
 93
        1
 44
0.0
173
     0
291
     1
 45
0.0
1001
ACAD
1000
AcDbSavedByObjectVersion
1070
     0
  0
VISUALSTYLE
  5
36
102
{ACAD_REACTORS
330
2A
102
}
330
2A
100
AcDbVisualStyle
  2
Brighten
 70
    12
 71
     2
 72
     2
 73
     0
 90
        0
 40
-0.6
 41
-30.0
 62
     5
 63
     7
 74
     1
 91
        4
 64
     7
 65
   257
 75
     1
175
     1
 42
1.0
 92
        8
 66
     7
 43
1.0
 76
     1
 77
     6
 78
     2
 67
     7
 79
     5
170
     0
171
     0
290
     0
174
     0
 93
        1
 44
50.0
173
     0
291
     1
 45
0.0
1001
ACAD
1000
AcDbSavedByObjectVersion
1070
     0
  0
VISUALSTYLE
  5
3A
102
{ACAD_REACTORS
330
2A
102
}
330
2A
100
AcDbVisualStyle
  2
ColorChange
 70
    16
 71
     2
 72
     2
 73
     3
 90
        0
 40
-0.6
 41
-30.0
 62
     5
 63
     8
 74
     1
 91
        4
 64
     7
 65
   257
 75
     1
175
     1
 42
1.0
 92
        8
 66
     8
 43
1.0
 76
     1
 77
     6
 78
     2
 67
     7
 79
     5
170
     0
171
     0
290
     0
174
     0
 93
        1
 44
0.0
173
     0
291
     1
 45
0.0
1001
ACAD
1000
AcDbSavedByObjectVersion
1070
     0
  0
VISUALSTYLE
  5
34
102
{ACAD_REACTORS
330
2A
102
}
330
2A
100
AcDbVisualStyle
  2
Conceptual
 70
     9
 71
     3
 72
     2
 73
     0
 90
        0
 40
-0.6
 41
-30.0
 62
     5
 63
     7
 74
     2
 91
        2
 64
     7
 65
   257
 75
     1
175
     1
 42
40.0
 92
        8
 66
     7
 43
1.0
 76
     1
 77
     6
 78
     2
 67
     7
 79
     3
170
     0
171
     0
290
     0
174
     0
 93
        1
 44
0.0
173
     0
291
     0
 45
0.0
1001
ACAD
1000
AcDbSavedByObjectVersion
1070
     0
  0
VISUALSTYLE
  5
35
102
{ACAD_REACTORS
330
2A
102
}
330
2A
100
AcDbVisualStyle
  2
Dim
 70
    11
 71
     2
 72
     2
 73
     0
 90
        0
 40
-0.6
 41
-30.0
 62
     5
 63
     7
 74
     1
 91
        4
 64
     7
 65
   257
 75
     1
175
     1
 42
1.0
 92
        8
 66
     7
 43
1.0
 76
     1
 77
     6
 78
     2
 67
     7
 79
     5
170
     0
171
     0
290
     0
174
     0
 93
        1
 44
-50.0
173
     0
291
     1
 45
0.0
1001
ACAD
1000
AcDbSavedByObjectVersion
1070
     0
  0
VISUALSTYLE
  5
39
102
{ACAD_REACTORS
330
2A
102
}
330
2A
100
AcDbVisualStyle
  2
Facepattern
 70
    15
 71
     2
 72
     2
 73
     0
 90
        0
 40
-0.6
 41
-30.0
 62
     5
 63
     7
 74
     1
 91
        4
 64
     7
 65
   257
 75
     1
175
     1
 42
1.0
 92
        8
 66
     7
 43
1.0
 76
     1
 77
     6
 78
     2
 67
     7
 79
     5
170
     0
171
     0
290
     0
174
     0
 93
        1
 44
0.0
173
     0
291
     1
 45
0.0
1001
ACAD
1000
AcDbSavedByObjectVersion
1070
     0
  0
VISUALSTYLE
  5
2B
102
{ACAD_REACTORS
330
2A
102
}
330
2A
100
AcDbVisualStyle
  2
Flat
 70
     0
 71
     2
 72
     1
 73
     1
 90
        2
 40
-0.6
 41
30.0
 62
     5
 63
     7
 74
     0
 91
        4
 64
     7
 65
   257
 75
     1
175
     1
 42
1.0
 92
        8
 66
     7
 43
1.0
 76
     1
 77
     6
 78
     2
 67
     7
 79
     5
170
     0
171
     0
290
     0
174
     0
 93
       13
 44
0.0
173
     0
291
     1
 45
0.0
1001
ACAD
1000
AcDbSavedByObjectVersion
1070
     0
  0
VISUALSTYLE
  5
2C
102
{ACAD_REACTORS
330
2A
102
}
330
2A
100
AcDbVisualStyle
  2
FlatWithEdges
 70
     1
 71
     2
 72
     1
 73
     1
 90
        2
 40
-0.6
 41
30.0
 62
     5
 63
     7
 74
     1
 91
        4
 64
     7
 65
   257
 75
     1
175
     1
 42
1.0
 92
        0
 66
   257
 43
1.0
 76
     1
 77
     6
 78
     2
 67
     7
 79
     5
170
     0
171
     0
290
     0
174
     0
 93
       13
 44
0.0
173
     0
291
     1
 45
0.0
1001
ACAD
1000
AcDbSavedByObjectVersion
1070
     0
  0
VISUALSTYLE
  5
2D
102
{ACAD_REACTORS
330
2A
102
}
330
2A
100
AcDbVisualStyle
  2
Gouraud
 70
     2
 71
     2
 72
     2
 73
     1
 90
        2
 40
-0.6
 41
30.0
 62
     5
 63
     7
 74
     0
 91
        4
 64
     7
 65
   257
 75
     1
175
     1
 42
1.0
 92
        0
 66
     7
 43
1.0
 76
     1
 77
     6
 78
     2
 67
     7
 79
     5
170
     0
171
     0
290
     0
174
     0
 93
       13
 44
0.0
173
     0
291
     1
 45
0.0
1001
ACAD
1000
AcDbSavedByObjectVersion
1070
     0
  0
VISUALSTYLE
  5
2E
102
{ACAD_REACTORS
330
2A
102
}
330
2A
100
AcDbVisualStyle
  2
GouraudWithEdges
 70
     3
 71
     2
 72
     2
 73
     1
 90
        2
 40
-0.6
 41
30.0
 62
     5
 63
     7
 74
     1
 91
        4
 64
     7
 65
   257
 75
     1
175
     1
 42
1.0
 92
        0
 66
   257
 43
1.0
 76
     1
 77
     6
 78
     2
 67
     7
 79
     5
170
     0
171
     0
290
     0
174
     0
 93
       13
 44
0.0
173
     0
291
     1
 45
0.0
1001
ACAD
1000
AcDbSavedByObjectVersion
1070
     0
  0
VISUALSTYLE
  5
38
102
{ACAD_REACTORS
330
2A
102
}
330
2A
100
AcDbVisualStyle
  2
Linepattern
 70
    14
 71
     2
 72
     2
 73
     0
 90
        0
 40
-0.6
 41
-30.0
 62
     5
 63
     7
 74
     1
 91
        4
 64
     7
 65
   257
 75
     7
175
     7
 42
1.0
 92
        8
 66
     7
 43
1.0
 76
     1
 77
     6
 78
     2
 67
     7
 79
     5
170
     0
171
     0
290
     0
174
     0
 93
        1
 44
0.0
173
     0
291
     1
 45
0.0
1001
ACAD
1000
AcDbSavedByObjectVersion
1070
     0
  0
VISUALSTYLE
  5
33
102
{ACAD_REACTORS
330
2A
102
}
330
2A
100
AcDbVisualStyle
  2
Realistic
 70
     8
 71
     2
 72
     2
 73
     0
 90
        0
 40
-0.6
 41
-30.0
 62
     5
 63
     7
 74
     1
 91
        0
 64
     7
 65
   257
 75
     1
175
     1
 42
1.0
 92
        8
 66
     8
 43
1.0
 76
     1
 77
     6
 78
     2
 67
     7
 79
     5
170
     0
171
     0
290
     0
174
     0
 93
       13
 44
0.0
173
     0
291
     0
 45
0.0
1001
ACAD
1000
AcDbSavedByObjectVersion
1070
     0
  0
VISUALSTYLE
  5
37
102
{ACAD_REACTORS
330
2A
102
}
330
2A
100
AcDbVisualStyle
  2
Thicken
 70
    13
 71
     2
 72
     2
 73
     0
 90
        0
 40
-0.6
 41
-30.0
 62
     5
 63
     7
 74
     1
 91
        4
 64
     7
 65
   257
 75
     1
175
     1
 42
1.0
 92
       12
 66
     7
 43
1.0
 76
     1
 77
     6
 78
     2
 67
     7
 79
     5
170
     0
171
     0
290
     0
174
     0
 93
        1
 44
0.0
173
     0
291
     1
 45
0.0
1001
ACAD
1000
AcDbSavedByObjectVersion
1070
     0
  0
DICTIONARYVAR
  5
383
102
{ACAD_REACTORS
330
382
102
}
330
382
100
DictionaryVariables
280
     0
  1
1:1
  0
DICTIONARYVAR
  5
387
102
{ACAD_REACTORS
330
382
102
}
330
382
100
DictionaryVariables
280
     0
  1
80.000000
  0
DICTIONARYVAR
  5
386
102
{ACAD_REACTORS
330
382
102
}
330
382
100
DictionaryVariables
280
     0
  1
5.000000
  0
ENDSEC
  0
EOF
