  0
SECTION
  2
HEADER
  9
$ACADVER
  1
AC1015
  9
$ACADMAINTVER
 70
     6
  9
$DWGCODEPAGE
  3
ANSI_1252
  9
$INSBASE
 10
0.0
 20
0.0
 30
0.0
  9
$EXTMIN
 10
0.0
 20
0.0
 30
0.0
  9
$EXTMAX
 10
3000.0
 20
4500.0
 30
0.0
  9
$LIMMIN
 10
0.0
 20
0.0
  9
$LIMMAX
 10
3000.0
 20
4500.0
  9
$ORTHOMODE
 70
     0
  9
$REGENMODE
 70
     1
  9
$FILLMODE
 70
     1
  9
$QTEXTMODE
 70
     0
  9
$MIRRTEXT
 70
     1
  9
$LTSCALE
 40
1.0
  9
$ATTMODE
 70
     1
  9
$TEXTSIZE
 40
2.5
  9
$TRACEWID
 40
1.0
  9
$TEXTSTYLE
  7
Standard
  9
$CLAYER
  8
0
  9
$CELTYPE
  6
ByLayer
  9
$CECOLOR
 62
   256
  9
$CELTSCALE
 40
1.0
  9
$DISPSILH
 70
     0
  9
$DIMSCALE
 40
1.0
  9
$DIMASZ
 40
2.5
  9
$DIMEXO
 40
0.625
  9
$DIMDLI
 40
3.75
  9
$DIMRND
 40
0.0
  9
$DIMDLE
 40
0.0
  9
$DIMEXE
 40
1.25
  9
$DIMTP
 40
0.0
  9
$DIMTM
 40
0.0
  9
$DIMTXT
 40
2.5
  9
$DIMCEN
 40
2.5
  9
$DIMTSZ
 40
0.0
  9
$DIMTOL
 70
     0
  9
$DIMLIM
 70
     0
  9
$DIMTIH
 70
     0
  9
$DIMTOH
 70
     0
  9
$DIMSE1
 70
     0
  9
$DIMSE2
 70
     0
  9
$DIMTAD
 70
     1
  9
$DIMZIN
 70
     8
  9
$DIMBLK
  1

  9
$DIMASO
 70
     1
  9
$DIMSHO
 70
     1
  9
$DIMPOST
  1

  9
$DIMAPOST
  1

  9
$DIMALT
 70
     0
  9
$DIMALTD
 70
     3
  9
$DIMALTF
 40
0.0393700787
  9
$DIMLFAC
 40
1.0
  9
$DIMTOFL
 70
     1
  9
$DIMTVP
 40
0.0
  9
$DIMTIX
 70
     0
  9
$DIMSOXD
 70
     0
  9
$DIMSAH
 70
     0
  9
$DIMBLK1
  1

  9
$DIMBLK2
  1

  9
$DIMSTYLE
  2
ISO-25
  9
$DIMCLRD
 70
     0
  9
$DIMCLRE
 70
     0
  9
$DIMCLRT
 70
     0
  9
$DIMTFAC
 40
1.0
  9
$DIMGAP
 40
0.625
  9
$DIMJUST
 70
     0
  9
$DIMSD1
 70
     0
  9
$DIMSD2
 70
     0
  9
$DIMTOLJ
 70
     0
  9
$DIMTZIN
 70
     8
  9
$DIMALTZ
 70
     0
  9
$DIMALTTZ
 70
     0
  9
$DIMUPT
 70
     0
  9
$DIMDEC
 70
     2
  9
$DIMTDEC
 70
     2
  9
$DIMALTU
 70
     2
  9
$DIMALTTD
 70
     3
  9
$DIMTXSTY
  7
Standard
  9
$DIMAUNIT
 70
     0
  9
$DIMADEC
 70
     0
  9
$DIMALTRND
 40
0.0
  9
$DIMAZIN
 70
     0
  9
$DIMDSEP
 70
    44
  9
$DIMATFIT
 70
     3
  9
$DIMFRAC
 70
     0
  9
$DIMLDRBLK
  1

  9
$DIMLUNIT
 70
     2
  9
$DIMLWD
 70
    -2
  9
$DIMLWE
 70
    -2
  9
$DIMTMOVE
 70
     0
  9
$LUNITS
 70
     2
  9
$LUPREC
 70
     4
  9
$SKETCHINC
 40
1.0
  9
$FILLETRAD
 40
10.0
  9
$AUNITS
 70
     0
  9
$AUPREC
 70
     0
  9
$MENU
  1
.
  9
$ELEVATION
 40
0.0
  9
$PELEVATION
 40
0.0
  9
$THICKNESS
 40
0.0
  9
$LIMCHECK
 70
     0
  9
$CHAMFERA
 40
10.0
  9
$CHAMFERB
 40
10.0
  9
$CHAMFERC
 40
20.0
  9
$CHAMFERD
 40
0.0
  9
$SKPOLY
 70
     0
  9
$TDCREATE
 40
2456210.487872604
  9
$TDUCREATE
 40
2456210.404539271
  9
$TDUPDATE
 40
2456210.487872616
  9
$TDUUPDATE
 40
2456210.404539282
  9
$TDINDWG
 40
0.0000000116
  9
$TDUSRTIMER
 40
0.0000000116
  9
$USRTIMER
 70
     1
  9
$ANGBASE
 50
0.0
  9
$ANGDIR
 70
     0
  9
$PDMODE
 70
     0
  9
$PDSIZE
 40
0.0
  9
$PLINEWID
 40
0.0
  9
$SPLFRAME
 70
     0
  9
$SPLINETYPE
 70
     6
  9
$SPLINESEGS
 70
     8
  9
$HANDSEED
  5
404
  9
$SURFTAB1
 70
     6
  9
$SURFTAB2
 70
     6
  9
$SURFTYPE
 70
     6
  9
$SURFU
 70
     6
  9
$SURFV
 70
     6
  9
$UCSBASE
  2

  9
$UCSNAME
  2

  9
$UCSORG
 10
0.0
 20
0.0
 30
0.0
  9
$UCSXDIR
 10
1.0
 20
0.0
 30
0.0
  9
$UCSYDIR
 10
0.0
 20
1.0
 30
0.0
  9
$UCSORTHOREF
  2

  9
$UCSORTHOVIEW
 70
     0
  9
$UCSORGTOP
 10
0.0
 20
0.0
 30
0.0
  9
$UCSORGBOTTOM
 10
0.0
 20
0.0
 30
0.0
  9
$UCSORGLEFT
 10
0.0
 20
0.0
 30
0.0
  9
$UCSORGRIGHT
 10
0.0
 20
0.0
 30
0.0
  9
$UCSORGFRONT
 10
0.0
 20
0.0
 30
0.0
  9
$UCSORGBACK
 10
0.0
 20
0.0
 30
0.0
  9
$PUCSBASE
  2

  9
$PUCSNAME
  2

  9
$PUCSORG
 10
0.0
 20
0.0
 30
0.0
  9
$PUCSXDIR
 10
1.0
 20
0.0
 30
0.0
  9
$PUCSYDIR
 10
0.0
 20
1.0
 30
0.0
  9
$PUCSORTHOREF
  2

  9
$PUCSORTHOVIEW
 70
     0
  9
$PUCSORGTOP
 10
0.0
 20
0.0
 30
0.0
  9
$PUCSORGBOTTOM
 10
0.0
 20
0.0
 30
0.0
  9
$PUCSORGLEFT
 10
0.0
 20
0.0
 30
0.0
  9
$PUCSORGRIGHT
 10
0.0
 20
0.0
 30
0.0
  9
$PUCSORGFRONT
 10
0.0
 20
0.0
 30
0.0
  9
$PUCSORGBACK
 10
0.0
 20
0.0
 30
0.0
  9
$USERI1
 70
     0
  9
$USERI2
 70
     0
  9
$USERI3
 70
     0
  9
$USERI4
 70
     0
  9
$USERI5
 70
     0
  9
$USERR1
 40
0.0
  9
$USERR2
 40
0.0
  9
$USERR3
 40
0.0
  9
$USERR4
 40
0.0
  9
$USERR5
 40
0.0
  9
$WORLDVIEW
 70
     1
  9
$SHADEDGE
 70
     3
  9
$SHADEDIF
 70
    70
  9
$TILEMODE
 70
     1
  9
$MAXACTVP
 70
    64
  9
$PINSBASE
 10
0.0
 20
0.0
 30
0.0
  9
$PLIMCHECK
 70
     0
  9
$PEXTMIN
 10
0.0
 20
0.0
 30
0.0
  9
$PEXTMAX
 10
3000.0
 20
4500.0
 30
0.0
  9
$PLIMMIN
 10
0.0
 20
0.0
  9
$PLIMMAX
 10
3000.0
 20
4500.0
  9
$UNITMODE
 70
     0
  9
$VISRETAIN
 70
     1
  9
$PLINEGEN
 70
     0
  9
$PSLTSCALE
 70
     1
  9
$TREEDEPTH
 70
  3020
  9
$CMLSTYLE
  2
Standard
  9
$CMLJUST
 70
     0
  9
$CMLSCALE
 40
20.0
  9
$PROXYGRAPHICS
 70
     1
  9
$MEASUREMENT
 70
     1
  9
$CELWEIGHT
370
    -1
  9
$ENDCAPS
280
     0
  9
$JOINSTYLE
280
     0
  9
$LWDISPLAY
290
     0
  9
$INSUNITS
 70
     4
  9
$HYPERLINKBASE
  1

  9
$STYLESHEET
  1

  9
$XEDIT
290
     1
  9
$CEPSNTYPE
380
     0
  9
$PSTYLEMODE
290
     1
  9
$FINGERPRINTGUID
  2
{87D12009-5F91-4348-A781-429A539B6991}
  9
$VERSIONGUID
  2
{FAEB1C32-E019-11D5-929B-00C0DF256EC4}
  9
$EXTNAMES
290
     1
  9
$PSVPSCALE
 40
0.0
  9
$OLESTARTUP
290
     0
  0
ENDSEC
  0
SECTION
  2
CLASSES
  0
CLASS
  1
ACDBDICTIONARYWDFLT
  2
AcDbDictionaryWithDefault
  3
ObjectDBX Classes
 90
        0
280
     0
281
     0
  0
CLASS
  1
VISUALSTYLE
  2
AcDbVisualStyle
  3
ObjectDBX Classes
 90
     4095
280
     0
281
     0
  0
CLASS
  1
SCALE
  2
AcDbScale
  3
ObjectDBX Classes
 90
     1153
280
     0
281
     0
  0
CLASS
  1
DICTIONARYVAR
  2
AcDbDictionaryVar
  3
ObjectDBX Classes
 90
        0
280
     0
281
     0
  0
CLASS
  1
ACDBPLACEHOLDER
  2
AcDbPlaceHolder
  3
ObjectDBX Classes
 90
        0
280
     0
281
     0
  0
CLASS
  1
LAYOUT
  2
AcDbLayout
  3
ObjectDBX Classes
 90
        0
280
     0
281
     0
  0
ENDSEC
  0
SECTION
  2
TABLES
  0
TABLE
  2
VPORT
  5
8
330
0
100
AcDbSymbolTable
 70
     1
  0
VPORT
  5
29
330
8
100
AcDbSymbolTableRecord
100
AcDbViewportTableRecord
  2
*Active
 70
     0
 10
0.0
 20
0.0
 11
1.0
 21
1.0
 12
344.1869158879
 22
148.5
 13
0.0
 23
0.0
 14
10.0
 24
10.0
 15
10.0
 25
10.0
 16
0.0
 26
0.0
 36
1.0
 17
0.0
 27
0.0
 37
0.0
 40
297.0
 41
1.9729729729
 42
50.0
 43
0.0
 44
0.0
 50
0.0
 51
0.0
 71
     0
 72
   100
 73
     1
 74
     3
 75
     0
 76
     0
 77
     0
 78
     0
281
     0
 65
     1
110
0.0
120
0.0
130
0.0
111
1.0
121
0.0
131
0.0
112
0.0
122
1.0
132
0.0
 79
     0
146
0.0
  0
ENDTAB
  0
TABLE
  2
LTYPE
  5
5
330
0
100
AcDbSymbolTable
 70
     2
  0
LTYPE
  5
14
330
5
100
AcDbSymbolTableRecord
100
AcDbLinetypeTableRecord
  2
ByBlock
 70
     0
  3

 72
    65
 73
     0
 40
0.0
  0
LTYPE
  5
15
330
5
100
AcDbSymbolTableRecord
100
AcDbLinetypeTableRecord
  2
ByLayer
 70
     0
  3

 72
    65
 73
     0
 40
0.0
  0
LTYPE
  5
16
330
5
100
AcDbSymbolTableRecord
100
AcDbLinetypeTableRecord
  2
Continuous
 70
     0
  3
Solid line
 72
    65
 73
     0
 40
0.0
  0
LTYPE
  5
60
330
5
100
AcDbSymbolTableRecord
100
AcDbLinetypeTableRecord
  2
CENTER2
 70
     0
  3
Center (.5x) ___ _ ___ _ ___ _ ___ _ ___ _ ___
 72
    65
 73
     4
 40
28.575
 49
19.05
 74
     4
 75
     0
340
0
 46
0.0
 50
0.0
 44
0.0
 45
0.0
 49
-3.175
 74
     4
 75
     0
340
0
 46
0.0
 50
0.0
 44
0.0
 45
0.0
 49
3.175
 74
     4
 75
     0
340
0
 46
0.0
 50
0.0
 44
0.0
 45
0.0
 49
-3.175
 74
     4
 75
     0
340
0
 46
0.0
 50
0.0
 44
0.0
 45
0.0
  0
ENDTAB
  0
TABLE
  2
LAYER
  5
2
330
0
100
AcDbSymbolTable
 70
    15
  0
LAYER
  5
10
330
2
100
AcDbSymbolTableRecord
100
AcDbLayerTableRecord
  2
0
 70
     0
 62
     7
  6
Continuous
370
    -3
390
F
  0
LAYER
  5
5D
330
2
100
AcDbSymbolTableRecord
100
AcDbLayerTableRecord
  2
Default
 70
     0
 62
     7
  6
Continuous
370
    -3
390
F
  0
LAYER
  5
8D
330
2
100
AcDbSymbolTableRecord
100
AcDbLayerTableRecord
  2
$DDT_AUDIT_GENERATED_(8D)
 70
     0
 62
     7
  6
Continuous
370
    -3
390
F
  0
LAYER
  5
8F
330
2
100
AcDbSymbolTableRecord
100
AcDbLayerTableRecord
  2
$DDT_AUDIT_GENERATED_(8F)
 70
     0
 62
     7
  6
Continuous
370
    -3
390
F
  0
LAYER
  5
96
330
2
100
AcDbSymbolTableRecord
100
AcDbLayerTableRecord
  2
$DDT_AUDIT_GENERATED_(96)
 70
     0
 62
     7
  6
Continuous
370
    -3
390
F
  0
LAYER
  5
98
330
2
100
AcDbSymbolTableRecord
100
AcDbLayerTableRecord
  2
$DDT_AUDIT_GENERATED_(98)
 70
     0
 62
     7
  6
Continuous
370
    -3
390
F
  0
LAYER
  5
9B
330
2
100
AcDbSymbolTableRecord
100
AcDbLayerTableRecord
  2
$DDT_AUDIT_GENERATED_(9B)
 70
     0
 62
     7
  6
Continuous
370
    -3
390
F
  0
LAYER
  5
B5
330
2
100
AcDbSymbolTableRecord
100
AcDbLayerTableRecord
  2
$DDT_AUDIT_GENERATED_(B5)
 70
     0
 62
     7
  6
Continuous
370
    -3
390
F
  0
LAYER
  5
BB
330
2
100
AcDbSymbolTableRecord
100
AcDbLayerTableRecord
  2
$DDT_AUDIT_GENERATED_(BB)
 70
     0
 62
     7
  6
Continuous
370
    -3
390
F
  0
LAYER
  5
C8
330
2
100
AcDbSymbolTableRecord
100
AcDbLayerTableRecord
  2
$DDT_AUDIT_GENERATED_(C8)
 70
     0
 62
     7
  6
Continuous
370
    -3
390
F
  0
LAYER
  5
330
330
2
100
AcDbSymbolTableRecord
100
AcDbLayerTableRecord
  2
$DDT_AUDIT_GENERATED_(330)
 70
     0
 62
     7
  6
Continuous
370
    -3
390
F
  0
LAYER
  5
33C
330
2
100
AcDbSymbolTableRecord
100
AcDbLayerTableRecord
  2
DV1_Default
 70
     0
 62
     7
  6
Continuous
370
    -3
390
F
  0
LAYER
  5
354
330
2
100
AcDbSymbolTableRecord
100
AcDbLayerTableRecord
  2
$DDT_AUDIT_GENERATED_(354)
 70
     0
 62
     7
  6
Continuous
370
    -3
390
F
  0
LAYER
  5
398
330
2
100
AcDbSymbolTableRecord
100
AcDbLayerTableRecord
  2
DV2_Default
 70
     0
 62
     7
  6
Continuous
370
    -3
390
F
  0
LAYER
  5
3EF
330
2
100
AcDbSymbolTableRecord
100
AcDbLayerTableRecord
  2
DV3_Default
 70
     0
 62
     7
  6
Continuous
370
    -3
390
F
  0
ENDTAB
  0
TABLE
  2
STYLE
  5
3
330
0
100
AcDbSymbolTable
 70
     2
  0
STYLE
  5
11
330
3
100
AcDbSymbolTableRecord
100
AcDbTextStyleTableRecord
  2
Standard
 70
     0
 40
0.0
 41
1.0
 50
0.0
 71
     0
 42
2.5
  3
txt
  4

  0
STYLE
  5
3F3
330
3
100
AcDbSymbolTableRecord
100
AcDbTextStyleTableRecord
  2
SEACAD_seiso_ttf
 70
     0
 40
0.0
 41
1.0
 50
0.0
 71
     0
 42
0.2
  3
seiso.ttf
  4

  0
ENDTAB
  0
TABLE
  2
VIEW
  5
6
330
0
100
AcDbSymbolTable
 70
     0
  0
ENDTAB
  0
TABLE
  2
UCS
  5
7
330
0
100
AcDbSymbolTable
 70
     0
  0
ENDTAB
  0
TABLE
  2
APPID
  5
9
330
0
100
AcDbSymbolTable
 70
     1
  0
APPID
  5
12
330
9
100
AcDbSymbolTableRecord
100
AcDbRegAppTableRecord
  2
ACAD
 70
     0
  0
ENDTAB
  0
TABLE
  2
DIMSTYLE
  5
A
330
0
100
AcDbSymbolTable
 70
     1
100
AcDbDimStyleTable
  0
DIMSTYLE
105
27
330
A
100
AcDbSymbolTableRecord
100
AcDbDimStyleTableRecord
  2
ISO-25
 70
     0
 41
2.5
 42
0.625
 43
3.75
 44
1.25
 73
     0
 74
     0
 77
     1
 78
     8
140
2.5
141
2.5
143
0.0393700787
147
0.625
171
     3
172
     1
271
     2
272
     2
274
     3
278
    44
283
     0
284
     8
340
11
  0
ENDTAB
  0
TABLE
  2
BLOCK_RECORD
  5
1
330
0
100
AcDbSymbolTable
 70
    10
  0
BLOCK_RECORD
  5
1F
330
1
100
AcDbSymbolTableRecord
100
AcDbBlockTableRecord
  2
*Model_Space
340
22
  0
BLOCK_RECORD
  5
1B
330
1
100
AcDbSymbolTableRecord
100
AcDbBlockTableRecord
  2
*Paper_Space
340
1E
  0
BLOCK_RECORD
  5
5E
330
1
100
AcDbSymbolTableRecord
100
AcDbBlockTableRecord
  2
SEANNOT_GROUP
340
0
102
{BLKREFS
331
5F
102
}
  0
BLOCK_RECORD
  5
69
330
1
100
AcDbSymbolTableRecord
100
AcDbBlockTableRecord
  2
SEANNOT_GROUP1
340
0
102
{BLKREFS
331
6A
102
}
  0
BLOCK_RECORD
  5
6F
330
1
100
AcDbSymbolTableRecord
100
AcDbBlockTableRecord
  2
SEANNOT_GROUP2
340
0
102
{BLKREFS
331
70
102
}
  0
BLOCK_RECORD
  5
75
330
1
100
AcDbSymbolTableRecord
100
AcDbBlockTableRecord
  2
SEANNOT_GROUP3
340
0
102
{BLKREFS
331
76
102
}
  0
BLOCK_RECORD
  5
7F
330
1
100
AcDbSymbolTableRecord
100
AcDbBlockTableRecord
  2
SEANNOT_GROUP4
340
0
102
{BLKREFS
331
80
102
}
  0
BLOCK_RECORD
  5
85
330
1
100
AcDbSymbolTableRecord
100
AcDbBlockTableRecord
  2
SEANNOT_GROUP5
340
0
102
{BLKREFS
331
86
102
}
  0
BLOCK_RECORD
  5
8B
330
1
100
AcDbSymbolTableRecord
100
AcDbBlockTableRecord
  2
SE
340
0
102
{BLKREFS
331
8C
102
}
  0
BLOCK_RECORD
  5
340
330
1
100
AcDbSymbolTableRecord
100
AcDbBlockTableRecord
  2
SE1
340
0
102
{BLKREFS
331
341
102
}
  0
BLOCK_RECORD
  5
39C
330
1
100
AcDbSymbolTableRecord
100
AcDbBlockTableRecord
  2
SE2
340
0
102
{BLKREFS
331
39D
102
}
  0
ENDTAB
  0
ENDSEC
  0
SECTION
  2
BLOCKS
  0
BLOCK
  5
20
330
1F
100
AcDbEntity
  8
0
100
AcDbBlockBegin
  2
*Model_Space
 70
     0
 10
0.0
 20
0.0
 30
0.0
  3
*Model_Space
  1

  0
ENDBLK
  5
21
330
1F
100
AcDbEntity
  8
0
100
AcDbBlockEnd
  0
BLOCK
  5
1C
330
1B
100
AcDbEntity
 67
     1
  8
0
100
AcDbBlockBegin
  2
*Paper_Space
 70
     0
 10
0.0
 20
0.0
 30
0.0
  3
*Paper_Space
  1

  0
ENDBLK
  5
1D
330
1B
100
AcDbEntity
 67
     1
  8
0
100
AcDbBlockEnd
  0
BLOCK
  5
67
330
5E
100
AcDbEntity
  8
0
100
AcDbBlockBegin
  2
SEANNOT_GROUP
 70
     0
 10
0.0
 20
0.0
 30
0.0
  3
SEANNOT_GROUP
  1

  0
LINE
  5
61
330
5E
100
AcDbEntity
  8
Default
  6
CENTER2
 62
     7
100
AcDbLine
 10
265.2145026638
 20
394.6776428313
 30
0.0
 11
225.2145035579
 21
394.6776428313
 31
0.0
  0
LINE
  5
62
330
5E
100
AcDbEntity
  8
Default
  6
CENTER2
 62
     7
100
AcDbLine
 10
245.2145031109
 20
414.6776423842
 30
0.0
 11
245.2145031109
 21
374.6776432783
 31
0.0
  0
LINE
  5
63
330
5E
100
AcDbEntity
  8
Default
  6
CENTER2
 62
     7
100
AcDbLine
 10
270.2145025521
 20
394.6776428313
 30
0.0
 11
283.7145031109
 21
394.6776428313
 31
0.0
  0
LINE
  5
64
330
5E
100
AcDbEntity
  8
Default
  6
CENTER2
 62
     7
100
AcDbLine
 10
245.2145031109
 20
419.6776422725
 30
0.0
 11
245.2145031109
 21
433.1776428313
 31
0.0
  0
LINE
  5
65
330
5E
100
AcDbEntity
  8
Default
  6
CENTER2
 62
     7
100
AcDbLine
 10
220.2145036697
 20
394.6776428313
 30
0.0
 11
206.7145031109
 21
394.6776428313
 31
0.0
  0
LINE
  5
66
330
5E
100
AcDbEntity
  8
Default
  6
CENTER2
 62
     7
100
AcDbLine
 10
245.2145031109
 20
369.6776433901
 30
0.0
 11
245.2145031109
 21
356.1776428313
 31
0.0
  0
ENDBLK
  5
68
330
5E
100
AcDbEntity
  8
0
100
AcDbBlockEnd
  0
BLOCK
  5
6D
330
69
100
AcDbEntity
  8
0
100
AcDbBlockBegin
  2
SEANNOT_GROUP1
 70
     0
 10
0.0
 20
0.0
 30
0.0
  3
SEANNOT_GROUP1
  1

  0
LINE
  5
6B
330
69
100
AcDbEntity
  8
Default
  6
CENTER2
 62
     7
100
AcDbLine
 10
468.3312691716
 20
394.6776428313
 30
0.0
 11
428.3312700657
 21
394.6776428313
 31
0.0
  0
LINE
  5
6C
330
69
100
AcDbEntity
  8
Default
  6
CENTER2
 62
     7
100
AcDbLine
 10
448.3312696186
 20
414.6776423842
 30
0.0
 11
448.3312696186
 21
374.6776432783
 31
0.0
  0
ENDBLK
  5
6E
330
69
100
AcDbEntity
  8
0
100
AcDbBlockEnd
  0
BLOCK
  5
73
330
6F
100
AcDbEntity
  8
0
100
AcDbBlockBegin
  2
SEANNOT_GROUP2
 70
     0
 10
0.0
 20
0.0
 30
0.0
  3
SEANNOT_GROUP2
  1

  0
LINE
  5
71
330
6F
100
AcDbEntity
  8
Default
  6
CENTER2
 62
     7
100
AcDbLine
 10
265.2145026638
 20
219.7928306497
 30
0.0
 11
225.2145035579
 21
219.7928306497
 31
0.0
  0
LINE
  5
72
330
6F
100
AcDbEntity
  8
Default
  6
CENTER2
 62
     7
100
AcDbLine
 10
245.2145031109
 20
239.7928302026
 30
0.0
 11
245.2145031109
 21
199.7928310967
 31
0.0
  0
ENDBLK
  5
74
330
6F
100
AcDbEntity
  8
0
100
AcDbBlockEnd
  0
BLOCK
  5
7D
330
75
100
AcDbEntity
  8
0
100
AcDbBlockBegin
  2
SEANNOT_GROUP3
 70
     0
 10
0.0
 20
0.0
 30
0.0
  3
SEANNOT_GROUP3
  1

  0
LINE
  5
77
330
75
100
AcDbEntity
  8
Default
  6
CENTER2
 62
     7
100
AcDbLine
 10
265.2145026638
 20
141.3928987432
 30
0.0
 11
225.2145035579
 21
141.3928987432
 31
0.0
  0
LINE
  5
78
330
75
100
AcDbEntity
  8
Default
  6
CENTER2
 62
     7
100
AcDbLine
 10
245.2145031109
 20
161.3928982961
 30
0.0
 11
245.2145031109
 21
121.3928991902
 31
0.0
  0
LINE
  5
79
330
75
100
AcDbEntity
  8
Default
  6
CENTER2
 62
     7
100
AcDbLine
 10
270.2145025521
 20
141.3928987432
 30
0.0
 11
258.2145031109
 21
141.3928987432
 31
0.0
  0
LINE
  5
7A
330
75
100
AcDbEntity
  8
Default
  6
CENTER2
 62
     7
100
AcDbLine
 10
245.2145031109
 20
166.3928981844
 30
0.0
 11
245.2145031109
 21
154.3928987432
 31
0.0
  0
LINE
  5
7B
330
75
100
AcDbEntity
  8
Default
  6
CENTER2
 62
     7
100
AcDbLine
 10
220.2145036697
 20
141.3928987432
 30
0.0
 11
232.2145031109
 21
141.3928987432
 31
0.0
  0
LINE
  5
7C
330
75
100
AcDbEntity
  8
Default
  6
CENTER2
 62
     7
100
AcDbLine
 10
245.2145031109
 20
116.392899302
 30
0.0
 11
245.2145031109
 21
128.3928987432
 31
0.0
  0
ENDBLK
  5
7E
330
75
100
AcDbEntity
  8
0
100
AcDbBlockEnd
  0
BLOCK
  5
83
330
7F
100
AcDbEntity
  8
0
100
AcDbBlockBegin
  2
SEANNOT_GROUP4
 70
     0
 10
0.0
 20
0.0
 30
0.0
  3
SEANNOT_GROUP4
  1

  0
LINE
  5
81
330
7F
100
AcDbEntity
  8
Default
  6
CENTER2
 62
     7
100
AcDbLine
 10
265.2145026638
 20
750.1776428313
 30
0.0
 11
225.2145035579
 21
750.1776428313
 31
0.0
  0
LINE
  5
82
330
7F
100
AcDbEntity
  8
Default
  6
CENTER2
 62
     7
100
AcDbLine
 10
245.2145031109
 20
770.1776423842
 30
0.0
 11
245.2145031109
 21
730.1776432783
 31
0.0
  0
ENDBLK
  5
84
330
7F
100
AcDbEntity
  8
0
100
AcDbBlockEnd
  0
BLOCK
  5
89
330
85
100
AcDbEntity
  8
0
100
AcDbBlockBegin
  2
SEANNOT_GROUP5
 70
     0
 10
0.0
 20
0.0
 30
0.0
  3
SEANNOT_GROUP5
  1

  0
LINE
  5
87
330
85
100
AcDbEntity
  8
Default
  6
CENTER2
 62
     7
100
AcDbLine
 10
546.7312010781
 20
750.1776428313
 30
0.0
 11
506.7312019722
 21
750.1776428313
 31
0.0
  0
LINE
  5
88
330
85
100
AcDbEntity
  8
Default
  6
CENTER2
 62
     7
100
AcDbLine
 10
526.7312015251
 20
770.1776423842
 30
0.0
 11
526.7312015251
 21
730.1776432783
 31
0.0
  0
ENDBLK
  5
8A
330
85
100
AcDbEntity
  8
0
100
AcDbBlockEnd
  0
BLOCK
  5
33E
330
8B
100
AcDbEntity
  8
0
100
AcDbBlockBegin
  2
SE
 70
     0
 10
0.0
 20
0.0
 30
0.0
  3
SE
  1

  0
CIRCLE
  5
8E
330
8B
100
AcDbEntity
  8
$DDT_AUDIT_GENERATED_(8D)
  6
Continuous
 62
     7
100
AcDbCircle
 10
245.2145031109
 20
694.6776428313
 30
0.0
 40
19.25
  0
ARC
  5
90
330
8B
100
AcDbEntity
  8
$DDT_AUDIT_GENERATED_(8F)
  6
Continuous
 62
     7
100
AcDbCircle
 10
296.4797447469
 20
445.9428844673
 30
0.0
 40
4.0
100
AcDbArc
 50
251.5600598769
 51
0.0
  0
ARC
  5
91
330
8B
100
AcDbEntity
  8
$DDT_AUDIT_GENERATED_(8F)
  6
Continuous
 62
     7
100
AcDbCircle
 10
296.4797447469
 20
445.9428844673
 30
0.0
 40
4.0
100
AcDbArc
 50
0.0
 51
198.4399401232
  0
ARC
  5
92
330
8B
100
AcDbEntity
  8
$DDT_AUDIT_GENERATED_(8F)
  6
Continuous
 62
     7
100
AcDbCircle
 10
193.9492614749
 20
343.4124011953
 30
0.0
 40
4.0
100
AcDbArc
 50
71.5600598768
 51
0.0
  0
ARC
  5
93
330
8B
100
AcDbEntity
  8
$DDT_AUDIT_GENERATED_(8F)
  6
Continuous
 62
     7
100
AcDbCircle
 10
193.9492614749
 20
343.4124011953
 30
0.0
 40
4.0
100
AcDbArc
 50
0.0
 51
18.4399401231
  0
ARC
  5
94
330
8B
100
AcDbEntity
  8
$DDT_AUDIT_GENERATED_(8F)
  6
Continuous
 62
     7
100
AcDbCircle
 10
193.9492614749
 20
445.9428844673
 30
0.0
 40
4.0
100
AcDbArc
 50
341.5600598768
 51
0.0
  0
ARC
  5
95
330
8B
100
AcDbEntity
  8
$DDT_AUDIT_GENERATED_(8F)
  6
Continuous
 62
     7
100
AcDbCircle
 10
193.9492614749
 20
445.9428844673
 30
0.0
 40
4.0
100
AcDbArc
 50
0.0
 51
288.4399401232
  0
ARC
  5
97
330
8B
100
AcDbEntity
  8
$DDT_AUDIT_GENERATED_(96)
  6
Continuous
 62
     7
100
AcDbCircle
 10
222.5145031109
 20
694.6776428313
 30
0.0
 40
4.0
100
AcDbArc
 50
27.7406847738
 51
332.2593152261
  0
LINE
  5
99
330
8B
100
AcDbEntity
  8
$DDT_AUDIT_GENERATED_(98)
  6
Continuous
 62
     7
100
AcDbLine
 10
243.7145031109
 20
777.873795254
 30
0.0
 11
243.7145031109
 21
750.1776428313
 31
0.0
  0
LINE
  5
9A
330
8B
100
AcDbEntity
  8
$DDT_AUDIT_GENERATED_(98)
  6
Continuous
 62
     7
100
AcDbLine
 10
246.7145031109
 20
750.1776428313
 30
0.0
 11
246.7145031109
 21
777.873795254
 31
0.0
  0
LINE
  5
9C
330
8B
100
AcDbEntity
  8
$DDT_AUDIT_GENERATED_(9B)
  6
Continuous
 62
     7
100
AcDbLine
 10
257.1108003234
 20
720.1776428313
 30
0.0
 11
246.8182058983
 21
720.1776428313
 31
0.0
  0
LINE
  5
9D
330
8B
100
AcDbEntity
  8
$DDT_AUDIT_GENERATED_(9B)
  6
Continuous
 62
     7
100
AcDbLine
 10
246.8182058983
 20
732.1776428313
 30
0.0
 11
246.8182058983
 21
720.1776428313
 31
0.0
  0
LINE
  5
9E
330
8B
100
AcDbEntity
  8
$DDT_AUDIT_GENERATED_(9B)
  6
Continuous
 62
     7
100
AcDbLine
 10
257.1108003234
 20
720.1776428313
 30
0.0
 11
257.1108003234
 21
732.1776428313
 31
0.0
  0
LINE
  5
9F
330
8B
100
AcDbEntity
  8
$DDT_AUDIT_GENERATED_(9B)
  6
Continuous
 62
     7
100
AcDbLine
 10
257.1108003234
 20
732.1776428313
 30
0.0
 11
246.8182058983
 21
732.1776428313
 31
0.0
  0
LINE
  5
A0
330
8B
100
AcDbEntity
  8
$DDT_AUDIT_GENERATED_(9B)
  6
Continuous
 62
     7
100
AcDbLine
 10
259.9645031109
 20
720.1776428313
 30
0.0
 11
258.7145031109
 21
720.1776428313
 31
0.0
  0
LINE
  5
A1
330
8B
100
AcDbEntity
  8
$DDT_AUDIT_GENERATED_(9B)
  6
Continuous
 62
     7
100
AcDbLine
 10
258.7145031109
 20
732.1776428313
 30
0.0
 11
258.7145031109
 21
720.1776428313
 31
0.0
  0
LINE
  5
A2
330
8B
100
AcDbEntity
  8
$DDT_AUDIT_GENERATED_(9B)
  6
Continuous
 62
     7
100
AcDbLine
 10
259.9645031109
 20
732.1776428313
 30
0.0
 11
258.7145031109
 21
732.1776428313
 31
0.0
  0
LINE
  5
A3
330
8B
100
AcDbEntity
  8
$DDT_AUDIT_GENERATED_(9B)
  6
Continuous
 62
     7
100
AcDbLine
 10
230.4645031109
 20
720.1776428313
 30
0.0
 11
231.7145031109
 21
720.1776428313
 31
0.0
  0
LINE
  5
A4
330
8B
100
AcDbEntity
  8
$DDT_AUDIT_GENERATED_(9B)
  6
Continuous
 62
     7
100
AcDbLine
 10
231.7145031109
 20
720.1776428313
 30
0.0
 11
231.7145031109
 21
732.1776428313
 31
0.0
  0
LINE
  5
A5
330
8B
100
AcDbEntity
  8
$DDT_AUDIT_GENERATED_(9B)
  6
Continuous
 62
     7
100
AcDbLine
 10
230.4645031109
 20
732.1776428313
 30
0.0
 11
231.7145031109
 21
732.1776428313
 31
0.0
  0
LINE
  5
A6
330
8B
100
AcDbEntity
  8
$DDT_AUDIT_GENERATED_(9B)
  6
Continuous
 62
     7
100
AcDbLine
 10
243.6108003234
 20
720.1776428313
 30
0.0
 11
233.3182058983
 21
720.1776428313
 31
0.0
  0
LINE
  5
A7
330
8B
100
AcDbEntity
  8
$DDT_AUDIT_GENERATED_(9B)
  6
Continuous
 62
     7
100
AcDbLine
 10
233.3182058983
 20
732.1776428313
 30
0.0
 11
233.3182058983
 21
720.1776428313
 31
0.0
  0
LINE
  5
A8
330
8B
100
AcDbEntity
  8
$DDT_AUDIT_GENERATED_(9B)
  6
Continuous
 62
     7
100
AcDbLine
 10
243.6108003234
 20
720.1776428313
 30
0.0
 11
243.6108003234
 21
732.1776428313
 31
0.0
  0
LINE
  5
A9
330
8B
100
AcDbEntity
  8
$DDT_AUDIT_GENERATED_(9B)
  6
Continuous
 62
     7
100
AcDbLine
 10
243.6108003234
 20
732.1776428313
 30
0.0
 11
233.3182058983
 21
732.1776428313
 31
0.0
  0
LINE
  5
AA
330
8B
100
AcDbEntity
  8
$DDT_AUDIT_GENERATED_(9B)
  6
Continuous
 62
     7
100
AcDbLine
 10
259.4645031109
 20
750.1776428313
 30
0.0
 11
230.9645031109
 21
750.1776428313
 31
0.0
  0
LINE
  5
AB
330
8B
100
AcDbEntity
  8
$DDT_AUDIT_GENERATED_(9B)
  6
Continuous
 62
     7
100
AcDbLine
 10
259.9645031109
 20
719.1776428313
 30
0.0
 11
230.4645031109
 21
719.1776428313
 31
0.0
  0
LINE
  5
AC
330
8B
100
AcDbEntity
  8
$DDT_AUDIT_GENERATED_(9B)
  6
Continuous
 62
     7
100
AcDbLine
 10
230.4645031109
 20
749.6776428313
 30
0.0
 11
259.9645031109
 21
749.6776428313
 31
0.0
  0
LINE
  5
AD
330
8B
100
AcDbEntity
  8
$DDT_AUDIT_GENERATED_(9B)
  6
Continuous
 62
     7
100
AcDbLine
 10
259.9645031109
 20
732.1776428313
 30
0.0
 11
259.9645031109
 21
749.6776428313
 31
0.0
  0
LINE
  5
AE
330
8B
100
AcDbEntity
  8
$DDT_AUDIT_GENERATED_(9B)
  6
Continuous
 62
     7
100
AcDbLine
 10
259.9645031109
 20
719.1776428313
 30
0.0
 11
259.9645031109
 21
720.1776428313
 31
0.0
  0
LINE
  5
AF
330
8B
100
AcDbEntity
  8
$DDT_AUDIT_GENERATED_(9B)
  6
Continuous
 62
     7
100
AcDbLine
 10
230.4645031109
 20
720.1776428313
 30
0.0
 11
230.4645031109
 21
719.1776428313
 31
0.0
  0
LINE
  5
B0
330
8B
100
AcDbEntity
  8
$DDT_AUDIT_GENERATED_(9B)
  6
Continuous
 62
     7
100
AcDbLine
 10
230.4645031109
 20
749.6776428313
 30
0.0
 11
230.4645031109
 21
732.1776428313
 31
0.0
  0
LINE
  5
B1
330
8B
100
AcDbEntity
  8
$DDT_AUDIT_GENERATED_(9B)
  6
Continuous
 62
     7
100
AcDbLine
 10
259.9645031109
 20
749.6776428313
 30
0.0
 11
259.4645031109
 21
750.1776428313
 31
0.0
  0
LINE
  5
B2
330
8B
100
AcDbEntity
  8
$DDT_AUDIT_GENERATED_(9B)
  6
Continuous
 62
     7
100
AcDbLine
 10
230.9645031109
 20
750.1776428313
 30
0.0
 11
230.4645031109
 21
749.6776428313
 31
0.0
  0
LINE
  5
B3
330
8B
100
AcDbEntity
  8
$DDT_AUDIT_GENERATED_(9B)
  6
Continuous
 62
     7
100
AcDbLine
 10
230.4645031109
 20
719.1776428313
 30
0.0
 11
230.9645031109
 21
718.6776428313
 31
0.0
  0
LINE
  5
B4
330
8B
100
AcDbEntity
  8
$DDT_AUDIT_GENERATED_(9B)
  6
Continuous
 62
     7
100
AcDbLine
 10
259.4645031109
 20
718.6776428313
 30
0.0
 11
259.9645031109
 21
719.1776428313
 31
0.0
  0
ARC
  5
B6
330
8B
100
AcDbEntity
  8
$DDT_AUDIT_GENERATED_(B5)
  6
Continuous
 62
     7
100
AcDbCircle
 10
245.2145031109
 20
694.6776428313
 30
0.0
 40
29.0
100
AcDbArc
 50
124.1484243449
 51
55.8515756551
  0
LINE
  5
B7
330
8B
100
AcDbEntity
  8
$DDT_AUDIT_GENERATED_(B5)
  6
Continuous
 62
     7
100
AcDbLine
 10
228.9356825148
 20
718.6776428313
 30
0.0
 11
261.493323707
 21
718.6776428313
 31
0.0
  0
ARC
  5
B8
330
8B
100
AcDbEntity
  8
$DDT_AUDIT_GENERATED_(B5)
  6
Continuous
 62
     7
100
AcDbCircle
 10
267.9145031109
 20
694.6776428313
 30
0.0
 40
4.500000000000001
100
AcDbArc
 50
216.1451149637
 51
0.0
  0
ARC
  5
B9
330
8B
100
AcDbEntity
  8
$DDT_AUDIT_GENERATED_(B5)
  6
Continuous
 62
     7
100
AcDbCircle
 10
267.9145031109
 20
694.6776428313
 30
0.0
 40
4.500000000000001
100
AcDbArc
 50
0.0
 51
143.8548850363
  0
ARC
  5
BA
330
8B
100
AcDbEntity
  8
$DDT_AUDIT_GENERATED_(B5)
  6
Continuous
 62
     7
100
AcDbCircle
 10
222.5145031109
 20
694.6776428313
 30
0.0
 40
4.500000000000001
100
AcDbArc
 50
36.1451149626
 51
323.8548850373
  0
ARC
  5
BC
330
8B
100
AcDbEntity
  8
$DDT_AUDIT_GENERATED_(BB)
  6
Continuous
 62
     7
100
AcDbCircle
 10
296.4797447469
 20
445.9428844673
 30
0.0
 40
6.000000000001901
100
AcDbArc
 50
337.4999999822
 51
112.5
  0
LINE
  5
BD
330
8B
100
AcDbEntity
  8
$DDT_AUDIT_GENERATED_(BB)
  6
Continuous
 62
     7
100
AcDbLine
 10
302.0230219412
 20
443.6467838714
 30
0.0
 11
295.2145031109
 21
427.2095653714
 31
0.0
  0
LINE
  5
BE
330
8B
100
AcDbEntity
  8
$DDT_AUDIT_GENERATED_(BB)
  6
Continuous
 62
     7
100
AcDbLine
 10
294.183644151
 20
337.8691240009
 30
0.0
 11
277.746425651
 21
344.6776428313
 31
0.0
  0
ARC
  5
BF
330
8B
100
AcDbEntity
  8
$DDT_AUDIT_GENERATED_(BB)
  6
Continuous
 62
     7
100
AcDbCircle
 10
296.4797447469
 20
343.4124011953
 30
0.0
 40
6.000000000000811
100
AcDbArc
 50
247.4999999822
 51
22.500000005
  0
LINE
  5
C0
330
8B
100
AcDbEntity
  8
$DDT_AUDIT_GENERATED_(BB)
  6
Continuous
 62
     7
100
AcDbLine
 10
295.2145031109
 20
362.1457202911
 30
0.0
 11
302.0230219418
 21
345.7085017899
 31
0.0
  0
LINE
  5
C1
330
8B
100
AcDbEntity
  8
$DDT_AUDIT_GENERATED_(BB)
  6
Continuous
 62
     7
100
AcDbLine
 10
195.2145031109
 20
427.2095653714
 30
0.0
 11
188.4059842798
 21
443.6467838731
 31
0.0
  0
ARC
  5
C2
330
8B
100
AcDbEntity
  8
$DDT_AUDIT_GENERATED_(BB)
  6
Continuous
 62
     7
100
AcDbCircle
 10
193.9492614749
 20
445.9428844673
 30
0.0
 40
6.000000000001901
100
AcDbArc
 50
67.5
 51
202.5
  0
LINE
  5
C3
330
8B
100
AcDbEntity
  8
$DDT_AUDIT_GENERATED_(BB)
  6
Continuous
 62
     7
100
AcDbLine
 10
196.245362069
 20
451.4861616624
 30
0.0
 11
212.6825805707
 21
444.6776428313
 31
0.0
  0
LINE
  5
C4
330
8B
100
AcDbEntity
  8
$DDT_AUDIT_GENERATED_(BB)
  6
Continuous
 62
     7
100
AcDbLine
 10
212.6825805707
 20
344.6776428313
 30
0.0
 11
196.2453620695
 21
337.8691240004
 31
0.0
  0
ARC
  5
C5
330
8B
100
AcDbEntity
  8
$DDT_AUDIT_GENERATED_(BB)
  6
Continuous
 62
     7
100
AcDbCircle
 10
193.9492614749
 20
343.4124011952
 30
0.0
 40
5.999999999996986
100
AcDbArc
 50
157.4999999821
 51
292.5000000049
  0
LINE
  5
C6
330
8B
100
AcDbEntity
  8
$DDT_AUDIT_GENERATED_(BB)
  6
Continuous
 62
     7
100
AcDbLine
 10
188.4059842805
 20
345.7085017912
 30
0.0
 11
195.2145031109
 21
362.1457202912
 31
0.0
  0
LINE
  5
C7
330
8B
100
AcDbEntity
  8
$DDT_AUDIT_GENERATED_(BB)
  6
Continuous
 62
     7
100
AcDbLine
 10
277.746425651
 20
444.6776428313
 30
0.0
 11
294.1836441527
 21
451.4861616624
 31
0.0
  0
LINE
  5
C9
330
8B
100
AcDbEntity
  8
$DDT_AUDIT_GENERATED_(C8)
  6
Continuous
 62
     7
100
AcDbLine
 10
295.2145031109
 20
444.6776428313
 30
0.0
 11
195.2145031109
 21
444.6776428313
 31
0.0
  0
LINE
  5
CA
330
8B
100
AcDbEntity
  8
$DDT_AUDIT_GENERATED_(C8)
  6
Continuous
 62
     7
100
AcDbLine
 10
195.2145031109
 20
444.6776428313
 30
0.0
 11
195.2145031109
 21
344.6776428313
 31
0.0
  0
LINE
  5
CB
330
8B
100
AcDbEntity
  8
$DDT_AUDIT_GENERATED_(C8)
  6
Continuous
 62
     7
100
AcDbLine
 10
195.2145031109
 20
344.6776428313
 30
0.0
 11
295.2145031109
 21
344.6776428313
 31
0.0
  0
LINE
  5
CC
330
8B
100
AcDbEntity
  8
$DDT_AUDIT_GENERATED_(C8)
  6
Continuous
 62
     7
100
AcDbLine
 10
295.2145031109
 20
344.6776428313
 30
0.0
 11
295.2145031109
 21
444.6776428313
 31
0.0
  0
CIRCLE
  5
CD
330
8B
100
AcDbEntity
  8
$DDT_AUDIT_GENERATED_(C8)
  6
Continuous
 62
     7
100
AcDbCircle
 10
245.2145031109
 20
394.6776428313
 30
0.0
 40
35.0
  0
ARC
  5
CE
330
8B
100
AcDbEntity
  8
$DDT_AUDIT_GENERATED_(C8)
  6
Continuous
 62
     7
100
AcDbCircle
 10
271.6398722269
 20
419.8559742613
 30
0.0
 40
0.29997954178112
100
AcDbArc
 50
135.0045186036
 51
223.612437598
  0
LINE
  5
CF
330
8B
100
AcDbEntity
  8
$DDT_AUDIT_GENERATED_(C8)
  6
Continuous
 62
     7
100
AcDbLine
 10
289.2651692818
 20
437.9054880001
 30
0.0
 11
271.4277379308
 21
420.0680751003
 31
0.0
  0
ARC
  5
D0
330
8B
100
AcDbEntity
  8
$DDT_AUDIT_GENERATED_(C8)
  6
Continuous
 62
     7
100
AcDbCircle
 10
289.4775791973
 20
437.6941748997
 30
0.0
 40
0.2996184216515603
100
AcDbArc
 50
36.7509550537
 51
135.1483108968
  0
ARC
  5
D1
330
8B
100
AcDbEntity
  8
$DDT_AUDIT_GENERATED_(C8)
  6
Continuous
 62
     7
100
AcDbCircle
 10
284.5145031109
 20
433.9776428313
 30
0.0
 40
6.499999999999999
100
AcDbArc
 50
0.0
 51
36.8236909177
  0
LINE
  5
D2
330
8B
100
AcDbEntity
  8
$DDT_AUDIT_GENERATED_(C8)
  6
Continuous
 62
     7
100
AcDbLine
 10
291.0145031109
 20
433.9776428309
 30
0.0
 11
291.0145031109
 21
355.3776428313
 31
0.0
  0
ARC
  5
D3
330
8B
100
AcDbEntity
  8
$DDT_AUDIT_GENERATED_(C8)
  6
Continuous
 62
     7
100
AcDbCircle
 10
284.5145031109
 20
355.3776428313
 30
0.0
 40
6.499999999999981
100
AcDbArc
 50
323.1762940702
 51
0.0
  0
ARC
  5
D4
330
8B
100
AcDbEntity
  8
$DDT_AUDIT_GENERATED_(C8)
  6
Continuous
 62
     7
100
AcDbCircle
 10
289.4776220619
 20
351.6612256854
 30
0.0
 40
0.2997301362917367
100
AcDbArc
 50
224.9356245474
 51
323.2261959013
  0
LINE
  5
D5
330
8B
100
AcDbEntity
  8
$DDT_AUDIT_GENERATED_(C8)
  6
Continuous
 62
     7
100
AcDbLine
 10
271.4275069381
 20
369.2874424966
 30
0.0
 11
289.2654428544
 21
351.4495227366
 31
0.0
  0
ARC
  5
D6
330
8B
100
AcDbEntity
  8
$DDT_AUDIT_GENERATED_(C8)
  6
Continuous
 62
     7
100
AcDbCircle
 10
271.6398718781
 20
369.4993117278
 30
0.0
 40
0.2999790640691006
100
AcDbArc
 50
136.387562079
 51
224.9330510997
  0
ARC
  5
D7
330
8B
100
AcDbEntity
  8
$DDT_AUDIT_GENERATED_(C8)
  6
Continuous
 62
     7
100
AcDbCircle
 10
245.2145031109
 20
394.6776428313
 30
0.0
 40
36.19999999999998
100
AcDbArc
 50
316.3842942603
 51
43.6157057358
  0
ARC
  5
D8
330
8B
100
AcDbEntity
  8
$DDT_AUDIT_GENERATED_(C8)
  6
Continuous
 62
     7
100
AcDbCircle
 10
220.0361716809
 20
421.1030119472
 30
0.0
 40
0.2999795417604398
100
AcDbArc
 50
225.004518945
 51
313.612435127
  0
LINE
  5
D9
330
8B
100
AcDbEntity
  8
$DDT_AUDIT_GENERATED_(C8)
  6
Continuous
 62
     7
100
AcDbLine
 10
201.9866579421
 20
438.7283090022
 30
0.0
 11
219.8240708432
 21
420.8908776499
 31
0.0
  0
ARC
  5
DA
330
8B
100
AcDbEntity
  8
$DDT_AUDIT_GENERATED_(C8)
  6
Continuous
 62
     7
100
AcDbCircle
 10
202.1979710424
 20
438.9407189177
 30
0.0
 40
0.2996184216518429
100
AcDbArc
 50
126.7509550538
 51
225.1483108967
  0
ARC
  5
DB
330
8B
100
AcDbEntity
  8
$DDT_AUDIT_GENERATED_(C8)
  6
Continuous
 62
     7
100
AcDbCircle
 10
205.9145031109
 20
433.9776428313
 30
0.0
 40
6.499999999999999
100
AcDbArc
 50
89.9999999968
 51
126.8236909177
  0
LINE
  5
DC
330
8B
100
AcDbEntity
  8
$DDT_AUDIT_GENERATED_(C8)
  6
Continuous
 62
     7
100
AcDbLine
 10
205.9145031112
 20
440.4776428313
 30
0.0
 11
284.5145031109
 21
440.4776428313
 31
0.0
  0
ARC
  5
DD
330
8B
100
AcDbEntity
  8
$DDT_AUDIT_GENERATED_(C8)
  6
Continuous
 62
     7
100
AcDbCircle
 10
284.5145031109
 20
433.9776428313
 30
0.0
 40
6.499999999999981
100
AcDbArc
 50
53.1762940702
 51
90.0
  0
ARC
  5
DE
330
8B
100
AcDbEntity
  8
$DDT_AUDIT_GENERATED_(C8)
  6
Continuous
 62
     7
100
AcDbCircle
 10
288.2309202568
 20
438.9407617823
 30
0.0
 40
0.2997301362915282
100
AcDbArc
 50
314.9356245474
 51
53.2261959013
  0
LINE
  5
DF
330
8B
100
AcDbEntity
  8
$DDT_AUDIT_GENERATED_(C8)
  6
Continuous
 62
     7
100
AcDbLine
 10
270.6047034456
 20
420.8906466585
 30
0.0
 11
288.4426232055
 21
438.7285825748
 31
0.0
  0
ARC
  5
E0
330
8B
100
AcDbEntity
  8
$DDT_AUDIT_GENERATED_(C8)
  6
Continuous
 62
     7
100
AcDbCircle
 10
270.3928342144
 20
421.1030115985
 30
0.0
 40
0.2999790640849896
100
AcDbArc
 50
226.3875638017
 51
314.9330510966
  0
ARC
  5
E1
330
8B
100
AcDbEntity
  8
$DDT_AUDIT_GENERATED_(C8)
  6
Continuous
 62
     7
100
AcDbCircle
 10
245.2145031109
 20
394.6776428313
 30
0.0
 40
36.20000000000002
100
AcDbArc
 50
46.384294246
 51
133.6157057563
  0
ARC
  5
E2
330
8B
100
AcDbEntity
  8
$DDT_AUDIT_GENERATED_(C8)
  6
Continuous
 62
     7
100
AcDbCircle
 10
218.7891339952
 20
369.4993114013
 30
0.0
 40
0.2999795416094092
100
AcDbArc
 50
315.0045520561
 51
43.6122743851
  0
LINE
  5
E3
330
8B
100
AcDbEntity
  8
$DDT_AUDIT_GENERATED_(C8)
  6
Continuous
 62
     7
100
AcDbLine
 10
201.16383694
 20
351.4497976625
 30
0.0
 11
219.001268415
 21
369.2872106863
 31
0.0
  0
ARC
  5
E4
330
8B
100
AcDbEntity
  8
$DDT_AUDIT_GENERATED_(C8)
  6
Continuous
 62
     7
100
AcDbCircle
 10
200.9514270244
 20
351.6611107628
 30
0.0
 40
0.2996184216519322
100
AcDbArc
 50
216.7509550538
 51
315.1483108967
  0
ARC
  5
E5
330
8B
100
AcDbEntity
  8
$DDT_AUDIT_GENERATED_(C8)
  6
Continuous
 62
     7
100
AcDbCircle
 10
205.9145031109
 20
355.3776428313
 30
0.0
 40
6.499999999999999
100
AcDbArc
 50
179.9999999968
 51
216.8236909177
  0
LINE
  5
E6
330
8B
100
AcDbEntity
  8
$DDT_AUDIT_GENERATED_(C8)
  6
Continuous
 62
     7
100
AcDbLine
 10
199.4145031109
 20
355.3776428316
 30
0.0
 11
199.4145031109
 21
433.9776428313
 31
0.0
  0
ARC
  5
E7
330
8B
100
AcDbEntity
  8
$DDT_AUDIT_GENERATED_(C8)
  6
Continuous
 62
     7
100
AcDbCircle
 10
205.9145031109
 20
433.9776428313
 30
0.0
 40
6.499999999999981
100
AcDbArc
 50
143.1762940702
 51
180.0
  0
ARC
  5
E8
330
8B
100
AcDbEntity
  8
$DDT_AUDIT_GENERATED_(C8)
  6
Continuous
 62
     7
100
AcDbCircle
 10
200.9513841599
 20
437.6940599772
 30
0.0
 40
0.2997301362917884
100
AcDbArc
 50
44.9356245475
 51
143.2261959013
  0
LINE
  5
E9
330
8B
100
AcDbEntity
  8
$DDT_AUDIT_GENERATED_(C8)
  6
Continuous
 62
     7
100
AcDbLine
 10
219.0014994041
 20
420.0678430455
 30
0.0
 11
201.1635633674
 21
437.9057629259
 31
0.0
  0
ARC
  5
EA
330
8B
100
AcDbEntity
  8
$DDT_AUDIT_GENERATED_(C8)
  6
Continuous
 62
     7
100
AcDbCircle
 10
218.7891343436
 20
419.8559739349
 30
0.0
 40
0.2999790641988754
100
AcDbArc
 50
316.3877213844
 51
44.9330185512
  0
ARC
  5
EB
330
8B
100
AcDbEntity
  8
$DDT_AUDIT_GENERATED_(C8)
  6
Continuous
 62
     7
100
AcDbCircle
 10
245.2145031109
 20
394.6776428313
 30
0.0
 40
36.19999999999998
100
AcDbArc
 50
136.38429294
 51
223.6157070886
  0
ARC
  5
EC
330
8B
100
AcDbEntity
  8
$DDT_AUDIT_GENERATED_(C8)
  6
Continuous
 62
     7
100
AcDbCircle
 10
270.3928345409
 20
368.2522737156
 30
0.0
 40
0.2999795416068923
100
AcDbArc
 50
45.0045511381
 51
133.6122766524
  0
LINE
  5
ED
330
8B
100
AcDbEntity
  8
$DDT_AUDIT_GENERATED_(C8)
  6
Continuous
 62
     7
100
AcDbLine
 10
288.4423482797
 20
350.6269766604
 30
0.0
 11
270.6049352593
 21
368.464408132
 31
0.0
  0
ARC
  5
EE
330
8B
100
AcDbEntity
  8
$DDT_AUDIT_GENERATED_(C8)
  6
Continuous
 62
     7
100
AcDbCircle
 10
288.2310351794
 20
350.4145667448
 30
0.0
 40
0.2996184216517403
100
AcDbArc
 50
306.7509550538
 51
45.1483108968
  0
ARC
  5
EF
330
8B
100
AcDbEntity
  8
$DDT_AUDIT_GENERATED_(C8)
  6
Continuous
 62
     7
100
AcDbCircle
 10
284.5145031109
 20
355.3776428313
 30
0.0
 40
6.499999999999999
100
AcDbArc
 50
269.9999999968
 51
306.8236909177
  0
LINE
  5
F0
330
8B
100
AcDbEntity
  8
$DDT_AUDIT_GENERATED_(C8)
  6
Continuous
 62
     7
100
AcDbLine
 10
284.5145031105
 20
348.8776428313
 30
0.0
 11
205.9145031109
 21
348.8776428313
 31
0.0
  0
ARC
  5
F1
330
8B
100
AcDbEntity
  8
$DDT_AUDIT_GENERATED_(C8)
  6
Continuous
 62
     7
100
AcDbCircle
 10
205.9145031109
 20
355.3776428313
 30
0.0
 40
6.499999999999981
100
AcDbArc
 50
233.1762940702
 51
270.0
  0
ARC
  5
F2
330
8B
100
AcDbEntity
  8
$DDT_AUDIT_GENERATED_(C8)
  6
Continuous
 62
     7
100
AcDbCircle
 10
202.198085965
 20
350.4145238803
 30
0.0
 40
0.2997301362917237
100
AcDbArc
 50
134.9356245474
 51
233.2261959013
  0
LINE
  5
F3
330
8B
100
AcDbEntity
  8
$DDT_AUDIT_GENERATED_(C8)
  6
Continuous
 62
     7
100
AcDbLine
 10
219.8243028966
 20
368.4646391245
 30
0.0
 11
201.9863830162
 21
350.6267030878
 31
0.0
  0
ARC
  5
F4
330
8B
100
AcDbEntity
  8
$DDT_AUDIT_GENERATED_(C8)
  6
Continuous
 62
     7
100
AcDbCircle
 10
220.0361720073
 20
368.2522740641
 30
0.0
 40
0.2999790641880515
100
AcDbArc
 50
46.3877228171
 51
134.9330185528
  0
ARC
  5
F5
330
8B
100
AcDbEntity
  8
$DDT_AUDIT_GENERATED_(C8)
  6
Continuous
 62
     7
100
AcDbCircle
 10
245.2145031109
 20
394.6776428313
 30
0.0
 40
36.20000000000001
100
AcDbArc
 50
226.3842929281
 51
313.6157070698
  0
CIRCLE
  5
F6
330
8B
100
AcDbEntity
  8
$DDT_AUDIT_GENERATED_(C8)
  6
Continuous
 62
     7
100
AcDbCircle
 10
230.8645031109
 20
394.6776428313
 30
0.0
 40
3.0
  0
LINE
  5
F7
330
8B
100
AcDbEntity
  8
$DDT_AUDIT_GENERATED_(C8)
  6
Continuous
 62
     7
100
AcDbLine
 10
251.0890858215
 20
407.8100009007
 30
0.0
 11
251.0890858215
 21
407.3188379007
 31
0.0
  0
LINE
  5
F8
330
8B
100
AcDbEntity
  8
$DDT_AUDIT_GENERATED_(C8)
  6
Continuous
 62
     7
100
AcDbLine
 10
251.0890858215
 20
407.3188379007
 30
0.0
 11
249.4903858215
 21
407.3188379007
 31
0.0
  0
LINE
  5
F9
330
8B
100
AcDbEntity
  8
$DDT_AUDIT_GENERATED_(C8)
  6
Continuous
 62
     7
100
AcDbLine
 10
249.4903858215
 20
407.3188379007
 30
0.0
 11
249.4903858215
 21
409.5932369007
 31
0.0
  0
LINE
  5
FA
330
8B
100
AcDbEntity
  8
$DDT_AUDIT_GENERATED_(C8)
  6
Continuous
 62
     7
100
AcDbLine
 10
249.4903858215
 20
409.5932369007
 30
0.0
 11
250.9613788215
 21
409.5932369007
 31
0.0
  0
LINE
  5
FB
330
8B
100
AcDbEntity
  8
$DDT_AUDIT_GENERATED_(C8)
  6
Continuous
 62
     7
100
AcDbLine
 10
250.9613788215
 20
409.5932369007
 30
0.0
 11
250.9613788215
 21
409.1214199007
 31
0.0
  0
LINE
  5
FC
330
8B
100
AcDbEntity
  8
$DDT_AUDIT_GENERATED_(C8)
  6
Continuous
 62
     7
100
AcDbLine
 10
250.9613788215
 20
409.1214199007
 30
0.0
 11
250.0328548215
 21
409.1214199007
 31
0.0
  0
LINE
  5
FD
330
8B
100
AcDbEntity
  8
$DDT_AUDIT_GENERATED_(C8)
  6
Continuous
 62
     7
100
AcDbLine
 10
250.0328548215
 20
409.1214199007
 30
0.0
 11
250.0328548215
 21
408.7567459007
 31
0.0
  0
LINE
  5
FE
330
8B
100
AcDbEntity
  8
$DDT_AUDIT_GENERATED_(C8)
  6
Continuous
 62
     7
100
AcDbLine
 10
250.0328548215
 20
408.7567459007
 30
0.0
 11
250.8130498215
 21
408.7567459007
 31
0.0
  0
LINE
  5
FF
330
8B
100
AcDbEntity
  8
$DDT_AUDIT_GENERATED_(C8)
  6
Continuous
 62
     7
100
AcDbLine
 10
250.8130498215
 20
408.7567459007
 30
0.0
 11
250.8130498215
 21
408.3197869007
 31
0.0
  0
LINE
  5
100
330
8B
100
AcDbEntity
  8
$DDT_AUDIT_GENERATED_(C8)
  6
Continuous
 62
     7
100
AcDbLine
 10
250.8130498215
 20
408.3197869007
 30
0.0
 11
250.0328548215
 21
408.3197869007
 31
0.0
  0
LINE
  5
101
330
8B
100
AcDbEntity
  8
$DDT_AUDIT_GENERATED_(C8)
  6
Continuous
 62
     7
100
AcDbLine
 10
250.0328548215
 20
408.3197869007
 30
0.0
 11
250.0328548215
 21
407.8100009007
 31
0.0
  0
LINE
  5
102
330
8B
100
AcDbEntity
  8
$DDT_AUDIT_GENERATED_(C8)
  6
Continuous
 62
     7
100
AcDbLine
 10
250.0328548215
 20
407.8100009007
 30
0.0
 11
251.0890858215
 21
407.8100009007
 31
0.0
  0
LINE
  5
103
330
8B
100
AcDbEntity
  8
$DDT_AUDIT_GENERATED_(C8)
  6
Continuous
 62
     7
100
AcDbLine
 10
248.9215088215
 20
407.3172819007
 30
0.0
 11
248.3686378215
 21
407.3172819007
 31
0.0
  0
LINE
  5
104
330
8B
100
AcDbEntity
  8
$DDT_AUDIT_GENERATED_(C8)
  6
Continuous
 62
     7
100
AcDbLine
 10
248.3686378215
 20
407.3172819007
 30
0.0
 11
248.3686378215
 21
408.2674419007
 31
0.0
  0
LINE
  5
105
330
8B
100
AcDbEntity
  8
$DDT_AUDIT_GENERATED_(C8)
  6
Continuous
 62
     7
100
AcDbLine
 10
248.3686378215
 20
408.2674419007
 30
0.0
 11
247.4117138215
 21
408.2674419007
 31
0.0
  0
LINE
  5
106
330
8B
100
AcDbEntity
  8
$DDT_AUDIT_GENERATED_(C8)
  6
Continuous
 62
     7
100
AcDbLine
 10
247.4117138215
 20
408.2674419007
 30
0.0
 11
247.4117138215
 21
407.3172819007
 31
0.0
  0
LINE
  5
107
330
8B
100
AcDbEntity
  8
$DDT_AUDIT_GENERATED_(C8)
  6
Continuous
 62
     7
100
AcDbLine
 10
247.4117138215
 20
407.3172819007
 30
0.0
 11
246.8657768215
 21
407.3172819007
 31
0.0
  0
LINE
  5
108
330
8B
100
AcDbEntity
  8
$DDT_AUDIT_GENERATED_(C8)
  6
Continuous
 62
     7
100
AcDbLine
 10
246.8657768215
 20
407.3172819007
 30
0.0
 11
246.8657768215
 21
409.5932369007
 31
0.0
  0
LINE
  5
109
330
8B
100
AcDbEntity
  8
$DDT_AUDIT_GENERATED_(C8)
  6
Continuous
 62
     7
100
AcDbLine
 10
246.8657768215
 20
409.5932369007
 30
0.0
 11
247.4068678215
 21
409.5932369007
 31
0.0
  0
LINE
  5
10A
330
8B
100
AcDbEntity
  8
$DDT_AUDIT_GENERATED_(C8)
  6
Continuous
 62
     7
100
AcDbLine
 10
247.4068678215
 20
409.5932369007
 30
0.0
 11
247.4068678215
 21
408.7631509007
 31
0.0
  0
LINE
  5
10B
330
8B
100
AcDbEntity
  8
$DDT_AUDIT_GENERATED_(C8)
  6
Continuous
 62
     7
100
AcDbLine
 10
247.4068678215
 20
408.7631509007
 30
0.0
 11
248.3728388215
 21
408.7631509007
 31
0.0
  0
LINE
  5
10C
330
8B
100
AcDbEntity
  8
$DDT_AUDIT_GENERATED_(C8)
  6
Continuous
 62
     7
100
AcDbLine
 10
248.3728388215
 20
408.7631509007
 30
0.0
 11
248.3728388215
 21
409.5932369007
 31
0.0
  0
LINE
  5
10D
330
8B
100
AcDbEntity
  8
$DDT_AUDIT_GENERATED_(C8)
  6
Continuous
 62
     7
100
AcDbLine
 10
248.3728388215
 20
409.5932369007
 30
0.0
 11
248.9215088215
 21
409.5932369007
 31
0.0
  0
LINE
  5
10E
330
8B
100
AcDbEntity
  8
$DDT_AUDIT_GENERATED_(C8)
  6
Continuous
 62
     7
100
AcDbLine
 10
248.9215088215
 20
409.5932369007
 30
0.0
 11
248.9215088215
 21
407.3172819007
 31
0.0
  0
SPLINE
  5
10F
330
8B
100
AcDbEntity
  8
$DDT_AUDIT_GENERATED_(C8)
  6
Continuous
 62
     7
100
AcDbSpline
210
0.0
220
0.0
230
1.0
 70
    12
 71
     3
 72
    17
 73
    13
 74
     0
 42
0.0000000050613291
 43
0.0000000001
 40
0.0
 40
0.0
 40
0.0
 40
0.0
 40
0.09569989884335
 40
0.1913204066606
 40
0.2887233670048
 40
0.3868355889362
 40
0.4853918627072
 40
0.5851165529542001
 40
0.6861696497277
 40
0.7888007230980001
 40
0.892847511622
 40
1.0
 40
1.0
 40
1.0
 40
1.0
 10
246.4578767590796
 20
408.461984219176
 30
0.0
 41
1.0
 10
246.4578767590796
 20
408.399201384286
 30
0.0
 41
1.0
 10
246.4466459952636
 20
408.273448371216
 30
0.0
 41
1.0
 10
246.3986466903236
 20
408.0894240062261
 30
0.0
 41
1.0
 10
246.3213215252206
 20
407.913862329886
 30
0.0
 41
1.0
 10
246.2153767498876
 20
407.7515711448261
 30
0.0
 41
1.0
 10
246.0831761187232
 20
407.6078493919261
 30
0.0
 41
1.0
 10
245.9290708397954
 20
407.484936141306
 30
0.0
 41
1.0
 10
245.7559348398149
 20
407.385214200886
 30
0.0
 41
1.0
 10
245.5671933704318
 20
407.311475168126
 30
0.0
 41
1.0
 10
245.3658445531071
 20
407.265244766766
 30
0.0
 41
1.0
 10
245.2270629349029
 20
407.254658783596
 30
0.0
 41
1.0
 10
245.1567667813796
 20
407.254601866076
 30
0.0
 41
1.0
  0
SPLINE
  5
110
330
8B
100
AcDbEntity
  8
$DDT_AUDIT_GENERATED_(C8)
  6
Continuous
 62
     7
100
AcDbSpline
210
0.0
220
0.0
230
1.0
 70
    12
 71
     3
 72
    17
 73
    13
 74
     0
 42
0.0000000050494476
 43
0.0000000001
 40
0.0
 40
0.0
 40
0.0
 40
0.0
 40
0.1081671765705
 40
0.2133100097854
 40
0.3169125901284
 40
0.4188893049885
 40
0.5195201255188
 40
0.6185871095501
 40
0.7161529420321
 40
0.8121795319269
 40
0.9061062179588001
 40
1.0
 40
1.0
 40
1.0
 40
1.0
 10
245.1567667813796
 20
407.254601866076
 30
0.0
 41
1.0
 10
245.0856395344082
 20
407.254544446486
 30
0.0
 41
1.0
 10
244.945134263709
 20
407.265090539886
 30
0.0
 41
1.0
 10
244.7412422971314
 20
407.3114937990761
 30
0.0
 41
1.0
 10
244.5502129492022
 20
407.3862344995961
 30
0.0
 41
1.0
 10
244.3756391063386
 20
407.4881802998061
 30
0.0
 41
1.0
 10
244.2209813043875
 20
407.6136185236761
 30
0.0
 41
1.0
 10
244.0890643701686
 20
407.758915638036
 30
0.0
 41
1.0
 10
243.9833250616826
 20
407.920724088676
 30
0.0
 41
1.0
 10
243.9071377446536
 20
408.094733279876
 30
0.0
 41
1.0
 10
243.8613064286956
 20
408.276494425256
 30
0.0
 41
1.0
 10
243.8511294625796
 20
408.400242676016
 30
0.0
 41
1.0
 10
243.8511294625796
 20
408.461984219176
 30
0.0
 41
1.0
  0
SPLINE
  5
111
330
8B
100
AcDbEntity
  8
$DDT_AUDIT_GENERATED_(C8)
  6
Continuous
 62
     7
100
AcDbSpline
210
0.0
220
0.0
230
1.0
 70
    12
 71
     3
 72
    17
 73
    13
 74
     0
 42
0.0000000050494589
 43
0.0000000001
 40
0.0
 40
0.0
 40
0.0
 40
0.0
 40
0.09441682845343
 40
0.1887247128374
 40
0.285065118817
 40
0.3826811976875999
 40
0.4811266965572
 40
0.5810231236549
 40
0.6826167052705
 40
0.786068235619
 40
0.8913750564671
 40
1.0
 40
1.0
 40
1.0
 40
1.0
 10
243.8511294625796
 20
408.461984219176
 30
0.0
 41
1.0
 10
243.8511294625796
 20
408.5240696844961
 30
0.0
 41
1.0
 10
243.8614124336666
 20
408.648416727306
 30
0.0
 41
1.0
 10
243.9076726947596
 20
408.8309055426661
 30
0.0
 41
1.0
 10
243.9843807199716
 20
409.0052300181061
 30
0.0
 41
1.0
 10
244.0903651843776
 20
409.166674523866
 30
0.0
 41
1.0
 10
244.2219083777953
 20
409.311130954606
 30
0.0
 41
1.0
 10
244.375718378823
 20
409.435774086126
 30
0.0
 41
1.0
 10
244.5495202075019
 20
409.537369469106
 30
0.0
 41
1.0
 10
244.7402598202215
 20
409.612174332626
 30
0.0
 41
1.0
 10
244.944421503836
 20
409.658802013226
 30
0.0
 41
1.0
 10
245.0853385405097
 20
409.669424261016
 30
0.0
 41
1.0
 10
245.1567667813796
 20
409.6693665720761
 30
0.0
 41
1.0
  0
SPLINE
  5
112
330
8B
100
AcDbEntity
  8
$DDT_AUDIT_GENERATED_(C8)
  6
Continuous
 62
     7
100
AcDbSpline
210
0.0
220
0.0
230
1.0
 70
    12
 71
     3
 72
    17
 73
    13
 74
     0
 42
0.0000000050613175
 43
0.0000000001
 40
0.0
 40
0.0
 40
0.0
 40
0.0
 40
0.1070775144536
 40
0.211246676611
 40
0.3142548941137
 40
0.4158495394764
 40
0.5163802600612001
 40
0.6155480243934
 40
0.7134639711128
 40
0.8103069550540001
 40
0.9052324677632
 40
1.0
 40
1.0
 40
1.0
 40
1.0
 10
245.1567667813796
 20
409.6693665720761
 30
0.0
 41
1.0
 10
245.2270137909646
 20
409.669309720276
 30
0.0
 41
1.0
 10
245.3658261520307
 20
409.658728751646
 30
0.0
 41
1.0
 10
245.5674500218835
 20
409.612439477516
 30
0.0
 41
1.0
 10
245.7568107911843
 20
409.5383853965561
 30
0.0
 41
1.0
 10
245.9308335533188
 20
409.437911451626
 30
0.0
 41
1.0
 10
246.0857028547995
 20
409.3138663595361
 30
0.0
 41
1.0
 10
246.2179737811146
 20
409.169098059846
 30
0.0
 41
1.0
 10
246.3232272765356
 20
409.006475945606
 30
0.0
 41
1.0
 10
246.3996158831846
 20
408.831559363436
 30
0.0
 41
1.0
 10
246.4468505398746
 20
408.648834299526
 30
0.0
 41
1.0
 10
246.4578767590796
 20
408.5241554225261
 30
0.0
 41
1.0
 10
246.4578767590796
 20
408.461984219176
 30
0.0
 41
1.0
  0
SPLINE
  5
113
330
8B
100
AcDbEntity
  8
$DDT_AUDIT_GENERATED_(C8)
  6
Continuous
 62
     7
100
AcDbSpline
210
0.0
220
0.0
230
1.0
 70
    12
 71
     3
 72
    26
 73
    22
 74
     0
 42
0.0000000042199249
 43
0.0000000001
 40
0.0
 40
0.0
 40
0.0
 40
0.0
 40
0.02906544094837
 40
0.05847430942551
 40
0.08788887864529
 40
0.1174528526577
 40
0.1780490630129
 40
0.2397064718996
 40
0.3027279732585
 40
0.3672734107976
 40
0.433877881113
 40
0.5013291650696
 40
0.6353179183413
 40
0.7003389623019
 40
0.7638591923465
 40
0.8257102610527
 40
0.8857397678726
 40
0.9146865524281
 40
0.9433450061024
 40
0.9718906874883
 40
1.0
 40
1.0
 40
1.0
 40
1.0
 10
245.1545031108796
 20
409.246325606976
 30
0.0
 41
1.0
 10
245.1317007740398
 20
409.246367509456
 30
0.0
 41
1.0
 10
245.0857902181738
 20
409.243751733016
 30
0.0
 41
1.0
 10
245.0176273931025
 20
409.232630724576
 30
0.0
 41
1.0
 10
244.9505809399208
 20
409.214442740096
 30
0.0
 41
1.0
 10
244.8628334004556
 20
409.1809362669861
 30
0.0
 41
1.0
 10
244.7583929125561
 20
409.1217584408561
 30
0.0
 41
1.0
 10
244.6489362315827
 20
409.0246342024261
 30
0.0
 41
1.0
 10
244.5584170243262
 20
408.9058421984561
 30
0.0
 41
1.0
 10
244.4901312357243
 20
408.7686889797361
 30
0.0
 41
1.0
 10
244.4475647133458
 20
408.617800527736
 30
0.0
 41
1.0
 10
244.4286711819208
 20
408.407484381896
 30
0.0
 41
1.0
 10
244.4681733947764
 20
408.196232974066
 30
0.0
 41
1.0
 10
244.562373706319
 20
408.0119268228161
 30
0.0
 41
1.0
 10
244.6551187493438
 20
407.893625890556
 30
0.0
 41
1.0
 10
244.7655747364206
 20
407.797621447616
 30
0.0
 41
1.0
 10
244.8695197644032
 20
407.7391566638561
 30
0.0
 41
1.0
 10
244.9561496949223
 20
407.706959643546
 30
0.0
 41
1.0
 10
245.0216964551795
 20
407.689967367356
 30
0.0
 41
1.0
 10
245.0879725257134
 20
407.6799030590061
 30
0.0
 41
1.0
 10
245.1324508686687
 20
407.677604849606
 30
0.0
 41
1.0
 10
245.1545031108796
 20
407.677642831276
 30
0.0
 41
1.0
  0
SPLINE
  5
114
330
8B
100
AcDbEntity
  8
$DDT_AUDIT_GENERATED_(C8)
  6
Continuous
 62
     7
100
AcDbSpline
210
0.0
220
0.0
230
1.0
 70
    12
 71
     3
 72
    23
 73
    19
 74
     0
 42
0.0000000042215195
 43
0.0000000001
 40
0.0
 40
0.0
 40
0.0
 40
0.0
 40
0.05828333461404
 40
0.116014735776
 40
0.1755137265069
 40
0.2365422127541
 40
0.2992319004253
 40
0.3635864113415
 40
0.4304304571371
 40
0.4982221645981
 40
0.5659376818377
 40
0.6329330835093
 40
0.698105501159
 40
0.7616776194967
 40
0.8235241378759001
 40
0.8839406782002
 40
0.9420350699009
 40
1.0
 40
1.0
 40
1.0
 40
1.0
 10
245.1545031108796
 20
407.677642831276
 30
0.0
 41
1.0
 10
245.2002400981733
 20
407.677721726586
 30
0.0
 41
1.0
 10
245.2915720026937
 20
407.6871306797261
 30
0.0
 41
1.0
 10
245.4235336664403
 20
407.729749448036
 30
0.0
 41
1.0
 10
245.5459169685547
 20
407.7995305877861
 30
0.0
 41
1.0
 10
245.6548069088226
 20
407.894779349326
 30
0.0
 41
1.0
 10
245.7463419754018
 20
408.011657182516
 30
0.0
 41
1.0
 10
245.8161937150476
 20
408.1478792612861
 30
0.0
 41
1.0
 10
245.8599964207416
 20
408.2987310547761
 30
0.0
 41
1.0
 10
245.875656838627
 20
408.457655535856
 30
0.0
 41
1.0
 10
245.8616786923768
 20
408.616880712236
 30
0.0
 41
1.0
 10
245.8189253499238
 20
408.768758749706
 30
0.0
 41
1.0
 10
245.7499529263093
 20
408.907039330056
 30
0.0
 41
1.0
 10
245.65843796137
 20
409.026492433876
 30
0.0
 41
1.0
 10
245.5481843981632
 20
409.123497835736
 30
0.0
 41
1.0
 10
245.4238417767494
 20
409.193214974616
 30
0.0
 41
1.0
 10
245.2913188331589
 20
409.2362114854761
 30
0.0
 41
1.0
 10
245.199990225606
 20
409.246241913906
 30
0.0
 41
1.0
 10
245.1545031108796
 20
409.246325606976
 30
0.0
 41
1.0
  0
LINE
  5
115
330
8B
100
AcDbEntity
  8
$DDT_AUDIT_GENERATED_(C8)
  6
Continuous
 62
     7
100
AcDbLine
 10
243.1499208215
 20
407.3171419007
 30
0.0
 11
242.374858813
 21
408.4377339129
 31
0.0
  0
LINE
  5
116
330
8B
100
AcDbEntity
  8
$DDT_AUDIT_GENERATED_(C8)
  6
Continuous
 62
     7
100
AcDbLine
 10
242.374858813
 20
408.4377339129
 30
0.0
 11
242.6102192545
 21
408.4377339902
 31
0.0
  0
SPLINE
  5
117
330
8B
100
AcDbEntity
  8
$DDT_AUDIT_GENERATED_(C8)
  6
Continuous
 62
     7
100
AcDbSpline
210
0.0
220
0.0
230
1.0
 70
    12
 71
     3
 72
    14
 73
    10
 74
     0
 42
0.0000000086205342
 43
0.0000000001
 40
0.0
 40
0.0
 40
0.0
 40
0.0
 40
0.1441497741307
 40
0.28656689188
 40
0.4284431978017
 40
0.5705263854875999
 40
0.7127792103991
 40
0.8557148134282999
 40
1.0
 40
1.0
 40
1.0
 40
1.0
 10
242.6102192545406
 20
408.4377339901561
 30
0.0
 41
1.0
 10
242.6641321263206
 20
408.435734423956
 30
0.0
 41
1.0
 10
242.7738882232126
 20
408.4572290015261
 30
0.0
 41
1.0
 10
242.9052376554716
 20
408.558466921216
 30
0.0
 41
1.0
 10
242.9783834558356
 20
408.706627647286
 30
0.0
 41
1.0
 10
242.9786634954126
 20
408.871791777486
 30
0.0
 41
1.0
 10
242.9057621463686
 20
409.0204946049561
 30
0.0
 41
1.0
 10
242.7741912017916
 20
409.1221731287561
 30
0.0
 41
1.0
 10
242.6641825435666
 20
409.143740239986
 30
0.0
 41
1.0
 10
242.6102190298076
 20
409.141738764996
 30
0.0
 41
1.0
  0
LINE
  5
118
330
8B
100
AcDbEntity
  8
$DDT_AUDIT_GENERATED_(C8)
  6
Continuous
 62
     7
100
AcDbLine
 10
242.6102190298
 20
409.141738765
 30
0.0
 11
242.3114928215
 21
409.1417388822
 31
0.0
  0
LINE
  5
119
330
8B
100
AcDbEntity
  8
$DDT_AUDIT_GENERATED_(C8)
  6
Continuous
 62
     7
100
AcDbLine
 10
242.3114928215
 20
409.1417388822
 30
0.0
 11
242.3114928215
 21
407.3209039007
 31
0.0
  0
LINE
  5
11A
330
8B
100
AcDbEntity
  8
$DDT_AUDIT_GENERATED_(C8)
  6
Continuous
 62
     7
100
AcDbLine
 10
242.3114928215
 20
407.3209039007
 30
0.0
 11
241.7656978215
 21
407.3209039007
 31
0.0
  0
LINE
  5
11B
330
8B
100
AcDbEntity
  8
$DDT_AUDIT_GENERATED_(C8)
  6
Continuous
 62
     7
100
AcDbLine
 10
241.7656978215
 20
407.3209039007
 30
0.0
 11
241.7656978215
 21
409.5932369268
 31
0.0
  0
LINE
  5
11C
330
8B
100
AcDbEntity
  8
$DDT_AUDIT_GENERATED_(C8)
  6
Continuous
 62
     7
100
AcDbLine
 10
241.7656978215
 20
409.5932369268
 30
0.0
 11
242.762820677
 21
409.5932367634
 31
0.0
  0
ARC
  5
11D
330
8B
100
AcDbEntity
  8
$DDT_AUDIT_GENERATED_(C8)
  6
Continuous
 62
     7
100
AcDbCircle
 10
242.8325725771
 20
408.8638753803
 30
0.0
 40
0.7326891255110358
100
AcDbArc
 50
297.9684994081
 51
95.4628229144
  0
LINE
  5
11E
330
8B
100
AcDbEntity
  8
$DDT_AUDIT_GENERATED_(C8)
  6
Continuous
 62
     7
100
AcDbLine
 10
243.1761934055
 20
408.2167605566
 30
0.0
 11
243.8573508215
 21
407.3209039007
 31
0.0
  0
LINE
  5
11F
330
8B
100
AcDbEntity
  8
$DDT_AUDIT_GENERATED_(C8)
  6
Continuous
 62
     7
100
AcDbLine
 10
243.8573508215
 20
407.3209039007
 30
0.0
 11
243.1499208215
 21
407.3171419007
 31
0.0
  0
ARC
  5
120
330
8B
100
AcDbEntity
  8
$DDT_AUDIT_GENERATED_(C8)
  6
Continuous
 62
     7
100
AcDbCircle
 10
240.2611457984
 20
408.4533107801
 30
0.0
 40
1.178406714776003
100
AcDbArc
 50
174.0608249475
 51
274.8619003483
  0
ARC
  5
121
330
8B
100
AcDbEntity
  8
$DDT_AUDIT_GENERATED_(C8)
  6
Continuous
 62
     7
100
AcDbCircle
 10
240.1666568732
 20
408.5185522137
 30
0.0
 40
1.07908267562085
100
AcDbArc
 50
114.0600648386
 51
176.9884845586
  0
ARC
  5
122
330
8B
100
AcDbEntity
  8
$DDT_AUDIT_GENERATED_(C8)
  6
Continuous
 62
     7
100
AcDbCircle
 10
240.3613727828
 20
407.8054325069
 30
0.0
 40
1.813157825238431
100
AcDbArc
 50
61.3569823457
 51
110.4889761735
  0
LINE
  5
123
330
8B
100
AcDbEntity
  8
$DDT_AUDIT_GENERATED_(C8)
  6
Continuous
 62
     7
100
AcDbLine
 10
241.230512451
 20
409.3967035924
 30
0.0
 11
241.230513705
 21
408.9737755451
 31
0.0
  0
ARC
  5
124
330
8B
100
AcDbEntity
  8
$DDT_AUDIT_GENERATED_(C8)
  6
Continuous
 62
     7
100
AcDbCircle
 10
240.3532680694
 20
407.6024492244
 30
0.0
 40
1.6279114788922
100
AcDbArc
 50
57.3927098722
 51
84.707328023
  0
ARC
  5
125
330
8B
100
AcDbEntity
  8
$DDT_AUDIT_GENERATED_(C8)
  6
Continuous
 62
     7
100
AcDbCircle
 10
240.4123497989
 20
408.5255528385
 30
0.0
 40
0.7037856686660955
100
AcDbArc
 50
82.5640763748
 51
146.8054740692
  0
ARC
  5
126
330
8B
100
AcDbEntity
  8
$DDT_AUDIT_GENERATED_(C8)
  6
Continuous
 62
     7
100
AcDbCircle
 10
240.4359961323
 20
408.4354445089
 30
0.0
 40
0.7754228124058177
100
AcDbArc
 50
142.1854516306
 51
207.4016584303
  0
SPLINE
  5
127
330
8B
100
AcDbEntity
  8
$DDT_AUDIT_GENERATED_(C8)
  6
Continuous
 62
     7
100
AcDbSpline
210
0.0
220
0.0
230
1.0
 70
    12
 71
     3
 72
    15
 73
    11
 74
     0
 42
0.0000000082837196
 43
0.0000000001
 40
0.0
 40
0.0
 40
0.0
 40
0.0
 40
0.2004736638287
 40
0.3003846175841
 40
0.4003048048555
 40
0.501042884065
 40
0.6017222685383999
 40
0.7014540510042
 40
0.8010060579379
 40
1.0
 40
1.0
 40
1.0
 40
1.0
 10
239.7475746109636
 20
408.0785754053961
 30
0.0
 41
1.0
 10
239.7781622452256
 20
408.004758167116
 30
0.0
 41
1.0
 10
239.8458585439106
 20
407.901552018496
 30
0.0
 41
1.0
 10
239.9674321786006
 20
407.7972461904461
 30
0.0
 41
1.0
 10
240.0717820224986
 20
407.736901754296
 30
0.0
 41
1.0
 10
240.1857889600506
 20
407.6969546042461
 30
0.0
 41
1.0
 10
240.3051640154536
 20
407.678939802496
 30
0.0
 41
1.0
 10
240.4253762500356
 20
407.683421189696
 30
0.0
 41
1.0
 10
240.5808526051676
 20
407.7184456937561
 30
0.0
 41
1.0
 10
240.6884009106466
 20
407.777335513846
 30
0.0
 41
1.0
 10
240.7497097757626
 20
407.8276532487461
 30
0.0
 41
1.0
  0
LINE
  5
128
330
8B
100
AcDbEntity
  8
$DDT_AUDIT_GENERATED_(C8)
  6
Continuous
 62
     7
100
AcDbLine
 10
240.7497097758
 20
407.8276532487
 30
0.0
 11
240.7497098064
 21
408.4726199007
 31
0.0
  0
LINE
  5
129
330
8B
100
AcDbEntity
  8
$DDT_AUDIT_GENERATED_(C8)
  6
Continuous
 62
     7
100
AcDbLine
 10
240.7497098064
 20
408.4726199007
 30
0.0
 11
241.2924317973
 21
408.4726199007
 31
0.0
  0
LINE
  5
12A
330
8B
100
AcDbEntity
  8
$DDT_AUDIT_GENERATED_(C8)
  6
Continuous
 62
     7
100
AcDbLine
 10
241.2924317973
 20
408.4726199007
 30
0.0
 11
241.2924315791
 21
407.5748214368
 31
0.0
  0
ARC
  5
12B
330
8B
100
AcDbEntity
  8
$DDT_AUDIT_GENERATED_(C8)
  6
Continuous
 62
     7
100
AcDbCircle
 10
240.3760498255
 20
408.8465948534
 30
0.0
 40
1.567534095831421
100
AcDbArc
 50
269.4506579327
 51
305.7747963922
  0
SPLINE
  5
12C
330
8B
100
AcDbEntity
  8
$DDT_AUDIT_GENERATED_(C8)
  6
Continuous
 62
     7
100
AcDbSpline
210
0.0
220
0.0
230
1.0
 70
    12
 71
     3
 72
    31
 73
    27
 74
     0
 42
0.0000000017805411
 43
0.0000000001
 40
0.0
 40
0.0
 40
0.0
 40
0.0
 40
0.0365010575467
 40
0.07309592651219
 40
0.1097216640354
 40
0.1462378992876
 40
0.1828872642207
 40
0.2209298636192
 40
0.26168250696
 40
0.3063508929607
 40
0.3561569492817
 40
0.4114054553943
 40
0.4721649773883
 40
0.5385889659765
 40
0.6128705180301001
 40
0.6538462320123001
 40
0.6975454836919
 40
0.7443451804019
 40
0.7934311628945
 40
0.844499106293
 40
0.8705268616610999
 40
0.8964072324478001
 40
0.9221375613058
 40
0.9479281124952
 40
0.9738017584063
 40
1.0
 40
1.0
 40
1.0
 40
1.0
 10
250.5928317949406
 20
406.034880817526
 30
0.0
 41
1.0
 10
250.5246247369166
 20
406.032402980636
 30
0.0
 41
1.0
 10
250.3879876239486
 20
406.028495291216
 30
0.0
 41
1.0
 10
250.1827578118676
 20
406.029759016716
 30
0.0
 41
1.0
 10
249.9778169441806
 20
406.042266188556
 30
0.0
 41
1.0
 10
249.7740880584196
 20
406.069559222136
 30
0.0
 41
1.0
 10
249.5712301678606
 20
406.116657673096
 30
0.0
 41
1.0
 10
249.3656533819036
 20
406.183069569066
 30
0.0
 41
1.0
 10
249.1500182114096
 20
406.265638544906
 30
0.0
 41
1.0
 10
248.9157601088696
 20
406.360812466376
 30
0.0
 41
1.0
 10
248.6525729070606
 20
406.4566477304861
 30
0.0
 41
1.0
 10
248.3543856577276
 20
406.5427681829861
 30
0.0
 41
1.0
 10
248.0187002789076
 20
406.606950632706
 30
0.0
 41
1.0
 10
247.6407460007366
 20
406.627198766436
 30
0.0
 41
1.0
 10
247.3022035778296
 20
406.5808970661261
 30
0.0
 41
1.0
 10
247.0139428811656
 20
406.507906780046
 30
0.0
 41
1.0
 10
246.7801515512586
 20
406.431300342416
 30
0.0
 41
1.0
 10
246.5363225099606
 20
406.338111977946
 30
0.0
 41
1.0
 10
246.2804399461016
 20
406.238005932396
 30
0.0
 41
1.0
 10
246.0580591146358
 20
406.158800040906
 30
0.0
 41
1.0
 10
245.8734411309375
 20
406.103901663826
 30
0.0
 41
1.0
 10
245.7324477971719
 20
406.069055732036
 30
0.0
 41
1.0
 10
245.5900999112636
 20
406.042352032296
 30
0.0
 41
1.0
 10
245.4462344466539
 20
406.0256314836161
 30
0.0
 41
1.0
 10
245.3008117049505
 20
406.0176266165361
 30
0.0
 41
1.0
 10
245.2034745836928
 20
406.0151721294061
 30
0.0
 41
1.0
 10
245.1545031108796
 20
406.013931877076
 30
0.0
 41
1.0
  0
SPLINE
  5
12D
330
8B
100
AcDbEntity
  8
$DDT_AUDIT_GENERATED_(C8)
  6
Continuous
 62
     7
100
AcDbSpline
210
0.0
220
0.0
230
1.0
 70
    12
 71
     3
 72
    30
 73
    26
 74
     0
 42
0.0000000017806447
 43
0.0000000001
 40
0.0
 40
0.0
 40
0.0
 40
0.0
 40
0.02391323331367
 40
0.04886686555037
 40
0.07471206079705
 40
0.1015004378651
 40
0.1295117290678
 40
0.158720586044
 40
0.2187336173881
 40
0.2800362206648
 40
0.3420310376694
 40
0.3728696819161
 40
0.4037591193528
 40
0.4657799920927
 40
0.5287051529482
 40
0.5936745084424
 40
0.6624528926212
 40
0.7321923259931999
 40
0.7660825121577
 40
0.7997130190480001
 40
0.8331132201871
 40
0.866390058178
 40
0.8996805120019999
 40
0.9329929023229999
 40
1.0
 40
1.0
 40
1.0
 40
1.0
 10
245.1545031108796
 20
406.013931877076
 30
0.0
 41
1.0
 10
245.1098019840416
 20
406.015065435366
 30
0.0
 41
1.0
 10
245.018454092075
 20
406.0173630370161
 30
0.0
 41
1.0
 10
244.8788930106675
 20
406.0244522237761
 30
0.0
 41
1.0
 10
244.7345270692965
 20
406.039929239286
 30
0.0
 41
1.0
 10
244.5860224789066
 20
406.066815406366
 30
0.0
 41
1.0
 10
244.4333762026141
 20
406.104244892156
 30
0.0
 41
1.0
 10
244.2233636442394
 20
406.167369812756
 30
0.0
 41
1.0
 10
243.9588996965486
 20
406.264207008556
 30
0.0
 41
1.0
 10
243.6404065652456
 20
406.3907195248161
 30
0.0
 41
1.0
 10
243.3682548871316
 20
406.486512425926
 30
0.0
 41
1.0
 10
243.1447117075776
 20
406.546604718556
 30
0.0
 41
1.0
 10
242.9182089371246
 20
406.594309914896
 30
0.0
 41
1.0
 10
242.6272496466716
 20
406.625846400826
 30
0.0
 41
1.0
 10
242.2712873022406
 20
406.604620669296
 30
0.0
 41
1.0
 10
241.9097220181966
 20
406.533231564606
 30
0.0
 41
1.0
 10
241.5453919021726
 20
406.421327618116
 30
0.0
 41
1.0
 10
241.2463657023506
 20
406.3005433432261
 30
0.0
 41
1.0
 10
241.0073356695966
 20
406.207042315836
 30
0.0
 41
1.0
 10
240.8290834305406
 20
406.144868944716
 30
0.0
 41
1.0
 10
240.6483928352036
 20
406.093885570266
 30
0.0
 41
1.0
 10
240.4645646200706
 20
406.058702960036
 30
0.0
 41
1.0
 10
240.2787764650256
 20
406.0381753360961
 30
0.0
 41
1.0
 10
240.0291063934806
 20
406.026156999376
 30
0.0
 41
1.0
 10
239.8413891534656
 20
406.030332018106
 30
0.0
 41
1.0
 10
239.7161747801456
 20
406.0348808223461
 30
0.0
 41
1.0
  0
LINE
  5
12E
330
8B
100
AcDbEntity
  8
$DDT_AUDIT_GENERATED_(C8)
  6
Continuous
 62
     7
100
AcDbLine
 10
239.7161747801
 20
406.0348808223
 30
0.0
 11
239.5732208622
 21
406.298442696
 31
0.0
  0
SPLINE
  5
12F
330
8B
100
AcDbEntity
  8
$DDT_AUDIT_GENERATED_(C8)
  6
Continuous
 62
     7
100
AcDbSpline
210
0.0
220
0.0
230
1.0
 70
    12
 71
     3
 72
    32
 73
    28
 74
     0
 42
0.0000000017367092
 43
0.0000000001
 40
0.0
 40
0.0
 40
0.0
 40
0.0
 40
0.0367911091921
 40
0.07365656696402
 40
0.1105581889214
 40
0.1473580562091
 40
0.1843107195731
 40
0.2227681905412
 40
0.2640587588859
 40
0.309220374704
 40
0.3594346165306
 40
0.4150437897768
 40
0.4762078772381
 40
0.5088807420338
 40
0.5432284713191
 40
0.5795964250537999
 40
0.6182612173421
 40
0.7035220170229001
 40
0.7505061387626
 40
0.7995192821815
 40
0.8501076092100001
 40
0.8757284099244
 40
0.9010099967931
 40
0.9259342804596
 40
0.9507427517668
 40
0.9754859231879001
 40
1.0
 40
1.0
 40
1.0
 40
1.0
 10
239.5732208621646
 20
406.298442696006
 30
0.0
 41
1.0
 10
239.6437116930446
 20
406.2954756939761
 30
0.0
 41
1.0
 10
239.7848373593946
 20
406.289545514066
 30
0.0
 41
1.0
 10
239.9968527668846
 20
406.285462797906
 30
0.0
 41
1.0
 10
240.2089144679626
 20
406.2911652279361
 30
0.0
 41
1.0
 10
240.4203871613216
 20
406.311578507196
 30
0.0
 41
1.0
 10
240.6318294308096
 20
406.3538502110661
 30
0.0
 41
1.0
 10
240.8455763969366
 20
406.421135421456
 30
0.0
 41
1.0
 10
241.0692446833546
 20
406.506969760116
 30
0.0
 41
1.0
 10
241.3119870746366
 20
406.6057831383361
 30
0.0
 41
1.0
 10
241.5844477598306
 20
406.704186601296
 30
0.0
 41
1.0
 10
241.8924584801426
 20
406.7928474536661
 30
0.0
 41
1.0
 10
242.1744871556536
 20
406.847086133876
 30
0.0
 41
1.0
 10
242.4192449564596
 20
406.871548896406
 30
0.0
 41
1.0
 10
242.6176566472776
 20
406.8769546316561
 30
0.0
 41
1.0
 10
242.8273084598586
 20
406.864272429816
 30
0.0
 41
1.0
 10
243.1317640215796
 20
406.819713435456
 30
0.0
 41
1.0
 10
243.4493092557106
 20
406.733512145516
 30
0.0
 41
1.0
 10
243.7755904339726
 20
406.6136647601061
 30
0.0
 41
1.0
 10
244.0371839005416
 20
406.510774686436
 30
0.0
 41
1.0
 10
244.2623429404873
 20
406.427074022556
 30
0.0
 41
1.0
 10
244.4478683940569
 20
406.3680795611961
 30
0.0
 41
1.0
 10
244.5883925314988
 20
406.330458957176
 30
0.0
 41
1.0
 10
244.7293958506574
 20
406.3014081822161
 30
0.0
 41
1.0
 10
244.8712127869664
 20
406.283305196106
 30
0.0
 41
1.0
 10
245.0130811767215
 20
406.275232402476
 30
0.0
 41
1.0
 10
245.1075081980729
 20
406.2728168133261
 30
0.0
 41
1.0
 10
245.1545031108796
 20
406.2716284612761
 30
0.0
 41
1.0
  0
SPLINE
  5
130
330
8B
100
AcDbEntity
  8
$DDT_AUDIT_GENERATED_(C8)
  6
Continuous
 62
     7
100
AcDbSpline
210
0.0
220
0.0
230
1.0
 70
    12
 71
     3
 72
    32
 73
    28
 74
     0
 42
0.0000000017365453
 43
0.0000000001
 40
0.0
 40
0.0
 40
0.0
 40
0.0
 40
0.02338656258243
 40
0.04726711025704
 40
0.07187929629479
 40
0.09729475020899
 40
0.1236695077101
 40
0.1510118572253
 40
0.2076005423612
 40
0.266436903199
 40
0.3271343353199
 40
0.3580172131995
 40
0.389332297865
 40
0.4528759175607
 40
0.5182601558226
 40
0.5858767335717
 40
0.6208706240759
 40
0.6568448226250001
 40
0.6930532658606999
 40
0.7286020021828
 40
0.7633099257459
 40
0.7975923213355
 40
0.8314668435007
 40
0.8651100584614999
 40
0.898754559413
 40
0.9324377769437
 40
1.0
 40
1.0
 40
1.0
 40
1.0
 10
245.1545031108796
 20
406.2716284612761
 30
0.0
 41
1.0
 10
245.1993356163138
 20
406.272762133016
 30
0.0
 41
1.0
 10
245.2899463856968
 20
406.275077623936
 30
0.0
 41
1.0
 10
245.4276325064741
 20
406.2825441785361
 30
0.0
 41
1.0
 10
245.5684837170193
 20
406.2995140043561
 30
0.0
 41
1.0
 10
245.7122517425057
 20
406.3283818496261
 30
0.0
 41
1.0
 10
245.8589954667736
 20
406.367308934806
 30
0.0
 41
1.0
 10
246.0605965295973
 20
406.431561050616
 30
0.0
 41
1.0
 10
246.3168853500256
 20
406.528129670356
 30
0.0
 41
1.0
 10
246.6310123922106
 20
406.652071539766
 30
0.0
 41
1.0
 10
246.9044877841376
 20
406.7447896949761
 30
0.0
 41
1.0
 10
247.1327609305476
 20
406.803847479896
 30
0.0
 41
1.0
 10
247.3691874698936
 20
406.851594203016
 30
0.0
 41
1.0
 10
247.6760285424316
 20
406.883628677006
 30
0.0
 41
1.0
 10
248.0537386116366
 20
406.862274369356
 30
0.0
 41
1.0
 10
248.3710317889106
 20
406.802368469426
 30
0.0
 41
1.0
 10
248.6275241693706
 20
406.7325135149661
 30
0.0
 41
1.0
 10
248.8231099368246
 20
406.669121435946
 30
0.0
 41
1.0
 10
249.0168253528796
 20
406.597203045476
 30
0.0
 41
1.0
 10
249.2061753569556
 20
406.520857601946
 30
0.0
 41
1.0
 10
249.3927925731356
 20
406.4475956064661
 30
0.0
 41
1.0
 10
249.5792819550136
 20
406.383023463466
 30
0.0
 41
1.0
 10
249.7682993099326
 20
406.3330420095861
 30
0.0
 41
1.0
 10
249.9603000753986
 20
406.303245070406
 30
0.0
 41
1.0
 10
250.1535307596236
 20
406.2888777186361
 30
0.0
 41
1.0
 10
250.4122747229936
 20
406.284842398136
 30
0.0
 41
1.0
 10
250.6063407724556
 20
406.292994278196
 30
0.0
 41
1.0
 10
250.7357856862826
 20
406.298442693516
 30
0.0
 41
1.0
  0
LINE
  5
131
330
8B
100
AcDbEntity
  8
$DDT_AUDIT_GENERATED_(C8)
  6
Continuous
 62
     7
100
AcDbLine
 10
250.7357856863
 20
406.2984426935
 30
0.0
 11
250.5928317949
 21
406.0348808175
 31
0.0
  0
SPLINE
  5
132
330
8B
100
AcDbEntity
  8
$DDT_AUDIT_GENERATED_(C8)
  6
Continuous
 62
     7
100
AcDbSpline
210
0.0
220
0.0
230
1.0
 70
    12
 71
     3
 72
    27
 73
    23
 74
     0
 42
0.0000000021419537
 43
0.0000000001
 40
0.0
 40
0.0
 40
0.0
 40
0.0
 40
0.02611203397677
 40
0.05151534833048
 40
0.07632539953187
 40
0.1005605101287
 40
0.124288763526
 40
0.147552393666
 40
0.1923898991312
 40
0.2347564335744
 40
0.2747422487316
 40
0.3472698256358
 40
0.4132357319017
 40
0.4767930923416
 40
0.5414021995306
 40
0.6066362884856
 40
0.6718025318491
 40
0.7361830252458
 40
0.7997512956348
 40
0.8639278714294
 40
0.9301813609560999
 40
1.0
 40
1.0
 40
1.0
 40
1.0
 10
245.1575342255796
 20
405.136766301176
 30
0.0
 41
1.0
 10
245.1169414942613
 20
405.136187616876
 30
0.0
 41
1.0
 10
245.0368538995272
 20
405.135129525376
 30
0.0
 41
1.0
 10
244.9181714895849
 20
405.1372242263261
 30
0.0
 41
1.0
 10
244.8026556011111
 20
405.1457910202561
 30
0.0
 41
1.0
 10
244.6906063009527
 20
405.162072309836
 30
0.0
 41
1.0
 10
244.5820919326764
 20
405.1844081643861
 30
0.0
 41
1.0
 10
244.4437958855772
 20
405.220056251826
 30
0.0
 41
1.0
 10
244.2801883575235
 20
405.272693292986
 30
0.0
 41
1.0
 10
244.0945948101996
 20
405.340976564626
 30
0.0
 41
1.0
 10
243.8700993590366
 20
405.4280772105261
 30
0.0
 41
1.0
 10
243.6120563045376
 20
405.530108050006
 30
0.0
 41
1.0
 10
243.3152483849406
 20
405.633619015466
 30
0.0
 41
1.0
 10
243.0226856245546
 20
405.7094705491561
 30
0.0
 41
1.0
 10
242.7248266320926
 20
405.755176819386
 30
0.0
 41
1.0
 10
242.4206799007866
 20
405.761872001636
 30
0.0
 41
1.0
 10
242.1191560003956
 20
405.723340268206
 30
0.0
 41
1.0
 10
241.8286952255286
 20
405.645189425046
 30
0.0
 41
1.0
 10
241.5462146891206
 20
405.548044985506
 30
0.0
 41
1.0
 10
241.2617209468676
 20
405.447883023736
 30
0.0
 41
1.0
 10
240.9671460479706
 20
405.3471128750861
 30
0.0
 41
1.0
 10
240.7667831347366
 20
405.2792197216161
 30
0.0
 41
1.0
 10
240.6639446498046
 20
405.244478072016
 30
0.0
 41
1.0
  0
LINE
  5
133
330
8B
100
AcDbEntity
  8
$DDT_AUDIT_GENERATED_(C8)
  6
Continuous
 62
     7
100
AcDbLine
 10
240.6639446498
 20
405.244478072
 30
0.0
 11
240.4123357499
 21
405.4314429585
 31
0.0
  0
SPLINE
  5
134
330
8B
100
AcDbEntity
  8
$DDT_AUDIT_GENERATED_(C8)
  6
Continuous
 62
     7
100
AcDbSpline
210
0.0
220
0.0
230
1.0
 70
    12
 71
     3
 72
    27
 73
    23
 74
     0
 42
0.0000000020274242
 43
0.0000000001
 40
0.0
 40
0.0
 40
0.0
 40
0.0
 40
0.09271950431504
 40
0.1375248128506
 40
0.1813134758608
 40
0.2239912016395
 40
0.2655628863902
 40
0.3461530551772
 40
0.4247535187032
 40
0.5020336474329
 40
0.5786503653102
 40
0.6563528374993001
 40
0.7360442896059
 40
0.7769595517269
 40
0.8190190652284
 40
0.8624235471139
 40
0.8846103052238
 40
0.9071307357385999
 40
0.9299802435737
 40
0.9531024745555
 40
0.9764071942042
 40
1.0
 40
1.0
 40
1.0
 40
1.0
 10
240.4123357498816
 20
405.431442958546
 30
0.0
 41
1.0
 10
240.5565923363006
 20
405.480115702696
 30
0.0
 41
1.0
 10
240.7705631798736
 20
405.552296238316
 30
0.0
 41
1.0
 10
241.0522952512086
 20
405.648547443206
 30
0.0
 41
1.0
 10
241.2560620405746
 20
405.7188316578161
 30
0.0
 41
1.0
 10
241.4543634821866
 20
405.788706918146
 30
0.0
 41
1.0
 10
241.7101655248816
 20
405.877015894516
 30
0.0
 41
1.0
 10
242.0269832548586
 20
405.9706108897561
 30
0.0
 41
1.0
 10
242.4136777393006
 20
406.022754524416
 30
0.0
 41
1.0
 10
242.7968035327636
 20
406.009397126436
 30
0.0
 41
1.0
 10
243.1721518880586
 20
405.942316724466
 30
0.0
 41
1.0
 10
243.5409376439936
 20
405.832258796366
 30
0.0
 41
1.0
 10
243.8448833898596
 20
405.715149317666
 30
0.0
 41
1.0
 10
244.0934445311706
 20
405.617400711516
 30
0.0
 41
1.0
 10
244.2874520083295
 20
405.543750687516
 30
0.0
 41
1.0
 10
244.4546337240219
 20
405.4860525014361
 30
0.0
 41
1.0
 10
244.5938854619252
 20
405.4466093094761
 30
0.0
 41
1.0
 10
244.702067851644
 20
405.421829875386
 30
0.0
 41
1.0
 10
244.8131697878138
 20
405.403692719266
 30
0.0
 41
1.0
 10
244.9266764139084
 20
405.394619077966
 30
0.0
 41
1.0
 10
245.0416737090967
 20
405.392768129416
 30
0.0
 41
1.0
 10
245.1186734535459
 20
405.3938522270161
 30
0.0
 41
1.0
 10
245.1574091740796
 20
405.394404829476
 30
0.0
 41
1.0
  0
SPLINE
  5
135
330
8B
100
AcDbEntity
  8
$DDT_AUDIT_GENERATED_(C8)
  6
Continuous
 62
     7
100
AcDbSpline
210
0.0
220
0.0
230
1.0
 70
    12
 71
     3
 72
    30
 73
    26
 74
     0
 42
0.0000000020301166
 43
0.0000000001
 40
0.0
 40
0.0
 40
0.0
 40
0.0
 40
0.0361095087126
 40
0.05383287818757
 40
0.07131758281618
 40
0.08853832189754
 40
0.105496590861
 40
0.1386636658343
 40
0.1709160584715
 40
0.2023177056487
 40
0.2328726874408
 40
0.2625660021845
 40
0.3194378949042
 40
0.3730167701707
 40
0.4233652538642
 40
0.4706874655245
 40
0.5570138952863
 40
0.6356902449724999
 40
0.7095809055212
 40
0.7459023336089999
 40
0.7820959752450001
 40
0.8184290479748
 40
0.8547711006288
 40
0.9274696457789999
 40
1.0
 40
1.0
 40
1.0
 40
1.0
 10
245.1574091740796
 20
405.394404829476
 30
0.0
 41
1.0
 10
245.2166283978408
 20
405.393616256876
 30
0.0
 41
1.0
 10
245.3049490164912
 20
405.3924561912261
 30
0.0
 41
1.0
 10
245.4218627404817
 20
405.397351554866
 30
0.0
 41
1.0
 10
245.5074878762737
 20
405.405838421286
 30
0.0
 41
1.0
 10
245.5911969665142
 20
405.4192683392261
 30
0.0
 41
1.0
 10
245.6992934953385
 20
405.442151701396
 30
0.0
 41
1.0
 10
245.8295905405836
 20
405.478367072346
 30
0.0
 41
1.0
 10
245.9800597608621
 20
405.529230695836
 30
0.0
 41
1.0
 10
246.124992085445
 20
405.582828762196
 30
0.0
 41
1.0
 10
246.2652178870226
 20
405.6369856090261
 30
0.0
 41
1.0
 10
246.4440226574306
 20
405.707183961766
 30
0.0
 41
1.0
 10
246.6584450468246
 20
405.790031899316
 30
0.0
 41
1.0
 10
246.9081040752716
 20
405.875412248206
 30
0.0
 41
1.0
 10
247.1477328218936
 20
405.940412878226
 30
0.0
 41
1.0
 10
247.4440302285776
 20
405.998640713856
 30
0.0
 41
1.0
 10
247.7928802432066
 20
406.0266953154861
 30
0.0
 41
1.0
 10
248.1849066685796
 20
405.9894820405661
 30
0.0
 41
1.0
 10
248.4855980227896
 20
405.9116649390061
 30
0.0
 41
1.0
 10
248.7139802126846
 20
405.837554064096
 30
0.0
 41
1.0
 10
248.8825652011606
 20
405.778771605066
 30
0.0
 41
1.0
 10
249.0510276554836
 20
405.719587827806
 30
0.0
 41
1.0
 10
249.2763849114396
 20
405.6417091091461
 30
0.0
 41
1.0
 10
249.5582566989946
 20
405.545616086466
 30
0.0
 41
1.0
 10
249.7839541869196
 20
405.469473951376
 30
0.0
 41
1.0
 10
249.8966707349026
 20
405.4314428849161
 30
0.0
 41
1.0
  0
LINE
  5
136
330
8B
100
AcDbEntity
  8
$DDT_AUDIT_GENERATED_(C8)
  6
Continuous
 62
     7
100
AcDbLine
 10
249.8966707349
 20
405.4314428849
 30
0.0
 11
249.6450618583
 21
405.2444780586
 31
0.0
  0
SPLINE
  5
137
330
8B
100
AcDbEntity
  8
$DDT_AUDIT_GENERATED_(C8)
  6
Continuous
 62
     7
100
AcDbSpline
210
0.0
220
0.0
230
1.0
 70
    12
 71
     3
 72
    24
 73
    20
 74
     0
 42
0.0000000021440826
 43
0.0000000001
 40
0.0
 40
0.0
 40
0.0
 40
0.0
 40
0.06748659014319
 40
0.1349802595558
 40
0.2024806371758
 40
0.2699687322386
 40
0.3383207373243
 40
0.4099734414096
 40
0.4869001450362
 40
0.5280175580914
 40
0.5711901099915
 40
0.6167183240332
 40
0.6644417740704001
 40
0.7141514984448
 40
0.7660622297169
 40
0.8202973869312
 40
0.8770059136957
 40
0.9368631301901
 40
1.0
 40
1.0
 40
1.0
 40
1.0
 10
249.6450618583346
 20
405.244478058606
 30
0.0
 41
1.0
 10
249.5457965544016
 20
405.2780126347561
 30
0.0
 41
1.0
 10
249.3473179267006
 20
405.345267411636
 30
0.0
 41
1.0
 10
249.0498495277686
 20
405.4469511816461
 30
0.0
 41
1.0
 10
248.7533642746986
 20
405.551443880226
 30
0.0
 41
1.0
 10
248.4546664801006
 20
405.6537435612561
 30
0.0
 41
1.0
 10
248.1418519285626
 20
405.733852928676
 30
0.0
 41
1.0
 10
247.8050723722806
 20
405.766782895506
 30
0.0
 41
1.0
 10
247.5099719975456
 20
405.745919070156
 30
0.0
 41
1.0
 10
247.2634753088196
 20
405.701720369906
 30
0.0
 41
1.0
 10
247.0677195799426
 20
405.653107562286
 30
0.0
 41
1.0
 10
246.8655181463426
 20
405.5897114828361
 30
0.0
 41
1.0
 10
246.6569306683506
 20
405.513716396506
 30
0.0
 41
1.0
 10
246.4410175838006
 20
405.429194685346
 30
0.0
 41
1.0
 10
246.2156514741946
 20
405.341097581546
 30
0.0
 41
1.0
 10
245.978156259384
 20
405.254193475646
 30
0.0
 41
1.0
 10
245.7236481082229
 20
405.1786289303661
 30
0.0
 41
1.0
 10
245.4470120269129
 20
405.133393947936
 30
0.0
 41
1.0
 10
245.2555491588317
 20
405.135465275766
 30
0.0
 41
1.0
 10
245.1575342255796
 20
405.136766301176
 30
0.0
 41
1.0
  0
SPLINE
  5
138
330
8B
100
AcDbEntity
  8
$DDT_AUDIT_GENERATED_(C8)
  6
Continuous
 62
     7
100
AcDbSpline
210
0.0
220
0.0
230
1.0
 70
    12
 71
     3
 72
    33
 73
    29
 74
     0
 42
0.0000000027694934
 43
0.0000000001
 40
0.0
 40
0.0
 40
0.0
 40
0.0
 40
0.0685916773496
 40
0.1376722757721
 40
0.206757101036
 40
0.2751074392212
 40
0.3092097919316
 40
0.343712011383
 40
0.3790321872981
 40
0.4154799181407
 40
0.4532774679188
 40
0.4926991315328
 40
0.5339984883485001
 40
0.5773054824195
 40
0.6228878412812
 40
0.6705692073515
 40
0.7203169949282
 40
0.7719966939598
 40
0.7985320049296
 40
0.8255750313622999
 40
0.853109037364
 40
0.8670697500401
 40
0.8811706107071
 40
0.8954144985001999
 40
0.9098108384113
 40
0.9390899567176
 40
0.9690412409461
 40
1.0
 40
1.0
 40
1.0
 40
1.0
 10
248.6422458411256
 20
404.690625057186
 30
0.0
 41
1.0
 10
248.5638721062606
 20
404.716427507016
 30
0.0
 41
1.0
 10
248.4060187840696
 20
404.766616828906
 30
0.0
 41
1.0
 10
248.1657491648736
 20
404.8313995275761
 30
0.0
 41
1.0
 10
247.9218043262136
 20
404.879626953596
 30
0.0
 41
1.0
 10
247.7158287144296
 20
404.8994483755461
 30
0.0
 41
1.0
 10
247.5509155548716
 20
404.8972524078861
 30
0.0
 41
1.0
 10
247.4263958253856
 20
404.883982976026
 30
0.0
 41
1.0
 10
247.3010341875576
 20
404.8581859081261
 30
0.0
 41
1.0
 10
247.1739589158016
 20
404.822982890196
 30
0.0
 41
1.0
 10
247.0439161793186
 20
404.7806439164661
 30
0.0
 41
1.0
 10
246.9094527419196
 20
404.7332466779661
 30
0.0
 41
1.0
 10
246.7687578035376
 20
404.683591774306
 30
0.0
 41
1.0
 10
246.6204043443376
 20
404.6334046277851
 30
0.0
 41
1.0
 10
246.4646484824436
 20
404.581155974126
 30
0.0
 41
1.0
 10
246.3019714977306
 20
404.525174671181
 30
0.0
 41
1.0
 10
246.1336464414051
 20
404.463136010182
 30
0.0
 41
1.0
 10
245.9909040480184
 20
404.405465715384
 30
0.0
 41
1.0
 10
245.8717637142135
 20
404.362518206444
 30
0.0
 41
1.0
 10
245.7786288623345
 20
404.3332974156181
 30
0.0
 41
1.0
 10
245.6985611730145
 20
404.3133292888991
 30
0.0
 41
1.0
 10
245.6328440376501
 20
404.30084766064
 30
0.0
 41
1.0
 10
245.5824912990191
 20
404.293332286637
 30
0.0
 41
1.0
 10
245.5313094144234
 20
404.2882888197771
 30
0.0
 41
1.0
 10
245.4618180006745
 20
404.2832459512761
 30
0.0
 41
1.0
 10
245.373422164921
 20
404.2776817007791
 30
0.0
 41
1.0
 10
245.2650471194671
 20
404.272461690055
 30
0.0
 41
1.0
 10
245.1916915882657
 20
404.2729871770441
 30
0.0
 41
1.0
 10
245.1545031108796
 20
404.2749759787761
 30
0.0
 41
1.0
  0
SPLINE
  5
139
330
8B
100
AcDbEntity
  8
$DDT_AUDIT_GENERATED_(C8)
  6
Continuous
 62
     7
100
AcDbSpline
210
0.0
220
0.0
230
1.0
 70
    12
 71
     3
 72
    33
 73
    29
 74
     0
 42
0.0000000027686275
 43
0.0000000001
 40
0.0
 40
0.0
 40
0.0
 40
0.0
 40
0.0303995008257
 40
0.06057381534196
 40
0.09023572853667
 40
0.09757455013004
 40
0.1048836528049
 40
0.112164546067
 40
0.1194209306507
 40
0.1338678510725
 40
0.1482334398887
 40
0.176716265442
 40
0.2048255791318
 40
0.2324625005695
 40
0.2865670954616
 40
0.3387739311805
 40
0.3887162298496
 40
0.4362006763066
 40
0.480798986611
 40
0.5228203344402
 40
0.5623089703247001
 40
0.5996628661565
 40
0.6693364336529
 40
0.735236545305
 40
0.8010932632822001
 40
0.8675908684336999
 40
0.9340463056949
 40
1.0
 40
1.0
 40
1.0
 40
1.0
 10
245.1545031108796
 20
404.2749759787761
 30
0.0
 41
1.0
 10
245.1179936573729
 20
404.272952256649
 30
0.0
 41
1.0
 10
245.0450465444286
 20
404.27246406277
 30
0.0
 41
1.0
 10
244.9366255706336
 20
404.277623782887
 30
0.0
 41
1.0
 10
244.8559780223726
 20
404.282643561385
 30
0.0
 41
1.0
 10
244.8028205329761
 20
404.2865030034141
 30
0.0
 41
1.0
 10
244.7765232614018
 20
404.288551304048
 30
0.0
 41
1.0
 10
244.7503535758408
 20
404.2909476611101
 30
0.0
 41
1.0
 10
244.7157144037368
 20
404.294919704969
 30
0.0
 41
1.0
 10
244.6727998188902
 20
404.3013977817661
 30
0.0
 41
1.0
 10
244.6051209310647
 20
404.314484184103
 30
0.0
 41
1.0
 10
244.5223261645575
 20
404.3355313663081
 30
0.0
 41
1.0
 10
244.4257838573641
 20
404.3663884593901
 30
0.0
 41
1.0
 10
244.3016910500186
 20
404.411838808171
 30
0.0
 41
1.0
 10
244.1523181186756
 20
404.4722825023831
 30
0.0
 41
1.0
 10
243.9755513514886
 20
404.536234938629
 30
0.0
 41
1.0
 10
243.8052170239696
 20
404.594377065193
 30
0.0
 41
1.0
 10
243.6432153631986
 20
404.648589591457
 30
0.0
 41
1.0
 10
243.4905992877336
 20
404.7008336559661
 30
0.0
 41
1.0
 10
243.3477277010466
 20
404.751773483076
 30
0.0
 41
1.0
 10
243.2125198855356
 20
404.798343380266
 30
0.0
 41
1.0
 10
243.0441699351586
 20
404.8503210095461
 30
0.0
 41
1.0
 10
242.8401895075696
 20
404.896051842056
 30
0.0
 41
1.0
 10
242.5966824085616
 20
404.901433287366
 30
0.0
 41
1.0
 10
242.3593003850326
 20
404.874894135996
 30
0.0
 41
1.0
 10
242.1248119591896
 20
404.826757318096
 30
0.0
 41
1.0
 10
241.8938984481686
 20
404.7637594015561
 30
0.0
 41
1.0
 10
241.7421131890066
 20
404.7154329304361
 30
0.0
 41
1.0
 10
241.6667605822346
 20
404.690625106746
 30
0.0
 41
1.0
  0
LINE
  5
13A
330
8B
100
AcDbEntity
  8
$DDT_AUDIT_GENERATED_(C8)
  6
Continuous
 62
     7
100
AcDbLine
 10
241.6667605822
 20
404.6906251067
 30
0.0
 11
241.3634097748
 21
404.8603840834
 31
0.0
  0
SPLINE
  5
13B
330
8B
100
AcDbEntity
  8
$DDT_AUDIT_GENERATED_(C8)
  6
Continuous
 62
     7
100
AcDbSpline
210
0.0
220
0.0
230
1.0
 70
    12
 71
     3
 72
    29
 73
    25
 74
     0
 42
0.000000002545179
 43
0.0000000001
 40
0.0
 40
0.0
 40
0.0
 40
0.0
 40
0.07301688978455
 40
0.142622078711
 40
0.2096918520426
 40
0.2750261598378
 40
0.3395318272054
 40
0.4038742596528
 40
0.4685017943417
 40
0.5322418036471
 40
0.5635395572817
 40
0.5949779263987
 40
0.6269553989054
 40
0.6599646715038
 40
0.6945601611248999
 40
0.7310249547224
 40
0.7698538725799
 40
0.8110114709665
 40
0.8545704625664999
 40
0.8771762931389
 40
0.900353980463
 40
0.9242168901594999
 40
0.9488209535532001
 40
1.0
 40
1.0
 40
1.0
 40
1.0
 10
241.3634097747876
 20
404.8603840834261
 30
0.0
 41
1.0
 10
241.4538646290496
 20
404.891140442546
 30
0.0
 41
1.0
 10
241.6305519289346
 20
404.951216210306
 30
0.0
 41
1.0
 10
241.8927549978626
 20
405.032282141336
 30
0.0
 41
1.0
 10
242.1491969875086
 20
405.097042339836
 30
0.0
 41
1.0
 10
242.4032268420806
 20
405.141851159536
 30
0.0
 41
1.0
 10
242.6571236578726
 20
405.161149491746
 30
0.0
 41
1.0
 10
242.9109278706686
 20
405.145370335136
 30
0.0
 41
1.0
 10
243.1572992861336
 20
405.087975313426
 30
0.0
 41
1.0
 10
243.3557041861126
 20
405.0223722020461
 30
0.0
 41
1.0
 10
243.5116452672206
 20
404.9669721869961
 30
0.0
 41
1.0
 10
243.6284930463836
 20
404.925672689856
 30
0.0
 41
1.0
 10
243.7478667055426
 20
404.884818155986
 30
0.0
 41
1.0
 10
243.8712768714816
 20
404.843007340556
 30
0.0
 41
1.0
 10
244.0001694478146
 20
404.799078012446
 30
0.0
 41
1.0
 10
244.1359044146046
 20
404.7516295693561
 30
0.0
 41
1.0
 10
244.278918239478
 20
404.699005193016
 30
0.0
 41
1.0
 10
244.429513085597
 20
404.640276996916
 30
0.0
 41
1.0
 10
244.5622557898039
 20
404.594072883101
 30
0.0
 41
1.0
 10
244.675254197371
 20
404.56383768781
 30
0.0
 41
1.0
 10
244.7648256091443
 20
404.5465395491551
 30
0.0
 41
1.0
 10
244.858073731024
 20
404.5361505893981
 30
0.0
 41
1.0
 10
244.9883287070372
 20
404.52928864362
 30
0.0
 41
1.0
 10
245.0875392198921
 20
404.5301696508811
 30
0.0
 41
1.0
 10
245.1545031108796
 20
404.5307588543761
 30
0.0
 41
1.0
  0
SPLINE
  5
13C
330
8B
100
AcDbEntity
  8
$DDT_AUDIT_GENERATED_(C8)
  6
Continuous
 62
     7
100
AcDbSpline
210
0.0
220
0.0
230
1.0
 70
    12
 71
     3
 72
    28
 73
    24
 74
     0
 42
0.0000000025451719
 43
0.0000000001
 40
0.0
 40
0.0
 40
0.0
 40
0.0
 40
0.05091209554449
 40
0.07545902485969
 40
0.0995130449527
 40
0.1232148578983
 40
0.1466522308262
 40
0.1921388867323
 40
0.2352945018348
 40
0.2759117691518
 40
0.3134389425646
 40
0.3486899983088
 40
0.3820352951283
 40
0.4141771511874
 40
0.4772246170056
 40
0.541399141556
 40
0.6061041587816
 40
0.6707577516895
 40
0.7348219430038
 40
0.7984765336999999
 40
0.8629636705363
 40
0.9296670721640999
 40
1.0
 40
1.0
 40
1.0
 40
1.0
 10
245.1545031108796
 20
404.5307588543761
 30
0.0
 41
1.0
 10
245.2211178437109
 20
404.530172723057
 30
0.0
 41
1.0
 10
245.3199032947648
 20
404.5292953692331
 30
0.0
 41
1.0
 10
245.4499874550183
 20
404.536072960324
 30
0.0
 41
1.0
 10
245.5441008127063
 20
404.5464899246061
 30
0.0
 41
1.0
 10
245.6356569808957
 20
404.5642178119471
 30
0.0
 41
1.0
 10
245.7527423029481
 20
404.595830118937
 30
0.0
 41
1.0
 10
245.8911671345656
 20
404.644653570102
 30
0.0
 41
1.0
 10
246.0486848780581
 20
404.7062021113761
 30
0.0
 41
1.0
 10
246.197869411423
 20
404.760438054336
 30
0.0
 41
1.0
 10
246.3380337207436
 20
404.809112686356
 30
0.0
 41
1.0
 10
246.4695188202806
 20
404.8537675210561
 30
0.0
 41
1.0
 10
246.5943456185936
 20
404.8961109542361
 30
0.0
 41
1.0
 10
246.7533589526856
 20
404.9509007341861
 30
0.0
 41
1.0
 10
246.9494199339046
 20
405.0219202697061
 30
0.0
 41
1.0
 10
247.1886766674756
 20
405.098636893976
 30
0.0
 41
1.0
 10
247.4374179043956
 20
405.1508927104861
 30
0.0
 41
1.0
 10
247.6914421575636
 20
405.160048508166
 30
0.0
 41
1.0
 10
247.9425176350706
 20
405.136639523826
 30
0.0
 41
1.0
 10
248.1899456402076
 20
405.0901312147161
 30
0.0
 41
1.0
 10
248.4368818651726
 20
405.026164081186
 30
0.0
 41
1.0
 10
248.6886988932726
 20
404.947732293036
 30
0.0
 41
1.0
 10
248.8584660880546
 20
404.8900100274161
 30
0.0
 41
1.0
 10
248.9455961598286
 20
404.860384157156
 30
0.0
 41
1.0
  0
LINE
  5
13D
330
8B
100
AcDbEntity
  8
$DDT_AUDIT_GENERATED_(C8)
  6
Continuous
 62
     7
100
AcDbLine
 10
248.9455961598
 20
404.8603841572
 30
0.0
 11
248.6422458411
 21
404.6906250572
 31
0.0
  0
SPLINE
  5
13E
330
8B
100
AcDbEntity
  8
$DDT_AUDIT_GENERATED_(C8)
  6
Continuous
 62
     7
100
AcDbSpline
210
0.0
220
0.0
230
1.0
 70
    12
 71
     3
 72
     8
 73
     4
 74
     0
 42
0.0000000295019591
 43
0.0000000001
 40
0.0
 40
0.0
 40
0.0
 40
0.0
 40
1.0
 40
1.0
 40
1.0
 40
1.0
 10
236.8064318444056
 20
380.779000039596
 30
0.0
 41
1.0
 10
236.6441291140836
 20
380.772237423506
 30
0.0
 41
1.0
 10
236.5360210033576
 20
380.7857509420061
 30
0.0
 41
1.0
 10
236.4819669599166
 20
380.826291469926
 30
0.0
 41
1.0
  0
SPLINE
  5
13F
330
8B
100
AcDbEntity
  8
$DDT_AUDIT_GENERATED_(C8)
  6
Continuous
 62
     7
100
AcDbSpline
210
0.0
220
0.0
230
1.0
 70
    12
 71
     3
 72
     8
 73
     4
 74
     0
 42
0.000000054928183
 43
0.0000000001
 40
0.0
 40
0.0
 40
0.0
 40
0.0
 40
1.0
 40
1.0
 40
1.0
 40
1.0
 10
236.4819669599166
 20
380.826291469926
 30
0.0
 41
1.0
 10
236.4279128926356
 20
380.866832015726
 30
0.0
 41
1.0
 10
236.4008858742666
 20
380.920886071096
 30
0.0
 41
1.0
 10
236.4008858742656
 20
380.974940126456
 30
0.0
 41
1.0
  0
SPLINE
  5
140
330
8B
100
AcDbEntity
  8
$DDT_AUDIT_GENERATED_(C8)
  6
Continuous
 62
     7
100
AcDbSpline
210
0.0
220
0.0
230
1.0
 70
    12
 71
     3
 72
     8
 73
     4
 74
     0
 42
0.0000000691059027
 43
0.0000000001
 40
0.0
 40
0.0
 40
0.0
 40
0.0
 40
1.0
 40
1.0
 40
1.0
 40
1.0
 10
236.4008858742656
 20
380.974940126456
 30
0.0
 41
1.0
 10
236.4008858742656
 20
381.028994181816
 30
0.0
 41
1.0
 10
236.4143994020746
 20
381.056021200186
 30
0.0
 41
1.0
 10
236.4684534388116
 20
381.083048218556
 30
0.0
 41
1.0
  0
SPLINE
  5
141
330
8B
100
AcDbEntity
  8
$DDT_AUDIT_GENERATED_(C8)
  6
Continuous
 62
     7
100
AcDbSpline
210
0.0
220
0.0
230
1.0
 70
    12
 71
     3
 72
     8
 73
     4
 74
     0
 42
0.0000000689741448
 43
0.0000000001
 40
0.0
 40
0.0
 40
0.0
 40
0.0
 40
1.0
 40
1.0
 40
1.0
 40
1.0
 10
236.4684534388116
 20
381.083048218556
 30
0.0
 41
1.0
 10
236.5089939849916
 20
381.110075274186
 30
0.0
 41
1.0
 10
236.5495345311706
 20
381.110075274176
 30
0.0
 41
1.0
 10
236.6035885679076
 20
381.096561746366
 30
0.0
 41
1.0
  0
SPLINE
  5
142
330
8B
100
AcDbEntity
  8
$DDT_AUDIT_GENERATED_(C8)
  6
Continuous
 62
     7
100
AcDbSpline
210
0.0
220
0.0
230
1.0
 70
    12
 71
     3
 72
     8
 73
     4
 74
     0
 42
0.0000000495642788
 43
0.0000000001
 40
0.0
 40
0.0
 40
0.0
 40
0.0
 40
1.0
 40
1.0
 40
1.0
 40
1.0
 10
236.6035885679076
 20
381.096561746366
 30
0.0
 41
1.0
 10
236.6441291140866
 20
381.069534727996
 30
0.0
 41
1.0
 10
236.6846696602656
 20
381.015480654006
 30
0.0
 41
1.0
 10
236.7116966786326
 20
380.934399580276
 30
0.0
 41
1.0
  0
SPLINE
  5
143
330
8B
100
AcDbEntity
  8
$DDT_AUDIT_GENERATED_(C8)
  6
Continuous
 62
     7
100
AcDbSpline
210
0.0
220
0.0
230
1.0
 70
    12
 71
     3
 72
     8
 73
     4
 74
     0
 42
0.0000000187963638
 43
0.0000000001
 40
0.0
 40
0.0
 40
0.0
 40
0.0
 40
1.0
 40
1.0
 40
1.0
 40
1.0
 10
236.7116966786326
 20
380.934399580276
 30
0.0
 41
1.0
 10
236.9414263906436
 20
380.934399580286
 30
0.0
 41
1.0
 10
237.1035885753596
 20
380.974940126456
 30
0.0
 41
1.0
 10
237.1846696632456
 20
381.083048221916
 30
0.0
 41
1.0
  0
SPLINE
  5
144
330
8B
100
AcDbEntity
  8
$DDT_AUDIT_GENERATED_(C8)
  6
Continuous
 62
     7
100
AcDbSpline
210
0.0
220
0.0
230
1.0
 70
    12
 71
     3
 72
     8
 73
     4
 74
     0
 42
0.0000000209029192
 43
0.0000000001
 40
0.0
 40
0.0
 40
0.0
 40
0.0
 40
1.0
 40
1.0
 40
1.0
 40
1.0
 10
237.1846696632456
 20
381.083048221916
 30
0.0
 41
1.0
 10
237.2657507600716
 20
381.191156329286
 30
0.0
 41
1.0
 10
237.3062913062516
 20
381.339804986196
 30
0.0
 41
1.0
 10
237.3062913062516
 20
381.528994152016
 30
0.0
 41
1.0
  0
SPLINE
  5
145
330
8B
100
AcDbEntity
  8
$DDT_AUDIT_GENERATED_(C8)
  6
Continuous
 62
     7
100
AcDbSpline
210
0.0
220
0.0
230
1.0
 70
    12
 71
     3
 72
     8
 73
     4
 74
     0
 42
0.0000000183964355
 43
0.0000000001
 40
0.0
 40
0.0
 40
0.0
 40
0.0
 40
1.0
 40
1.0
 40
1.0
 40
1.0
 10
237.3062913062516
 20
381.528994152016
 30
0.0
 41
1.0
 10
237.3062913062516
 20
381.718183392356
 30
0.0
 41
1.0
 10
237.2387237044516
 20
381.866832012006
 30
0.0
 41
1.0
 10
237.1035885753556
 20
382.001967141106
 30
0.0
 41
1.0
  0
SPLINE
  5
146
330
8B
100
AcDbEntity
  8
$DDT_AUDIT_GENERATED_(C8)
  6
Continuous
 62
     7
100
AcDbSpline
210
0.0
220
0.0
230
1.0
 70
    12
 71
     3
 72
     8
 73
     4
 74
     0
 42
0.0000000144216614
 43
0.0000000001
 40
0.0
 40
0.0
 40
0.0
 40
0.0
 40
1.0
 40
1.0
 40
1.0
 40
1.0
 10
237.1035885753556
 20
382.001967141106
 30
0.0
 41
1.0
 10
236.9684534462616
 20
382.123588779636
 30
0.0
 41
1.0
 10
236.7522372248096
 20
382.191156306936
 30
0.0
 41
1.0
 10
236.4684534388126
 20
382.218183437056
 30
0.0
 41
1.0
  0
LINE
  5
147
330
8B
100
AcDbEntity
  8
$DDT_AUDIT_GENERATED_(C8)
  6
Continuous
 62
     7
100
AcDbLine
 10
236.4684534388
 20
382.2181834371
 30
0.0
 11
236.8198048266
 21
383.0965617389
 31
0.0
  0
LINE
  5
148
330
8B
100
AcDbEntity
  8
$DDT_AUDIT_GENERATED_(C8)
  6
Continuous
 62
     7
100
AcDbLine
 10
236.8198048266
 20
383.0965617389
 30
0.0
 11
237.4954804721
 21
383.0965617389
 31
0.0
  0
LINE
  5
149
330
8B
100
AcDbEntity
  8
$DDT_AUDIT_GENERATED_(C8)
  6
Continuous
 62
     7
100
AcDbLine
 10
237.4954804721
 20
383.0965617389
 30
0.0
 11
237.4008858147
 21
382.880345592
 31
0.0
  0
LINE
  5
14A
330
8B
100
AcDbEntity
  8
$DDT_AUDIT_GENERATED_(C8)
  6
Continuous
 62
     7
100
AcDbLine
 10
237.4008858147
 20
382.880345592
 30
0.0
 11
236.8468318077
 21
382.880345592
 31
0.0
  0
LINE
  5
14B
330
8B
100
AcDbEntity
  8
$DDT_AUDIT_GENERATED_(C8)
  6
Continuous
 62
     7
100
AcDbLine
 10
236.8468318077
 20
382.880345592
 30
0.0
 11
236.6711561325
 21
382.434399584
 31
0.0
  0
SPLINE
  5
14C
330
8B
100
AcDbEntity
  8
$DDT_AUDIT_GENERATED_(C8)
  6
Continuous
 62
     7
100
AcDbSpline
210
0.0
220
0.0
230
1.0
 70
    12
 71
     3
 72
     8
 73
     4
 74
     0
 42
0.0000000157031662
 43
0.0000000001
 40
0.0
 40
0.0
 40
0.0
 40
0.0
 40
1.0
 40
1.0
 40
1.0
 40
1.0
 10
236.6711561324536
 20
382.434399584006
 30
0.0
 41
1.0
 10
236.9143994095286
 20
382.380345472766
 30
0.0
 41
1.0
 10
237.1035885753576
 20
382.2992643803961
 30
0.0
 41
1.0
 10
237.2387236674046
 20
382.177642849716
 30
0.0
 41
1.0
  0
SPLINE
  5
14D
330
8B
100
AcDbEntity
  8
$DDT_AUDIT_GENERATED_(C8)
  6
Continuous
 62
     7
100
AcDbSpline
210
0.0
220
0.0
230
1.0
 70
    12
 71
     3
 72
     8
 73
     4
 74
     0
 42
0.0000000159759263
 43
0.0000000001
 40
0.0
 40
0.0
 40
0.0
 40
0.0
 40
1.0
 40
1.0
 40
1.0
 40
1.0
 10
237.2387236674046
 20
382.177642849716
 30
0.0
 41
1.0
 10
237.3738588335476
 20
382.0560212523461
 30
0.0
 41
1.0
 10
237.4414263608406
 20
381.866832011996
 30
0.0
 41
1.0
 10
237.4414263608396
 20
381.6235888094361
 30
0.0
 41
1.0
  0
SPLINE
  5
14E
330
8B
100
AcDbEntity
  8
$DDT_AUDIT_GENERATED_(C8)
  6
Continuous
 62
     7
100
AcDbSpline
210
0.0
220
0.0
230
1.0
 70
    12
 71
     3
 72
     8
 73
     4
 74
     0
 42
0.0000000152021085
 43
0.0000000001
 40
0.0
 40
0.0
 40
0.0
 40
0.0
 40
1.0
 40
1.0
 40
1.0
 40
1.0
 10
237.4414263608396
 20
381.6235888094361
 30
0.0
 41
1.0
 10
237.4414263608396
 20
381.3803455323661
 30
0.0
 41
1.0
 10
237.3738588335436
 20
381.177642838726
 30
0.0
 41
1.0
 10
237.2420372454386
 20
381.0260479996861
 30
0.0
 41
1.0
  0
SPLINE
  5
14F
330
8B
100
AcDbEntity
  8
$DDT_AUDIT_GENERATED_(C8)
  6
Continuous
 62
     7
100
AcDbSpline
210
0.0
220
0.0
230
1.0
 70
    12
 71
     3
 72
     8
 73
     4
 74
     0
 42
0.0000000188413404
 43
0.0000000001
 40
0.0
 40
0.0
 40
0.0
 40
0.0
 40
1.0
 40
1.0
 40
1.0
 40
1.0
 10
237.2420372454386
 20
381.0260479996861
 30
0.0
 41
1.0
 10
237.1035885753576
 20
380.866832015736
 30
0.0
 41
1.0
 10
236.9684534462626
 20
380.7857509419961
 30
0.0
 41
1.0
 10
236.8064318444056
 20
380.779000039596
 30
0.0
 41
1.0
  0
LINE
  5
150
330
8B
100
AcDbEntity
  8
$DDT_AUDIT_GENERATED_(C8)
  6
Continuous
 62
     7
100
AcDbLine
 10
242.2178939521
 20
386.7452103884
 30
0.0
 11
242.2178939521
 21
386.9614266843
 31
0.0
  0
LINE
  5
151
330
8B
100
AcDbEntity
  8
$DDT_AUDIT_GENERATED_(C8)
  6
Continuous
 62
     7
100
AcDbLine
 10
242.2178939521
 20
386.9614266843
 30
0.0
 11
243.4476236417
 21
386.0154807062
 31
0.0
  0
LINE
  5
152
330
8B
100
AcDbEntity
  8
$DDT_AUDIT_GENERATED_(C8)
  6
Continuous
 62
     7
100
AcDbLine
 10
243.4476236417
 20
386.0154807062
 30
0.0
 11
243.4476236417
 21
385.8398049564
 31
0.0
  0
LINE
  5
153
330
8B
100
AcDbEntity
  8
$DDT_AUDIT_GENERATED_(C8)
  6
Continuous
 62
     7
100
AcDbLine
 10
243.4476236417
 20
385.8398049564
 30
0.0
 11
242.2178939521
 21
384.8938590527
 31
0.0
  0
LINE
  5
154
330
8B
100
AcDbEntity
  8
$DDT_AUDIT_GENERATED_(C8)
  6
Continuous
 62
     7
100
AcDbLine
 10
242.2178939521
 20
384.8938590527
 30
0.0
 11
242.2178939521
 21
385.1100752742
 31
0.0
  0
LINE
  5
155
330
8B
100
AcDbEntity
  8
$DDT_AUDIT_GENERATED_(C8)
  6
Continuous
 62
     7
100
AcDbLine
 10
242.2178939521
 20
385.1100752742
 30
0.0
 11
243.2584344759
 21
385.9208860487
 31
0.0
  0
LINE
  5
156
330
8B
100
AcDbEntity
  8
$DDT_AUDIT_GENERATED_(C8)
  6
Continuous
 62
     7
100
AcDbLine
 10
243.2584344759
 20
385.9208860487
 30
0.0
 11
242.2178939521
 21
386.7452103884
 31
0.0
  0
LINE
  5
157
330
8B
100
AcDbEntity
  8
$DDT_AUDIT_GENERATED_(C8)
  6
Continuous
 62
     7
100
AcDbLine
 10
243.8395155384
 20
387.0154806466
 30
0.0
 11
243.8395155384
 21
387.0965617389
 31
0.0
  0
LINE
  5
158
330
8B
100
AcDbEntity
  8
$DDT_AUDIT_GENERATED_(C8)
  6
Continuous
 62
     7
100
AcDbLine
 10
243.8395155384
 20
387.0965617389
 30
0.0
 11
244.5827589347
 21
387.0965617389
 31
0.0
  0
SPLINE
  5
159
330
8B
100
AcDbEntity
  8
$DDT_AUDIT_GENERATED_(C8)
  6
Continuous
 62
     7
100
AcDbSpline
210
0.0
220
0.0
230
1.0
 70
    12
 71
     3
 72
     8
 73
     4
 74
     0
 42
0.0000000183935001
 43
0.0000000001
 40
0.0
 40
0.0
 40
0.0
 40
0.0
 40
1.0
 40
1.0
 40
1.0
 40
1.0
 10
244.5827589347302
 20
387.0965617389181
 30
0.0
 41
1.0
 10
244.7989750816759
 20
387.0965617389181
 30
0.0
 41
1.0
 10
244.9746508314546
 20
387.042507627676
 30
0.0
 41
1.0
 10
245.0794491737617
 20
386.944259208848
 30
0.0
 41
1.0
  0
SPLINE
  5
15A
330
8B
100
AcDbEntity
  8
$DDT_AUDIT_GENERATED_(C8)
  6
Continuous
 62
     7
100
AcDbSpline
210
0.0
220
0.0
230
1.0
 70
    12
 71
     3
 72
     8
 73
     4
 74
     0
 42
0.0000000197942352
 43
0.0000000001
 40
0.0
 40
0.0
 40
0.0
 40
0.0
 40
1.0
 40
1.0
 40
1.0
 40
1.0
 10
245.0794491737617
 20
386.944259208848
 30
0.0
 41
1.0
 10
245.1908669784009
 20
386.8398050457941
 30
0.0
 41
1.0
 10
245.258434505695
 20
386.69115627713
 30
0.0
 41
1.0
 10
245.258434505695
 20
386.5019671113
 30
0.0
 41
1.0
  0
SPLINE
  5
15B
330
8B
100
AcDbEntity
  8
$DDT_AUDIT_GENERATED_(C8)
  6
Continuous
 62
     7
100
AcDbSpline
210
0.0
220
0.0
230
1.0
 70
    12
 71
     3
 72
     8
 73
     4
 74
     0
 42
0.0000000189924641
 43
0.0000000001
 40
0.0
 40
0.0
 40
0.0
 40
0.0
 40
1.0
 40
1.0
 40
1.0
 40
1.0
 10
245.258434505695
 20
386.5019671113
 30
0.0
 41
1.0
 10
245.2584345056952
 20
386.299264380406
 30
0.0
 41
1.0
 10
245.2043805434645
 20
386.137102344702
 30
0.0
 41
1.0
 10
245.099596381877
 20
386.025769263284
 30
0.0
 41
1.0
  0
SPLINE
  5
15C
330
8B
100
AcDbEntity
  8
$DDT_AUDIT_GENERATED_(C8)
  6
Continuous
 62
     7
100
AcDbSpline
210
0.0
220
0.0
230
1.0
 70
    12
 71
     3
 72
     8
 73
     4
 74
     0
 42
0.0000000235178254
 43
0.0000000001
 40
0.0
 40
0.0
 40
0.0
 40
0.0
 40
1.0
 40
1.0
 40
1.0
 40
1.0
 10
245.099596381877
 20
386.025769263284
 30
0.0
 41
1.0
 10
244.9881640984952
 20
385.907372558187
 30
0.0
 41
1.0
 10
244.8800561740338
 20
385.839804956387
 30
0.0
 41
1.0
 10
244.7449211194455
 20
385.839804956387
 30
0.0
 41
1.0
  0
SPLINE
  5
15D
330
8B
100
AcDbEntity
  8
$DDT_AUDIT_GENERATED_(C8)
  6
Continuous
 62
     7
100
AcDbSpline
210
0.0
220
0.0
230
1.0
 70
    12
 71
     3
 72
     8
 73
     4
 74
     0
 42
0.0000000212450187
 43
0.0000000001
 40
0.0
 40
0.0
 40
0.0
 40
0.0
 40
1.0
 40
1.0
 40
1.0
 40
1.0
 10
244.7449211194455
 20
385.839804956387
 30
0.0
 41
1.0
 10
244.6097857668339
 20
385.8262914658291
 30
0.0
 41
1.0
 10
244.4611371471821
 20
385.85331852145
 30
0.0
 41
1.0
 10
244.285461546415
 20
385.907372558187
 30
0.0
 41
1.0
  0
LINE
  5
15E
330
8B
100
AcDbEntity
  8
$DDT_AUDIT_GENERATED_(C8)
  6
Continuous
 62
     7
100
AcDbLine
 10
244.2854615464
 20
385.9073725582
 30
0.0
 11
244.2854615464
 21
385.0425077096
 31
0.0
  0
SPLINE
  5
15F
330
8B
100
AcDbEntity
  8
$DDT_AUDIT_GENERATED_(C8)
  6
Continuous
 62
     7
100
AcDbSpline
210
0.0
220
0.0
230
1.0
 70
    12
 71
     3
 72
     8
 73
     4
 74
     0
 42
0.0000000267274894
 43
0.0000000001
 40
0.0
 40
0.0
 40
0.0
 40
0.0
 40
1.0
 40
1.0
 40
1.0
 40
1.0
 10
244.285461546415
 20
385.042507709632
 30
0.0
 41
1.0
 10
244.2989749624668
 20
384.9479131080911
 30
0.0
 41
1.0
 10
244.393569619888
 20
384.907372561912
 30
0.0
 41
1.0
 10
244.5692453696668
 20
384.907372561912
 30
0.0
 41
1.0
  0
LINE
  5
160
330
8B
100
AcDbEntity
  8
$DDT_AUDIT_GENERATED_(C8)
  6
Continuous
 62
     7
100
AcDbLine
 10
244.5692453697
 20
384.9073725619
 30
0.0
 11
244.5692453697
 21
384.8262914789
 31
0.0
  0
LINE
  5
161
330
8B
100
AcDbEntity
  8
$DDT_AUDIT_GENERATED_(C8)
  6
Continuous
 62
     7
100
AcDbLine
 10
244.5692453697
 20
384.8262914789
 30
0.0
 11
243.8395155384
 21
384.8262914789
 31
0.0
  0
LINE
  5
162
330
8B
100
AcDbEntity
  8
$DDT_AUDIT_GENERATED_(C8)
  6
Continuous
 62
     7
100
AcDbLine
 10
243.8395155384
 20
384.8262914789
 30
0.0
 11
243.8395155384
 21
384.9073725619
 31
0.0
  0
SPLINE
  5
163
330
8B
100
AcDbEntity
  8
$DDT_AUDIT_GENERATED_(C8)
  6
Continuous
 62
     7
100
AcDbSpline
210
0.0
220
0.0
230
1.0
 70
    12
 71
     3
 72
     8
 73
     4
 74
     0
 42
0.0000000330249196
 43
0.0000000001
 40
0.0
 40
0.0
 40
0.0
 40
0.0
 40
1.0
 40
1.0
 40
1.0
 40
1.0
 10
243.8395155384476
 20
384.907372561912
 30
0.0
 41
1.0
 10
243.9746507420476
 20
384.907372561912
 30
0.0
 41
1.0
 10
244.0557318344046
 20
384.93439958028
 30
0.0
 41
1.0
 10
244.0692452504576
 20
385.015480654011
 30
0.0
 41
1.0
  0
LINE
  5
164
330
8B
100
AcDbEntity
  8
$DDT_AUDIT_GENERATED_(C8)
  6
Continuous
 62
     7
100
AcDbLine
 10
244.0692452505
 20
385.015480654
 30
0.0
 11
244.0827588155
 21
386.893859008
 31
0.0
  0
SPLINE
  5
165
330
8B
100
AcDbEntity
  8
$DDT_AUDIT_GENERATED_(C8)
  6
Continuous
 62
     7
100
AcDbSpline
210
0.0
220
0.0
230
1.0
 70
    12
 71
     3
 72
     8
 73
     4
 74
     0
 42
0.0000000321281444
 43
0.0000000001
 40
0.0
 40
0.0
 40
0.0
 40
0.0
 40
1.0
 40
1.0
 40
1.0
 40
1.0
 10
244.0827588155206
 20
386.893859008024
 30
0.0
 41
1.0
 10
244.0557318344046
 20
386.974940100382
 30
0.0
 41
1.0
 10
243.9746507420476
 20
387.0154806465611
 30
0.0
 41
1.0
 10
243.8395155384476
 20
387.0154806465611
 30
0.0
 41
1.0
  0
SPLINE
  5
166
330
8B
100
AcDbEntity
  8
$DDT_AUDIT_GENERATED_(C8)
  6
Continuous
 62
     7
100
AcDbSpline
210
0.0
220
0.0
230
1.0
 70
    12
 71
     3
 72
     8
 73
     4
 74
     0
 42
0.0000000260983824
 43
0.0000000001
 40
0.0
 40
0.0
 40
0.0
 40
0.0
 40
1.0
 40
1.0
 40
1.0
 40
1.0
 10
244.9881640984952
 20
386.5019671113
 30
0.0
 41
1.0
 10
244.9881640984951
 20
386.664129296015
 30
0.0
 41
1.0
 10
244.9476237013278
 20
386.7722373694871
 30
0.0
 41
1.0
 10
244.880056174034
 20
386.853318461845
 30
0.0
 41
1.0
  0
SPLINE
  5
167
330
8B
100
AcDbEntity
  8
$DDT_AUDIT_GENERATED_(C8)
  6
Continuous
 62
     7
100
AcDbSpline
210
0.0
220
0.0
230
1.0
 70
    12
 71
     3
 72
     8
 73
     4
 74
     0
 42
0.000000023373454
 43
0.0000000001
 40
0.0
 40
0.0
 40
0.0
 40
0.0
 40
1.0
 40
1.0
 40
1.0
 40
1.0
 10
244.8665425721557
 20
386.1100752461301
 30
0.0
 41
1.0
 10
244.9476237013281
 20
386.204669871996
 30
0.0
 41
1.0
 10
244.9881640984952
 20
386.3398049265841
 30
0.0
 41
1.0
 10
244.9881640984952
 20
386.5019671113
 30
0.0
 41
1.0
  0
SPLINE
  5
168
330
8B
100
AcDbEntity
  8
$DDT_AUDIT_GENERATED_(C8)
  6
Continuous
 62
     7
100
AcDbSpline
210
0.0
220
0.0
230
1.0
 70
    12
 71
     3
 72
     8
 73
     4
 74
     0
 42
0.0000000286429719
 43
0.0000000001
 40
0.0
 40
0.0
 40
0.0
 40
0.0
 40
1.0
 40
1.0
 40
1.0
 40
1.0
 10
244.5692453696668
 20
385.974940159987
 30
0.0
 41
1.0
 10
244.6908668591916
 20
385.974940159987
 30
0.0
 41
1.0
 10
244.7854615166127
 20
386.015480706165
 30
0.0
 41
1.0
 10
244.8665425721557
 20
386.1100752461301
 30
0.0
 41
1.0
  0
SPLINE
  5
169
330
8B
100
AcDbEntity
  8
$DDT_AUDIT_GENERATED_(C8)
  6
Continuous
 62
     7
100
AcDbSpline
210
0.0
220
0.0
230
1.0
 70
    12
 71
     3
 72
     8
 73
     4
 74
     0
 42
0.00000003255906
 43
0.0000000001
 40
0.0
 40
0.0
 40
0.0
 40
0.0
 40
1.0
 40
1.0
 40
1.0
 40
1.0
 10
244.285461546415
 20
386.042507687281
 30
0.0
 41
1.0
 10
244.3395155086457
 20
385.988453576039
 30
0.0
 41
1.0
 10
244.4341101660668
 20
385.974940159986
 30
0.0
 41
1.0
 10
244.5692453696668
 20
385.974940159987
 30
0.0
 41
1.0
  0
LINE
  5
16A
330
8B
100
AcDbEntity
  8
$DDT_AUDIT_GENERATED_(C8)
  6
Continuous
 62
     7
100
AcDbLine
 10
244.2854615464
 20
386.880345592
 30
0.0
 11
244.2854615464
 21
386.0425076873
 31
0.0
  0
SPLINE
  5
16B
330
8B
100
AcDbEntity
  8
$DDT_AUDIT_GENERATED_(C8)
  6
Continuous
 62
     7
100
AcDbSpline
210
0.0
220
0.0
230
1.0
 70
    12
 71
     3
 72
     8
 73
     4
 74
     0
 42
0.0000000332134869
 43
0.0000000001
 40
0.0
 40
0.0
 40
0.0
 40
0.0
 40
1.0
 40
1.0
 40
1.0
 40
1.0
 10
244.5557318046033
 20
386.96142668433
 30
0.0
 41
1.0
 10
244.4205966010033
 20
386.96142668433
 30
0.0
 41
1.0
 10
244.3260020925938
 20
386.9343995542031
 30
0.0
 41
1.0
 10
244.285461546415
 20
386.8803455919721
 30
0.0
 41
1.0
  0
SPLINE
  5
16C
330
8B
100
AcDbEntity
  8
$DDT_AUDIT_GENERATED_(C8)
  6
Continuous
 62
     7
100
AcDbSpline
210
0.0
220
0.0
230
1.0
 70
    12
 71
     3
 72
     8
 73
     4
 74
     0
 42
0.0000000280789505
 43
0.0000000001
 40
0.0
 40
0.0
 40
0.0
 40
0.0
 40
1.0
 40
1.0
 40
1.0
 40
1.0
 10
244.880056174034
 20
386.853318461845
 30
0.0
 41
1.0
 10
244.7989750816764
 20
386.920886138151
 30
0.0
 41
1.0
 10
244.6908668591917
 20
386.96142668433
 30
0.0
 41
1.0
 10
244.5557318046033
 20
386.96142668433
 30
0.0
 41
1.0
  0
LINE
  5
16D
330
8B
100
AcDbEntity
  8
$DDT_AUDIT_GENERATED_(C8)
  6
Continuous
 62
     7
100
AcDbLine
 10
245.5692453101
 20
387.0154806466
 30
0.0
 11
245.5692453101
 21
387.0965617389
 31
0.0
  0
LINE
  5
16E
330
8B
100
AcDbEntity
  8
$DDT_AUDIT_GENERATED_(C8)
  6
Continuous
 62
     7
100
AcDbLine
 10
245.5692453101
 20
387.0965617389
 30
0.0
 11
246.3124884083
 21
387.0965617389
 31
0.0
  0
SPLINE
  5
16F
330
8B
100
AcDbEntity
  8
$DDT_AUDIT_GENERATED_(C8)
  6
Continuous
 62
     7
100
AcDbSpline
210
0.0
220
0.0
230
1.0
 70
    12
 71
     3
 72
     8
 73
     4
 74
     0
 42
0.0000000183934921
 43
0.0000000001
 40
0.0
 40
0.0
 40
0.0
 40
0.0
 40
1.0
 40
1.0
 40
1.0
 40
1.0
 10
246.3124884083206
 20
387.0965617389181
 30
0.0
 41
1.0
 10
246.5287048532896
 20
387.0965617389181
 30
0.0
 41
1.0
 10
246.7043803050456
 20
387.042507627676
 30
0.0
 41
1.0
 10
246.8091788785476
 20
386.944259127524
 30
0.0
 41
1.0
  0
SPLINE
  5
170
330
8B
100
AcDbEntity
  8
$DDT_AUDIT_GENERATED_(C8)
  6
Continuous
 62
     7
100
AcDbSpline
210
0.0
220
0.0
230
1.0
 70
    12
 71
     3
 72
     8
 73
     4
 74
     0
 42
0.0000000197942354
 43
0.0000000001
 40
0.0
 40
0.0
 40
0.0
 40
0.0
 40
1.0
 40
1.0
 40
1.0
 40
1.0
 10
246.8091788785476
 20
386.944259127524
 30
0.0
 41
1.0
 10
246.9205967500146
 20
386.8398050457941
 30
0.0
 41
1.0
 10
246.9881642773096
 20
386.69115627713
 30
0.0
 41
1.0
 10
246.9881642773096
 20
386.5019671113
 30
0.0
 41
1.0
  0
SPLINE
  5
171
330
8B
100
AcDbEntity
  8
$DDT_AUDIT_GENERATED_(C8)
  6
Continuous
 62
     7
100
AcDbSpline
210
0.0
220
0.0
230
1.0
 70
    12
 71
     3
 72
     8
 73
     4
 74
     0
 42
0.0000000189924641
 43
0.0000000001
 40
0.0
 40
0.0
 40
0.0
 40
0.0
 40
1.0
 40
1.0
 40
1.0
 40
1.0
 10
246.9881642773096
 20
386.5019671113
 30
0.0
 41
1.0
 10
246.9881642773096
 20
386.299264380406
 30
0.0
 41
1.0
 10
246.9341103150786
 20
386.137102344703
 30
0.0
 41
1.0
 10
246.8293261534916
 20
386.025769263284
 30
0.0
 41
1.0
  0
SPLINE
  5
172
330
8B
100
AcDbEntity
  8
$DDT_AUDIT_GENERATED_(C8)
  6
Continuous
 62
     7
100
AcDbSpline
210
0.0
220
0.0
230
1.0
 70
    12
 71
     3
 72
     8
 73
     4
 74
     0
 42
0.0000000235178089
 43
0.0000000001
 40
0.0
 40
0.0
 40
0.0
 40
0.0
 40
1.0
 40
1.0
 40
1.0
 40
1.0
 10
246.8293261534916
 20
386.025769263284
 30
0.0
 41
1.0
 10
246.7178938701096
 20
385.907372558187
 30
0.0
 41
1.0
 10
246.6097859456476
 20
385.839804956387
 30
0.0
 41
1.0
 10
246.4746505930366
 20
385.839804956387
 30
0.0
 41
1.0
  0
SPLINE
  5
173
330
8B
100
AcDbEntity
  8
$DDT_AUDIT_GENERATED_(C8)
  6
Continuous
 62
     7
100
AcDbSpline
210
0.0
220
0.0
230
1.0
 70
    12
 71
     3
 72
     8
 73
     4
 74
     0
 42
0.0000000212450257
 43
0.0000000001
 40
0.0
 40
0.0
 40
0.0
 40
0.0
 40
1.0
 40
1.0
 40
1.0
 40
1.0
 10
246.4746505930366
 20
385.839804956387
 30
0.0
 41
1.0
 10
246.3395155384486
 20
385.8262914658291
 30
0.0
 41
1.0
 10
246.1908669187965
 20
385.85331852145
 30
0.0
 41
1.0
 10
246.0151911690175
 20
385.907372558187
 30
0.0
 41
1.0
  0
LINE
  5
174
330
8B
100
AcDbEntity
  8
$DDT_AUDIT_GENERATED_(C8)
  6
Continuous
 62
     7
100
AcDbLine
 10
246.015191169
 20
385.9073725582
 30
0.0
 11
246.015191169
 21
385.0425077096
 31
0.0
  0
SPLINE
  5
175
330
8B
100
AcDbEntity
  8
$DDT_AUDIT_GENERATED_(C8)
  6
Continuous
 62
     7
100
AcDbSpline
210
0.0
220
0.0
230
1.0
 70
    12
 71
     3
 72
     8
 73
     4
 74
     0
 42
0.0000000267274879
 43
0.0000000001
 40
0.0
 40
0.0
 40
0.0
 40
0.0
 40
1.0
 40
1.0
 40
1.0
 40
1.0
 10
246.0151911690175
 20
385.042507709632
 30
0.0
 41
1.0
 10
246.028704734081
 20
384.9479131080911
 30
0.0
 41
1.0
 10
246.1232993915019
 20
384.907372561912
 30
0.0
 41
1.0
 10
246.2989751412806
 20
384.907372561912
 30
0.0
 41
1.0
  0
LINE
  5
176
330
8B
100
AcDbEntity
  8
$DDT_AUDIT_GENERATED_(C8)
  6
Continuous
 62
     7
100
AcDbLine
 10
246.2989751413
 20
384.9073725619
 30
0.0
 11
246.2989751413
 21
384.8262914789
 31
0.0
  0
LINE
  5
177
330
8B
100
AcDbEntity
  8
$DDT_AUDIT_GENERATED_(C8)
  6
Continuous
 62
     7
100
AcDbLine
 10
246.2989751413
 20
384.8262914789
 30
0.0
 11
245.5692453101
 21
384.8262914789
 31
0.0
  0
LINE
  5
178
330
8B
100
AcDbEntity
  8
$DDT_AUDIT_GENERATED_(C8)
  6
Continuous
 62
     7
100
AcDbLine
 10
245.5692453101
 20
384.8262914789
 30
0.0
 11
245.5692453101
 21
384.9073725619
 31
0.0
  0
SPLINE
  5
179
330
8B
100
AcDbEntity
  8
$DDT_AUDIT_GENERATED_(C8)
  6
Continuous
 62
     7
100
AcDbSpline
210
0.0
220
0.0
230
1.0
 70
    12
 71
     3
 72
     8
 73
     4
 74
     0
 42
0.0000000330249332
 43
0.0000000001
 40
0.0
 40
0.0
 40
0.0
 40
0.0
 40
1.0
 40
1.0
 40
1.0
 40
1.0
 10
245.5692453100621
 20
384.907372561912
 30
0.0
 41
1.0
 10
245.7043803646502
 20
384.907372561912
 30
0.0
 41
1.0
 10
245.7854614570079
 20
384.93439958028
 30
0.0
 41
1.0
 10
245.7989750220715
 20
385.015480654011
 30
0.0
 41
1.0
  0
LINE
  5
17A
330
8B
100
AcDbEntity
  8
$DDT_AUDIT_GENERATED_(C8)
  6
Continuous
 62
     7
100
AcDbLine
 10
245.7989750221
 20
385.015480654
 30
0.0
 11
245.8124885871
 21
386.893859008
 31
0.0
  0
SPLINE
  5
17B
330
8B
100
AcDbEntity
  8
$DDT_AUDIT_GENERATED_(C8)
  6
Continuous
 62
     7
100
AcDbSpline
210
0.0
220
0.0
230
1.0
 70
    12
 71
     3
 72
     8
 73
     4
 74
     0
 42
0.000000032128155
 43
0.0000000001
 40
0.0
 40
0.0
 40
0.0
 40
0.0
 40
1.0
 40
1.0
 40
1.0
 40
1.0
 10
245.812488587135
 20
386.893859008024
 30
0.0
 41
1.0
 10
245.7854614570079
 20
386.974940100382
 30
0.0
 41
1.0
 10
245.7043803646504
 20
387.0154806465611
 30
0.0
 41
1.0
 10
245.5692453100621
 20
387.0154806465611
 30
0.0
 41
1.0
  0
SPLINE
  5
17C
330
8B
100
AcDbEntity
  8
$DDT_AUDIT_GENERATED_(C8)
  6
Continuous
 62
     7
100
AcDbSpline
210
0.0
220
0.0
230
1.0
 70
    12
 71
     3
 72
     8
 73
     4
 74
     0
 42
0.0000000260983824
 43
0.0000000001
 40
0.0
 40
0.0
 40
0.0
 40
0.0
 40
1.0
 40
1.0
 40
1.0
 40
1.0
 10
246.7178938701096
 20
386.5019671113
 30
0.0
 41
1.0
 10
246.7178938701096
 20
386.664129296015
 30
0.0
 41
1.0
 10
246.6773534729416
 20
386.7722373694871
 30
0.0
 41
1.0
 10
246.6097859456476
 20
386.853318461845
 30
0.0
 41
1.0
  0
SPLINE
  5
17D
330
8B
100
AcDbEntity
  8
$DDT_AUDIT_GENERATED_(C8)
  6
Continuous
 62
     7
100
AcDbSpline
210
0.0
220
0.0
230
1.0
 70
    12
 71
     3
 72
     8
 73
     4
 74
     0
 42
0.000000023373454
 43
0.0000000001
 40
0.0
 40
0.0
 40
0.0
 40
0.0
 40
1.0
 40
1.0
 40
1.0
 40
1.0
 10
246.5962723437696
 20
386.1100752461301
 30
0.0
 41
1.0
 10
246.6773534729426
 20
386.204669871996
 30
0.0
 41
1.0
 10
246.7178938701096
 20
386.3398049265841
 30
0.0
 41
1.0
 10
246.7178938701096
 20
386.5019671113
 30
0.0
 41
1.0
  0
SPLINE
  5
17E
330
8B
100
AcDbEntity
  8
$DDT_AUDIT_GENERATED_(C8)
  6
Continuous
 62
     7
100
AcDbSpline
210
0.0
220
0.0
230
1.0
 70
    12
 71
     3
 72
     8
 73
     4
 74
     0
 42
0.0000000286429719
 43
0.0000000001
 40
0.0
 40
0.0
 40
0.0
 40
0.0
 40
1.0
 40
1.0
 40
1.0
 40
1.0
 10
246.2989751412806
 20
385.974940159987
 30
0.0
 41
1.0
 10
246.4205966308056
 20
385.974940159988
 30
0.0
 41
1.0
 10
246.5151912882266
 20
386.015480706165
 30
0.0
 41
1.0
 10
246.5962723437696
 20
386.1100752461301
 30
0.0
 41
1.0
  0
SPLINE
  5
17F
330
8B
100
AcDbEntity
  8
$DDT_AUDIT_GENERATED_(C8)
  6
Continuous
 62
     7
100
AcDbSpline
210
0.0
220
0.0
230
1.0
 70
    12
 71
     3
 72
     8
 73
     4
 74
     0
 42
0.0000000325590531
 43
0.0000000001
 40
0.0
 40
0.0
 40
0.0
 40
0.0
 40
1.0
 40
1.0
 40
1.0
 40
1.0
 10
246.0151911690175
 20
386.042507687281
 30
0.0
 41
1.0
 10
246.0692454292714
 20
385.988453576039
 30
0.0
 41
1.0
 10
246.1638397886691
 20
385.974940159986
 30
0.0
 41
1.0
 10
246.2989751412806
 20
385.974940159987
 30
0.0
 41
1.0
  0
LINE
  5
180
330
8B
100
AcDbEntity
  8
$DDT_AUDIT_GENERATED_(C8)
  6
Continuous
 62
     7
100
AcDbLine
 10
246.015191169
 20
386.880345592
 30
0.0
 11
246.015191169
 21
386.0425076873
 31
0.0
  0
SPLINE
  5
181
330
8B
100
AcDbEntity
  8
$DDT_AUDIT_GENERATED_(C8)
  6
Continuous
 62
     7
100
AcDbSpline
210
0.0
220
0.0
230
1.0
 70
    12
 71
     3
 72
     8
 73
     4
 74
     0
 42
0.0000000332134777
 43
0.0000000001
 40
0.0
 40
0.0
 40
0.0
 40
0.0
 40
1.0
 40
1.0
 40
1.0
 40
1.0
 10
246.2854615762176
 20
386.96142668433
 30
0.0
 41
1.0
 10
246.1503265216292
 20
386.96142668433
 30
0.0
 41
1.0
 10
246.0557318642079
 20
386.9343995542031
 30
0.0
 41
1.0
 10
246.0151911690175
 20
386.8803455919721
 30
0.0
 41
1.0
  0
SPLINE
  5
182
330
8B
100
AcDbEntity
  8
$DDT_AUDIT_GENERATED_(C8)
  6
Continuous
 62
     7
100
AcDbSpline
210
0.0
220
0.0
230
1.0
 70
    12
 71
     3
 72
     8
 73
     4
 74
     0
 42
0.0000000280789505
 43
0.0000000001
 40
0.0
 40
0.0
 40
0.0
 40
0.0
 40
1.0
 40
1.0
 40
1.0
 40
1.0
 10
246.6097859456476
 20
386.853318461845
 30
0.0
 41
1.0
 10
246.5287048532906
 20
386.920886138151
 30
0.0
 41
1.0
 10
246.4205966308066
 20
386.96142668433
 30
0.0
 41
1.0
 10
246.2854615762176
 20
386.96142668433
 30
0.0
 41
1.0
  0
LINE
  5
183
330
8B
100
AcDbEntity
  8
$DDT_AUDIT_GENERATED_(C8)
  6
Continuous
 62
     7
100
AcDbLine
 10
248.6368126585
 20
386.7452103884
 30
0.0
 11
247.5827587559
 21
385.9208860487
 31
0.0
  0
LINE
  5
184
330
8B
100
AcDbEntity
  8
$DDT_AUDIT_GENERATED_(C8)
  6
Continuous
 62
     7
100
AcDbLine
 10
247.5827587559
 20
385.9208860487
 30
0.0
 11
248.6368126585
 21
385.1100752742
 31
0.0
  0
LINE
  5
185
330
8B
100
AcDbEntity
  8
$DDT_AUDIT_GENERATED_(C8)
  6
Continuous
 62
     7
100
AcDbLine
 10
248.6368126585
 20
385.1100752742
 30
0.0
 11
248.6368126585
 21
384.8938590527
 31
0.0
  0
LINE
  5
186
330
8B
100
AcDbEntity
  8
$DDT_AUDIT_GENERATED_(C8)
  6
Continuous
 62
     7
100
AcDbLine
 10
248.6368126585
 20
384.8938590527
 30
0.0
 11
247.4070830061
 21
385.8398049564
 31
0.0
  0
LINE
  5
187
330
8B
100
AcDbEntity
  8
$DDT_AUDIT_GENERATED_(C8)
  6
Continuous
 62
     7
100
AcDbLine
 10
247.4070830061
 20
385.8398049564
 30
0.0
 11
247.4070830061
 21
386.0154807062
 31
0.0
  0
LINE
  5
188
330
8B
100
AcDbEntity
  8
$DDT_AUDIT_GENERATED_(C8)
  6
Continuous
 62
     7
100
AcDbLine
 10
247.4070830061
 20
386.0154807062
 30
0.0
 11
248.6368126585
 21
386.9614266843
 31
0.0
  0
LINE
  5
189
330
8B
100
AcDbEntity
  8
$DDT_AUDIT_GENERATED_(C8)
  6
Continuous
 62
     7
100
AcDbLine
 10
248.6368126585
 20
386.9614266843
 30
0.0
 11
248.6368126585
 21
386.7452103884
 31
0.0
  0
LINE
  5
18A
330
8B
100
AcDbEntity
  8
$DDT_AUDIT_GENERATED_(C8)
  6
Continuous
 62
     7
100
AcDbLine
 10
258.6752580551
 20
398.6584157471
 30
0.0
 11
260.5266093535
 21
398.6584157471
 31
0.0
  0
SPLINE
  5
18B
330
8B
100
AcDbEntity
  8
$DDT_AUDIT_GENERATED_(C8)
  6
Continuous
 62
     7
100
AcDbSpline
210
0.0
220
0.0
230
1.0
 70
    12
 71
     3
 72
     8
 73
     4
 74
     0
 42
0.0000000321281517
 43
0.0000000001
 40
0.0
 40
0.0
 40
0.0
 40
0.0
 40
1.0
 40
1.0
 40
1.0
 40
1.0
 10
260.5266093534696
 20
398.6584157470561
 30
0.0
 41
1.0
 10
260.6076904458296
 20
398.685442765423
 30
0.0
 41
1.0
 10
260.6482309920196
 20
398.766523839152
 30
0.0
 41
1.0
 10
260.6482309920096
 20
398.901658977563
 30
0.0
 41
1.0
  0
LINE
  5
18C
330
8B
100
AcDbEntity
  8
$DDT_AUDIT_GENERATED_(C8)
  6
Continuous
 62
     7
100
AcDbLine
 10
260.648230992
 20
398.9016589776
 30
0.0
 11
260.7293120844
 21
398.9016589776
 31
0.0
  0
LINE
  5
18D
330
8B
100
AcDbEntity
  8
$DDT_AUDIT_GENERATED_(C8)
  6
Continuous
 62
     7
100
AcDbLine
 10
260.7293120844
 20
398.9016589776
 30
0.0
 11
260.7293120844
 21
398.2124697763
 31
0.0
  0
LINE
  5
18E
330
8B
100
AcDbEntity
  8
$DDT_AUDIT_GENERATED_(C8)
  6
Continuous
 62
     7
100
AcDbLine
 10
260.7293120844
 20
398.2124697763
 30
0.0
 11
260.648230992
 21
398.2124697763
 31
0.0
  0
SPLINE
  5
18F
330
8B
100
AcDbEntity
  8
$DDT_AUDIT_GENERATED_(C8)
  6
Continuous
 62
     7
100
AcDbSpline
210
0.0
220
0.0
230
1.0
 70
    12
 71
     3
 72
     8
 73
     4
 74
     0
 42
0.0000000304603664
 43
0.0000000001
 40
0.0
 40
0.0
 40
0.0
 40
0.0
 40
1.0
 40
1.0
 40
1.0
 40
1.0
 10
260.6482309920096
 20
398.2124697763421
 30
0.0
 41
1.0
 10
260.6482309920096
 20
398.361118470501
 30
0.0
 41
1.0
 10
260.5941770297796
 20
398.442199525606
 30
0.0
 41
1.0
 10
260.5130959374196
 20
398.455713053415
 30
0.0
 41
1.0
  0
LINE
  5
190
330
8B
100
AcDbEntity
  8
$DDT_AUDIT_GENERATED_(C8)
  6
Continuous
 62
     7
100
AcDbLine
 10
260.5130959374
 20
398.4557130534
 30
0.0
 11
258.7428256196
 21
398.4557130534
 31
0.0
  0
SPLINE
  5
191
330
8B
100
AcDbEntity
  8
$DDT_AUDIT_GENERATED_(C8)
  6
Continuous
 62
     7
100
AcDbSpline
210
0.0
220
0.0
230
1.0
 70
    12
 71
     3
 72
     8
 73
     4
 74
     0
 42
0.0000000249342684
 43
0.0000000001
 40
0.0
 40
0.0
 40
0.0
 40
0.0
 40
1.0
 40
1.0
 40
1.0
 40
1.0
 10
258.7428256196296
 20
398.455713053415
 30
0.0
 41
1.0
 10
258.6347175089096
 20
398.442199525603
 30
0.0
 41
1.0
 10
258.5941769627196
 20
398.347604905435
 30
0.0
 41
1.0
 10
258.5941769627196
 20
398.158415739606
 30
0.0
 41
1.0
  0
LINE
  5
192
330
8B
100
AcDbEntity
  8
$DDT_AUDIT_GENERATED_(C8)
  6
Continuous
 62
     7
100
AcDbLine
 10
258.5941769627
 20
398.1584157396
 30
0.0
 11
258.5941769627
 21
397.901658972
 31
0.0
  0
SPLINE
  5
193
330
8B
100
AcDbEntity
  8
$DDT_AUDIT_GENERATED_(C8)
  6
Continuous
 62
     7
100
AcDbSpline
210
0.0
220
0.0
230
1.0
 70
    12
 71
     3
 72
     8
 73
     4
 74
     0
 42
0.0000000148374958
 43
0.0000000001
 40
0.0
 40
0.0
 40
0.0
 40
0.0
 40
1.0
 40
1.0
 40
1.0
 40
1.0
 10
258.5941769627196
 20
397.9016589719751
 30
0.0
 41
1.0
 10
258.6076904719096
 20
397.793550898502
 30
0.0
 41
1.0
 10
258.7833661658096
 20
397.671929259966
 30
0.0
 41
1.0
 10
259.1076904607296
 20
397.536794056366
 30
0.0
 41
1.0
  0
LINE
  5
194
330
8B
100
AcDbEntity
  8
$DDT_AUDIT_GENERATED_(C8)
  6
Continuous
 62
     7
100
AcDbLine
 10
259.1076904607
 20
397.5367940564
 30
0.0
 11
259.1076904607
 21
397.455712964
 31
0.0
  0
LINE
  5
195
330
8B
100
AcDbEntity
  8
$DDT_AUDIT_GENERATED_(C8)
  6
Continuous
 62
     7
100
AcDbLine
 10
259.1076904607
 20
397.455712964
 30
0.0
 11
258.4590418243
 21
397.6178751487
 31
0.0
  0
LINE
  5
196
330
8B
100
AcDbEntity
  8
$DDT_AUDIT_GENERATED_(C8)
  6
Continuous
 62
     7
100
AcDbLine
 10
258.4590418243
 20
397.6178751487
 30
0.0
 11
258.4590418243
 21
398.9016589776
 31
0.0
  0
LINE
  5
197
330
8B
100
AcDbEntity
  8
$DDT_AUDIT_GENERATED_(C8)
  6
Continuous
 62
     7
100
AcDbLine
 10
258.4590418243
 20
398.9016589776
 30
0.0
 11
258.5401229074
 21
398.9016589776
 31
0.0
  0
SPLINE
  5
198
330
8B
100
AcDbEntity
  8
$DDT_AUDIT_GENERATED_(C8)
  6
Continuous
 62
     7
100
AcDbSpline
210
0.0
220
0.0
230
1.0
 70
    12
 71
     3
 72
     8
 73
     4
 74
     0
 42
0.0000000308483538
 43
0.0000000001
 40
0.0
 40
0.0
 40
0.0
 40
0.0
 40
1.0
 40
1.0
 40
1.0
 40
1.0
 10
258.5401229073596
 20
398.901658977563
 30
0.0
 41
1.0
 10
258.5401229073596
 20
398.766523839157
 30
0.0
 41
1.0
 10
258.5806634535396
 20
398.685442765426
 30
0.0
 41
1.0
 10
258.6752580550796
 20
398.6584157470571
 30
0.0
 41
1.0
  0
LINE
  5
199
330
8B
100
AcDbEntity
  8
$DDT_AUDIT_GENERATED_(C8)
  6
Continuous
 62
     7
100
AcDbLine
 10
259.6482310516
 20
397.1989562709
 30
0.0
 11
259.6482310516
 21
395.6854427952
 31
0.0
  0
LINE
  5
19A
330
8B
100
AcDbEntity
  8
$DDT_AUDIT_GENERATED_(C8)
  6
Continuous
 62
     7
100
AcDbLine
 10
259.6482310516
 20
395.6854427952
 30
0.0
 11
259.4590418113
 21
395.6854427952
 31
0.0
  0
LINE
  5
19B
330
8B
100
AcDbEntity
  8
$DDT_AUDIT_GENERATED_(C8)
  6
Continuous
 62
     7
100
AcDbLine
 10
259.4590418113
 20
395.6854427952
 30
0.0
 11
259.4590418113
 21
397.1989562709
 31
0.0
  0
LINE
  5
19C
330
8B
100
AcDbEntity
  8
$DDT_AUDIT_GENERATED_(C8)
  6
Continuous
 62
     7
100
AcDbLine
 10
259.4590418113
 20
397.1989562709
 30
0.0
 11
259.6482310516
 21
397.1989562709
 31
0.0
  0
LINE
  5
19D
330
8B
100
AcDbEntity
  8
$DDT_AUDIT_GENERATED_(C8)
  6
Continuous
 62
     7
100
AcDbLine
 10
260.7293120844
 20
393.9962534208
 30
0.0
 11
260.648230992
 21
393.9962534208
 31
0.0
  0
SPLINE
  5
19E
330
8B
100
AcDbEntity
  8
$DDT_AUDIT_GENERATED_(C8)
  6
Continuous
 62
     7
100
AcDbSpline
210
0.0
220
0.0
230
1.0
 70
    12
 71
     3
 72
     8
 73
     4
 74
     0
 42
0.0000000399820973
 43
0.0000000001
 40
0.0
 40
0.0
 40
0.0
 40
0.0
 40
1.0
 40
1.0
 40
1.0
 40
1.0
 10
260.6482309920096
 20
393.9962534207802
 30
0.0
 41
1.0
 10
260.6482309920196
 20
394.1178752083297
 30
0.0
 41
1.0
 10
260.6212040108996
 20
394.1854427356236
 30
0.0
 41
1.0
 10
260.5671498996496
 20
394.198956300686
 30
0.0
 41
1.0
  0
SPLINE
  5
19F
330
8B
100
AcDbEntity
  8
$DDT_AUDIT_GENERATED_(C8)
  6
Continuous
 62
     7
100
AcDbSpline
210
0.0
220
0.0
230
1.0
 70
    12
 71
     3
 72
     8
 73
     4
 74
     0
 42
0.0000000258308144
 43
0.0000000001
 40
0.0
 40
0.0
 40
0.0
 40
0.0
 40
1.0
 40
1.0
 40
1.0
 40
1.0
 10
260.5671498996496
 20
394.198956300686
 30
0.0
 41
1.0
 10
260.5130959374296
 20
394.2259834308131
 30
0.0
 41
1.0
 10
260.4049877149396
 20
394.2800373930436
 30
0.0
 41
1.0
 10
260.2182965456396
 20
394.3667154831965
 30
0.0
 41
1.0
  0
SPLINE
  5
1A0
330
8B
100
AcDbEntity
  8
$DDT_AUDIT_GENERATED_(C8)
  6
Continuous
 62
     7
100
AcDbSpline
210
0.0
220
0.0
230
1.0
 70
    12
 71
     3
 72
     8
 73
     4
 74
     0
 42
0.0000000175957699
 43
0.0000000001
 40
0.0
 40
0.0
 40
0.0
 40
0.0
 40
1.0
 40
1.0
 40
1.0
 40
1.0
 10
260.2182965456396
 20
394.3667154831965
 30
0.0
 41
1.0
 10
260.0266093832796
 20
394.4557131428217
 30
0.0
 41
1.0
 10
259.8644471985696
 20
394.5367942351801
 30
0.0
 41
1.0
 10
259.7022850138496
 20
394.6043617624733
 30
0.0
 41
1.0
  0
LINE
  5
1A1
330
8B
100
AcDbEntity
  8
$DDT_AUDIT_GENERATED_(C8)
  6
Continuous
 62
     7
100
AcDbLine
 10
259.7022850138
 20
394.6043617625
 30
0.0
 11
258.8509337304
 21
394.280037393
 31
0.0
  0
SPLINE
  5
1A2
330
8B
100
AcDbEntity
  8
$DDT_AUDIT_GENERATED_(C8)
  6
Continuous
 62
     7
100
AcDbSpline
210
0.0
220
0.0
230
1.0
 70
    12
 71
     3
 72
     8
 73
     4
 74
     0
 42
0.0000000204080824
 43
0.0000000001
 40
0.0
 40
0.0
 40
0.0
 40
0.0
 40
1.0
 40
1.0
 40
1.0
 40
1.0
 10
258.8509337303596
 20
394.2800373930446
 30
0.0
 41
1.0
 10
258.6392463247196
 20
394.1993945542033
 30
0.0
 41
1.0
 10
258.5401229073596
 20
394.11787520833
 30
0.0
 41
1.0
 10
258.5401229073596
 20
393.9827398557168
 30
0.0
 41
1.0
  0
LINE
  5
1A3
330
8B
100
AcDbEntity
  8
$DDT_AUDIT_GENERATED_(C8)
  6
Continuous
 62
     7
100
AcDbLine
 10
258.5401229074
 20
393.9827398557
 30
0.0
 11
258.4590418243
 21
393.9827398557
 31
0.0
  0
LINE
  5
1A4
330
8B
100
AcDbEntity
  8
$DDT_AUDIT_GENERATED_(C8)
  6
Continuous
 62
     7
100
AcDbLine
 10
258.4590418243
 20
393.9827398557
 30
0.0
 11
258.4590418243
 21
394.6178753275
 31
0.0
  0
LINE
  5
1A5
330
8B
100
AcDbEntity
  8
$DDT_AUDIT_GENERATED_(C8)
  6
Continuous
 62
     7
100
AcDbLine
 10
258.4590418243
 20
394.6178753275
 30
0.0
 11
258.5401229074
 21
394.6178753275
 31
0.0
  0
SPLINE
  5
1A6
330
8B
100
AcDbEntity
  8
$DDT_AUDIT_GENERATED_(C8)
  6
Continuous
 62
     7
100
AcDbSpline
210
0.0
220
0.0
230
1.0
 70
    12
 71
     3
 72
     8
 73
     4
 74
     0
 42
0.000000036885158
 43
0.0000000001
 40
0.0
 40
0.0
 40
0.0
 40
0.0
 40
1.0
 40
1.0
 40
1.0
 40
1.0
 10
258.5401229073596
 20
394.6178753275377
 30
0.0
 41
1.0
 10
258.5401229073496
 20
394.5232806701165
 30
0.0
 41
1.0
 10
258.5941769627196
 20
394.4827399749261
 30
0.0
 41
1.0
 10
258.7022850734496
 20
394.4962535399897
 30
0.0
 41
1.0
  0
LINE
  5
1A7
330
8B
100
AcDbEntity
  8
$DDT_AUDIT_GENERATED_(C8)
  6
Continuous
 62
     7
100
AcDbLine
 10
258.7022850734
 20
394.49625354
 30
0.0
 11
259.3779607189
 21
394.7530103821
 31
0.0
  0
LINE
  5
1A8
330
8B
100
AcDbEntity
  8
$DDT_AUDIT_GENERATED_(C8)
  6
Continuous
 62
     7
100
AcDbLine
 10
259.3779607189
 20
394.7530103821
 30
0.0
 11
258.8103931842
 21
395.0232804913
 31
0.0
  0
SPLINE
  5
1A9
330
8B
100
AcDbEntity
  8
$DDT_AUDIT_GENERATED_(C8)
  6
Continuous
 62
     7
100
AcDbSpline
210
0.0
220
0.0
230
1.0
 70
    12
 71
     3
 72
     8
 73
     4
 74
     0
 42
0.000000024683641
 43
0.0000000001
 40
0.0
 40
0.0
 40
0.0
 40
0.0
 40
1.0
 40
1.0
 40
1.0
 40
1.0
 10
258.8103931841796
 20
395.0232804913024
 30
0.0
 41
1.0
 10
258.6245558296696
 20
395.1117744220098
 30
0.0
 41
1.0
 10
258.5401229073596
 20
395.0773347515567
 30
0.0
 41
1.0
 10
258.5401229073596
 20
394.9692265290719
 30
0.0
 41
1.0
  0
LINE
  5
1AA
330
8B
100
AcDbEntity
  8
$DDT_AUDIT_GENERATED_(C8)
  6
Continuous
 62
     7
100
AcDbLine
 10
258.5401229074
 20
394.9692265291
 30
0.0
 11
258.4590418243
 21
394.9692265291
 31
0.0
  0
LINE
  5
1AB
330
8B
100
AcDbEntity
  8
$DDT_AUDIT_GENERATED_(C8)
  6
Continuous
 62
     7
100
AcDbLine
 10
258.4590418243
 20
394.9692265291
 30
0.0
 11
258.4590418243
 21
395.4421995182
 31
0.0
  0
LINE
  5
1AC
330
8B
100
AcDbEntity
  8
$DDT_AUDIT_GENERATED_(C8)
  6
Continuous
 62
     7
100
AcDbLine
 10
258.4590418243
 20
395.4421995182
 30
0.0
 11
258.5401229074
 21
395.4421995182
 31
0.0
  0
SPLINE
  5
1AD
330
8B
100
AcDbEntity
  8
$DDT_AUDIT_GENERATED_(C8)
  6
Continuous
 62
     7
100
AcDbSpline
210
0.0
220
0.0
230
1.0
 70
    12
 71
     3
 72
     8
 73
     4
 74
     0
 42
0.000000022120957
 43
0.0000000001
 40
0.0
 40
0.0
 40
0.0
 40
0.0
 40
1.0
 40
1.0
 40
1.0
 40
1.0
 10
258.5401229073596
 20
395.4421995181542
 30
0.0
 41
1.0
 10
258.5401229073596
 20
395.3476048607334
 30
0.0
 41
1.0
 10
258.6347175088996
 20
395.2530102033118
 30
0.0
 41
1.0
 10
258.8361604438596
 20
395.1557619704436
 30
0.0
 41
1.0
  0
SPLINE
  5
1AE
330
8B
100
AcDbEntity
  8
$DDT_AUDIT_GENERATED_(C8)
  6
Continuous
 62
     7
100
AcDbSpline
210
0.0
220
0.0
230
1.0
 70
    12
 71
     3
 72
     8
 73
     4
 74
     0
 42
0.0000000128231928
 43
0.0000000001
 40
0.0
 40
0.0
 40
0.0
 40
0.0
 40
1.0
 40
1.0
 40
1.0
 40
1.0
 10
258.8361604438596
 20
395.1557619704436
 30
0.0
 41
1.0
 10
259.0266093683696
 20
395.0638211864933
 30
0.0
 41
1.0
 10
259.2698526454396
 20
394.9557129640096
 30
0.0
 41
1.0
 10
259.5401229036396
 20
394.8205779094216
 30
0.0
 41
1.0
  0
LINE
  5
1AF
330
8B
100
AcDbEntity
  8
$DDT_AUDIT_GENERATED_(C8)
  6
Continuous
 62
     7
100
AcDbLine
 10
259.5401229036
 20
394.8205779094
 30
0.0
 11
260.4320148451
 21
395.1584158439
 31
0.0
  0
SPLINE
  5
1B0
330
8B
100
AcDbEntity
  8
$DDT_AUDIT_GENERATED_(C8)
  6
Continuous
 62
     7
100
AcDbSpline
210
0.0
220
0.0
230
1.0
 70
    12
 71
     3
 72
     8
 73
     4
 74
     0
 42
0.0000000270691875
 43
0.0000000001
 40
0.0
 40
0.0
 40
0.0
 40
0.0
 40
1.0
 40
1.0
 40
1.0
 40
1.0
 10
260.4320148450596
 20
395.1584158439132
 30
0.0
 41
1.0
 10
260.5681225158796
 20
395.2099717917183
 30
0.0
 41
1.0
 10
260.6482309920096
 20
395.2935508985004
 30
0.0
 41
1.0
 10
260.6482309920096
 20
395.401659120987
 30
0.0
 41
1.0
  0
LINE
  5
1B1
330
8B
100
AcDbEntity
  8
$DDT_AUDIT_GENERATED_(C8)
  6
Continuous
 62
     7
100
AcDbLine
 10
260.648230992
 20
395.401659121
 30
0.0
 11
260.7293120844
 21
395.401659121
 31
0.0
  0
LINE
  5
1B2
330
8B
100
AcDbEntity
  8
$DDT_AUDIT_GENERATED_(C8)
  6
Continuous
 62
     7
100
AcDbLine
 10
260.7293120844
 20
395.401659121
 30
0.0
 11
260.7293120844
 21
394.8070643444
 31
0.0
  0
LINE
  5
1B3
330
8B
100
AcDbEntity
  8
$DDT_AUDIT_GENERATED_(C8)
  6
Continuous
 62
     7
100
AcDbLine
 10
260.7293120844
 20
394.8070643444
 30
0.0
 11
260.648230992
 21
394.8070643444
 31
0.0
  0
SPLINE
  5
1B4
330
8B
100
AcDbEntity
  8
$DDT_AUDIT_GENERATED_(C8)
  6
Continuous
 62
     7
100
AcDbSpline
210
0.0
220
0.0
230
1.0
 70
    12
 71
     3
 72
     8
 73
     4
 74
     0
 42
0.0000000358948516
 43
0.0000000001
 40
0.0
 40
0.0
 40
0.0
 40
0.0
 40
1.0
 40
1.0
 40
1.0
 40
1.0
 10
260.6482309920096
 20
394.8070643443567
 30
0.0
 41
1.0
 10
260.6482309920096
 20
394.9151725668393
 30
0.0
 41
1.0
 10
260.5941770297796
 20
394.9557129640064
 30
0.0
 41
1.0
 10
260.4973447829796
 20
394.9208534029959
 30
0.0
 41
1.0
  0
SPLINE
  5
1B5
330
8B
100
AcDbEntity
  8
$DDT_AUDIT_GENERATED_(C8)
  6
Continuous
 62
     7
100
AcDbSpline
210
0.0
220
0.0
230
1.0
 70
    12
 71
     3
 72
     8
 73
     4
 74
     0
 42
0.0000000149712096
 43
0.0000000001
 40
0.0
 40
0.0
 40
0.0
 40
0.0
 40
1.0
 40
1.0
 40
1.0
 40
1.0
 10
260.4973447829796
 20
394.9208534029959
 30
0.0
 41
1.0
 10
260.2563390952896
 20
394.8340914744832
 30
0.0
 41
1.0
 10
260.0536363643896
 20
394.7530103821277
 30
0.0
 41
1.0
 10
259.8779607636196
 20
394.6719292897687
 30
0.0
 41
1.0
  0
LINE
  5
1B6
330
8B
100
AcDbEntity
  8
$DDT_AUDIT_GENERATED_(C8)
  6
Continuous
 62
     7
100
AcDbLine
 10
259.8779607636
 20
394.6719292898
 30
0.0
 11
260.4995823724
 21
394.3881456155
 31
0.0
  0
SPLINE
  5
1B7
330
8B
100
AcDbEntity
  8
$DDT_AUDIT_GENERATED_(C8)
  6
Continuous
 62
     7
100
AcDbSpline
210
0.0
220
0.0
230
1.0
 70
    12
 71
     3
 72
     8
 73
     4
 74
     0
 42
0.0000000374641126
 43
0.0000000001
 40
0.0
 40
0.0
 40
0.0
 40
0.0
 40
1.0
 40
1.0
 40
1.0
 40
1.0
 10
260.4995823723596
 20
394.3881456155284
 30
0.0
 41
1.0
 10
260.5941770297696
 20
394.3611184854003
 30
0.0
 41
1.0
 10
260.6482309920096
 20
394.3881456155272
 30
0.0
 41
1.0
 10
260.6482309920096
 20
394.4962535399895
 30
0.0
 41
1.0
  0
LINE
  5
1B8
330
8B
100
AcDbEntity
  8
$DDT_AUDIT_GENERATED_(C8)
  6
Continuous
 62
     7
100
AcDbLine
 10
260.648230992
 20
394.49625354
 30
0.0
 11
260.7293120844
 21
394.49625354
 31
0.0
  0
LINE
  5
1B9
330
8B
100
AcDbEntity
  8
$DDT_AUDIT_GENERATED_(C8)
  6
Continuous
 62
     7
100
AcDbLine
 10
260.7293120844
 20
394.49625354
 30
0.0
 11
260.7293120844
 21
393.9962534208
 31
0.0
  0
LINE
  5
1BA
330
8B
100
AcDbEntity
  8
$DDT_AUDIT_GENERATED_(C8)
  6
Continuous
 62
     7
100
AcDbLine
 10
260.7293120844
 20
392.2665236492
 30
0.0
 11
260.648230992
 21
392.2665236492
 31
0.0
  0
SPLINE
  5
1BB
330
8B
100
AcDbEntity
  8
$DDT_AUDIT_GENERATED_(C8)
  6
Continuous
 62
     7
100
AcDbSpline
210
0.0
220
0.0
230
1.0
 70
    12
 71
     3
 72
     8
 73
     4
 74
     0
 42
0.0000000399820939
 43
0.0000000001
 40
0.0
 40
0.0
 40
0.0
 40
0.0
 40
1.0
 40
1.0
 40
1.0
 40
1.0
 10
260.6482309920096
 20
392.2665236491661
 30
0.0
 41
1.0
 10
260.6482309920196
 20
392.388145734739
 30
0.0
 41
1.0
 10
260.6212040108996
 20
392.455712964009
 30
0.0
 41
1.0
 10
260.5671498996496
 20
392.469226529072
 30
0.0
 41
1.0
  0
SPLINE
  5
1BC
330
8B
100
AcDbEntity
  8
$DDT_AUDIT_GENERATED_(C8)
  6
Continuous
 62
     7
100
AcDbSpline
210
0.0
220
0.0
230
1.0
 70
    12
 71
     3
 72
     8
 73
     4
 74
     0
 42
0.0000000258308133
 43
0.0000000001
 40
0.0
 40
0.0
 40
0.0
 40
0.0
 40
1.0
 40
1.0
 40
1.0
 40
1.0
 10
260.5671498996496
 20
392.469226529072
 30
0.0
 41
1.0
 10
260.5130959374196
 20
392.4962536591991
 30
0.0
 41
1.0
 10
260.4049877149396
 20
392.550307919452
 30
0.0
 41
1.0
 10
260.2182965397896
 20
392.636985718232
 30
0.0
 41
1.0
  0
SPLINE
  5
1BD
330
8B
100
AcDbEntity
  8
$DDT_AUDIT_GENERATED_(C8)
  6
Continuous
 62
     7
100
AcDbSpline
210
0.0
220
0.0
230
1.0
 70
    12
 71
     3
 72
     8
 73
     4
 74
     0
 42
0.0000000175957735
 43
0.0000000001
 40
0.0
 40
0.0
 40
0.0
 40
0.0
 40
1.0
 40
1.0
 40
1.0
 40
1.0
 10
260.2182965397896
 20
392.636985718232
 30
0.0
 41
1.0
 10
260.0266093832796
 20
392.7259830731841
 30
0.0
 41
1.0
 10
259.8644471985696
 20
392.8070644635661
 30
0.0
 41
1.0
 10
259.7022850138496
 20
392.874631692836
 30
0.0
 41
1.0
  0
LINE
  5
1BE
330
8B
100
AcDbEntity
  8
$DDT_AUDIT_GENERATED_(C8)
  6
Continuous
 62
     7
100
AcDbLine
 10
259.7022850138
 20
392.8746316928
 30
0.0
 11
258.8509337304
 21
392.5503079195
 31
0.0
  0
SPLINE
  5
1BF
330
8B
100
AcDbEntity
  8
$DDT_AUDIT_GENERATED_(C8)
  6
Continuous
 62
     7
100
AcDbSpline
210
0.0
220
0.0
230
1.0
 70
    12
 71
     3
 72
     8
 73
     4
 74
     0
 42
0.0000000204080679
 43
0.0000000001
 40
0.0
 40
0.0
 40
0.0
 40
0.0
 40
1.0
 40
1.0
 40
1.0
 40
1.0
 10
258.8509337303596
 20
392.550307919453
 30
0.0
 41
1.0
 10
258.6392461923396
 20
392.469665178391
 30
0.0
 41
1.0
 10
258.5401229073496
 20
392.388145734739
 30
0.0
 41
1.0
 10
258.5401229073596
 20
392.2530100841031
 30
0.0
 41
1.0
  0
LINE
  5
1C0
330
8B
100
AcDbEntity
  8
$DDT_AUDIT_GENERATED_(C8)
  6
Continuous
 62
     7
100
AcDbLine
 10
258.5401229074
 20
392.2530100841
 30
0.0
 11
258.4590418243
 21
392.2530100841
 31
0.0
  0
LINE
  5
1C1
330
8B
100
AcDbEntity
  8
$DDT_AUDIT_GENERATED_(C8)
  6
Continuous
 62
     7
100
AcDbLine
 10
258.4590418243
 20
392.2530100841
 30
0.0
 11
258.4590418243
 21
392.8881452579
 31
0.0
  0
LINE
  5
1C2
330
8B
100
AcDbEntity
  8
$DDT_AUDIT_GENERATED_(C8)
  6
Continuous
 62
     7
100
AcDbLine
 10
258.4590418243
 20
392.8881452579
 30
0.0
 11
258.5401229074
 21
392.8881452579
 31
0.0
  0
SPLINE
  5
1C3
330
8B
100
AcDbEntity
  8
$DDT_AUDIT_GENERATED_(C8)
  6
Continuous
 62
     7
100
AcDbSpline
210
0.0
220
0.0
230
1.0
 70
    12
 71
     3
 72
     8
 73
     4
 74
     0
 42
0.0000000368851986
 43
0.0000000001
 40
0.0
 40
0.0
 40
0.0
 40
0.0
 40
1.0
 40
1.0
 40
1.0
 40
1.0
 10
258.5401229073596
 20
392.8881452579001
 30
0.0
 41
1.0
 10
258.5401229073496
 20
392.793550898503
 30
0.0
 41
1.0
 10
258.5941769627196
 20
392.753010203312
 30
0.0
 41
1.0
 10
258.7022850734496
 20
392.7665237683751
 30
0.0
 41
1.0
  0
LINE
  5
1C4
330
8B
100
AcDbEntity
  8
$DDT_AUDIT_GENERATED_(C8)
  6
Continuous
 62
     7
100
AcDbLine
 10
258.7022850734
 20
392.7665237684
 30
0.0
 11
259.3779607189
 21
393.0232803125
 31
0.0
  0
LINE
  5
1C5
330
8B
100
AcDbEntity
  8
$DDT_AUDIT_GENERATED_(C8)
  6
Continuous
 62
     7
100
AcDbLine
 10
259.3779607189
 20
393.0232803125
 30
0.0
 11
258.8103931842
 21
393.2935510177
 31
0.0
  0
SPLINE
  5
1C6
330
8B
100
AcDbEntity
  8
$DDT_AUDIT_GENERATED_(C8)
  6
Continuous
 62
     7
100
AcDbSpline
210
0.0
220
0.0
230
1.0
 70
    12
 71
     3
 72
     8
 73
     4
 74
     0
 42
0.0000000246836399
 43
0.0000000001
 40
0.0
 40
0.0
 40
0.0
 40
0.0
 40
1.0
 40
1.0
 40
1.0
 40
1.0
 10
258.8103931841796
 20
393.293551017711
 30
0.0
 41
1.0
 10
258.6245560114296
 20
393.382045057035
 30
0.0
 41
1.0
 10
258.5401229073596
 20
393.34760468192
 30
0.0
 41
1.0
 10
258.5401229073596
 20
393.2394967574581
 30
0.0
 41
1.0
  0
LINE
  5
1C7
330
8B
100
AcDbEntity
  8
$DDT_AUDIT_GENERATED_(C8)
  6
Continuous
 62
     7
100
AcDbLine
 10
258.5401229074
 20
393.2394967575
 30
0.0
 11
258.4590418243
 21
393.2394967575
 31
0.0
  0
LINE
  5
1C8
330
8B
100
AcDbEntity
  8
$DDT_AUDIT_GENERATED_(C8)
  6
Continuous
 62
     7
100
AcDbLine
 10
258.4590418243
 20
393.2394967575
 30
0.0
 11
258.4590418243
 21
393.7124697465
 31
0.0
  0
LINE
  5
1C9
330
8B
100
AcDbEntity
  8
$DDT_AUDIT_GENERATED_(C8)
  6
Continuous
 62
     7
100
AcDbLine
 10
258.4590418243
 20
393.7124697465
 30
0.0
 11
258.5401229074
 21
393.7124697465
 31
0.0
  0
SPLINE
  5
1CA
330
8B
100
AcDbEntity
  8
$DDT_AUDIT_GENERATED_(C8)
  6
Continuous
 62
     7
100
AcDbSpline
210
0.0
220
0.0
230
1.0
 70
    12
 71
     3
 72
     8
 73
     4
 74
     0
 42
0.0000000221209613
 43
0.0000000001
 40
0.0
 40
0.0
 40
0.0
 40
0.0
 40
1.0
 40
1.0
 40
1.0
 40
1.0
 10
258.5401229073596
 20
393.7124697465402
 30
0.0
 41
1.0
 10
258.5401229073696
 20
393.617875387143
 30
0.0
 41
1.0
 10
258.6347175088996
 20
393.523280431698
 30
0.0
 41
1.0
 10
258.8361603838796
 20
393.4260320745921
 30
0.0
 41
1.0
  0
SPLINE
  5
1CB
330
8B
100
AcDbEntity
  8
$DDT_AUDIT_GENERATED_(C8)
  6
Continuous
 62
     7
100
AcDbSpline
210
0.0
220
0.0
230
1.0
 70
    12
 71
     3
 72
     8
 73
     4
 74
     0
 42
0.0000000128231926
 43
0.0000000001
 40
0.0
 40
0.0
 40
0.0
 40
0.0
 40
1.0
 40
1.0
 40
1.0
 40
1.0
 10
258.8361603838796
 20
393.4260320745921
 30
0.0
 41
1.0
 10
259.0266093683696
 20
393.334091116856
 30
0.0
 41
1.0
 10
259.2698526454496
 20
393.225983192396
 30
0.0
 41
1.0
 10
259.5401229036396
 20
393.090848137807
 30
0.0
 41
1.0
  0
LINE
  5
1CC
330
8B
100
AcDbEntity
  8
$DDT_AUDIT_GENERATED_(C8)
  6
Continuous
 62
     7
100
AcDbLine
 10
259.5401229036
 20
393.0908481378
 30
0.0
 11
260.4320148451
 21
393.4286860723
 31
0.0
  0
SPLINE
  5
1CD
330
8B
100
AcDbEntity
  8
$DDT_AUDIT_GENERATED_(C8)
  6
Continuous
 62
     7
100
AcDbSpline
210
0.0
220
0.0
230
1.0
 70
    12
 71
     3
 72
     8
 73
     4
 74
     0
 42
0.0000000270692085
 43
0.0000000001
 40
0.0
 40
0.0
 40
0.0
 40
0.0
 40
1.0
 40
1.0
 40
1.0
 40
1.0
 10
260.4320148450596
 20
393.4286860723
 30
0.0
 41
1.0
 10
260.5681226193996
 20
393.480242059312
 30
0.0
 41
1.0
 10
260.6482309920096
 20
393.563821126889
 30
0.0
 41
1.0
 10
260.6482309920096
 20
393.67192905135
 30
0.0
 41
1.0
  0
LINE
  5
1CE
330
8B
100
AcDbEntity
  8
$DDT_AUDIT_GENERATED_(C8)
  6
Continuous
 62
     7
100
AcDbLine
 10
260.648230992
 20
393.6719290514
 30
0.0
 11
260.7293120844
 21
393.6719290514
 31
0.0
  0
LINE
  5
1CF
330
8B
100
AcDbEntity
  8
$DDT_AUDIT_GENERATED_(C8)
  6
Continuous
 62
     7
100
AcDbLine
 10
260.7293120844
 20
393.6719290514
 30
0.0
 11
260.7293120844
 21
393.0773345727
 31
0.0
  0
LINE
  5
1D0
330
8B
100
AcDbEntity
  8
$DDT_AUDIT_GENERATED_(C8)
  6
Continuous
 62
     7
100
AcDbLine
 10
260.7293120844
 20
393.0773345727
 30
0.0
 11
260.648230992
 21
393.0773345727
 31
0.0
  0
SPLINE
  5
1D1
330
8B
100
AcDbEntity
  8
$DDT_AUDIT_GENERATED_(C8)
  6
Continuous
 62
     7
100
AcDbSpline
210
0.0
220
0.0
230
1.0
 70
    12
 71
     3
 72
     8
 73
     4
 74
     0
 42
0.0000000358948518
 43
0.0000000001
 40
0.0
 40
0.0
 40
0.0
 40
0.0
 40
1.0
 40
1.0
 40
1.0
 40
1.0
 10
260.6482309920096
 20
393.0773345727431
 30
0.0
 41
1.0
 10
260.6482309920096
 20
393.185442497202
 30
0.0
 41
1.0
 10
260.5941770297796
 20
393.2259831923931
 30
0.0
 41
1.0
 10
260.4973446725196
 20
393.191123591617
 30
0.0
 41
1.0
  0
SPLINE
  5
1D2
330
8B
100
AcDbEntity
  8
$DDT_AUDIT_GENERATED_(C8)
  6
Continuous
 62
     7
100
AcDbSpline
210
0.0
220
0.0
230
1.0
 70
    12
 71
     3
 72
     8
 73
     4
 74
     0
 42
0.0000000149712126
 43
0.0000000001
 40
0.0
 40
0.0
 40
0.0
 40
0.0
 40
1.0
 40
1.0
 40
1.0
 40
1.0
 10
260.4973446725196
 20
393.191123591617
 30
0.0
 41
1.0
 10
260.2563390952896
 20
393.104361702869
 30
0.0
 41
1.0
 10
260.0536363643896
 20
393.02328031249
 30
0.0
 41
1.0
 10
259.8779607636196
 20
392.942199518155
 30
0.0
 41
1.0
  0
LINE
  5
1D3
330
8B
100
AcDbEntity
  8
$DDT_AUDIT_GENERATED_(C8)
  6
Continuous
 62
     7
100
AcDbLine
 10
259.8779607636
 20
392.9421995182
 30
0.0
 11
260.4995823724
 21
392.6584158439
 31
0.0
  0
SPLINE
  5
1D4
330
8B
100
AcDbEntity
  8
$DDT_AUDIT_GENERATED_(C8)
  6
Continuous
 62
     7
100
AcDbSpline
210
0.0
220
0.0
230
1.0
 70
    12
 71
     3
 72
     8
 73
     4
 74
     0
 42
0.0000000374641126
 43
0.0000000001
 40
0.0
 40
0.0
 40
0.0
 40
0.0
 40
1.0
 40
1.0
 40
1.0
 40
1.0
 10
260.4995823723596
 20
392.658415843914
 30
0.0
 41
1.0
 10
260.5941770297696
 20
392.631388713786
 30
0.0
 41
1.0
 10
260.6482309920096
 20
392.658415843913
 30
0.0
 41
1.0
 10
260.6482309920096
 20
392.7665237683751
 30
0.0
 41
1.0
  0
LINE
  5
1D5
330
8B
100
AcDbEntity
  8
$DDT_AUDIT_GENERATED_(C8)
  6
Continuous
 62
     7
100
AcDbLine
 10
260.648230992
 20
392.7665237684
 30
0.0
 11
260.7293120844
 21
392.7665237684
 31
0.0
  0
LINE
  5
1D6
330
8B
100
AcDbEntity
  8
$DDT_AUDIT_GENERATED_(C8)
  6
Continuous
 62
     7
100
AcDbLine
 10
260.7293120844
 20
392.7665237684
 30
0.0
 11
260.7293120844
 21
392.2665236492
 31
0.0
  0
LINE
  5
1D7
330
8B
100
AcDbEntity
  8
$DDT_AUDIT_GENERATED_(C8)
  6
Continuous
 62
     7
100
AcDbLine
 10
238.5765615048
 20
381.0425077096
 30
0.0
 11
238.5765615048
 21
382.5830482037
 31
0.0
  0
SPLINE
  5
1D8
330
8B
100
AcDbEntity
  8
$DDT_AUDIT_GENERATED_(C8)
  6
Continuous
 62
     7
100
AcDbSpline
210
0.0
220
0.0
230
1.0
 70
    12
 71
     3
 72
     8
 73
     4
 74
     0
 42
0.0000000341693266
 43
0.0000000001
 40
0.0
 40
0.0
 40
0.0
 40
0.0
 40
1.0
 40
1.0
 40
1.0
 40
1.0
 10
238.5765615048346
 20
382.5830482036561
 30
0.0
 41
1.0
 10
238.5765615048356
 20
382.718183407256
 30
0.0
 41
1.0
 10
238.5225075426046
 20
382.772237369486
 30
0.0
 41
1.0
 10
238.4414264502466
 20
382.772237369486
 30
0.0
 41
1.0
  0
SPLINE
  5
1D9
330
8B
100
AcDbEntity
  8
$DDT_AUDIT_GENERATED_(C8)
  6
Continuous
 62
     7
100
AcDbSpline
210
0.0
220
0.0
230
1.0
 70
    12
 71
     3
 72
     8
 73
     4
 74
     0
 42
0.0000000363615314
 43
0.0000000001
 40
0.0
 40
0.0
 40
0.0
 40
0.0
 40
1.0
 40
1.0
 40
1.0
 40
1.0
 10
238.4414264502466
 20
382.772237369486
 30
0.0
 41
1.0
 10
238.3603453578876
 20
382.7722373694961
 30
0.0
 41
1.0
 10
238.2657507004676
 20
382.758723953436
 30
0.0
 41
1.0
 10
238.1711561920576
 20
382.731696823306
 30
0.0
 41
1.0
  0
LINE
  5
1DA
330
8B
100
AcDbEntity
  8
$DDT_AUDIT_GENERATED_(C8)
  6
Continuous
 62
     7
100
AcDbLine
 10
238.1711561921
 20
382.7316968233
 30
0.0
 11
238.1711561921
 21
382.8127779157
 31
0.0
  0
SPLINE
  5
1DB
330
8B
100
AcDbEntity
  8
$DDT_AUDIT_GENERATED_(C8)
  6
Continuous
 62
     7
100
AcDbSpline
210
0.0
220
0.0
230
1.0
 70
    12
 71
     3
 72
     8
 73
     4
 74
     0
 42
0.0000000142602467
 43
0.0000000001
 40
0.0
 40
0.0
 40
0.0
 40
0.0
 40
1.0
 40
1.0
 40
1.0
 40
1.0
 10
238.1711561920586
 20
382.8127779156661
 30
0.0
 41
1.0
 10
238.3873723390026
 20
382.893859008026
 30
0.0
 41
1.0
 10
238.5900750698976
 20
383.001967081486
 30
0.0
 41
1.0
 10
238.7792643847396
 20
383.150615850156
 30
0.0
 41
1.0
  0
LINE
  5
1DC
330
8B
100
AcDbEntity
  8
$DDT_AUDIT_GENERATED_(C8)
  6
Continuous
 62
     7
100
AcDbLine
 10
238.7792643847
 20
383.1506158502
 30
0.0
 11
238.7792643847
 21
381.069534728
 31
0.0
  0
SPLINE
  5
1DD
330
8B
100
AcDbEntity
  8
$DDT_AUDIT_GENERATED_(C8)
  6
Continuous
 62
     7
100
AcDbSpline
210
0.0
220
0.0
230
1.0
 70
    12
 71
     3
 72
     8
 73
     4
 74
     0
 42
0.0000000211966825
 43
0.0000000001
 40
0.0
 40
0.0
 40
0.0
 40
0.0
 40
1.0
 40
1.0
 40
1.0
 40
1.0
 10
238.7792643847406
 20
381.069534727996
 30
0.0
 41
1.0
 10
238.7927776517816
 20
380.9614266172761
 30
0.0
 41
1.0
 10
238.9143994393286
 20
380.907372561916
 30
0.0
 41
1.0
 10
239.1441291513386
 20
380.907372561916
 30
0.0
 41
1.0
  0
LINE
  5
1DE
330
8B
100
AcDbEntity
  8
$DDT_AUDIT_GENERATED_(C8)
  6
Continuous
 62
     7
100
AcDbLine
 10
239.1441291513
 20
380.9073725619
 30
0.0
 11
239.1441291513
 21
380.8262914789
 31
0.0
  0
LINE
  5
1DF
330
8B
100
AcDbEntity
  8
$DDT_AUDIT_GENERATED_(C8)
  6
Continuous
 62
     7
100
AcDbLine
 10
239.1441291513
 20
380.8262914789
 30
0.0
 11
238.1981831732
 21
380.8262914789
 31
0.0
  0
LINE
  5
1E0
330
8B
100
AcDbEntity
  8
$DDT_AUDIT_GENERATED_(C8)
  6
Continuous
 62
     7
100
AcDbLine
 10
238.1981831732
 20
380.8262914789
 30
0.0
 11
238.1981831732
 21
380.9073725619
 31
0.0
  0
SPLINE
  5
1E1
330
8B
100
AcDbEntity
  8
$DDT_AUDIT_GENERATED_(C8)
  6
Continuous
 62
     7
100
AcDbSpline
210
0.0
220
0.0
230
1.0
 70
    12
 71
     3
 72
     8
 73
     4
 74
     0
 42
0.0000000219149247
 43
0.0000000001
 40
0.0
 40
0.0
 40
0.0
 40
0.0
 40
1.0
 40
1.0
 40
1.0
 40
1.0
 10
238.1981831731736
 20
380.907372561916
 30
0.0
 41
1.0
 10
238.4279128851876
 20
380.907372561916
 30
0.0
 41
1.0
 10
238.5495345237226
 20
380.947913108096
 30
0.0
 41
1.0
 10
238.5765615048356
 20
381.042507709636
 30
0.0
 41
1.0
  0
SPLINE
  5
1E2
330
8B
100
AcDbEntity
  8
$DDT_AUDIT_GENERATED_(C8)
  6
Continuous
 62
     7
100
AcDbSpline
210
0.0
220
0.0
230
1.0
 70
    12
 71
     3
 72
     8
 73
     4
 74
     0
 42
0.0000000183964383
 43
0.0000000001
 40
0.0
 40
0.0
 40
0.0
 40
0.0
 40
1.0
 40
1.0
 40
1.0
 40
1.0
 10
240.7657507004676
 20
381.528994152016
 30
0.0
 41
1.0
 10
240.7657507004686
 20
381.718183392356
 30
0.0
 41
1.0
 10
240.6981831731736
 20
381.866832012006
 30
0.0
 41
1.0
 10
240.5630481185836
 20
382.001967141106
 30
0.0
 41
1.0
  0
SPLINE
  5
1E3
330
8B
100
AcDbEntity
  8
$DDT_AUDIT_GENERATED_(C8)
  6
Continuous
 62
     7
100
AcDbSpline
210
0.0
220
0.0
230
1.0
 70
    12
 71
     3
 72
     8
 73
     4
 74
     0
 42
0.0000000144216617
 43
0.0000000001
 40
0.0
 40
0.0
 40
0.0
 40
0.0
 40
1.0
 40
1.0
 40
1.0
 40
1.0
 10
240.5630481185836
 20
382.001967141106
 30
0.0
 41
1.0
 10
240.4279127659716
 20
382.123588779636
 30
0.0
 41
1.0
 10
240.2116966190256
 20
382.191156306936
 30
0.0
 41
1.0
 10
239.9279129447876
 20
382.218183437056
 30
0.0
 41
1.0
  0
LINE
  5
1E4
330
8B
100
AcDbEntity
  8
$DDT_AUDIT_GENERATED_(C8)
  6
Continuous
 62
     7
100
AcDbLine
 10
239.9279129448
 20
382.2181834371
 30
0.0
 11
240.2792641463
 21
383.0965617389
 31
0.0
  0
LINE
  5
1E5
330
8B
100
AcDbEntity
  8
$DDT_AUDIT_GENERATED_(C8)
  6
Continuous
 62
     7
100
AcDbLine
 10
240.2792641463
 20
383.0965617389
 30
0.0
 11
240.9549400153
 21
383.0965617389
 31
0.0
  0
LINE
  5
1E6
330
8B
100
AcDbEntity
  8
$DDT_AUDIT_GENERATED_(C8)
  6
Continuous
 62
     7
100
AcDbLine
 10
240.9549400153
 20
383.0965617389
 30
0.0
 11
240.8603453579
 21
382.880345592
 31
0.0
  0
LINE
  5
1E7
330
8B
100
AcDbEntity
  8
$DDT_AUDIT_GENERATED_(C8)
  6
Continuous
 62
     7
100
AcDbLine
 10
240.8603453579
 20
382.880345592
 30
0.0
 11
240.3062912764
 21
382.880345592
 31
0.0
  0
LINE
  5
1E8
330
8B
100
AcDbEntity
  8
$DDT_AUDIT_GENERATED_(C8)
  6
Continuous
 62
     7
100
AcDbLine
 10
240.3062912764
 20
382.880345592
 30
0.0
 11
240.1306155267
 21
382.434399584
 31
0.0
  0
SPLINE
  5
1E9
330
8B
100
AcDbEntity
  8
$DDT_AUDIT_GENERATED_(C8)
  6
Continuous
 62
     7
100
AcDbSpline
210
0.0
220
0.0
230
1.0
 70
    12
 71
     3
 72
     8
 73
     4
 74
     0
 42
0.0000000157031642
 43
0.0000000001
 40
0.0
 40
0.0
 40
0.0
 40
0.0
 40
1.0
 40
1.0
 40
1.0
 40
1.0
 10
240.1306155266706
 20
382.434399584006
 30
0.0
 41
1.0
 10
240.3738588037446
 20
382.380345472766
 30
0.0
 41
1.0
 10
240.5630481185856
 20
382.2992643803961
 30
0.0
 41
1.0
 10
240.6981831361266
 20
382.177642849716
 30
0.0
 41
1.0
  0
SPLINE
  5
1EA
330
8B
100
AcDbEntity
  8
$DDT_AUDIT_GENERATED_(C8)
  6
Continuous
 62
     7
100
AcDbSpline
210
0.0
220
0.0
230
1.0
 70
    12
 71
     3
 72
     8
 73
     4
 74
     0
 42
0.0000000159759277
 43
0.0000000001
 40
0.0
 40
0.0
 40
0.0
 40
0.0
 40
1.0
 40
1.0
 40
1.0
 40
1.0
 10
240.6981831361266
 20
382.177642849716
 30
0.0
 41
1.0
 10
240.8333182277646
 20
382.0560212523461
 30
0.0
 41
1.0
 10
240.9008857550576
 20
381.866832011996
 30
0.0
 41
1.0
 10
240.9008857550556
 20
381.6235888094361
 30
0.0
 41
1.0
  0
SPLINE
  5
1EB
330
8B
100
AcDbEntity
  8
$DDT_AUDIT_GENERATED_(C8)
  6
Continuous
 62
     7
100
AcDbSpline
210
0.0
220
0.0
230
1.0
 70
    12
 71
     3
 72
     8
 73
     4
 74
     0
 42
0.0000000152021097
 43
0.0000000001
 40
0.0
 40
0.0
 40
0.0
 40
0.0
 40
1.0
 40
1.0
 40
1.0
 40
1.0
 10
240.9008857550556
 20
381.6235888094361
 30
0.0
 41
1.0
 10
240.9008857550556
 20
381.3803455323661
 30
0.0
 41
1.0
 10
240.8333182277606
 20
381.177642838726
 30
0.0
 41
1.0
 10
240.7014967139276
 20
381.0260480015161
 30
0.0
 41
1.0
  0
SPLINE
  5
1EC
330
8B
100
AcDbEntity
  8
$DDT_AUDIT_GENERATED_(C8)
  6
Continuous
 62
     7
100
AcDbSpline
210
0.0
220
0.0
230
1.0
 70
    12
 71
     3
 72
     8
 73
     4
 74
     0
 42
0.0000000188413459
 43
0.0000000001
 40
0.0
 40
0.0
 40
0.0
 40
0.0
 40
1.0
 40
1.0
 40
1.0
 40
1.0
 10
240.7014967139276
 20
381.0260480015161
 30
0.0
 41
1.0
 10
240.5630481185856
 20
380.866832015726
 30
0.0
 41
1.0
 10
240.4279127659736
 20
380.7857509419961
 30
0.0
 41
1.0
 10
240.2658914621076
 20
380.779000046586
 30
0.0
 41
1.0
  0
SPLINE
  5
1ED
330
8B
100
AcDbEntity
  8
$DDT_AUDIT_GENERATED_(C8)
  6
Continuous
 62
     7
100
AcDbSpline
210
0.0
220
0.0
230
1.0
 70
    12
 71
     3
 72
     8
 73
     4
 74
     0
 42
0.0000000295019513
 43
0.0000000001
 40
0.0
 40
0.0
 40
0.0
 40
0.0
 40
1.0
 40
1.0
 40
1.0
 40
1.0
 10
240.2658914621076
 20
380.779000046586
 30
0.0
 41
1.0
 10
240.1035886945646
 20
380.7722374235061
 30
0.0
 41
1.0
 10
239.9954804720806
 20
380.7857509420061
 30
0.0
 41
1.0
 10
239.9414264562066
 20
380.826291407346
 30
0.0
 41
1.0
  0
SPLINE
  5
1EE
330
8B
100
AcDbEntity
  8
$DDT_AUDIT_GENERATED_(C8)
  6
Continuous
 62
     7
100
AcDbSpline
210
0.0
220
0.0
230
1.0
 70
    12
 71
     3
 72
     8
 73
     4
 74
     0
 42
0.0000000549281632
 43
0.0000000001
 40
0.0
 40
0.0
 40
0.0
 40
0.0
 40
1.0
 40
1.0
 40
1.0
 40
1.0
 10
239.9414264562066
 20
380.826291407346
 30
0.0
 41
1.0
 10
239.8873722495986
 20
380.866832015736
 30
0.0
 41
1.0
 10
239.8603454174956
 20
380.920886071086
 30
0.0
 41
1.0
 10
239.8603454174936
 20
380.974940126456
 30
0.0
 41
1.0
  0
SPLINE
  5
1EF
330
8B
100
AcDbEntity
  8
$DDT_AUDIT_GENERATED_(C8)
  6
Continuous
 62
     7
100
AcDbSpline
210
0.0
220
0.0
230
1.0
 70
    12
 71
     3
 72
     8
 73
     4
 74
     0
 42
0.0000000691059266
 43
0.0000000001
 40
0.0
 40
0.0
 40
0.0
 40
0.0
 40
1.0
 40
1.0
 40
1.0
 40
1.0
 10
239.8603454174936
 20
380.974940126456
 30
0.0
 41
1.0
 10
239.8603454174936
 20
381.028994181816
 30
0.0
 41
1.0
 10
239.8738589825566
 20
381.056021200186
 30
0.0
 41
1.0
 10
239.9279129447866
 20
381.083048218556
 30
0.0
 41
1.0
  0
SPLINE
  5
1F0
330
8B
100
AcDbEntity
  8
$DDT_AUDIT_GENERATED_(C8)
  6
Continuous
 62
     7
100
AcDbSpline
210
0.0
220
0.0
230
1.0
 70
    12
 71
     3
 72
     8
 73
     4
 74
     0
 42
0.0000000689741673
 43
0.0000000001
 40
0.0
 40
0.0
 40
0.0
 40
0.0
 40
1.0
 40
1.0
 40
1.0
 40
1.0
 10
239.9279129447866
 20
381.083048218556
 30
0.0
 41
1.0
 10
239.9684533419546
 20
381.110075274186
 30
0.0
 41
1.0
 10
240.0089940371456
 20
381.110075274176
 30
0.0
 41
1.0
 10
240.0630479993766
 20
381.096561746366
 30
0.0
 41
1.0
  0
SPLINE
  5
1F1
330
8B
100
AcDbEntity
  8
$DDT_AUDIT_GENERATED_(C8)
  6
Continuous
 62
     7
100
AcDbSpline
210
0.0
220
0.0
230
1.0
 70
    12
 71
     3
 72
     8
 73
     4
 74
     0
 42
0.0000000495642616
 43
0.0000000001
 40
0.0
 40
0.0
 40
0.0
 40
0.0
 40
1.0
 40
1.0
 40
1.0
 40
1.0
 10
240.0630479993766
 20
381.096561746366
 30
0.0
 41
1.0
 10
240.1035886945676
 20
381.069534727996
 30
0.0
 41
1.0
 10
240.1441290917346
 20
381.015480654016
 30
0.0
 41
1.0
 10
240.1711562218606
 20
380.934399580276
 30
0.0
 41
1.0
  0
SPLINE
  5
1F2
330
8B
100
AcDbEntity
  8
$DDT_AUDIT_GENERATED_(C8)
  6
Continuous
 62
     7
100
AcDbSpline
210
0.0
220
0.0
230
1.0
 70
    12
 71
     3
 72
     8
 73
     4
 74
     0
 42
0.0000000187963638
 43
0.0000000001
 40
0.0
 40
0.0
 40
0.0
 40
0.0
 40
1.0
 40
1.0
 40
1.0
 40
1.0
 10
240.1711562218606
 20
380.934399580276
 30
0.0
 41
1.0
 10
240.4008859338726
 20
380.9343995802861
 30
0.0
 41
1.0
 10
240.5630481185876
 20
380.974940126456
 30
0.0
 41
1.0
 10
240.6441292064736
 20
381.083048221916
 30
0.0
 41
1.0
  0
SPLINE
  5
1F3
330
8B
100
AcDbEntity
  8
$DDT_AUDIT_GENERATED_(C8)
  6
Continuous
 62
     7
100
AcDbSpline
210
0.0
220
0.0
230
1.0
 70
    12
 71
     3
 72
     8
 73
     4
 74
     0
 42
0.0000000209029209
 43
0.0000000001
 40
0.0
 40
0.0
 40
0.0
 40
0.0
 40
1.0
 40
1.0
 40
1.0
 40
1.0
 10
240.6441292064736
 20
381.083048221916
 30
0.0
 41
1.0
 10
240.7252103032996
 20
381.191156329286
 30
0.0
 41
1.0
 10
240.7657507004676
 20
381.339804986196
 30
0.0
 41
1.0
 10
240.7657507004676
 20
381.528994152016
 30
0.0
 41
1.0
  0
SPLINE
  5
1F4
330
8B
100
AcDbEntity
  8
$DDT_AUDIT_GENERATED_(C8)
  6
Continuous
 62
     7
100
AcDbSpline
210
0.0
220
0.0
230
1.0
 70
    12
 71
     3
 72
     8
 73
     4
 74
     0
 42
0.0000000114953181
 43
0.0000000001
 40
0.0
 40
0.0
 40
0.0
 40
0.0
 40
1.0
 40
1.0
 40
1.0
 40
1.0
 10
242.6277694116936
 20
382.797666309306
 30
0.0
 41
1.0
 10
242.7387234511326
 20
382.596561768716
 30
0.0
 41
1.0
 10
242.7927777113856
 20
382.3127779454661
 30
0.0
 41
1.0
 10
242.7927777113856
 20
381.961426594926
 30
0.0
 41
1.0
  0
SPLINE
  5
1F5
330
8B
100
AcDbEntity
  8
$DDT_AUDIT_GENERATED_(C8)
  6
Continuous
 62
     7
100
AcDbSpline
210
0.0
220
0.0
230
1.0
 70
    12
 71
     3
 72
     8
 73
     4
 74
     0
 42
0.0000000111948639
 43
0.0000000001
 40
0.0
 40
0.0
 40
0.0
 40
0.0
 40
1.0
 40
1.0
 40
1.0
 40
1.0
 10
242.7927777113856
 20
381.961426594926
 30
0.0
 41
1.0
 10
242.7927777113866
 20
381.596561753816
 30
0.0
 41
1.0
 10
242.7522370161966
 20
381.312777930576
 30
0.0
 41
1.0
 10
242.6441290991846
 20
381.096561742646
 30
0.0
 41
1.0
  0
SPLINE
  5
1F6
330
8B
100
AcDbEntity
  8
$DDT_AUDIT_GENERATED_(C8)
  6
Continuous
 62
     7
100
AcDbSpline
210
0.0
220
0.0
230
1.0
 70
    12
 71
     3
 72
     8
 73
     4
 74
     0
 42
0.0000000166329467
 43
0.0000000001
 40
0.0
 40
0.0
 40
0.0
 40
0.0
 40
1.0
 40
1.0
 40
1.0
 40
1.0
 10
242.6441290991846
 20
381.096561742646
 30
0.0
 41
1.0
 10
242.5360211672726
 20
380.880345524916
 30
0.0
 41
1.0
 10
242.3873725476206
 20
380.7722374235061
 30
0.0
 41
1.0
 10
242.2116967978416
 20
380.7722374235061
 30
0.0
 41
1.0
  0
SPLINE
  5
1F7
330
8B
100
AcDbEntity
  8
$DDT_AUDIT_GENERATED_(C8)
  6
Continuous
 62
     7
100
AcDbSpline
210
0.0
220
0.0
230
1.0
 70
    12
 71
     3
 72
     8
 73
     4
 74
     0
 42
0.0000000171017169
 43
0.0000000001
 40
0.0
 40
0.0
 40
0.0
 40
0.0
 40
1.0
 40
1.0
 40
1.0
 40
1.0
 10
242.2116967978416
 20
380.7722374235061
 30
0.0
 41
1.0
 10
242.0360210480626
 20
380.7722374235061
 30
0.0
 41
1.0
 10
241.9008859934746
 20
380.880345524916
 30
0.0
 41
1.0
 10
241.8007180290916
 20
381.094036982226
 30
0.0
 41
1.0
  0
SPLINE
  5
1F8
330
8B
100
AcDbEntity
  8
$DDT_AUDIT_GENERATED_(C8)
  6
Continuous
 62
     7
100
AcDbSpline
210
0.0
220
0.0
230
1.0
 70
    12
 71
     3
 72
     8
 73
     4
 74
     0
 42
0.0000000111968284
 43
0.0000000001
 40
0.0
 40
0.0
 40
0.0
 40
0.0
 40
1.0
 40
1.0
 40
1.0
 40
1.0
 10
241.8007180290916
 20
381.094036982226
 30
0.0
 41
1.0
 10
241.6981831135696
 20
381.3127779305661
 30
0.0
 41
1.0
 10
241.6576424183776
 20
381.596561753816
 30
0.0
 41
1.0
 10
241.6576424183786
 20
381.961426594926
 30
0.0
 41
1.0
  0
SPLINE
  5
1F9
330
8B
100
AcDbEntity
  8
$DDT_AUDIT_GENERATED_(C8)
  6
Continuous
 62
     7
100
AcDbSpline
210
0.0
220
0.0
230
1.0
 70
    12
 71
     3
 72
     8
 73
     4
 74
     0
 42
0.0000000115241097
 43
0.0000000001
 40
0.0
 40
0.0
 40
0.0
 40
0.0
 40
1.0
 40
1.0
 40
1.0
 40
1.0
 10
241.6576424183786
 20
381.961426594926
 30
0.0
 41
1.0
 10
241.6576424183796
 20
382.312777945476
 30
0.0
 41
1.0
 10
241.6981831135706
 20
382.596561768716
 30
0.0
 41
1.0
 10
241.8037262600416
 20
382.8006116760361
 30
0.0
 41
1.0
  0
SPLINE
  5
1FA
330
8B
100
AcDbEntity
  8
$DDT_AUDIT_GENERATED_(C8)
  6
Continuous
 62
     7
100
AcDbSpline
210
0.0
220
0.0
230
1.0
 70
    12
 71
     3
 72
     8
 73
     4
 74
     0
 42
0.0000000220501034
 43
0.0000000001
 40
0.0
 40
0.0
 40
0.0
 40
0.0
 40
1.0
 40
1.0
 40
1.0
 40
1.0
 10
241.8037262600416
 20
382.8006116760361
 30
0.0
 41
1.0
 10
241.9008859934736
 20
382.9884536654461
 30
0.0
 41
1.0
 10
241.9954803528726
 20
383.096561738916
 30
0.0
 41
1.0
 10
242.0900753083166
 20
383.123588720036
 30
0.0
 41
1.0
  0
SPLINE
  5
1FB
330
8B
100
AcDbEntity
  8
$DDT_AUDIT_GENERATED_(C8)
  6
Continuous
 62
     7
100
AcDbSpline
210
0.0
220
0.0
230
1.0
 70
    12
 71
     3
 72
     8
 73
     4
 74
     0
 42
0.0000000386110246
 43
0.0000000001
 40
0.0
 40
0.0
 40
0.0
 40
0.0
 40
1.0
 40
1.0
 40
1.0
 40
1.0
 10
242.0900753083166
 20
383.123588720036
 30
0.0
 41
1.0
 10
242.1711561026506
 20
383.137102285096
 30
0.0
 41
1.0
 10
242.2657504620486
 20
383.137102285096
 30
0.0
 41
1.0
 10
242.3468318524296
 20
383.123588720036
 30
0.0
 41
1.0
  0
SPLINE
  5
1FC
330
8B
100
AcDbEntity
  8
$DDT_AUDIT_GENERATED_(C8)
  6
Continuous
 62
     7
100
AcDbSpline
210
0.0
220
0.0
230
1.0
 70
    12
 71
     3
 72
     8
 73
     4
 74
     0
 42
0.0000000223705512
 43
0.0000000001
 40
0.0
 40
0.0
 40
0.0
 40
0.0
 40
1.0
 40
1.0
 40
1.0
 40
1.0
 10
242.3468318524296
 20
383.123588720036
 30
0.0
 41
1.0
 10
242.4279126467646
 20
383.096561738916
 30
0.0
 41
1.0
 10
242.5225076022086
 20
382.9884536654461
 30
0.0
 41
1.0
 10
242.6277694116936
 20
382.797666309306
 30
0.0
 41
1.0
  0
SPLINE
  5
1FD
330
8B
100
AcDbEntity
  8
$DDT_AUDIT_GENERATED_(C8)
  6
Continuous
 62
     7
100
AcDbSpline
210
0.0
220
0.0
230
1.0
 70
    12
 71
     3
 72
     8
 73
     4
 74
     0
 42
0.0000000126117595
 43
0.0000000001
 40
0.0
 40
0.0
 40
0.0
 40
0.0
 40
1.0
 40
1.0
 40
1.0
 40
1.0
 10
241.9008859934746
 20
381.961426594926
 30
0.0
 41
1.0
 10
241.9008859934746
 20
381.596561753816
 30
0.0
 41
1.0
 10
241.9143995585376
 20
381.339804986186
 30
0.0
 41
1.0
 10
241.9684534853796
 20
381.1776429262661
 30
0.0
 41
1.0
  0
SPLINE
  5
1FE
330
8B
100
AcDbEntity
  8
$DDT_AUDIT_GENERATED_(C8)
  6
Continuous
 62
     7
100
AcDbSpline
210
0.0
220
0.0
230
1.0
 70
    12
 71
     3
 72
     8
 73
     4
 74
     0
 42
0.0000000122144947
 43
0.0000000001
 40
0.0
 40
0.0
 40
0.0
 40
0.0
 40
1.0
 40
1.0
 40
1.0
 40
1.0
 10
241.9702910603826
 20
382.771682369056
 30
0.0
 41
1.0
 10
241.9143995585386
 20
382.5830482036661
 30
0.0
 41
1.0
 10
241.9008859934746
 20
382.3127779454661
 30
0.0
 41
1.0
 10
241.9008859934746
 20
381.961426594926
 30
0.0
 41
1.0
  0
SPLINE
  5
1FF
330
8B
100
AcDbEntity
  8
$DDT_AUDIT_GENERATED_(C8)
  6
Continuous
 62
     7
100
AcDbSpline
210
0.0
220
0.0
230
1.0
 70
    12
 71
     3
 72
     8
 73
     4
 74
     0
 42
0.0000000240095874
 43
0.0000000001
 40
0.0
 40
0.0
 40
0.0
 40
0.0
 40
1.0
 40
1.0
 40
1.0
 40
1.0
 10
242.2116967978416
 20
383.042507627676
 30
0.0
 41
1.0
 10
242.1035888733806
 20
383.042507627676
 30
0.0
 41
1.0
 10
242.0225074829996
 20
382.947913119266
 30
0.0
 41
1.0
 10
241.9702910603826
 20
382.771682369056
 30
0.0
 41
1.0
  0
SPLINE
  5
200
330
8B
100
AcDbEntity
  8
$DDT_AUDIT_GENERATED_(C8)
  6
Continuous
 62
     7
100
AcDbSpline
210
0.0
220
0.0
230
1.0
 70
    12
 71
     3
 72
     8
 73
     4
 74
     0
 42
0.0000000234924149
 43
0.0000000001
 40
0.0
 40
0.0
 40
0.0
 40
0.0
 40
1.0
 40
1.0
 40
1.0
 40
1.0
 10
242.4666105448156
 20
382.771701119066
 30
0.0
 41
1.0
 10
242.4143996777486
 20
382.947913119266
 30
0.0
 41
1.0
 10
242.3198047223036
 20
383.042507627676
 30
0.0
 41
1.0
 10
242.2116967978416
 20
383.042507627676
 30
0.0
 41
1.0
  0
SPLINE
  5
201
330
8B
100
AcDbEntity
  8
$DDT_AUDIT_GENERATED_(C8)
  6
Continuous
 62
     7
100
AcDbSpline
210
0.0
220
0.0
230
1.0
 70
    12
 71
     3
 72
     8
 73
     4
 74
     0
 42
0.0000000121991481
 43
0.0000000001
 40
0.0
 40
0.0
 40
0.0
 40
0.0
 40
1.0
 40
1.0
 40
1.0
 40
1.0
 10
242.5495347323356
 20
381.961426594926
 30
0.0
 41
1.0
 10
242.5495347323356
 20
382.3127779454661
 30
0.0
 41
1.0
 10
242.5225076022086
 20
382.5830482036561
 30
0.0
 41
1.0
 10
242.4666105448156
 20
382.771701119066
 30
0.0
 41
1.0
  0
SPLINE
  5
202
330
8B
100
AcDbEntity
  8
$DDT_AUDIT_GENERATED_(C8)
  6
Continuous
 62
     7
100
AcDbSpline
210
0.0
220
0.0
230
1.0
 70
    12
 71
     3
 72
     8
 73
     4
 74
     0
 42
0.0000000125948684
 43
0.0000000001
 40
0.0
 40
0.0
 40
0.0
 40
0.0
 40
1.0
 40
1.0
 40
1.0
 40
1.0
 10
242.4684536157636
 20
381.177642747456
 30
0.0
 41
1.0
 10
242.5225076022086
 20
381.339804986196
 30
0.0
 41
1.0
 10
242.5495347323356
 20
381.5965617538261
 30
0.0
 41
1.0
 10
242.5495347323356
 20
381.961426594926
 30
0.0
 41
1.0
  0
SPLINE
  5
203
330
8B
100
AcDbEntity
  8
$DDT_AUDIT_GENERATED_(C8)
  6
Continuous
 62
     7
100
AcDbSpline
210
0.0
220
0.0
230
1.0
 70
    12
 71
     3
 72
     8
 73
     4
 74
     0
 42
0.0000000304121717
 43
0.0000000001
 40
0.0
 40
0.0
 40
0.0
 40
0.0
 40
1.0
 40
1.0
 40
1.0
 40
1.0
 10
242.3062912205706
 20
380.9073724352561
 30
0.0
 41
1.0
 10
242.3603454174936
 20
380.9343995802861
 30
0.0
 41
1.0
 10
242.4143996777476
 20
381.015480654006
 30
0.0
 41
1.0
 10
242.4684536157636
 20
381.177642747456
 30
0.0
 41
1.0
  0
SPLINE
  5
204
330
8B
100
AcDbEntity
  8
$DDT_AUDIT_GENERATED_(C8)
  6
Continuous
 62
     7
100
AcDbSpline
210
0.0
220
0.0
230
1.0
 70
    12
 71
     3
 72
     8
 73
     4
 74
     0
 42
0.0000000530683569
 43
0.0000000001
 40
0.0
 40
0.0
 40
0.0
 40
0.0
 40
1.0
 40
1.0
 40
1.0
 40
1.0
 10
242.1306154074586
 20
380.907372561916
 30
0.0
 41
1.0
 10
242.1846696677136
 20
380.880345524916
 30
0.0
 41
1.0
 10
242.2522374930316
 20
380.880345524916
 30
0.0
 41
1.0
 10
242.3062912205706
 20
380.9073724352561
 30
0.0
 41
1.0
  0
SPLINE
  5
205
330
8B
100
AcDbEntity
  8
$DDT_AUDIT_GENERATED_(C8)
  6
Continuous
 62
     7
100
AcDbSpline
210
0.0
220
0.0
230
1.0
 70
    12
 71
     3
 72
     8
 73
     4
 74
     0
 42
0.0000000304122035
 43
0.0000000001
 40
0.0
 40
0.0
 40
0.0
 40
0.0
 40
1.0
 40
1.0
 40
1.0
 40
1.0
 10
241.9684534853796
 20
381.1776429262661
 30
0.0
 41
1.0
 10
242.0225074829986
 20
381.015480654016
 30
0.0
 41
1.0
 10
242.0765617432536
 20
380.9343995802861
 30
0.0
 41
1.0
 10
242.1306154074586
 20
380.907372561916
 30
0.0
 41
1.0
  0
LINE
  5
206
330
8B
100
AcDbEntity
  8
$DDT_AUDIT_GENERATED_(C8)
  6
Continuous
 62
     7
100
AcDbLine
 10
243.7657508197
 20
381.0425077096
 30
0.0
 11
243.7657508197
 21
382.5830482037
 31
0.0
  0
SPLINE
  5
207
330
8B
100
AcDbEntity
  8
$DDT_AUDIT_GENERATED_(C8)
  6
Continuous
 62
     7
100
AcDbSpline
210
0.0
220
0.0
230
1.0
 70
    12
 71
     3
 72
     8
 73
     4
 74
     0
 42
0.0000000341693368
 43
0.0000000001
 40
0.0
 40
0.0
 40
0.0
 40
0.0
 40
1.0
 40
1.0
 40
1.0
 40
1.0
 10
243.7657508196766
 20
382.5830482036561
 30
0.0
 41
1.0
 10
243.7657508196776
 20
382.718183407256
 30
0.0
 41
1.0
 10
243.7116965594236
 20
382.772237369486
 30
0.0
 41
1.0
 10
243.6306157650886
 20
382.772237369486
 30
0.0
 41
1.0
  0
SPLINE
  5
208
330
8B
100
AcDbEntity
  8
$DDT_AUDIT_GENERATED_(C8)
  6
Continuous
 62
     7
100
AcDbSpline
210
0.0
220
0.0
230
1.0
 70
    12
 71
     3
 72
     8
 73
     4
 74
     0
 42
0.0000000363614741
 43
0.0000000001
 40
0.0
 40
0.0
 40
0.0
 40
0.0
 40
1.0
 40
1.0
 40
1.0
 40
1.0
 10
243.6306157650886
 20
382.772237369486
 30
0.0
 41
1.0
 10
243.5495343747066
 20
382.7722373694961
 30
0.0
 41
1.0
 10
243.4549400153106
 20
382.758723953436
 30
0.0
 41
1.0
 10
243.3603450598646
 20
382.731696823306
 30
0.0
 41
1.0
  0
LINE
  5
209
330
8B
100
AcDbEntity
  8
$DDT_AUDIT_GENERATED_(C8)
  6
Continuous
 62
     7
100
AcDbLine
 10
243.3603450599
 20
382.7316968233
 30
0.0
 11
243.3603450599
 21
382.8127779157
 31
0.0
  0
SPLINE
  5
20A
330
8B
100
AcDbEntity
  8
$DDT_AUDIT_GENERATED_(C8)
  6
Continuous
 62
     7
100
AcDbSpline
210
0.0
220
0.0
230
1.0
 70
    12
 71
     3
 72
     8
 73
     4
 74
     0
 42
0.0000000142602384
 43
0.0000000001
 40
0.0
 40
0.0
 40
0.0
 40
0.0
 40
1.0
 40
1.0
 40
1.0
 40
1.0
 10
243.3603450598656
 20
382.8127779156661
 30
0.0
 41
1.0
 10
243.5765615048336
 20
382.893859008026
 30
0.0
 41
1.0
 10
243.7792643847396
 20
383.001967081486
 30
0.0
 41
1.0
 10
243.9684536995816
 20
383.150615850156
 30
0.0
 41
1.0
  0
LINE
  5
20B
330
8B
100
AcDbEntity
  8
$DDT_AUDIT_GENERATED_(C8)
  6
Continuous
 62
     7
100
AcDbLine
 10
243.9684536996
 20
383.1506158502
 30
0.0
 11
243.9684536996
 21
381.069534728
 31
0.0
  0
SPLINE
  5
20C
330
8B
100
AcDbEntity
  8
$DDT_AUDIT_GENERATED_(C8)
  6
Continuous
 62
     7
100
AcDbSpline
210
0.0
220
0.0
230
1.0
 70
    12
 71
     3
 72
     8
 73
     4
 74
     0
 42
0.0000000211966853
 43
0.0000000001
 40
0.0
 40
0.0
 40
0.0
 40
0.0
 40
1.0
 40
1.0
 40
1.0
 40
1.0
 10
243.9684536995826
 20
381.069534727996
 30
0.0
 41
1.0
 10
243.9819666685996
 20
380.9614266172761
 30
0.0
 41
1.0
 10
244.1035887541716
 20
380.907372561916
 30
0.0
 41
1.0
 10
244.3333181681573
 20
380.907372561916
 30
0.0
 41
1.0
  0
LINE
  5
20D
330
8B
100
AcDbEntity
  8
$DDT_AUDIT_GENERATED_(C8)
  6
Continuous
 62
     7
100
AcDbLine
 10
244.3333181682
 20
380.9073725619
 30
0.0
 11
244.3333181682
 21
380.8262914789
 31
0.0
  0
LINE
  5
20E
330
8B
100
AcDbEntity
  8
$DDT_AUDIT_GENERATED_(C8)
  6
Continuous
 62
     7
100
AcDbLine
 10
244.3333181682
 20
380.8262914789
 30
0.0
 11
243.38737219
 21
380.8262914789
 31
0.0
  0
LINE
  5
20F
330
8B
100
AcDbEntity
  8
$DDT_AUDIT_GENERATED_(C8)
  6
Continuous
 62
     7
100
AcDbLine
 10
243.38737219
 20
380.8262914789
 30
0.0
 11
243.38737219
 21
380.9073725619
 31
0.0
  0
SPLINE
  5
210
330
8B
100
AcDbEntity
  8
$DDT_AUDIT_GENERATED_(C8)
  6
Continuous
 62
     7
100
AcDbSpline
210
0.0
220
0.0
230
1.0
 70
    12
 71
     3
 72
     8
 73
     4
 74
     0
 42
0.0000000219149152
 43
0.0000000001
 40
0.0
 40
0.0
 40
0.0
 40
0.0
 40
1.0
 40
1.0
 40
1.0
 40
1.0
 10
243.3873721899926
 20
380.907372561916
 30
0.0
 41
1.0
 10
243.6171022000296
 20
380.907372561916
 30
0.0
 41
1.0
 10
243.7387236895536
 20
380.947913108096
 30
0.0
 41
1.0
 10
243.7657508196776
 20
381.042507709636
 30
0.0
 41
1.0
  0
LINE
  5
211
330
8B
100
AcDbEntity
  8
$DDT_AUDIT_GENERATED_(C8)
  6
Continuous
 62
     7
100
AcDbLine
 10
244.8468318524
 20
381.8262914658
 30
0.0
 11
244.8468318524
 21
382.0154807062
 31
0.0
  0
LINE
  5
212
330
8B
100
AcDbEntity
  8
$DDT_AUDIT_GENERATED_(C8)
  6
Continuous
 62
     7
100
AcDbLine
 10
244.8468318524
 20
382.0154807062
 30
0.0
 11
246.3603451791
 21
382.0154807062
 31
0.0
  0
LINE
  5
213
330
8B
100
AcDbEntity
  8
$DDT_AUDIT_GENERATED_(C8)
  6
Continuous
 62
     7
100
AcDbLine
 10
246.3603451791
 20
382.0154807062
 30
0.0
 11
246.3603451791
 21
381.8262914658
 31
0.0
  0
LINE
  5
214
330
8B
100
AcDbEntity
  8
$DDT_AUDIT_GENERATED_(C8)
  6
Continuous
 62
     7
100
AcDbLine
 10
246.3603451791
 20
381.8262914658
 30
0.0
 11
244.8468318524
 21
381.8262914658
 31
0.0
  0
SPLINE
  5
215
330
8B
100
AcDbEntity
  8
$DDT_AUDIT_GENERATED_(C8)
  6
Continuous
 62
     7
100
AcDbSpline
210
0.0
220
0.0
230
1.0
 70
    12
 71
     3
 72
     8
 73
     4
 74
     0
 42
0.0000000114953142
 43
0.0000000001
 40
0.0
 40
0.0
 40
0.0
 40
0.0
 40
1.0
 40
1.0
 40
1.0
 40
1.0
 10
247.8169585836786
 20
382.797666568236
 30
0.0
 41
1.0
 10
247.9279127659726
 20
382.596561768716
 30
0.0
 41
1.0
 10
247.9819670262266
 20
382.3127779454661
 30
0.0
 41
1.0
 10
247.9819670262276
 20
381.961426594926
 30
0.0
 41
1.0
  0
SPLINE
  5
216
330
8B
100
AcDbEntity
  8
$DDT_AUDIT_GENERATED_(C8)
  6
Continuous
 62
     7
100
AcDbSpline
210
0.0
220
0.0
230
1.0
 70
    12
 71
     3
 72
     8
 73
     4
 74
     0
 42
0.0000000111948605
 43
0.0000000001
 40
0.0
 40
0.0
 40
0.0
 40
0.0
 40
1.0
 40
1.0
 40
1.0
 40
1.0
 10
247.9819670262276
 20
381.961426594926
 30
0.0
 41
1.0
 10
247.9819670262276
 20
381.5965617538261
 30
0.0
 41
1.0
 10
247.9414263310386
 20
381.3127779305661
 30
0.0
 41
1.0
 10
247.8333182948166
 20
381.096561504226
 30
0.0
 41
1.0
  0
SPLINE
  5
217
330
8B
100
AcDbEntity
  8
$DDT_AUDIT_GENERATED_(C8)
  6
Continuous
 62
     7
100
AcDbSpline
210
0.0
220
0.0
230
1.0
 70
    12
 71
     3
 72
     8
 73
     4
 74
     0
 42
0.0000000166329572
 43
0.0000000001
 40
0.0
 40
0.0
 40
0.0
 40
0.0
 40
1.0
 40
1.0
 40
1.0
 40
1.0
 10
247.8333182948166
 20
381.096561504226
 30
0.0
 41
1.0
 10
247.7252104821146
 20
380.880345524916
 30
0.0
 41
1.0
 10
247.5765612664166
 20
380.7722374235061
 30
0.0
 41
1.0
 10
247.4008861126836
 20
380.7722374235061
 30
0.0
 41
1.0
  0
SPLINE
  5
218
330
8B
100
AcDbEntity
  8
$DDT_AUDIT_GENERATED_(C8)
  6
Continuous
 62
     7
100
AcDbSpline
210
0.0
220
0.0
230
1.0
 70
    12
 71
     3
 72
     8
 73
     4
 74
     0
 42
0.0000000171017131
 43
0.0000000001
 40
0.0
 40
0.0
 40
0.0
 40
0.0
 40
1.0
 40
1.0
 40
1.0
 40
1.0
 10
247.4008861126836
 20
380.7722374235061
 30
0.0
 41
1.0
 10
247.2252097668586
 20
380.7722374235061
 30
0.0
 41
1.0
 10
247.0900753083176
 20
380.880345524916
 30
0.0
 41
1.0
 10
246.9899071024516
 20
381.0940368690261
 30
0.0
 41
1.0
  0
SPLINE
  5
219
330
8B
100
AcDbEntity
  8
$DDT_AUDIT_GENERATED_(C8)
  6
Continuous
 62
     7
100
AcDbSpline
210
0.0
220
0.0
230
1.0
 70
    12
 71
     3
 72
     8
 73
     4
 74
     0
 42
0.0000000111968274
 43
0.0000000001
 40
0.0
 40
0.0
 40
0.0
 40
0.0
 40
1.0
 40
1.0
 40
1.0
 40
1.0
 10
246.9899071024516
 20
381.0940368690261
 30
0.0
 41
1.0
 10
246.8873718323646
 20
381.3127779305661
 30
0.0
 41
1.0
 10
246.8468323292666
 20
381.5965617538261
 30
0.0
 41
1.0
 10
246.8468323292676
 20
381.961426594926
 30
0.0
 41
1.0
  0
SPLINE
  5
21A
330
8B
100
AcDbEntity
  8
$DDT_AUDIT_GENERATED_(C8)
  6
Continuous
 62
     7
100
AcDbSpline
210
0.0
220
0.0
230
1.0
 70
    12
 71
     3
 72
     8
 73
     4
 74
     0
 42
0.0000000115241082
 43
0.0000000001
 40
0.0
 40
0.0
 40
0.0
 40
0.0
 40
1.0
 40
1.0
 40
1.0
 40
1.0
 10
246.8468323292676
 20
381.961426594926
 30
0.0
 41
1.0
 10
246.8468323292676
 20
382.312777945476
 30
0.0
 41
1.0
 10
246.8873718323646
 20
382.596561768726
 30
0.0
 41
1.0
 10
246.9929153525476
 20
382.800611798536
 30
0.0
 41
1.0
  0
SPLINE
  5
21B
330
8B
100
AcDbEntity
  8
$DDT_AUDIT_GENERATED_(C8)
  6
Continuous
 62
     7
100
AcDbSpline
210
0.0
220
0.0
230
1.0
 70
    12
 71
     3
 72
     8
 73
     4
 74
     0
 42
0.0000000220501228
 43
0.0000000001
 40
0.0
 40
0.0
 40
0.0
 40
0.0
 40
1.0
 40
1.0
 40
1.0
 40
1.0
 10
246.9929153525476
 20
382.800611798536
 30
0.0
 41
1.0
 10
247.0900753083176
 20
382.9884536654461
 30
0.0
 41
1.0
 10
247.1846690716686
 20
383.096561738916
 30
0.0
 41
1.0
 10
247.2792640271126
 20
383.123588720036
 30
0.0
 41
1.0
  0
SPLINE
  5
21C
330
8B
100
AcDbEntity
  8
$DDT_AUDIT_GENERATED_(C8)
  6
Continuous
 62
     7
100
AcDbSpline
210
0.0
220
0.0
230
1.0
 70
    12
 71
     3
 72
     8
 73
     4
 74
     0
 42
0.0000000386110234
 43
0.0000000001
 40
0.0
 40
0.0
 40
0.0
 40
0.0
 40
1.0
 40
1.0
 40
1.0
 40
1.0
 10
247.2792640271126
 20
383.123588720036
 30
0.0
 41
1.0
 10
247.3603454174926
 20
383.137102285096
 30
0.0
 41
1.0
 10
247.4549403729386
 20
383.137102285096
 30
0.0
 41
1.0
 10
247.5360205712256
 20
383.123588720036
 30
0.0
 41
1.0
  0
SPLINE
  5
21D
330
8B
100
AcDbEntity
  8
$DDT_AUDIT_GENERATED_(C8)
  6
Continuous
 62
     7
100
AcDbSpline
210
0.0
220
0.0
230
1.0
 70
    12
 71
     3
 72
     8
 73
     4
 74
     0
 42
0.0000000223705377
 43
0.0000000001
 40
0.0
 40
0.0
 40
0.0
 40
0.0
 40
1.0
 40
1.0
 40
1.0
 40
1.0
 10
247.5360205712256
 20
383.123588720036
 30
0.0
 41
1.0
 10
247.6171019616066
 20
383.096561738916
 30
0.0
 41
1.0
 10
247.7116969170516
 20
382.9884536654461
 30
0.0
 41
1.0
 10
247.8169585836786
 20
382.797666568236
 30
0.0
 41
1.0
  0
SPLINE
  5
21E
330
8B
100
AcDbEntity
  8
$DDT_AUDIT_GENERATED_(C8)
  6
Continuous
 62
     7
100
AcDbSpline
210
0.0
220
0.0
230
1.0
 70
    12
 71
     3
 72
     8
 73
     4
 74
     0
 42
0.0000000126117565
 43
0.0000000001
 40
0.0
 40
0.0
 40
0.0
 40
0.0
 40
1.0
 40
1.0
 40
1.0
 40
1.0
 10
247.0900753083166
 20
381.961426594926
 30
0.0
 41
1.0
 10
247.0900753083166
 20
381.596561753816
 30
0.0
 41
1.0
 10
247.1035888733816
 20
381.339804986196
 30
0.0
 41
1.0
 10
247.1576425916046
 20
381.1776426580461
 30
0.0
 41
1.0
  0
SPLINE
  5
21F
330
8B
100
AcDbEntity
  8
$DDT_AUDIT_GENERATED_(C8)
  6
Continuous
 62
     7
100
AcDbSpline
210
0.0
220
0.0
230
1.0
 70
    12
 71
     3
 72
     8
 73
     4
 74
     0
 42
0.000000012214492
 43
0.0000000001
 40
0.0
 40
0.0
 40
0.0
 40
0.0
 40
1.0
 40
1.0
 40
1.0
 40
1.0
 10
247.1594801434276
 20
382.7716826267661
 30
0.0
 41
1.0
 10
247.1035888733806
 20
382.5830482036561
 30
0.0
 41
1.0
 10
247.0900753083176
 20
382.3127779454661
 30
0.0
 41
1.0
 10
247.0900753083166
 20
381.961426594926
 30
0.0
 41
1.0
  0
SPLINE
  5
220
330
8B
100
AcDbEntity
  8
$DDT_AUDIT_GENERATED_(C8)
  6
Continuous
 62
     7
100
AcDbSpline
210
0.0
220
0.0
230
1.0
 70
    12
 71
     3
 72
     8
 73
     4
 74
     0
 42
0.0000000240095732
 43
0.0000000001
 40
0.0
 40
0.0
 40
0.0
 40
0.0
 40
1.0
 40
1.0
 40
1.0
 40
1.0
 10
247.4008861126836
 20
383.042507627676
 30
0.0
 41
1.0
 10
247.2927775921756
 20
383.042507627676
 30
0.0
 41
1.0
 10
247.2116962017946
 20
382.947913119266
 30
0.0
 41
1.0
 10
247.1594801434276
 20
382.7716826267661
 30
0.0
 41
1.0
  0
SPLINE
  5
221
330
8B
100
AcDbEntity
  8
$DDT_AUDIT_GENERATED_(C8)
  6
Continuous
 62
     7
100
AcDbSpline
210
0.0
220
0.0
230
1.0
 70
    12
 71
     3
 72
     8
 73
     4
 74
     0
 42
0.0000000234924384
 43
0.0000000001
 40
0.0
 40
0.0
 40
0.0
 40
0.0
 40
1.0
 40
1.0
 40
1.0
 40
1.0
 10
247.6557995763456
 20
382.7717010351261
 30
0.0
 41
1.0
 10
247.6035883965446
 20
382.947913119266
 30
0.0
 41
1.0
 10
247.5089934410996
 20
383.042507627676
 30
0.0
 41
1.0
 10
247.4008861126836
 20
383.042507627676
 30
0.0
 41
1.0
  0
SPLINE
  5
222
330
8B
100
AcDbEntity
  8
$DDT_AUDIT_GENERATED_(C8)
  6
Continuous
 62
     7
100
AcDbSpline
210
0.0
220
0.0
230
1.0
 70
    12
 71
     3
 72
     8
 73
     4
 74
     0
 42
0.0000000121991481
 43
0.0000000001
 40
0.0
 40
0.0
 40
0.0
 40
0.0
 40
1.0
 40
1.0
 40
1.0
 40
1.0
 10
247.7387240471776
 20
381.961426594926
 30
0.0
 41
1.0
 10
247.7387240471776
 20
382.3127779454661
 30
0.0
 41
1.0
 10
247.7116969170516
 20
382.583048203646
 30
0.0
 41
1.0
 10
247.6557995763456
 20
382.7717010351261
 30
0.0
 41
1.0
  0
SPLINE
  5
223
330
8B
100
AcDbEntity
  8
$DDT_AUDIT_GENERATED_(C8)
  6
Continuous
 62
     7
100
AcDbSpline
210
0.0
220
0.0
230
1.0
 70
    12
 71
     3
 72
     8
 73
     4
 74
     0
 42
0.0000000125948684
 43
0.0000000001
 40
0.0
 40
0.0
 40
0.0
 40
0.0
 40
1.0
 40
1.0
 40
1.0
 40
1.0
 10
247.6576426623856
 20
381.1776428368661
 30
0.0
 41
1.0
 10
247.7116969170506
 20
381.339804986196
 30
0.0
 41
1.0
 10
247.7387240471786
 20
381.5965617538261
 30
0.0
 41
1.0
 10
247.7387240471776
 20
381.961426594926
 30
0.0
 41
1.0
  0
SPLINE
  5
224
330
8B
100
AcDbEntity
  8
$DDT_AUDIT_GENERATED_(C8)
  6
Continuous
 62
     7
100
AcDbSpline
210
0.0
220
0.0
230
1.0
 70
    12
 71
     3
 72
     8
 73
     4
 74
     0
 42
0.0000000304122529
 43
0.0000000001
 40
0.0
 40
0.0
 40
0.0
 40
0.0
 40
1.0
 40
1.0
 40
1.0
 40
1.0
 10
247.4954809526446
 20
380.907372792886
 30
0.0
 41
1.0
 10
247.5495341362906
 20
380.9343995802861
 30
0.0
 41
1.0
 10
247.6035883965446
 20
381.015480654016
 30
0.0
 41
1.0
 10
247.6576426623856
 20
381.1776428368661
 30
0.0
 41
1.0
  0
SPLINE
  5
225
330
8B
100
AcDbEntity
  8
$DDT_AUDIT_GENERATED_(C8)
  6
Continuous
 62
     7
100
AcDbSpline
210
0.0
220
0.0
230
1.0
 70
    12
 71
     3
 72
     8
 73
     4
 74
     0
 42
0.0000000530682067
 43
0.0000000001
 40
0.0
 40
0.0
 40
0.0
 40
0.0
 40
1.0
 40
1.0
 40
1.0
 40
1.0
 10
247.3198047223026
 20
380.907372561916
 30
0.0
 41
1.0
 10
247.3738589825576
 20
380.880345524916
 30
0.0
 41
1.0
 10
247.4414268078756
 20
380.880345524916
 30
0.0
 41
1.0
 10
247.4954809526446
 20
380.907372792886
 30
0.0
 41
1.0
  0
SPLINE
  5
226
330
8B
100
AcDbEntity
  8
$DDT_AUDIT_GENERATED_(C8)
  6
Continuous
 62
     7
100
AcDbSpline
210
0.0
220
0.0
230
1.0
 70
    12
 71
     3
 72
     8
 73
     4
 74
     0
 42
0.0000000304121891
 43
0.0000000001
 40
0.0
 40
0.0
 40
0.0
 40
0.0
 40
1.0
 40
1.0
 40
1.0
 40
1.0
 10
247.1576425916046
 20
381.1776426580461
 30
0.0
 41
1.0
 10
247.2116962017946
 20
381.015480654016
 30
0.0
 41
1.0
 10
247.2657504620486
 20
380.9343995802861
 30
0.0
 41
1.0
 10
247.3198047223026
 20
380.907372561916
 30
0.0
 41
1.0
  0
SPLINE
  5
227
330
8B
100
AcDbEntity
  8
$DDT_AUDIT_GENERATED_(C8)
  6
Continuous
 62
     7
100
AcDbSpline
210
0.0
220
0.0
230
1.0
 70
    12
 71
     3
 72
     8
 73
     4
 74
     0
 42
0.0000000114953173
 43
0.0000000001
 40
0.0
 40
0.0
 40
0.0
 40
0.0
 40
1.0
 40
1.0
 40
1.0
 40
1.0
 10
249.5466884898786
 20
382.7976662958561
 30
0.0
 41
1.0
 10
249.6576431336356
 20
382.596561768726
 30
0.0
 41
1.0
 10
249.7116962017956
 20
382.3127779454661
 30
0.0
 41
1.0
 10
249.7116962017956
 20
381.961426594926
 30
0.0
 41
1.0
  0
SPLINE
  5
228
330
8B
100
AcDbEntity
  8
$DDT_AUDIT_GENERATED_(C8)
  6
Continuous
 62
     7
100
AcDbSpline
210
0.0
220
0.0
230
1.0
 70
    12
 71
     3
 72
     8
 73
     4
 74
     0
 42
0.0000000111948626
 43
0.0000000001
 40
0.0
 40
0.0
 40
0.0
 40
0.0
 40
1.0
 40
1.0
 40
1.0
 40
1.0
 10
249.7116962017956
 20
381.961426594926
 30
0.0
 41
1.0
 10
249.7116962017956
 20
381.596561753816
 30
0.0
 41
1.0
 10
249.6711566986986
 20
381.312777930576
 30
0.0
 41
1.0
 10
249.5630481856406
 20
381.096561742646
 30
0.0
 41
1.0
  0
SPLINE
  5
229
330
8B
100
AcDbEntity
  8
$DDT_AUDIT_GENERATED_(C8)
  6
Continuous
 62
     7
100
AcDbSpline
210
0.0
220
0.0
230
1.0
 70
    12
 71
     3
 72
     8
 73
     4
 74
     0
 42
0.0000000166329362
 43
0.0000000001
 40
0.0
 40
0.0
 40
0.0
 40
0.0
 40
1.0
 40
1.0
 40
1.0
 40
1.0
 10
249.5630481856406
 20
381.096561742646
 30
0.0
 41
1.0
 10
249.4549396576826
 20
380.880345524916
 30
0.0
 41
1.0
 10
249.3062916340776
 20
380.7722374235061
 30
0.0
 41
1.0
 10
249.1306152882516
 20
380.7722374235061
 30
0.0
 41
1.0
  0
SPLINE
  5
22A
330
8B
100
AcDbEntity
  8
$DDT_AUDIT_GENERATED_(C8)
  6
Continuous
 62
     7
100
AcDbSpline
210
0.0
220
0.0
230
1.0
 70
    12
 71
     3
 72
     8
 73
     4
 74
     0
 42
0.0000000171017347
 43
0.0000000001
 40
0.0
 40
0.0
 40
0.0
 40
0.0
 40
1.0
 40
1.0
 40
1.0
 40
1.0
 10
249.1306152882516
 20
380.7722374235061
 30
0.0
 41
1.0
 10
248.9549401345196
 20
380.7722374235061
 30
0.0
 41
1.0
 10
248.8198044838846
 20
380.880345524916
 30
0.0
 41
1.0
 10
248.7196369637846
 20
381.094036662776
 30
0.0
 41
1.0
  0
SPLINE
  5
22B
330
8B
100
AcDbEntity
  8
$DDT_AUDIT_GENERATED_(C8)
  6
Continuous
 62
     7
100
AcDbSpline
210
0.0
220
0.0
230
1.0
 70
    12
 71
     3
 72
     8
 73
     4
 74
     0
 42
0.0000000111968256
 43
0.0000000001
 40
0.0
 40
0.0
 40
0.0
 40
0.0
 40
1.0
 40
1.0
 40
1.0
 40
1.0
 10
248.7196369637846
 20
381.094036662776
 30
0.0
 41
1.0
 10
248.6171022000256
 20
381.312777930576
 30
0.0
 41
1.0
 10
248.5765615048346
 20
381.5965617538261
 30
0.0
 41
1.0
 10
248.5765615048346
 20
381.961426594926
 30
0.0
 41
1.0
  0
SPLINE
  5
22C
330
8B
100
AcDbEntity
  8
$DDT_AUDIT_GENERATED_(C8)
  6
Continuous
 62
     7
100
AcDbSpline
210
0.0
220
0.0
230
1.0
 70
    12
 71
     3
 72
     8
 73
     4
 74
     0
 42
0.000000011524106
 43
0.0000000001
 40
0.0
 40
0.0
 40
0.0
 40
0.0
 40
1.0
 40
1.0
 40
1.0
 40
1.0
 10
248.5765615048346
 20
381.961426594926
 30
0.0
 41
1.0
 10
248.5765615048356
 20
382.3127779454661
 30
0.0
 41
1.0
 10
248.6171022000246
 20
382.596561768716
 30
0.0
 41
1.0
 10
248.7226452305176
 20
382.800612051816
 30
0.0
 41
1.0
  0
SPLINE
  5
22D
330
8B
100
AcDbEntity
  8
$DDT_AUDIT_GENERATED_(C8)
  6
Continuous
 62
     7
100
AcDbSpline
210
0.0
220
0.0
230
1.0
 70
    12
 71
     3
 72
     8
 73
     4
 74
     0
 42
0.0000000220501112
 43
0.0000000001
 40
0.0
 40
0.0
 40
0.0
 40
0.0
 40
1.0
 40
1.0
 40
1.0
 40
1.0
 10
248.7226452305176
 20
382.800612051816
 30
0.0
 41
1.0
 10
248.8198044838846
 20
382.9884536654461
 30
0.0
 41
1.0
 10
248.9143994393286
 20
383.096561738926
 30
0.0
 41
1.0
 10
249.0089943947736
 20
383.123588720036
 30
0.0
 41
1.0
  0
SPLINE
  5
22E
330
8B
100
AcDbEntity
  8
$DDT_AUDIT_GENERATED_(C8)
  6
Continuous
 62
     7
100
AcDbSpline
210
0.0
220
0.0
230
1.0
 70
    12
 71
     3
 72
     8
 73
     4
 74
     0
 42
0.0000000386110234
 43
0.0000000001
 40
0.0
 40
0.0
 40
0.0
 40
0.0
 40
1.0
 40
1.0
 40
1.0
 40
1.0
 10
249.0089943947736
 20
383.123588720036
 30
0.0
 41
1.0
 10
249.0900745930626
 20
383.137102285096
 30
0.0
 41
1.0
 10
249.1846695485056
 20
383.137102285096
 30
0.0
 41
1.0
 10
249.2657509388866
 20
383.123588720036
 30
0.0
 41
1.0
  0
SPLINE
  5
22F
330
8B
100
AcDbEntity
  8
$DDT_AUDIT_GENERATED_(C8)
  6
Continuous
 62
     7
100
AcDbSpline
210
0.0
220
0.0
230
1.0
 70
    12
 71
     3
 72
     8
 73
     4
 74
     0
 42
0.0000000223705474
 43
0.0000000001
 40
0.0
 40
0.0
 40
0.0
 40
0.0
 40
1.0
 40
1.0
 40
1.0
 40
1.0
 10
249.2657509388866
 20
383.123588720036
 30
0.0
 41
1.0
 10
249.3468323292666
 20
383.096561738926
 30
0.0
 41
1.0
 10
249.4414260926176
 20
382.9884536654461
 30
0.0
 41
1.0
 10
249.5466884898786
 20
382.7976662958561
 30
0.0
 41
1.0
  0
SPLINE
  5
230
330
8B
100
AcDbEntity
  8
$DDT_AUDIT_GENERATED_(C8)
  6
Continuous
 62
     7
100
AcDbSpline
210
0.0
220
0.0
230
1.0
 70
    12
 71
     3
 72
     8
 73
     4
 74
     0
 42
0.0000000126117565
 43
0.0000000001
 40
0.0
 40
0.0
 40
0.0
 40
0.0
 40
1.0
 40
1.0
 40
1.0
 40
1.0
 10
248.8198044838846
 20
381.961426594926
 30
0.0
 41
1.0
 10
248.8198044838846
 20
381.5965617538261
 30
0.0
 41
1.0
 10
248.8333180489486
 20
381.339804986196
 30
0.0
 41
1.0
 10
248.8873723036136
 20
381.1776428368661
 30
0.0
 41
1.0
  0
SPLINE
  5
231
330
8B
100
AcDbEntity
  8
$DDT_AUDIT_GENERATED_(C8)
  6
Continuous
 62
     7
100
AcDbSpline
210
0.0
220
0.0
230
1.0
 70
    12
 71
     3
 72
     8
 73
     4
 74
     0
 42
0.0000000122144922
 43
0.0000000001
 40
0.0
 40
0.0
 40
0.0
 40
0.0
 40
1.0
 40
1.0
 40
1.0
 40
1.0
 10
248.8892098821786
 20
382.771682447466
 30
0.0
 41
1.0
 10
248.8333180489486
 20
382.5830482036561
 30
0.0
 41
1.0
 10
248.8198044838846
 20
382.312777945476
 30
0.0
 41
1.0
 10
248.8198044838846
 20
381.961426594926
 30
0.0
 41
1.0
  0
SPLINE
  5
232
330
8B
100
AcDbEntity
  8
$DDT_AUDIT_GENERATED_(C8)
  6
Continuous
 62
     7
100
AcDbSpline
210
0.0
220
0.0
230
1.0
 70
    12
 71
     3
 72
     8
 73
     4
 74
     0
 42
0.0000000240096217
 43
0.0000000001
 40
0.0
 40
0.0
 40
0.0
 40
0.0
 40
1.0
 40
1.0
 40
1.0
 40
1.0
 10
249.1306152882516
 20
383.042507627676
 30
0.0
 41
1.0
 10
249.0225079598356
 20
383.042507627676
 30
0.0
 41
1.0
 10
248.9414265694546
 20
382.947913119266
 30
0.0
 41
1.0
 10
248.8892098821786
 20
382.771682447466
 30
0.0
 41
1.0
  0
SPLINE
  5
233
330
8B
100
AcDbEntity
  8
$DDT_AUDIT_GENERATED_(C8)
  6
Continuous
 62
     7
100
AcDbSpline
210
0.0
220
0.0
230
1.0
 70
    12
 71
     3
 72
     8
 73
     4
 74
     0
 42
0.0000000234923913
 43
0.0000000001
 40
0.0
 40
0.0
 40
0.0
 40
0.0
 40
1.0
 40
1.0
 40
1.0
 40
1.0
 10
249.3855293185376
 20
382.7717012030161
 30
0.0
 41
1.0
 10
249.3333187642036
 20
382.947913119276
 30
0.0
 41
1.0
 10
249.2387238087586
 20
383.042507627676
 30
0.0
 41
1.0
 10
249.1306152882516
 20
383.042507627676
 30
0.0
 41
1.0
  0
SPLINE
  5
234
330
8B
100
AcDbEntity
  8
$DDT_AUDIT_GENERATED_(C8)
  6
Continuous
 62
     7
100
AcDbSpline
210
0.0
220
0.0
230
1.0
 70
    12
 71
     3
 72
     8
 73
     4
 74
     0
 42
0.0000000121991481
 43
0.0000000001
 40
0.0
 40
0.0
 40
0.0
 40
0.0
 40
1.0
 40
1.0
 40
1.0
 40
1.0
 10
249.4684532227456
 20
381.961426594926
 30
0.0
 41
1.0
 10
249.4684532227446
 20
382.312777945476
 30
0.0
 41
1.0
 10
249.4414260926186
 20
382.5830482036561
 30
0.0
 41
1.0
 10
249.3855293185376
 20
382.7717012030161
 30
0.0
 41
1.0
  0
SPLINE
  5
235
330
8B
100
AcDbEntity
  8
$DDT_AUDIT_GENERATED_(C8)
  6
Continuous
 62
     7
100
AcDbSpline
210
0.0
220
0.0
230
1.0
 70
    12
 71
     3
 72
     8
 73
     4
 74
     0
 42
0.0000000125948684
 43
0.0000000001
 40
0.0
 40
0.0
 40
0.0
 40
0.0
 40
1.0
 40
1.0
 40
1.0
 40
1.0
 10
249.3873723743956
 20
381.177642658056
 30
0.0
 41
1.0
 10
249.4414260926196
 20
381.339804986196
 30
0.0
 41
1.0
 10
249.4684532227456
 20
381.596561753816
 30
0.0
 41
1.0
 10
249.4684532227456
 20
381.961426594926
 30
0.0
 41
1.0
  0
SPLINE
  5
236
330
8B
100
AcDbEntity
  8
$DDT_AUDIT_GENERATED_(C8)
  6
Continuous
 62
     7
100
AcDbSpline
210
0.0
220
0.0
230
1.0
 70
    12
 71
     3
 72
     8
 73
     4
 74
     0
 42
0.0000000304121891
 43
0.0000000001
 40
0.0
 40
0.0
 40
0.0
 40
0.0
 40
1.0
 40
1.0
 40
1.0
 40
1.0
 10
249.2252102474226
 20
380.9073725544661
 30
0.0
 41
1.0
 10
249.2792645039506
 20
380.9343995802861
 30
0.0
 41
1.0
 10
249.3333187642036
 20
381.015480654006
 30
0.0
 41
1.0
 10
249.3873723743956
 20
381.177642658056
 30
0.0
 41
1.0
  0
SPLINE
  5
237
330
8B
100
AcDbEntity
  8
$DDT_AUDIT_GENERATED_(C8)
  6
Continuous
 62
     7
100
AcDbSpline
210
0.0
220
0.0
230
1.0
 70
    12
 71
     3
 72
     8
 73
     4
 74
     0
 42
0.000000053068507
 43
0.0000000001
 40
0.0
 40
0.0
 40
0.0
 40
0.0
 40
1.0
 40
1.0
 40
1.0
 40
1.0
 10
249.0495350899616
 20
380.907372561916
 30
0.0
 41
1.0
 10
249.1035881581256
 20
380.880345524916
 30
0.0
 41
1.0
 10
249.1711559834426
 20
380.880345524916
 30
0.0
 41
1.0
 10
249.2252102474226
 20
380.9073725544661
 30
0.0
 41
1.0
  0
SPLINE
  5
238
330
8B
100
AcDbEntity
  8
$DDT_AUDIT_GENERATED_(C8)
  6
Continuous
 62
     7
100
AcDbSpline
210
0.0
220
0.0
230
1.0
 70
    12
 71
     3
 72
     8
 73
     4
 74
     0
 42
0.0000000304121542
 43
0.0000000001
 40
0.0
 40
0.0
 40
0.0
 40
0.0
 40
1.0
 40
1.0
 40
1.0
 40
1.0
 10
248.8873723036136
 20
381.1776428368661
 30
0.0
 41
1.0
 10
248.9414265694536
 20
381.015480654016
 30
0.0
 41
1.0
 10
248.9954808297096
 20
380.9343995802861
 30
0.0
 41
1.0
 10
249.0495350899616
 20
380.907372561916
 30
0.0
 41
1.0
  0
LINE
  5
239
330
8B
100
AcDbEntity
  8
$DDT_AUDIT_GENERATED_(C8)
  6
Continuous
 62
     7
100
AcDbLine
 10
250.0360205712
 20
381.8262914658
 30
0.0
 11
250.0360205712
 21
382.0154807062
 31
0.0
  0
LINE
  5
23A
330
8B
100
AcDbEntity
  8
$DDT_AUDIT_GENERATED_(C8)
  6
Continuous
 62
     7
100
AcDbLine
 10
250.0360205712
 20
382.0154807062
 30
0.0
 11
251.54953509
 21
382.0154807062
 31
0.0
  0
LINE
  5
23B
330
8B
100
AcDbEntity
  8
$DDT_AUDIT_GENERATED_(C8)
  6
Continuous
 62
     7
100
AcDbLine
 10
251.54953509
 20
382.0154807062
 30
0.0
 11
251.54953509
 21
381.8262914658
 31
0.0
  0
LINE
  5
23C
330
8B
100
AcDbEntity
  8
$DDT_AUDIT_GENERATED_(C8)
  6
Continuous
 62
     7
100
AcDbLine
 10
251.54953509
 20
381.8262914658
 30
0.0
 11
250.0360205712
 21
381.8262914658
 31
0.0
  0
SPLINE
  5
23D
330
8B
100
AcDbEntity
  8
$DDT_AUDIT_GENERATED_(C8)
  6
Continuous
 62
     7
100
AcDbSpline
210
0.0
220
0.0
230
1.0
 70
    12
 71
     3
 72
     8
 73
     4
 74
     0
 42
0.0000000271091576
 43
0.0000000001
 40
0.0
 40
0.0
 40
0.0
 40
0.0
 40
1.0
 40
1.0
 40
1.0
 40
1.0
 10
252.1306160035076
 20
382.623588749836
 30
0.0
 41
1.0
 10
252.1306160035076
 20
382.758723953436
 30
0.0
 41
1.0
 10
252.1711566986966
 20
382.880345591976
 30
0.0
 41
1.0
 10
252.2387233319216
 20
382.9614266843261
 30
0.0
 41
1.0
  0
SPLINE
  5
23E
330
8B
100
AcDbEntity
  8
$DDT_AUDIT_GENERATED_(C8)
  6
Continuous
 62
     7
100
AcDbSpline
210
0.0
220
0.0
230
1.0
 70
    12
 71
     3
 72
     8
 73
     4
 74
     0
 42
0.000000035668147
 43
0.0000000001
 40
0.0
 40
0.0
 40
0.0
 40
0.0
 40
1.0
 40
1.0
 40
1.0
 40
1.0
 10
252.2387233319216
 20
382.9614266843261
 30
0.0
 41
1.0
 10
252.2927775921746
 20
383.042507627676
 30
0.0
 41
1.0
 10
252.3738589825556
 20
383.096561738916
 30
0.0
 41
1.0
 10
252.4549403729376
 20
383.123588720036
 30
0.0
 41
1.0
  0
SPLINE
  5
23F
330
8B
100
AcDbEntity
  8
$DDT_AUDIT_GENERATED_(C8)
  6
Continuous
 62
     7
100
AcDbSpline
210
0.0
220
0.0
230
1.0
 70
    12
 71
     3
 72
     8
 73
     4
 74
     0
 42
0.000000043109717
 43
0.0000000001
 40
0.0
 40
0.0
 40
0.0
 40
0.0
 40
1.0
 40
1.0
 40
1.0
 40
1.0
 10
252.4549403729376
 20
383.123588720036
 30
0.0
 41
1.0
 10
252.5360205712256
 20
383.137102285096
 30
0.0
 41
1.0
 10
252.6035883965436
 20
383.137102285096
 30
0.0
 41
1.0
 10
252.6844623277516
 20
383.122398015036
 30
0.0
 41
1.0
  0
SPLINE
  5
240
330
8B
100
AcDbEntity
  8
$DDT_AUDIT_GENERATED_(C8)
  6
Continuous
 62
     7
100
AcDbSpline
210
0.0
220
0.0
230
1.0
 70
    12
 71
     3
 72
     8
 73
     4
 74
     0
 42
0.0000000364693012
 43
0.0000000001
 40
0.0
 40
0.0
 40
0.0
 40
0.0
 40
1.0
 40
1.0
 40
1.0
 40
1.0
 10
252.6844623277516
 20
383.122398015036
 30
0.0
 41
1.0
 10
252.7522376122416
 20
383.110075303976
 30
0.0
 41
1.0
 10
252.8333178105306
 20
383.069534757806
 30
0.0
 41
1.0
 10
252.9143992009106
 20
382.9884536654461
 30
0.0
 41
1.0
  0
SPLINE
  5
241
330
8B
100
AcDbEntity
  8
$DDT_AUDIT_GENERATED_(C8)
  6
Continuous
 62
     7
100
AcDbSpline
210
0.0
220
0.0
230
1.0
 70
    12
 71
     3
 72
     8
 73
     4
 74
     0
 42
0.0000000249117592
 43
0.0000000001
 40
0.0
 40
0.0
 40
0.0
 40
0.0
 40
1.0
 40
1.0
 40
1.0
 40
1.0
 10
252.9143992009106
 20
382.9884536654461
 30
0.0
 41
1.0
 10
252.9954805912896
 20
382.907372573076
 30
0.0
 41
1.0
 10
253.0225077214186
 20
382.785750934556
 30
0.0
 41
1.0
 10
253.0225077214176
 20
382.623588749836
 30
0.0
 41
1.0
  0
SPLINE
  5
242
330
8B
100
AcDbEntity
  8
$DDT_AUDIT_GENERATED_(C8)
  6
Continuous
 62
     7
100
AcDbSpline
210
0.0
220
0.0
230
1.0
 70
    12
 71
     3
 72
     8
 73
     4
 74
     0
 42
0.0000000166924119
 43
0.0000000001
 40
0.0
 40
0.0
 40
0.0
 40
0.0
 40
1.0
 40
1.0
 40
1.0
 40
1.0
 10
253.0225077214176
 20
382.623588749836
 30
0.0
 41
1.0
 10
253.0225077214176
 20
382.4614265651161
 30
0.0
 41
1.0
 10
252.9279127659736
 20
382.299264380406
 30
0.0
 41
1.0
 10
252.7657511773036
 20
382.1100752145761
 30
0.0
 41
1.0
  0
SPLINE
  5
243
330
8B
100
AcDbEntity
  8
$DDT_AUDIT_GENERATED_(C8)
  6
Continuous
 62
     7
100
AcDbSpline
210
0.0
220
0.0
230
1.0
 70
    12
 71
     3
 72
     8
 73
     4
 74
     0
 42
0.0000000270810215
 43
0.0000000001
 40
0.0
 40
0.0
 40
0.0
 40
0.0
 40
1.0
 40
1.0
 40
1.0
 40
1.0
 10
252.7657511773036
 20
382.1100752145761
 30
0.0
 41
1.0
 10
252.8873720707826
 20
382.042507687276
 30
0.0
 41
1.0
 10
252.9819670262276
 20
381.961426594926
 30
0.0
 41
1.0
 10
253.0495348515456
 20
381.880345502566
 30
0.0
 41
1.0
  0
SPLINE
  5
244
330
8B
100
AcDbEntity
  8
$DDT_AUDIT_GENERATED_(C8)
  6
Continuous
 62
     7
100
AcDbSpline
210
0.0
220
0.0
230
1.0
 70
    12
 71
     3
 72
     8
 73
     4
 74
     0
 42
0.000000023490163
 43
0.0000000001
 40
0.0
 40
0.0
 40
0.0
 40
0.0
 40
1.0
 40
1.0
 40
1.0
 40
1.0
 10
253.0495348515456
 20
381.880345502566
 30
0.0
 41
1.0
 10
253.1035891117996
 20
381.785750919656
 30
0.0
 41
1.0
 10
253.1441286148966
 20
381.6506157905561
 30
0.0
 41
1.0
 10
253.1441286148966
 20
381.474940115286
 30
0.0
 41
1.0
  0
SPLINE
  5
245
330
8B
100
AcDbEntity
  8
$DDT_AUDIT_GENERATED_(C8)
  6
Continuous
 62
     7
100
AcDbSpline
210
0.0
220
0.0
230
1.0
 70
    12
 71
     3
 72
     8
 73
     4
 74
     0
 42
0.0000000171410305
 43
0.0000000001
 40
0.0
 40
0.0
 40
0.0
 40
0.0
 40
1.0
 40
1.0
 40
1.0
 40
1.0
 10
253.1441286148966
 20
381.474940115286
 30
0.0
 41
1.0
 10
253.1441286148976
 20
381.2992644400061
 30
0.0
 41
1.0
 10
253.0495348515456
 20
381.137102292546
 30
0.0
 41
1.0
 10
252.8873723383006
 20
380.988453343806
 30
0.0
 41
1.0
  0
SPLINE
  5
246
330
8B
100
AcDbEntity
  8
$DDT_AUDIT_GENERATED_(C8)
  6
Continuous
 62
     7
100
AcDbSpline
210
0.0
220
0.0
230
1.0
 70
    12
 71
     3
 72
     8
 73
     4
 74
     0
 42
0.0000000192900113
 43
0.0000000001
 40
0.0
 40
0.0
 40
0.0
 40
0.0
 40
1.0
 40
1.0
 40
1.0
 40
1.0
 10
252.8873723383006
 20
380.988453343806
 30
0.0
 41
1.0
 10
252.7252104821146
 20
380.839804997366
 30
0.0
 41
1.0
 10
252.5765612664156
 20
380.7722374235061
 30
0.0
 41
1.0
 10
252.4414268078746
 20
380.7722374235061
 30
0.0
 41
1.0
  0
SPLINE
  5
247
330
8B
100
AcDbEntity
  8
$DDT_AUDIT_GENERATED_(C8)
  6
Continuous
 62
     7
100
AcDbSpline
210
0.0
220
0.0
230
1.0
 70
    12
 71
     3
 72
     8
 73
     4
 74
     0
 42
0.0000000311984475
 43
0.0000000001
 40
0.0
 40
0.0
 40
0.0
 40
0.0
 40
1.0
 40
1.0
 40
1.0
 40
1.0
 10
252.4414268078746
 20
380.7722374235061
 30
0.0
 41
1.0
 10
252.3062911572386
 20
380.7722374234961
 30
0.0
 41
1.0
 10
252.1981826367306
 20
380.7857509419961
 30
0.0
 41
1.0
 10
252.1441292705436
 20
380.839804699346
 30
0.0
 41
1.0
  0
SPLINE
  5
248
330
8B
100
AcDbEntity
  8
$DDT_AUDIT_GENERATED_(C8)
  6
Continuous
 62
     7
100
AcDbSpline
210
0.0
220
0.0
230
1.0
 70
    12
 71
     3
 72
     8
 73
     4
 74
     0
 42
0.0000000557967554
 43
0.0000000001
 40
0.0
 40
0.0
 40
0.0
 40
0.0
 40
1.0
 40
1.0
 40
1.0
 40
1.0
 10
252.1441292705436
 20
380.839804699346
 30
0.0
 41
1.0
 10
252.0900753083166
 20
380.893859052736
 30
0.0
 41
1.0
 10
252.0630481781886
 20
380.9343995802861
 30
0.0
 41
1.0
 10
252.0630481781896
 20
380.9884536356461
 30
0.0
 41
1.0
  0
SPLINE
  5
249
330
8B
100
AcDbEntity
  8
$DDT_AUDIT_GENERATED_(C8)
  6
Continuous
 62
     7
100
AcDbSpline
210
0.0
220
0.0
230
1.0
 70
    12
 71
     3
 72
     8
 73
     4
 74
     0
 42
0.0000000823071655
 43
0.0000000001
 40
0.0
 40
0.0
 40
0.0
 40
0.0
 40
1.0
 40
1.0
 40
1.0
 40
1.0
 10
252.0630481781896
 20
380.9884536356461
 30
0.0
 41
1.0
 10
252.0630481781916
 20
381.028994181826
 30
0.0
 41
1.0
 10
252.0765617432556
 20
381.069534727996
 30
0.0
 41
1.0
 10
252.1035888733806
 20
381.096561746366
 30
0.0
 41
1.0
  0
SPLINE
  5
24A
330
8B
100
AcDbEntity
  8
$DDT_AUDIT_GENERATED_(C8)
  6
Continuous
 62
     7
100
AcDbSpline
210
0.0
220
0.0
230
1.0
 70
    12
 71
     3
 72
     8
 73
     4
 74
     0
 42
0.0000000917609735
 43
0.0000000001
 40
0.0
 40
0.0
 40
0.0
 40
0.0
 40
1.0
 40
1.0
 40
1.0
 40
1.0
 10
252.1035888733806
 20
381.096561746366
 30
0.0
 41
1.0
 10
252.1306160035076
 20
381.123588764736
 30
0.0
 41
1.0
 10
252.1576431336336
 20
381.137102292546
 30
0.0
 41
1.0
 10
252.1981826367316
 20
381.137102292546
 30
0.0
 41
1.0
  0
SPLINE
  5
24B
330
8B
100
AcDbEntity
  8
$DDT_AUDIT_GENERATED_(C8)
  6
Continuous
 62
     7
100
AcDbSpline
210
0.0
220
0.0
230
1.0
 70
    12
 71
     3
 72
     8
 73
     4
 74
     0
 42
0.000000077038528
 43
0.0000000001
 40
0.0
 40
0.0
 40
0.0
 40
0.0
 40
1.0
 40
1.0
 40
1.0
 40
1.0
 10
252.1981826367316
 20
381.137102292546
 30
0.0
 41
1.0
 10
252.2387233319216
 20
381.137102292546
 30
0.0
 41
1.0
 10
252.2792640271126
 20
381.137102292546
 30
0.0
 41
1.0
 10
252.3198047223026
 20
381.110075274176
 30
0.0
 41
1.0
  0
SPLINE
  5
24C
330
8B
100
AcDbEntity
  8
$DDT_AUDIT_GENERATED_(C8)
  6
Continuous
 62
     7
100
AcDbSpline
210
0.0
220
0.0
230
1.0
 70
    12
 71
     3
 72
     8
 73
     4
 74
     0
 42
0.0000000479143718
 43
0.0000000001
 40
0.0
 40
0.0
 40
0.0
 40
0.0
 40
1.0
 40
1.0
 40
1.0
 40
1.0
 10
252.3198047223026
 20
381.110075274176
 30
0.0
 41
1.0
 10
252.3468318524316
 20
381.083048218556
 30
0.0
 41
1.0
 10
252.3873725476206
 20
381.028994181826
 30
0.0
 41
1.0
 10
252.4279132428116
 20
380.934399580276
 30
0.0
 41
1.0
  0
SPLINE
  5
24D
330
8B
100
AcDbEntity
  8
$DDT_AUDIT_GENERATED_(C8)
  6
Continuous
 62
     7
100
AcDbSpline
210
0.0
220
0.0
230
1.0
 70
    12
 71
     3
 72
     8
 73
     4
 74
     0
 42
0.0000000208802009
 43
0.0000000001
 40
0.0
 40
0.0
 40
0.0
 40
0.0
 40
1.0
 40
1.0
 40
1.0
 40
1.0
 10
252.4279132428116
 20
380.934399580276
 30
0.0
 41
1.0
 10
252.6306155266716
 20
380.934399580276
 30
0.0
 41
1.0
 10
252.7657511773046
 20
380.974940126466
 30
0.0
 41
1.0
 10
252.8456646441346
 20
381.0839134991261
 30
0.0
 41
1.0
  0
SPLINE
  5
24E
330
8B
100
AcDbEntity
  8
$DDT_AUDIT_GENERATED_(C8)
  6
Continuous
 62
     7
100
AcDbSpline
210
0.0
220
0.0
230
1.0
 70
    12
 71
     3
 72
     8
 73
     4
 74
     0
 42
0.0000000254401077
 43
0.0000000001
 40
0.0
 40
0.0
 40
0.0
 40
0.0
 40
1.0
 40
1.0
 40
1.0
 40
1.0
 10
252.8456646441346
 20
381.0839134991261
 30
0.0
 41
1.0
 10
252.9143992009106
 20
381.177642838726
 30
0.0
 41
1.0
 10
252.9549398961006
 20
381.2992644400061
 30
0.0
 41
1.0
 10
252.9549398961006
 20
381.447913134166
 30
0.0
 41
1.0
  0
SPLINE
  5
24F
330
8B
100
AcDbEntity
  8
$DDT_AUDIT_GENERATED_(C8)
  6
Continuous
 62
     7
100
AcDbSpline
210
0.0
220
0.0
230
1.0
 70
    12
 71
     3
 72
     8
 73
     4
 74
     0
 42
0.0000000249104618
 43
0.0000000001
 40
0.0
 40
0.0
 40
0.0
 40
0.0
 40
1.0
 40
1.0
 40
1.0
 40
1.0
 10
252.9549398961006
 20
381.447913134166
 30
0.0
 41
1.0
 10
252.9549398961016
 20
381.5965617538261
 30
0.0
 41
1.0
 10
252.9143992009126
 20
381.7181833923661
 30
0.0
 41
1.0
 10
252.8298933727136
 20
381.809731696456
 30
0.0
 41
1.0
  0
SPLINE
  5
250
330
8B
100
AcDbEntity
  8
$DDT_AUDIT_GENERATED_(C8)
  6
Continuous
 62
     7
100
AcDbSpline
210
0.0
220
0.0
230
1.0
 70
    12
 71
     3
 72
     8
 73
     4
 74
     0
 42
0.0000000210166245
 43
0.0000000001
 40
0.0
 40
0.0
 40
0.0
 40
0.0
 40
1.0
 40
1.0
 40
1.0
 40
1.0
 10
252.8298933727136
 20
381.809731696456
 30
0.0
 41
1.0
 10
252.7522376122416
 20
381.8938590676261
 30
0.0
 41
1.0
 10
252.6035883965446
 20
381.947913029856
 30
0.0
 41
1.0
 10
252.4008861126836
 20
381.961426594926
 30
0.0
 41
1.0
  0
LINE
  5
251
330
8B
100
AcDbEntity
  8
$DDT_AUDIT_GENERATED_(C8)
  6
Continuous
 62
     7
100
AcDbLine
 10
252.4008861127
 20
381.9614265949
 30
0.0
 11
252.4008861127
 21
382.0425076873
 31
0.0
  0
SPLINE
  5
252
330
8B
100
AcDbEntity
  8
$DDT_AUDIT_GENERATED_(C8)
  6
Continuous
 62
     7
100
AcDbSpline
210
0.0
220
0.0
230
1.0
 70
    12
 71
     3
 72
     8
 73
     4
 74
     0
 42
0.0000000281948783
 43
0.0000000001
 40
0.0
 40
0.0
 40
0.0
 40
0.0
 40
1.0
 40
1.0
 40
1.0
 40
1.0
 10
252.4008861126836
 20
382.042507687276
 30
0.0
 41
1.0
 10
252.5089934410986
 20
382.042507687276
 30
0.0
 41
1.0
 10
252.6035883965436
 20
382.0830482334561
 30
0.0
 41
1.0
 10
252.7016041725146
 20
382.1880647502861
 30
0.0
 41
1.0
  0
SPLINE
  5
253
330
8B
100
AcDbEntity
  8
$DDT_AUDIT_GENERATED_(C8)
  6
Continuous
 62
     7
100
AcDbSpline
210
0.0
220
0.0
230
1.0
 70
    12
 71
     3
 72
     8
 73
     4
 74
     0
 42
0.0000000248848367
 43
0.0000000001
 40
0.0
 40
0.0
 40
0.0
 40
0.0
 40
1.0
 40
1.0
 40
1.0
 40
1.0
 10
252.7016041725146
 20
382.1880647502861
 30
0.0
 41
1.0
 10
252.7927783074306
 20
382.285750964356
 30
0.0
 41
1.0
 10
252.8468313755926
 20
382.407372602896
 30
0.0
 41
1.0
 10
252.8468313755926
 20
382.5425076574761
 30
0.0
 41
1.0
  0
SPLINE
  5
254
330
8B
100
AcDbEntity
  8
$DDT_AUDIT_GENERATED_(C8)
  6
Continuous
 62
     7
100
AcDbSpline
210
0.0
220
0.0
230
1.0
 70
    12
 71
     3
 72
     8
 73
     4
 74
     0
 42
0.0000000312457831
 43
0.0000000001
 40
0.0
 40
0.0
 40
0.0
 40
0.0
 40
1.0
 40
1.0
 40
1.0
 40
1.0
 10
252.8468313755926
 20
382.5425076574761
 30
0.0
 41
1.0
 10
252.8468313755926
 20
382.677642861076
 30
0.0
 41
1.0
 10
252.8198042454666
 20
382.772237369486
 30
0.0
 41
1.0
 10
252.7657507775146
 20
382.839804725966
 30
0.0
 41
1.0
  0
SPLINE
  5
255
330
8B
100
AcDbEntity
  8
$DDT_AUDIT_GENERATED_(C8)
  6
Continuous
 62
     7
100
AcDbSpline
210
0.0
220
0.0
230
1.0
 70
    12
 71
     3
 72
     8
 73
     4
 74
     0
 42
0.0000000384732832
 43
0.0000000001
 40
0.0
 40
0.0
 40
0.0
 40
0.0
 40
1.0
 40
1.0
 40
1.0
 40
1.0
 10
252.7657507775146
 20
382.839804725966
 30
0.0
 41
1.0
 10
252.7116969170506
 20
382.907372573086
 30
0.0
 41
1.0
 10
252.6441290917346
 20
382.947913119266
 30
0.0
 41
1.0
 10
252.5495341362896
 20
382.947913119266
 30
0.0
 41
1.0
  0
SPLINE
  5
256
330
8B
100
AcDbEntity
  8
$DDT_AUDIT_GENERATED_(C8)
  6
Continuous
 62
     7
100
AcDbSpline
210
0.0
220
0.0
230
1.0
 70
    12
 71
     3
 72
     8
 73
     4
 74
     0
 42
0.0000000402499062
 43
0.0000000001
 40
0.0
 40
0.0
 40
0.0
 40
0.0
 40
1.0
 40
1.0
 40
1.0
 40
1.0
 10
252.5495341362896
 20
382.947913119266
 30
0.0
 41
1.0
 10
252.4414268078766
 20
382.947913119266
 30
0.0
 41
1.0
 10
252.3738589825576
 20
382.920886138156
 30
0.0
 41
1.0
 10
252.3198047223046
 20
382.880345591976
 30
0.0
 41
1.0
  0
SPLINE
  5
257
330
8B
100
AcDbEntity
  8
$DDT_AUDIT_GENERATED_(C8)
  6
Continuous
 62
     7
100
AcDbSpline
210
0.0
220
0.0
230
1.0
 70
    12
 71
     3
 72
     8
 73
     4
 74
     0
 42
0.0000000349040569
 43
0.0000000001
 40
0.0
 40
0.0
 40
0.0
 40
0.0
 40
1.0
 40
1.0
 40
1.0
 40
1.0
 10
252.3198047223046
 20
382.880345591976
 30
0.0
 41
1.0
 10
252.2657504620496
 20
382.8262914807361
 30
0.0
 41
1.0
 10
252.2387233319226
 20
382.7452103883761
 30
0.0
 41
1.0
 10
252.2116962017956
 20
382.623588749836
 30
0.0
 41
1.0
  0
LINE
  5
258
330
8B
100
AcDbEntity
  8
$DDT_AUDIT_GENERATED_(C8)
  6
Continuous
 62
     7
100
AcDbLine
 10
252.2116962018
 20
382.6235887498
 30
0.0
 11
252.1306160035
 21
382.6235887498
 31
0.0
  0
SPLINE
  5
259
330
8B
100
AcDbEntity
  8
$DDT_AUDIT_GENERATED_(C8)
  6
Continuous
 62
     7
100
AcDbSpline
210
0.0
220
0.0
230
1.0
 70
    12
 71
     3
 72
     8
 73
     4
 74
     0
 42
0.0000000114953142
 43
0.0000000001
 40
0.0
 40
0.0
 40
0.0
 40
0.0
 40
1.0
 40
1.0
 40
1.0
 40
1.0
 10
254.7358776701356
 20
382.797666568236
 30
0.0
 41
1.0
 10
254.8468318524286
 20
382.596561768716
 30
0.0
 41
1.0
 10
254.9008861126836
 20
382.3127779454661
 30
0.0
 41
1.0
 10
254.9008861126836
 20
381.961426594926
 30
0.0
 41
1.0
  0
SPLINE
  5
25A
330
8B
100
AcDbEntity
  8
$DDT_AUDIT_GENERATED_(C8)
  6
Continuous
 62
     7
100
AcDbSpline
210
0.0
220
0.0
230
1.0
 70
    12
 71
     3
 72
     8
 73
     4
 74
     0
 42
0.0000000111948605
 43
0.0000000001
 40
0.0
 40
0.0
 40
0.0
 40
0.0
 40
1.0
 40
1.0
 40
1.0
 40
1.0
 10
254.9008861126836
 20
381.961426594926
 30
0.0
 41
1.0
 10
254.9008861126846
 20
381.5965617538261
 30
0.0
 41
1.0
 10
254.8603454174956
 20
381.3127779305661
 30
0.0
 41
1.0
 10
254.7522373812736
 20
381.096561504226
 30
0.0
 41
1.0
  0
SPLINE
  5
25B
330
8B
100
AcDbEntity
  8
$DDT_AUDIT_GENERATED_(C8)
  6
Continuous
 62
     7
100
AcDbSpline
210
0.0
220
0.0
230
1.0
 70
    12
 71
     3
 72
     8
 73
     4
 74
     0
 42
0.0000000166329572
 43
0.0000000001
 40
0.0
 40
0.0
 40
0.0
 40
0.0
 40
1.0
 40
1.0
 40
1.0
 40
1.0
 10
254.7522373812736
 20
381.096561504226
 30
0.0
 41
1.0
 10
254.6441295685706
 20
380.880345524916
 30
0.0
 41
1.0
 10
254.4954803528726
 20
380.7722374235061
 30
0.0
 41
1.0
 10
254.3198051991406
 20
380.7722374235061
 30
0.0
 41
1.0
  0
SPLINE
  5
25C
330
8B
100
AcDbEntity
  8
$DDT_AUDIT_GENERATED_(C8)
  6
Continuous
 62
     7
100
AcDbSpline
210
0.0
220
0.0
230
1.0
 70
    12
 71
     3
 72
     8
 73
     4
 74
     0
 42
0.0000000171017131
 43
0.0000000001
 40
0.0
 40
0.0
 40
0.0
 40
0.0
 40
1.0
 40
1.0
 40
1.0
 40
1.0
 10
254.3198051991406
 20
380.7722374235061
 30
0.0
 41
1.0
 10
254.1441288533156
 20
380.7722374235061
 30
0.0
 41
1.0
 10
254.0089943947736
 20
380.880345524916
 30
0.0
 41
1.0
 10
253.9088261889086
 20
381.0940368690261
 30
0.0
 41
1.0
  0
SPLINE
  5
25D
330
8B
100
AcDbEntity
  8
$DDT_AUDIT_GENERATED_(C8)
  6
Continuous
 62
     7
100
AcDbSpline
210
0.0
220
0.0
230
1.0
 70
    12
 71
     3
 72
     8
 73
     4
 74
     0
 42
0.0000000111968252
 43
0.0000000001
 40
0.0
 40
0.0
 40
0.0
 40
0.0
 40
1.0
 40
1.0
 40
1.0
 40
1.0
 10
253.9088261889086
 20
381.0940368690261
 30
0.0
 41
1.0
 10
253.8062909188196
 20
381.3127779305661
 30
0.0
 41
1.0
 10
253.7657502236306
 20
381.5965617538261
 30
0.0
 41
1.0
 10
253.7657502236306
 20
381.961426594926
 30
0.0
 41
1.0
  0
SPLINE
  5
25E
330
8B
100
AcDbEntity
  8
$DDT_AUDIT_GENERATED_(C8)
  6
Continuous
 62
     7
100
AcDbSpline
210
0.0
220
0.0
230
1.0
 70
    12
 71
     3
 72
     8
 73
     4
 74
     0
 42
0.000000011524106
 43
0.0000000001
 40
0.0
 40
0.0
 40
0.0
 40
0.0
 40
1.0
 40
1.0
 40
1.0
 40
1.0
 10
253.7657502236306
 20
381.961426594926
 30
0.0
 41
1.0
 10
253.7657502236306
 20
382.312777945476
 30
0.0
 41
1.0
 10
253.8062909188206
 20
382.596561768726
 30
0.0
 41
1.0
 10
253.9118344390036
 20
382.800611798536
 30
0.0
 41
1.0
  0
SPLINE
  5
25F
330
8B
100
AcDbEntity
  8
$DDT_AUDIT_GENERATED_(C8)
  6
Continuous
 62
     7
100
AcDbSpline
210
0.0
220
0.0
230
1.0
 70
    12
 71
     3
 72
     8
 73
     4
 74
     0
 42
0.0000000220501228
 43
0.0000000001
 40
0.0
 40
0.0
 40
0.0
 40
0.0
 40
1.0
 40
1.0
 40
1.0
 40
1.0
 10
253.9118344390036
 20
382.800611798536
 30
0.0
 41
1.0
 10
254.0089943947736
 20
382.9884536654461
 30
0.0
 41
1.0
 10
254.1035881581236
 20
383.096561738916
 30
0.0
 41
1.0
 10
254.1981831135686
 20
383.123588720036
 30
0.0
 41
1.0
  0
SPLINE
  5
260
330
8B
100
AcDbEntity
  8
$DDT_AUDIT_GENERATED_(C8)
  6
Continuous
 62
     7
100
AcDbSpline
210
0.0
220
0.0
230
1.0
 70
    12
 71
     3
 72
     8
 73
     4
 74
     0
 42
0.0000000386110258
 43
0.0000000001
 40
0.0
 40
0.0
 40
0.0
 40
0.0
 40
1.0
 40
1.0
 40
1.0
 40
1.0
 10
254.1981831135686
 20
383.123588720036
 30
0.0
 41
1.0
 10
254.2792645039496
 20
383.137102285096
 30
0.0
 41
1.0
 10
254.3738582673016
 20
383.137102285096
 30
0.0
 41
1.0
 10
254.4549396576826
 20
383.123588720036
 30
0.0
 41
1.0
  0
SPLINE
  5
261
330
8B
100
AcDbEntity
  8
$DDT_AUDIT_GENERATED_(C8)
  6
Continuous
 62
     7
100
AcDbSpline
210
0.0
220
0.0
230
1.0
 70
    12
 71
     3
 72
     8
 73
     4
 74
     0
 42
0.0000000223705377
 43
0.0000000001
 40
0.0
 40
0.0
 40
0.0
 40
0.0
 40
1.0
 40
1.0
 40
1.0
 40
1.0
 10
254.4549396576826
 20
383.123588720036
 30
0.0
 41
1.0
 10
254.5360210480626
 20
383.096561738916
 30
0.0
 41
1.0
 10
254.6306160035076
 20
382.9884536654461
 30
0.0
 41
1.0
 10
254.7358776701356
 20
382.797666568236
 30
0.0
 41
1.0
  0
SPLINE
  5
262
330
8B
100
AcDbEntity
  8
$DDT_AUDIT_GENERATED_(C8)
  6
Continuous
 62
     7
100
AcDbSpline
210
0.0
220
0.0
230
1.0
 70
    12
 71
     3
 72
     8
 73
     4
 74
     0
 42
0.0000000126117625
 43
0.0000000001
 40
0.0
 40
0.0
 40
0.0
 40
0.0
 40
1.0
 40
1.0
 40
1.0
 40
1.0
 10
254.0089943947736
 20
381.961426594926
 30
0.0
 41
1.0
 10
254.0089943947726
 20
381.596561753816
 30
0.0
 41
1.0
 10
254.0225079598356
 20
381.339804986196
 30
0.0
 41
1.0
 10
254.0765615588526
 20
381.177643015676
 30
0.0
 41
1.0
  0
SPLINE
  5
263
330
8B
100
AcDbEntity
  8
$DDT_AUDIT_GENERATED_(C8)
  6
Continuous
 62
     7
100
AcDbSpline
210
0.0
220
0.0
230
1.0
 70
    12
 71
     3
 72
     8
 73
     4
 74
     0
 42
0.0000000122144972
 43
0.0000000001
 40
0.0
 40
0.0
 40
0.0
 40
0.0
 40
1.0
 40
1.0
 40
1.0
 40
1.0
 10
254.0783991302916
 20
382.7716822906361
 30
0.0
 41
1.0
 10
254.0225079598366
 20
382.5830482036561
 30
0.0
 41
1.0
 10
254.0089943947736
 20
382.312777945476
 30
0.0
 41
1.0
 10
254.0089943947736
 20
381.961426594926
 30
0.0
 41
1.0
  0
SPLINE
  5
264
330
8B
100
AcDbEntity
  8
$DDT_AUDIT_GENERATED_(C8)
  6
Continuous
 62
     7
100
AcDbSpline
210
0.0
220
0.0
230
1.0
 70
    12
 71
     3
 72
     8
 73
     4
 74
     0
 42
0.000000024009553
 43
0.0000000001
 40
0.0
 40
0.0
 40
0.0
 40
0.0
 40
1.0
 40
1.0
 40
1.0
 40
1.0
 10
254.3198051991406
 20
383.042507627676
 30
0.0
 41
1.0
 10
254.2116966786336
 20
383.042507627676
 30
0.0
 41
1.0
 10
254.1306152882526
 20
382.947913119266
 30
0.0
 41
1.0
 10
254.0783991302916
 20
382.7716822906361
 30
0.0
 41
1.0
  0
SPLINE
  5
265
330
8B
100
AcDbEntity
  8
$DDT_AUDIT_GENERATED_(C8)
  6
Continuous
 62
     7
100
AcDbSpline
210
0.0
220
0.0
230
1.0
 70
    12
 71
     3
 72
     8
 73
     4
 74
     0
 42
0.0000000234924384
 43
0.0000000001
 40
0.0
 40
0.0
 40
0.0
 40
0.0
 40
1.0
 40
1.0
 40
1.0
 40
1.0
 10
254.5747186628016
 20
382.7717010351261
 30
0.0
 41
1.0
 10
254.5225074830006
 20
382.947913119266
 30
0.0
 41
1.0
 10
254.4279125275566
 20
383.042507627676
 30
0.0
 41
1.0
 10
254.3198051991406
 20
383.042507627676
 30
0.0
 41
1.0
  0
SPLINE
  5
266
330
8B
100
AcDbEntity
  8
$DDT_AUDIT_GENERATED_(C8)
  6
Continuous
 62
     7
100
AcDbSpline
210
0.0
220
0.0
230
1.0
 70
    12
 71
     3
 72
     8
 73
     4
 74
     0
 42
0.0000000121991481
 43
0.0000000001
 40
0.0
 40
0.0
 40
0.0
 40
0.0
 40
1.0
 40
1.0
 40
1.0
 40
1.0
 10
254.6576431336346
 20
381.961426594926
 30
0.0
 41
1.0
 10
254.6576431336336
 20
382.3127779454661
 30
0.0
 41
1.0
 10
254.6306160035076
 20
382.583048203646
 30
0.0
 41
1.0
 10
254.5747186628016
 20
382.7717010351261
 30
0.0
 41
1.0
  0
SPLINE
  5
267
330
8B
100
AcDbEntity
  8
$DDT_AUDIT_GENERATED_(C8)
  6
Continuous
 62
     7
100
AcDbSpline
210
0.0
220
0.0
230
1.0
 70
    12
 71
     3
 72
     8
 73
     4
 74
     0
 42
0.0000000125948684
 43
0.0000000001
 40
0.0
 40
0.0
 40
0.0
 40
0.0
 40
1.0
 40
1.0
 40
1.0
 40
1.0
 10
254.5765617488416
 20
381.1776428368661
 30
0.0
 41
1.0
 10
254.6306160035066
 20
381.339804986196
 30
0.0
 41
1.0
 10
254.6576431336346
 20
381.5965617538261
 30
0.0
 41
1.0
 10
254.6576431336346
 20
381.961426594926
 30
0.0
 41
1.0
  0
SPLINE
  5
268
330
8B
100
AcDbEntity
  8
$DDT_AUDIT_GENERATED_(C8)
  6
Continuous
 62
     7
100
AcDbSpline
210
0.0
220
0.0
230
1.0
 70
    12
 71
     3
 72
     8
 73
     4
 74
     0
 42
0.0000000304121542
 43
0.0000000001
 40
0.0
 40
0.0
 40
0.0
 40
0.0
 40
1.0
 40
1.0
 40
1.0
 40
1.0
 10
254.4143990854306
 20
380.9073723160461
 30
0.0
 41
1.0
 10
254.4684532227466
 20
380.9343995802861
 30
0.0
 41
1.0
 10
254.5225074830016
 20
381.015480654016
 30
0.0
 41
1.0
 10
254.5765617488416
 20
381.1776428368661
 30
0.0
 41
1.0
  0
SPLINE
  5
269
330
8B
100
AcDbEntity
  8
$DDT_AUDIT_GENERATED_(C8)
  6
Continuous
 62
     7
100
AcDbSpline
210
0.0
220
0.0
230
1.0
 70
    12
 71
     3
 72
     8
 73
     4
 74
     0
 42
0.000000053068507
 43
0.0000000001
 40
0.0
 40
0.0
 40
0.0
 40
0.0
 40
1.0
 40
1.0
 40
1.0
 40
1.0
 10
254.2387238087576
 20
380.907372561916
 30
0.0
 41
1.0
 10
254.2927780690136
 20
380.880345524926
 30
0.0
 41
1.0
 10
254.3603458943316
 20
380.880345524916
 30
0.0
 41
1.0
 10
254.4143990854306
 20
380.9073723160461
 30
0.0
 41
1.0
  0
SPLINE
  5
26A
330
8B
100
AcDbEntity
  8
$DDT_AUDIT_GENERATED_(C8)
  6
Continuous
 62
     7
100
AcDbSpline
210
0.0
220
0.0
230
1.0
 70
    12
 71
     3
 72
     8
 73
     4
 74
     0
 42
0.0000000304121542
 43
0.0000000001
 40
0.0
 40
0.0
 40
0.0
 40
0.0
 40
1.0
 40
1.0
 40
1.0
 40
1.0
 10
254.0765615588526
 20
381.177643015676
 30
0.0
 41
1.0
 10
254.1306152882506
 20
381.015480654016
 30
0.0
 41
1.0
 10
254.1846695485046
 20
380.9343995802861
 30
0.0
 41
1.0
 10
254.2387238087576
 20
380.907372561916
 30
0.0
 41
1.0
  0
LINE
  5
26B
330
8B
100
AcDbEntity
  8
$DDT_AUDIT_GENERATED_(C8)
  6
Continuous
 62
     7
100
AcDbLine
 10
244.2618751667
 20
400.5276428313
 30
0.0
 11
241.9669078467
 21
396.5526428313
 31
0.0
  0
LINE
  5
26C
330
8B
100
AcDbEntity
  8
$DDT_AUDIT_GENERATED_(C8)
  6
Continuous
 62
     7
100
AcDbLine
 10
241.9669078467
 20
396.5526428313
 30
0.0
 11
240.9276773621
 21
397.1526428313
 31
0.0
  0
LINE
  5
26D
330
8B
100
AcDbEntity
  8
$DDT_AUDIT_GENERATED_(C8)
  6
Continuous
 62
     7
100
AcDbLine
 10
240.9276773621
 20
397.1526428313
 30
0.0
 11
243.2226446822
 21
401.1276428313
 31
0.0
  0
ARC
  5
26E
330
8B
100
AcDbEntity
  8
$DDT_AUDIT_GENERATED_(C8)
  6
Continuous
 62
     7
100
AcDbCircle
 10
245.2145031109
 20
399.9776428313
 30
0.0
 40
2.299999999999819
100
AcDbArc
 50
30.0
 51
150.0
  0
LINE
  5
26F
330
8B
100
AcDbEntity
  8
$DDT_AUDIT_GENERATED_(C8)
  6
Continuous
 62
     7
100
AcDbLine
 10
247.2063615396
 20
401.1276428313
 30
0.0
 11
248.5920021856
 21
398.7276428313
 31
0.0
  0
LINE
  5
270
330
8B
100
AcDbEntity
  8
$DDT_AUDIT_GENERATED_(C8)
  6
Continuous
 62
     7
100
AcDbLine
 10
248.5920021856
 20
398.7276428313
 30
0.0
 11
249.7611364807
 21
399.4026428313
 31
0.0
  0
LINE
  5
271
330
8B
100
AcDbEntity
  8
$DDT_AUDIT_GENERATED_(C8)
  6
Continuous
 62
     7
100
AcDbLine
 10
249.7611364807
 20
399.4026428313
 30
0.0
 11
248.6353034558
 21
397.4526428313
 31
0.0
  0
LINE
  5
272
330
8B
100
AcDbEntity
  8
$DDT_AUDIT_GENERATED_(C8)
  6
Continuous
 62
     7
100
AcDbLine
 10
248.6353034558
 20
397.4526428313
 30
0.0
 11
246.383637406
 21
397.4526428313
 31
0.0
  0
LINE
  5
273
330
8B
100
AcDbEntity
  8
$DDT_AUDIT_GENERATED_(C8)
  6
Continuous
 62
     7
100
AcDbLine
 10
246.383637406
 20
397.4526428313
 30
0.0
 11
247.5527717011
 21
398.1276428313
 31
0.0
  0
LINE
  5
274
330
8B
100
AcDbEntity
  8
$DDT_AUDIT_GENERATED_(C8)
  6
Continuous
 62
     7
100
AcDbLine
 10
247.5527717011
 20
398.1276428313
 30
0.0
 11
246.167131055
 21
400.5276428313
 31
0.0
  0
ARC
  5
275
330
8B
100
AcDbEntity
  8
$DDT_AUDIT_GENERATED_(C8)
  6
Continuous
 62
     7
100
AcDbCircle
 10
245.2145031109
 20
399.9776428313
 30
0.0
 40
1.100000000000015
100
AcDbArc
 50
30.0
 51
150.0
  0
LINE
  5
276
330
8B
100
AcDbEntity
  8
$DDT_AUDIT_GENERATED_(C8)
  6
Continuous
 62
     7
100
AcDbLine
 10
240.6245684708
 20
390.9276428313
 30
0.0
 11
245.2145031109
 21
390.9276428313
 31
0.0
  0
LINE
  5
277
330
8B
100
AcDbEntity
  8
$DDT_AUDIT_GENERATED_(C8)
  6
Continuous
 62
     7
100
AcDbLine
 10
245.2145031109
 20
390.9276428313
 30
0.0
 11
245.2145031109
 21
389.7276428313
 31
0.0
  0
LINE
  5
278
330
8B
100
AcDbEntity
  8
$DDT_AUDIT_GENERATED_(C8)
  6
Continuous
 62
     7
100
AcDbLine
 10
245.2145031109
 20
389.7276428313
 30
0.0
 11
240.6245684708
 21
389.7276428313
 31
0.0
  0
ARC
  5
279
330
8B
100
AcDbEntity
  8
$DDT_AUDIT_GENERATED_(C8)
  6
Continuous
 62
     7
100
AcDbCircle
 10
240.6245684708
 20
392.0276428313
 30
0.0
 40
2.300000000000001
100
AcDbArc
 50
150.0
 51
270.0
  0
LINE
  5
27A
330
8B
100
AcDbEntity
  8
$DDT_AUDIT_GENERATED_(C8)
  6
Continuous
 62
     7
100
AcDbLine
 10
238.6327100421
 20
393.1776428313
 30
0.0
 11
240.0183506882
 21
395.5776428313
 31
0.0
  0
LINE
  5
27B
330
8B
100
AcDbEntity
  8
$DDT_AUDIT_GENERATED_(C8)
  6
Continuous
 62
     7
100
AcDbLine
 10
240.0183506882
 20
395.5776428313
 30
0.0
 11
238.8492163931
 21
396.2526428313
 31
0.0
  0
LINE
  5
27C
330
8B
100
AcDbEntity
  8
$DDT_AUDIT_GENERATED_(C8)
  6
Continuous
 62
     7
100
AcDbLine
 10
238.8492163931
 20
396.2526428313
 30
0.0
 11
241.1008824429
 21
396.2526428313
 31
0.0
  0
LINE
  5
27D
330
8B
100
AcDbEntity
  8
$DDT_AUDIT_GENERATED_(C8)
  6
Continuous
 62
     7
100
AcDbLine
 10
241.1008824429
 20
396.2526428313
 30
0.0
 11
242.2267154678
 21
394.3026428313
 31
0.0
  0
LINE
  5
27E
330
8B
100
AcDbEntity
  8
$DDT_AUDIT_GENERATED_(C8)
  6
Continuous
 62
     7
100
AcDbLine
 10
242.2267154678
 20
394.3026428313
 30
0.0
 11
241.0575811727
 21
394.9776428313
 31
0.0
  0
LINE
  5
27F
330
8B
100
AcDbEntity
  8
$DDT_AUDIT_GENERATED_(C8)
  6
Continuous
 62
     7
100
AcDbLine
 10
241.0575811727
 20
394.9776428313
 30
0.0
 11
239.6719405267
 21
392.5776428313
 31
0.0
  0
ARC
  5
280
330
8B
100
AcDbEntity
  8
$DDT_AUDIT_GENERATED_(C8)
  6
Continuous
 62
     7
100
AcDbCircle
 10
240.6245684708
 20
392.0276428313
 30
0.0
 40
1.099999999999602
100
AcDbArc
 50
150.0
 51
270.0
  0
LINE
  5
281
330
8B
100
AcDbEntity
  8
$DDT_AUDIT_GENERATED_(C8)
  6
Continuous
 62
     7
100
AcDbLine
 10
250.7570656951
 20
392.5776428313
 30
0.0
 11
248.4620983751
 21
396.5526428313
 31
0.0
  0
LINE
  5
282
330
8B
100
AcDbEntity
  8
$DDT_AUDIT_GENERATED_(C8)
  6
Continuous
 62
     7
100
AcDbLine
 10
248.4620983751
 20
396.5526428313
 30
0.0
 11
249.5013288596
 21
397.1526428313
 31
0.0
  0
LINE
  5
283
330
8B
100
AcDbEntity
  8
$DDT_AUDIT_GENERATED_(C8)
  6
Continuous
 62
     7
100
AcDbLine
 10
249.5013288596
 20
397.1526428313
 30
0.0
 11
251.7962961796
 21
393.1776428313
 31
0.0
  0
ARC
  5
284
330
8B
100
AcDbEntity
  8
$DDT_AUDIT_GENERATED_(C8)
  6
Continuous
 62
     7
100
AcDbCircle
 10
249.8044377509
 20
392.0276428313
 30
0.0
 40
2.299999999999819
100
AcDbArc
 50
270.0
 51
30.0
  0
LINE
  5
285
330
8B
100
AcDbEntity
  8
$DDT_AUDIT_GENERATED_(C8)
  6
Continuous
 62
     7
100
AcDbLine
 10
249.8044377509
 20
389.7276428313
 30
0.0
 11
247.0331564588
 21
389.7276428313
 31
0.0
  0
LINE
  5
286
330
8B
100
AcDbEntity
  8
$DDT_AUDIT_GENERATED_(C8)
  6
Continuous
 62
     7
100
AcDbLine
 10
247.0331564588
 20
389.7276428313
 30
0.0
 11
247.0331564588
 21
388.3776428313
 31
0.0
  0
LINE
  5
287
330
8B
100
AcDbEntity
  8
$DDT_AUDIT_GENERATED_(C8)
  6
Continuous
 62
     7
100
AcDbLine
 10
247.0331564588
 20
388.3776428313
 30
0.0
 11
245.9073234339
 21
390.3276428313
 31
0.0
  0
LINE
  5
288
330
8B
100
AcDbEntity
  8
$DDT_AUDIT_GENERATED_(C8)
  6
Continuous
 62
     7
100
AcDbLine
 10
245.9073234339
 20
390.3276428313
 30
0.0
 11
247.0331564588
 21
392.2776428313
 31
0.0
  0
LINE
  5
289
330
8B
100
AcDbEntity
  8
$DDT_AUDIT_GENERATED_(C8)
  6
Continuous
 62
     7
100
AcDbLine
 10
247.0331564588
 20
392.2776428313
 30
0.0
 11
247.0331564588
 21
390.9276428313
 31
0.0
  0
LINE
  5
28A
330
8B
100
AcDbEntity
  8
$DDT_AUDIT_GENERATED_(C8)
  6
Continuous
 62
     7
100
AcDbLine
 10
247.0331564588
 20
390.9276428313
 30
0.0
 11
249.8044377509
 21
390.9276428313
 31
0.0
  0
ARC
  5
28B
330
8B
100
AcDbEntity
  8
$DDT_AUDIT_GENERATED_(C8)
  6
Continuous
 62
     7
100
AcDbCircle
 10
249.8044377509
 20
392.0276428313
 30
0.0
 40
1.1
100
AcDbArc
 50
270.0
 51
30.0
  0
ARC
  5
28C
330
8B
100
AcDbEntity
  8
$DDT_AUDIT_GENERATED_(C8)
  6
Continuous
 62
     7
100
AcDbCircle
 10
245.2145031109
 20
394.6776428313
 30
0.0
 40
36.30473038957
100
AcDbArc
 50
319.1429001974
 51
322.9511253407
  0
ARC
  5
28D
330
8B
100
AcDbEntity
  8
$DDT_AUDIT_GENERATED_(C8)
  6
Continuous
 62
     7
100
AcDbCircle
 10
245.2145031109
 20
394.6776428313
 30
0.0
 40
36.30473038957003
100
AcDbArc
 50
358.5191666788
 51
1.4807123766
  0
LINE
  5
28E
330
8B
100
AcDbEntity
  8
$DDT_AUDIT_GENERATED_(C8)
  6
Continuous
 62
     7
100
AcDbLine
 10
274.1904640959
 20
416.5513727845
 30
0.0
 11
274.622437616
 21
416.1418669832
 31
0.0
  0
ARC
  5
28F
330
8B
100
AcDbEntity
  8
$DDT_AUDIT_GENERATED_(C8)
  6
Continuous
 62
     7
100
AcDbCircle
 10
245.2145031109
 20
394.6776428313
 30
0.0
 40
36.30473038956999
100
AcDbArc
 50
37.0488344569
 51
40.8570600606
  0
ARC
  5
290
330
8B
100
AcDbEntity
  8
$DDT_AUDIT_GENERATED_(C8)
  6
Continuous
 62
     7
100
AcDbCircle
 10
290.6097545082
 20
370.7321488839
 30
0.0
 40
0.3000184152196274
100
AcDbArc
 50
359.9334976044
 51
89.9354896933
  0
LINE
  5
291
330
8B
100
AcDbEntity
  8
$DDT_AUDIT_GENERATED_(C8)
  6
Continuous
 62
     7
100
AcDbLine
 10
272.9008114281
 20
371.0321924878
 30
0.0
 11
290.610092304
 21
371.0321671089
 31
0.0
  0
ARC
  5
292
330
8B
100
AcDbEntity
  8
$DDT_AUDIT_GENERATED_(C8)
  6
Continuous
 62
     7
100
AcDbCircle
 10
272.664566641
 20
370.2944975946
 30
0.0
 40
0.3026796240953805
100
AcDbArc
 50
90.1180451868
 51
137.9879792356
  0
ARC
  5
293
330
8B
100
AcDbEntity
  8
$DDT_AUDIT_GENERATED_(C8)
  6
Continuous
 62
     7
100
AcDbCircle
 10
272.9013563358
 20
370.7306081457
 30
0.0
 40
0.3015848343980482
100
AcDbArc
 50
90.1035228774
 51
139.1152770718
  0
LINE
  5
294
330
8B
100
AcDbEntity
  8
$DDT_AUDIT_GENERATED_(C8)
  6
Continuous
 62
     7
100
AcDbLine
 10
290.9097727213
 20
370.7318006568
 30
0.0
 11
290.9097727213
 21
372.6234850057
 31
0.0
  0
ARC
  5
295
330
8B
100
AcDbEntity
  8
$DDT_AUDIT_GENERATED_(C8)
  6
Continuous
 62
     7
100
AcDbCircle
 10
290.609754841
 20
372.6231364467
 30
0.0
 40
0.3000180828334355
100
AcDbArc
 50
270.0644468157
 51
0.066565879
  0
LINE
  5
296
330
8B
100
AcDbEntity
  8
$DDT_AUDIT_GENERATED_(C8)
  6
Continuous
 62
     7
100
AcDbLine
 10
274.4283202917
 20
372.3231186871
 30
0.0
 11
290.610092304
 21
372.3231185536
 31
0.0
  0
ARC
  5
297
330
8B
100
AcDbEntity
  8
$DDT_AUDIT_GENERATED_(C8)
  6
Continuous
 62
     7
100
AcDbCircle
 10
274.4291166277
 20
372.622950614
 30
0.0
 40
0.2998058198641586
100
AcDbArc
 50
142.8283572537
 51
269.847812342
  0
ARC
  5
298
330
8B
100
AcDbEntity
  8
$DDT_AUDIT_GENERATED_(C8)
  6
Continuous
 62
     7
100
AcDbCircle
 10
274.8859410746
 20
373.0587005947
 30
0.0
 40
0.2989847396107625
100
AcDbArc
 50
144.0945234419
 51
207.0647177918
  0
LINE
  5
299
330
8B
100
AcDbEntity
  8
$DDT_AUDIT_GENERATED_(C8)
  6
Continuous
 62
     7
100
AcDbLine
 10
274.8873724664
 20
373.0592564361
 30
0.0
 11
290.5015056311
 21
373.0573973573
 31
0.0
  0
LINE
  5
29A
330
8B
100
AcDbEntity
  8
$DDT_AUDIT_GENERATED_(C8)
  6
Continuous
 62
     7
100
AcDbLine
 10
290.9097727213
 20
416.7318006568
 30
0.0
 11
290.9097727213
 21
418.6234850057
 31
0.0
  0
LINE
  5
29B
330
8B
100
AcDbEntity
  8
$DDT_AUDIT_GENERATED_(C8)
  6
Continuous
 62
     7
100
AcDbLine
 10
290.9097727213
 20
393.7318006568
 30
0.0
 11
290.9097727213
 21
395.6234850057
 31
0.0
  0
ARC
  5
29C
330
8B
100
AcDbEntity
  8
$DDT_AUDIT_GENERATED_(C8)
  6
Continuous
 62
     7
100
AcDbCircle
 10
290.6097545082
 20
393.7321488839
 30
0.0
 40
0.3000184152125474
100
AcDbArc
 50
359.9334976036
 51
89.9354896928
  0
LINE
  5
29D
330
8B
100
AcDbEntity
  8
$DDT_AUDIT_GENERATED_(C8)
  6
Continuous
 62
     7
100
AcDbLine
 10
281.8066828851
 20
394.0321762561
 30
0.0
 11
290.610092304
 21
394.0321671089
 31
0.0
  0
ARC
  5
29E
330
8B
100
AcDbEntity
  8
$DDT_AUDIT_GENERATED_(C8)
  6
Continuous
 62
     7
100
AcDbCircle
 10
281.9016082135
 20
393.297156882
 30
0.0
 40
0.3000074543085866
100
AcDbArc
 50
90.008377518
 51
177.7069231369
  0
ARC
  5
29F
330
8B
100
AcDbEntity
  8
$DDT_AUDIT_GENERATED_(C8)
  6
Continuous
 62
     7
100
AcDbCircle
 10
281.8072632515
 20
393.7319283342
 30
0.0
 40
0.3002484827944795
100
AcDbArc
 50
90.1107501417
 51
178.5671042832
  0
ARC
  5
2A0
330
8B
100
AcDbEntity
  8
$DDT_AUDIT_GENERATED_(C8)
  6
Continuous
 62
     7
100
AcDbCircle
 10
290.609754841
 20
395.6231364467
 30
0.0
 40
0.3000180828144336
100
AcDbArc
 50
270.0644468254
 51
0.0665658793
  0
LINE
  5
2A1
330
8B
100
AcDbEntity
  8
$DDT_AUDIT_GENERATED_(C8)
  6
Continuous
 62
     7
100
AcDbLine
 10
281.8066828925
 20
395.3231094424
 30
0.0
 11
290.610092304
 21
395.3231185536
 31
0.0
  0
ARC
  5
2A2
330
8B
100
AcDbEntity
  8
$DDT_AUDIT_GENERATED_(C8)
  6
Continuous
 62
     7
100
AcDbCircle
 10
281.8072539002
 20
395.6232942361
 30
0.0
 40
0.3001853367666517
100
AcDbArc
 50
181.4355206732
 51
269.8910128256
  0
ARC
  5
2A3
330
8B
100
AcDbEntity
  8
$DDT_AUDIT_GENERATED_(C8)
  6
Continuous
 62
     7
100
AcDbCircle
 10
281.9014555843
 20
396.0580645384
 30
0.0
 40
0.2998714469285859
100
AcDbArc
 50
182.2819759495
 51
258.0624704929
  0
LINE
  5
2A4
330
8B
100
AcDbEntity
  8
$DDT_AUDIT_GENERATED_(C8)
  6
Continuous
 62
     7
100
AcDbLine
 10
290.5015056203
 20
416.2978883054
 30
0.0
 11
274.8861910291
 21
416.2960610904
 31
0.0
  0
ARC
  5
2A5
330
8B
100
AcDbEntity
  8
$DDT_AUDIT_GENERATED_(C8)
  6
Continuous
 62
     7
100
AcDbCircle
 10
290.6097545082
 20
416.7321488839
 30
0.0
 40
0.3000184152337008
100
AcDbArc
 50
359.9334976051
 51
89.9354897021
  0
LINE
  5
2A6
330
8B
100
AcDbEntity
  8
$DDT_AUDIT_GENERATED_(C8)
  6
Continuous
 62
     7
100
AcDbLine
 10
274.4283202917
 20
417.0321398108
 30
0.0
 11
290.610092304
 21
417.0321671089
 31
0.0
  0
ARC
  5
2A7
330
8B
100
AcDbEntity
  8
$DDT_AUDIT_GENERATED_(C8)
  6
Continuous
 62
     7
100
AcDbCircle
 10
274.8846686328
 20
416.2962609482
 30
0.0
 40
0.297691327500394
100
AcDbArc
 50
152.7678954941
 51
215.9948430264
  0
ARC
  5
2A8
330
8B
100
AcDbEntity
  8
$DDT_AUDIT_GENERATED_(C8)
  6
Continuous
 62
     7
100
AcDbCircle
 10
274.4291692074
 20
416.7322147125
 30
0.0
 40
0.2999262997072526
100
AcDbArc
 50
90.1621710168
 51
217.1520606205
  0
ARC
  5
2A9
330
8B
100
AcDbEntity
  8
$DDT_AUDIT_GENERATED_(C8)
  6
Continuous
 62
     7
100
AcDbCircle
 10
290.609754841
 20
418.6231364467
 30
0.0
 40
0.300018082817748
100
AcDbArc
 50
270.0644468242
 51
0.0665658801
  0
LINE
  5
2AA
330
8B
100
AcDbEntity
  8
$DDT_AUDIT_GENERATED_(C8)
  6
Continuous
 62
     7
100
AcDbLine
 10
272.9007994278
 20
418.3231185536
 30
0.0
 11
290.610092304
 21
418.3231185536
 31
0.0
  0
ARC
  5
2AB
330
8B
100
AcDbEntity
  8
$DDT_AUDIT_GENERATED_(C8)
  6
Continuous
 62
     7
100
AcDbCircle
 10
272.9012903952
 20
418.6243847528
 30
0.0
 40
0.3012919728358465
100
AcDbArc
 50
220.8556330306
 51
269.906634177
  0
ARC
  5
2AC
330
8B
100
AcDbEntity
  8
$DDT_AUDIT_GENERATED_(C8)
  6
Continuous
 62
     7
100
AcDbCircle
 10
272.6645666836
 20
419.0607881492
 30
0.0
 40
0.3026797048894145
100
AcDbArc
 50
222.0120225689
 51
269.8819505439
  0
ARC
  5
2AD
330
8B
100
AcDbEntity
  8
$DDT_AUDIT_GENERATED_(C8)
  6
Continuous
 62
     7
100
AcDbCircle
 10
289.4507771184
 20
437.3651904275
 30
0.0
 40
0.3002527935692337
100
AcDbArc
 50
34.5283863113
 51
134.9580304779
  0
LINE
  5
2AE
330
8B
100
AcDbEntity
  8
$DDT_AUDIT_GENERATED_(C8)
  6
Continuous
 62
     7
100
AcDbLine
 10
289.6984804263
 20
437.5356121981
 30
0.0
 11
289.7178313986
 21
437.8735884265
 31
0.0
  0
LINE
  5
2AF
330
8B
100
AcDbEntity
  8
$DDT_AUDIT_GENERATED_(C8)
  6
Continuous
 62
     7
100
AcDbLine
 10
289.2651826263
 20
437.9054747136
 30
0.0
 11
289.2386375626
 21
437.5776410829
 31
0.0
  0
LINE
  5
2B0
330
8B
100
AcDbEntity
  8
$DDT_AUDIT_GENERATED_(C8)
  6
Continuous
 62
     7
100
AcDbLine
 10
271.7250130661
 20
420.064060819
 30
0.0
 11
289.2386219079
 21
437.577656676
 31
0.0
  0
ARC
  5
2B1
330
8B
100
AcDbEntity
  8
$DDT_AUDIT_GENERATED_(C8)
  6
Continuous
 62
     7
100
AcDbCircle
 10
271.9372537145
 20
419.8519737362
 30
0.0
 40
0.3000506636209206
100
AcDbArc
 50
135.0207351602
 51
223.2747943271
  0
LINE
  5
2B2
330
8B
100
AcDbEntity
  8
$DDT_AUDIT_GENERATED_(C8)
  6
Continuous
 62
     7
100
AcDbLine
 10
289.7178313963
 20
351.4816972316
 30
0.0
 11
289.6984804289
 21
351.8196734764
 31
0.0
  0
ARC
  5
2B3
330
8B
100
AcDbEntity
  8
$DDT_AUDIT_GENERATED_(C8)
  6
Continuous
 62
     7
100
AcDbCircle
 10
289.4507800083
 20
351.9900638264
 30
0.0
 40
0.3002326066851445
100
AcDbArc
 50
225.0373431608
 51
325.4762413408
  0
LINE
  5
2B4
330
8B
100
AcDbEntity
  8
$DDT_AUDIT_GENERATED_(C8)
  6
Continuous
 62
     7
100
AcDbLine
 10
289.2386219079
 20
351.7776289927
 30
0.0
 11
271.7250130695
 21
369.2912248426
 31
0.0
  0
ARC
  5
2B5
330
8B
100
AcDbEntity
  8
$DDT_AUDIT_GENERATED_(C8)
  6
Continuous
 62
     7
100
AcDbCircle
 10
271.9372798689
 20
369.5033228629
 30
0.0
 40
0.3000768913947541
100
AcDbArc
 50
136.7301496642
 51
224.9772126516
  0
ARC
  5
2B6
330
8B
100
AcDbEntity
  8
$DDT_AUDIT_GENERATED_(C8)
  6
Continuous
 62
     7
100
AcDbCircle
 10
245.2145031109
 20
394.6776428313
 30
0.0
 40
36.30473038957001
100
AcDbArc
 50
49.1428471526
 51
52.9511253407
  0
ARC
  5
2B7
330
8B
100
AcDbEntity
  8
$DDT_AUDIT_GENERATED_(C8)
  6
Continuous
 62
     7
100
AcDbCircle
 10
245.2145031109
 20
394.6776428313
 30
0.0
 40
36.30473038957
100
AcDbArc
 50
88.5191627895
 51
91.4807136721
  0
LINE
  5
2B8
330
8B
100
AcDbEntity
  8
$DDT_AUDIT_GENERATED_(C8)
  6
Continuous
 62
     7
100
AcDbLine
 10
223.3407731577
 20
423.6536038163
 30
0.0
 11
223.7502789583
 21
424.0855773355
 31
0.0
  0
ARC
  5
2B9
330
8B
100
AcDbEntity
  8
$DDT_AUDIT_GENERATED_(C8)
  6
Continuous
 62
     7
100
AcDbCircle
 10
245.2145031109
 20
394.6776428313
 30
0.0
 40
36.30473038956999
100
AcDbArc
 50
127.0488344569
 51
130.857060035
  0
ARC
  5
2BA
330
8B
100
AcDbEntity
  8
$DDT_AUDIT_GENERATED_(C8)
  6
Continuous
 62
     7
100
AcDbCircle
 10
269.1599970583
 20
440.0728942286
 30
0.0
 40
0.3000184152196378
100
AcDbArc
 50
89.9334976043
 51
179.9354896933
  0
LINE
  5
2BB
330
8B
100
AcDbEntity
  8
$DDT_AUDIT_GENERATED_(C8)
  6
Continuous
 62
     7
100
AcDbLine
 10
268.8599534628
 20
422.363963117
 30
0.0
 11
268.8599788332
 21
440.0732320244
 31
0.0
  0
ARC
  5
2BC
330
8B
100
AcDbEntity
  8
$DDT_AUDIT_GENERATED_(C8)
  6
Continuous
 62
     7
100
AcDbCircle
 10
269.5976484058
 20
422.1277063932
 30
0.0
 40
0.3026796814955007
100
AcDbArc
 50
180.1180506458
 51
227.9879793086
  0
ARC
  5
2BD
330
8B
100
AcDbEntity
  8
$DDT_AUDIT_GENERATED_(C8)
  6
Continuous
 62
     7
100
AcDbCircle
 10
269.1615377954
 20
422.3644960352
 30
0.0
 40
0.3015848035059661
100
AcDbArc
 50
180.1012450845
 51
229.1216601337
  0
LINE
  5
2BE
330
8B
100
AcDbEntity
  8
$DDT_AUDIT_GENERATED_(C8)
  6
Continuous
 62
     7
100
AcDbLine
 10
269.1603452853
 20
440.3729124417
 30
0.0
 11
267.2686609364
 21
440.3729124417
 31
0.0
  0
ARC
  5
2BF
330
8B
100
AcDbEntity
  8
$DDT_AUDIT_GENERATED_(C8)
  6
Continuous
 62
     7
100
AcDbCircle
 10
267.2690094955
 20
440.0728945613
 30
0.0
 40
0.3000180828334355
100
AcDbArc
 50
0.0644468157
 51
90.066565879
  0
LINE
  5
2C0
330
8B
100
AcDbEntity
  8
$DDT_AUDIT_GENERATED_(C8)
  6
Continuous
 62
     7
100
AcDbLine
 10
267.5690272551
 20
423.8914600121
 30
0.0
 11
267.5690273885
 21
440.0732320244
 31
0.0
  0
ARC
  5
2C1
330
8B
100
AcDbEntity
  8
$DDT_AUDIT_GENERATED_(C8)
  6
Continuous
 62
     7
100
AcDbCircle
 10
267.2691953282
 20
423.8922563481
 30
0.0
 40
0.2998058198641581
100
AcDbArc
 50
232.8283572537
 51
359.8478123419
  0
ARC
  5
2C2
330
8B
100
AcDbEntity
  8
$DDT_AUDIT_GENERATED_(C8)
  6
Continuous
 62
     7
100
AcDbCircle
 10
266.833445348
 20
424.3490807924
 30
0.0
 40
0.2989847370276365
100
AcDbArc
 50
234.0945222493
 51
297.0647179315
  0
LINE
  5
2C3
330
8B
100
AcDbEntity
  8
$DDT_AUDIT_GENERATED_(C8)
  6
Continuous
 62
     7
100
AcDbLine
 10
266.832889868
 20
424.3505134051
 30
0.0
 11
266.8347485848
 21
439.9646453515
 31
0.0
  0
LINE
  5
2C4
330
8B
100
AcDbEntity
  8
$DDT_AUDIT_GENERATED_(C8)
  6
Continuous
 62
     7
100
AcDbLine
 10
223.1603452853
 20
440.3729124417
 30
0.0
 11
221.2686609364
 21
440.3729124417
 31
0.0
  0
LINE
  5
2C5
330
8B
100
AcDbEntity
  8
$DDT_AUDIT_GENERATED_(C8)
  6
Continuous
 62
     7
100
AcDbLine
 10
246.1603452853
 20
440.3729124417
 30
0.0
 11
244.2686609364
 21
440.3729124417
 31
0.0
  0
ARC
  5
2C6
330
8B
100
AcDbEntity
  8
$DDT_AUDIT_GENERATED_(C8)
  6
Continuous
 62
     7
100
AcDbCircle
 10
246.1599970583
 20
440.0728942286
 30
0.0
 40
0.3000184152125489
100
AcDbArc
 50
89.9334976036
 51
179.9354896928
  0
LINE
  5
2C7
330
8B
100
AcDbEntity
  8
$DDT_AUDIT_GENERATED_(C8)
  6
Continuous
 62
     7
100
AcDbLine
 10
245.8599696861
 20
431.2698226088
 30
0.0
 11
245.8599788332
 21
440.0732320244
 31
0.0
  0
ARC
  5
2C8
330
8B
100
AcDbEntity
  8
$DDT_AUDIT_GENERATED_(C8)
  6
Continuous
 62
     7
100
AcDbCircle
 10
246.5949836679
 20
431.3647359335
 30
0.0
 40
0.2999952471754206
100
AcDbArc
 50
180.0060875792
 51
267.7078605947
  0
ARC
  5
2C9
330
8B
100
AcDbEntity
  8
$DDT_AUDIT_GENERATED_(C8)
  6
Continuous
 62
     7
100
AcDbCircle
 10
246.1602176144
 20
431.2704029761
 30
0.0
 40
0.3002484892568387
100
AcDbArc
 50
180.1107503124
 51
268.5675733477
  0
ARC
  5
2CA
330
8B
100
AcDbEntity
  8
$DDT_AUDIT_GENERATED_(C8)
  6
Continuous
 62
     7
100
AcDbCircle
 10
244.2690094955
 20
440.0728945614
 30
0.0
 40
0.3000180828144336
100
AcDbArc
 50
0.0644468254
 51
90.0665658793
  0
LINE
  5
2CB
330
8B
100
AcDbEntity
  8
$DDT_AUDIT_GENERATED_(C8)
  6
Continuous
 62
     7
100
AcDbLine
 10
244.5690364997
 20
431.2698226169
 30
0.0
 11
244.5690273885
 21
440.0732320244
 31
0.0
  0
ARC
  5
2CC
330
8B
100
AcDbEntity
  8
$DDT_AUDIT_GENERATED_(C8)
  6
Continuous
 62
     7
100
AcDbCircle
 10
244.2688514169
 20
431.2703937407
 30
0.0
 40
0.3001856261752351
100
AcDbArc
 50
271.4354186285
 51
359.890990765
  0
ARC
  5
2CD
330
8B
100
AcDbEntity
  8
$DDT_AUDIT_GENERATED_(C8)
  6
Continuous
 62
     7
100
AcDbCircle
 10
243.8340814025
 20
431.3645953054
 30
0.0
 40
0.2998714483519027
100
AcDbArc
 50
272.2819766506
 51
348.0624684361
  0
LINE
  5
2CE
330
8B
100
AcDbEntity
  8
$DDT_AUDIT_GENERATED_(C8)
  6
Continuous
 62
     7
100
AcDbLine
 10
223.5942576368
 20
439.9646453407
 30
0.0
 11
223.5960851465
 21
424.3493283185
 31
0.0
  0
ARC
  5
2CF
330
8B
100
AcDbEntity
  8
$DDT_AUDIT_GENERATED_(C8)
  6
Continuous
 62
     7
100
AcDbCircle
 10
223.1599970583
 20
440.0728942286
 30
0.0
 40
0.3000184152337028
100
AcDbArc
 50
89.9334976051
 51
179.9354897021
  0
LINE
  5
2D0
330
8B
100
AcDbEntity
  8
$DDT_AUDIT_GENERATED_(C8)
  6
Continuous
 62
     7
100
AcDbLine
 10
222.8600061314
 20
423.8914600121
 30
0.0
 11
222.8599788332
 21
440.0732320244
 31
0.0
  0
ARC
  5
2D1
330
8B
100
AcDbEntity
  8
$DDT_AUDIT_GENERATED_(C8)
  6
Continuous
 62
     7
100
AcDbCircle
 10
223.5958849942
 20
424.3478083543
 30
0.0
 40
0.2976913285434946
100
AcDbArc
 50
242.767895551
 51
305.9948427058
  0
ARC
  5
2D2
330
8B
100
AcDbEntity
  8
$DDT_AUDIT_GENERATED_(C8)
  6
Continuous
 62
     7
100
AcDbCircle
 10
223.1599312297
 20
423.8923089278
 30
0.0
 40
0.2999262997071844
100
AcDbArc
 50
180.1621710168
 51
307.1520606205
  0
ARC
  5
2D3
330
8B
100
AcDbEntity
  8
$DDT_AUDIT_GENERATED_(C8)
  6
Continuous
 62
     7
100
AcDbCircle
 10
221.2690094955
 20
440.0728945614
 30
0.0
 40
0.300018082817748
100
AcDbArc
 50
0.0644468242
 51
90.0665658801
  0
LINE
  5
2D4
330
8B
100
AcDbEntity
  8
$DDT_AUDIT_GENERATED_(C8)
  6
Continuous
 62
     7
100
AcDbLine
 10
221.5690273886
 20
422.3639391315
 30
0.0
 11
221.5690273885
 21
440.0732320244
 31
0.0
  0
ARC
  5
2D5
330
8B
100
AcDbEntity
  8
$DDT_AUDIT_GENERATED_(C8)
  6
Continuous
 62
     7
100
AcDbCircle
 10
221.2677611882
 20
422.3644301159
 30
0.0
 40
0.3012919740093209
100
AcDbArc
 50
310.8556362434
 51
359.906630951
  0
ARC
  5
2D6
330
8B
100
AcDbEntity
  8
$DDT_AUDIT_GENERATED_(C8)
  6
Continuous
 62
     7
100
AcDbCircle
 10
220.8313577958
 20
422.1277064048
 30
0.0
 40
0.3026797019985036
100
AcDbArc
 50
312.0120208065
 51
359.8819503907
  0
ARC
  5
2D7
330
8B
100
AcDbEntity
  8
$DDT_AUDIT_GENERATED_(C8)
  6
Continuous
 62
     7
100
AcDbCircle
 10
202.5269555146
 20
438.9139168388
 30
0.0
 40
0.3002527935692459
100
AcDbArc
 50
124.5283863113
 51
224.9580304779
  0
LINE
  5
2D8
330
8B
100
AcDbEntity
  8
$DDT_AUDIT_GENERATED_(C8)
  6
Continuous
 62
     7
100
AcDbLine
 10
202.356533744
 20
439.1616201467
 30
0.0
 11
202.0185575157
 21
439.180971119
 31
0.0
  0
LINE
  5
2D9
330
8B
100
AcDbEntity
  8
$DDT_AUDIT_GENERATED_(C8)
  6
Continuous
 62
     7
100
AcDbLine
 10
201.9866712286
 20
438.7283223467
 30
0.0
 11
202.3145048593
 21
438.701777283
 31
0.0
  0
LINE
  5
2DA
330
8B
100
AcDbEntity
  8
$DDT_AUDIT_GENERATED_(C8)
  6
Continuous
 62
     7
100
AcDbLine
 10
219.828085123
 20
421.1881527862
 30
0.0
 11
202.3144892662
 21
438.7017616283
 31
0.0
  0
ARC
  5
2DB
330
8B
100
AcDbEntity
  8
$DDT_AUDIT_GENERATED_(C8)
  6
Continuous
 62
     7
100
AcDbCircle
 10
220.0401722142
 20
421.4003940363
 30
0.0
 40
0.3000510947734059
100
AcDbArc
 50
225.0208152166
 51
313.2747145347
  0
LINE
  5
2DC
330
8B
100
AcDbEntity
  8
$DDT_AUDIT_GENERATED_(C8)
  6
Continuous
 62
     7
100
AcDbLine
 10
288.4104487106
 20
439.1809711167
 30
0.0
 11
288.0724724735
 21
439.1616201451
 31
0.0
  0
LINE
  5
2DD
330
8B
100
AcDbEntity
  8
$DDT_AUDIT_GENERATED_(C8)
  6
Continuous
 62
     7
100
AcDbLine
 10
288.1145169494
 20
438.7017616283
 30
0.0
 11
270.6009210995
 21
421.1881527899
 31
0.0
  0
ARC
  5
2DE
330
8B
100
AcDbEntity
  8
$DDT_AUDIT_GENERATED_(C8)
  6
Continuous
 62
     7
100
AcDbCircle
 10
270.3888230831
 20
421.4004195803
 30
0.0
 40
0.3000768823665213
100
AcDbArc
 50
226.7301470153
 51
314.9772133502
  0
ARC
  5
2DF
330
8B
100
AcDbEntity
  8
$DDT_AUDIT_GENERATED_(C8)
  6
Continuous
 62
     7
100
AcDbCircle
 10
245.2145031109
 20
394.6776428313
 30
0.0
 40
36.30473038957002
100
AcDbArc
 50
178.5192768067
 51
181.4807123747
  0
LINE
  5
2E0
330
8B
100
AcDbEntity
  8
$DDT_AUDIT_GENERATED_(C8)
  6
Continuous
 62
     7
100
AcDbLine
 10
216.2385421258
 20
372.8039128781
 30
0.0
 11
215.8065686061
 21
373.2134186791
 31
0.0
  0
ARC
  5
2E1
330
8B
100
AcDbEntity
  8
$DDT_AUDIT_GENERATED_(C8)
  6
Continuous
 62
     7
100
AcDbCircle
 10
245.2145031109
 20
394.6776428313
 30
0.0
 40
36.30473038956999
100
AcDbArc
 50
217.0488344569
 51
220.857060019
  0
ARC
  5
2E2
330
8B
100
AcDbEntity
  8
$DDT_AUDIT_GENERATED_(C8)
  6
Continuous
 62
     7
100
AcDbCircle
 10
245.2145031109
 20
394.6776428313
 30
0.0
 40
36.30473038957
100
AcDbArc
 50
139.1428472039
 51
142.9511253407
  0
LINE
  5
2E3
330
8B
100
AcDbEntity
  8
$DDT_AUDIT_GENERATED_(C8)
  6
Continuous
 62
     7
100
AcDbLine
 10
215.5428180867
 20
416.2960291089
 30
0.0
 11
199.9275005907
 21
416.2978883052
 31
0.0
  0
ARC
  5
2E4
330
8B
100
AcDbEntity
  8
$DDT_AUDIT_GENERATED_(C8)
  6
Continuous
 62
     7
100
AcDbCircle
 10
208.5273842193
 20
396.058162992
 30
0.0
 40
0.300041668120393
100
AcDbArc
 50
270.0110096996
 51
357.7005032087
  0
ARC
  5
2E5
330
8B
100
AcDbEntity
  8
$DDT_AUDIT_GENERATED_(C8)
  6
Continuous
 62
     7
100
AcDbCircle
 10
208.6217841872
 20
395.6232616042
 30
0.0
 40
0.3001526818934544
100
AcDbArc
 50
270.1029174125
 51
358.5718623846
  0
ARC
  5
2E6
330
8B
100
AcDbEntity
  8
$DDT_AUDIT_GENERATED_(C8)
  6
Continuous
 62
     7
100
AcDbCircle
 10
199.8192517136
 20
395.6231367787
 30
0.0
 40
0.3000184152125474
100
AcDbArc
 50
179.9334976036
 51
269.9354896928
  0
LINE
  5
2E7
330
8B
100
AcDbEntity
  8
$DDT_AUDIT_GENERATED_(C8)
  6
Continuous
 62
     7
100
AcDbLine
 10
199.5192335005
 20
395.6234850057
 30
0.0
 11
199.5192335005
 21
393.7318006568
 31
0.0
  0
ARC
  5
2E8
330
8B
100
AcDbEntity
  8
$DDT_AUDIT_GENERATED_(C8)
  6
Continuous
 62
     7
100
AcDbCircle
 10
199.8192513808
 20
393.7321492159
 30
0.0
 40
0.3000180828144215
100
AcDbArc
 50
90.0644468254
 51
180.0665658785
  0
LINE
  5
2E9
330
8B
100
AcDbEntity
  8
$DDT_AUDIT_GENERATED_(C8)
  6
Continuous
 62
     7
100
AcDbLine
 10
208.622323328
 20
394.0321762201
 30
0.0
 11
199.8189139177
 21
394.0321671089
 31
0.0
  0
ARC
  5
2EA
330
8B
100
AcDbEntity
  8
$DDT_AUDIT_GENERATED_(C8)
  6
Continuous
 62
     7
100
AcDbCircle
 10
208.6217523215
 20
393.7319914264
 30
0.0
 40
0.3001853367785017
100
AcDbArc
 50
1.4355209033
 51
89.8910130582
  0
LINE
  5
2EB
330
8B
100
AcDbEntity
  8
$DDT_AUDIT_GENERATED_(C8)
  6
Continuous
 62
     7
100
AcDbLine
 10
208.6223233355
 20
395.3231094065
 30
0.0
 11
199.8189139177
 21
395.3231185536
 31
0.0
  0
LINE
  5
2EC
330
8B
100
AcDbEntity
  8
$DDT_AUDIT_GENERATED_(C8)
  6
Continuous
 62
     7
100
AcDbLine
 10
199.5192335005
 20
418.6234850057
 30
0.0
 11
199.5192335005
 21
416.7318006568
 31
0.0
  0
LINE
  5
2ED
330
8B
100
AcDbEntity
  8
$DDT_AUDIT_GENERATED_(C8)
  6
Continuous
 62
     7
100
AcDbLine
 10
199.5192335005
 20
372.6234850057
 30
0.0
 11
199.5192335005
 21
370.7318006568
 31
0.0
  0
LINE
  5
2EE
330
8B
100
AcDbEntity
  8
$DDT_AUDIT_GENERATED_(C8)
  6
Continuous
 62
     7
100
AcDbLine
 10
199.9275006014
 20
373.0573973572
 30
0.0
 11
215.5428158855
 21
373.0592246561
 31
0.0
  0
ARC
  5
2EF
330
8B
100
AcDbEntity
  8
$DDT_AUDIT_GENERATED_(C8)
  6
Continuous
 62
     7
100
AcDbCircle
 10
208.5273963848
 20
393.2971280301
 30
0.0
 40
0.3000292968160523
100
AcDbArc
 50
2.2985669875
 51
89.9913192283
  0
ARC
  5
2F0
330
8B
100
AcDbEntity
  8
$DDT_AUDIT_GENERATED_(C8)
  6
Continuous
 62
     7
100
AcDbCircle
 10
215.5443375886
 20
373.0590247144
 30
0.0
 40
0.2976913278033735
100
AcDbArc
 50
332.7678955106
 51
35.9948429335
  0
ARC
  5
2F1
330
8B
100
AcDbEntity
  8
$DDT_AUDIT_GENERATED_(C8)
  6
Continuous
 62
     7
100
AcDbCircle
 10
215.9998370143
 20
372.6230709501
 30
0.0
 40
0.2999262997071834
100
AcDbArc
 50
270.1621710168
 51
37.1520606205
  0
ARC
  5
2F2
330
8B
100
AcDbEntity
  8
$DDT_AUDIT_GENERATED_(C8)
  6
Continuous
 62
     7
100
AcDbCircle
 10
199.8192517136
 20
372.6231367787
 30
0.0
 40
0.3000184152337008
100
AcDbArc
 50
179.9334976051
 51
269.9354897021
  0
ARC
  5
2F3
330
8B
100
AcDbEntity
  8
$DDT_AUDIT_GENERATED_(C8)
  6
Continuous
 62
     7
100
AcDbCircle
 10
199.8192513808
 20
370.7321492159
 30
0.0
 40
0.300018082817748
100
AcDbArc
 50
90.0644468242
 51
180.0665658801
  0
LINE
  5
2F4
330
8B
100
AcDbEntity
  8
$DDT_AUDIT_GENERATED_(C8)
  6
Continuous
 62
     7
100
AcDbLine
 10
217.5282067992
 20
371.032167109
 30
0.0
 11
199.8189139177
 21
371.0321671089
 31
0.0
  0
ARC
  5
2F5
330
8B
100
AcDbEntity
  8
$DDT_AUDIT_GENERATED_(C8)
  6
Continuous
 62
     7
100
AcDbCircle
 10
217.5277158262
 20
370.7309009081
 30
0.0
 40
0.3012919744853315
100
AcDbArc
 50
40.855638238
 51
89.9066331307
  0
LINE
  5
2F6
330
8B
100
AcDbEntity
  8
$DDT_AUDIT_GENERATED_(C8)
  6
Continuous
 62
     7
100
AcDbLine
 10
216.00068593
 20
372.3231458518
 30
0.0
 11
199.8189139178
 21
372.3231185536
 31
0.0
  0
ARC
  5
2F7
330
8B
100
AcDbEntity
  8
$DDT_AUDIT_GENERATED_(C8)
  6
Continuous
 62
     7
100
AcDbCircle
 10
217.7644957435
 20
370.2945657844
 30
0.0
 40
0.3025922515513192
100
AcDbArc
 50
42.0095405312
 51
89.8925513561
  0
LINE
  5
2F8
330
8B
100
AcDbEntity
  8
$DDT_AUDIT_GENERATED_(C8)
  6
Continuous
 62
     7
100
AcDbLine
 10
218.7039930341
 20
369.291224722
 30
0.0
 11
201.1903843138
 21
351.7776289866
 31
0.0
  0
LINE
  5
2F9
330
8B
100
AcDbEntity
  8
$DDT_AUDIT_GENERATED_(C8)
  6
Continuous
 62
     7
100
AcDbLine
 10
201.1638235955
 20
351.449810949
 30
0.0
 11
201.1903686592
 21
351.7776445797
 31
0.0
  0
LINE
  5
2FA
330
8B
100
AcDbEntity
  8
$DDT_AUDIT_GENERATED_(C8)
  6
Continuous
 62
     7
100
AcDbLine
 10
200.7305257954
 20
351.8196734644
 30
0.0
 11
200.7111748232
 21
351.481697236
 31
0.0
  0
ARC
  5
2FB
330
8B
100
AcDbEntity
  8
$DDT_AUDIT_GENERATED_(C8)
  6
Continuous
 62
     7
100
AcDbCircle
 10
200.9783009317
 20
351.9898963113
 30
0.0
 40
0.3000612906095839
100
AcDbArc
 50
214.4893582599
 51
314.9751640997
  0
LINE
  5
2FC
330
8B
100
AcDbEntity
  8
$DDT_AUDIT_GENERATED_(C8)
  6
Continuous
 62
     7
100
AcDbLine
 10
200.7111748255
 20
437.873588431
 30
0.0
 11
200.730525797
 21
437.5356121939
 31
0.0
  0
LINE
  5
2FD
330
8B
100
AcDbEntity
  8
$DDT_AUDIT_GENERATED_(C8)
  6
Continuous
 62
     7
100
AcDbLine
 10
201.1903843139
 20
437.5776566698
 30
0.0
 11
218.7039931523
 21
420.0640608199
 31
0.0
  0
ARC
  5
2FE
330
8B
100
AcDbEntity
  8
$DDT_AUDIT_GENERATED_(C8)
  6
Continuous
 62
     7
100
AcDbCircle
 10
200.9782980376
 20
437.3654207229
 30
0.0
 40
0.3000411401070301
100
AcDbArc
 50
45.0202098618
 51
145.5152669818
  0
ARC
  5
2FF
330
8B
100
AcDbEntity
  8
$DDT_AUDIT_GENERATED_(C8)
  6
Continuous
 62
     7
100
AcDbCircle
 10
218.4917263644
 20
419.8519628046
 30
0.0
 40
0.3000768797578511
100
AcDbArc
 50
341.5271383348
 51
0.4148410928
  0
ARC
  5
300
330
8B
100
AcDbEntity
  8
$DDT_AUDIT_GENERATED_(C8)
  6
Continuous
 62
     7
100
AcDbCircle
 10
217.7644486903
 20
419.0607281499
 30
0.0
 40
0.3026196814800184
100
AcDbArc
 50
270.116340792
 51
317.9952397
  0
ARC
  5
301
330
8B
100
AcDbEntity
  8
$DDT_AUDIT_GENERATED_(C8)
  6
Continuous
 62
     7
100
AcDbCircle
 10
217.5276499072
 20
418.6246775155
 30
0.0
 40
0.3015848031518748
100
AcDbArc
 50
270.101242717
 51
319.1216539752
  0
LINE
  5
302
330
8B
100
AcDbEntity
  8
$DDT_AUDIT_GENERATED_(C8)
  6
Continuous
 62
     7
100
AcDbLine
 10
217.5281828129
 20
418.3230931832
 30
0.0
 11
199.8189139178
 21
418.3231185536
 31
0.0
  0
ARC
  5
303
330
8B
100
AcDbEntity
  8
$DDT_AUDIT_GENERATED_(C8)
  6
Continuous
 62
     7
100
AcDbCircle
 10
199.8192517136
 20
418.6231367787
 30
0.0
 40
0.3000184152050119
100
AcDbArc
 50
179.9334976035
 51
269.9354897018
  0
ARC
  5
304
330
8B
100
AcDbEntity
  8
$DDT_AUDIT_GENERATED_(C8)
  6
Continuous
 62
     7
100
AcDbCircle
 10
199.8192513808
 20
416.7321492159
 30
0.0
 40
0.3000180828334355
100
AcDbArc
 50
90.0644468157
 51
180.066565879
  0
LINE
  5
305
330
8B
100
AcDbEntity
  8
$DDT_AUDIT_GENERATED_(C8)
  6
Continuous
 62
     7
100
AcDbLine
 10
216.0006859301
 20
417.0321669755
 30
0.0
 11
199.8189139178
 21
417.0321671089
 31
0.0
  0
ARC
  5
306
330
8B
100
AcDbEntity
  8
$DDT_AUDIT_GENERATED_(C8)
  6
Continuous
 62
     7
100
AcDbCircle
 10
215.999889594
 20
416.7323350486
 30
0.0
 40
0.2998058198641586
100
AcDbArc
 50
322.8283572537
 51
89.8478123419
  0
ARC
  5
307
330
8B
100
AcDbEntity
  8
$DDT_AUDIT_GENERATED_(C8)
  6
Continuous
 62
     7
100
AcDbCircle
 10
245.2145031109
 20
394.6776428313
 30
0.0
 40
36.30473038957003
100
AcDbArc
 50
229.142900247
 51
232.9511253407
  0
ARC
  5
308
330
8B
100
AcDbEntity
  8
$DDT_AUDIT_GENERATED_(C8)
  6
Continuous
 62
     7
100
AcDbCircle
 10
245.2145031109
 20
394.6776428313
 30
0.0
 40
36.30473038956998
100
AcDbArc
 50
268.5191627981
 51
271.4807136711
  0
LINE
  5
309
330
8B
100
AcDbEntity
  8
$DDT_AUDIT_GENERATED_(C8)
  6
Continuous
 62
     7
100
AcDbLine
 10
267.0882330641
 20
365.7016818462
 30
0.0
 11
266.6787272635
 21
365.2697083271
 31
0.0
  0
ARC
  5
30A
330
8B
100
AcDbEntity
  8
$DDT_AUDIT_GENERATED_(C8)
  6
Continuous
 62
     7
100
AcDbCircle
 10
245.2145031109
 20
394.6776428313
 30
0.0
 40
36.30473038956999
100
AcDbArc
 50
307.0488344569
 51
310.8570600425
  0
ARC
  5
30B
330
8B
100
AcDbEntity
  8
$DDT_AUDIT_GENERATED_(C8)
  6
Continuous
 62
     7
100
AcDbCircle
 10
220.8313578156
 20
367.2275792691
 30
0.0
 40
0.3026796819010611
100
AcDbArc
 50
0.1180506865
 51
47.9879793128
  0
ARC
  5
30C
330
8B
100
AcDbEntity
  8
$DDT_AUDIT_GENERATED_(C8)
  6
Continuous
 62
     7
100
AcDbCircle
 10
221.2674684256
 20
366.9907896065
 30
0.0
 40
0.301584834079839
100
AcDbArc
 50
0.1035207197
 51
49.1152711136
  0
ARC
  5
30D
330
8B
100
AcDbEntity
  8
$DDT_AUDIT_GENERATED_(C8)
  6
Continuous
 62
     7
100
AcDbCircle
 10
221.2690091635
 20
349.282391434
 30
0.0
 40
0.3000184152196378
100
AcDbArc
 50
269.9334976043
 51
359.9354896933
  0
LINE
  5
30E
330
8B
100
AcDbEntity
  8
$DDT_AUDIT_GENERATED_(C8)
  6
Continuous
 62
     7
100
AcDbLine
 10
221.2686609364
 20
348.9823732208
 30
0.0
 11
223.1603452853
 21
348.9823732208
 31
0.0
  0
ARC
  5
30F
330
8B
100
AcDbEntity
  8
$DDT_AUDIT_GENERATED_(C8)
  6
Continuous
 62
     7
100
AcDbCircle
 10
223.1599967263
 20
349.2823911012
 30
0.0
 40
0.3000180828334355
100
AcDbArc
 50
180.0644468157
 51
270.066565879
  0
LINE
  5
310
330
8B
100
AcDbEntity
  8
$DDT_AUDIT_GENERATED_(C8)
  6
Continuous
 62
     7
100
AcDbLine
 10
222.8599789667
 20
365.4638256504
 30
0.0
 11
222.8599788332
 21
349.2820536382
 31
0.0
  0
ARC
  5
311
330
8B
100
AcDbEntity
  8
$DDT_AUDIT_GENERATED_(C8)
  6
Continuous
 62
     7
100
AcDbCircle
 10
223.1598108936
 20
365.4630293144
 30
0.0
 40
0.2998058198641581
100
AcDbArc
 50
52.8283572537
 51
179.847812342
  0
LINE
  5
312
330
8B
100
AcDbEntity
  8
$DDT_AUDIT_GENERATED_(C8)
  6
Continuous
 62
     7
100
AcDbLine
 10
221.5690527674
 20
366.9913345029
 30
0.0
 11
221.5690273885
 21
349.2820536381
 31
0.0
  0
LINE
  5
313
330
8B
100
AcDbEntity
  8
$DDT_AUDIT_GENERATED_(C8)
  6
Continuous
 62
     7
100
AcDbLine
 10
267.2686609364
 20
348.9823732208
 30
0.0
 11
269.1603452853
 21
348.9823732208
 31
0.0
  0
LINE
  5
314
330
8B
100
AcDbEntity
  8
$DDT_AUDIT_GENERATED_(C8)
  6
Continuous
 62
     7
100
AcDbLine
 10
244.2686609364
 20
348.9823732208
 30
0.0
 11
246.1603452853
 21
348.9823732208
 31
0.0
  0
LINE
  5
315
330
8B
100
AcDbEntity
  8
$DDT_AUDIT_GENERATED_(C8)
  6
Continuous
 62
     7
100
AcDbLine
 10
223.5961162729
 20
365.0047719853
 30
0.0
 11
223.5942576369
 21
349.3906403111
 31
0.0
  0
ARC
  5
316
330
8B
100
AcDbEntity
  8
$DDT_AUDIT_GENERATED_(C8)
  6
Continuous
 62
     7
100
AcDbCircle
 10
244.2690091635
 20
349.282391434
 30
0.0
 40
0.3000184152125489
100
AcDbArc
 50
269.9334976036
 51
359.9354896928
  0
LINE
  5
317
330
8B
100
AcDbEntity
  8
$DDT_AUDIT_GENERATED_(C8)
  6
Continuous
 62
     7
100
AcDbLine
 10
244.5690365357
 20
358.0854630519
 30
0.0
 11
244.5690273885
 21
349.2820536381
 31
0.0
  0
ARC
  5
318
330
8B
100
AcDbEntity
  8
$DDT_AUDIT_GENERATED_(C8)
  6
Continuous
 62
     7
100
AcDbCircle
 10
243.8340225532
 20
357.9905497281
 30
0.0
 40
0.2999952480474777
100
AcDbArc
 50
0.0060877768
 51
87.7078605163
  0
ARC
  5
319
330
8B
100
AcDbEntity
  8
$DDT_AUDIT_GENERATED_(C8)
  6
Continuous
 62
     7
100
AcDbCircle
 10
244.2687886073
 20
358.0848826865
 30
0.0
 40
0.3002484892348757
100
AcDbArc
 50
0.1107499655
 51
88.5675723121
  0
ARC
  5
31A
330
8B
100
AcDbEntity
  8
$DDT_AUDIT_GENERATED_(C8)
  6
Continuous
 62
     7
100
AcDbCircle
 10
246.1599967263
 20
349.2823911012
 30
0.0
 40
0.3000180828144336
100
AcDbArc
 50
180.0644468254
 51
270.0665658793
  0
LINE
  5
31B
330
8B
100
AcDbEntity
  8
$DDT_AUDIT_GENERATED_(C8)
  6
Continuous
 62
     7
100
AcDbLine
 10
245.859969722
 20
358.0854630451
 30
0.0
 11
245.8599788332
 21
349.2820536381
 31
0.0
  0
ARC
  5
31C
330
8B
100
AcDbEntity
  8
$DDT_AUDIT_GENERATED_(C8)
  6
Continuous
 62
     7
100
AcDbCircle
 10
246.1601548049
 20
358.0848919219
 30
0.0
 40
0.3001856261809835
100
AcDbArc
 50
91.4354187431
 51
179.8909908813
  0
ARC
  5
31D
330
8B
100
AcDbEntity
  8
$DDT_AUDIT_GENERATED_(C8)
  6
Continuous
 62
     7
100
AcDbCircle
 10
246.5949248193
 20
357.9906903571
 30
0.0
 40
0.2998714484358111
100
AcDbArc
 50
92.2819766975
 51
168.0624684036
  0
LINE
  5
31E
330
8B
100
AcDbEntity
  8
$DDT_AUDIT_GENERATED_(C8)
  6
Continuous
 62
     7
100
AcDbLine
 10
266.834748585
 20
349.3906403218
 30
0.0
 11
266.8329210544
 21
365.0059575162
 31
0.0
  0
ARC
  5
31F
330
8B
100
AcDbEntity
  8
$DDT_AUDIT_GENERATED_(C8)
  6
Continuous
 62
     7
100
AcDbCircle
 10
267.2690091635
 20
349.282391434
 30
0.0
 40
0.300018415204178
100
AcDbArc
 50
269.9334976034
 51
359.9354897383
  0
LINE
  5
320
330
8B
100
AcDbEntity
  8
$DDT_AUDIT_GENERATED_(C8)
  6
Continuous
 62
     7
100
AcDbLine
 10
267.5690000904
 20
365.4638256504
 30
0.0
 11
267.5690273885
 21
349.2820536384
 31
0.0
  0
ARC
  5
321
330
8B
100
AcDbEntity
  8
$DDT_AUDIT_GENERATED_(C8)
  6
Continuous
 62
     7
100
AcDbCircle
 10
266.8331212276
 20
365.0074773082
 30
0.0
 40
0.2976913286006685
100
AcDbArc
 50
62.7678955541
 51
125.9948426855
  0
ARC
  5
322
330
8B
100
AcDbEntity
  8
$DDT_AUDIT_GENERATED_(C8)
  6
Continuous
 62
     7
100
AcDbCircle
 10
267.2690749921
 20
365.4629767347
 30
0.0
 40
0.2999262997071827
100
AcDbArc
 50
0.1621710168
 51
127.1520606205
  0
ARC
  5
323
330
8B
100
AcDbEntity
  8
$DDT_AUDIT_GENERATED_(C8)
  6
Continuous
 62
     7
100
AcDbCircle
 10
269.1599967263
 20
349.2823911012
 30
0.0
 40
0.300018082817748
100
AcDbArc
 50
180.0644468242
 51
270.0665658801
  0
LINE
  5
324
330
8B
100
AcDbEntity
  8
$DDT_AUDIT_GENERATED_(C8)
  6
Continuous
 62
     7
100
AcDbLine
 10
268.8599788332
 20
366.9913465029
 30
0.0
 11
268.8599788332
 21
349.2820536381
 31
0.0
  0
ARC
  5
325
330
8B
100
AcDbEntity
  8
$DDT_AUDIT_GENERATED_(C8)
  6
Continuous
 62
     7
100
AcDbCircle
 10
269.1612450329
 20
366.9908555469
 30
0.0
 40
0.3012919733753057
100
AcDbArc
 50
130.8556352797
 51
179.9066363619
  0
ARC
  5
326
330
8B
100
AcDbEntity
  8
$DDT_AUDIT_GENERATED_(C8)
  6
Continuous
 62
     7
100
AcDbCircle
 10
269.5975801704
 20
367.2276354415
 30
0.0
 40
0.3025922810032161
100
AcDbArc
 50
132.0095430201
 51
179.8925488999
  0
LINE
  5
327
330
8B
100
AcDbEntity
  8
$DDT_AUDIT_GENERATED_(C8)
  6
Continuous
 62
     7
100
AcDbLine
 10
288.0724724769
 20
350.1936655159
 30
0.0
 11
288.4104487061
 21
350.1743145436
 31
0.0
  0
LINE
  5
328
330
8B
100
AcDbEntity
  8
$DDT_AUDIT_GENERATED_(C8)
  6
Continuous
 62
     7
100
AcDbLine
 10
288.4423349932
 20
350.6269633159
 30
0.0
 11
288.114501364
 21
350.6535083794
 31
0.0
  0
LINE
  5
329
330
8B
100
AcDbEntity
  8
$DDT_AUDIT_GENERATED_(C8)
  6
Continuous
 62
     7
100
AcDbLine
 10
270.6009212201
 20
368.1671327539
 30
0.0
 11
288.1145169571
 21
350.6535240341
 31
0.0
  0
ARC
  5
32A
330
8B
100
AcDbEntity
  8
$DDT_AUDIT_GENERATED_(C8)
  6
Continuous
 62
     7
100
AcDbCircle
 10
270.3888301206
 20
367.9549022644
 30
0.0
 40
0.3000406891834617
100
AcDbArc
 50
45.0188217148
 51
133.2755664126
  0
ARC
  5
32B
330
8B
100
AcDbEntity
  8
$DDT_AUDIT_GENERATED_(C8)
  6
Continuous
 62
     7
100
AcDbCircle
 10
223.5955608737
 20
365.0062048707
 30
0.0
 40
0.2989847364357903
100
AcDbArc
 50
54.0945219802
 51
117.0647179635
  0
LINE
  5
32C
330
8B
100
AcDbEntity
  8
$DDT_AUDIT_GENERATED_(C8)
  6
Continuous
 62
     7
100
AcDbLine
 10
202.0185575112
 20
350.1743145459
 30
0.0
 11
202.356533756
 21
350.1936655133
 31
0.0
  0
ARC
  5
32D
330
8B
100
AcDbEntity
  8
$DDT_AUDIT_GENERATED_(C8)
  6
Continuous
 62
     7
100
AcDbCircle
 10
202.526924106
 20
350.4413659338
 30
0.0
 40
0.3002326066851445
100
AcDbArc
 50
135.0373431609
 51
235.4762413408
  0
LINE
  5
32E
330
8B
100
AcDbEntity
  8
$DDT_AUDIT_GENERATED_(C8)
  6
Continuous
 62
     7
100
AcDbLine
 10
202.3144892723
 20
350.6535240343
 30
0.0
 11
219.8280851228
 21
368.1671328721
 31
0.0
  0
ARC
  5
32F
330
8B
100
AcDbEntity
  8
$DDT_AUDIT_GENERATED_(C8)
  6
Continuous
 62
     7
100
AcDbCircle
 10
220.0401831403
 20
367.9548659761
 30
0.0
 40
0.3000769585359114
100
AcDbArc
 50
46.7301611125
 51
134.9771992366
  0
ARC
  5
331
330
8B
100
AcDbEntity
  8
$DDT_AUDIT_GENERATED_(330)
  6
Continuous
 62
     7
100
AcDbCircle
 10
245.2148594452
 20
394.6775019748
 30
0.0
 40
14.00000254165542
100
AcDbArc
 50
100.139092906
 51
100.8412310312
  0
ARC
  5
332
330
8B
100
AcDbEntity
  8
$DDT_AUDIT_GENERATED_(330)
  6
Continuous
 62
     7
100
AcDbCircle
 10
245.2145031109
 20
394.6776428313
 30
0.0
 40
13.00003870359
100
AcDbArc
 50
258.9767992865
 51
259.2309416687
  0
ARC
  5
333
330
8B
100
AcDbEntity
  8
$DDT_AUDIT_GENERATED_(330)
  6
Continuous
 62
     7
100
AcDbCircle
 10
245.2145031109
 20
394.6776428313
 30
0.0
 40
13.00003870359
100
AcDbArc
 50
90.0
 51
90.9085837011
  0
ARC
  5
334
330
8B
100
AcDbEntity
  8
$DDT_AUDIT_GENERATED_(330)
  6
Continuous
 62
     7
100
AcDbCircle
 10
245.2533456962
 20
394.7447393299
 30
0.0
 40
13.86608803168171
100
AcDbArc
 50
108.8910593025
 51
110.5952297037
  0
ARC
  5
335
330
8B
100
AcDbEntity
  8
$DDT_AUDIT_GENERATED_(330)
  6
Continuous
 62
     7
100
AcDbCircle
 10
245.2533456962
 20
394.7447393299
 30
0.0
 40
13.86608803168171
100
AcDbArc
 50
95.5558872766
 51
95.7588032833
  0
ARC
  5
336
330
8B
100
AcDbEntity
  8
$DDT_AUDIT_GENERATED_(330)
  6
Continuous
 62
     7
100
AcDbCircle
 10
245.2710450468
 20
394.641813716
 30
0.0
 40
13.96907367186878
100
AcDbArc
 50
85.1773100697
 51
85.3868086631
  0
ARC
  5
337
330
8B
100
AcDbEntity
  8
$DDT_AUDIT_GENERATED_(330)
  6
Continuous
 62
     7
100
AcDbCircle
 10
245.2145031109
 20
394.6776428313
 30
0.0
 40
13.00003870359
100
AcDbArc
 50
282.029504274
 51
282.3024805981
  0
ARC
  5
338
330
8B
100
AcDbEntity
  8
$DDT_AUDIT_GENERATED_(96)
  6
Continuous
 62
     7
100
AcDbCircle
 10
267.9145031109
 20
694.6776428313
 30
0.0
 40
4.0
100
AcDbArc
 50
207.7406847772
 51
0.0
  0
ARC
  5
339
330
8B
100
AcDbEntity
  8
$DDT_AUDIT_GENERATED_(96)
  6
Continuous
 62
     7
100
AcDbCircle
 10
267.9145031109
 20
694.6776428313
 30
0.0
 40
4.0
100
AcDbArc
 50
0.0
 51
152.2593152227
  0
ARC
  5
33A
330
8B
100
AcDbEntity
  8
$DDT_AUDIT_GENERATED_(8F)
  6
Continuous
 62
     7
100
AcDbCircle
 10
296.4797447469
 20
343.4124011953
 30
0.0
 40
4.0
100
AcDbArc
 50
161.5600598769
 51
0.0
  0
ARC
  5
33B
330
8B
100
AcDbEntity
  8
$DDT_AUDIT_GENERATED_(8F)
  6
Continuous
 62
     7
100
AcDbCircle
 10
296.4797447469
 20
343.4124011953
 30
0.0
 40
4.0
100
AcDbArc
 50
0.0
 51
108.4399401231
  0
SPLINE
  5
33D
330
8B
100
AcDbEntity
  8
DV1_Default
  6
Continuous
 62
     7
100
AcDbSpline
210
0.0
220
0.0
230
1.0
 70
     8
 71
     3
 72
    10
 73
     6
 74
     0
 42
0.0000000030971484
 43
0.0000000001
 40
0.0
 40
0.0
 40
0.0
 40
0.0
 40
0.2476834996738795
 40
0.5489921997450131
 40
1.0
 40
1.0
 40
1.0
 40
1.0
 10
243.7145031108799
 20
777.8737952539818
 30
0.0
 10
243.9790051420996
 20
777.7894954349231
 30
0.0
 10
244.5051020568314
 20
777.6058195177702
 30
0.0
 10
245.4895774394639
 20
778.1674605547728
 30
0.0
 10
246.2180740516586
 20
777.9691424670791
 30
0.0
 10
246.7145031108799
 20
777.8737952539818
 30
0.0
  0
ENDBLK
  5
33F
330
8B
100
AcDbEntity
  8
0
100
AcDbBlockEnd
  0
BLOCK
  5
39A
330
340
100
AcDbEntity
  8
0
100
AcDbBlockBegin
  2
SE1
 70
     0
 10
0.0
 20
0.0
 30
0.0
  3
SE1
  1

  0
LINE
  5
342
330
340
100
AcDbEntity
  8
$DDT_AUDIT_GENERATED_(8D)
  6
Continuous
 62
     7
100
AcDbLine
 10
630.9312015251
 20
675.4276428313
 30
0.0
 11
630.9312015251
 21
713.9276428313
 31
0.0
  0
LINE
  5
343
330
340
100
AcDbEntity
  8
$DDT_AUDIT_GENERATED_(8D)
  6
Continuous
 62
     7
100
AcDbLine
 10
637.9312015251
 20
676.4276428313
 30
0.0
 11
637.9312015251
 21
712.9276428313
 31
0.0
  0
LINE
  5
344
330
340
100
AcDbEntity
  8
$DDT_AUDIT_GENERATED_(8D)
  6
Continuous
 62
     7
100
AcDbLine
 10
630.9312015251
 20
675.4276428313
 30
0.0
 11
636.9312015251
 21
675.4276428313
 31
0.0
  0
LINE
  5
345
330
340
100
AcDbEntity
  8
$DDT_AUDIT_GENERATED_(8D)
  6
Continuous
 62
     7
100
AcDbLine
 10
636.9312015251
 20
713.9276428313
 30
0.0
 11
630.9312015251
 21
713.9276428313
 31
0.0
  0
ARC
  5
346
330
340
100
AcDbEntity
  8
$DDT_AUDIT_GENERATED_(8D)
  6
Continuous
 62
     7
100
AcDbCircle
 10
636.9312015251
 20
712.9276428313
 30
0.0
 40
1.000000000000001
100
AcDbArc
 50
0.0
 51
90.0
  0
ARC
  5
347
330
340
100
AcDbEntity
  8
$DDT_AUDIT_GENERATED_(8D)
  6
Continuous
 62
     7
100
AcDbCircle
 10
636.9312015251
 20
676.4276428313
 30
0.0
 40
1.000000000000001
100
AcDbArc
 50
270.0
 51
0.0
  0
LINE
  5
348
330
340
100
AcDbEntity
  8
$DDT_AUDIT_GENERATED_(8F)
  6
Continuous
 62
     7
100
AcDbLine
 10
456.3312696186
 20
339.4124011953
 30
0.0
 11
457.6505455774
 21
339.4124011953
 31
0.0
  0
LINE
  5
349
330
340
100
AcDbEntity
  8
$DDT_AUDIT_GENERATED_(8F)
  6
Continuous
 62
     7
100
AcDbLine
 10
457.6505455774
 20
347.4124011953
 30
0.0
 11
456.3312696186
 21
347.4124011953
 31
0.0
  0
ARC
  5
34A
330
340
100
AcDbEntity
  8
$DDT_AUDIT_GENERATED_(8F)
  6
Continuous
 62
     7
100
AcDbCircle
 10
457.6505455774
 20
339.9124011953
 30
0.0
 40
0.5000000000000004
100
AcDbArc
 50
270.0
 51
320.8201946212
  0
ARC
  5
34B
330
340
100
AcDbEntity
  8
$DDT_AUDIT_GENERATED_(8F)
  6
Continuous
 62
     7
100
AcDbCircle
 10
457.6505455774
 20
346.9124011953
 30
0.0
 40
0.4999999999999973
100
AcDbArc
 50
39.1798053788
 51
90.0
  0
ARC
  5
34C
330
340
100
AcDbEntity
  8
$DDT_AUDIT_GENERATED_(8F)
  6
Continuous
 62
     7
100
AcDbCircle
 10
453.2320924959
 20
343.311391286
 30
0.0
 40
6.199999999999998
100
AcDbArc
 50
0.9334996042
 51
39.1798053788
  0
ARC
  5
34D
330
340
100
AcDbEntity
  8
$DDT_AUDIT_GENERATED_(8F)
  6
Continuous
 62
     7
100
AcDbCircle
 10
453.2320924959
 20
343.5134111046
 30
0.0
 40
6.200000000000002
100
AcDbArc
 50
320.8201946212
 51
359.0665003958
  0
LINE
  5
34E
330
340
100
AcDbEntity
  8
$DDT_AUDIT_GENERATED_(8F)
  6
Continuous
 62
     7
100
AcDbLine
 10
456.3312696186
 20
441.9428844673
 30
0.0
 11
457.6505455774
 21
441.9428844673
 31
0.0
  0
LINE
  5
34F
330
340
100
AcDbEntity
  8
$DDT_AUDIT_GENERATED_(8F)
  6
Continuous
 62
     7
100
AcDbLine
 10
457.6505455774
 20
449.9428844673
 30
0.0
 11
456.3312696186
 21
449.9428844673
 31
0.0
  0
ARC
  5
350
330
340
100
AcDbEntity
  8
$DDT_AUDIT_GENERATED_(8F)
  6
Continuous
 62
     7
100
AcDbCircle
 10
457.6505455774
 20
442.4428844673
 30
0.0
 40
0.5000000000000004
100
AcDbArc
 50
270.0
 51
320.8201946212
  0
ARC
  5
351
330
340
100
AcDbEntity
  8
$DDT_AUDIT_GENERATED_(8F)
  6
Continuous
 62
     7
100
AcDbCircle
 10
457.6505455774
 20
449.4428844673
 30
0.0
 40
0.4999999999999973
100
AcDbArc
 50
39.1798053788
 51
90.0
  0
ARC
  5
352
330
340
100
AcDbEntity
  8
$DDT_AUDIT_GENERATED_(8F)
  6
Continuous
 62
     7
100
AcDbCircle
 10
453.232092496
 20
445.841874558
 30
0.0
 40
6.199999999999998
100
AcDbArc
 50
0.9334996042
 51
39.1798053788
  0
ARC
  5
353
330
340
100
AcDbEntity
  8
$DDT_AUDIT_GENERATED_(8F)
  6
Continuous
 62
     7
100
AcDbCircle
 10
453.232092496
 20
446.0438943766
 30
0.0
 40
6.200000000000002
100
AcDbArc
 50
320.8201946212
 51
359.0665003958
  0
LINE
  5
355
330
340
100
AcDbEntity
  8
$DDT_AUDIT_GENERATED_(354)
  6
Continuous
 62
     7
100
AcDbLine
 10
583.7312015251
 20
677.1276428313
 30
0.0
 11
583.7312015251
 21
712.2276428313
 31
0.0
  0
LINE
  5
356
330
340
100
AcDbEntity
  8
$DDT_AUDIT_GENERATED_(354)
  6
Continuous
 62
     7
100
AcDbLine
 10
583.0383812021
 20
676.7276428313
 30
0.0
 11
583.0383812021
 21
712.6276428313
 31
0.0
  0
LINE
  5
357
330
340
100
AcDbEntity
  8
$DDT_AUDIT_GENERATED_(354)
  6
Continuous
 62
     7
100
AcDbLine
 10
630.9312015251
 20
712.2276428313
 30
0.0
 11
583.7312015251
 21
712.2276428313
 31
0.0
  0
LINE
  5
358
330
340
100
AcDbEntity
  8
$DDT_AUDIT_GENERATED_(354)
  6
Continuous
 62
     7
100
AcDbLine
 10
583.7312015251
 20
677.1276428313
 30
0.0
 11
630.9312015251
 21
677.1276428313
 31
0.0
  0
LINE
  5
359
330
340
100
AcDbEntity
  8
$DDT_AUDIT_GENERATED_(354)
  6
Continuous
 62
     7
100
AcDbLine
 10
583.0383812021
 20
676.7276428313
 30
0.0
 11
583.7312015251
 21
677.1276428313
 31
0.0
  0
LINE
  5
35A
330
340
100
AcDbEntity
  8
$DDT_AUDIT_GENERATED_(354)
  6
Continuous
 62
     7
100
AcDbLine
 10
583.7312015251
 20
712.2276428313
 30
0.0
 11
583.0383812021
 21
712.6276428313
 31
0.0
  0
LINE
  5
35B
330
340
100
AcDbEntity
  8
$DDT_AUDIT_GENERATED_(354)
  6
Continuous
 62
     7
100
AcDbLine
 10
583.0383812021
 20
712.6276428313
 30
0.0
 11
561.4312015251
 21
712.6276428313
 31
0.0
  0
LINE
  5
35C
330
340
100
AcDbEntity
  8
$DDT_AUDIT_GENERATED_(354)
  6
Continuous
 62
     7
100
AcDbLine
 10
561.4312015251
 20
676.7276428313
 30
0.0
 11
583.0383812021
 21
676.7276428313
 31
0.0
  0
ARC
  5
35D
330
340
100
AcDbEntity
  8
$DDT_AUDIT_GENERATED_(354)
  6
Continuous
 62
     7
100
AcDbCircle
 10
561.4312015251
 20
712.4276428313
 30
0.0
 40
0.2000000000000335
100
AcDbArc
 50
90.0
 51
180.0
  0
ARC
  5
35E
330
340
100
AcDbEntity
  8
$DDT_AUDIT_GENERATED_(354)
  6
Continuous
 62
     7
100
AcDbCircle
 10
561.4312015251
 20
676.9276428313
 30
0.0
 40
0.1999999999999988
100
AcDbArc
 50
180.0
 51
270.0
  0
LINE
  5
35F
330
340
100
AcDbEntity
  8
$DDT_AUDIT_GENERATED_(98)
  6
Continuous
 62
     7
100
AcDbLine
 10
518.7312015251
 20
777.873795254
 30
0.0
 11
518.7312015251
 21
750.1776428313
 31
0.0
  0
LINE
  5
360
330
340
100
AcDbEntity
  8
$DDT_AUDIT_GENERATED_(98)
  6
Continuous
 62
     7
100
AcDbLine
 10
521.7312015251
 20
750.1776428313
 30
0.0
 11
521.7312015251
 21
777.873795254
 31
0.0
  0
LINE
  5
361
330
340
100
AcDbEntity
  8
$DDT_AUDIT_GENERATED_(9B)
  6
Continuous
 62
     7
100
AcDbLine
 10
518.011074655
 20
720.1776428313
 30
0.0
 11
512.068642493
 21
720.1776428313
 31
0.0
  0
LINE
  5
362
330
340
100
AcDbEntity
  8
$DDT_AUDIT_GENERATED_(9B)
  6
Continuous
 62
     7
100
AcDbLine
 10
512.068642493
 20
732.1776428313
 30
0.0
 11
512.068642493
 21
720.1776428313
 31
0.0
  0
LINE
  5
363
330
340
100
AcDbEntity
  8
$DDT_AUDIT_GENERATED_(9B)
  6
Continuous
 62
     7
100
AcDbLine
 10
518.011074655
 20
720.1776428313
 30
0.0
 11
518.011074655
 21
732.1776428313
 31
0.0
  0
LINE
  5
364
330
340
100
AcDbEntity
  8
$DDT_AUDIT_GENERATED_(9B)
  6
Continuous
 62
     7
100
AcDbLine
 10
518.011074655
 20
732.1776428313
 30
0.0
 11
512.068642493
 21
732.1776428313
 31
0.0
  0
LINE
  5
365
330
340
100
AcDbEntity
  8
$DDT_AUDIT_GENERATED_(9B)
  6
Continuous
 62
     7
100
AcDbLine
 10
532.6736336871
 20
720.1776428313
 30
0.0
 11
520.7887693631
 21
720.1776428313
 31
0.0
  0
LINE
  5
366
330
340
100
AcDbEntity
  8
$DDT_AUDIT_GENERATED_(9B)
  6
Continuous
 62
     7
100
AcDbLine
 10
520.7887693631
 20
732.1776428313
 30
0.0
 11
520.7887693631
 21
720.1776428313
 31
0.0
  0
LINE
  5
367
330
340
100
AcDbEntity
  8
$DDT_AUDIT_GENERATED_(9B)
  6
Continuous
 62
     7
100
AcDbLine
 10
532.6736336871
 20
720.1776428313
 30
0.0
 11
532.6736336871
 21
732.1776428313
 31
0.0
  0
LINE
  5
368
330
340
100
AcDbEntity
  8
$DDT_AUDIT_GENERATED_(9B)
  6
Continuous
 62
     7
100
AcDbLine
 10
532.6736336871
 20
732.1776428313
 30
0.0
 11
520.7887693631
 21
732.1776428313
 31
0.0
  0
LINE
  5
369
330
340
100
AcDbEntity
  8
$DDT_AUDIT_GENERATED_(9B)
  6
Continuous
 62
     7
100
AcDbLine
 10
541.3937605572
 20
720.1776428313
 30
0.0
 11
535.4513283952
 21
720.1776428313
 31
0.0
  0
LINE
  5
36A
330
340
100
AcDbEntity
  8
$DDT_AUDIT_GENERATED_(9B)
  6
Continuous
 62
     7
100
AcDbLine
 10
535.4513283952
 20
732.1776428313
 30
0.0
 11
535.4513283952
 21
720.1776428313
 31
0.0
  0
LINE
  5
36B
330
340
100
AcDbEntity
  8
$DDT_AUDIT_GENERATED_(9B)
  6
Continuous
 62
     7
100
AcDbLine
 10
541.3937605572
 20
720.1776428313
 30
0.0
 11
541.3937605572
 21
732.1776428313
 31
0.0
  0
LINE
  5
36C
330
340
100
AcDbEntity
  8
$DDT_AUDIT_GENERATED_(9B)
  6
Continuous
 62
     7
100
AcDbLine
 10
541.3937605572
 20
732.1776428313
 30
0.0
 11
535.4513283952
 21
732.1776428313
 31
0.0
  0
LINE
  5
36D
330
340
100
AcDbEntity
  8
$DDT_AUDIT_GENERATED_(9B)
  6
Continuous
 62
     7
100
AcDbLine
 10
540.9812015251
 20
750.1776428313
 30
0.0
 11
512.4812015251
 21
750.1776428313
 31
0.0
  0
LINE
  5
36E
330
340
100
AcDbEntity
  8
$DDT_AUDIT_GENERATED_(9B)
  6
Continuous
 62
     7
100
AcDbLine
 10
541.4812015251
 20
719.1776428313
 30
0.0
 11
511.9812015251
 21
719.1776428313
 31
0.0
  0
LINE
  5
36F
330
340
100
AcDbEntity
  8
$DDT_AUDIT_GENERATED_(9B)
  6
Continuous
 62
     7
100
AcDbLine
 10
511.9812015251
 20
749.6776428313
 30
0.0
 11
541.4812015251
 21
749.6776428313
 31
0.0
  0
LINE
  5
370
330
340
100
AcDbEntity
  8
$DDT_AUDIT_GENERATED_(9B)
  6
Continuous
 62
     7
100
AcDbLine
 10
541.4812015251
 20
719.1776428313
 30
0.0
 11
541.4812015251
 21
749.6776428313
 31
0.0
  0
LINE
  5
371
330
340
100
AcDbEntity
  8
$DDT_AUDIT_GENERATED_(9B)
  6
Continuous
 62
     7
100
AcDbLine
 10
511.9812015251
 20
749.6776428313
 30
0.0
 11
511.9812015251
 21
719.1776428313
 31
0.0
  0
LINE
  5
372
330
340
100
AcDbEntity
  8
$DDT_AUDIT_GENERATED_(9B)
  6
Continuous
 62
     7
100
AcDbLine
 10
541.4812015251
 20
749.6776428313
 30
0.0
 11
540.9812015251
 21
750.1776428313
 31
0.0
  0
LINE
  5
373
330
340
100
AcDbEntity
  8
$DDT_AUDIT_GENERATED_(9B)
  6
Continuous
 62
     7
100
AcDbLine
 10
512.4812015251
 20
750.1776428313
 30
0.0
 11
511.9812015251
 21
749.6776428313
 31
0.0
  0
LINE
  5
374
330
340
100
AcDbEntity
  8
$DDT_AUDIT_GENERATED_(9B)
  6
Continuous
 62
     7
100
AcDbLine
 10
511.9812015251
 20
719.1776428313
 30
0.0
 11
512.4812015251
 21
718.6776428313
 31
0.0
  0
LINE
  5
375
330
340
100
AcDbEntity
  8
$DDT_AUDIT_GENERATED_(9B)
  6
Continuous
 62
     7
100
AcDbLine
 10
540.9812015251
 20
718.6776428313
 30
0.0
 11
541.4812015251
 21
719.1776428313
 31
0.0
  0
LINE
  5
376
330
340
100
AcDbEntity
  8
$DDT_AUDIT_GENERATED_(B5)
  6
Continuous
 62
     7
100
AcDbLine
 10
561.2312015251
 20
718.6776428313
 30
0.0
 11
561.2312015251
 21
665.6776428313
 31
0.0
  0
LINE
  5
377
330
340
100
AcDbEntity
  8
$DDT_AUDIT_GENERATED_(B5)
  6
Continuous
 62
     7
100
AcDbLine
 10
511.2312015251
 20
718.6776428313
 30
0.0
 11
511.2312015251
 21
665.6776428313
 31
0.0
  0
LINE
  5
378
330
340
100
AcDbEntity
  8
$DDT_AUDIT_GENERATED_(B5)
  6
Continuous
 62
     7
100
AcDbLine
 10
561.2312015251
 20
718.6776428313
 30
0.0
 11
511.2312015251
 21
718.6776428313
 31
0.0
  0
LINE
  5
379
330
340
100
AcDbEntity
  8
$DDT_AUDIT_GENERATED_(B5)
  6
Continuous
 62
     7
100
AcDbLine
 10
511.2312015251
 20
665.6776428313
 30
0.0
 11
561.2312015251
 21
665.6776428313
 31
0.0
  0
LINE
  5
37A
330
340
100
AcDbEntity
  8
$DDT_AUDIT_GENERATED_(BB)
  6
Continuous
 62
     7
100
AcDbLine
 10
448.3312696186
 20
451.9428844673
 30
0.0
 11
448.3312696186
 21
443.6467838725
 31
0.0
  0
LINE
  5
37B
330
340
100
AcDbEntity
  8
$DDT_AUDIT_GENERATED_(BB)
  6
Continuous
 62
     7
100
AcDbLine
 10
448.3312696186
 20
345.7085017906
 30
0.0
 11
448.3312696186
 21
337.4124011952
 31
0.0
  0
LINE
  5
37C
330
340
100
AcDbEntity
  8
$DDT_AUDIT_GENERATED_(BB)
  6
Continuous
 62
     7
100
AcDbLine
 10
448.3312696186
 20
362.2471629637
 30
0.0
 11
448.3312696186
 21
345.7085017906
 31
0.0
  0
LINE
  5
37D
330
340
100
AcDbEntity
  8
$DDT_AUDIT_GENERATED_(BB)
  6
Continuous
 62
     7
100
AcDbLine
 10
448.3312696186
 20
427.1081226988
 30
0.0
 11
448.3312696186
 21
362.2471629637
 31
0.0
  0
LINE
  5
37E
330
340
100
AcDbEntity
  8
$DDT_AUDIT_GENERATED_(BB)
  6
Continuous
 62
     7
100
AcDbLine
 10
448.3312696186
 20
443.6467838725
 30
0.0
 11
448.3312696186
 21
427.1081226988
 31
0.0
  0
LINE
  5
37F
330
340
100
AcDbEntity
  8
$DDT_AUDIT_GENERATED_(BB)
  6
Continuous
 62
     7
100
AcDbLine
 10
448.3312696186
 20
427.1081226988
 30
0.0
 11
455.3312696186
 21
427.1081226988
 31
0.0
  0
SPLINE
  5
380
330
340
100
AcDbEntity
  8
$DDT_AUDIT_GENERATED_(BB)
  6
Continuous
 62
     7
100
AcDbSpline
210
0.0
220
0.0
230
1.0
 70
     8
 71
     3
 72
    20
 73
    16
 74
     0
 42
0.0000000033476161
 43
0.0000000001
 40
0.0
 40
0.0
 40
0.0
 40
0.0
 40
0.0196466095176062
 40
0.0388753952670821
 40
0.0579819977024404
 40
0.0772676800268396
 40
0.0970255181427119
 40
0.1372047181499391
 40
0.182918986104577
 40
0.3030283567207691
 40
0.4576545095769542
 40
0.5763337386053625
 40
0.7143905678952419
 40
0.8314956249194024
 40
1.0
 40
1.0
 40
1.0
 40
1.0
 10
455.3312696186293
 20
427.108122698846
 30
0.0
 10
455.3508026372326
 20
427.1088422587442
 30
0.0
 10
455.389453266405
 20
427.1102660756844
 30
0.0
 10
455.44609390557
 20
427.1221008811085
 30
0.0
 10
455.5002778392276
 20
427.140967146568
 30
0.0
 10
455.5519363210265
 20
427.1672649427051
 30
0.0
 10
455.6167488431821
 20
427.2122156665266
 30
0.0
 10
455.6940884842771
 20
427.2837271892045
 30
0.0
 10
455.8279460666049
 20
427.4390474355686
 30
0.0
 10
455.9866667035814
 20
427.7183519649907
 30
0.0
 10
456.1190278304964
 20
428.0872900594419
 30
0.0
 10
456.2170788308607
 20
428.4844080624209
 30
0.0
 10
456.2780468128983
 20
428.8510756095538
 30
0.0
 10
456.3219083610605
 20
429.2699946836605
 30
0.0
 10
456.3277960117236
 20
429.5538054397063
 30
0.0
 10
456.3312696186293
 20
429.7212486285561
 30
0.0
  0
LINE
  5
381
330
340
100
AcDbEntity
  8
$DDT_AUDIT_GENERATED_(BB)
  6
Continuous
 62
     7
100
AcDbLine
 10
456.3312696186
 20
429.7212486286
 30
0.0
 11
456.3312696186
 21
444.0294675858
 31
0.0
  0
LINE
  5
382
330
340
100
AcDbEntity
  8
$DDT_AUDIT_GENERATED_(BB)
  6
Continuous
 62
     7
100
AcDbLine
 10
456.3312696186
 20
444.0294675858
 30
0.0
 11
456.3312696186
 21
450.9428837348
 31
0.0
  0
LINE
  5
383
330
340
100
AcDbEntity
  8
$DDT_AUDIT_GENERATED_(BB)
  6
Continuous
 62
     7
100
AcDbLine
 10
459.2700370358
 20
444.6356239004
 30
0.0
 11
496.7312696186
 21
444.6356239002
 31
0.0
  0
ARC
  5
384
330
340
100
AcDbEntity
  8
$DDT_AUDIT_GENERATED_(BB)
  6
Continuous
 62
     7
100
AcDbCircle
 10
496.7312696186
 20
444.0356239002
 30
0.0
 40
0.5999999999999963
100
AcDbArc
 50
0.0000000124
 51
90.0
  0
LINE
  5
385
330
340
100
AcDbEntity
  8
$DDT_AUDIT_GENERATED_(BB)
  6
Continuous
 62
     7
100
AcDbLine
 10
497.3312696186
 20
444.0356239004
 30
0.0
 11
527.2312696186
 21
444.0356239002
 31
0.0
  0
LINE
  5
386
330
340
100
AcDbEntity
  8
$DDT_AUDIT_GENERATED_(BB)
  6
Continuous
 62
     7
100
AcDbLine
 10
497.3312696186
 20
354.6776428317
 30
0.0
 11
497.3312696186
 21
345.3196617623
 31
0.0
  0
ARC
  5
387
330
340
100
AcDbEntity
  8
$DDT_AUDIT_GENERATED_(BB)
  6
Continuous
 62
     7
100
AcDbCircle
 10
496.7312696186
 20
345.3196617623
 30
0.0
 40
0.5999999999999999
100
AcDbArc
 50
270.0
 51
0.0
  0
LINE
  5
388
330
340
100
AcDbEntity
  8
$DDT_AUDIT_GENERATED_(BB)
  6
Continuous
 62
     7
100
AcDbLine
 10
496.7312696186
 20
344.7196617623
 30
0.0
 11
459.2700370358
 21
344.7196617623
 31
0.0
  0
LINE
  5
389
330
340
100
AcDbEntity
  8
$DDT_AUDIT_GENERATED_(BB)
  6
Continuous
 62
     7
100
AcDbLine
 10
456.3312696186
 20
338.4124019277
 30
0.0
 11
456.3312696186
 21
345.3258179311
 31
0.0
  0
LINE
  5
38A
330
340
100
AcDbEntity
  8
$DDT_AUDIT_GENERATED_(BB)
  6
Continuous
 62
     7
100
AcDbLine
 10
448.3312696186
 20
362.2471629637
 30
0.0
 11
455.3312696186
 21
362.2471629637
 31
0.0
  0
SPLINE
  5
38B
330
340
100
AcDbEntity
  8
$DDT_AUDIT_GENERATED_(BB)
  6
Continuous
 62
     7
100
AcDbSpline
210
0.0
220
0.0
230
1.0
 70
     8
 71
     3
 72
    21
 73
    17
 74
     0
 42
0.0000000033496466
 43
0.0000000001
 40
0.0
 40
0.0
 40
0.0
 40
0.0
 40
0.0907065138097592
 40
0.1685681812243139
 40
0.2335855662673486
 40
0.2857601398417092
 40
0.4238298277478217
 40
0.5425952167415526
 40
0.6276348189539899
 40
0.6999255922893989
 40
0.767140311240102
 40
0.8262391228907363
 40
0.8778639454329289
 40
0.9229768795701243
 40
0.963012278906675
 40
1.0
 40
1.0
 40
1.0
 40
1.0
 10
456.3312696186293
 20
359.634037034026
 30
0.0
 10
456.3302527077419
 20
359.7241188365703
 30
0.0
 10
456.3283628895628
 20
359.8915260600464
 30
0.0
 10
456.3146162794121
 20
360.1231527088773
 30
0.0
 10
456.297401237766
 20
360.316105630146
 30
0.0
 10
456.2677037821106
 20
360.5678634699995
 30
0.0
 10
456.2170279203602
 20
360.8708300047135
 30
0.0
 10
456.1355970394736
 20
361.2007799717393
 30
0.0
 10
456.0497970878637
 20
361.4614299389299
 30
0.0
 10
455.9639009575565
 20
361.6674745731251
 30
0.0
 10
455.8709594667407
 20
361.8418549922156
 30
0.0
 10
455.7704496238708
 20
361.9876692568225
 30
0.0
 10
455.6652170534612
 20
362.102217984144
 30
0.0
 10
455.5563734196259
 20
362.1842498615084
 30
0.0
 10
455.4447957772259
 20
362.2370548938355
 30
0.0
 10
455.3681000975106
 20
362.2438836749502
 30
0.0
 10
455.3312696186293
 20
362.247162963686
 30
0.0
  0
LINE
  5
38C
330
340
100
AcDbEntity
  8
$DDT_AUDIT_GENERATED_(BB)
  6
Continuous
 62
     7
100
AcDbLine
 10
456.3312696186
 20
345.3258177443
 30
0.0
 11
456.3312696186
 21
359.634037034
 31
0.0
  0
LINE
  5
38D
330
340
100
AcDbEntity
  8
$DDT_AUDIT_GENERATED_(BB)
  6
Continuous
 62
     7
100
AcDbLine
 10
497.3312696186
 20
434.6776428309
 30
0.0
 11
497.3312696186
 21
354.6776428317
 31
0.0
  0
LINE
  5
38E
330
340
100
AcDbEntity
  8
$DDT_AUDIT_GENERATED_(BB)
  6
Continuous
 62
     7
100
AcDbLine
 10
497.3312696186
 20
444.0356239004
 30
0.0
 11
497.3312696186
 21
434.6776428309
 31
0.0
  0
LINE
  5
38F
330
340
100
AcDbEntity
  8
$DDT_AUDIT_GENERATED_(BB)
  6
Continuous
 62
     7
100
AcDbLine
 10
527.2312696186
 20
345.3196617623
 30
0.0
 11
497.3312696186
 21
345.3196617623
 31
0.0
  0
ARC
  5
390
330
340
100
AcDbEntity
  8
$DDT_AUDIT_GENERATED_(BB)
  6
Continuous
 62
     7
100
AcDbCircle
 10
455.3312696186
 20
450.9428844673
 30
0.0
 40
1.000000000001074
100
AcDbArc
 50
0.0
 51
90.0
  0
LINE
  5
391
330
340
100
AcDbEntity
  8
$DDT_AUDIT_GENERATED_(BB)
  6
Continuous
 62
     7
100
AcDbLine
 10
455.3312696186
 20
451.9428844673
 30
0.0
 11
448.3312696186
 21
451.9428844673
 31
0.0
  0
ARC
  5
392
330
340
100
AcDbEntity
  8
$DDT_AUDIT_GENERATED_(BB)
  6
Continuous
 62
     7
100
AcDbCircle
 10
455.3312696186
 20
338.4124011952
 30
0.0
 40
1.000000000000001
100
AcDbArc
 50
270.0
 51
0.0
  0
LINE
  5
393
330
340
100
AcDbEntity
  8
$DDT_AUDIT_GENERATED_(BB)
  6
Continuous
 62
     7
100
AcDbLine
 10
448.3312696186
 20
337.4124011952
 30
0.0
 11
455.3312696186
 21
337.4124011952
 31
0.0
  0
LINE
  5
394
330
340
100
AcDbEntity
  8
$DDT_AUDIT_GENERATED_(C8)
  6
Continuous
 62
     7
100
AcDbLine
 10
528.7312696186
 20
444.6776428313
 30
0.0
 11
528.7312696186
 21
344.6776428313
 31
0.0
  0
LINE
  5
395
330
340
100
AcDbEntity
  8
$DDT_AUDIT_GENERATED_(C8)
  6
Continuous
 62
     7
100
AcDbLine
 10
527.2312696186
 20
444.6776428313
 30
0.0
 11
528.7312696186
 21
444.6776428313
 31
0.0
  0
LINE
  5
396
330
340
100
AcDbEntity
  8
$DDT_AUDIT_GENERATED_(C8)
  6
Continuous
 62
     7
100
AcDbLine
 10
527.2312696186
 20
444.6776428313
 30
0.0
 11
527.2312696186
 21
344.6776428313
 31
0.0
  0
LINE
  5
397
330
340
100
AcDbEntity
  8
$DDT_AUDIT_GENERATED_(C8)
  6
Continuous
 62
     7
100
AcDbLine
 10
527.2312696186
 20
344.6776428313
 30
0.0
 11
528.7312696186
 21
344.6776428313
 31
0.0
  0
SPLINE
  5
399
330
340
100
AcDbEntity
  8
DV2_Default
  6
Continuous
 62
     7
100
AcDbSpline
210
0.0
220
0.0
230
1.0
 70
     8
 71
     3
 72
    10
 73
     6
 74
     0
 42
0.0000000017312612
 43
0.0000000001
 40
0.0
 40
0.0
 40
0.0
 40
0.0
 40
0.3484173919316802
 40
0.7204920691710777
 40
1.0
 40
1.0
 40
1.0
 40
1.0
 10
518.7312015251242
 20
777.8737952539818
 30
0.0
 10
519.0079866570263
 20
777.5050386362519
 30
0.0
 10
519.9984853752707
 20
776.6002812244817
 30
0.0
 10
520.2013101565349
 20
778.5078987222336
 30
0.0
 10
521.9425926610379
 20
777.9124759616404
 30
0.0
 10
521.7312015251242
 20
777.8737952539818
 30
0.0
  0
ENDBLK
  5
39B
330
340
100
AcDbEntity
  8
0
100
AcDbBlockEnd
  0
BLOCK
  5
3F1
330
39C
100
AcDbEntity
  8
0
100
AcDbBlockBegin
  2
SE2
 70
     0
 10
0.0
 20
0.0
 30
0.0
  3
SE2
  1

  0
LINE
  5
39E
330
39C
100
AcDbEntity
  8
$DDT_AUDIT_GENERATED_(8D)
  6
Continuous
 62
     7
100
AcDbLine
 10
264.4645031109
 20
37.1928987432
 30
0.0
 11
225.9645031109
 21
37.1928987432
 31
0.0
  0
LINE
  5
39F
330
39C
100
AcDbEntity
  8
$DDT_AUDIT_GENERATED_(8D)
  6
Continuous
 62
     7
100
AcDbLine
 10
226.9645031109
 20
30.1928987432
 30
0.0
 11
263.4645031109
 21
30.1928987432
 31
0.0
  0
LINE
  5
3A0
330
39C
100
AcDbEntity
  8
$DDT_AUDIT_GENERATED_(8D)
  6
Continuous
 62
     7
100
AcDbLine
 10
225.9645031109
 20
37.1928987432
 30
0.0
 11
225.9645031109
 21
31.1928987432
 31
0.0
  0
LINE
  5
3A1
330
39C
100
AcDbEntity
  8
$DDT_AUDIT_GENERATED_(8D)
  6
Continuous
 62
     7
100
AcDbLine
 10
264.4645031109
 20
31.1928987432
 30
0.0
 11
264.4645031109
 21
37.1928987432
 31
0.0
  0
ARC
  5
3A2
330
39C
100
AcDbEntity
  8
$DDT_AUDIT_GENERATED_(8D)
  6
Continuous
 62
     7
100
AcDbCircle
 10
263.4645031109
 20
31.1928987432
 30
0.0
 40
1.000000000000001
100
AcDbArc
 50
270.0
 51
360.0
  0
ARC
  5
3A3
330
39C
100
AcDbEntity
  8
$DDT_AUDIT_GENERATED_(8D)
  6
Continuous
 62
     7
100
AcDbCircle
 10
226.9645031109
 20
31.1928987432
 30
0.0
 40
1.000000000000001
100
AcDbArc
 50
180.0
 51
270.0
  0
LINE
  5
3A4
330
39C
100
AcDbEntity
  8
$DDT_AUDIT_GENERATED_(8F)
  6
Continuous
 62
     7
100
AcDbLine
 10
292.4797447469
 20
211.7928306497
 30
0.0
 11
292.4797447469
 21
210.4735546909
 31
0.0
  0
LINE
  5
3A5
330
39C
100
AcDbEntity
  8
$DDT_AUDIT_GENERATED_(8F)
  6
Continuous
 62
     7
100
AcDbLine
 10
300.4797447469
 20
210.4735546909
 30
0.0
 11
300.4797447469
 21
211.7928306497
 31
0.0
  0
ARC
  5
3A6
330
39C
100
AcDbEntity
  8
$DDT_AUDIT_GENERATED_(8F)
  6
Continuous
 62
     7
100
AcDbCircle
 10
292.9797447469
 20
210.4735546909
 30
0.0
 40
0.5000000000000004
100
AcDbArc
 50
180.0
 51
230.8201946212
  0
ARC
  5
3A7
330
39C
100
AcDbEntity
  8
$DDT_AUDIT_GENERATED_(8F)
  6
Continuous
 62
     7
100
AcDbCircle
 10
299.9797447469
 20
210.4735546909
 30
0.0
 40
0.5000000000000016
100
AcDbArc
 50
309.1798053788
 51
0.0
  0
ARC
  5
3A8
330
39C
100
AcDbEntity
  8
$DDT_AUDIT_GENERATED_(8F)
  6
Continuous
 62
     7
100
AcDbCircle
 10
296.3787348376
 20
214.8920077723
 30
0.0
 40
6.199999999999998
100
AcDbArc
 50
270.9334996042
 51
309.1798053788
  0
ARC
  5
3A9
330
39C
100
AcDbEntity
  8
$DDT_AUDIT_GENERATED_(8F)
  6
Continuous
 62
     7
100
AcDbCircle
 10
296.5807546562
 20
214.8920077723
 30
0.0
 40
6.199999999999996
100
AcDbArc
 50
230.8201946212
 51
269.0665003958
  0
LINE
  5
3AA
330
39C
100
AcDbEntity
  8
$DDT_AUDIT_GENERATED_(8F)
  6
Continuous
 62
     7
100
AcDbLine
 10
189.9492614749
 20
211.7928306497
 30
0.0
 11
189.9492614749
 21
210.4735546909
 31
0.0
  0
LINE
  5
3AB
330
39C
100
AcDbEntity
  8
$DDT_AUDIT_GENERATED_(8F)
  6
Continuous
 62
     7
100
AcDbLine
 10
197.9492614749
 20
210.4735546909
 30
0.0
 11
197.9492614749
 21
211.7928306497
 31
0.0
  0
ARC
  5
3AC
330
39C
100
AcDbEntity
  8
$DDT_AUDIT_GENERATED_(8F)
  6
Continuous
 62
     7
100
AcDbCircle
 10
190.4492614749
 20
210.4735546909
 30
0.0
 40
0.5000000000000004
100
AcDbArc
 50
180.0
 51
230.8201946212
  0
ARC
  5
3AD
330
39C
100
AcDbEntity
  8
$DDT_AUDIT_GENERATED_(8F)
  6
Continuous
 62
     7
100
AcDbCircle
 10
197.4492614749
 20
210.4735546909
 30
0.0
 40
0.5000000000000016
100
AcDbArc
 50
309.1798053788
 51
0.0
  0
ARC
  5
3AE
330
39C
100
AcDbEntity
  8
$DDT_AUDIT_GENERATED_(8F)
  6
Continuous
 62
     7
100
AcDbCircle
 10
193.8482515656
 20
214.8920077723
 30
0.0
 40
6.199999999999998
100
AcDbArc
 50
270.9334996042
 51
309.1798053788
  0
ARC
  5
3AF
330
39C
100
AcDbEntity
  8
$DDT_AUDIT_GENERATED_(8F)
  6
Continuous
 62
     7
100
AcDbCircle
 10
194.0502713842
 20
214.8920077723
 30
0.0
 40
6.2
100
AcDbArc
 50
230.8201946212
 51
269.0665003958
  0
LINE
  5
3B0
330
39C
100
AcDbEntity
  8
$DDT_AUDIT_GENERATED_(354)
  6
Continuous
 62
     7
100
AcDbLine
 10
227.6645031109
 20
84.3928987432
 30
0.0
 11
262.7645031109
 21
84.3928987432
 31
0.0
  0
LINE
  5
3B1
330
39C
100
AcDbEntity
  8
$DDT_AUDIT_GENERATED_(354)
  6
Continuous
 62
     7
100
AcDbLine
 10
227.2645031109
 20
85.0857190662
 30
0.0
 11
263.1645031109
 21
85.0857190662
 31
0.0
  0
LINE
  5
3B2
330
39C
100
AcDbEntity
  8
$DDT_AUDIT_GENERATED_(354)
  6
Continuous
 62
     7
100
AcDbLine
 10
262.7645031109
 20
37.1928987432
 30
0.0
 11
262.7645031109
 21
84.3928987432
 31
0.0
  0
LINE
  5
3B3
330
39C
100
AcDbEntity
  8
$DDT_AUDIT_GENERATED_(354)
  6
Continuous
 62
     7
100
AcDbLine
 10
227.6645031109
 20
84.3928987432
 30
0.0
 11
227.6645031109
 21
37.1928987432
 31
0.0
  0
LINE
  5
3B4
330
39C
100
AcDbEntity
  8
$DDT_AUDIT_GENERATED_(354)
  6
Continuous
 62
     7
100
AcDbLine
 10
227.2645031109
 20
85.0857190662
 30
0.0
 11
227.6645031109
 21
84.3928987432
 31
0.0
  0
LINE
  5
3B5
330
39C
100
AcDbEntity
  8
$DDT_AUDIT_GENERATED_(354)
  6
Continuous
 62
     7
100
AcDbLine
 10
262.7645031109
 20
84.3928987432
 30
0.0
 11
263.1645031109
 21
85.0857190662
 31
0.0
  0
LINE
  5
3B6
330
39C
100
AcDbEntity
  8
$DDT_AUDIT_GENERATED_(354)
  6
Continuous
 62
     7
100
AcDbLine
 10
263.1645031109
 20
85.0857190662
 30
0.0
 11
263.1645031109
 21
106.6928987432
 31
0.0
  0
LINE
  5
3B7
330
39C
100
AcDbEntity
  8
$DDT_AUDIT_GENERATED_(354)
  6
Continuous
 62
     7
100
AcDbLine
 10
227.2645031109
 20
106.6928987432
 30
0.0
 11
227.2645031109
 21
85.0857190662
 31
0.0
  0
ARC
  5
3B8
330
39C
100
AcDbEntity
  8
$DDT_AUDIT_GENERATED_(354)
  6
Continuous
 62
     7
100
AcDbCircle
 10
262.9645031109
 20
106.6928987432
 30
0.0
 40
0.1999999999999988
100
AcDbArc
 50
0.0
 51
90.0
  0
ARC
  5
3B9
330
39C
100
AcDbEntity
  8
$DDT_AUDIT_GENERATED_(354)
  6
Continuous
 62
     7
100
AcDbCircle
 10
227.4645031109
 20
106.6928987432
 30
0.0
 40
0.1999999999999988
100
AcDbArc
 50
90.0
 51
180.0
  0
CIRCLE
  5
3BA
330
39C
100
AcDbEntity
  8
$DDT_AUDIT_GENERATED_(98)
  6
Continuous
 62
     7
100
AcDbCircle
 10
245.2145031109
 20
147.8928987432
 30
0.0
 40
1.5
  0
LINE
  5
3BB
330
39C
100
AcDbEntity
  8
$DDT_AUDIT_GENERATED_(98)
  6
Continuous
 62
     7
100
AcDbLine
 10
243.7145031109
 20
147.8928987432
 30
0.0
 11
243.7145031109
 21
132.0120672235
 31
0.0
  0
LINE
  5
3BC
330
39C
100
AcDbEntity
  8
$DDT_AUDIT_GENERATED_(98)
  6
Continuous
 62
     7
100
AcDbLine
 10
246.7145031109
 20
132.0120672235
 30
0.0
 11
246.7145031109
 21
147.8928987432
 31
0.0
  0
LINE
  5
3BD
330
39C
100
AcDbEntity
  8
$DDT_AUDIT_GENERATED_(98)
  6
Continuous
 62
     7
100
AcDbLine
 10
243.7145031109
 20
150.7737302628
 30
0.0
 11
243.7145031109
 21
149.3928987432
 31
0.0
  0
LINE
  5
3BE
330
39C
100
AcDbEntity
  8
$DDT_AUDIT_GENERATED_(98)
  6
Continuous
 62
     7
100
AcDbLine
 10
246.7145031109
 20
149.3928987432
 30
0.0
 11
246.7145031109
 21
150.7737302628
 31
0.0
  0
LINE
  5
3BF
330
39C
100
AcDbEntity
  8
$DDT_AUDIT_GENERATED_(98)
  6
Continuous
 62
     7
100
AcDbLine
 10
246.7145031109
 20
147.8928987432
 30
0.0
 11
246.7145031109
 21
149.3928987432
 31
0.0
  0
LINE
  5
3C0
330
39C
100
AcDbEntity
  8
$DDT_AUDIT_GENERATED_(98)
  6
Continuous
 62
     7
100
AcDbLine
 10
243.7145031109
 20
149.3928987432
 30
0.0
 11
243.7145031109
 21
147.8928987432
 31
0.0
  0
CIRCLE
  5
3C1
330
39C
100
AcDbEntity
  8
$DDT_AUDIT_GENERATED_(9B)
  6
Continuous
 62
     7
100
AcDbCircle
 10
245.2145031109
 20
141.3928987432
 30
0.0
 40
9.5
  0
CIRCLE
  5
3C2
330
39C
100
AcDbEntity
  8
$DDT_AUDIT_GENERATED_(9B)
  6
Continuous
 62
     7
100
AcDbCircle
 10
245.2145031109
 20
141.3928987432
 30
0.0
 40
10.6
  0
CIRCLE
  5
3C3
330
39C
100
AcDbEntity
  8
$DDT_AUDIT_GENERATED_(9B)
  6
Continuous
 62
     7
100
AcDbCircle
 10
245.2145031109
 20
141.3928987432
 30
0.0
 40
14.25
  0
CIRCLE
  5
3C4
330
39C
100
AcDbEntity
  8
$DDT_AUDIT_GENERATED_(9B)
  6
Continuous
 62
     7
100
AcDbCircle
 10
245.2145031109
 20
141.3928987432
 30
0.0
 40
11.1
  0
CIRCLE
  5
3C5
330
39C
100
AcDbEntity
  8
$DDT_AUDIT_GENERATED_(9B)
  6
Continuous
 62
     7
100
AcDbCircle
 10
245.2145031109
 20
141.3928987432
 30
0.0
 40
14.75
  0
LINE
  5
3C6
330
39C
100
AcDbEntity
  8
$DDT_AUDIT_GENERATED_(B5)
  6
Continuous
 62
     7
100
AcDbLine
 10
274.2145031109
 20
106.8928987432
 30
0.0
 11
261.493323707
 21
106.8928987432
 31
0.0
  0
LINE
  5
3C7
330
39C
100
AcDbEntity
  8
$DDT_AUDIT_GENERATED_(B5)
  6
Continuous
 62
     7
100
AcDbLine
 10
228.9356825148
 20
106.8928987432
 30
0.0
 11
216.2145031109
 21
106.8928987432
 31
0.0
  0
LINE
  5
3C8
330
39C
100
AcDbEntity
  8
$DDT_AUDIT_GENERATED_(B5)
  6
Continuous
 62
     7
100
AcDbLine
 10
274.2145031109
 20
156.8928987432
 30
0.0
 11
261.493323707
 21
156.8928987432
 31
0.0
  0
LINE
  5
3C9
330
39C
100
AcDbEntity
  8
$DDT_AUDIT_GENERATED_(B5)
  6
Continuous
 62
     7
100
AcDbLine
 10
228.9356825148
 20
156.8928987432
 30
0.0
 11
216.2145031109
 21
156.8928987432
 31
0.0
  0
LINE
  5
3CA
330
39C
100
AcDbEntity
  8
$DDT_AUDIT_GENERATED_(B5)
  6
Continuous
 62
     7
100
AcDbLine
 10
261.493323707
 20
156.8928987432
 30
0.0
 11
228.9356825148
 21
156.8928987432
 31
0.0
  0
LINE
  5
3CB
330
39C
100
AcDbEntity
  8
$DDT_AUDIT_GENERATED_(B5)
  6
Continuous
 62
     7
100
AcDbLine
 10
228.9356825148
 20
106.8928987432
 30
0.0
 11
261.493323707
 21
106.8928987432
 31
0.0
  0
LINE
  5
3CC
330
39C
100
AcDbEntity
  8
$DDT_AUDIT_GENERATED_(B5)
  6
Continuous
 62
     7
100
AcDbLine
 10
261.493323707
 20
156.8928987432
 30
0.0
 11
261.493323707
 21
106.8928987432
 31
0.0
  0
LINE
  5
3CD
330
39C
100
AcDbEntity
  8
$DDT_AUDIT_GENERATED_(B5)
  6
Continuous
 62
     7
100
AcDbLine
 10
228.9356825148
 20
106.8928987432
 30
0.0
 11
228.9356825148
 21
156.8928987432
 31
0.0
  0
LINE
  5
3CE
330
39C
100
AcDbEntity
  8
$DDT_AUDIT_GENERATED_(B5)
  6
Continuous
 62
     7
100
AcDbLine
 10
216.2145031109
 20
156.8928987432
 30
0.0
 11
216.2145031109
 21
106.8928987432
 31
0.0
  0
LINE
  5
3CF
330
39C
100
AcDbEntity
  8
$DDT_AUDIT_GENERATED_(B5)
  6
Continuous
 62
     7
100
AcDbLine
 10
274.2145031109
 20
106.8928987432
 30
0.0
 11
274.2145031109
 21
156.8928987432
 31
0.0
  0
LINE
  5
3D0
330
39C
100
AcDbEntity
  8
$DDT_AUDIT_GENERATED_(BB)
  6
Continuous
 62
     7
100
AcDbLine
 10
302.4797447469
 20
219.7928306497
 30
0.0
 11
294.1836441521
 21
219.7928306497
 31
0.0
  0
LINE
  5
3D1
330
39C
100
AcDbEntity
  8
$DDT_AUDIT_GENERATED_(BB)
  6
Continuous
 62
     7
100
AcDbLine
 10
294.5663253532
 20
211.7928306497
 30
0.0
 11
301.4797425495
 21
211.7928306497
 31
0.0
  0
LINE
  5
3D2
330
39C
100
AcDbEntity
  8
$DDT_AUDIT_GENERATED_(BB)
  6
Continuous
 62
     7
100
AcDbLine
 10
280.2581089082
 20
211.7928306497
 30
0.0
 11
294.5663253532
 21
211.7928306497
 31
0.0
  0
LINE
  5
3D3
330
39C
100
AcDbEntity
  8
$DDT_AUDIT_GENERATED_(BB)
  6
Continuous
 62
     7
100
AcDbLine
 10
295.17248418
 20
208.8540632325
 30
0.0
 11
295.1724841798
 21
171.3928306497
 31
0.0
  0
ARC
  5
3D4
330
39C
100
AcDbEntity
  8
$DDT_AUDIT_GENERATED_(BB)
  6
Continuous
 62
     7
100
AcDbCircle
 10
294.5724841798
 20
171.3928306497
 30
0.0
 40
0.5999999999999963
100
AcDbArc
 50
270.0000000134
 51
0.0
  0
LINE
  5
3D5
330
39C
100
AcDbEntity
  8
$DDT_AUDIT_GENERATED_(BB)
  6
Continuous
 62
     7
100
AcDbLine
 10
294.57248418
 20
170.7928306497
 30
0.0
 11
294.5724841801
 21
140.8928306497
 31
0.0
  0
LINE
  5
3D6
330
39C
100
AcDbEntity
  8
$DDT_AUDIT_GENERATED_(BB)
  6
Continuous
 62
     7
100
AcDbLine
 10
196.2453620702
 20
219.7928306497
 30
0.0
 11
187.9492614749
 21
219.7928306497
 31
0.0
  0
LINE
  5
3D7
330
39C
100
AcDbEntity
  8
$DDT_AUDIT_GENERATED_(BB)
  6
Continuous
 62
     7
100
AcDbLine
 10
212.7840232433
 20
219.7928306497
 30
0.0
 11
196.2453620702
 21
219.7928306497
 31
0.0
  0
LINE
  5
3D8
330
39C
100
AcDbEntity
  8
$DDT_AUDIT_GENERATED_(BB)
  6
Continuous
 62
     7
100
AcDbLine
 10
277.6449829784
 20
219.7928306497
 30
0.0
 11
212.7840232433
 21
219.7928306497
 31
0.0
  0
LINE
  5
3D9
330
39C
100
AcDbEntity
  8
$DDT_AUDIT_GENERATED_(BB)
  6
Continuous
 62
     7
100
AcDbLine
 10
294.1836441521
 20
219.7928306497
 30
0.0
 11
277.6449829784
 21
219.7928306497
 31
0.0
  0
LINE
  5
3DA
330
39C
100
AcDbEntity
  8
$DDT_AUDIT_GENERATED_(BB)
  6
Continuous
 62
     7
100
AcDbLine
 10
188.9492622073
 20
211.7928306497
 30
0.0
 11
195.8626782107
 21
211.7928306497
 31
0.0
  0
LINE
  5
3DB
330
39C
100
AcDbEntity
  8
$DDT_AUDIT_GENERATED_(BB)
  6
Continuous
 62
     7
100
AcDbLine
 10
212.7840232433
 20
219.7928306497
 30
0.0
 11
212.7840232433
 21
212.7928306497
 31
0.0
  0
SPLINE
  5
3DC
330
39C
100
AcDbEntity
  8
$DDT_AUDIT_GENERATED_(BB)
  6
Continuous
 62
     7
100
AcDbSpline
210
0.0
220
0.0
230
1.0
 70
     8
 71
     3
 72
    14
 73
    10
 74
     0
 42
0.0000000033358053
 43
0.0000000001
 40
0.0
 40
0.0
 40
0.0
 40
0.0
 40
0.2860504143146782
 40
0.543123348146509
 40
0.6283049345160319
 40
0.7007164062207113
 40
0.8270290931245218
 40
0.9235405211675787
 40
1.0
 40
1.0
 40
1.0
 40
1.0
 10
210.1708973136234
 20
211.7928306496639
 30
0.0
 10
210.4546240632038
 20
211.8026746185269
 30
0.0
 10
210.9933354739112
 20
211.8213653424705
 30
0.0
 10
211.6075561701242
 20
211.9460922390254
 30
0.0
 10
211.9981897075434
 20
212.0742455386647
 30
0.0
 10
212.2587996980001
 20
212.1827790499025
 30
0.0
 10
212.5095424335807
 20
212.3310957578049
 30
0.0
 10
212.7350461230571
 20
212.5453481274811
 30
0.0
 10
212.769009975855
 20
212.7169682617977
 30
0.0
 10
212.7840232432933
 20
212.7928306496642
 30
0.0
  0
LINE
  5
3DD
330
39C
100
AcDbEntity
  8
$DDT_AUDIT_GENERATED_(BB)
  6
Continuous
 62
     7
100
AcDbLine
 10
195.8626780239
 20
211.7928306497
 30
0.0
 11
210.1708973136
 21
211.7928306497
 31
0.0
  0
SPLINE
  5
3DE
330
39C
100
AcDbEntity
  8
$DDT_AUDIT_GENERATED_(BB)
  6
Continuous
 62
     7
100
AcDbSpline
210
0.0
220
0.0
230
1.0
 70
     8
 71
     3
 72
    13
 73
     9
 74
     0
 42
0.0000000033305656
 43
0.0000000001
 40
0.0
 40
0.0
 40
0.0
 40
0.0
 40
0.0483275054959138
 40
0.0968431219769858
 40
0.1827398968382951
 40
0.4569142255827869
 40
0.713969374894155
 40
1.0
 40
1.0
 40
1.0
 40
1.0
 10
277.6449829784432
 20
212.7928306496709
 30
0.0
 10
277.6493903217686
 20
212.7445418986911
 30
0.0
 10
277.6582221636148
 20
212.6477764365952
 30
0.0
 10
277.7540169416378
 20
212.4885868489165
 30
0.0
 10
278.0564160122691
 20
212.2135801785876
 30
0.0
 10
278.6405042040902
 20
211.9830712827842
 30
0.0
 10
279.434615637974
 20
211.821514779491
 30
0.0
 10
279.9740181641353
 20
211.8027261716844
 30
0.0
 10
280.2581089081534
 20
211.7928306496712
 30
0.0
  0
LINE
  5
3DF
330
39C
100
AcDbEntity
  8
$DDT_AUDIT_GENERATED_(BB)
  6
Continuous
 62
     7
100
AcDbLine
 10
277.6449829784
 20
219.7928306497
 30
0.0
 11
277.6449829784
 21
212.7928306497
 31
0.0
  0
LINE
  5
3E0
330
39C
100
AcDbEntity
  8
$DDT_AUDIT_GENERATED_(BB)
  6
Continuous
 62
     7
100
AcDbLine
 10
294.57248418
 20
170.7928306497
 30
0.0
 11
285.2145031105
 21
170.7928306497
 31
0.0
  0
LINE
  5
3E1
330
39C
100
AcDbEntity
  8
$DDT_AUDIT_GENERATED_(BB)
  6
Continuous
 62
     7
100
AcDbLine
 10
195.2565220419
 20
171.3928306497
 30
0.0
 11
195.2565220419
 21
208.8540632325
 31
0.0
  0
ARC
  5
3E2
330
39C
100
AcDbEntity
  8
$DDT_AUDIT_GENERATED_(BB)
  6
Continuous
 62
     7
100
AcDbCircle
 10
195.8565220419
 20
171.3928306497
 30
0.0
 40
0.5999999999999999
100
AcDbArc
 50
180.0
 51
270.0
  0
LINE
  5
3E3
330
39C
100
AcDbEntity
  8
$DDT_AUDIT_GENERATED_(BB)
  6
Continuous
 62
     7
100
AcDbLine
 10
205.2145031111
 20
170.7928306497
 30
0.0
 11
195.8565220418
 21
170.7928306497
 31
0.0
  0
LINE
  5
3E4
330
39C
100
AcDbEntity
  8
$DDT_AUDIT_GENERATED_(BB)
  6
Continuous
 62
     7
100
AcDbLine
 10
195.8565220419
 20
140.8928306497
 30
0.0
 11
195.8565220419
 21
170.7928306497
 31
0.0
  0
LINE
  5
3E5
330
39C
100
AcDbEntity
  8
$DDT_AUDIT_GENERATED_(BB)
  6
Continuous
 62
     7
100
AcDbLine
 10
302.4797447469
 20
212.7928306497
 30
0.0
 11
302.4797447469
 21
219.7928306497
 31
0.0
  0
ARC
  5
3E6
330
39C
100
AcDbEntity
  8
$DDT_AUDIT_GENERATED_(BB)
  6
Continuous
 62
     7
100
AcDbCircle
 10
301.4797447469
 20
212.7928306497
 30
0.0
 40
1.000000000001074
100
AcDbArc
 50
269.9999160665
 51
0.0
  0
ARC
  5
3E7
330
39C
100
AcDbEntity
  8
$DDT_AUDIT_GENERATED_(BB)
  6
Continuous
 62
     7
100
AcDbCircle
 10
188.9492614749
 20
212.7928306497
 30
0.0
 40
1.000000000000001
100
AcDbArc
 50
180.0
 51
270.0000839335
  0
LINE
  5
3E8
330
39C
100
AcDbEntity
  8
$DDT_AUDIT_GENERATED_(BB)
  6
Continuous
 62
     7
100
AcDbLine
 10
187.9492614749
 20
219.7928306497
 30
0.0
 11
187.9492614749
 21
212.7928306497
 31
0.0
  0
LINE
  5
3E9
330
39C
100
AcDbEntity
  8
$DDT_AUDIT_GENERATED_(C8)
  6
Continuous
 62
     7
100
AcDbLine
 10
295.2145031109
 20
139.3928306497
 30
0.0
 11
274.2145031109
 21
139.3928306497
 31
0.0
  0
LINE
  5
3EA
330
39C
100
AcDbEntity
  8
$DDT_AUDIT_GENERATED_(C8)
  6
Continuous
 62
     7
100
AcDbLine
 10
216.2145031109
 20
139.3928306497
 30
0.0
 11
195.2145031109
 21
139.3928306497
 31
0.0
  0
LINE
  5
3EB
330
39C
100
AcDbEntity
  8
$DDT_AUDIT_GENERATED_(C8)
  6
Continuous
 62
     7
100
AcDbLine
 10
295.2145031109
 20
140.8928306497
 30
0.0
 11
295.2145031109
 21
139.3928306497
 31
0.0
  0
LINE
  5
3EC
330
39C
100
AcDbEntity
  8
$DDT_AUDIT_GENERATED_(C8)
  6
Continuous
 62
     7
100
AcDbLine
 10
295.2145031109
 20
140.8928306497
 30
0.0
 11
274.2145031109
 21
140.8928306497
 31
0.0
  0
LINE
  5
3ED
330
39C
100
AcDbEntity
  8
$DDT_AUDIT_GENERATED_(C8)
  6
Continuous
 62
     7
100
AcDbLine
 10
216.2145031109
 20
140.8928306497
 30
0.0
 11
195.2145031109
 21
140.8928306497
 31
0.0
  0
LINE
  5
3EE
330
39C
100
AcDbEntity
  8
$DDT_AUDIT_GENERATED_(C8)
  6
Continuous
 62
     7
100
AcDbLine
 10
195.2145031109
 20
140.8928306497
 30
0.0
 11
195.2145031109
 21
139.3928306497
 31
0.0
  0
LINE
  5
3F0
330
39C
100
AcDbEntity
  8
DV3_Default
  6
Continuous
 62
     7
100
AcDbLine
 10
205.2145031111
 20
170.7928306497
 30
0.0
 11
285.2145031105
 21
170.7928306497
 31
0.0
  0
ENDBLK
  5
3F2
330
39C
100
AcDbEntity
  8
0
100
AcDbBlockEnd
  0
ENDSEC
  0
SECTION
  2
ENTITIES
  0
INSERT
  5
5F
330
1F
100
AcDbEntity
  8
Default
100
AcDbBlockReference
  2
SEANNOT_GROUP
 10
0.0
 20
0.0
 30
0.0
  0
INSERT
  5
6A
330
1F
100
AcDbEntity
  8
Default
100
AcDbBlockReference
  2
SEANNOT_GROUP1
 10
0.0
 20
0.0
 30
0.0
  0
INSERT
  5
70
330
1F
100
AcDbEntity
  8
Default
100
AcDbBlockReference
  2
SEANNOT_GROUP2
 10
0.0
 20
0.0
 30
0.0
  0
INSERT
  5
76
330
1F
100
AcDbEntity
  8
Default
100
AcDbBlockReference
  2
SEANNOT_GROUP3
 10
0.0
 20
0.0
 30
0.0
  0
INSERT
  5
80
330
1F
100
AcDbEntity
  8
Default
100
AcDbBlockReference
  2
SEANNOT_GROUP4
 10
0.0
 20
0.0
 30
0.0
  0
INSERT
  5
86
330
1F
100
AcDbEntity
  8
Default
100
AcDbBlockReference
  2
SEANNOT_GROUP5
 10
0.0
 20
0.0
 30
0.0
  0
INSERT
  5
8C
330
1F
100
AcDbEntity
  8
Default
100
AcDbBlockReference
  2
SE
 10
0.0
 20
0.0
 30
0.0
  0
INSERT
  5
341
330
1F
100
AcDbEntity
  8
Default
100
AcDbBlockReference
  2
SE1
 10
0.0
 20
0.0
 30
0.0
  0
INSERT
  5
39D
330
1F
100
AcDbEntity
  8
Default
100
AcDbBlockReference
  2
SE2
 10
0.0
 20
0.0
 30
0.0
  0
TEXT
  5
3F4
330
1F
100
AcDbEntity
  8
Default
  6
Continuous
 62
     7
100
AcDbText
 10
5.9362635081
 20
53.4225120485
 30
0.0
 40
10.0
  1
Grohe AG^J
  7
SEACAD_seiso_ttf
 11
5.9362635081
 21
63.4225120485
 31
0.0
100
AcDbText
 73
     3
  0
TEXT
  5
3F5
330
1F
100
AcDbEntity
  8
Default
  6
Continuous
 62
     7
100
AcDbText
 10
5.9362635081
 20
37.0588756849
 30
0.0
 40
10.0
  1
 
  7
SEACAD_seiso_ttf
 11
5.9362635081
 21
47.0588756849
 31
0.0
100
AcDbText
 73
     3
  0
TEXT
  5
3F6
330
1F
100
AcDbEntity
  8
Default
  6
Continuous
 62
     7
100
AcDbText
 10
5.9362635081
 20
20.6952393213
 30
0.0
 40
10.0
  1
ecn:
  7
SEACAD_seiso_ttf
 11
5.9362635081
 21
30.6952393213
 31
0.0
100
AcDbText
 73
     3
  0
TEXT
  5
3F7
330
1F
100
AcDbEntity
  8
Default
  6
Continuous
 62
     7
100
AcDbText
 10
5.9362635081
 20
4.3316029576
 30
0.0
 40
10.0
  1
unit: mm
  7
SEACAD_seiso_ttf
 11
5.9362635081
 21
14.3316029576
 31
0.0
100
AcDbText
 73
     3
  0
LINE
  5
3F8
330
1F
100
AcDbEntity
  8
Default
  6
Continuous
 62
     7
100
AcDbLine
 10
0.0
 20
0.0
 30
0.0
 11
100.0
 21
0.0
 31
0.0
  0
LINE
  5
3F9
330
1F
100
AcDbEntity
  8
Default
  6
Continuous
 62
     7
100
AcDbLine
 10
0.0
 20
0.0
 30
0.0
 11
0.0
 21
100.0
 31
0.0
  0
TEXT
  5
3FA
330
1F
100
AcDbEntity
  8
Default
  6
Continuous
 62
     7
100
AcDbText
 10
24.3923665681
 20
-18.2375342018
 30
0.0
 40
10.0
  1
100 mm
  7
SEACAD_seiso_ttf
 11
24.3923665681
 21
-8.2375342018
 31
0.0
100
AcDbText
 73
     3
  0
TEXT
  5
3FB
330
1F
100
AcDbEntity
  8
Default
  6
Continuous
 62
     7
100
AcDbText
 10
-7.6150308803
 20
24.6231930421
 30
0.0
 40
10.0
  1
100 mm
 50
90.0
  7
SEACAD_seiso_ttf
 11
-17.6150308803
 21
24.6231930421
 31
0.0
100
AcDbText
 73
     3
  0
TEXT
  5
3FC
330
1F
100
AcDbEntity
  8
Default
  6
Continuous
 62
     7
100
AcDbText
 10
28.4878128572
 20
20.0907663715
 30
0.0
 40
10.0
  1
225996
  7
SEACAD_seiso_ttf
 11
28.4878128572
 21
30.0907663715
 31
0.0
100
AcDbText
 73
     3
  0
TEXT
  5
3FD
330
1F
100
AcDbEntity
  8
Default
  6
Continuous
 62
     7
100
AcDbText
 10
5.9012241913
 20
36.7242780188
 30
0.0
 40
10.0
  1
29074000
  7
SEACAD_seiso_ttf
 11
5.9012241913
 21
46.7242780188
 31
0.0
100
AcDbText
 73
     3
  0
ENDSEC
  0
SECTION
  2
OBJECTS
  0
DICTIONARY
  5
C
330
0
100
AcDbDictionary
281
     1
  3
ACAD_GROUP
350
D
  3
ACAD_LAYOUT
350
1A
  3
ACAD_MLEADERSTYLE
350
401
  3
ACAD_MLINESTYLE
350
17
  3
ACAD_PLOTSETTINGS
350
19
  3
ACAD_PLOTSTYLENAME
350
E
  3
ACAD_SCALELIST
350
3B
  3
ACAD_TABLESTYLE
350
400
  3
ACAD_VISUALSTYLE
350
2A
  3
AcDbVariableDictionary
350
3FE
  0
DICTIONARY
  5
D
102
{ACAD_REACTORS
330
C
102
}
330
C
100
AcDbDictionary
281
     1
  0
DICTIONARY
  5
1A
102
{ACAD_REACTORS
330
C
102
}
330
C
100
AcDbDictionary
281
     1
  3
Layout1
350
1E
  3
Model
350
22
  0
DICTIONARY
  5
401
102
{ACAD_REACTORS
330
C
102
}
330
C
100
AcDbDictionary
281
     1
  0
DICTIONARY
  5
17
102
{ACAD_REACTORS
330
C
102
}
330
C
100
AcDbDictionary
281
     1
  3
Standard
350
18
  0
DICTIONARY
  5
19
102
{ACAD_REACTORS
330
C
102
}
330
C
100
AcDbDictionary
281
     1
  0
ACDBDICTIONARYWDFLT
  5
E
102
{ACAD_REACTORS
330
C
102
}
330
C
100
AcDbDictionary
281
     1
  3
Normal
350
F
100
AcDbDictionaryWithDefault
340
F
  0
DICTIONARY
  5
3B
102
{ACAD_REACTORS
330
C
102
}
330
C
100
AcDbDictionary
281
     1
  3
A0
350
3C
  3
A1
350
3D
  3
A2
350
3E
  3
A3
350
3F
  3
A4
350
40
  3
A5
350
41
  3
A6
350
42
  3
A7
350
43
  3
A8
350
44
  3
A9
350
45
  3
B0
350
46
  3
B1
350
47
  3
B2
350
48
  3
B3
350
49
  3
B4
350
4A
  3
B5
350
4B
  3
B6
350
4C
  3
B7
350
4D
  3
B8
350
4E
  3
B9
350
4F
  3
C0
350
50
  3
C1
350
51
  3
C2
350
52
  3
C3
350
53
  3
C4
350
54
  3
C5
350
55
  3
C6
350
56
  3
C7
350
57
  3
C8
350
58
  3
C9
350
59
  3
D0
350
5A
  3
D1
350
5B
  3
D2
350
5C
  0
DICTIONARY
  5
400
102
{ACAD_REACTORS
330
C
102
}
330
C
100
AcDbDictionary
281
     1
  0
DICTIONARY
  5
2A
102
{ACAD_REACTORS
330
C
102
}
330
C
100
AcDbDictionary
281
     1
  3
2dWireframe
350
2F
  3
3D Hidden
350
31
  3
3dWireframe
350
30
  3
Basic
350
32
  3
Brighten
350
36
  3
ColorChange
350
3A
  3
Conceptual
350
34
  3
Dim
350
35
  3
Facepattern
350
39
  3
Flat
350
2B
  3
FlatWithEdges
350
2C
  3
Gouraud
350
2D
  3
GouraudWithEdges
350
2E
  3
Linepattern
350
38
  3
Realistic
350
33
  3
Thicken
350
37
  0
DICTIONARY
  5
3FE
102
{ACAD_REACTORS
330
C
102
}
330
C
100
AcDbDictionary
281
     1
  3
CANNOSCALE
350
3FF
  3
PSOLHEIGHT
350
403
  3
PSOLWIDTH
350
402
  0
LAYOUT
  5
1E
102
{ACAD_REACTORS
330
1A
102
}
330
1A
100
AcDbPlotSettings
  1

  2
none_device
  4

  6

 40
0.0
 41
0.0
 42
0.0
 43
0.0
 44
0.0
 45
0.0
 46
0.0
 47
0.0
 48
0.0
 49
0.0
140
0.0
141
0.0
142
1.0
143
1.0
 70
   688
 72
     0
 73
     0
 74
     5
  7

 75
    16
147
1.0
148
0.0
149
0.0
100
AcDbLayout
  1
Layout1
 70
     1
 71
     1
 10
0.0
 20
0.0
 11
3000.0
 21
4500.0
 12
0.0
 22
0.0
 32
0.0
 14
0.0
 24
0.0
 34
0.0
 15
3000.0
 25
4500.0
 35
0.0
146
0.0
 13
0.0
 23
0.0
 33
0.0
 16
1.0
 26
0.0
 36
0.0
 17
0.0
 27
1.0
 37
0.0
 76
     0
330
1B
  0
LAYOUT
  5
22
102
{ACAD_REACTORS
330
1A
102
}
330
1A
100
AcDbPlotSettings
  1

  2
none_device
  4

  6

 40
0.0
 41
0.0
 42
0.0
 43
0.0
 44
0.0
 45
0.0
 46
0.0
 47
0.0
 48
0.0
 49
0.0
140
0.0
141
0.0
142
1.0
143
1.0
 70
  1712
 72
     0
 73
     0
 74
     0
  7

 75
     0
147
1.0
148
0.0
149
0.0
100
AcDbLayout
  1
Model
 70
     1
 71
     0
 10
0.0
 20
0.0
 11
3000.0
 21
4500.0
 12
0.0
 22
0.0
 32
0.0
 14
0.0
 24
0.0
 34
0.0
 15
3000.0
 25
4500.0
 35
0.0
146
0.0
 13
0.0
 23
0.0
 33
0.0
 16
1.0
 26
0.0
 36
0.0
 17
0.0
 27
1.0
 37
0.0
 76
     0
330
1F
331
29
  0
MLINESTYLE
  5
18
102
{ACAD_REACTORS
330
17
102
}
330
17
100
AcDbMlineStyle
  2
Standard
 70
     0
  3

 62
   256
 51
90.0
 52
90.0
 71
     2
 49
0.5
 62
   256
  6
BYLAYER
 49
-0.5
 62
   256
  6
BYLAYER
  0
ACDBPLACEHOLDER
  5
F
102
{ACAD_REACTORS
330
E
102
}
330
E
  0
SCALE
  5
3C
102
{ACAD_REACTORS
330
3B
102
}
330
3B
100
AcDbScale
 70
     0
300
1:1
140
1.0
141
1.0
290
     1
  0
SCALE
  5
3D
102
{ACAD_REACTORS
330
3B
102
}
330
3B
100
AcDbScale
 70
     0
300
1:2
140
1.0
141
2.0
290
     0
  0
SCALE
  5
3E
102
{ACAD_REACTORS
330
3B
102
}
330
3B
100
AcDbScale
 70
     0
300
1:4
140
1.0
141
4.0
290
     0
  0
SCALE
  5
3F
102
{ACAD_REACTORS
330
3B
102
}
330
3B
100
AcDbScale
 70
     0
300
1:5
140
1.0
141
5.0
290
     0
  0
SCALE
  5
40
102
{ACAD_REACTORS
330
3B
102
}
330
3B
100
AcDbScale
 70
     0
300
1:8
140
1.0
141
8.0
290
     0
  0
SCALE
  5
41
102
{ACAD_REACTORS
330
3B
102
}
330
3B
100
AcDbScale
 70
     0
300
1:10
140
1.0
141
10.0
290
     0
  0
SCALE
  5
42
102
{ACAD_REACTORS
330
3B
102
}
330
3B
100
AcDbScale
 70
     0
300
1:16
140
1.0
141
16.0
290
     0
  0
SCALE
  5
43
102
{ACAD_REACTORS
330
3B
102
}
330
3B
100
AcDbScale
 70
     0
300
1:20
140
1.0
141
20.0
290
     0
  0
SCALE
  5
44
102
{ACAD_REACTORS
330
3B
102
}
330
3B
100
AcDbScale
 70
     0
300
1:30
140
1.0
141
30.0
290
     0
  0
SCALE
  5
45
102
{ACAD_REACTORS
330
3B
102
}
330
3B
100
AcDbScale
 70
     0
300
1:40
140
1.0
141
40.0
290
     0
  0
SCALE
  5
46
102
{ACAD_REACTORS
330
3B
102
}
330
3B
100
AcDbScale
 70
     0
300
1:50
140
1.0
141
50.0
290
     0
  0
SCALE
  5
47
102
{ACAD_REACTORS
330
3B
102
}
330
3B
100
AcDbScale
 70
     0
300
1:100
140
1.0
141
100.0
290
     0
  0
SCALE
  5
48
102
{ACAD_REACTORS
330
3B
102
}
330
3B
100
AcDbScale
 70
     0
300
2:1
140
2.0
141
1.0
290
     0
  0
SCALE
  5
49
102
{ACAD_REACTORS
330
3B
102
}
330
3B
100
AcDbScale
 70
     0
300
4:1
140
4.0
141
1.0
290
     0
  0
SCALE
  5
4A
102
{ACAD_REACTORS
330
3B
102
}
330
3B
100
AcDbScale
 70
     0
300
8:1
140
8.0
141
1.0
290
     0
  0
SCALE
  5
4B
102
{ACAD_REACTORS
330
3B
102
}
330
3B
100
AcDbScale
 70
     0
300
10:1
140
10.0
141
1.0
290
     0
  0
SCALE
  5
4C
102
{ACAD_REACTORS
330
3B
102
}
330
3B
100
AcDbScale
 70
     0
300
100:1
140
100.0
141
1.0
290
     0
  0
SCALE
  5
4D
102
{ACAD_REACTORS
330
3B
102
}
330
3B
100
AcDbScale
 70
     0
300
1/128" = 1'-0"
140
0.0078125
141
12.0
290
     0
  0
SCALE
  5
4E
102
{ACAD_REACTORS
330
3B
102
}
330
3B
100
AcDbScale
 70
     0
300
1/64" = 1'-0"
140
0.015625
141
12.0
290
     0
  0
SCALE
  5
4F
102
{ACAD_REACTORS
330
3B
102
}
330
3B
100
AcDbScale
 70
     0
300
1/32" = 1'-0"
140
0.03125
141
12.0
290
     0
  0
SCALE
  5
50
102
{ACAD_REACTORS
330
3B
102
}
330
3B
100
AcDbScale
 70
     0
300
1/16" = 1'-0"
140
0.0625
141
12.0
290
     0
  0
SCALE
  5
51
102
{ACAD_REACTORS
330
3B
102
}
330
3B
100
AcDbScale
 70
     0
300
3/32" = 1'-0"
140
0.09375
141
12.0
290
     0
  0
SCALE
  5
52
102
{ACAD_REACTORS
330
3B
102
}
330
3B
100
AcDbScale
 70
     0
300
1/8" = 1'-0"
140
0.125
141
12.0
290
     0
  0
SCALE
  5
53
102
{ACAD_REACTORS
330
3B
102
}
330
3B
100
AcDbScale
 70
     0
300
3/16" = 1'-0"
140
0.1875
141
12.0
290
     0
  0
SCALE
  5
54
102
{ACAD_REACTORS
330
3B
102
}
330
3B
100
AcDbScale
 70
     0
300
1/4" = 1'-0"
140
0.25
141
12.0
290
     0
  0
SCALE
  5
55
102
{ACAD_REACTORS
330
3B
102
}
330
3B
100
AcDbScale
 70
     0
300
3/8" = 1'-0"
140
0.375
141
12.0
290
     0
  0
SCALE
  5
56
102
{ACAD_REACTORS
330
3B
102
}
330
3B
100
AcDbScale
 70
     0
300
1/2" = 1'-0"
140
0.5
141
12.0
290
     0
  0
SCALE
  5
57
102
{ACAD_REACTORS
330
3B
102
}
330
3B
100
AcDbScale
 70
     0
300
3/4" = 1'-0"
140
0.75
141
12.0
290
     0
  0
SCALE
  5
58
102
{ACAD_REACTORS
330
3B
102
}
330
3B
100
AcDbScale
 70
     0
300
1" = 1'-0"
140
1.0
141
12.0
290
     0
  0
SCALE
  5
59
102
{ACAD_REACTORS
330
3B
102
}
330
3B
100
AcDbScale
 70
     0
300
1-1/2" = 1'-0"
140
1.5
141
12.0
290
     0
  0
SCALE
  5
5A
102
{ACAD_REACTORS
330
3B
102
}
330
3B
100
AcDbScale
 70
     0
300
3" = 1'-0"
140
3.0
141
12.0
290
     0
  0
SCALE
  5
5B
102
{ACAD_REACTORS
330
3B
102
}
330
3B
100
AcDbScale
 70
     0
300
6" = 1'-0"
140
6.0
141
12.0
290
     0
  0
SCALE
  5
5C
102
{ACAD_REACTORS
330
3B
102
}
330
3B
100
AcDbScale
 70
     0
300
1'-0" = 1'-0"
140
12.0
141
12.0
290
     0
  0
VISUALSTYLE
  5
2F
102
{ACAD_REACTORS
330
2A
102
}
330
2A
100
AcDbVisualStyle
  2
2dWireframe
 70
     4
 71
     0
 72
     2
 73
     0
 90
        0
 40
-0.6
 41
-30.0
 62
     5
 63
     7
 74
     1
 91
        4
 64
     7
 65
   257
 75
     1
175
     1
 42
1.0
 92
        0
 66
   257
 43
1.0
 76
     1
 77
     6
 78
     2
 67
     7
 79
     5
170
     0
171
     0
290
     0
174
     0
 93
        1
 44
0.0
173
     0
291
     0
 45
0.0
1001
ACAD
1000
AcDbSavedByObjectVersion
1070
     0
  0
VISUALSTYLE
  5
31
102
{ACAD_REACTORS
330
2A
102
}
330
2A
100
AcDbVisualStyle
  2
3D Hidden
 70
     6
 71
     1
 72
     2
 73
     2
 90
        0
 40
-0.6
 41
-30.0
 62
     5
 63
     7
 74
     2
 91
        2
 64
     7
 65
   257
 75
     2
175
     1
 42
40.0
 92
        0
 66
   257
 43
1.0
 76
     1
 77
     6
 78
     2
 67
     7
 79
     3
170
     0
171
     0
290
     0
174
     0
 93
        1
 44
0.0
173
     0
291
     0
 45
0.0
1001
ACAD
1000
AcDbSavedByObjectVersion
1070
     0
  0
VISUALSTYLE
  5
30
102
{ACAD_REACTORS
330
2A
102
}
330
2A
100
AcDbVisualStyle
  2
3dWireframe
 70
     5
 71
     0
 72
     2
 73
     0
 90
        0
 40
-0.6
 41
-30.0
 62
     5
 63
     7
 74
     1
 91
        4
 64
     7
 65
   257
 75
     1
175
     1
 42
1.0
 92
        0
 66
   257
 43
1.0
 76
     1
 77
     6
 78
     2
 67
     7
 79
     5
170
     0
171
     0
290
     0
174
     0
 93
        1
 44
0.0
173
     0
291
     0
 45
0.0
1001
ACAD
1000
AcDbSavedByObjectVersion
1070
     0
  0
VISUALSTYLE
  5
32
102
{ACAD_REACTORS
330
2A
102
}
330
2A
100
AcDbVisualStyle
  2
Basic
 70
     7
 71
     1
 72
     0
 73
     1
 90
        0
 40
-0.6
 41
-30.0
 62
     5
 63
     7
 74
     0
 91
        4
 64
     7
 65
   257
 75
     1
175
     1
 42
1.0
 92
        8
 66
     7
 43
1.0
 76
     1
 77
     6
 78
     2
 67
     7
 79
     5
170
     0
171
     0
290
     0
174
     0
 93
        1
 44
0.0
173
     0
291
     1
 45
0.0
1001
ACAD
1000
AcDbSavedByObjectVersion
1070
     0
  0
VISUALSTYLE
  5
36
102
{ACAD_REACTORS
330
2A
102
}
330
2A
100
AcDbVisualStyle
  2
Brighten
 70
    12
 71
     2
 72
     2
 73
     0
 90
        0
 40
-0.6
 41
-30.0
 62
     5
 63
     7
 74
     1
 91
        4
 64
     7
 65
   257
 75
     1
175
     1
 42
1.0
 92
        8
 66
     7
 43
1.0
 76
     1
 77
     6
 78
     2
 67
     7
 79
     5
170
     0
171
     0
290
     0
174
     0
 93
        1
 44
50.0
173
     0
291
     1
 45
0.0
1001
ACAD
1000
AcDbSavedByObjectVersion
1070
     0
  0
VISUALSTYLE
  5
3A
102
{ACAD_REACTORS
330
2A
102
}
330
2A
100
AcDbVisualStyle
  2
ColorChange
 70
    16
 71
     2
 72
     2
 73
     3
 90
        0
 40
-0.6
 41
-30.0
 62
     5
 63
     8
 74
     1
 91
        4
 64
     7
 65
   257
 75
     1
175
     1
 42
1.0
 92
        8
 66
     8
 43
1.0
 76
     1
 77
     6
 78
     2
 67
     7
 79
     5
170
     0
171
     0
290
     0
174
     0
 93
        1
 44
0.0
173
     0
291
     1
 45
0.0
1001
ACAD
1000
AcDbSavedByObjectVersion
1070
     0
  0
VISUALSTYLE
  5
34
102
{ACAD_REACTORS
330
2A
102
}
330
2A
100
AcDbVisualStyle
  2
Conceptual
 70
     9
 71
     3
 72
     2
 73
     0
 90
        0
 40
-0.6
 41
-30.0
 62
     5
 63
     7
 74
     2
 91
        2
 64
     7
 65
   257
 75
     1
175
     1
 42
40.0
 92
        8
 66
     7
 43
1.0
 76
     1
 77
     6
 78
     2
 67
     7
 79
     3
170
     0
171
     0
290
     0
174
     0
 93
        1
 44
0.0
173
     0
291
     0
 45
0.0
1001
ACAD
1000
AcDbSavedByObjectVersion
1070
     0
  0
VISUALSTYLE
  5
35
102
{ACAD_REACTORS
330
2A
102
}
330
2A
100
AcDbVisualStyle
  2
Dim
 70
    11
 71
     2
 72
     2
 73
     0
 90
        0
 40
-0.6
 41
-30.0
 62
     5
 63
     7
 74
     1
 91
        4
 64
     7
 65
   257
 75
     1
175
     1
 42
1.0
 92
        8
 66
     7
 43
1.0
 76
     1
 77
     6
 78
     2
 67
     7
 79
     5
170
     0
171
     0
290
     0
174
     0
 93
        1
 44
-50.0
173
     0
291
     1
 45
0.0
1001
ACAD
1000
AcDbSavedByObjectVersion
1070
     0
  0
VISUALSTYLE
  5
39
102
{ACAD_REACTORS
330
2A
102
}
330
2A
100
AcDbVisualStyle
  2
Facepattern
 70
    15
 71
     2
 72
     2
 73
     0
 90
        0
 40
-0.6
 41
-30.0
 62
     5
 63
     7
 74
     1
 91
        4
 64
     7
 65
   257
 75
     1
175
     1
 42
1.0
 92
        8
 66
     7
 43
1.0
 76
     1
 77
     6
 78
     2
 67
     7
 79
     5
170
     0
171
     0
290
     0
174
     0
 93
        1
 44
0.0
173
     0
291
     1
 45
0.0
1001
ACAD
1000
AcDbSavedByObjectVersion
1070
     0
  0
VISUALSTYLE
  5
2B
102
{ACAD_REACTORS
330
2A
102
}
330
2A
100
AcDbVisualStyle
  2
Flat
 70
     0
 71
     2
 72
     1
 73
     1
 90
        2
 40
-0.6
 41
30.0
 62
     5
 63
     7
 74
     0
 91
        4
 64
     7
 65
   257
 75
     1
175
     1
 42
1.0
 92
        8
 66
     7
 43
1.0
 76
     1
 77
     6
 78
     2
 67
     7
 79
     5
170
     0
171
     0
290
     0
174
     0
 93
       13
 44
0.0
173
     0
291
     1
 45
0.0
1001
ACAD
1000
AcDbSavedByObjectVersion
1070
     0
  0
VISUALSTYLE
  5
2C
102
{ACAD_REACTORS
330
2A
102
}
330
2A
100
AcDbVisualStyle
  2
FlatWithEdges
 70
     1
 71
     2
 72
     1
 73
     1
 90
        2
 40
-0.6
 41
30.0
 62
     5
 63
     7
 74
     1
 91
        4
 64
     7
 65
   257
 75
     1
175
     1
 42
1.0
 92
        0
 66
   257
 43
1.0
 76
     1
 77
     6
 78
     2
 67
     7
 79
     5
170
     0
171
     0
290
     0
174
     0
 93
       13
 44
0.0
173
     0
291
     1
 45
0.0
1001
ACAD
1000
AcDbSavedByObjectVersion
1070
     0
  0
VISUALSTYLE
  5
2D
102
{ACAD_REACTORS
330
2A
102
}
330
2A
100
AcDbVisualStyle
  2
Gouraud
 70
     2
 71
     2
 72
     2
 73
     1
 90
        2
 40
-0.6
 41
30.0
 62
     5
 63
     7
 74
     0
 91
        4
 64
     7
 65
   257
 75
     1
175
     1
 42
1.0
 92
        0
 66
     7
 43
1.0
 76
     1
 77
     6
 78
     2
 67
     7
 79
     5
170
     0
171
     0
290
     0
174
     0
 93
       13
 44
0.0
173
     0
291
     1
 45
0.0
1001
ACAD
1000
AcDbSavedByObjectVersion
1070
     0
  0
VISUALSTYLE
  5
2E
102
{ACAD_REACTORS
330
2A
102
}
330
2A
100
AcDbVisualStyle
  2
GouraudWithEdges
 70
     3
 71
     2
 72
     2
 73
     1
 90
        2
 40
-0.6
 41
30.0
 62
     5
 63
     7
 74
     1
 91
        4
 64
     7
 65
   257
 75
     1
175
     1
 42
1.0
 92
        0
 66
   257
 43
1.0
 76
     1
 77
     6
 78
     2
 67
     7
 79
     5
170
     0
171
     0
290
     0
174
     0
 93
       13
 44
0.0
173
     0
291
     1
 45
0.0
1001
ACAD
1000
AcDbSavedByObjectVersion
1070
     0
  0
VISUALSTYLE
  5
38
102
{ACAD_REACTORS
330
2A
102
}
330
2A
100
AcDbVisualStyle
  2
Linepattern
 70
    14
 71
     2
 72
     2
 73
     0
 90
        0
 40
-0.6
 41
-30.0
 62
     5
 63
     7
 74
     1
 91
        4
 64
     7
 65
   257
 75
     7
175
     7
 42
1.0
 92
        8
 66
     7
 43
1.0
 76
     1
 77
     6
 78
     2
 67
     7
 79
     5
170
     0
171
     0
290
     0
174
     0
 93
        1
 44
0.0
173
     0
291
     1
 45
0.0
1001
ACAD
1000
AcDbSavedByObjectVersion
1070
     0
  0
VISUALSTYLE
  5
33
102
{ACAD_REACTORS
330
2A
102
}
330
2A
100
AcDbVisualStyle
  2
Realistic
 70
     8
 71
     2
 72
     2
 73
     0
 90
        0
 40
-0.6
 41
-30.0
 62
     5
 63
     7
 74
     1
 91
        0
 64
     7
 65
   257
 75
     1
175
     1
 42
1.0
 92
        8
 66
     8
 43
1.0
 76
     1
 77
     6
 78
     2
 67
     7
 79
     5
170
     0
171
     0
290
     0
174
     0
 93
       13
 44
0.0
173
     0
291
     0
 45
0.0
1001
ACAD
1000
AcDbSavedByObjectVersion
1070
     0
  0
VISUALSTYLE
  5
37
102
{ACAD_REACTORS
330
2A
102
}
330
2A
100
AcDbVisualStyle
  2
Thicken
 70
    13
 71
     2
 72
     2
 73
     0
 90
        0
 40
-0.6
 41
-30.0
 62
     5
 63
     7
 74
     1
 91
        4
 64
     7
 65
   257
 75
     1
175
     1
 42
1.0
 92
       12
 66
     7
 43
1.0
 76
     1
 77
     6
 78
     2
 67
     7
 79
     5
170
     0
171
     0
290
     0
174
     0
 93
        1
 44
0.0
173
     0
291
     1
 45
0.0
1001
ACAD
1000
AcDbSavedByObjectVersion
1070
     0
  0
DICTIONARYVAR
  5
3FF
102
{ACAD_REACTORS
330
3FE
102
}
330
3FE
100
DictionaryVariables
280
     0
  1
1:1
  0
DICTIONARYVAR
  5
403
102
{ACAD_REACTORS
330
3FE
102
}
330
3FE
100
DictionaryVariables
280
     0
  1
80.000000
  0
DICTIONARYVAR
  5
402
102
{ACAD_REACTORS
330
3FE
102
}
330
3FE
100
DictionaryVariables
280
     0
  1
5.000000
  0
ENDSEC
  0
EOF
