  0
SECTION
  2
HEADER
  9
$ACADVER
  1
AC1015
  9
$ACADMAINTVER
 70
     6
  9
$DWGCODEPAGE
  3
ANSI_1252
  9
$INSBASE
 10
0.0
 20
0.0
 30
0.0
  9
$EXTMIN
 10
0.0
 20
0.0
 30
0.0
  9
$EXTMAX
 10
3000.0
 20
4500.0
 30
0.0
  9
$LIMMIN
 10
0.0
 20
0.0
  9
$LIMMAX
 10
3000.0
 20
4500.0
  9
$ORTHOMODE
 70
     0
  9
$REGENMODE
 70
     1
  9
$FILLMODE
 70
     1
  9
$QTEXTMODE
 70
     0
  9
$MIRRTEXT
 70
     1
  9
$LTSCALE
 40
1.0
  9
$ATTMODE
 70
     1
  9
$TEXTSIZE
 40
2.5
  9
$TRACEWID
 40
1.0
  9
$TEXTSTYLE
  7
Standard
  9
$CLAYER
  8
0
  9
$CELTYPE
  6
ByLayer
  9
$CECOLOR
 62
   256
  9
$CELTSCALE
 40
1.0
  9
$DISPSILH
 70
     0
  9
$DIMSCALE
 40
1.0
  9
$DIMASZ
 40
2.5
  9
$DIMEXO
 40
0.625
  9
$DIMDLI
 40
3.75
  9
$DIMRND
 40
0.0
  9
$DIMDLE
 40
0.0
  9
$DIMEXE
 40
1.25
  9
$DIMTP
 40
0.0
  9
$DIMTM
 40
0.0
  9
$DIMTXT
 40
2.5
  9
$DIMCEN
 40
2.5
  9
$DIMTSZ
 40
0.0
  9
$DIMTOL
 70
     0
  9
$DIMLIM
 70
     0
  9
$DIMTIH
 70
     0
  9
$DIMTOH
 70
     0
  9
$DIMSE1
 70
     0
  9
$DIMSE2
 70
     0
  9
$DIMTAD
 70
     1
  9
$DIMZIN
 70
     8
  9
$DIMBLK
  1

  9
$DIMASO
 70
     1
  9
$DIMSHO
 70
     1
  9
$DIMPOST
  1

  9
$DIMAPOST
  1

  9
$DIMALT
 70
     0
  9
$DIMALTD
 70
     3
  9
$DIMALTF
 40
0.0393700787
  9
$DIMLFAC
 40
1.0
  9
$DIMTOFL
 70
     1
  9
$DIMTVP
 40
0.0
  9
$DIMTIX
 70
     0
  9
$DIMSOXD
 70
     0
  9
$DIMSAH
 70
     0
  9
$DIMBLK1
  1

  9
$DIMBLK2
  1

  9
$DIMSTYLE
  2
ISO-25
  9
$DIMCLRD
 70
     0
  9
$DIMCLRE
 70
     0
  9
$DIMCLRT
 70
     0
  9
$DIMTFAC
 40
1.0
  9
$DIMGAP
 40
0.625
  9
$DIMJUST
 70
     0
  9
$DIMSD1
 70
     0
  9
$DIMSD2
 70
     0
  9
$DIMTOLJ
 70
     0
  9
$DIMTZIN
 70
     8
  9
$DIMALTZ
 70
     0
  9
$DIMALTTZ
 70
     0
  9
$DIMUPT
 70
     0
  9
$DIMDEC
 70
     2
  9
$DIMTDEC
 70
     2
  9
$DIMALTU
 70
     2
  9
$DIMALTTD
 70
     3
  9
$DIMTXSTY
  7
Standard
  9
$DIMAUNIT
 70
     0
  9
$DIMADEC
 70
     0
  9
$DIMALTRND
 40
0.0
  9
$DIMAZIN
 70
     0
  9
$DIMDSEP
 70
    44
  9
$DIMATFIT
 70
     3
  9
$DIMFRAC
 70
     0
  9
$DIMLDRBLK
  1

  9
$DIMLUNIT
 70
     2
  9
$DIMLWD
 70
    -2
  9
$DIMLWE
 70
    -2
  9
$DIMTMOVE
 70
     0
  9
$LUNITS
 70
     2
  9
$LUPREC
 70
     4
  9
$SKETCHINC
 40
1.0
  9
$FILLETRAD
 40
10.0
  9
$AUNITS
 70
     0
  9
$AUPREC
 70
     0
  9
$MENU
  1
.
  9
$ELEVATION
 40
0.0
  9
$PELEVATION
 40
0.0
  9
$THICKNESS
 40
0.0
  9
$LIMCHECK
 70
     0
  9
$CHAMFERA
 40
10.0
  9
$CHAMFERB
 40
10.0
  9
$CHAMFERC
 40
20.0
  9
$CHAMFERD
 40
0.0
  9
$SKPOLY
 70
     0
  9
$TDCREATE
 40
2456198.616503252
  9
$TDUCREATE
 40
2456198.533169919
  9
$TDUPDATE
 40
2456198.616503264
  9
$TDUUPDATE
 40
2456198.53316993
  9
$TDINDWG
 40
0.0000000116
  9
$TDUSRTIMER
 40
0.0000000116
  9
$USRTIMER
 70
     1
  9
$ANGBASE
 50
0.0
  9
$ANGDIR
 70
     0
  9
$PDMODE
 70
     0
  9
$PDSIZE
 40
0.0
  9
$PLINEWID
 40
0.0
  9
$SPLFRAME
 70
     0
  9
$SPLINETYPE
 70
     6
  9
$SPLINESEGS
 70
     8
  9
$HANDSEED
  5
26F
  9
$SURFTAB1
 70
     6
  9
$SURFTAB2
 70
     6
  9
$SURFTYPE
 70
     6
  9
$SURFU
 70
     6
  9
$SURFV
 70
     6
  9
$UCSBASE
  2

  9
$UCSNAME
  2

  9
$UCSORG
 10
0.0
 20
0.0
 30
0.0
  9
$UCSXDIR
 10
1.0
 20
0.0
 30
0.0
  9
$UCSYDIR
 10
0.0
 20
1.0
 30
0.0
  9
$UCSORTHOREF
  2

  9
$UCSORTHOVIEW
 70
     0
  9
$UCSORGTOP
 10
0.0
 20
0.0
 30
0.0
  9
$UCSORGBOTTOM
 10
0.0
 20
0.0
 30
0.0
  9
$UCSORGLEFT
 10
0.0
 20
0.0
 30
0.0
  9
$UCSORGRIGHT
 10
0.0
 20
0.0
 30
0.0
  9
$UCSORGFRONT
 10
0.0
 20
0.0
 30
0.0
  9
$UCSORGBACK
 10
0.0
 20
0.0
 30
0.0
  9
$PUCSBASE
  2

  9
$PUCSNAME
  2

  9
$PUCSORG
 10
0.0
 20
0.0
 30
0.0
  9
$PUCSXDIR
 10
1.0
 20
0.0
 30
0.0
  9
$PUCSYDIR
 10
0.0
 20
1.0
 30
0.0
  9
$PUCSORTHOREF
  2

  9
$PUCSORTHOVIEW
 70
     0
  9
$PUCSORGTOP
 10
0.0
 20
0.0
 30
0.0
  9
$PUCSORGBOTTOM
 10
0.0
 20
0.0
 30
0.0
  9
$PUCSORGLEFT
 10
0.0
 20
0.0
 30
0.0
  9
$PUCSORGRIGHT
 10
0.0
 20
0.0
 30
0.0
  9
$PUCSORGFRONT
 10
0.0
 20
0.0
 30
0.0
  9
$PUCSORGBACK
 10
0.0
 20
0.0
 30
0.0
  9
$USERI1
 70
     0
  9
$USERI2
 70
     0
  9
$USERI3
 70
     0
  9
$USERI4
 70
     0
  9
$USERI5
 70
     0
  9
$USERR1
 40
0.0
  9
$USERR2
 40
0.0
  9
$USERR3
 40
0.0
  9
$USERR4
 40
0.0
  9
$USERR5
 40
0.0
  9
$WORLDVIEW
 70
     1
  9
$SHADEDGE
 70
     3
  9
$SHADEDIF
 70
    70
  9
$TILEMODE
 70
     1
  9
$MAXACTVP
 70
    64
  9
$PINSBASE
 10
0.0
 20
0.0
 30
0.0
  9
$PLIMCHECK
 70
     0
  9
$PEXTMIN
 10
0.0
 20
0.0
 30
0.0
  9
$PEXTMAX
 10
3000.0
 20
4500.0
 30
0.0
  9
$PLIMMIN
 10
0.0
 20
0.0
  9
$PLIMMAX
 10
3000.0
 20
4500.0
  9
$UNITMODE
 70
     0
  9
$VISRETAIN
 70
     1
  9
$PLINEGEN
 70
     0
  9
$PSLTSCALE
 70
     1
  9
$TREEDEPTH
 70
  3020
  9
$CMLSTYLE
  2
Standard
  9
$CMLJUST
 70
     0
  9
$CMLSCALE
 40
20.0
  9
$PROXYGRAPHICS
 70
     1
  9
$MEASUREMENT
 70
     1
  9
$CELWEIGHT
370
    -1
  9
$ENDCAPS
280
     0
  9
$JOINSTYLE
280
     0
  9
$LWDISPLAY
290
     0
  9
$INSUNITS
 70
     4
  9
$HYPERLINKBASE
  1

  9
$STYLESHEET
  1

  9
$XEDIT
290
     1
  9
$CEPSNTYPE
380
     0
  9
$PSTYLEMODE
290
     1
  9
$FINGERPRINTGUID
  2
{EAF8DC39-4B43-49DD-BE86-357C68741909}
  9
$VERSIONGUID
  2
{FAEB1C32-E019-11D5-929B-00C0DF256EC4}
  9
$EXTNAMES
290
     1
  9
$PSVPSCALE
 40
0.0
  9
$OLESTARTUP
290
     0
  0
ENDSEC
  0
SECTION
  2
CLASSES
  0
CLASS
  1
ACDBDICTIONARYWDFLT
  2
AcDbDictionaryWithDefault
  3
ObjectDBX Classes
 90
        0
280
     0
281
     0
  0
CLASS
  1
VISUALSTYLE
  2
AcDbVisualStyle
  3
ObjectDBX Classes
 90
     4095
280
     0
281
     0
  0
CLASS
  1
SCALE
  2
AcDbScale
  3
ObjectDBX Classes
 90
     1153
280
     0
281
     0
  0
CLASS
  1
DICTIONARYVAR
  2
AcDbDictionaryVar
  3
ObjectDBX Classes
 90
        0
280
     0
281
     0
  0
CLASS
  1
ACDBPLACEHOLDER
  2
AcDbPlaceHolder
  3
ObjectDBX Classes
 90
        0
280
     0
281
     0
  0
CLASS
  1
LAYOUT
  2
AcDbLayout
  3
ObjectDBX Classes
 90
        0
280
     0
281
     0
  0
ENDSEC
  0
SECTION
  2
TABLES
  0
TABLE
  2
VPORT
  5
8
330
0
100
AcDbSymbolTable
 70
     1
  0
VPORT
  5
29
330
8
100
AcDbSymbolTableRecord
100
AcDbViewportTableRecord
  2
*Active
 70
     0
 10
0.0
 20
0.0
 11
1.0
 21
1.0
 12
344.1869158879
 22
148.5
 13
0.0
 23
0.0
 14
10.0
 24
10.0
 15
10.0
 25
10.0
 16
0.0
 26
0.0
 36
1.0
 17
0.0
 27
0.0
 37
0.0
 40
297.0
 41
1.9729729729
 42
50.0
 43
0.0
 44
0.0
 50
0.0
 51
0.0
 71
     0
 72
   100
 73
     1
 74
     3
 75
     0
 76
     0
 77
     0
 78
     0
281
     0
 65
     1
110
0.0
120
0.0
130
0.0
111
1.0
121
0.0
131
0.0
112
0.0
122
1.0
132
0.0
 79
     0
146
0.0
  0
ENDTAB
  0
TABLE
  2
LTYPE
  5
5
330
0
100
AcDbSymbolTable
 70
     2
  0
LTYPE
  5
14
330
5
100
AcDbSymbolTableRecord
100
AcDbLinetypeTableRecord
  2
ByBlock
 70
     0
  3

 72
    65
 73
     0
 40
0.0
  0
LTYPE
  5
15
330
5
100
AcDbSymbolTableRecord
100
AcDbLinetypeTableRecord
  2
ByLayer
 70
     0
  3

 72
    65
 73
     0
 40
0.0
  0
LTYPE
  5
16
330
5
100
AcDbSymbolTableRecord
100
AcDbLinetypeTableRecord
  2
Continuous
 70
     0
  3
Solid line
 72
    65
 73
     0
 40
0.0
  0
LTYPE
  5
60
330
5
100
AcDbSymbolTableRecord
100
AcDbLinetypeTableRecord
  2
CENTER2
 70
     0
  3
Center (.5x) ___ _ ___ _ ___ _ ___ _ ___ _ ___
 72
    65
 73
     4
 40
28.575
 49
19.05
 74
     4
 75
     0
340
0
 46
0.0
 50
0.0
 44
0.0
 45
0.0
 49
-3.175
 74
     4
 75
     0
340
0
 46
0.0
 50
0.0
 44
0.0
 45
0.0
 49
3.175
 74
     4
 75
     0
340
0
 46
0.0
 50
0.0
 44
0.0
 45
0.0
 49
-3.175
 74
     4
 75
     0
340
0
 46
0.0
 50
0.0
 44
0.0
 45
0.0
  0
ENDTAB
  0
TABLE
  2
LAYER
  5
2
330
0
100
AcDbSymbolTable
 70
    10
  0
LAYER
  5
10
330
2
100
AcDbSymbolTableRecord
100
AcDbLayerTableRecord
  2
0
 70
     0
 62
     7
  6
Continuous
370
    -3
390
F
  0
LAYER
  5
5D
330
2
100
AcDbSymbolTableRecord
100
AcDbLayerTableRecord
  2
Default
 70
     0
 62
     7
  6
Continuous
370
    -3
390
F
  0
LAYER
  5
77
330
2
100
AcDbSymbolTableRecord
100
AcDbLayerTableRecord
  2
$DDT_AUDIT_GENERATED_(77)
 70
     0
 62
     7
  6
Continuous
370
    -3
390
F
  0
LAYER
  5
C1
330
2
100
AcDbSymbolTableRecord
100
AcDbLayerTableRecord
  2
$DDT_AUDIT_GENERATED_(C1)
 70
     0
 62
     7
  6
Continuous
370
    -3
390
F
  0
LAYER
  5
C6
330
2
100
AcDbSymbolTableRecord
100
AcDbLayerTableRecord
  2
$DDT_AUDIT_GENERATED_(C6)
 70
     0
 62
     7
  6
Continuous
370
    -3
390
F
  0
LAYER
  5
CD
330
2
100
AcDbSymbolTableRecord
100
AcDbLayerTableRecord
  2
$DDT_AUDIT_GENERATED_(CD)
 70
     0
 62
     7
  6
Continuous
370
    -3
390
F
  0
LAYER
  5
FE
330
2
100
AcDbSymbolTableRecord
100
AcDbLayerTableRecord
  2
$DDT_AUDIT_GENERATED_(FE)
 70
     0
 62
     7
  6
Continuous
370
    -3
390
F
  0
LAYER
  5
11B
330
2
100
AcDbSymbolTableRecord
100
AcDbLayerTableRecord
  2
$DDT_AUDIT_GENERATED_(11B)
 70
     0
 62
     7
  6
Continuous
370
    -3
390
F
  0
LAYER
  5
1D8
330
2
100
AcDbSymbolTableRecord
100
AcDbLayerTableRecord
  2
$DDT_AUDIT_GENERATED_(1D8)
 70
     0
 62
     7
  6
Continuous
370
    -3
390
F
  0
LAYER
  5
1DC
330
2
100
AcDbSymbolTableRecord
100
AcDbLayerTableRecord
  2
$DDT_AUDIT_GENERATED_(1DC)
 70
     0
 62
     7
  6
Continuous
370
    -3
390
F
  0
ENDTAB
  0
TABLE
  2
STYLE
  5
3
330
0
100
AcDbSymbolTable
 70
     2
  0
STYLE
  5
11
330
3
100
AcDbSymbolTableRecord
100
AcDbTextStyleTableRecord
  2
Standard
 70
     0
 40
0.0
 41
1.0
 50
0.0
 71
     0
 42
2.5
  3
txt
  4

  0
STYLE
  5
25E
330
3
100
AcDbSymbolTableRecord
100
AcDbTextStyleTableRecord
  2
SEACAD_seiso_ttf
 70
     0
 40
0.0
 41
1.0
 50
0.0
 71
     0
 42
0.2
  3
seiso.ttf
  4

  0
ENDTAB
  0
TABLE
  2
VIEW
  5
6
330
0
100
AcDbSymbolTable
 70
     0
  0
ENDTAB
  0
TABLE
  2
UCS
  5
7
330
0
100
AcDbSymbolTable
 70
     0
  0
ENDTAB
  0
TABLE
  2
APPID
  5
9
330
0
100
AcDbSymbolTable
 70
     1
  0
APPID
  5
12
330
9
100
AcDbSymbolTableRecord
100
AcDbRegAppTableRecord
  2
ACAD
 70
     0
  0
ENDTAB
  0
TABLE
  2
DIMSTYLE
  5
A
330
0
100
AcDbSymbolTable
 70
     1
100
AcDbDimStyleTable
  0
DIMSTYLE
105
27
330
A
100
AcDbSymbolTableRecord
100
AcDbDimStyleTableRecord
  2
ISO-25
 70
     0
 41
2.5
 42
0.625
 43
3.75
 44
1.25
 73
     0
 74
     0
 77
     1
 78
     8
140
2.5
141
2.5
143
0.0393700787
147
0.625
171
     3
172
     1
271
     2
272
     2
274
     3
278
    44
283
     0
284
     8
340
11
  0
ENDTAB
  0
TABLE
  2
BLOCK_RECORD
  5
1
330
0
100
AcDbSymbolTable
 70
     7
  0
BLOCK_RECORD
  5
1F
330
1
100
AcDbSymbolTableRecord
100
AcDbBlockTableRecord
  2
*Model_Space
340
22
  0
BLOCK_RECORD
  5
1B
330
1
100
AcDbSymbolTableRecord
100
AcDbBlockTableRecord
  2
*Paper_Space
340
1E
  0
BLOCK_RECORD
  5
5E
330
1
100
AcDbSymbolTableRecord
100
AcDbBlockTableRecord
  2
SEANNOT_GROUP
340
0
102
{BLKREFS
331
5F
102
}
  0
BLOCK_RECORD
  5
65
330
1
100
AcDbSymbolTableRecord
100
AcDbBlockTableRecord
  2
SEANNOT_GROUP1
340
0
102
{BLKREFS
331
66
102
}
  0
BLOCK_RECORD
  5
6B
330
1
100
AcDbSymbolTableRecord
100
AcDbBlockTableRecord
  2
SEANNOT_GROUP2
340
0
102
{BLKREFS
331
6C
102
}
  0
BLOCK_RECORD
  5
75
330
1
100
AcDbSymbolTableRecord
100
AcDbBlockTableRecord
  2
SE
340
0
102
{BLKREFS
331
76
102
}
  0
BLOCK_RECORD
  5
1E0
330
1
100
AcDbSymbolTableRecord
100
AcDbBlockTableRecord
  2
SE1
340
0
102
{BLKREFS
331
1E1
102
}
  0
BLOCK_RECORD
  5
232
330
1
100
AcDbSymbolTableRecord
100
AcDbBlockTableRecord
  2
SE2
340
0
102
{BLKREFS
331
233
102
}
  0
ENDTAB
  0
ENDSEC
  0
SECTION
  2
BLOCKS
  0
BLOCK
  5
20
330
1F
100
AcDbEntity
  8
0
100
AcDbBlockBegin
  2
*Model_Space
 70
     0
 10
0.0
 20
0.0
 30
0.0
  3
*Model_Space
  1

  0
ENDBLK
  5
21
330
1F
100
AcDbEntity
  8
0
100
AcDbBlockEnd
  0
BLOCK
  5
1C
330
1B
100
AcDbEntity
 67
     1
  8
0
100
AcDbBlockBegin
  2
*Paper_Space
 70
     0
 10
0.0
 20
0.0
 30
0.0
  3
*Paper_Space
  1

  0
ENDBLK
  5
1D
330
1B
100
AcDbEntity
 67
     1
  8
0
100
AcDbBlockEnd
  0
BLOCK
  5
63
330
5E
100
AcDbEntity
  8
0
100
AcDbBlockBegin
  2
SEANNOT_GROUP
 70
     0
 10
0.0
 20
0.0
 30
0.0
  3
SEANNOT_GROUP
  1

  0
LINE
  5
61
330
5E
100
AcDbEntity
  8
Default
  6
CENTER2
 62
     7
100
AcDbLine
 10
51.3492702321
 20
380.2758043157
 30
0.0
 11
11.3492711262
 21
380.2758043157
 31
0.0
  0
LINE
  5
62
330
5E
100
AcDbEntity
  8
Default
  6
CENTER2
 62
     7
100
AcDbLine
 10
31.3492706791
 20
400.2758038687
 30
0.0
 11
31.3492706791
 21
360.2758047627
 31
0.0
  0
ENDBLK
  5
64
330
5E
100
AcDbEntity
  8
0
100
AcDbBlockEnd
  0
BLOCK
  5
69
330
65
100
AcDbEntity
  8
0
100
AcDbBlockBegin
  2
SEANNOT_GROUP1
 70
     0
 10
0.0
 20
0.0
 30
0.0
  3
SEANNOT_GROUP1
  1

  0
LINE
  5
67
330
65
100
AcDbEntity
  8
Default
  6
CENTER2
 62
     7
100
AcDbLine
 10
168.001462844
 20
380.2758043157
 30
0.0
 11
128.001463738
 21
380.2758043157
 31
0.0
  0
LINE
  5
68
330
65
100
AcDbEntity
  8
Default
  6
CENTER2
 62
     7
100
AcDbLine
 10
148.001463291
 20
400.2758038687
 30
0.0
 11
148.001463291
 21
360.2758047627
 31
0.0
  0
ENDBLK
  5
6A
330
65
100
AcDbEntity
  8
0
100
AcDbBlockEnd
  0
BLOCK
  5
73
330
6B
100
AcDbEntity
  8
0
100
AcDbBlockBegin
  2
SEANNOT_GROUP2
 70
     0
 10
0.0
 20
0.0
 30
0.0
  3
SEANNOT_GROUP2
  1

  0
LINE
  5
6D
330
6B
100
AcDbEntity
  8
Default
  6
CENTER2
 62
     7
100
AcDbLine
 10
51.3535458741
 20
239.7288615288
 30
0.0
 11
11.3535467681
 21
239.7288615288
 31
0.0
  0
LINE
  5
6E
330
6B
100
AcDbEntity
  8
Default
  6
CENTER2
 62
     7
100
AcDbLine
 10
31.3535463211
 20
259.7288610818
 30
0.0
 11
31.3535463211
 21
219.7288619758
 31
0.0
  0
LINE
  5
6F
330
6B
100
AcDbEntity
  8
Default
  6
CENTER2
 62
     7
100
AcDbLine
 10
56.3535457623
 20
239.7288615288
 30
0.0
 11
59.3525174133
 21
239.7288615288
 31
0.0
  0
LINE
  5
70
330
6B
100
AcDbEntity
  8
Default
  6
CENTER2
 62
     7
100
AcDbLine
 10
31.3535463211
 20
264.72886097
 30
0.0
 11
31.3535463211
 21
267.727832621
 31
0.0
  0
LINE
  5
71
330
6B
100
AcDbEntity
  8
Default
  6
CENTER2
 62
     7
100
AcDbLine
 10
6.3535468799
 20
239.7288615288
 30
0.0
 11
3.3545752289
 21
239.7288615288
 31
0.0
  0
LINE
  5
72
330
6B
100
AcDbEntity
  8
Default
  6
CENTER2
 62
     7
100
AcDbLine
 10
31.3535463211
 20
214.7288620876
 30
0.0
 11
31.3535463211
 21
211.7298904366
 31
0.0
  0
ENDBLK
  5
74
330
6B
100
AcDbEntity
  8
0
100
AcDbBlockEnd
  0
BLOCK
  5
1DE
330
75
100
AcDbEntity
  8
0
100
AcDbBlockBegin
  2
SE
 70
     0
 10
0.0
 20
0.0
 30
0.0
  3
SE
  1

  0
LINE
  5
78
330
75
100
AcDbEntity
  8
$DDT_AUDIT_GENERATED_(77)
  6
Continuous
 62
     7
100
AcDbLine
 10
8.2158507722
 20
500.2758043163
 30
0.0
 11
12.715631475
 21
500.275804317
 31
0.0
  0
LINE
  5
79
330
75
100
AcDbEntity
  8
$DDT_AUDIT_GENERATED_(77)
  6
Continuous
 62
     7
100
AcDbLine
 10
49.9840941562
 20
500.2758042758
 30
0.0
 11
54.4837852461
 21
500.2758002097
 31
0.0
  0
ARC
  5
7A
330
75
100
AcDbEntity
  8
$DDT_AUDIT_GENERATED_(77)
  6
Continuous
 62
     7
100
AcDbCircle
 10
55.1144953957
 20
460.6463277955
 30
0.0
 40
39.63449102898518
100
AcDbArc
 50
88.9415431556
 51
90.9117956118
  0
SPLINE
  5
7B
330
75
100
AcDbEntity
  8
$DDT_AUDIT_GENERATED_(77)
  6
Continuous
 62
     7
100
AcDbSpline
210
0.0
220
0.0
230
1.0
 70
     8
 71
     2
 72
    10
 73
     7
 74
     0
 42
0.0000000072686449
 43
0.0000000001
 40
0.0
 40
0.0
 40
0.0
 40
0.25
 40
0.25
 40
0.5
 40
0.5
 40
1.0
 40
1.0
 40
1.0
 10
6.853888141849951
 20
500.2759121247913
 30
0.0
 10
6.846983750093578
 20
500.2758043170331
 30
0.0
 10
6.931888628532848
 20
500.2758043170331
 30
0.0
 10
7.01504199895979
 20
500.2758043170331
 30
0.0
 10
7.200864732721198
 20
500.2758043170331
 30
0.0
 10
7.550285456969654
 20
500.2758043170331
 30
0.0
 10
8.215850772243558
 20
500.2758043163213
 30
0.0
  0
ARC
  5
7C
330
75
100
AcDbEntity
  8
$DDT_AUDIT_GENERATED_(77)
  6
Continuous
 62
     7
100
AcDbCircle
 10
55.8453387874
 20
499.7786474597
 30
0.0
 40
0.4979261970854705
100
AcDbArc
 50
69.8781349403
 51
89.991378524
  0
ELLIPSE
  5
7D
330
75
100
AcDbEntity
  8
$DDT_AUDIT_GENERATED_(77)
  6
Continuous
 62
     7
100
AcDbEllipse
 10
55.845284173
 20
499.7737300867
 30
0.0
 11
-0.3534593469676529
 21
-0.3556873534248106
 31
0.0
210
0.0
220
0.0
230
1.0
 40
0.9942094152
 41
3.612255962792853
 42
3.92506027570108
  0
ELLIPSE
  5
7E
330
75
100
AcDbEntity
  8
$DDT_AUDIT_GENERATED_(77)
  6
Continuous
 62
     7
100
AcDbEllipse
 10
6.8552356882
 20
499.7759166239
 30
0.0
 11
0.3530395103581961
 21
-0.3549298240144994
 31
0.0
210
0.0
220
0.0
230
1.0
 40
0.9975234953
 41
2.360319912493482
 42
2.673084344760239
  0
ARC
  5
7F
330
75
100
AcDbEntity
  8
$DDT_AUDIT_GENERATED_(77)
  6
Continuous
 62
     7
100
AcDbCircle
 10
54.4628217658
 20
499.7862614049
 30
0.0
 40
0.4899874579436586
100
AcDbArc
 50
358.7771276507
 51
87.5479256504
  0
SPLINE
  5
80
330
75
100
AcDbEntity
  8
$DDT_AUDIT_GENERATED_(77)
  6
Continuous
 62
     7
100
AcDbSpline
210
0.0
220
0.0
230
1.0
 70
     8
 71
     3
 72
    10
 73
     6
 74
     0
 42
0.0000000124159719
 43
0.0000000001
 40
0.0
 40
0.0
 40
0.0
 40
0.0
 40
0.5
 40
0.5
 40
1.0
 40
1.0
 40
1.0
 40
1.0
 10
49.94066064911301
 20
500.2758043170331
 30
0.0
 10
50.07144447309852
 20
500.275804317033
 30
0.0
 10
50.20100562529272
 20
500.2226179619242
 30
0.0
 10
50.38761890481591
 20
500.0359009482362
 30
0.0
 10
50.44066062328763
 20
499.9071294700967
 30
0.0
 10
50.44066064911291
 20
499.7758044155322
 30
0.0
  0
ARC
  5
81
330
75
100
AcDbEntity
  8
$DDT_AUDIT_GENERATED_(77)
  6
Continuous
 62
     7
100
AcDbCircle
 10
8.2316810707
 20
499.7906791241
 30
0.0
 40
0.4853834056928752
100
AcDbArc
 50
91.8689764601
 51
181.7561314862
  0
SPLINE
  5
82
330
75
100
AcDbEntity
  8
$DDT_AUDIT_GENERATED_(77)
  6
Continuous
 62
     7
100
AcDbSpline
210
0.0
220
0.0
230
1.0
 70
     8
 71
     3
 72
    10
 73
     6
 74
     0
 42
0.0000000124159505
 43
0.0000000001
 40
0.0
 40
0.0
 40
0.0
 40
0.0
 40
0.5
 40
0.5
 40
1.0
 40
1.0
 40
1.0
 40
1.0
 10
12.25933935088706
 20
499.7758028233384
 30
0.0
 10
12.25933935116839
 20
499.9065846506892
 30
0.0
 10
12.31252523321039
 20
500.0361486080212
 30
0.0
 10
12.49924238585494
 20
500.2227624520119
 30
0.0
 10
12.6280140741583
 20
500.2758043171787
 30
0.0
 10
12.75933935088701
 20
500.2758043170331
 30
0.0
  0
LINE
  5
83
330
75
100
AcDbEntity
  8
$DDT_AUDIT_GENERATED_(77)
  6
Continuous
 62
     7
100
AcDbLine
 10
56.3469344062
 20
499.7758043088
 30
0.0
 11
56.331135726
 21
499.775804309
 31
0.0
  0
LINE
  5
84
330
75
100
AcDbEntity
  8
$DDT_AUDIT_GENERATED_(77)
  6
Continuous
 62
     7
100
AcDbLine
 10
54.953479936
 20
499.7758043175
 30
0.0
 11
54.953479936
 21
490.280502107
 31
0.0
  0
LINE
  5
85
330
75
100
AcDbEntity
  8
$DDT_AUDIT_GENERATED_(77)
  6
Continuous
 62
     7
100
AcDbLine
 10
6.3691156896
 20
499.7758070422
 30
0.0
 11
6.353385183
 21
499.7758070734
 31
0.0
  0
LINE
  5
86
330
75
100
AcDbEntity
  8
$DDT_AUDIT_GENERATED_(77)
  6
Continuous
 62
     7
100
AcDbLine
 10
56.3447675628
 20
380.2758043157
 30
0.0
 11
6.3539246573
 21
380.2758043157
 31
0.0
  0
LINE
  5
87
330
75
100
AcDbEntity
  8
$DDT_AUDIT_GENERATED_(77)
  6
Continuous
 62
     7
100
AcDbLine
 10
50.4406606491
 20
499.775805282
 30
0.0
 11
50.4361238052
 21
499.775805283
 31
0.0
  0
SPLINE
  5
88
330
75
100
AcDbEntity
  8
$DDT_AUDIT_GENERATED_(77)
  6
Continuous
 62
     7
100
AcDbSpline
210
0.0
220
0.0
230
1.0
 70
     8
 71
     3
 72
     8
 73
     4
 74
     0
 42
0.0000001065837473
 43
0.0000000001
 40
0.3310702859485688
 40
0.3310702859485688
 40
0.3310702859485688
 40
0.3310702859485688
 40
0.3417286606824583
 40
0.3417286606824583
 40
0.3417286606824583
 40
0.3417286606824583
 10
50.44129807276756
 20
490.4370066618253
 30
0.0
 10
50.44135297228384
 20
490.4369855538528
 30
0.0
 10
50.44141229680116
 20
490.4369622317588
 30
0.0
 10
50.44147655269516
 20
490.4369363665868
 30
0.0
  0
LINE
  5
89
330
75
100
AcDbEntity
  8
$DDT_AUDIT_GENERATED_(77)
  6
Continuous
 62
     7
100
AcDbLine
 10
12.2593393509
 20
490.4375760989
 30
0.0
 11
12.2593393509
 21
499.7758028233
 31
0.0
  0
LINE
  5
8A
330
75
100
AcDbEntity
  8
$DDT_AUDIT_GENERATED_(77)
  6
Continuous
 62
     7
100
AcDbLine
 10
12.2638747935
 20
499.7758048336
 30
0.0
 11
12.2593393509
 21
499.7758048331
 31
0.0
  0
LINE
  5
8B
330
75
100
AcDbEntity
  8
$DDT_AUDIT_GENERATED_(77)
  6
Continuous
 62
     7
100
AcDbLine
 10
7.7465256413
 20
499.7758043177
 30
0.0
 11
7.7465278441
 21
490.2805021064
 31
0.0
  0
ARC
  5
8C
330
75
100
AcDbEntity
  8
$DDT_AUDIT_GENERATED_(77)
  6
Continuous
 62
     7
100
AcDbCircle
 10
9.1513280688
 20
-92.9105470017
 30
0.0
 40
583.1927410586666
100
AcDbArc
 50
89.8230426613
 51
90.1380147524
  0
SPLINE
  5
8D
330
75
100
AcDbEntity
  8
$DDT_AUDIT_GENERATED_(77)
  6
Continuous
 62
     7
100
AcDbSpline
210
0.0
220
0.0
230
1.0
 70
     8
 71
     3
 72
    25
 73
    21
 74
     0
 42
0.0000000002205037
 43
0.0000000001
 40
0.0
 40
0.0
 40
0.0
 40
0.0
 40
0.0201449163608728
 40
0.0404247719180245
 40
0.0609485067433772
 40
0.081821278679811
 40
0.1031431830212854
 40
0.1250083058685494
 40
0.1844759693375463
 40
0.2499309795335133
 40
0.3093642950411093
 40
0.3749192892411444
 40
0.4998744939890493
 40
0.624886442979385
 40
0.6561454716059304
 40
0.687404821308591
 40
0.749921509807336
 40
0.8749571584816399
 40
0.937481160591341
 40
1.0
 40
1.0
 40
1.0
 40
1.0
 10
31.35
 20
455.2757213339521
 30
0.0
 10
31.02469000831053
 20
455.283066867921
 30
0.0
 10
30.3718909605651
 20
455.2978071393617
 30
0.0
 10
29.39499649600387
 20
455.4166515922174
 30
0.0
 10
28.42088476940959
 20
455.6061794213919
 30
0.0
 10
27.45150511704054
 20
455.8733904259066
 30
0.0
 10
26.48871519752732
 20
456.2163048534637
 30
0.0
 10
24.99748183631815
 20
456.8711389259388
 30
0.0
 10
23.0130792886677
 20
458.0631148975052
 30
0.0
 10
20.82553051744843
 20
459.9012756861981
 30
0.0
 10
18.8486431883849
 20
462.0402582290839
 30
0.0
 10
16.5729395053426
 20
465.0677089583832
 30
0.0
 10
14.21874909326897
 20
469.1888034381768
 30
0.0
 10
12.56413288800112
 20
473.0429663858194
 30
0.0
 10
11.61083157668544
 20
475.665625108101
 30
0.0
 10
11.00925741791869
 20
477.4238582206428
 30
0.0
 10
10.02117055610611
 20
480.5034296356812
 30
0.0
 10
9.050787659749808
 20
484.0340143627848
 30
0.0
 10
8.244297110812628
 20
487.5910313394516
 30
0.0
 10
7.912441179137746
 20
489.384036527608
 30
0.0
 10
7.746527844076652
 20
490.2805021063957
 30
0.0
  0
ARC
  5
8E
330
75
100
AcDbEntity
  8
$DDT_AUDIT_GENERATED_(77)
  6
Continuous
 62
     7
100
AcDbCircle
 10
51.2582570455
 20
490.2965487747
 30
0.0
 40
0.4895919025559634
100
AcDbArc
 50
346.3515868984
 51
358.0369668406
  0
SPLINE
  5
8F
330
75
100
AcDbEntity
  8
$DDT_AUDIT_GENERATED_(77)
  6
Continuous
 62
     7
100
AcDbSpline
210
0.0
220
0.0
230
1.0
 70
     8
 71
     3
 72
    10
 73
     6
 74
     0
 42
0.0000000950484497
 43
0.0000000001
 40
0.8929272779917293
 40
0.8929272779917293
 40
0.8929272779917293
 40
0.8929272779917293
 40
0.9062500000000001
 40
0.9062500000000001
 40
0.9121437565314539
 40
0.9121437565314539
 40
0.9121437565314539
 40
0.9121437565314539
 10
50.35105159888282
 20
490.1518415416321
 30
0.0
 10
50.35076228197894
 20
490.1514792478819
 30
0.0
 10
50.35048388263127
 20
490.1511079511347
 30
0.0
 10
50.3500877074571
 20
490.1505591856713
 30
0.0
 10
50.34996645554669
 20
490.1503897764553
 30
0.0
 10
50.34984538784393
 20
490.1502195601115
 30
0.0
  0
SPLINE
  5
90
330
75
100
AcDbEntity
  8
$DDT_AUDIT_GENERATED_(77)
  6
Continuous
 62
     7
100
AcDbSpline
210
0.0
220
0.0
230
1.0
 70
     8
 71
     6
 72
    27
 73
    20
 74
     0
 42
0.0000000002199603
 43
0.0000000001
 40
0.0
 40
0.0
 40
0.0
 40
0.0
 40
0.0
 40
0.0
 40
0.0
 40
0.1247705182401431
 40
0.2419801380747141
 40
0.296993456640857
 40
0.355534594559357
 40
0.423178433105786
 40
0.479876841017786
 40
0.533834897139429
 40
0.6207937083645001
 40
0.6942907072844999
 40
0.737045859565429
 40
0.794751550113714
 40
0.882180157413286
 40
0.9410900787066429
 40
1.0
 40
1.0
 40
1.0
 40
1.0
 40
1.0
 40
1.0
 40
1.0
 10
31.35
 20
455.2757213339521
 30
0.0
 10
32.35748254989601
 20
455.275720683216
 30
0.0
 10
34.316036938927
 20
455.46447860154
 30
0.0
 10
36.64361618786
 20
456.1459013631459
 30
0.0
 10
39.14264928300499
 20
457.5010591636308
 30
0.0
 10
41.71924729535598
 20
459.5810229187917
 30
0.0
 10
44.14874415342096
 20
462.3319703505747
 30
0.0
 10
45.94410843773593
 20
464.8483200559307
 30
0.0
 10
47.41807641709892
 20
467.2875203393355
 30
0.0
 10
48.78359498402092
 20
469.9298642645665
 30
0.0
 10
49.93579802607388
 20
472.5326769859614
 30
0.0
 10
50.9287528622059
 20
475.1149143330493
 30
0.0
 10
51.87455404756891
 20
477.9604962136103
 30
0.0
 10
52.77133173683388
 20
480.8167596940141
 30
0.0
 10
53.5024988453469
 20
483.5029443346501
 30
0.0
 10
54.0387984016129
 20
485.6652538824211
 30
0.0
 10
54.4385424400379
 20
487.5437612958321
 30
0.0
 10
54.7261831562109
 20
489.0109500411841
 30
0.0
 10
54.8791823028469
 20
489.8570961145641
 30
0.0
 10
54.95347573935715
 20
490.2805021073513
 30
0.0
  0
ARC
  5
91
330
75
100
AcDbEntity
  8
$DDT_AUDIT_GENERATED_(77)
  6
Continuous
 62
     7
100
AcDbCircle
 10
54.0007782474
 20
-2388.5057574848
 30
0.0
 40
2878.786417233715
100
AcDbArc
 50
89.9810386953
 51
90.044845222
  0
SPLINE
  5
92
330
75
100
AcDbEntity
  8
$DDT_AUDIT_GENERATED_(77)
  6
Continuous
 62
     7
100
AcDbSpline
210
0.0
220
0.0
230
1.0
 70
     8
 71
     3
 72
     8
 73
     4
 74
     0
 42
0.0000000936137461
 43
0.0000000001
 40
0.072827842013282
 40
0.072827842013282
 40
0.072827842013282
 40
0.072827842013282
 40
0.0878564906048482
 40
0.0878564906048482
 40
0.0878564906048482
 40
0.0878564906048482
 10
12.3510783405293
 20
490.1489065933446
 30
0.0
 10
12.35077082683888
 20
490.1493462552582
 30
0.0
 10
12.35046331076322
 20
490.1497855424549
 30
0.0
 10
12.35015459692629
 20
490.1502195815239
 30
0.0
  0
ARC
  5
93
330
75
100
AcDbEntity
  8
$DDT_AUDIT_GENERATED_(77)
  6
Continuous
 62
     7
100
AcDbCircle
 10
11.4362756133
 20
490.2955116829
 30
0.0
 40
0.4840343150104319
100
AcDbArc
 50
181.9060221855
 51
193.6818276154
  0
LINE
  5
94
330
75
100
AcDbEntity
  8
$DDT_AUDIT_GENERATED_(77)
  6
Continuous
 62
     7
100
AcDbLine
 10
50.4406606491
 20
490.4375760939
 30
0.0
 11
50.4406606491
 21
499.7758044155
 31
0.0
  0
ARC
  5
95
330
75
100
AcDbEntity
  8
$DDT_AUDIT_GENERATED_(77)
  6
Continuous
 62
     7
100
AcDbCircle
 10
17.9014342676
 20
5080.0391691397
 30
0.0
 40
4589.896137602563
100
AcDbArc
 50
269.930736882
 51
270.1678789969
  0
ARC
  5
96
330
75
100
AcDbEntity
  8
$DDT_AUDIT_GENERATED_(77)
  6
Continuous
 62
     7
100
AcDbCircle
 10
31.3517717735
 20
503.492372573
 30
0.0
 40
23.21506931654316
100
AcDbArc
 50
300.957127676
 51
305.2577739062
  0
ARC
  5
97
330
75
100
AcDbEntity
  8
$DDT_AUDIT_GENERATED_(77)
  6
Continuous
 62
     7
100
AcDbCircle
 10
31.3517717735
 20
503.492372573
 30
0.0
 40
23.21506931654316
100
AcDbArc
 50
305.2577739062
 51
307.2780369738
  0
ARC
  5
98
330
75
100
AcDbEntity
  8
$DDT_AUDIT_GENERATED_(77)
  6
Continuous
 62
     7
100
AcDbCircle
 10
31.3517717735
 20
503.492372573
 30
0.0
 40
23.21506931654316
100
AcDbArc
 50
307.2780369738
 51
317.2964676867
  0
ARC
  5
99
330
75
100
AcDbEntity
  8
$DDT_AUDIT_GENERATED_(77)
  6
Continuous
 62
     7
100
AcDbCircle
 10
31.3517717735
 20
503.492372573
 30
0.0
 40
23.21506931654316
100
AcDbArc
 50
317.2964676867
 51
319.9522764903
  0
ARC
  5
9A
330
75
100
AcDbEntity
  8
$DDT_AUDIT_GENERATED_(77)
  6
Continuous
 62
     7
100
AcDbCircle
 10
31.3517717735
 20
503.492372573
 30
0.0
 40
23.21506931654316
100
AcDbArc
 50
319.9522764903
 51
321.7064733658
  0
ARC
  5
9B
330
75
100
AcDbEntity
  8
$DDT_AUDIT_GENERATED_(77)
  6
Continuous
 62
     7
100
AcDbCircle
 10
31.3517717735
 20
503.492372573
 30
0.0
 40
23.21506931654316
100
AcDbArc
 50
321.7064733658
 51
324.9084546077
  0
ARC
  5
9C
330
75
100
AcDbEntity
  8
$DDT_AUDIT_GENERATED_(77)
  6
Continuous
 62
     7
100
AcDbCircle
 10
19.5081085854
 20
-1292.0047035854
 30
0.0
 40
1782.457019134472
100
AcDbArc
 50
89.6193482916
 51
90.233007037
  0
ARC
  5
9D
330
75
100
AcDbEntity
  8
$DDT_AUDIT_GENERATED_(77)
  6
Continuous
 62
     7
100
AcDbCircle
 10
42.0838021758
 20
-431.9845500717
 30
0.0
 40
922.4599806622955
100
AcDbArc
 50
89.4809322027
 51
90.6667124168
  0
LINE
  5
9E
330
75
100
AcDbEntity
  8
$DDT_AUDIT_GENERATED_(77)
  6
Continuous
 62
     7
100
AcDbLine
 10
50.4406606491
 20
499.7758044155
 30
0.0
 11
31.35
 21
499.775804317
 31
0.0
  0
LINE
  5
9F
330
75
100
AcDbEntity
  8
$DDT_AUDIT_GENERATED_(77)
  6
Continuous
 62
     7
100
AcDbLine
 10
31.35
 20
499.775804317
 30
0.0
 11
12.2593393509
 21
499.7758028233
 31
0.0
  0
LINE
  5
A0
330
75
100
AcDbEntity
  8
$DDT_AUDIT_GENERATED_(77)
  6
Continuous
 62
     7
100
AcDbLine
 10
12.7593393509
 20
500.275804317
 30
0.0
 11
49.9406606491
 21
500.275804317
 31
0.0
  0
ARC
  5
A1
330
75
100
AcDbEntity
  8
$DDT_AUDIT_GENERATED_(77)
  6
Continuous
 62
     7
100
AcDbCircle
 10
31.3488545047
 20
503.4928009824
 30
0.0
 40
23.21583479579807
100
AcDbArc
 50
232.7215343167
 51
239.0421135297
  0
ARC
  5
A2
330
75
100
AcDbEntity
  8
$DDT_AUDIT_GENERATED_(77)
  6
Continuous
 62
     7
100
AcDbCircle
 10
31.3488545047
 20
503.4928009824
 30
0.0
 40
23.21583479579807
100
AcDbArc
 50
222.7031409686
 51
232.7215343167
  0
ARC
  5
A3
330
75
100
AcDbEntity
  8
$DDT_AUDIT_GENERATED_(77)
  6
Continuous
 62
     7
100
AcDbCircle
 10
31.3488545047
 20
503.4928009824
 30
0.0
 40
23.21583479579807
100
AcDbArc
 50
220.0980335879
 51
222.7031409686
  0
ARC
  5
A4
330
75
100
AcDbEntity
  8
$DDT_AUDIT_GENERATED_(77)
  6
Continuous
 62
     7
100
AcDbCircle
 10
31.3488545047
 20
503.4928009824
 30
0.0
 40
23.21583479579807
100
AcDbArc
 50
218.1672283893
 51
220.0980335879
  0
ARC
  5
A5
330
75
100
AcDbEntity
  8
$DDT_AUDIT_GENERATED_(77)
  6
Continuous
 62
     7
100
AcDbCircle
 10
31.3488545047
 20
503.4928009824
 30
0.0
 40
23.21583479579807
100
AcDbArc
 50
215.0915202617
 51
218.1672283893
  0
SPLINE
  5
A6
330
75
100
AcDbEntity
  8
$DDT_AUDIT_GENERATED_(77)
  6
Continuous
 62
     7
100
AcDbSpline
210
0.0
220
0.0
230
1.0
 70
     8
 71
     3
 72
     8
 73
     4
 74
     0
 42
0.0000002918945154
 43
0.0000000001
 40
0.9708105484583793
 40
0.9708105484583793
 40
0.9708105484583793
 40
0.9708105484583793
 40
1.0
 40
1.0
 40
1.0
 40
1.0
 10
15.2593800295585
 20
491.9471209089984
 30
0.0
 10
15.25935426231657
 20
491.9470824685715
 30
0.0
 10
15.25933935088782
 20
491.9470576073102
 30
0.0
 10
15.25933935088782
 20
491.9470572518968
 30
0.0
  0
SPLINE
  5
A7
330
75
100
AcDbEntity
  8
$DDT_AUDIT_GENERATED_(77)
  6
Continuous
 62
     7
100
AcDbSpline
210
0.0
220
0.0
230
1.0
 70
     8
 71
     3
 72
     8
 73
     4
 74
     0
 42
0.0000013268562323
 43
0.0000000001
 40
0.0
 40
0.0
 40
0.0
 40
0.0
 40
0.1559464721013837
 40
0.1559464721013837
 40
0.1559464721013837
 40
0.1559464721013837
 10
47.44066064911218
 20
491.9470572518966
 30
0.0
 10
47.44066064911218
 20
491.9470591507136
 30
0.0
 10
47.44023504560406
 20
491.9477604786667
 30
0.0
 10
47.4400022771335
 20
491.9474950378977
 30
0.0
  0
LINE
  5
A8
330
75
100
AcDbEntity
  8
$DDT_AUDIT_GENERATED_(77)
  6
Continuous
 62
     7
100
AcDbLine
 10
45.5453184489
 20
496.5318592009
 30
0.0
 11
45.8557079612
 21
496.5155923759
 31
0.0
  0
SPLINE
  5
A9
330
75
100
AcDbEntity
  8
$DDT_AUDIT_GENERATED_(77)
  6
Continuous
 62
     7
100
AcDbSpline
210
0.0
220
0.0
230
1.0
 70
     8
 71
     3
 72
     8
 73
     4
 74
     0
 42
0.0000009810680765
 43
0.0000000001
 40
0.9018931923517166
 40
0.9018931923517166
 40
0.9018931923517166
 40
0.9018931923517166
 40
1.0
 40
1.0
 40
1.0
 40
1.0
 10
46.9871226627119
 20
490.6794169403092
 30
0.0
 10
46.9873095758601
 20
490.6794360441653
 30
0.0
 10
46.98757441183105
 20
490.6793615642648
 30
0.0
 10
46.98757259892719
 20
490.6793581985619
 30
0.0
  0
ARC
  5
AA
330
75
100
AcDbEntity
  8
$DDT_AUDIT_GENERATED_(77)
  6
Continuous
 62
     7
100
AcDbCircle
 10
45.4406631754
 20
491.9470573467
 30
0.0
 40
1.999997473720565
100
AcDbArc
 50
320.6652290323
 51
359.9999972832
  0
ARC
  5
AB
330
75
100
AcDbEntity
  8
$DDT_AUDIT_GENERATED_(77)
  6
Continuous
 62
     7
100
AcDbCircle
 10
17.2593368262
 20
491.9470573473
 30
0.0
 40
1.999997475345191
100
AcDbArc
 50
180.0000027334
 51
194.1616052222
  0
ARC
  5
AC
330
75
100
AcDbEntity
  8
$DDT_AUDIT_GENERATED_(77)
  6
Continuous
 62
     7
100
AcDbCircle
 10
17.2593393509
 20
494.5345993918
 30
0.0
 40
1.999999999999999
100
AcDbArc
 50
93.0
 51
178.143897789
  0
ARC
  5
AD
330
75
100
AcDbEntity
  8
$DDT_AUDIT_GENERATED_(77)
  6
Continuous
 62
     7
100
AcDbCircle
 10
45.4406606491
 20
494.5345993918
 30
0.0
 40
2.000000000000002
100
AcDbArc
 50
1.856102211
 51
87.0
  0
SPLINE
  5
AE
330
75
100
AcDbEntity
  8
$DDT_AUDIT_GENERATED_(77)
  6
Continuous
 62
     7
100
AcDbSpline
210
0.0
220
0.0
230
1.0
 70
     8
 71
     3
 72
    16
 73
    12
 74
     0
 42
0.0000000006031769
 43
0.0000000001
 40
0.0
 40
0.0
 40
0.0
 40
0.0
 40
0.1249999999999993
 40
0.1249999999999993
 40
0.2499999999999986
 40
0.2499999999999986
 40
0.4999999999999987
 40
0.4999999999999987
 40
0.7499999999999988
 40
0.7499999999999988
 40
0.8691702552455335
 40
0.8691702552455335
 40
0.8691702552455335
 40
0.8691702552455335
 10
31.34999999971069
 20
487.9830805628573
 30
0.0
 10
30.28636574690093
 20
487.9831710015324
 30
0.0
 10
29.24410240524036
 20
487.9648140158978
 30
0.0
 10
27.20287827301868
 20
487.8760422545691
 30
0.0
 10
26.21324306198858
 20
487.7929919368856
 30
0.0
 10
23.47535824315236
 20
487.4229434207531
 30
0.0
 10
21.9144833832751
 20
487.0243802570328
 30
0.0
 10
19.74878766172584
 20
486.0169103345959
 30
0.0
 10
19.15137677450298
 20
485.4030739287749
 30
0.0
 10
19.08026877770919
 20
484.4573054937194
 30
0.0
 10
19.1829109102011
 20
484.1434215459128
 30
0.0
 10
19.4046341483462
 20
483.8472030005195
 30
0.0
  0
SPLINE
  5
AF
330
75
100
AcDbEntity
  8
$DDT_AUDIT_GENERATED_(77)
  6
Continuous
 62
     7
100
AcDbSpline
210
0.0
220
0.0
230
1.0
 70
     8
 71
     3
 72
    16
 73
    12
 74
     0
 42
0.0000000006031767
 43
0.0000000001
 40
0.0
 40
0.0
 40
0.0
 40
0.0
 40
0.1250000000000001
 40
0.1250000000000001
 40
0.2500000000000002
 40
0.2500000000000002
 40
0.5000000000000001
 40
0.5000000000000001
 40
0.7500000000000001
 40
0.7500000000000001
 40
0.8691699925925385
 40
0.8691699925925385
 40
0.8691699925925385
 40
0.8691699925925385
 10
31.34999999971069
 20
487.9830805628573
 30
0.0
 10
32.41363457432798
 20
487.9831710015611
 30
0.0
 10
33.4558982243771
 20
487.964814010078
 30
0.0
 10
35.4971229488341
 20
487.8760421798692
 30
0.0
 10
36.48675839475732
 20
487.7929917975706
 30
0.0
 10
39.22464381063533
 20
487.4229430280124
 30
0.0
 10
40.78551886678354
 20
487.0243796029878
 30
0.0
 10
42.95121401867983
 20
486.0169091602095
 30
0.0
 10
43.54862432010535
 20
485.4030724249715
 30
0.0
 10
43.61973084349154
 20
484.4573043088466
 30
0.0
 10
43.51708866561027
 20
484.143420998164
 30
0.0
 10
43.29536584995232
 20
483.8472030010361
 30
0.0
  0
ELLIPSE
  5
B0
330
75
100
AcDbEntity
  8
$DDT_AUDIT_GENERATED_(77)
  6
Continuous
 62
     7
100
AcDbEllipse
 10
31.35
 20
490.9506882349
 30
0.0
 11
11.4585
 21
0.0
 31
0.0
210
0.0
220
0.0
230
1.0
 40
0.3746065934
 41
6.20872463368115
 42
6.283185307179586
  0
ELLIPSE
  5
B1
330
75
100
AcDbEntity
  8
$DDT_AUDIT_GENERATED_(77)
  6
Continuous
 62
     7
100
AcDbEllipse
 10
31.35
 20
490.9506882349
 30
0.0
 11
11.4585
 21
0.0
 31
0.0
210
0.0
220
0.0
230
1.0
 40
0.3746065934
 41
3.141592653589793
 42
3.216053327088241
  0
ELLIPSE
  5
B2
330
75
100
AcDbEntity
  8
$DDT_AUDIT_GENERATED_(77)
  6
Continuous
 62
     7
100
AcDbEllipse
 10
31.35
 20
486.7783608893
 30
0.0
 11
12.00849999999999
 21
1.387778780781446E-14
 31
0.0
210
0.0
220
0.0
230
1.0
 40
0.3746065934
 41
0.9515843591359812
 42
2.188941873460086
  0
LINE
  5
B3
330
75
100
AcDbEntity
  8
$DDT_AUDIT_GENERATED_(77)
  6
Continuous
 62
     7
100
AcDbLine
 10
56.2333785717
 20
500.0903796916
 30
0.0
 11
56.2286785376
 21
500.0961081434
 31
0.0
  0
LINE
  5
B4
330
75
100
AcDbEntity
  8
$DDT_AUDIT_GENERATED_(77)
  6
Continuous
 62
     7
100
AcDbLine
 10
6.5749978018
 20
500.1900110052
 30
0.0
 11
6.572763313
 21
500.188493357
 31
0.0
  0
ARC
  5
B5
330
75
100
AcDbEntity
  8
$DDT_AUDIT_GENERATED_(77)
  6
Continuous
 62
     7
100
AcDbCircle
 10
55.8668813785
 20
499.8113237854
 30
0.0
 40
0.4599339416160402
100
AcDbArc
 50
355.570790027
 51
73.4197642032
  0
ARC
  5
B6
330
75
100
AcDbEntity
  8
$DDT_AUDIT_GENERATED_(77)
  6
Continuous
 62
     7
100
AcDbCircle
 10
6.8327721256
 20
499.8119818987
 30
0.0
 40
0.4591995038985546
100
AcDbArc
 50
106.5926236765
 51
184.5186744651
  0
LINE
  5
B7
330
75
100
AcDbEntity
  8
$DDT_AUDIT_GENERATED_(77)
  6
Continuous
 62
     7
100
AcDbLine
 10
56.3474553357
 20
490.2805021054
 30
0.0
 11
56.3474553357
 21
499.775804318
 31
0.0
  0
LINE
  5
B8
330
75
100
AcDbEntity
  8
$DDT_AUDIT_GENERATED_(77)
  6
Continuous
 62
     7
100
AcDbLine
 10
6.3525446643
 20
499.7758043184
 30
0.0
 11
6.3525446643
 21
490.2805021044
 31
0.0
  0
ARC
  5
B9
330
75
100
AcDbEntity
  8
$DDT_AUDIT_GENERATED_(77)
  6
Continuous
 62
     7
100
AcDbCircle
 10
49.9555304442
 20
490.4343687038
 30
0.0
 40
0.4842337269403734
100
AcDbArc
 50
324.8089254042
 51
0.3248912079
  0
ARC
  5
BA
330
75
100
AcDbEntity
  8
$DDT_AUDIT_GENERATED_(77)
  6
Continuous
 62
     7
100
AcDbCircle
 10
50.0231193592
 20
490.4200600334
 30
0.0
 40
0.4154747867423467
100
AcDbArc
 50
326.9045408684
 51
355.9878082371
  0
LINE
  5
BB
330
75
100
AcDbEntity
  8
$DDT_AUDIT_GENERATED_(77)
  6
Continuous
 62
     7
100
AcDbLine
 10
6.3525446643
 20
490.2805021044
 30
0.0
 11
6.3525446643
 21
380.2758043157
 31
0.0
  0
LINE
  5
BC
330
75
100
AcDbEntity
  8
$DDT_AUDIT_GENERATED_(77)
  6
Continuous
 62
     7
100
AcDbLine
 10
56.3474553357
 20
380.2758043157
 30
0.0
 11
56.3474553357
 21
490.2805021054
 31
0.0
  0
ARC
  5
BD
330
75
100
AcDbEntity
  8
$DDT_AUDIT_GENERATED_(77)
  6
Continuous
 62
     7
100
AcDbCircle
 10
17.2560094706
 20
491.9528604682
 30
0.0
 40
1.995164857935363
100
AcDbArc
 50
192.8647905809
 51
194.4051515092
  0
ARC
  5
BE
330
75
100
AcDbEntity
  8
$DDT_AUDIT_GENERATED_(77)
  6
Continuous
 62
     7
100
AcDbCircle
 10
17.2560094706
 20
491.9528604682
 30
0.0
 40
1.995164857935363
100
AcDbArc
 50
180.1819361295
 51
180.6504778262
  0
ARC
  5
BF
330
75
100
AcDbEntity
  8
$DDT_AUDIT_GENERATED_(77)
  6
Continuous
 62
     7
100
AcDbCircle
 10
17.2593393509
 20
494.5345993918
 30
0.0
 40
1.999999999999994
100
AcDbArc
 50
177.6712685955
 51
179.9993903641
  0
ARC
  5
C0
330
75
100
AcDbEntity
  8
$DDT_AUDIT_GENERATED_(77)
  6
Continuous
 62
     7
100
AcDbCircle
 10
45.4406606491
 20
494.5345993918
 30
0.0
 40
2.000000000000002
100
AcDbArc
 50
359.9903945017
 51
2.3287280951
  0
LINE
  5
C2
330
75
100
AcDbEntity
  8
$DDT_AUDIT_GENERATED_(C1)
  6
Continuous
 62
     7
100
AcDbLine
 10
50.4611375761
 20
494.025804317
 30
0.0
 11
38.2834305086
 21
494.025804317
 31
0.0
  0
LINE
  5
C3
330
75
100
AcDbEntity
  8
$DDT_AUDIT_GENERATED_(C1)
  6
Continuous
 62
     7
100
AcDbLine
 10
24.4165694914
 20
494.025804317
 30
0.0
 11
12.2392463771
 21
494.025804317
 31
0.0
  0
ARC
  5
C4
330
75
100
AcDbEntity
  8
$DDT_AUDIT_GENERATED_(C1)
  6
Continuous
 62
     7
100
AcDbCircle
 10
12.5
 20
495.025804317
 30
0.0
 40
1.000000000000001
100
AcDbArc
 50
270.0
 51
311.4096221093
  0
ARC
  5
C5
330
75
100
AcDbEntity
  8
$DDT_AUDIT_GENERATED_(C1)
  6
Continuous
 62
     7
100
AcDbCircle
 10
50.2
 20
495.025804317
 30
0.0
 40
1.000000000000001
100
AcDbArc
 50
228.5903778907
 51
270.0
  0
LINE
  5
C7
330
75
100
AcDbEntity
  8
$DDT_AUDIT_GENERATED_(C6)
  6
Continuous
 62
     7
100
AcDbLine
 10
50.4456267987
 20
494.275804317
 30
0.0
 11
37.3370244438
 21
494.275804317
 31
0.0
  0
LINE
  5
C8
330
75
100
AcDbEntity
  8
$DDT_AUDIT_GENERATED_(C6)
  6
Continuous
 62
     7
100
AcDbLine
 10
25.3629755562
 20
494.275804317
 30
0.0
 11
12.2406722448
 21
494.275804317
 31
0.0
  0
LINE
  5
C9
330
75
100
AcDbEntity
  8
$DDT_AUDIT_GENERATED_(C6)
  6
Continuous
 62
     7
100
AcDbLine
 10
12.2530401758
 20
494.775804317
 30
0.0
 11
15.273937582
 21
494.775804317
 31
0.0
  0
LINE
  5
CA
330
75
100
AcDbEntity
  8
$DDT_AUDIT_GENERATED_(C6)
  6
Continuous
 62
     7
100
AcDbLine
 10
47.426062418
 20
494.775804317
 30
0.0
 11
50.4409342882
 21
494.775804317
 31
0.0
  0
ARC
  5
CB
330
75
100
AcDbEntity
  8
$DDT_AUDIT_GENERATED_(C6)
  6
Continuous
 62
     7
100
AcDbCircle
 10
31.35
 20
493.875804317
 30
0.0
 40
24.5
100
AcDbArc
 50
15.1427314405
 51
21.4985386715
  0
ARC
  5
CC
330
75
100
AcDbEntity
  8
$DDT_AUDIT_GENERATED_(C6)
  6
Continuous
 62
     7
100
AcDbCircle
 10
31.35
 20
493.875804317
 30
0.0
 40
24.50000000000001
100
AcDbArc
 50
158.5014613286
 51
164.8572685595
  0
SPLINE
  5
CE
330
75
100
AcDbEntity
  8
$DDT_AUDIT_GENERATED_(CD)
  6
Continuous
 62
     7
100
AcDbSpline
210
0.0
220
0.0
230
1.0
 70
     8
 71
     3
 72
    20
 73
    16
 74
     0
 42
0.0000000004573911
 43
0.0000000001
 40
0.0
 40
0.0
 40
0.0
 40
0.0
 40
0.0001600668072858
 40
0.0138849894415225
 40
0.13833215623315
 40
0.2007896339993117
 40
0.2632471132104691
 40
0.3259080714604258
 40
0.3885690342629677
 40
0.5140822695437696
 40
0.6397244135229835
 40
0.7652064737264271
 40
0.8244940508775548
 40
0.8832568419750123
 40
0.9325315194620475
 40
0.9325315194620475
 40
0.9325315194620475
 40
0.9325315194620475
 10
31.34998443011024
 20
528.6073042832784
 30
0.0
 10
31.34830042066454
 20
528.6072990364901
 30
0.0
 10
31.20222085183916
 20
528.6072971244122
 30
0.0
 10
29.74714037354589
 20
528.6122641851221
 30
0.0
 10
27.63374281271113
 20
528.6920210181898
 30
0.0
 10
25.12311773640152
 20
528.9075256896715
 30
0.0
 10
23.30685438510698
 20
529.1255027398745
 30
0.0
 10
21.58348690384671
 20
529.3968418669737
 30
0.0
 10
19.43212029334248
 20
529.8247177992071
 30
0.0
 10
17.05927690142009
 20
530.4746956104439
 30
0.0
 10
14.83655762416877
 20
531.3975567461193
 30
0.0
 10
13.57627749181284
 20
532.2434899785858
 30
0.0
 10
12.91174529199129
 20
532.933810824079
 30
0.0
 10
12.61761381476399
 20
533.4182327643291
 30
0.0
 10
12.53061347825953
 20
533.7347214210213
 30
0.0
 10
12.51682381023619
 20
533.8791470603825
 30
0.0
  0
SPLINE
  5
CF
330
75
100
AcDbEntity
  8
$DDT_AUDIT_GENERATED_(CD)
  6
Continuous
 62
     7
100
AcDbSpline
210
0.0
220
0.0
230
1.0
 70
     8
 71
     3
 72
     9
 73
     5
 74
     0
 42
0.0000000011304598
 43
0.0000000001
 40
0.9325315194620475
 40
0.9325315194620475
 40
0.9325315194620475
 40
0.9325315194620475
 40
0.9417948193239954
 40
0.9773339353959904
 40
0.9773339353959904
 40
0.9773339353959904
 40
0.9773339353959904
 10
12.51682381023619
 20
533.8791470603825
 30
0.0
 10
12.51423144765948
 20
533.9062980854807
 30
0.0
 10
12.5061187821882
 20
534.0376288391817
 30
0.0
 10
12.52010658601305
 20
534.1689169613296
 30
0.0
 10
12.53661763418049
 20
534.27304964485
 30
0.0
  0
SPLINE
  5
D0
330
75
100
AcDbEntity
  8
$DDT_AUDIT_GENERATED_(CD)
  6
Continuous
 62
     7
100
AcDbSpline
210
0.0
220
0.0
230
1.0
 70
     8
 71
     3
 72
    21
 73
    17
 74
     0
 42
0.0000000004763714
 43
0.0000000001
 40
0.0
 40
0.0
 40
0.0
 40
0.0
 40
0.0136883436636745
 40
0.1374401390181952
 40
0.1998591329962439
 40
0.2624839749058832
 40
0.3879938374110881
 40
0.513659118659273
 40
0.5765156541207195
 40
0.6392895553982808
 40
0.7643545029525758
 40
0.826785089067244
 40
0.8892156742772815
 40
0.9515397113175273
 40
0.9757670668247229
 40
1.0
 40
1.0
 40
1.0
 40
1.0
 10
50.12738571698298
 20
534.4722817350046
 30
0.0
 10
50.13781327929562
 20
534.4322715471761
 30
0.0
 10
50.24251298894993
 20
534.0305424644908
 30
0.0
 10
50.09449702950909
 20
533.4406472145281
 30
0.0
 10
49.58389195596302
 20
532.7252000219065
 30
0.0
 10
48.82384280037381
 20
532.0209509011148
 30
0.0
 10
47.41839481143349
 20
531.182140440365
 30
0.0
 10
45.44419883790388
 20
530.4360623194407
 30
0.0
 10
43.56627102986757
 20
529.9162361255457
 30
0.0
 10
41.5114144801998
 20
529.4543341896607
 30
0.0
 10
39.20777730266742
 20
529.0860877799455
 30
0.0
 10
36.74310287909069
 20
528.8285934717168
 30
0.0
 10
34.83206167179981
 20
528.6923290592758
 30
0.0
 10
33.277358394529
 20
528.6315200545408
 30
0.0
 10
32.11449613577575
 20
528.6099754354947
 30
0.0
 10
31.60484122047047
 20
528.6081912526384
 30
0.0
 10
31.34998443011024
 20
528.6073042832784
 30
0.0
  0
ARC
  5
D1
330
75
100
AcDbEntity
  8
$DDT_AUDIT_GENERATED_(CD)
  6
Continuous
 62
     7
100
AcDbCircle
 10
31.3841918569
 20
889.7262088937
 30
0.0
 40
353.0059332257705
100
AcDbArc
 50
269.9944503922
 51
272.9537134636
  0
SPLINE
  5
D2
330
75
100
AcDbEntity
  8
$DDT_AUDIT_GENERATED_(CD)
  6
Continuous
 62
     7
100
AcDbSpline
210
0.0
220
0.0
230
1.0
 70
     8
 71
     3
 72
    16
 73
    12
 74
     0
 42
0.0000000001876107
 43
0.0000000001
 40
0.3731924288984581
 40
0.3731924288984581
 40
0.3731924288984581
 40
0.3731924288984581
 40
0.3749999999999998
 40
0.3749999999999998
 40
0.4999999999999997
 40
0.4999999999999997
 40
0.5624999999999997
 40
0.5624999999999997
 40
0.6249999999999996
 40
0.6249999999999996
 40
0.6735480125629068
 40
0.6735480125629068
 40
0.6735480125629068
 40
0.6735480125629068
 10
24.5021147052008
 20
550.8575111275393
 30
0.0
 10
24.53275247731349
 20
550.8593210529083
 30
0.0
 10
24.56342306903679
 20
550.8611179668521
 30
0.0
 10
26.71733793899323
 20
550.9862626085707
 30
0.0
 10
29.03931019056692
 20
551.0499602883834
 30
0.0
 10
32.49015557235186
 20
551.0502684948697
 30
0.0
 10
33.65833259220212
 20
551.0345094576375
 30
0.0
 10
35.92222305846816
 20
550.9720910334294
 30
0.0
 10
37.02207920068293
 20
550.925812596045
 30
0.0
 10
38.91913381199863
 20
550.8159561202119
 30
0.0
 10
39.72850508027722
 20
550.7582614092445
 30
0.0
 10
40.49702154814585
 20
550.6922998503162
 30
0.0
  0
SPLINE
  5
D3
330
75
100
AcDbEntity
  8
$DDT_AUDIT_GENERATED_(CD)
  6
Continuous
 62
     7
100
AcDbSpline
210
0.0
220
0.0
230
1.0
 70
     8
 71
     3
 72
    30
 73
    26
 74
     0
 42
0.000000000263049
 43
0.0000000001
 40
0.0
 40
0.0
 40
0.0
 40
0.0
 40
0.0625
 40
0.0625
 40
0.125
 40
0.125
 40
0.1874999999999999
 40
0.1874999999999999
 40
0.2499999999999999
 40
0.2499999999999999
 40
0.3749999999999999
 40
0.3749999999999999
 40
0.5
 40
0.5
 40
0.5625
 40
0.5625
 40
0.625
 40
0.625
 40
0.6875
 40
0.6875
 40
0.7499999999999999
 40
0.7499999999999999
 40
0.8749999999999999
 40
0.8749999999999999
 40
0.9815610066294014
 40
0.9815610066294014
 40
0.9815610066294014
 40
0.9815610066294014
 10
49.50598609616859
 20
548.0225114050369
 30
0.0
 10
49.50234353669683
 20
548.1947502951292
 30
0.0
 10
49.3806084831751
 20
548.3697805424972
 30
0.0
 10
48.91249644646165
 20
548.7147915414533
 30
0.0
 10
48.56047399692636
 20
548.886647215613
 30
0.0
 10
47.64502703715882
 20
549.2110431346624
 30
0.0
 10
47.08604595568857
 20
549.3633146933212
 30
0.0
 10
45.76723313312009
 20
549.6480312935026
 30
0.0
 10
45.00054186152938
 20
549.7809961417814
 30
0.0
 10
42.49003595324033
 20
550.134851806615
 30
0.0
 10
40.46813354162764
 20
550.3202544349206
 30
0.0
 10
36.1083555085408
 20
550.5664668299739
 30
0.0
 10
33.72488028031921
 20
550.6300278629452
 30
0.0
 10
30.18183365930842
 20
550.6303319779697
 30
0.0
 10
28.98233676405148
 20
550.6145950318446
 30
0.0
 10
26.65881025858233
 20
550.552319496564
 30
0.0
 10
25.52963518386668
 20
550.5061432351104
 30
0.0
 10
23.3367230397598
 20
550.382704555289
 30
0.0
 10
22.27485573181601
 20
550.3050303277332
 30
0.0
 10
20.30998088566499
 20
550.1236428022147
 30
0.0
 10
19.39417788290979
 20
550.0193351068414
 30
0.0
 10
16.85394958822419
 20
549.6617923656426
 30
0.0
 10
15.51890058215816
 20
549.3742672200127
 30
0.0
 10
13.8198624359328
 20
548.7726818489925
 30
0.0
 10
13.35516636856049
 20
548.4718080973436
 30
0.0
 10
13.23056934489743
 20
548.1756680439728
 30
0.0
  0
LINE
  5
D4
330
75
100
AcDbEntity
  8
$DDT_AUDIT_GENERATED_(CD)
  6
Continuous
 62
     7
100
AcDbLine
 10
55.8359033037
 20
505.3202882164
 30
0.0
 11
50.137591464
 21
534.4201634982
 31
0.0
  0
ARC
  5
D5
330
75
100
AcDbEntity
  8
$DDT_AUDIT_GENERATED_(CD)
  6
Continuous
 62
     7
100
AcDbCircle
 10
49.8194720561
 20
504.046188013
 30
0.0
 40
6.149859858972414
100
AcDbArc
 50
3.2102813383
 51
11.9568796414
  0
ARC
  5
D6
330
75
100
AcDbEntity
  8
$DDT_AUDIT_GENERATED_(CD)
  6
Continuous
 62
     7
100
AcDbCircle
 10
12.910045215
 20
504.0348618536
 30
0.0
 40
6.181085211297003
100
AcDbArc
 50
167.9970971942
 51
176.8534787416
  0
LINE
  5
D7
330
75
100
AcDbEntity
  8
$DDT_AUDIT_GENERATED_(CD)
  6
Continuous
 62
     7
100
AcDbLine
 10
12.7789350712
 20
545.3944464666
 30
0.0
 11
13.1964768659
 21
548.0133368668
 31
0.0
  0
ARC
  5
D8
330
75
100
AcDbEntity
  8
$DDT_AUDIT_GENERATED_(CD)
  6
Continuous
 62
     7
100
AcDbCircle
 10
31.3092012545
 20
889.4633795332
 30
0.0
 40
352.7431045687806
100
AcDbArc
 50
267.0452126006
 51
270.0066269206
  0
SPLINE
  5
D9
330
75
100
AcDbEntity
  8
$DDT_AUDIT_GENERATED_(CD)
  6
Continuous
 62
     7
100
AcDbSpline
210
0.0
220
0.0
230
1.0
 70
     8
 71
     3
 72
    10
 73
     6
 74
     0
 42
0.0000000035442335
 43
0.0000000001
 40
0.0
 40
0.0
 40
0.0
 40
0.0
 40
0.5000000000000001
 40
0.5000000000000001
 40
0.9501233335228507
 40
0.9501233335228507
 40
0.9501233335228507
 40
0.9501233335228507
 10
13.12603048332337
 20
537.1892389530047
 30
0.0
 10
13.11453873054499
 20
536.7236967456904
 30
0.0
 10
12.98320207920402
 20
536.1636513338026
 30
0.0
 10
12.68412971388843
 20
535.2664974644629
 30
0.0
 10
12.58625707970316
 20
534.9291145934658
 30
0.0
 10
12.57361938000582
 20
534.5864947074555
 30
0.0
  0
LINE
  5
DA
330
75
100
AcDbEntity
  8
$DDT_AUDIT_GENERATED_(CD)
  6
Continuous
 62
     7
100
AcDbLine
 10
49.9236049455
 20
545.3944470198
 30
0.0
 11
49.5060669966
 21
548.0133361741
 31
0.0
  0
SPLINE
  5
DB
330
75
100
AcDbEntity
  8
$DDT_AUDIT_GENERATED_(CD)
  6
Continuous
 62
     7
100
AcDbSpline
210
0.0
220
0.0
230
1.0
 70
     8
 71
     3
 72
    16
 73
    12
 74
     0
 42
0.0000000035890069
 43
0.0000000001
 40
0.0
 40
0.0
 40
0.0
 40
0.0
 40
0.1250000000000001
 40
0.1250000000000001
 40
0.2500000000000001
 40
0.2500000000000001
 40
0.5000000000000001
 40
0.5000000000000001
 40
0.7500000000000001
 40
0.7500000000000001
 40
1.0
 40
1.0
 40
1.0
 40
1.0
 10
50.12738571698298
 20
534.4722817350046
 30
0.0
 10
50.12927804887515
 20
534.5679731182687
 30
0.0
 10
50.12585249204791
 20
534.657266683304
 30
0.0
 10
50.10193221078654
 20
534.8388797996668
 30
0.0
 10
50.08194633204533
 20
534.932001125966
 30
0.0
 10
50.00560539667574
 20
535.2287603234042
 30
0.0
 10
49.93288867451699
 20
535.4490621057815
 30
0.0
 10
49.78514508725885
 20
535.9292091662346
 30
0.0
 10
49.71191215901241
 20
536.1892529274647
 30
0.0
 10
49.60960056052765
 20
536.7041886060562
 30
0.0
 10
49.58004583743484
 20
536.9564939962223
 30
0.0
 10
49.57430304762155
 20
537.1892480691197
 30
0.0
  0
ARC
  5
DC
330
75
100
AcDbEntity
  8
$DDT_AUDIT_GENERATED_(CD)
  6
Continuous
 62
     7
100
AcDbCircle
 10
2010.9295702086
 20
558.3028854465
 30
0.0
 40
1961.468906127085
100
AcDbArc
 50
180.3940012549
 51
180.6167549588
  0
ARC
  5
DD
330
75
100
AcDbEntity
  8
$DDT_AUDIT_GENERATED_(CD)
  6
Continuous
 62
     7
100
AcDbCircle
 10
-1956.5456174498
 20
558.9454234012
 30
0.0
 40
1969.791799209612
100
AcDbArc
 50
359.3671600759
 51
359.5889734354
  0
SPLINE
  5
DE
330
75
100
AcDbEntity
  8
$DDT_AUDIT_GENERATED_(CD)
  6
Continuous
 62
     7
100
AcDbSpline
210
0.0
220
0.0
230
1.0
 70
     8
 71
     3
 72
    34
 73
    30
 74
     0
 42
0.000000000267038
 43
0.0000000001
 40
0.0
 40
0.0
 40
0.0
 40
0.0
 40
0.0625000000000001
 40
0.0625000000000001
 40
0.1250000000000002
 40
0.1250000000000002
 40
0.1875000000000002
 40
0.1875000000000002
 40
0.2500000000000003
 40
0.2500000000000003
 40
0.3750000000000003
 40
0.3750000000000003
 40
0.5000000000000002
 40
0.5000000000000002
 40
0.5625000000000002
 40
0.5625000000000002
 40
0.6250000000000001
 40
0.6250000000000001
 40
0.6875000000000001
 40
0.6875000000000001
 40
0.7500000000000001
 40
0.7500000000000001
 40
0.8125000000000001
 40
0.8125000000000001
 40
0.875
 40
0.875
 40
0.9375
 40
0.9375
 40
1.0
 40
1.0
 40
1.0
 40
1.0
 10
49.50694205993391
 20
544.8271671930072
 30
0.0
 10
49.50551638223695
 20
545.0043693373652
 30
0.0
 10
49.38800464101408
 20
545.1634171439204
 30
0.0
 10
48.92656282193985
 20
545.4848805013675
 30
0.0
 10
48.57719555685216
 20
545.648270516274
 30
0.0
 10
47.66494507356414
 20
545.9716262657308
 30
0.0
 10
47.10674093562259
 20
546.130282186047
 30
0.0
 10
45.78844427860626
 20
546.4341915645595
 30
0.0
 10
45.02131313907682
 20
546.5798448885823
 30
0.0
 10
42.50832230606083
 20
546.9698044556643
 30
0.0
 10
40.48364360008904
 20
547.1764979656724
 30
0.0
 10
36.11703874893585
 20
547.4489293831061
 30
0.0
 10
33.72955551925195
 20
547.5188828186958
 30
0.0
 10
30.18003933071437
 20
547.519227769836
 30
0.0
 10
28.97828646270295
 20
547.5018868590671
 30
0.0
 10
26.65108568482548
 20
547.4331894182895
 30
0.0
 10
25.5200099678557
 20
547.3822191334577
 30
0.0
 10
23.32321432457958
 20
547.2456221609489
 30
0.0
 10
22.26009060927649
 20
547.1595550099364
 30
0.0
 10
20.29270221966566
 20
546.9584140088693
 30
0.0
 10
19.37566288909139
 20
546.8425927158793
 30
0.0
 10
17.68001740788118
 20
546.5798394637385
 30
0.0
 10
16.92614149263008
 20
546.436569239356
 30
0.0
 10
15.60956126763001
 20
546.1338449561375
 30
0.0
 10
15.04046072202844
 20
545.9725190848557
 30
0.0
 10
14.12675844230624
 20
545.6488974899448
 30
0.0
 10
13.78271179257725
 20
545.488491240944
 30
0.0
 10
13.31711536643935
 20
545.1662669060702
 30
0.0
 10
13.19703439723214
 20
545.0043858795592
 30
0.0
 10
13.19559815346413
 20
544.8271673817333
 30
0.0
  0
SPLINE
  5
DF
330
75
100
AcDbEntity
  8
$DDT_AUDIT_GENERATED_(CD)
  6
Continuous
 62
     7
100
AcDbSpline
210
0.0
220
0.0
230
1.0
 70
     8
 71
     3
 72
     8
 73
     4
 74
     0
 42
0.0000000011996823
 43
0.0000000001
 40
0.0
 40
0.0
 40
0.0
 40
0.0
 40
0.0026706779482547
 40
0.0026706779482547
 40
0.0026706779482547
 40
0.0026706779482547
 10
12.77893507124392
 20
545.3944464665965
 30
0.0
 10
12.77896335768068
 20
545.4018785050417
 30
0.0
 10
12.77920979203736
 20
545.409292613052
 30
0.0
 10
12.77967414782186
 20
545.4166893007156
 30
0.0
  0
SPLINE
  5
E0
330
75
100
AcDbEntity
  8
$DDT_AUDIT_GENERATED_(CD)
  6
Continuous
 62
     7
100
AcDbSpline
210
0.0
220
0.0
230
1.0
 70
     8
 71
     3
 72
    32
 73
    28
 74
     0
 42
0.0000000002598721
 43
0.0000000001
 40
0.0026706779482547
 40
0.0026706779482547
 40
0.0026706779482547
 40
0.0026706779482547
 40
0.1250000000000001
 40
0.1250000000000001
 40
0.1875000000000001
 40
0.1875000000000001
 40
0.2500000000000001
 40
0.2500000000000001
 40
0.3750000000000001
 40
0.3750000000000001
 40
0.5000000000000001
 40
0.5000000000000001
 40
0.5625000000000001
 40
0.5625000000000001
 40
0.6250000000000002
 40
0.6250000000000002
 40
0.6875000000000002
 40
0.6875000000000002
 40
0.7500000000000002
 40
0.7500000000000002
 40
0.8125000000000003
 40
0.8125000000000003
 40
0.8750000000000002
 40
0.8750000000000002
 40
0.9375000000000002
 40
0.9375000000000002
 40
0.9973775877915604
 40
0.9973775877915604
 40
0.9973775877915604
 40
0.9973775877915604
 10
12.77967414782186
 20
545.4166893007156
 30
0.0
 10
12.8009437765111
 20
545.755491584198
 30
0.0
 10
13.27942583912778
 20
546.0577449187473
 30
0.0
 10
14.66029484930011
 20
546.5332668541591
 30
0.0
 10
15.23188924062645
 20
546.6910449895628
 30
0.0
 10
16.58126509590863
 20
546.9933919481429
 30
0.0
 10
17.36620078576741
 20
547.1383519674413
 30
0.0
 10
19.93716397851675
 20
547.5266865147771
 30
0.0
 10
22.00817879809288
 20
547.7328046558447
 30
0.0
 10
26.47512232987241
 20
548.0045303787209
 30
0.0
 10
28.91792610485577
 20
548.0743541671914
 30
0.0
 10
32.54960976050778
 20
548.0746995398603
 30
0.0
 10
33.77919610280982
 20
548.0573957853945
 30
0.0
 10
36.1602540331581
 20
547.9888506666157
 30
0.0
 10
37.31745038237222
 20
547.9379952832816
 30
0.0
 10
39.5648874413044
 20
547.8017408978253
 30
0.0
 10
40.65239048143584
 20
547.7159086927259
 30
0.0
 10
42.66494526017549
 20
547.5154026998075
 30
0.0
 10
43.60305535129555
 20
547.3999835856794
 30
0.0
 10
45.33786554209527
 20
547.1383049572077
 30
0.0
 10
46.10913511780134
 20
546.9957275780779
 30
0.0
 10
47.45670855908525
 20
546.6945534669068
 30
0.0
 10
48.03946904888923
 20
546.5341060447331
 30
0.0
 10
48.97471736635741
 20
546.2122765299608
 30
0.0
 10
49.32660837981397
 20
546.0527568909192
 30
0.0
 10
49.79157927107659
 20
545.73884403412
 30
0.0
 10
49.91256085802584
 20
545.5821043077789
 30
0.0
 10
49.92288550723718
 20
545.4162863571537
 30
0.0
  0
SPLINE
  5
E1
330
75
100
AcDbEntity
  8
$DDT_AUDIT_GENERATED_(CD)
  6
Continuous
 62
     7
100
AcDbSpline
210
0.0
220
0.0
230
1.0
 70
     8
 71
     3
 72
     8
 73
     4
 74
     0
 42
0.000000001199782
 43
0.0000000001
 40
0.9973775877915604
 40
0.9973775877915604
 40
0.9973775877915604
 40
0.9973775877915604
 40
1.0
 40
1.0
 40
1.0
 40
1.0
 10
49.92288550723718
 20
545.4162863571537
 30
0.0
 10
49.92333768788003
 20
545.409024157153
 30
0.0
 10
49.92357761643483
 20
545.401744544127
 30
0.0
 10
49.92360494553893
 20
545.394447019792
 30
0.0
  0
ARC
  5
E2
330
75
100
AcDbEntity
  8
$DDT_AUDIT_GENERATED_(CD)
  6
Continuous
 62
     7
100
AcDbCircle
 10
49.4343430445
 20
545.3171484742
 30
0.0
 40
0.495330468442574
100
AcDbArc
 50
0.7416167765
 51
8.9779585557
  0
ARC
  5
E3
330
75
100
AcDbEntity
  8
$DDT_AUDIT_GENERATED_(CD)
  6
Continuous
 62
     7
100
AcDbCircle
 10
13.2681971366
 20
545.3171487077
 30
0.0
 40
0.4953305079816447
100
AcDbArc
 50
171.022134292
 51
179.4697992729
  0
SPLINE
  5
E4
330
75
100
AcDbEntity
  8
$DDT_AUDIT_GENERATED_(CD)
  6
Continuous
 62
     7
100
AcDbSpline
210
0.0
220
0.0
230
1.0
 70
     8
 71
     3
 72
     8
 73
     4
 74
     0
 42
0.0000000182125633
 43
0.0000000001
 40
0.0
 40
0.0
 40
0.0
 40
0.0
 40
0.053746740135114
 40
0.053746740135114
 40
0.053746740135114
 40
0.053746740135114
 10
54.95226298926687
 20
502.7854266015199
 30
0.0
 10
54.96241440585661
 20
502.7842950099779
 30
0.0
 10
54.97222499120114
 20
502.7837163513323
 30
0.0
 10
54.98169384069662
 20
502.7836935866847
 30
0.0
  0
SPLINE
  5
E5
330
75
100
AcDbEntity
  8
$DDT_AUDIT_GENERATED_(CD)
  6
Continuous
 62
     7
100
AcDbSpline
210
0.0
220
0.0
230
1.0
 70
     8
 71
     3
 72
     8
 73
     4
 74
     0
 42
0.0000000182013523
 43
0.0000000001
 40
0.9460807431694802
 40
0.9460807431694802
 40
0.9460807431694802
 40
0.9460807431694802
 40
1.0
 40
1.0
 40
1.0
 40
1.0
 10
7.718193028100679
 20
502.7837094369715
 30
0.0
 10
7.727700864290723
 20
502.7837175729359
 30
0.0
 10
7.737549078674372
 20
502.7842909395123
 30
0.0
 10
7.74773701073063
 20
502.7854266014806
 30
0.0
  0
ELLIPSE
  5
E6
330
75
100
AcDbEntity
  8
$DDT_AUDIT_GENERATED_(CD)
  6
Continuous
 62
     7
100
AcDbEllipse
 10
31.35
 20
502.6342942635
 30
0.0
 11
-24.29814807757991
 21
-2.006728117009970E-11
 31
0.0
210
0.0
220
0.0
230
1.0
 40
0.0261769483
 41
3.381497574825374
 42
6.043280385944473
  0
SPLINE
  5
E7
330
75
100
AcDbEntity
  8
$DDT_AUDIT_GENERATED_(CD)
  6
Continuous
 62
     7
100
AcDbSpline
210
0.0
220
0.0
230
1.0
 70
     8
 71
     3
 72
    10
 73
     6
 74
     0
 42
0.0000000004464897
 43
0.0000000001
 40
0.2436403762716831
 40
0.2436403762716831
 40
0.2436403762716831
 40
0.2436403762716831
 40
0.2499999999999996
 40
0.2499999999999996
 40
0.352226065047768
 40
0.352226065047768
 40
0.352226065047768
 40
0.352226065047768
 10
28.10001364667283
 20
517.5667629708839
 30
0.0
 10
28.10001174477427
 20
517.5191972938751
 30
0.0
 10
28.10071303212397
 20
517.4716977633376
 30
0.0
 10
28.12455536355121
 20
516.6623308838227
 30
0.0
 10
28.31602554334442
 20
515.9155734045092
 30
0.0
 10
28.68381734812447
 20
515.2547438363596
 30
0.0
  0
SPLINE
  5
E8
330
75
100
AcDbEntity
  8
$DDT_AUDIT_GENERATED_(CD)
  6
Continuous
 62
     7
100
AcDbSpline
210
0.0
220
0.0
230
1.0
 70
     8
 71
     3
 72
    18
 73
    14
 74
     0
 42
0.0000000004361955
 43
0.0000000001
 40
0.352226065047768
 40
0.352226065047768
 40
0.352226065047768
 40
0.352226065047768
 40
0.3749999999999993
 40
0.3749999999999993
 40
0.4374999999999993
 40
0.4374999999999993
 40
0.4999999999999992
 40
0.4999999999999992
 40
0.5624999999999992
 40
0.5624999999999992
 40
0.6249999999999992
 40
0.6249999999999992
 40
0.6482126242400287
 40
0.6482126242400287
 40
0.6482126242400287
 40
0.6482126242400287
 10
28.68381734812447
 20
515.2547438363596
 30
0.0
 10
28.76575405021811
 20
515.1075241464251
 30
0.0
 10
28.856441767618
 20
514.9645691430592
 30
0.0
 10
29.22907883838496
 20
514.4481898259643
 30
0.0
 10
29.57015732355692
 20
514.1132806097085
 30
0.0
 10
30.3860447481441
 20
513.6237254627437
 30
0.0
 10
30.86194332425757
 20
513.477067030788
 30
0.0
 10
31.82819918267543
 20
513.4752238037995
 30
0.0
 10
32.31095359140989
 20
513.6226758543139
 30
0.0
 10
33.12672746224622
 20
514.1108832911085
 30
0.0
 10
33.46791827115134
 20
514.4451387622757
 30
0.0
 10
33.84265749264356
 20
514.9631183148327
 30
0.0
 10
33.935066365118
 20
515.1090606213522
 30
0.0
 10
34.01844216701559
 20
515.2596713280205
 30
0.0
  0
SPLINE
  5
E9
330
75
100
AcDbEntity
  8
$DDT_AUDIT_GENERATED_(CD)
  6
Continuous
 62
     7
100
AcDbSpline
210
0.0
220
0.0
230
1.0
 70
     8
 71
     3
 72
    10
 73
     6
 74
     0
 42
0.0000000004454762
 43
0.0000000001
 40
0.6482126242400287
 40
0.6482126242400287
 40
0.6482126242400287
 40
0.6482126242400287
 40
0.7499999999999994
 40
0.7499999999999994
 40
0.7562200043673063
 40
0.7562200043673063
 40
0.7562200043673063
 40
0.7562200043673063
 10
34.01844216701559
 20
515.2596713280205
 30
0.0
 10
34.38404512466838
 20
515.9200993965835
 30
0.0
 10
34.57595810580269
 20
516.670292546171
 30
0.0
 10
34.59928788823286
 20
517.4725491197048
 30
0.0
 10
34.59995959226333
 20
517.518864520611
 30
0.0
 10
34.59995320583653
 20
517.5652633589583
 30
0.0
  0
ARC
  5
EA
330
75
100
AcDbEntity
  8
$DDT_AUDIT_GENERATED_(CD)
  6
Continuous
 62
     7
100
AcDbCircle
 10
52.4739365047
 20
534.6514424712
 30
0.0
 40
2.348026356607141
100
AcDbArc
 50
180.3966418721
 51
192.3431801365
  0
ARC
  5
EB
330
75
100
AcDbEntity
  8
$DDT_AUDIT_GENERATED_(CD)
  6
Continuous
 62
     7
100
AcDbCircle
 10
10.741307744
 20
534.6804744185
 30
0.0
 40
1.833126440913411
100
AcDbArc
 50
347.1800555012
 51
359.8156342047
  0
LINE
  5
EC
330
75
100
AcDbEntity
  8
$DDT_AUDIT_GENERATED_(CD)
  6
Continuous
 62
     7
100
AcDbLine
 10
49.888724215
 20
545.5542269502
 30
0.0
 11
49.4714401675
 21
548.1782575863
 31
0.0
  0
LINE
  5
ED
330
75
100
AcDbEntity
  8
$DDT_AUDIT_GENERATED_(CD)
  6
Continuous
 62
     7
100
AcDbLine
 10
13.2313697208
 20
548.1799256622
 30
0.0
 11
12.8139223194
 21
545.5548577382
 31
0.0
  0
SPLINE
  5
EE
330
75
100
AcDbEntity
  8
$DDT_AUDIT_GENERATED_(CD)
  6
Continuous
 62
     7
100
AcDbSpline
210
0.0
220
0.0
230
1.0
 70
     8
 71
     3
 72
    34
 73
    30
 74
     0
 42
0.0000000008303013
 43
0.0000000001
 40
0.0
 40
0.0
 40
0.0
 40
0.0
 40
0.0190756308514432
 40
0.0604162311975663
 40
0.1015498416155394
 40
0.1424460880077176
 40
0.1831946166151217
 40
0.2240915810878569
 40
0.265274835603716
 40
0.3067188533333579
 40
0.3483938272919013
 40
0.3902667789729707
 40
0.4323039229147944
 40
0.4744736613031
 40
0.516750388162576
 40
0.5591194021428073
 40
0.6015834221263496
 40
0.6441714415143311
 40
0.6869506531148561
 40
0.7300262712753275
 40
0.7731303886335662
 40
0.8175993307312939
 40
0.8629422621631946
 40
0.9001843897992606
 40
0.9326971737844385
 40
0.9618976142635131
 40
0.9760999400084778
 40
0.9885448800385711
 40
1.0
 40
1.0
 40
1.0
 40
1.0
 10
24.48550718805252
 20
550.8576983133105
 30
0.0
 10
24.35053229178244
 20
550.8499865770646
 30
0.0
 10
23.98707427302258
 20
550.82910959876
 30
0.0
 10
23.33443005534544
 20
550.7847820761027
 30
0.0
 10
22.58331481242946
 20
550.7280611572056
 30
0.0
 10
21.85026089241408
 20
550.6655130481928
 30
0.0
 10
21.14247363114124
 20
550.5978161620849
 30
0.0
 10
20.45617398639051
 20
550.5246347891031
 30
0.0
 10
19.79123862647991
 20
550.4458854923944
 30
0.0
 10
19.14876867390482
 20
550.361570185363
 30
0.0
 10
18.53092376306214
 20
550.271820799098
 30
0.0
 10
17.93975744993313
 20
550.1767740662439
 30
0.0
 10
17.37724029104559
 20
550.0765687018378
 30
0.0
 10
16.84519192274103
 20
549.9713279723841
 30
0.0
 10
16.34522989683656
 20
549.8611345234501
 30
0.0
 10
15.87871846470575
 20
549.7459959590723
 30
0.0
 10
15.4466759739728
 20
549.6257676005188
 30
0.0
 10
15.04981566322638
 20
549.5001079815984
 30
0.0
 10
14.68809465921175
 20
549.3680980548885
 30
0.0
 10
14.36329869335335
 20
549.2292212813437
 30
0.0
 10
14.07166328472653
 20
549.0812061274078
 30
0.0
 10
13.81222575035347
 20
548.9208008263635
 30
0.0
 10
13.59891135712739
 20
548.7528165006215
 30
0.0
 10
13.43451566667188
 20
548.5816563722395
 30
0.0
 10
13.3165459525662
 20
548.4105225359204
 30
0.0
 10
13.24907070168971
 20
548.267211877988
 30
0.0
 10
13.21273068345867
 20
548.138957257552
 30
0.0
 10
13.20156767926166
 20
548.0800006495489
 30
0.0
 10
13.19606739969711
 20
548.0481993662573
 30
0.0
 10
13.1932571119026
 20
548.0308138796635
 30
0.0
  0
SPLINE
  5
EF
330
75
100
AcDbEntity
  8
$DDT_AUDIT_GENERATED_(CD)
  6
Continuous
 62
     7
100
AcDbSpline
210
0.0
220
0.0
230
1.0
 70
     8
 71
     3
 72
    30
 73
    26
 74
     0
 42
0.0000000010285392
 43
0.0000000001
 40
0.0
 40
0.0
 40
0.0
 40
0.0
 40
0.0064000909227693
 40
0.0456701672967767
 40
0.0873403943909834
 40
0.1277353208857512
 40
0.168340890663314
 40
0.2141151529497574
 40
0.2645344019027899
 40
0.316312912155919
 40
0.3673960554068493
 40
0.4177181279659578
 40
0.4674385249348282
 40
0.5166784863924785
 40
0.5655000785172414
 40
0.6139232692782005
 40
0.6619428302026356
 40
0.7095406736984065
 40
0.7566944303079072
 40
0.8033952649505378
 40
0.8501580843967053
 40
0.8970515122011876
 40
0.9442379446939642
 40
0.9916716893219594
 40
1.0
 40
1.0
 40
1.0
 40
1.0
 10
49.51088482076132
 20
548.0419293385814
 30
0.0
 10
49.50970748069118
 20
548.052048048663
 30
0.0
 10
49.5022965301042
 20
548.1139726910687
 30
0.0
 10
49.45726100141803
 20
548.2595107694341
 30
0.0
 10
49.36521238798405
 20
548.4486511679121
 30
0.0
 10
49.22579770924586
 20
548.631849570861
 30
0.0
 10
49.0565877922941
 20
548.7925444668674
 30
0.0
 10
48.84692709517242
 20
548.9478008704398
 30
0.0
 10
48.58735518813865
 20
549.1011762085516
 30
0.0
 10
48.2806459319858
 20
549.2501125359023
 30
0.0
 10
47.9349081499516
 20
549.3917403838162
 30
0.0
 10
47.55511582352401
 20
549.5258215735258
 30
0.0
 10
47.1421531857036
 20
549.6533435099589
 30
0.0
 10
46.69651592722767
 20
549.774958289198
 30
0.0
 10
46.2189878062413
 20
549.890943418559
 30
0.0
 10
45.71071127128747
 20
550.0013334411286
 30
0.0
 10
45.17313070077184
 20
550.1060228977553
 30
0.0
 10
44.60791629707803
 20
550.2048328093583
 30
0.0
 10
44.01684622602343
 20
550.2975656890992
 30
0.0
 10
43.39944118377931
 20
550.3843320859283
 30
0.0
 10
42.75564405441853
 20
550.4658725806078
 30
0.0
 10
42.08171928547076
 20
550.5428831366581
 30
0.0
 10
41.38609241607539
 20
550.6139413082425
 30
0.0
 10
40.84654050622053
 20
550.6649129725229
 30
0.0
 10
40.56931049169514
 20
550.6876061691887
 30
0.0
 10
40.52101764010179
 20
550.6915529133337
 30
0.0
  0
LINE
  5
F0
330
75
100
AcDbEntity
  8
$DDT_AUDIT_GENERATED_(CD)
  6
Continuous
 62
     7
100
AcDbLine
 10
54.9773460566
 20
502.7837132264
 30
0.0
 11
55.392842349
 21
502.7837132264
 31
0.0
  0
SPLINE
  5
F1
330
75
100
AcDbEntity
  8
$DDT_AUDIT_GENERATED_(CD)
  6
Continuous
 62
     7
100
AcDbSpline
210
0.0
220
0.0
230
1.0
 70
     8
 71
     3
 72
    15
 73
    11
 74
     0
 42
0.0000000091934577
 43
0.0000000001
 40
0.0
 40
0.0
 40
0.0
 40
0.0
 40
0.0119531141485375
 40
0.1325385563397858
 40
0.2617197209130446
 40
0.3859034307764655
 40
0.5126364014669949
 40
0.6529446910583276
 40
0.8199001986380803
 40
1.0
 40
1.0
 40
1.0
 40
1.0
 10
55.3874339668941
 20
502.7857193645048
 30
0.0
 10
55.39196227457169
 20
502.7851359460471
 30
0.0
 10
55.43512599536984
 20
502.7796866643507
 30
0.0
 10
55.53735155652566
 20
502.7983854817337
 30
0.0
 10
55.66688449453218
 20
502.8553732124952
 30
0.0
 10
55.77384987145685
 20
502.9501695506078
 30
0.0
 10
55.85133678164564
 20
503.0649982169007
 30
0.0
 10
55.90649604284767
 20
503.2001280023514
 30
0.0
 10
55.94513373544874
 20
503.3641835580261
 30
0.0
 10
55.95561612727901
 20
503.486317997657
 30
0.0
 10
55.96122370112037
 20
503.5617963128858
 30
0.0
  0
ARC
  5
F2
330
75
100
AcDbEntity
  8
$DDT_AUDIT_GENERATED_(CD)
  6
Continuous
 62
     7
100
AcDbCircle
 10
50.898403727
 20
503.9266692394
 30
0.0
 40
5.079803965742587
100
AcDbArc
 50
355.8531752187
 51
4.7736836939
  0
ARC
  5
F3
330
75
100
AcDbEntity
  8
$DDT_AUDIT_GENERATED_(CD)
  6
Continuous
 62
     7
100
AcDbCircle
 10
11.8356747578
 20
503.9349800503
 30
0.0
 40
5.11471624941752
100
AcDbArc
 50
175.5337688143
 51
184.2089511356
  0
SPLINE
  5
F4
330
75
100
AcDbEntity
  8
$DDT_AUDIT_GENERATED_(CD)
  6
Continuous
 62
     7
100
AcDbSpline
210
0.0
220
0.0
230
1.0
 70
     8
 71
     3
 72
    15
 73
    11
 74
     0
 42
0.0000000091903104
 43
0.0000000001
 40
0.0
 40
0.0
 40
0.0
 40
0.0
 40
0.1254846283698814
 40
0.3325414221818312
 40
0.4855277166126799
 40
0.6164983964336297
 40
0.7376296633621939
 40
0.8674277956132217
 40
0.9916199754700249
 40
1.0
 40
1.0
 40
1.0
 40
1.0
 10
6.737376318091918
 20
503.5634687503248
 30
0.0
 10
6.740237445465834
 20
503.5093835388142
 30
0.0
 10
6.747697000232082
 20
503.3880817236828
 30
0.0
 10
6.782578551714165
 20
503.222490186347
 30
0.0
 10
6.842587321747459
 20
503.0697724265087
 30
0.0
 10
6.922260815627128
 20
502.9511182927091
 30
0.0
 10
7.029735800539713
 20
502.8558679463657
 30
0.0
 10
7.15929240269908
 20
502.7984386589812
 30
0.0
 10
7.261781836831904
 20
502.7797851105874
 30
0.0
 10
7.304941461552694
 20
502.7851189618794
 30
0.0
 10
7.30811072883341
 20
502.7855164943225
 30
0.0
  0
ARC
  5
F5
330
75
100
AcDbEntity
  8
$DDT_AUDIT_GENERATED_(CD)
  6
Continuous
 62
     7
100
AcDbCircle
 10
128.6411540589
 20
539.4228364949
 30
0.0
 40
78.66255525908787
100
AcDbArc
 50
181.2673814766
 51
183.5083116193
  0
ARC
  5
F6
330
75
100
AcDbEntity
  8
$DDT_AUDIT_GENERATED_(CD)
  6
Continuous
 62
     7
100
AcDbCircle
 10
1907.8342397061
 20
558.0597672474
 30
0.0
 40
1857.947620620771
100
AcDbArc
 50
180.3932684809
 51
180.6283709685
  0
LINE
  5
F7
330
75
100
AcDbEntity
  8
$DDT_AUDIT_GENERATED_(CD)
  6
Continuous
 62
     7
100
AcDbLine
 10
49.9297635522
 20
545.3105668984
 30
0.0
 11
49.9296553523
 21
545.3231355283
 31
0.0
  0
LINE
  5
F8
330
75
100
AcDbEntity
  8
$DDT_AUDIT_GENERATED_(CD)
  6
Continuous
 62
     7
100
AcDbLine
 10
12.772720108
 20
545.3213312684
 30
0.0
 11
12.7725943443
 21
545.3085973928
 31
0.0
  0
ARC
  5
F9
330
75
100
AcDbEntity
  8
$DDT_AUDIT_GENERATED_(CD)
  6
Continuous
 62
     7
100
AcDbCircle
 10
-798.6953920276
 20
549.1545265088
 30
0.0
 40
811.4768516193332
100
AcDbArc
 50
359.190084883
 51
359.7283598171
  0
ARC
  5
FA
330
75
100
AcDbEntity
  8
$DDT_AUDIT_GENERATED_(CD)
  6
Continuous
 62
     7
100
AcDbCircle
 10
-73.4840317533
 20
539.7761858517
 30
0.0
 40
86.21239502821909
100
AcDbArc
 50
356.5794523739
 51
358.6095358582
  0
LINE
  5
FB
330
75
100
AcDbEntity
  8
$DDT_AUDIT_GENERATED_(CD)
  6
Continuous
 62
     7
100
AcDbLine
 10
7.3036360826
 20
502.7837132264
 30
0.0
 11
7.7209741461
 21
502.7837132264
 31
0.0
  0
SPLINE
  5
FC
330
75
100
AcDbEntity
  8
$DDT_AUDIT_GENERATED_(CD)
  6
Continuous
 62
     7
100
AcDbSpline
210
0.0
220
0.0
230
1.0
 70
     8
 71
     3
 72
     8
 73
     4
 74
     0
 42
0.0000000003293466
 43
0.0000000001
 40
0.0
 40
0.0
 40
0.0
 40
0.0
 40
1.0
 40
1.0
 40
1.0
 40
1.0
 10
12.51884947915555
 20
533.8812917107449
 30
0.0
 10
10.56621437843448
 20
523.8259659707272
 30
0.0
 10
8.636297608978056
 20
513.8906221035915
 30
0.0
 10
6.729099170786297
 20
504.0752601093381
 30
0.0
  0
SPLINE
  5
FD
330
75
100
AcDbEntity
  8
$DDT_AUDIT_GENERATED_(CD)
  6
Continuous
 62
     7
100
AcDbSpline
210
0.0
220
0.0
230
1.0
 70
     8
 71
     3
 72
     8
 73
     4
 74
     0
 42
0.0000000003292987
 43
0.0000000001
 40
0.0
 40
0.0
 40
0.0
 40
0.0
 40
1.0
 40
1.0
 40
1.0
 40
1.0
 10
55.96896270622604
 20
504.0754328301953
 30
0.0
 10
54.05903497794402
 20
513.8898327407251
 30
0.0
 10
52.12360144460823
 20
523.8256029590148
 30
0.0
 10
50.16266210621863
 20
533.8827434850641
 30
0.0
  0
ELLIPSE
  5
FF
330
75
100
AcDbEntity
  8
$DDT_AUDIT_GENERATED_(FE)
  6
Continuous
 62
     7
100
AcDbEllipse
 10
31.35
 20
490.7188922577
 30
0.0
 11
11.225
 21
0.0
 31
0.0
210
0.0
220
0.0
230
1.0
 40
0.3746065934
 41
0.0320331153955835
 42
3.109559538194199
  0
ELLIPSE
  5
100
330
75
100
AcDbEntity
  8
$DDT_AUDIT_GENERATED_(FE)
  6
Continuous
 62
     7
100
AcDbEllipse
 10
31.35
 20
489.9771451741
 30
0.0
 11
11.225
 21
0.0
 31
0.0
210
0.0
220
0.0
230
1.0
 40
0.3746065934
 41
0.4159140521025452
 42
2.725678601487246
  0
ELLIPSE
  5
101
330
75
100
AcDbEntity
  8
$DDT_AUDIT_GENERATED_(FE)
  6
Continuous
 62
     7
100
AcDbEllipse
 10
31.35
 20
487.6128263449
 30
0.0
 11
11.225
 21
0.0
 31
0.0
210
0.0
220
0.0
230
1.0
 40
0.3746065934
 41
0.7383288619098637
 42
2.403507299479116
  0
ELLIPSE
  5
102
330
75
100
AcDbEntity
  8
$DDT_AUDIT_GENERATED_(FE)
  6
Continuous
 62
     7
100
AcDbEllipse
 10
31.35
 20
486.5465649122
 30
0.0
 11
-11.93500000000001
 21
0.0
 31
0.0
210
0.0
220
0.0
230
1.0
 40
0.3746065934
 41
4.196658910966661
 42
5.226975857506948
  0
ELLIPSE
  5
103
330
75
100
AcDbEntity
  8
$DDT_AUDIT_GENERATED_(FE)
  6
Continuous
 62
     7
100
AcDbEllipse
 10
31.35
 20
479.2596960797
 30
0.0
 11
11.85999999999215
 21
-9.658940314238862E-12
 31
0.0
210
0.0
220
0.0
230
1.0
 40
0.3746065934
 41
-0.7751090107141456
 42
-0.3887609383040891
  0
ELLIPSE
  5
104
330
75
100
AcDbEntity
  8
$DDT_AUDIT_GENERATED_(FE)
  6
Continuous
 62
     7
100
AcDbEllipse
 10
31.35
 20
479.2596960797
 30
0.0
 11
11.85999999999215
 21
-9.658940314238862E-12
 31
0.0
210
0.0
220
0.0
230
1.0
 40
0.3746065934
 41
3.530353591894495
 42
3.91670166430455
  0
ELLIPSE
  5
105
330
75
100
AcDbEntity
  8
$DDT_AUDIT_GENERATED_(FE)
  6
Continuous
 62
     7
100
AcDbEllipse
 10
31.35
 20
478.6841350107
 30
0.0
 11
-10.78480762113533
 21
0.0
 31
0.0
210
0.0
220
0.0
230
1.0
 40
0.3746065934
 41
0.3882922769083882
 42
2.765558267746513
  0
ELLIPSE
  5
106
330
75
100
AcDbEntity
  8
$DDT_AUDIT_GENERATED_(FE)
  6
Continuous
 62
     7
100
AcDbEllipse
 10
31.35
 20
478.6655021484
 30
0.0
 11
-10.70980762113533
 21
0.0
 31
0.0
210
0.0
220
0.0
230
1.0
 40
0.3746065934
 41
5.195623374451429
 42
6.283185307179586
  0
ELLIPSE
  5
107
330
75
100
AcDbEntity
  8
$DDT_AUDIT_GENERATED_(FE)
  6
Continuous
 62
     7
100
AcDbEllipse
 10
31.35
 20
478.6655021484
 30
0.0
 11
-10.70980762113533
 21
0.0
 31
0.0
210
0.0
220
0.0
230
1.0
 40
0.3746065934
 41
4.240348662353222
 42
5.195623374451429
  0
ELLIPSE
  5
108
330
75
100
AcDbEntity
  8
$DDT_AUDIT_GENERATED_(FE)
  6
Continuous
 62
     7
100
AcDbEllipse
 10
31.35
 20
478.6655021484
 30
0.0
 11
-10.70980762113533
 21
0.0
 31
0.0
210
0.0
220
0.0
230
1.0
 40
0.3746065934
 41
0.0
 42
4.240348662353222
  0
ELLIPSE
  5
109
330
75
100
AcDbEntity
  8
$DDT_AUDIT_GENERATED_(FE)
  6
Continuous
 62
     7
100
AcDbEllipse
 10
31.35
 20
478.6655021484
 30
0.0
 11
-10.075
 21
0.0
 31
0.0
210
0.0
220
0.0
230
1.0
 40
0.3746065934
 41
0.0
 42
6.283185307179586
  0
ELLIPSE
  5
10A
330
75
100
AcDbEntity
  8
$DDT_AUDIT_GENERATED_(FE)
  6
Continuous
 62
     7
100
AcDbEllipse
 10
31.35
 20
488.0276914771
 30
0.0
 11
-12.0
 21
0.0
 31
0.0
210
0.0
220
0.0
230
1.0
 40
0.3746065934
 41
3.710851848581774
 42
5.713971438486687
  0
ELLIPSE
  5
10B
330
75
100
AcDbEntity
  8
$DDT_AUDIT_GENERATED_(FE)
  6
Continuous
 62
     7
100
AcDbEllipse
 10
31.35
 20
489.2585776868
 30
0.0
 11
-12.0
 21
0.0
 31
0.0
210
0.0
220
0.0
230
1.0
 40
0.3746065934
 41
3.410231030964099
 42
6.014782231964796
  0
ELLIPSE
  5
10C
330
75
100
AcDbEntity
  8
$DDT_AUDIT_GENERATED_(FE)
  6
Continuous
 62
     7
100
AcDbEllipse
 10
31.35
 20
476.3137752137
 30
0.0
 11
-11.76638677690723
 21
-7.04753561068136
 31
0.0
210
0.0
220
0.0
230
1.0
 40
0.2836582471
 41
2.569475046914238
 42
3.377127225235798
  0
LINE
  5
10D
330
75
100
AcDbEntity
  8
$DDT_AUDIT_GENERATED_(FE)
  6
Continuous
 62
     7
100
AcDbLine
 10
42.325
 20
481.1369458739
 30
0.0
 11
42.325
 21
483.9456058742
 31
0.0
  0
LINE
  5
10E
330
75
100
AcDbEntity
  8
$DDT_AUDIT_GENERATED_(FE)
  6
Continuous
 62
     7
100
AcDbLine
 10
42.325
 20
480.9437173026
 30
0.0
 11
42.325
 21
481.1369458739
 31
0.0
  0
LINE
  5
10F
330
75
100
AcDbEntity
  8
$DDT_AUDIT_GENERATED_(FE)
  6
Continuous
 62
     7
100
AcDbLine
 10
42.325
 20
477.5756748567
 30
0.0
 11
42.325
 21
480.9437173026
 31
0.0
  0
ELLIPSE
  5
110
330
75
100
AcDbEntity
  8
$DDT_AUDIT_GENERATED_(FE)
  6
Continuous
 62
     7
100
AcDbEllipse
 10
31.35
 20
479.3801407955
 30
0.0
 11
-11.93499999999998
 21
4.163336342344337E-14
 31
0.0
210
0.0
220
0.0
230
1.0
 40
0.3746065934
 41
3.545418742750576
 42
5.879359218018807
  0
ELLIPSE
  5
111
330
75
100
AcDbEntity
  8
$DDT_AUDIT_GENERATED_(FE)
  6
Continuous
 62
     7
100
AcDbEllipse
 10
31.35
 20
476.3137752137
 30
0.0
 11
11.76638677690724
 21
-7.047535610681346
 31
0.0
210
0.0
220
0.0
230
0.9999999999999999
 40
0.2836582471
 41
2.906058081943786
 42
3.71371026026534
  0
LINE
  5
112
330
75
100
AcDbEntity
  8
$DDT_AUDIT_GENERATED_(FE)
  6
Continuous
 62
     7
100
AcDbLine
 10
20.375
 20
481.1369458739
 30
0.0
 11
20.375
 21
483.9456058742
 31
0.0
  0
LINE
  5
113
330
75
100
AcDbEntity
  8
$DDT_AUDIT_GENERATED_(FE)
  6
Continuous
 62
     7
100
AcDbLine
 10
20.375
 20
480.9437173026
 30
0.0
 11
20.375
 21
481.1369458739
 31
0.0
  0
LINE
  5
114
330
75
100
AcDbEntity
  8
$DDT_AUDIT_GENERATED_(FE)
  6
Continuous
 62
     7
100
AcDbLine
 10
20.375
 20
477.5756748567
 30
0.0
 11
20.375
 21
480.9437173026
 31
0.0
  0
LINE
  5
115
330
75
100
AcDbEntity
  8
$DDT_AUDIT_GENERATED_(FE)
  6
Continuous
 62
     7
100
AcDbLine
 10
19.415
 20
485.5016347315
 30
0.0
 11
19.415
 21
482.7026982498
 31
0.0
  0
LINE
  5
116
330
75
100
AcDbEntity
  8
$DDT_AUDIT_GENERATED_(FE)
  6
Continuous
 62
     7
100
AcDbLine
 10
43.285
 20
482.7026982498
 30
0.0
 11
43.285
 21
485.501634729
 31
0.0
  0
LINE
  5
117
330
75
100
AcDbEntity
  8
$DDT_AUDIT_GENERATED_(FE)
  6
Continuous
 62
     7
100
AcDbLine
 10
22.8778712263
 20
476.1506275838
 30
0.0
 11
23.6459292609
 21
475.8569254316
 31
0.0
  0
LINE
  5
118
330
75
100
AcDbEntity
  8
$DDT_AUDIT_GENERATED_(FE)
  6
Continuous
 62
     7
100
AcDbLine
 10
39.0540707391
 20
475.8569254316
 30
0.0
 11
39.8221287737
 21
476.1506275838
 31
0.0
  0
LINE
  5
119
330
75
100
AcDbEntity
  8
$DDT_AUDIT_GENERATED_(FE)
  6
Continuous
 62
     7
100
AcDbLine
 10
42.3269688199
 20
491.0747883441
 30
0.0
 11
41.6180395836
 21
491.6760588931
 31
0.0
  0
LINE
  5
11A
330
75
100
AcDbEntity
  8
$DDT_AUDIT_GENERATED_(FE)
  6
Continuous
 62
     7
100
AcDbLine
 10
21.0819604164
 20
491.6760588931
 30
0.0
 11
20.3730311801
 21
491.0747883441
 31
0.0
  0
ELLIPSE
  5
11C
330
75
100
AcDbEntity
  8
$DDT_AUDIT_GENERATED_(11B)
  6
Continuous
 62
     7
100
AcDbEllipse
 10
31.35
 20
478.3409877993
 30
0.0
 11
9.000000000000004
 21
0.0
 31
0.0
210
0.0
220
0.0
230
1.0
 40
0.3746065934
 41
0.0
 42
6.283185307179586
  0
ELLIPSE
  5
11D
330
75
100
AcDbEntity
  8
$DDT_AUDIT_GENERATED_(11B)
  6
Continuous
 62
     7
100
AcDbEllipse
 10
31.35
 20
481.2027167558
 30
0.0
 11
9.38647410379423
 21
1.665334536937735E-13
 31
0.0
210
0.0
220
0.0
230
1.0
 40
0.3746065934
 41
-0.2879555481429383
 42
-0.2584344793862643
  0
ELLIPSE
  5
11E
330
75
100
AcDbEntity
  8
$DDT_AUDIT_GENERATED_(11B)
  6
Continuous
 62
     7
100
AcDbEllipse
 10
31.35
 20
481.2027167558
 30
0.0
 11
-9.386474103793871
 21
1.942890293094024E-13
 31
0.0
210
0.0
220
0.0
230
1.0
 40
0.3746065934
 41
0.2585015878000727
 42
0.2879555481429454
  0
ELLIPSE
  5
11F
330
75
100
AcDbEntity
  8
$DDT_AUDIT_GENERATED_(11B)
  6
Continuous
 62
     7
100
AcDbEllipse
 10
31.35
 20
478.3409877993
 30
0.0
 11
-5.250000000000001
 21
0.0
 31
0.0
210
0.0
220
0.0
230
1.0
 40
0.3746065934
 41
0.0
 42
6.283185307179586
  0
ELLIPSE
  5
120
330
75
100
AcDbEntity
  8
$DDT_AUDIT_GENERATED_(11B)
  6
Continuous
 62
     7
100
AcDbEllipse
 10
31.35
 20
478.3409877993
 30
0.0
 11
6.249999999999999
 21
0.0
 31
0.0
210
0.0
220
0.0
230
1.0
 40
0.3746065934
 41
0.0
 42
6.283185307179586
  0
ELLIPSE
  5
121
330
75
100
AcDbEntity
  8
$DDT_AUDIT_GENERATED_(11B)
  6
Continuous
 62
     7
100
AcDbEllipse
 10
31.35
 20
478.3409877993
 30
0.0
 11
-2.750000000000002
 21
0.0
 31
0.0
210
0.0
220
0.0
230
1.0
 40
0.3746065934
 41
0.0
 42
6.283185307179586
  0
ELLIPSE
  5
122
330
75
100
AcDbEntity
  8
$DDT_AUDIT_GENERATED_(11B)
  6
Continuous
 62
     7
100
AcDbEllipse
 10
31.35
 20
478.3409877993
 30
0.0
 11
-2.150000000000001
 21
0.0
 31
0.0
210
0.0
220
0.0
230
1.0
 40
0.3746065934
 41
0.0
 42
6.283185307179586
  0
ELLIPSE
  5
123
330
75
100
AcDbEntity
  8
$DDT_AUDIT_GENERATED_(11B)
  6
Continuous
 62
     7
100
AcDbEllipse
 10
31.35
 20
478.5264245702
 30
0.0
 11
-0.5196299438963558
 21
0.0
 31
0.0
210
0.0
220
0.0
230
1.0
 40
0.3746065934
 41
0.0
 42
6.283185307179586
  0
ELLIPSE
  5
124
330
75
100
AcDbEntity
  8
$DDT_AUDIT_GENERATED_(11B)
  6
Continuous
 62
     7
100
AcDbEllipse
 10
31.35
 20
478.3409877993
 30
0.0
 11
-8.700000000000005
 21
0.0
 31
0.0
210
0.0
220
0.0
230
1.0
 40
0.3746065934
 41
0.0
 42
6.283185307179586
  0
ARC
  5
125
330
75
100
AcDbEntity
  8
$DDT_AUDIT_GENERATED_(11B)
  6
Continuous
 62
     7
100
AcDbCircle
 10
31.35
 20
498.0313894429
 30
0.0
 40
22.68912092336222
100
AcDbArc
 50
269.7474738435
 51
270.2525261565
  0
ELLIPSE
  5
126
330
75
100
AcDbEntity
  8
$DDT_AUDIT_GENERATED_(11B)
  6
Continuous
 62
     7
100
AcDbEllipse
 10
31.35
 20
478.5264245702
 30
0.0
 11
8.499999999984526
 21
1.554312234475219E-12
 31
0.0
210
0.0
220
0.0
230
1.0
 40
0.3746065934
 41
4.724153957672286
 42
4.962423390895691
  0
LINE
  5
127
330
75
100
AcDbEntity
  8
$DDT_AUDIT_GENERATED_(11B)
  6
Continuous
 62
     7
100
AcDbLine
 10
31.25
 20
475.9999962949
 30
0.0
 11
31.25
 21
475.3424888906
 31
0.0
  0
LINE
  5
128
330
75
100
AcDbEntity
  8
$DDT_AUDIT_GENERATED_(11B)
  6
Continuous
 62
     7
100
AcDbLine
 10
31.45
 20
475.9999962949
 30
0.0
 11
31.45
 21
475.3424888906
 31
0.0
  0
LINE
  5
129
330
75
100
AcDbEntity
  8
$DDT_AUDIT_GENERATED_(11B)
  6
Continuous
 62
     7
100
AcDbLine
 10
31.6
 20
477.9557745315
 30
0.0
 11
31.6
 21
478.3557768636
 31
0.0
  0
LINE
  5
12A
330
75
100
AcDbEntity
  8
$DDT_AUDIT_GENERATED_(11B)
  6
Continuous
 62
     7
100
AcDbLine
 10
31.1
 20
477.9557745315
 30
0.0
 11
31.1
 21
478.3557768636
 31
0.0
  0
ELLIPSE
  5
12B
330
75
100
AcDbEntity
  8
$DDT_AUDIT_GENERATED_(11B)
  6
Continuous
 62
     7
100
AcDbEllipse
 10
31.35
 20
478.7557153138
 30
0.0
 11
-2.149999999996585
 21
4.163336342344337E-14
 31
0.0
210
0.0
220
0.0
230
1.0
 40
0.3746065934
 41
1.454253618345384
 42
1.687339035244432
  0
LINE
  5
12C
330
75
100
AcDbEntity
  8
$DDT_AUDIT_GENERATED_(11B)
  6
Continuous
 62
     7
100
AcDbLine
 10
31.0804921307
 20
478.9221438737
 30
0.0
 11
31.0804921307
 21
479.1400391624
 31
0.0
  0
ELLIPSE
  5
12D
330
75
100
AcDbEntity
  8
$DDT_AUDIT_GENERATED_(11B)
  6
Continuous
 62
     7
100
AcDbEllipse
 10
31.35
 20
478.7557153138
 30
0.0
 11
-0.5196299438963564
 21
1.387778780781446E-14
 31
0.0
210
0.0
220
0.0
230
1.0
 40
0.3746065934
 41
5.257664250556912
 42
6.261508812605758
  0
LINE
  5
12E
330
75
100
AcDbEntity
  8
$DDT_AUDIT_GENERATED_(11B)
  6
Continuous
 62
     7
100
AcDbLine
 10
29.946520891
 20
478.9511190686
 30
0.0
 11
30.8304921307
 21
478.7599344605
 31
0.0
  0
LINE
  5
12F
330
75
100
AcDbEntity
  8
$DDT_AUDIT_GENERATED_(11B)
  6
Continuous
 62
     7
100
AcDbLine
 10
30.4145783673
 20
479.0661671814
 30
0.0
 11
31.0804921307
 21
478.9221438737
 31
0.0
  0
ELLIPSE
  5
130
330
75
100
AcDbEntity
  8
$DDT_AUDIT_GENERATED_(11B)
  6
Continuous
 62
     7
100
AcDbEllipse
 10
31.35
 20
478.7557153138
 30
0.0
 11
0.5196299438963554
 21
-1.387778780781446E-14
 31
0.0
210
0.0
220
0.0
230
1.0
 40
0.3746065934
 41
0.0216764945740745
 42
1.025521056622581
  0
LINE
  5
131
330
75
100
AcDbEntity
  8
$DDT_AUDIT_GENERATED_(11B)
  6
Continuous
 62
     7
100
AcDbLine
 10
32.2854216327
 20
479.0661671814
 30
0.0
 11
31.6195078693
 21
478.9221438737
 31
0.0
  0
LINE
  5
132
330
75
100
AcDbEntity
  8
$DDT_AUDIT_GENERATED_(11B)
  6
Continuous
 62
     7
100
AcDbLine
 10
31.6195078693
 20
478.9221438737
 30
0.0
 11
31.6195078693
 21
479.1400391624
 31
0.0
  0
LINE
  5
133
330
75
100
AcDbEntity
  8
$DDT_AUDIT_GENERATED_(11B)
  6
Continuous
 62
     7
100
AcDbLine
 10
32.753479109
 20
478.9511190686
 30
0.0
 11
31.8695078693
 21
478.7599344605
 31
0.0
  0
ELLIPSE
  5
134
330
75
100
AcDbEntity
  8
$DDT_AUDIT_GENERATED_(11B)
  6
Continuous
 62
     7
100
AcDbEllipse
 10
31.3499998778
 20
478.5264243994
 30
0.0
 11
-8.499999748173392
 21
5.142448966655166E-8
 31
0.0
210
0.0
220
0.0
230
1.0
 40
0.3746065844
 41
1.297231970591097
 42
1.320761925820649
  0
ELLIPSE
  5
135
330
75
100
AcDbEntity
  8
$DDT_AUDIT_GENERATED_(11B)
  6
Continuous
 62
     7
100
AcDbEllipse
 10
31.35
 20
478.5264245702
 30
0.0
 11
-8.500000000006887
 21
-7.216449660063518E-13
 31
0.0
210
0.0
220
0.0
230
1.0
 40
0.3746065934
 41
1.320761916283778
 42
1.55903134950656
  0
LINE
  5
136
330
75
100
AcDbEntity
  8
$DDT_AUDIT_GENERATED_(11B)
  6
Continuous
 62
     7
100
AcDbLine
 10
29.0535977858
 20
475.4606744001
 30
0.0
 11
29.0535977858
 21
476.1634619286
 31
0.0
  0
LINE
  5
137
330
75
100
AcDbEntity
  8
$DDT_AUDIT_GENERATED_(11B)
  6
Continuous
 62
     7
100
AcDbLine
 10
29.5131118904
 20
476.1030984799
 30
0.0
 11
29.0535977858
 21
475.4606744001
 31
0.0
  0
LINE
  5
138
330
75
100
AcDbEntity
  8
$DDT_AUDIT_GENERATED_(11B)
  6
Continuous
 62
     7
100
AcDbLine
 10
29.7052355806
 20
476.0822234196
 30
0.0
 11
29.246782951
 21
475.4412833359
 31
0.0
  0
ELLIPSE
  5
139
330
75
100
AcDbEntity
  8
$DDT_AUDIT_GENERATED_(11B)
  6
Continuous
 62
     7
100
AcDbEllipse
 10
31.3499997469
 20
478.526424406
 30
0.0
 11
-8.499999683681553
 21
9.553777213788806E-8
 31
0.0
210
0.0
220
0.0
230
1.0
 40
0.3746065878
 41
1.0354325906685
 42
1.058962545945071
  0
ELLIPSE
  5
13A
330
75
100
AcDbEntity
  8
$DDT_AUDIT_GENERATED_(11B)
  6
Continuous
 62
     7
100
AcDbEllipse
 10
31.35
 20
478.5264245702
 30
0.0
 11
-8.499999999999655
 21
0.0
 31
0.0
210
0.0
220
0.0
230
1.0
 40
0.3746065934
 41
1.058962528484678
 42
1.297231961707655
  0
LINE
  5
13B
330
75
100
AcDbEntity
  8
$DDT_AUDIT_GENERATED_(11B)
  6
Continuous
 62
     7
100
AcDbLine
 10
27.0136915874
 20
475.7877857173
 30
0.0
 11
27.0136915874
 21
476.6548865039
 31
0.0
  0
LINE
  5
13C
330
75
100
AcDbEntity
  8
$DDT_AUDIT_GENERATED_(11B)
  6
Continuous
 62
     7
100
AcDbLine
 10
27.9288828811
 20
476.381596288
 30
0.0
 11
27.0136915874
 21
475.7877857173
 31
0.0
  0
LINE
  5
13D
330
75
100
AcDbEntity
  8
$DDT_AUDIT_GENERATED_(11B)
  6
Continuous
 62
     7
100
AcDbLine
 10
28.0981242049
 20
476.3415637939
 30
0.0
 11
27.1868966682
 21
475.750325058
 31
0.0
  0
ELLIPSE
  5
13E
330
75
100
AcDbEntity
  8
$DDT_AUDIT_GENERATED_(11B)
  6
Continuous
 62
     7
100
AcDbEllipse
 10
31.3499996905
 20
478.5264244542
 30
0.0
 11
-8.499999671695406
 21
9.541313572558607E-8
 31
0.0
210
0.0
220
0.0
230
1.0
 40
0.3746065934
 41
0.773633202883826
 42
0.7971631580659635
  0
ELLIPSE
  5
13F
330
75
100
AcDbEntity
  8
$DDT_AUDIT_GENERATED_(11B)
  6
Continuous
 62
     7
100
AcDbEllipse
 10
31.35
 20
478.5264245702
 30
0.0
 11
-8.500000000022595
 21
-6.744604874597826E-12
 31
0.0
210
0.0
220
0.0
230
1.0
 40
0.3746065934
 41
0.7971631406845116
 42
1.035432573907021
  0
LINE
  5
140
330
75
100
AcDbEntity
  8
$DDT_AUDIT_GENERATED_(11B)
  6
Continuous
 62
     7
100
AcDbLine
 10
25.2692976414
 20
476.3015307465
 30
0.0
 11
25.2692976414
 21
477.1680391784
 31
0.0
  0
LINE
  5
141
330
75
100
AcDbEntity
  8
$DDT_AUDIT_GENERATED_(11B)
  6
Continuous
 62
     7
100
AcDbLine
 10
26.6238348069
 20
476.8089492998
 30
0.0
 11
25.2692976414
 21
476.3015307465
 31
0.0
  0
LINE
  5
142
330
75
100
AcDbEntity
  8
$DDT_AUDIT_GENERATED_(11B)
  6
Continuous
 62
     7
100
AcDbLine
 10
26.7573224128
 20
476.7529998921
 30
0.0
 11
25.4107189976
 21
476.248553374
 31
0.0
  0
ELLIPSE
  5
143
330
75
100
AcDbEntity
  8
$DDT_AUDIT_GENERATED_(11B)
  6
Continuous
 62
     7
100
AcDbEllipse
 10
31.3499996215
 20
478.5264244883
 30
0.0
 11
-8.499999617554826
 21
8.246164862057980E-8
 31
0.0
210
0.0
220
0.0
230
1.0
 40
0.3746065982
 41
0.5118338127744188
 42
0.5353637679556261
  0
ELLIPSE
  5
144
330
75
100
AcDbEntity
  8
$DDT_AUDIT_GENERATED_(11B)
  6
Continuous
 62
     7
100
AcDbEllipse
 10
31.35
 20
478.5264245702
 30
0.0
 11
-8.499999999993957
 21
1.762479051592436E-12
 31
0.0
210
0.0
220
0.0
230
1.0
 40
0.3746065934
 41
0.5353637528866275
 42
0.7736331861097019
  0
LINE
  5
145
330
75
100
AcDbEntity
  8
$DDT_AUDIT_GENERATED_(11B)
  6
Continuous
 62
     7
100
AcDbLine
 10
23.9392935122
 20
476.966898613
 30
0.0
 11
23.9392935122
 21
477.7437888195
 31
0.0
  0
LINE
  5
146
330
75
100
AcDbEntity
  8
$DDT_AUDIT_GENERATED_(11B)
  6
Continuous
 62
     7
100
AcDbLine
 10
25.6923929807
 20
477.3460575943
 30
0.0
 11
23.9392935122
 21
476.966898613
 31
0.0
  0
LINE
  5
147
330
75
100
AcDbEntity
  8
$DDT_AUDIT_GENERATED_(11B)
  6
Continuous
 62
     7
100
AcDbLine
 10
25.7804829782
 20
477.2785979431
 30
0.0
 11
24.0392935122
 21
476.9020148477
 31
0.0
  0
ELLIPSE
  5
148
330
75
100
AcDbEntity
  8
$DDT_AUDIT_GENERATED_(11B)
  6
Continuous
 62
     7
100
AcDbEllipse
 10
31.3499996098
 20
478.5264245309
 30
0.0
 11
-8.499999609530366
 21
4.410649623309837E-8
 31
0.0
210
0.0
220
0.0
230
1.0
 40
0.3746066011
 41
0.2500344181162635
 42
0.273564373251668
  0
ELLIPSE
  5
149
330
75
100
AcDbEntity
  8
$DDT_AUDIT_GENERATED_(11B)
  6
Continuous
 62
     7
100
AcDbEllipse
 10
31.35
 20
478.5264245702
 30
0.0
 11
-8.500000000029514
 21
-4.607425552194400E-12
 31
0.0
210
0.0
220
0.0
230
1.0
 40
0.3746065934
 41
0.2735643650865853
 42
0.5118337983091077
  0
LINE
  5
14A
330
75
100
AcDbEntity
  8
$DDT_AUDIT_GENERATED_(11B)
  6
Continuous
 62
     7
100
AcDbLine
 10
23.1143167834
 20
477.7385455962
 30
0.0
 11
23.1143167834
 21
478.4889639108
 31
0.0
  0
LINE
  5
14B
330
75
100
AcDbEntity
  8
$DDT_AUDIT_GENERATED_(11B)
  6
Continuous
 62
     7
100
AcDbLine
 10
25.1892122675
 20
477.9468143388
 30
0.0
 11
23.1143167834
 21
477.7385455962
 31
0.0
  0
LINE
  5
14C
330
75
100
AcDbEntity
  8
$DDT_AUDIT_GENERATED_(11B)
  6
Continuous
 62
     7
100
AcDbLine
 10
25.2261512748
 20
477.8729578548
 30
0.0
 11
23.1660805924
 21
477.6661771596
 31
0.0
  0
ARC
  5
14D
330
75
100
AcDbEntity
  8
$DDT_AUDIT_GENERATED_(11B)
  6
Continuous
 62
     7
100
AcDbCircle
 10
24.0433115542
 20
478.5264245702
 30
0.0
 40
1.193311429590154
100
AcDbArc
 50
178.2010644444
 51
181.7989355556
  0
ELLIPSE
  5
14E
330
75
100
AcDbEntity
  8
$DDT_AUDIT_GENERATED_(11B)
  6
Continuous
 62
     7
100
AcDbEllipse
 10
31.35
 20
478.5264245702
 30
0.0
 11
-8.500000000030292
 21
-1.040834085586084E-12
 31
0.0
210
0.0
220
0.0
230
1.0
 40
0.3746065934
 41
0.0117649772880082
 42
0.2500344105105723
  0
ARC
  5
14F
330
75
100
AcDbEntity
  8
$DDT_AUDIT_GENERATED_(11B)
  6
Continuous
 62
     7
100
AcDbCircle
 10
25.9777509039
 20
478.5264245702
 30
0.0
 40
0.8777505904340768
100
AcDbArc
 50
177.5539865225
 51
180.0
  0
LINE
  5
150
330
75
100
AcDbEntity
  8
$DDT_AUDIT_GENERATED_(11B)
  6
Continuous
 62
     7
100
AcDbLine
 10
25.1008000512
 20
478.5638852295
 30
0.0
 11
25.1008000512
 21
479.1149092249
 31
0.0
  0
LINE
  5
151
330
75
100
AcDbEntity
  8
$DDT_AUDIT_GENERATED_(11B)
  6
Continuous
 62
     7
100
AcDbLine
 10
25.1008000512
 20
478.5638852295
 30
0.0
 11
22.8505882556
 21
478.5638852295
 31
0.0
  0
LINE
  5
152
330
75
100
AcDbEntity
  8
$DDT_AUDIT_GENERATED_(11B)
  6
Continuous
 62
     7
100
AcDbLine
 10
25.1
 20
478.4889639108
 30
0.0
 11
22.8505882556
 21
478.4889639108
 31
0.0
  0
ELLIPSE
  5
153
330
75
100
AcDbEntity
  8
$DDT_AUDIT_GENERATED_(11B)
  6
Continuous
 62
     7
100
AcDbEllipse
 10
31.349999544
 20
478.5264246159
 30
0.0
 11
-8.499999543755788
 21
-5.140825265481652E-8
 31
0.0
210
0.0
220
0.0
230
1.0
 40
0.3746066024
 41
-0.2735643746220209
 42
-0.2500344193924811
  0
ELLIPSE
  5
154
330
75
100
AcDbEntity
  8
$DDT_AUDIT_GENERATED_(11B)
  6
Continuous
 62
     7
100
AcDbEllipse
 10
31.35
 20
478.5264245702
 30
0.0
 11
-8.500000000026549
 21
1.415534356397075E-12
 31
0.0
210
0.0
220
0.0
230
1.0
 40
0.3746065934
 41
6.033150896668984
 42
6.27142032989155
  0
ELLIPSE
  5
155
330
75
100
AcDbEntity
  8
$DDT_AUDIT_GENERATED_(11B)
  6
Continuous
 62
     7
100
AcDbEllipse
 10
31.3500000309
 20
478.5264245671
 30
0.0
 11
-6.250000030961825
 21
3.456457342565499E-9
 31
0.0
210
0.0
220
0.0
230
1.0
 40
0.3746065926
 41
-0.277800069655429
 42
-0.2457987042467771
  0
LINE
  5
156
330
75
100
AcDbEntity
  8
$DDT_AUDIT_GENERATED_(11B)
  6
Continuous
 62
     7
100
AcDbLine
 10
25.3396182803
 20
479.1685019743
 30
0.0
 11
25.3396182803
 21
479.7830893822
 31
0.0
  0
LINE
  5
157
330
75
100
AcDbEntity
  8
$DDT_AUDIT_GENERATED_(11B)
  6
Continuous
 62
     7
100
AcDbLine
 10
25.3396182803
 20
479.1685019743
 30
0.0
 11
23.1660805924
 21
479.3866719808
 31
0.0
  0
LINE
  5
158
330
75
100
AcDbEntity
  8
$DDT_AUDIT_GENERATED_(11B)
  6
Continuous
 62
     7
100
AcDbLine
 10
25.2878544713
 20
479.0961335376
 30
0.0
 11
23.1143167834
 21
479.3143035441
 31
0.0
  0
ELLIPSE
  5
159
330
75
100
AcDbEntity
  8
$DDT_AUDIT_GENERATED_(11B)
  6
Continuous
 62
     7
100
AcDbEllipse
 10
31.35
 20
478.5264245702
 30
0.0
 11
-8.500000000017614
 21
3.108624468950438E-12
 31
0.0
210
0.0
220
0.0
230
1.0
 40
0.3746065934
 41
-0.3894296234166204
 42
-0.2735643650868278
  0
ELLIPSE
  5
15A
330
75
100
AcDbEntity
  8
$DDT_AUDIT_GENERATED_(11B)
  6
Continuous
 62
     7
100
AcDbEllipse
 10
31.3500000617
 20
478.5264245568
 30
0.0
 11
-6.250000062330057
 21
1.344738209674290E-8
 31
0.0
210
0.0
220
0.0
230
1.0
 40
0.3746065923
 41
-0.5395994549770906
 42
-0.5075980896687309
  0
LINE
  5
15B
330
75
100
AcDbEntity
  8
$DDT_AUDIT_GENERATED_(11B)
  6
Continuous
 62
     7
100
AcDbLine
 10
25.988034091
 20
479.729362205
 30
0.0
 11
25.988034091
 21
480.4820749809
 31
0.0
  0
LINE
  5
15C
330
75
100
AcDbEntity
  8
$DDT_AUDIT_GENERATED_(11B)
  6
Continuous
 62
     7
100
AcDbLine
 10
25.988034091
 20
479.729362205
 30
0.0
 11
24.0938528733
 21
480.1390342367
 31
0.0
  0
LINE
  5
15D
330
75
100
AcDbEntity
  8
$DDT_AUDIT_GENERATED_(11B)
  6
Continuous
 62
     7
100
AcDbLine
 10
25.888034091
 20
479.6644784397
 30
0.0
 11
23.9853071433
 21
480.0759987352
 31
0.0
  0
ELLIPSE
  5
15E
330
75
100
AcDbEntity
  8
$DDT_AUDIT_GENERATED_(11B)
  6
Continuous
 62
     7
100
AcDbEllipse
 10
31.3500000405
 20
478.526424555
 30
0.0
 11
-6.250000042975546
 21
1.248175174328736E-8
 31
0.0
210
0.0
220
0.0
230
1.0
 40
0.3746065934
 41
-0.8013988430286387
 42
-0.7693974776846924
  0
LINE
  5
15F
330
75
100
AcDbEntity
  8
$DDT_AUDIT_GENERATED_(11B)
  6
Continuous
 62
     7
100
AcDbLine
 10
27.0018590173
 20
480.2082442239
 30
0.0
 11
27.0018590173
 21
481.1638335406
 31
0.0
  0
LINE
  5
160
330
75
100
AcDbEntity
  8
$DDT_AUDIT_GENERATED_(11B)
  6
Continuous
 62
     7
100
AcDbLine
 10
27.0018590173
 20
480.2082442239
 30
0.0
 11
25.5246262424
 21
480.7616253614
 31
0.0
  0
LINE
  5
161
330
75
100
AcDbEntity
  8
$DDT_AUDIT_GENERATED_(11B)
  6
Continuous
 62
     7
100
AcDbLine
 10
26.8604376611
 20
480.1552668514
 30
0.0
 11
25.3775100432
 21
480.7107813146
 31
0.0
  0
ELLIPSE
  5
162
330
75
100
AcDbEntity
  8
$DDT_AUDIT_GENERATED_(11B)
  6
Continuous
 62
     7
100
AcDbEllipse
 10
31.3500000293
 20
478.5264245512
 30
0.0
 11
-6.250000036581031
 21
1.106503777492662E-8
 31
0.0
210
0.0
220
0.0
230
1.0
 40
0.3746065943
 41
-1.063198231174924
 42
-1.031196865834099
  0
LINE
  5
163
330
75
100
AcDbEntity
  8
$DDT_AUDIT_GENERATED_(11B)
  6
Continuous
 62
     7
100
AcDbLine
 10
28.312002566
 20
480.5725130127
 30
0.0
 11
28.312002566
 21
481.3949063715
 31
0.0
  0
LINE
  5
164
330
75
100
AcDbEntity
  8
$DDT_AUDIT_GENERATED_(11B)
  6
Continuous
 62
     7
100
AcDbLine
 10
28.312002566
 20
480.5725130127
 30
0.0
 11
27.3044229154
 21
481.226268628
 31
0.0
  0
LINE
  5
165
330
75
100
AcDbEntity
  8
$DDT_AUDIT_GENERATED_(11B)
  6
Continuous
 62
     7
100
AcDbLine
 10
28.1387974852
 20
480.5350523534
 30
0.0
 11
27.128371567
 21
481.1906547343
 31
0.0
  0
ELLIPSE
  5
166
330
75
100
AcDbEntity
  8
$DDT_AUDIT_GENERATED_(11B)
  6
Continuous
 62
     7
100
AcDbEllipse
 10
31.3500000149
 20
478.5264245493
 30
0.0
 11
-6.250000030732236
 21
6.275327479876579E-9
 31
0.0
210
0.0
220
0.0
230
1.0
 40
0.3746065949
 41
-1.324997620138164
 42
-1.292996254795014
  0
LINE
  5
167
330
75
100
AcDbEntity
  8
$DDT_AUDIT_GENERATED_(11B)
  6
Continuous
 62
     7
100
AcDbLine
 10
29.8291806192
 20
480.7973442555
 30
0.0
 11
29.8291806192
 21
481.5498843306
 31
0.0
  0
LINE
  5
168
330
75
100
AcDbEntity
  8
$DDT_AUDIT_GENERATED_(11B)
  6
Continuous
 62
     7
100
AcDbLine
 10
29.8291806192
 20
480.7973442555
 30
0.0
 11
29.3193954238
 21
481.5100498758
 31
0.0
  0
LINE
  5
169
330
75
100
AcDbEntity
  8
$DDT_AUDIT_GENERATED_(11B)
  6
Continuous
 62
     7
100
AcDbLine
 10
29.635995454
 20
480.7779531913
 30
0.0
 11
29.1254478295
 21
481.4917247263
 31
0.0
  0
ARC
  5
16A
330
75
100
AcDbEntity
  8
$DDT_AUDIT_GENERATED_(11B)
  6
Continuous
 62
     7
100
AcDbCircle
 10
31.35
 20
464.1853820191
 30
0.0
 40
16.682333776442
100
AcDbArc
 50
89.6565461199
 51
90.3434538801
  0
LINE
  5
16B
330
75
100
AcDbEntity
  8
$DDT_AUDIT_GENERATED_(11B)
  6
Continuous
 62
     7
100
AcDbLine
 10
31.45
 20
480.8674160746
 30
0.0
 11
31.45
 21
481.5998498637
 31
0.0
  0
LINE
  5
16C
330
75
100
AcDbEntity
  8
$DDT_AUDIT_GENERATED_(11B)
  6
Continuous
 62
     7
100
AcDbLine
 10
31.25
 20
480.8674160746
 30
0.0
 11
31.25
 21
481.5998498637
 31
0.0
  0
ELLIPSE
  5
16D
330
75
100
AcDbEntity
  8
$DDT_AUDIT_GENERATED_(11B)
  6
Continuous
 62
     7
100
AcDbEllipse
 10
31.3499999851
 20
478.5264245494
 30
0.0
 11
6.250000030683052
 21
6.260728047102760E-9
 31
0.0
210
0.0
220
0.0
230
1.0
 40
0.3746065949
 41
1.292996254798976
 42
1.324997620142353
  0
LINE
  5
16E
330
75
100
AcDbEntity
  8
$DDT_AUDIT_GENERATED_(11B)
  6
Continuous
 62
     7
100
AcDbLine
 10
33.064004546
 20
480.7779531913
 30
0.0
 11
33.5745521705
 21
481.4917247263
 31
0.0
  0
LINE
  5
16F
330
75
100
AcDbEntity
  8
$DDT_AUDIT_GENERATED_(11B)
  6
Continuous
 62
     7
100
AcDbLine
 10
32.8708193808
 20
480.7973442555
 30
0.0
 11
33.3806045762
 21
481.5100498758
 31
0.0
  0
LINE
  5
170
330
75
100
AcDbEntity
  8
$DDT_AUDIT_GENERATED_(11B)
  6
Continuous
 62
     7
100
AcDbLine
 10
32.8708193808
 20
480.7973442555
 30
0.0
 11
32.8708193808
 21
481.5498843306
 31
0.0
  0
ELLIPSE
  5
171
330
75
100
AcDbEntity
  8
$DDT_AUDIT_GENERATED_(11B)
  6
Continuous
 62
     7
100
AcDbEllipse
 10
31.3499999712
 20
478.5264245515
 30
0.0
 11
6.250000036000681
 21
1.085692646896064E-8
 31
0.0
210
0.0
220
0.0
230
1.0
 40
0.3746065943
 41
1.031196865878952
 42
1.063198231222156
  0
LINE
  5
172
330
75
100
AcDbEntity
  8
$DDT_AUDIT_GENERATED_(11B)
  6
Continuous
 62
     7
100
AcDbLine
 10
34.5612025148
 20
480.5350523534
 30
0.0
 11
35.571628433
 21
481.1906547343
 31
0.0
  0
LINE
  5
173
330
75
100
AcDbEntity
  8
$DDT_AUDIT_GENERATED_(11B)
  6
Continuous
 62
     7
100
AcDbLine
 10
34.387997434
 20
480.5725130127
 30
0.0
 11
35.3955770846
 21
481.226268628
 31
0.0
  0
LINE
  5
174
330
75
100
AcDbEntity
  8
$DDT_AUDIT_GENERATED_(11B)
  6
Continuous
 62
     7
100
AcDbLine
 10
34.387997434
 20
480.5725130127
 30
0.0
 11
34.387997434
 21
481.3949063715
 31
0.0
  0
ELLIPSE
  5
175
330
75
100
AcDbEntity
  8
$DDT_AUDIT_GENERATED_(11B)
  6
Continuous
 62
     7
100
AcDbEllipse
 10
31.3500000435
 20
478.5264245865
 30
0.0
 11
6.249999953871725
 21
-1.340409727657033E-8
 31
0.0
210
0.0
220
0.0
230
1.0
 40
0.3746065934
 41
0.7693974838347137
 42
0.8013988494829076
  0
LINE
  5
176
330
75
100
AcDbEntity
  8
$DDT_AUDIT_GENERATED_(11B)
  6
Continuous
 62
     7
100
AcDbLine
 10
35.8395623389
 20
480.1552668514
 30
0.0
 11
37.3224899568
 21
480.7107813146
 31
0.0
  0
LINE
  5
177
330
75
100
AcDbEntity
  8
$DDT_AUDIT_GENERATED_(11B)
  6
Continuous
 62
     7
100
AcDbLine
 10
35.6981409827
 20
480.2082442239
 30
0.0
 11
37.1753737576
 21
480.7616253614
 31
0.0
  0
LINE
  5
178
330
75
100
AcDbEntity
  8
$DDT_AUDIT_GENERATED_(11B)
  6
Continuous
 62
     7
100
AcDbLine
 10
35.6981409827
 20
480.2082442239
 30
0.0
 11
35.6981409827
 21
481.1638335406
 31
0.0
  0
ELLIPSE
  5
179
330
75
100
AcDbEntity
  8
$DDT_AUDIT_GENERATED_(11B)
  6
Continuous
 62
     7
100
AcDbEllipse
 10
31.3499999723
 20
478.5264245642
 30
0.0
 11
6.250000027942972
 21
6.030204113827153E-9
 31
0.0
210
0.0
220
0.0
230
1.0
 40
0.3746065929
 41
0.507598091426175
 42
0.5395994568350488
  0
LINE
  5
17A
330
75
100
AcDbEntity
  8
$DDT_AUDIT_GENERATED_(11B)
  6
Continuous
 62
     7
100
AcDbLine
 10
36.811965909
 20
479.6644784397
 30
0.0
 11
38.7146928567
 21
480.0759987352
 31
0.0
  0
LINE
  5
17B
330
75
100
AcDbEntity
  8
$DDT_AUDIT_GENERATED_(11B)
  6
Continuous
 62
     7
100
AcDbLine
 10
36.711965909
 20
479.729362205
 30
0.0
 11
38.6061471267
 21
480.1390342367
 31
0.0
  0
LINE
  5
17C
330
75
100
AcDbEntity
  8
$DDT_AUDIT_GENERATED_(11B)
  6
Continuous
 62
     7
100
AcDbLine
 10
36.711965909
 20
479.729362205
 30
0.0
 11
36.711965909
 21
480.4820749809
 31
0.0
  0
ELLIPSE
  5
17D
330
75
100
AcDbEntity
  8
$DDT_AUDIT_GENERATED_(11B)
  6
Continuous
 62
     7
100
AcDbEllipse
 10
31.3500004559
 20
478.5264246159
 30
0.0
 11
8.49999954378243
 21
-5.140525505265003E-8
 31
0.0
210
0.0
220
0.0
230
1.0
 40
0.3746066024
 41
0.2500344193921405
 42
0.2735643746216373
  0
ELLIPSE
  5
17E
330
75
100
AcDbEntity
  8
$DDT_AUDIT_GENERATED_(11B)
  6
Continuous
 62
     7
100
AcDbEllipse
 10
31.35
 20
478.5264245702
 30
0.0
 11
8.500000000048543
 21
7.799316747991725E-12
 31
0.0
210
0.0
220
0.0
230
1.0
 40
0.3746065934
 41
0.2735643650861649
 42
0.3894296234157179
  0
ELLIPSE
  5
17F
330
75
100
AcDbEntity
  8
$DDT_AUDIT_GENERATED_(11B)
  6
Continuous
 62
     7
100
AcDbEllipse
 10
31.3499999443
 20
478.5264245646
 30
0.0
 11
6.250000055736685
 21
6.249140094283235E-9
 31
0.0
210
0.0
220
0.0
230
1.0
 40
0.3746065919
 41
0.2457987035995965
 42
0.2778000689426028
  0
LINE
  5
180
330
75
100
AcDbEntity
  8
$DDT_AUDIT_GENERATED_(11B)
  6
Continuous
 62
     7
100
AcDbLine
 10
37.4121455287
 20
479.0961335376
 30
0.0
 11
39.5856832166
 21
479.3143035441
 31
0.0
  0
LINE
  5
181
330
75
100
AcDbEntity
  8
$DDT_AUDIT_GENERATED_(11B)
  6
Continuous
 62
     7
100
AcDbLine
 10
37.3603817197
 20
479.1685019743
 30
0.0
 11
39.5339194076
 21
479.3866719808
 31
0.0
  0
LINE
  5
182
330
75
100
AcDbEntity
  8
$DDT_AUDIT_GENERATED_(11B)
  6
Continuous
 62
     7
100
AcDbLine
 10
37.3603817197
 20
479.1685019743
 30
0.0
 11
37.3603817197
 21
479.7830893822
 31
0.0
  0
ARC
  5
183
330
75
100
AcDbEntity
  8
$DDT_AUDIT_GENERATED_(11B)
  6
Continuous
 62
     7
100
AcDbCircle
 10
38.6566884458
 20
478.5264245702
 30
0.0
 40
1.193311429590154
100
AcDbArc
 50
358.2010644444
 51
1.7989355556
  0
ELLIPSE
  5
184
330
75
100
AcDbEntity
  8
$DDT_AUDIT_GENERATED_(11B)
  6
Continuous
 62
     7
100
AcDbEllipse
 10
31.35
 20
478.5264245702
 30
0.0
 11
8.500000000030292
 21
1.040834085586084E-12
 31
0.0
210
0.0
220
0.0
230
1.0
 40
0.3746065934
 41
0.0117649772880082
 42
0.2500344105105606
  0
ARC
  5
185
330
75
100
AcDbEntity
  8
$DDT_AUDIT_GENERATED_(11B)
  6
Continuous
 62
     7
100
AcDbCircle
 10
36.7222490961
 20
478.5264245702
 30
0.0
 40
0.8777505904341643
100
AcDbArc
 50
0.0
 51
2.4460134775
  0
LINE
  5
186
330
75
100
AcDbEntity
  8
$DDT_AUDIT_GENERATED_(11B)
  6
Continuous
 62
     7
100
AcDbLine
 10
37.6
 20
478.4889639108
 30
0.0
 11
39.8494117444
 21
478.4889639108
 31
0.0
  0
LINE
  5
187
330
75
100
AcDbEntity
  8
$DDT_AUDIT_GENERATED_(11B)
  6
Continuous
 62
     7
100
AcDbLine
 10
37.5991999488
 20
478.5638852295
 30
0.0
 11
39.8494117444
 21
478.5638852295
 31
0.0
  0
LINE
  5
188
330
75
100
AcDbEntity
  8
$DDT_AUDIT_GENERATED_(11B)
  6
Continuous
 62
     7
100
AcDbLine
 10
37.5991999488
 20
478.5638852295
 30
0.0
 11
37.5991999488
 21
479.1149092249
 31
0.0
  0
ELLIPSE
  5
189
330
75
100
AcDbEntity
  8
$DDT_AUDIT_GENERATED_(11B)
  6
Continuous
 62
     7
100
AcDbEllipse
 10
31.3500003897
 20
478.5264245312
 30
0.0
 11
8.499999610091278
 21
4.381817131360322E-8
 31
0.0
210
0.0
220
0.0
230
1.0
 40
0.3746066011
 41
-0.2735643732313111
 42
-0.2500344180968366
  0
ELLIPSE
  5
18A
330
75
100
AcDbEntity
  8
$DDT_AUDIT_GENERATED_(11B)
  6
Continuous
 62
     7
100
AcDbEllipse
 10
31.35
 20
478.5264245702
 30
0.0
 11
8.50000000002227
 21
-1.165734175856414E-12
 31
0.0
210
0.0
220
0.0
230
1.0
 40
0.3746065934
 41
6.033150896668906
 42
6.271420329891512
  0
LINE
  5
18B
330
75
100
AcDbEntity
  8
$DDT_AUDIT_GENERATED_(11B)
  6
Continuous
 62
     7
100
AcDbLine
 10
39.5856832166
 20
477.7385455962
 30
0.0
 11
39.5856832166
 21
478.4889639108
 31
0.0
  0
LINE
  5
18C
330
75
100
AcDbEntity
  8
$DDT_AUDIT_GENERATED_(11B)
  6
Continuous
 62
     7
100
AcDbLine
 10
37.4738487252
 20
477.8729578548
 30
0.0
 11
39.5339194076
 21
477.6661771596
 31
0.0
  0
LINE
  5
18D
330
75
100
AcDbEntity
  8
$DDT_AUDIT_GENERATED_(11B)
  6
Continuous
 62
     7
100
AcDbLine
 10
37.5107877325
 20
477.9468143388
 30
0.0
 11
39.5856832166
 21
477.7385455962
 31
0.0
  0
ELLIPSE
  5
18E
330
75
100
AcDbEntity
  8
$DDT_AUDIT_GENERATED_(11B)
  6
Continuous
 62
     7
100
AcDbEllipse
 10
31.3500003792
 20
478.5264244882
 30
0.0
 11
8.499999616883576
 21
8.260980788321604E-8
 31
0.0
210
0.0
220
0.0
230
1.0
 40
0.3746065982
 41
-0.5353637679850003
 42
-0.5118338128028519
  0
ELLIPSE
  5
18F
330
75
100
AcDbEntity
  8
$DDT_AUDIT_GENERATED_(11B)
  6
Continuous
 62
     7
100
AcDbEllipse
 10
31.35
 20
478.5264245702
 30
0.0
 11
8.500000000002725
 21
4.302114220422482E-13
 31
0.0
210
0.0
220
0.0
230
1.0
 40
0.3746065934
 41
-0.5118337983101373
 42
-0.2735643650872115
  0
LINE
  5
190
330
75
100
AcDbEntity
  8
$DDT_AUDIT_GENERATED_(11B)
  6
Continuous
 62
     7
100
AcDbLine
 10
38.7607064878
 20
476.966898613
 30
0.0
 11
38.7607064878
 21
477.7437888195
 31
0.0
  0
LINE
  5
191
330
75
100
AcDbEntity
  8
$DDT_AUDIT_GENERATED_(11B)
  6
Continuous
 62
     7
100
AcDbLine
 10
36.9195170218
 20
477.2785979431
 30
0.0
 11
38.6607064878
 21
476.9020148477
 31
0.0
  0
LINE
  5
192
330
75
100
AcDbEntity
  8
$DDT_AUDIT_GENERATED_(11B)
  6
Continuous
 62
     7
100
AcDbLine
 10
37.0076070193
 20
477.3460575943
 30
0.0
 11
38.7607064878
 21
476.966898613
 31
0.0
  0
ELLIPSE
  5
193
330
75
100
AcDbEntity
  8
$DDT_AUDIT_GENERATED_(11B)
  6
Continuous
 62
     7
100
AcDbEllipse
 10
31.3500003333
 20
478.5264244454
 30
0.0
 11
8.499999646513196
 21
1.026522755687154E-7
 31
0.0
210
0.0
220
0.0
230
1.0
 40
0.3746065934
 41
-0.7971631593986999
 42
-0.7736332041701557
  0
ELLIPSE
  5
194
330
75
100
AcDbEntity
  8
$DDT_AUDIT_GENERATED_(11B)
  6
Continuous
 62
     7
100
AcDbEllipse
 10
31.35
 20
478.5264245702
 30
0.0
 11
8.50000000000423
 21
-9.159339953157541E-13
 31
0.0
210
0.0
220
0.0
230
1.0
 40
0.3746065934
 41
-0.7736331861091248
 42
-0.5353637528862327
  0
LINE
  5
195
330
75
100
AcDbEntity
  8
$DDT_AUDIT_GENERATED_(11B)
  6
Continuous
 62
     7
100
AcDbLine
 10
37.4307023586
 20
476.3015307465
 30
0.0
 11
37.4307023586
 21
477.1680391784
 31
0.0
  0
LINE
  5
196
330
75
100
AcDbEntity
  8
$DDT_AUDIT_GENERATED_(11B)
  6
Continuous
 62
     7
100
AcDbLine
 10
35.9426775872
 20
476.7529998921
 30
0.0
 11
37.2892810024
 21
476.248553374
 31
0.0
  0
LINE
  5
197
330
75
100
AcDbEntity
  8
$DDT_AUDIT_GENERATED_(11B)
  6
Continuous
 62
     7
100
AcDbLine
 10
36.0761651931
 20
476.8089492998
 30
0.0
 11
37.4307023586
 21
476.3015307465
 31
0.0
  0
ELLIPSE
  5
198
330
75
100
AcDbEntity
  8
$DDT_AUDIT_GENERATED_(11B)
  6
Continuous
 62
     7
100
AcDbEllipse
 10
31.3500002184
 20
478.5264244286
 30
0.0
 11
8.499999727128211
 21
8.238248971892403E-8
 31
0.0
210
0.0
220
0.0
230
1.0
 40
0.3746065886
 41
-1.058962543545372
 42
-1.035432588364981
  0
ELLIPSE
  5
199
330
75
100
AcDbEntity
  8
$DDT_AUDIT_GENERATED_(11B)
  6
Continuous
 62
     7
100
AcDbEllipse
 10
31.35
 20
478.5264245702
 30
0.0
 11
8.499999999997952
 21
2.498001805406602E-13
 31
0.0
210
0.0
220
0.0
230
1.0
 40
0.3746065934
 41
-1.035432573908631
 42
-0.797163140685619
  0
LINE
  5
19A
330
75
100
AcDbEntity
  8
$DDT_AUDIT_GENERATED_(11B)
  6
Continuous
 62
     7
100
AcDbLine
 10
35.6863084126
 20
475.7877857173
 30
0.0
 11
35.6863084126
 21
476.6548865039
 31
0.0
  0
LINE
  5
19B
330
75
100
AcDbEntity
  8
$DDT_AUDIT_GENERATED_(11B)
  6
Continuous
 62
     7
100
AcDbLine
 10
34.6018757951
 20
476.3415637939
 30
0.0
 11
35.5131033318
 21
475.750325058
 31
0.0
  0
LINE
  5
19C
330
75
100
AcDbEntity
  8
$DDT_AUDIT_GENERATED_(11B)
  6
Continuous
 62
     7
100
AcDbLine
 10
34.7711171189
 20
476.381596288
 30
0.0
 11
35.6863084126
 21
475.7877857173
 31
0.0
  0
ELLIPSE
  5
19D
330
75
100
AcDbEntity
  8
$DDT_AUDIT_GENERATED_(11B)
  6
Continuous
 62
     7
100
AcDbEllipse
 10
31.3500001135
 20
478.5264244117
 30
0.0
 11
8.499999766307154
 21
4.774755590908342E-8
 31
0.0
210
0.0
220
0.0
230
1.0
 40
0.3746065851
 41
-1.320761925143138
 42
-1.297231969960684
  0
ELLIPSE
  5
19E
330
75
100
AcDbEntity
  8
$DDT_AUDIT_GENERATED_(11B)
  6
Continuous
 62
     7
100
AcDbEllipse
 10
31.35
 20
478.5264245702
 30
0.0
 11
8.500000000007756
 21
-2.109423746787797E-12
 31
0.0
210
0.0
220
0.0
230
1.0
 40
0.3746065934
 41
-1.297231961707187
 42
-1.058962528484408
  0
LINE
  5
19F
330
75
100
AcDbEntity
  8
$DDT_AUDIT_GENERATED_(11B)
  6
Continuous
 62
     7
100
AcDbLine
 10
33.6464022142
 20
475.4606744001
 30
0.0
 11
33.6464022142
 21
476.1634619286
 31
0.0
  0
LINE
  5
1A0
330
75
100
AcDbEntity
  8
$DDT_AUDIT_GENERATED_(11B)
  6
Continuous
 62
     7
100
AcDbLine
 10
32.9947644194
 20
476.0822234196
 30
0.0
 11
33.453217049
 21
475.4412833359
 31
0.0
  0
LINE
  5
1A1
330
75
100
AcDbEntity
  8
$DDT_AUDIT_GENERATED_(11B)
  6
Continuous
 62
     7
100
AcDbLine
 10
33.1868881096
 20
476.1030984799
 30
0.0
 11
33.6464022142
 21
475.4606744001
 31
0.0
  0
ARC
  5
1A2
330
75
100
AcDbEntity
  8
$DDT_AUDIT_GENERATED_(11B)
  6
Continuous
 62
     7
100
AcDbCircle
 10
31.35
 20
490.5677473545
 30
0.0
 40
14.00800766098232
100
AcDbArc
 50
269.2841935491
 51
270.7158064509
  0
LINE
  5
1A3
330
75
100
AcDbEntity
  8
$DDT_AUDIT_GENERATED_(11B)
  6
Continuous
 62
     7
100
AcDbLine
 10
31.175
 20
477.312907661
 30
0.0
 11
31.175
 21
476.560832861
 31
0.0
  0
LINE
  5
1A4
330
75
100
AcDbEntity
  8
$DDT_AUDIT_GENERATED_(11B)
  6
Continuous
 62
     7
100
AcDbLine
 10
31.525
 20
477.312907661
 30
0.0
 11
31.525
 21
476.560832861
 31
0.0
  0
ELLIPSE
  5
1A5
330
75
100
AcDbEntity
  8
$DDT_AUDIT_GENERATED_(11B)
  6
Continuous
 62
     7
100
AcDbEllipse
 10
31.3499999989
 20
478.5264245694
 30
0.0
 11
-5.249999998582753
 21
4.292122213200855E-10
 31
0.0
210
0.0
220
0.0
230
1.0
 40
0.3746065934
 41
1.013858042052648
 42
1.080537060589638
  0
LINE
  5
1A6
330
75
100
AcDbEntity
  8
$DDT_AUDIT_GENERATED_(11B)
  6
Continuous
 62
     7
100
AcDbLine
 10
29.6254221695
 20
477.5385658465
 30
0.0
 11
28.574904293
 21
476.8569502935
 31
0.0
  0
LINE
  5
1A7
330
75
100
AcDbEntity
  8
$DDT_AUDIT_GENERATED_(11B)
  6
Continuous
 62
     7
100
AcDbLine
 10
29.912683675
 20
477.4627273121
 30
0.0
 11
28.8780131843
 21
476.7913941396
 31
0.0
  0
LINE
  5
1A8
330
75
100
AcDbEntity
  8
$DDT_AUDIT_GENERATED_(11B)
  6
Continuous
 62
     7
100
AcDbLine
 10
28.574904293
 20
477.8505313159
 30
0.0
 11
28.574904293
 21
476.8569502935
 31
0.0
  0
ELLIPSE
  5
1A9
330
75
100
AcDbEntity
  8
$DDT_AUDIT_GENERATED_(11B)
  6
Continuous
 62
     7
100
AcDbEllipse
 10
31.3499999969
 20
478.5264245695
 30
0.0
 11
-5.249999996891798
 21
6.654260475968953E-10
 31
0.0
210
0.0
220
0.0
230
1.0
 40
0.3746065935
 41
0.4902592665198169
 42
0.556938285064963
  0
LINE
  5
1AA
330
75
100
AcDbEntity
  8
$DDT_AUDIT_GENERATED_(11B)
  6
Continuous
 62
     7
100
AcDbLine
 10
28.7246760158
 20
478.0343192792
 30
0.0
 11
26.7183932396
 21
477.6004020102
 31
0.0
  0
LINE
  5
1AB
330
75
100
AcDbEntity
  8
$DDT_AUDIT_GENERATED_(11B)
  6
Continuous
 62
     7
100
AcDbLine
 10
28.8517374482
 20
477.9104045741
 30
0.0
 11
26.8933932396
 21
477.486855421
 31
0.0
  0
LINE
  5
1AC
330
75
100
AcDbEntity
  8
$DDT_AUDIT_GENERATED_(11B)
  6
Continuous
 62
     7
100
AcDbLine
 10
26.7183932396
 20
478.4608684163
 30
0.0
 11
26.7183932396
 21
477.6004020102
 31
0.0
  0
LINE
  5
1AD
330
75
100
AcDbEntity
  8
$DDT_AUDIT_GENERATED_(11B)
  6
Continuous
 62
     7
100
AcDbLine
 10
28.6055738305
 20
479.0442891886
 30
0.0
 11
28.6055738305
 21
478.591980724
 31
0.0
  0
ELLIPSE
  5
1AE
330
75
100
AcDbEntity
  8
$DDT_AUDIT_GENERATED_(11B)
  6
Continuous
 62
     7
100
AcDbEllipse
 10
31.35
 20
478.5264245702
 30
0.0
 11
2.749999999997732
 21
1.998401444325282E-12
 31
0.0
210
0.0
220
0.0
230
1.0
 40
0.3746065934
 41
3.077913261332449
 42
3.141592653589785
  0
LINE
  5
1AF
330
75
100
AcDbEntity
  8
$DDT_AUDIT_GENERATED_(11B)
  6
Continuous
 62
     7
100
AcDbLine
 10
28.6055738305
 20
478.591980724
 30
0.0
 11
26.1429301212
 21
478.591980724
 31
0.0
  0
LINE
  5
1B0
330
75
100
AcDbEntity
  8
$DDT_AUDIT_GENERATED_(11B)
  6
Continuous
 62
     7
100
AcDbLine
 10
28.6
 20
478.4608684163
 30
0.0
 11
26.1097625166
 21
478.4608684163
 31
0.0
  0
LINE
  5
1B1
330
75
100
AcDbEntity
  8
$DDT_AUDIT_GENERATED_(11B)
  6
Continuous
 62
     7
100
AcDbLine
 10
29.0607572184
 20
479.8806591752
 30
0.0
 11
29.0607572184
 21
479.0972379339
 31
0.0
  0
ELLIPSE
  5
1B2
330
75
100
AcDbEntity
  8
$DDT_AUDIT_GENERATED_(11B)
  6
Continuous
 62
     7
100
AcDbEllipse
 10
31.35
 20
478.5264245702
 30
0.0
 11
-2.750000000020527
 21
4.843347944927245E-12
 31
0.0
210
0.0
220
0.0
230
1.0
 40
0.3746065934
 41
-0.5872781678525358
 42
-0.4599193833390371
  0
LINE
  5
1B3
330
75
100
AcDbEntity
  8
$DDT_AUDIT_GENERATED_(11B)
  6
Continuous
 62
     7
100
AcDbLine
 10
29.0607572184
 20
479.0972379339
 30
0.0
 11
27.1353748649
 21
479.5136581228
 31
0.0
  0
LINE
  5
1B4
330
75
100
AcDbEntity
  8
$DDT_AUDIT_GENERATED_(11B)
  6
Continuous
 62
     7
100
AcDbLine
 10
28.8857572184
 20
478.9836913447
 30
0.0
 11
26.93552707
 21
479.4054855952
 31
0.0
  0
LINE
  5
1B5
330
75
100
AcDbEntity
  8
$DDT_AUDIT_GENERATED_(11B)
  6
Continuous
 62
     7
100
AcDbLine
 10
30.1293413609
 20
480.2537751564
 30
0.0
 11
30.1293413609
 21
479.4495461639
 31
0.0
  0
ELLIPSE
  5
1B6
330
75
100
AcDbEntity
  8
$DDT_AUDIT_GENERATED_(11B)
  6
Continuous
 62
     7
100
AcDbEllipse
 10
31.35
 20
478.5264245702
 30
0.0
 11
-2.749999999994765
 21
-1.054711873393899E-12
 31
0.0
210
0.0
220
0.0
230
1.0
 40
0.3746065934
 41
-1.110876943454453
 42
-0.9835181589402184
  0
LINE
  5
1B7
330
75
100
AcDbEntity
  8
$DDT_AUDIT_GENERATED_(11B)
  6
Continuous
 62
     7
100
AcDbLine
 10
30.1293413609
 20
479.4495461639
 30
0.0
 11
29.0994177107
 21
480.1177994076
 31
0.0
  0
LINE
  5
1B8
330
75
100
AcDbEntity
  8
$DDT_AUDIT_GENERATED_(11B)
  6
Continuous
 62
     7
100
AcDbLine
 10
29.8262324696
 20
479.3839900101
 30
0.0
 11
28.788044733
 21
480.0576053041
 31
0.0
  0
ARC
  5
1B9
330
75
100
AcDbEntity
  8
$DDT_AUDIT_GENERATED_(11B)
  6
Continuous
 62
     7
100
AcDbCircle
 10
31.35
 20
472.2283491688
 30
0.0
 40
7.328245355509062
100
AcDbArc
 50
88.6316349744
 51
91.3683650256
  0
LINE
  5
1BA
330
75
100
AcDbEntity
  8
$DDT_AUDIT_GENERATED_(11B)
  6
Continuous
 62
     7
100
AcDbLine
 10
31.525
 20
479.5545047084
 30
0.0
 11
31.525
 21
480.3065795085
 31
0.0
  0
LINE
  5
1BB
330
75
100
AcDbEntity
  8
$DDT_AUDIT_GENERATED_(11B)
  6
Continuous
 62
     7
100
AcDbLine
 10
31.175
 20
479.5545047084
 30
0.0
 11
31.175
 21
480.3065795085
 31
0.0
  0
ELLIPSE
  5
1BC
330
75
100
AcDbEntity
  8
$DDT_AUDIT_GENERATED_(11B)
  6
Continuous
 62
     7
100
AcDbEllipse
 10
31.3500000001
 20
478.5264245703
 30
0.0
 11
2.749999999846055
 21
-4.631017791467685E-11
 31
0.0
210
0.0
220
0.0
230
1.0
 40
0.3746065934
 41
0.9835181589626323
 42
1.110876943482371
  0
LINE
  5
1BD
330
75
100
AcDbEntity
  8
$DDT_AUDIT_GENERATED_(11B)
  6
Continuous
 62
     7
100
AcDbLine
 10
32.5706586391
 20
480.2537751564
 30
0.0
 11
32.5706586391
 21
479.4495461639
 31
0.0
  0
LINE
  5
1BE
330
75
100
AcDbEntity
  8
$DDT_AUDIT_GENERATED_(11B)
  6
Continuous
 62
     7
100
AcDbLine
 10
32.8737675304
 20
479.3839900101
 30
0.0
 11
33.911955267
 21
480.0576053041
 31
0.0
  0
LINE
  5
1BF
330
75
100
AcDbEntity
  8
$DDT_AUDIT_GENERATED_(11B)
  6
Continuous
 62
     7
100
AcDbLine
 10
32.5706586391
 20
479.4495461639
 30
0.0
 11
33.6005822893
 21
480.1177994076
 31
0.0
  0
ELLIPSE
  5
1C0
330
75
100
AcDbEntity
  8
$DDT_AUDIT_GENERATED_(11B)
  6
Continuous
 62
     7
100
AcDbEllipse
 10
31.35
 20
478.5264245702
 30
0.0
 11
2.749999999992722
 21
-2.969846590872294E-12
 31
0.0
210
0.0
220
0.0
230
1.0
 40
0.3746065934
 41
0.4599193833422541
 42
0.5872781678564768
  0
LINE
  5
1C1
330
75
100
AcDbEntity
  8
$DDT_AUDIT_GENERATED_(11B)
  6
Continuous
 62
     7
100
AcDbLine
 10
33.6392427816
 20
479.8806591752
 30
0.0
 11
33.6392427816
 21
479.0972379339
 31
0.0
  0
LINE
  5
1C2
330
75
100
AcDbEntity
  8
$DDT_AUDIT_GENERATED_(11B)
  6
Continuous
 62
     7
100
AcDbLine
 10
33.8142427816
 20
478.9836913447
 30
0.0
 11
35.76447293
 21
479.4054855952
 31
0.0
  0
LINE
  5
1C3
330
75
100
AcDbEntity
  8
$DDT_AUDIT_GENERATED_(11B)
  6
Continuous
 62
     7
100
AcDbLine
 10
33.6392427816
 20
479.0972379339
 30
0.0
 11
35.5646251351
 21
479.5136581228
 31
0.0
  0
ELLIPSE
  5
1C4
330
75
100
AcDbEntity
  8
$DDT_AUDIT_GENERATED_(11B)
  6
Continuous
 62
     7
100
AcDbEllipse
 10
31.3499999999
 20
478.5264245702
 30
0.0
 11
-2.75000000009774
 21
1.998401444325282E-12
 31
0.0
210
0.0
220
0.0
230
1.0
 40
0.3746065934
 41
3.141592653590133
 42
3.205272045845979
  0
LINE
  5
1C5
330
75
100
AcDbEntity
  8
$DDT_AUDIT_GENERATED_(11B)
  6
Continuous
 62
     7
100
AcDbLine
 10
34.0944261695
 20
479.0442891886
 30
0.0
 11
34.0944261695
 21
478.591980724
 31
0.0
  0
LINE
  5
1C6
330
75
100
AcDbEntity
  8
$DDT_AUDIT_GENERATED_(11B)
  6
Continuous
 62
     7
100
AcDbLine
 10
34.1
 20
478.4608684163
 30
0.0
 11
36.5902374834
 21
478.4608684163
 31
0.0
  0
LINE
  5
1C7
330
75
100
AcDbEntity
  8
$DDT_AUDIT_GENERATED_(11B)
  6
Continuous
 62
     7
100
AcDbLine
 10
34.0944261695
 20
478.591980724
 30
0.0
 11
36.5570698788
 21
478.591980724
 31
0.0
  0
ELLIPSE
  5
1C8
330
75
100
AcDbEntity
  8
$DDT_AUDIT_GENERATED_(11B)
  6
Continuous
 62
     7
100
AcDbEllipse
 10
31.3500000031
 20
478.5264245695
 30
0.0
 11
5.249999996846369
 21
6.878109193309000E-10
 31
0.0
210
0.0
220
0.0
230
1.0
 40
0.3746065935
 41
-0.5569382850688003
 42
-0.4902592665233181
  0
LINE
  5
1C9
330
75
100
AcDbEntity
  8
$DDT_AUDIT_GENERATED_(11B)
  6
Continuous
 62
     7
100
AcDbLine
 10
33.8482625518
 20
477.9104045741
 30
0.0
 11
35.8066067604
 21
477.486855421
 31
0.0
  0
LINE
  5
1CA
330
75
100
AcDbEntity
  8
$DDT_AUDIT_GENERATED_(11B)
  6
Continuous
 62
     7
100
AcDbLine
 10
33.9753239842
 20
478.0343192792
 30
0.0
 11
35.9816067604
 21
477.6004020102
 31
0.0
  0
LINE
  5
1CB
330
75
100
AcDbEntity
  8
$DDT_AUDIT_GENERATED_(11B)
  6
Continuous
 62
     7
100
AcDbLine
 10
35.9816067604
 20
478.4608684163
 30
0.0
 11
35.9816067604
 21
477.6004020102
 31
0.0
  0
ELLIPSE
  5
1CC
330
75
100
AcDbEntity
  8
$DDT_AUDIT_GENERATED_(11B)
  6
Continuous
 62
     7
100
AcDbEllipse
 10
31.3500000011
 20
478.5264245695
 30
0.0
 11
5.249999998645085
 21
4.094086181183343E-10
 31
0.0
210
0.0
220
0.0
230
1.0
 40
0.3746065934
 41
-1.080537060583234
 42
-1.013858042046852
  0
LINE
  5
1CD
330
75
100
AcDbEntity
  8
$DDT_AUDIT_GENERATED_(11B)
  6
Continuous
 62
     7
100
AcDbLine
 10
32.787316325
 20
477.4627273121
 30
0.0
 11
33.8219868157
 21
476.7913941396
 31
0.0
  0
LINE
  5
1CE
330
75
100
AcDbEntity
  8
$DDT_AUDIT_GENERATED_(11B)
  6
Continuous
 62
     7
100
AcDbLine
 10
33.0745778305
 20
477.5385658465
 30
0.0
 11
34.125095707
 21
476.8569502935
 31
0.0
  0
LINE
  5
1CF
330
75
100
AcDbEntity
  8
$DDT_AUDIT_GENERATED_(11B)
  6
Continuous
 62
     7
100
AcDbLine
 10
34.125095707
 20
477.8505313159
 30
0.0
 11
34.125095707
 21
476.8569502935
 31
0.0
  0
LINE
  5
1D0
330
75
100
AcDbEntity
  8
$DDT_AUDIT_GENERATED_(11B)
  6
Continuous
 62
     7
100
AcDbLine
 10
22.35
 20
480.3618383189
 30
0.0
 11
22.35
 21
478.3409877993
 31
0.0
  0
LINE
  5
1D1
330
75
100
AcDbEntity
  8
$DDT_AUDIT_GENERATED_(11B)
  6
Continuous
 62
     7
100
AcDbLine
 10
40.35
 20
478.3409877993
 30
0.0
 11
40.35
 21
480.3618383189
 31
0.0
  0
LINE
  5
1D2
330
75
100
AcDbEntity
  8
$DDT_AUDIT_GENERATED_(11B)
  6
Continuous
 62
     7
100
AcDbLine
 10
25.1
 20
478.5264245702
 30
0.0
 11
25.1
 21
478.3409877993
 31
0.0
  0
LINE
  5
1D3
330
75
100
AcDbEntity
  8
$DDT_AUDIT_GENERATED_(11B)
  6
Continuous
 62
     7
100
AcDbLine
 10
37.6
 20
478.3409877993
 30
0.0
 11
37.6
 21
478.5264245702
 31
0.0
  0
LINE
  5
1D4
330
75
100
AcDbEntity
  8
$DDT_AUDIT_GENERATED_(11B)
  6
Continuous
 62
     7
100
AcDbLine
 10
28.6
 20
478.5264245702
 30
0.0
 11
28.6
 21
478.3409877993
 31
0.0
  0
LINE
  5
1D5
330
75
100
AcDbEntity
  8
$DDT_AUDIT_GENERATED_(11B)
  6
Continuous
 62
     7
100
AcDbLine
 10
34.1
 20
478.3409877993
 30
0.0
 11
34.1
 21
478.5264245702
 31
0.0
  0
LINE
  5
1D6
330
75
100
AcDbEntity
  8
$DDT_AUDIT_GENERATED_(11B)
  6
Continuous
 62
     7
100
AcDbLine
 10
30.8303700561
 20
478.7599608627
 30
0.0
 11
30.8303700561
 21
478.5264245702
 31
0.0
  0
LINE
  5
1D7
330
75
100
AcDbEntity
  8
$DDT_AUDIT_GENERATED_(11B)
  6
Continuous
 62
     7
100
AcDbLine
 10
31.8696299439
 20
478.5264245702
 30
0.0
 11
31.8696299439
 21
478.7599608627
 31
0.0
  0
LINE
  5
1D9
330
75
100
AcDbEntity
  8
$DDT_AUDIT_GENERATED_(1D8)
  6
Continuous
 62
     7
100
AcDbLine
 10
50.4508865998
 20
497.666929267
 30
0.0
 11
12.2405020966
 21
497.666929267
 31
0.0
  0
LINE
  5
1DA
330
75
100
AcDbEntity
  8
$DDT_AUDIT_GENERATED_(1D8)
  6
Continuous
 62
     7
100
AcDbLine
 10
12.2491134002
 20
495.666929267
 30
0.0
 11
15.6107553968
 21
495.666929267
 31
0.0
  0
LINE
  5
1DB
330
75
100
AcDbEntity
  8
$DDT_AUDIT_GENERATED_(1D8)
  6
Continuous
 62
     7
100
AcDbLine
 10
47.0892446032
 20
495.666929267
 30
0.0
 11
50.4594979034
 21
495.666929267
 31
0.0
  0
ELLIPSE
  5
1DD
330
75
100
AcDbEntity
  8
$DDT_AUDIT_GENERATED_(1DC)
  6
Continuous
 62
     7
100
AcDbEllipse
 10
31.35
 20
517.540991
 30
0.0
 11
2.051721970406496E-13
 21
-3.722108479915637
 31
0.0
210
0.0
220
0.0
230
1.0
 40
0.9000275027
 41
1.570796326795152
 42
4.712388980384915
  0
ENDBLK
  5
1DF
330
75
100
AcDbEntity
  8
0
100
AcDbBlockEnd
  0
BLOCK
  5
230
330
1E0
100
AcDbEntity
  8
0
100
AcDbBlockBegin
  2
SE1
 70
     0
 10
0.0
 20
0.0
 30
0.0
  3
SE1
  1

  0
LINE
  5
1E2
330
1E0
100
AcDbEntity
  8
$DDT_AUDIT_GENERATED_(77)
  6
Continuous
 62
     7
100
AcDbLine
 10
155.444416444
 20
500.2758043163
 30
0.0
 11
261.2879024997
 21
500.275804317
 31
0.0
  0
SPLINE
  5
1E3
330
1E0
100
AcDbEntity
  8
$DDT_AUDIT_GENERATED_(77)
  6
Continuous
 62
     7
100
AcDbSpline
210
0.0
220
0.0
230
1.0
 70
     8
 71
     3
 72
    12
 73
     8
 74
     0
 42
0.0000000004081629
 43
0.0000000001
 40
0.0
 40
0.0
 40
0.0
 40
0.0
 40
0.5
 40
0.5
 40
0.75
 40
0.75
 40
1.0
 40
1.0
 40
1.0
 40
1.0
 10
122.5012322367244
 20
500.2758043170331
 30
0.0
 10
122.5012322367244
 20
500.2758043170331
 30
0.0
 10
125.1682402566812
 20
500.2758043170331
 30
0.0
 10
131.9443171961288
 20
500.2758043170331
 30
0.0
 10
134.6611506622514
 20
500.2758043170331
 30
0.0
 10
140.5924191454073
 20
500.2758043170331
 30
0.0
 10
143.7663977884808
 20
500.2758043170331
 30
0.0
 10
147.0012555404849
 20
500.2751505368452
 30
0.0
  0
LINE
  5
1E4
330
1E0
100
AcDbEntity
  8
$DDT_AUDIT_GENERATED_(77)
  6
Continuous
 62
     7
100
AcDbLine
 10
147.0012553142
 20
500.275804317
 30
0.0
 11
148.0047830378
 21
500.275804317
 31
0.0
  0
SPLINE
  5
1E5
330
1E0
100
AcDbEntity
  8
$DDT_AUDIT_GENERATED_(77)
  6
Continuous
 62
     7
100
AcDbSpline
210
0.0
220
0.0
230
1.0
 70
     8
 71
     2
 72
    10
 73
     7
 74
     0
 42
0.0000000013441537
 43
0.0000000001
 40
0.0
 40
0.0
 40
0.0
 40
0.25
 40
0.25
 40
0.5
 40
0.5
 40
1.0
 40
1.0
 40
1.0
 10
148.0047911720386
 20
500.2759121247913
 30
0.0
 10
148.9797081614821
 20
500.2758043170331
 30
0.0
 10
149.9032835688127
 20
500.2758043170331
 30
0.0
 10
150.8078064816852
 20
500.2758043170331
 30
0.0
 10
151.7842473389298
 20
500.2758043170331
 30
0.0
 10
153.6203449176163
 20
500.2758043170331
 30
0.0
 10
155.4444164439684
 20
500.2758043163213
 30
0.0
  0
ARC
  5
1E6
330
1E0
100
AcDbEntity
  8
$DDT_AUDIT_GENERATED_(77)
  6
Continuous
 62
     7
100
AcDbCircle
 10
122.5012322367
 20
499.775804317
 30
0.0
 40
0.5000000000000004
100
AcDbArc
 50
90.0
 51
180.0000000005
  0
LINE
  5
1E7
330
1E0
100
AcDbEntity
  8
$DDT_AUDIT_GENERATED_(77)
  6
Continuous
 62
     7
100
AcDbLine
 10
122.0012322367
 20
499.775804317
 30
0.0
 11
122.0012322367
 21
380.2758043157
 31
0.0
  0
LINE
  5
1E8
330
1E0
100
AcDbEntity
  8
$DDT_AUDIT_GENERATED_(77)
  6
Continuous
 62
     7
100
AcDbLine
 10
122.0012322367
 20
380.2758043157
 30
0.0
 11
147.0012322367
 21
380.2758043157
 31
0.0
  0
LINE
  5
1E9
330
1E0
100
AcDbEntity
  8
$DDT_AUDIT_GENERATED_(77)
  6
Continuous
 62
     7
100
AcDbLine
 10
148.001463291
 20
380.2758043157
 30
0.0
 11
171.9979848182
 21
380.2758043157
 31
0.0
  0
LINE
  5
1EA
330
1E0
100
AcDbEntity
  8
$DDT_AUDIT_GENERATED_(77)
  6
Continuous
 62
     7
100
AcDbLine
 10
148.0014632996
 20
380.2758043157
 30
0.0
 11
147.0012321136
 21
380.2758043157
 31
0.0
  0
LINE
  5
1EB
330
1E0
100
AcDbEntity
  8
$DDT_AUDIT_GENERATED_(77)
  6
Continuous
 62
     7
100
AcDbLine
 10
155.6168365389
 20
499.7758043177
 30
0.0
 11
155.6168356599
 21
490.2805021064
 31
0.0
  0
ARC
  5
1EC
330
1E0
100
AcDbEntity
  8
$DDT_AUDIT_GENERATED_(77)
  6
Continuous
 62
     7
100
AcDbCircle
 10
159.1071554486
 20
-6535.3417119515
 30
0.0
 40
7025.623081051003
100
AcDbArc
 50
89.9572401648
 51
90.0284644649
  0
ARC
  5
1ED
330
1E0
100
AcDbEntity
  8
$DDT_AUDIT_GENERATED_(77)
  6
Continuous
 62
     7
100
AcDbCircle
 10
230.4783163226
 20
-10332.8517228721
 30
0.0
 40
10823.33315018167
100
AcDbArc
 50
89.8369022171
 51
90.3500654891
  0
ARC
  5
1EE
330
1E0
100
AcDbEntity
  8
$DDT_AUDIT_GENERATED_(77)
  6
Continuous
 62
     7
100
AcDbCircle
 10
-554.5652556186
 20
136.6021370807
 30
0.0
 40
793.3769524381379
100
AcDbArc
 50
23.6824513704
 51
26.4738013154
  0
ARC
  5
1EF
330
1E0
100
AcDbEntity
  8
$DDT_AUDIT_GENERATED_(77)
  6
Continuous
 62
     7
100
AcDbCircle
 10
228.1140136891
 20
43294.2796157429
 30
0.0
 40
42804.1460855942
100
AcDbArc
 50
269.9146489029
 51
270.0444051379
  0
SPLINE
  5
1F0
330
1E0
100
AcDbEntity
  8
$DDT_AUDIT_GENERATED_(77)
  6
Continuous
 62
     7
100
AcDbSpline
210
0.0
220
0.0
230
1.0
 70
     8
 71
     6
 72
    20
 73
    13
 74
     0
 42
0.0000000000980799
 43
0.0000000001
 40
0.0
 40
0.0
 40
0.0
 40
0.0
 40
0.0
 40
0.0
 40
0.0
 40
0.9556082858346714
 40
0.9556082858346714
 40
0.9556082858346714
 40
0.9556082858346714
 40
0.9556082858346714
 40
0.9556082858346714
 40
1.0
 40
1.0
 40
1.0
 40
1.0
 40
1.0
 40
1.0
 40
1.0
 10
171.9979800045594
 20
455.2757213339521
 30
0.0
 10
171.9979838311455
 20
462.7086407972031
 30
0.0
 10
171.9980350420458
 20
469.5973861274717
 30
0.0
 10
177.3011635248863
 20
476.2871333457861
 30
0.0
 10
184.8493514409473
 20
480.2756718568227
 30
0.0
 10
190.6157912368265
 20
480.2756994575731
 30
0.0
 10
241.2879024996745
 20
480.2764108782151
 30
0.0
 10
243.6418187566576
 20
480.2764439264653
 30
0.0
 10
245.9957350136408
 20
480.2764769747156
 30
0.0
 10
248.349651270624
 20
480.2765100229659
 30
0.0
 10
250.7035675276072
 20
480.2765430712162
 30
0.0
 10
253.0574837845904
 20
480.2765761194664
 30
0.0
 10
255.4114000419316
 20
480.2766091677167
 30
0.0
  0
ARC
  5
1F1
330
1E0
100
AcDbEntity
  8
$DDT_AUDIT_GENERATED_(77)
  6
Continuous
 62
     7
100
AcDbCircle
 10
268.5563285325
 20
497.0659116375
 30
0.0
 40
13.63218159901449
100
AcDbArc
 50
318.2195078359
 51
329.5764438278
  0
ARC
  5
1F2
330
1E0
100
AcDbEntity
  8
$DDT_AUDIT_GENERATED_(77)
  6
Continuous
 62
     7
100
AcDbCircle
 10
269.1923617942
 20
2360.4366594759
 30
0.0
 40
1870.306977523969
100
AcDbArc
 50
269.7578507108
 51
270.3406284056
  0
ARC
  5
1F3
330
1E0
100
AcDbEntity
  8
$DDT_AUDIT_GENERATED_(77)
  6
Continuous
 62
     7
100
AcDbCircle
 10
269.557874817
 20
-499.4187236245
 30
0.0
 40
989.8908457725903
100
AcDbArc
 50
89.3736762764
 51
90.4786790631
  0
ARC
  5
1F4
330
1E0
100
AcDbEntity
  8
$DDT_AUDIT_GENERATED_(77)
  6
Continuous
 62
     7
100
AcDbCircle
 10
279.8785631488
 20
490.4129788625
 30
0.0
 40
0.500000000011879
100
AcDbArc
 50
329.9675917645
 51
0.0
  0
LINE
  5
1F5
330
1E0
100
AcDbEntity
  8
$DDT_AUDIT_GENERATED_(77)
  6
Continuous
 62
     7
100
AcDbLine
 10
261.2879024997
 20
500.275804317
 30
0.0
 11
279.8785628387
 21
500.275804317
 31
0.0
  0
ARC
  5
1F6
330
1E0
100
AcDbEntity
  8
$DDT_AUDIT_GENERATED_(77)
  6
Continuous
 62
     7
100
AcDbCircle
 10
268.3473120642
 20
459.5010685179
 30
0.0
 40
24.47367788339035
100
AcDbArc
 50
106.7651473806
 51
121.9085004997
  0
ARC
  5
1F7
330
1E0
100
AcDbEntity
  8
$DDT_AUDIT_GENERATED_(77)
  6
Continuous
 62
     7
100
AcDbCircle
 10
314.0680240703
 20
333.2980554548
 30
0.0
 40
158.6720091333048
100
AcDbArc
 50
102.8713268836
 51
109.4288894775
  0
LINE
  5
1F8
330
1E0
100
AcDbEntity
  8
$DDT_AUDIT_GENERATED_(77)
  6
Continuous
 62
     7
100
AcDbLine
 10
171.9979851068
 20
380.2758043157
 30
0.0
 11
171.9979851066
 21
455.275721334
 31
0.0
  0
LINE
  5
1F9
330
1E0
100
AcDbEntity
  8
$DDT_AUDIT_GENERATED_(77)
  6
Continuous
 62
     7
100
AcDbLine
 10
280.3785631488
 20
490.4129788641
 30
0.0
 11
280.3785631488
 21
499.7758043171
 31
0.0
  0
ARC
  5
1FA
330
1E0
100
AcDbEntity
  8
$DDT_AUDIT_GENERATED_(77)
  6
Continuous
 62
     7
100
AcDbCircle
 10
279.8775178011
 20
499.7753174477
 30
0.0
 40
0.5010453556945619
100
AcDbArc
 50
0.0099337263
 51
92.7054887703
  0
ARC
  5
1FB
330
1E0
100
AcDbEntity
  8
$DDT_AUDIT_GENERATED_(C6)
  6
Continuous
 62
     7
100
AcDbCircle
 10
147.0012322367
 20
493.875804317
 30
0.0
 40
24.5
100
AcDbArc
 50
129.2113665442
 51
164.8572685595
  0
ARC
  5
1FC
330
1E0
100
AcDbEntity
  8
$DDT_AUDIT_GENERATED_(C6)
  6
Continuous
 62
     7
100
AcDbCircle
 10
147.0012322367
 20
493.875804317
 30
0.0
 40
24.5
100
AcDbArc
 50
15.1427314405
 51
22.4698804703
  0
LINE
  5
1FD
330
1E0
100
AcDbEntity
  8
$DDT_AUDIT_GENERATED_(CD)
  6
Continuous
 62
     7
100
AcDbLine
 10
166.705517765
 20
528.6072990554
 30
0.0
 11
146.4937545772
 21
534.4722817351
 31
0.0
  0
SPLINE
  5
1FE
330
1E0
100
AcDbEntity
  8
$DDT_AUDIT_GENERATED_(CD)
  6
Continuous
 62
     7
100
AcDbSpline
210
0.0
220
0.0
230
1.0
 70
     8
 71
     5
 72
    12
 73
     6
 74
     0
 42
0.0000000008023714
 43
0.0000000001
 40
0.0
 40
0.0
 40
0.0
 40
0.0
 40
0.0
 40
0.0
 40
1.0
 40
1.0
 40
1.0
 40
1.0
 40
1.0
 40
1.0
 10
166.7054997134255
 20
528.6073042832784
 30
0.0
 10
166.1170410258241
 20
531.2035146749876
 30
0.0
 10
165.5779556865065
 20
533.5818802950978
 30
0.0
 10
167.3872144647449
 20
536.088341570451
 30
0.0
 10
169.7521234842178
 20
536.4421491605962
 30
0.0
 10
171.6112611361376
 20
536.7202773238664
 30
0.0
  0
SPLINE
  5
1FF
330
1E0
100
AcDbEntity
  8
$DDT_AUDIT_GENERATED_(CD)
  6
Continuous
 62
     7
100
AcDbSpline
210
0.0
220
0.0
230
1.0
 70
     8
 71
     3
 72
    20
 73
    16
 74
     0
 42
0.0000000002821952
 43
0.0000000001
 40
0.5001941332085704
 40
0.5001941332085704
 40
0.5001941332085704
 40
0.5001941332085704
 40
0.5624999999999997
 40
0.5624999999999997
 40
0.6249999999999998
 40
0.6249999999999998
 40
0.6874999999999998
 40
0.6874999999999998
 40
0.7499999999999999
 40
0.7499999999999999
 40
0.8124999999999999
 40
0.8124999999999999
 40
0.875
 40
0.875
 40
1.0
 40
1.0
 40
1.0
 40
1.0
 10
128.8247406031875
 20
535.3756543370537
 30
0.0
 10
128.8246586789323
 20
535.3756414354815
 30
0.0
 10
128.9383672013753
 20
535.3938177902007
 30
0.0
 10
129.3850700600557
 20
535.4648688283856
 30
0.0
 10
129.7161257254688
 20
535.5174281234373
 30
0.0
 10
130.5937035929569
 20
535.6556951060195
 30
0.0
 10
131.1424294250982
 20
535.741728225876
 30
0.0
 10
132.4104615105038
 20
535.938644534538
 30
0.0
 10
133.134134871575
 20
536.0502318697553
 30
0.0
 10
134.7676372549843
 20
536.2991458830817
 30
0.0
 10
135.6531411577377
 20
536.4327323386059
 30
0.0
 10
137.5484234425066
 20
536.714851820606
 30
0.0
 10
138.5709657666314
 20
536.8651767500243
 30
0.0
 10
141.7526806447252
 20
537.3275767149884
 30
0.0
 10
144.0281316406183
 20
537.6476139666238
 30
0.0
 10
146.3411780971436
 20
537.9933514393047
 30
0.0
  0
SPLINE
  5
200
330
1E0
100
AcDbEntity
  8
$DDT_AUDIT_GENERATED_(CD)
  6
Continuous
 62
     7
100
AcDbSpline
210
0.0
220
0.0
230
1.0
 70
     8
 71
     3
 72
    20
 73
    16
 74
     0
 42
0.0000000002843952
 43
0.0000000001
 40
0.0
 40
0.0
 40
0.0
 40
0.0
 40
0.0625
 40
0.0625
 40
0.1249999999999999
 40
0.1249999999999999
 40
0.1874999999999999
 40
0.1874999999999999
 40
0.2499999999999998
 40
0.2499999999999998
 40
0.3749999999999998
 40
0.3749999999999998
 40
0.4999999999999997
 40
0.4999999999999997
 40
0.5012038415556115
 40
0.5012038415556115
 40
0.5012038415556115
 40
0.5012038415556115
 10
216.2208441960826
 20
548.4376354397418
 30
0.0
 10
217.3736690750147
 20
548.610157315995
 30
0.0
 10
218.5056703656359
 20
548.7854854293844
 30
0.0
 10
220.7318244844958
 20
549.1310636543423
 30
0.0
 10
221.8373372204233
 20
549.3031832041133
 30
0.0
 10
223.9463380081733
 20
549.6282032309737
 30
0.0
 10
224.9467254438918
 20
549.7807536836187
 30
0.0
 10
226.8402128672821
 20
550.0659578852371
 30
0.0
 10
227.7371022007105
 20
550.1991986078949
 30
0.0
 10
230.1491508171074
 20
550.5537868385879
 30
0.0
 10
231.4486260725165
 20
550.7395410590774
 30
0.0
 10
233.1891477338618
 20
550.9862626085707
 30
0.0
 10
233.6478314700848
 20
551.0499602883834
 30
0.0
 10
233.6493161927609
 20
551.0501677382105
 30
0.0
 10
233.6492881628253
 20
551.050163832265
 30
0.0
 10
233.6492179703952
 20
551.0501540444792
 30
0.0
  0
ARC
  5
201
330
1E0
100
AcDbEntity
  8
$DDT_AUDIT_GENERATED_(CD)
  6
Continuous
 62
     7
100
AcDbCircle
 10
152.8404057244
 20
507.7837132264
 30
0.0
 40
4.999999999998455
100
AcDbArc
 50
243.5
 51
271.5
  0
LINE
  5
202
330
1E0
100
AcDbEntity
  8
$DDT_AUDIT_GENERATED_(CD)
  6
Continuous
 62
     7
100
AcDbLine
 10
125.2229316738
 20
515.9662759251
 30
0.0
 11
147.2294647674
 21
504.9942232676
 31
0.0
  0
LINE
  5
203
330
1E0
100
AcDbEntity
  8
$DDT_AUDIT_GENERATED_(CD)
  6
Continuous
 62
     7
100
AcDbLine
 10
150.6094166589
 20
503.3090414183
 30
0.0
 11
147.2294644363
 21
504.9942234326
 31
0.0
  0
LINE
  5
204
330
1E0
100
AcDbEntity
  8
$DDT_AUDIT_GENERATED_(CD)
  6
Continuous
 62
     7
100
AcDbLine
 10
172.0772666092
 20
503.2857341943
 30
0.0
 11
152.971290466
 21
502.7854266015
 31
0.0
  0
SPLINE
  5
205
330
1E0
100
AcDbEntity
  8
$DDT_AUDIT_GENERATED_(CD)
  6
Continuous
 62
     7
100
AcDbSpline
210
0.0
220
0.0
230
1.0
 70
     8
 71
     3
 72
    14
 73
    10
 74
     0
 42
0.0000000001938796
 43
0.0000000001
 40
0.0
 40
0.0
 40
0.0
 40
0.0
 40
0.1871569554932976
 40
0.1871569554932976
 40
0.1871569554932976
 40
0.5935784716692758
 40
0.5935784716692758
 40
0.5935784716692758
 40
1.0
 40
1.0
 40
1.0
 40
1.0
 10
165.1296887558001
 20
537.7674388945512
 30
0.0
 10
168.3122032616863
 20
538.2423276166246
 30
0.0
 10
171.4947107719642
 20
538.7172682855125
 30
0.0
 10
174.6772133418074
 20
539.1922450334741
 30
0.0
 10
181.5881908502199
 20
540.2236828878488
 30
0.0
 10
188.4991457556609
 20
541.2552869480096
 30
0.0
 10
195.4100932993059
 20
542.286943424003
 30
0.0
 10
202.3210410937435
 20
543.3185999374342
 30
0.0
 10
209.2319815271369
 20
544.3503097338473
 30
0.0
 10
216.1429224858839
 20
545.3820136094005
 30
0.0
  0
ARC
  5
206
330
1E0
100
AcDbEntity
  8
$DDT_AUDIT_GENERATED_(CD)
  6
Continuous
 62
     7
100
AcDbCircle
 10
243.8405921014
 20
38.2679655985
 30
0.0
 40
505.6630598813159
100
AcDbArc
 50
98.9550062792
 51
101.0994908817
  0
LINE
  5
207
330
1E0
100
AcDbEntity
  8
$DDT_AUDIT_GENERATED_(CD)
  6
Continuous
 62
     7
100
AcDbLine
 10
165.2154725193
 20
537.189238953
 30
0.0
 11
171.6112611361
 21
536.7202773239
 31
0.0
  0
ARC
  5
208
330
1E0
100
AcDbEntity
  8
$DDT_AUDIT_GENERATED_(CD)
  6
Continuous
 62
     7
100
AcDbCircle
 10
109.8146705281
 20
853.0778710447
 30
0.0
 40
320.7099573539971
100
AcDbArc
 50
276.5671965647
 51
279.9474142146
  0
SPLINE
  5
209
330
1E0
100
AcDbEntity
  8
$DDT_AUDIT_GENERATED_(CD)
  6
Continuous
 62
     7
100
AcDbSpline
210
0.0
220
0.0
230
1.0
 70
     8
 71
     3
 72
    14
 73
    10
 74
     0
 42
0.0000000001938791
 43
0.0000000001
 40
0.0
 40
0.0
 40
0.0
 40
0.0
 40
0.3665381068953618
 40
0.3665381068953618
 40
0.3665381068953618
 40
0.6832690432178643
 40
0.6832690432178643
 40
0.6832690432178643
 40
1.0
 40
1.0
 40
1.0
 40
1.0
 10
216.2272144911614
 20
544.8147174614111
 30
0.0
 10
209.9946182287015
 20
543.8830570314528
 30
0.0
 10
203.7620167089634
 20
542.951429788157
 30
0.0
 10
197.5294178934776
 20
542.0197873006964
 30
0.0
 10
192.1437381611232
 20
541.214741410361
 30
0.0
 10
186.7580603930834
 20
540.4096842579489
 30
0.0
 10
181.3723882537154
 20
539.6045962495874
 30
0.0
 10
175.9867158105192
 20
538.7995081958074
 30
0.0
 10
170.6010488885276
 20
537.9943890705074
 30
0.0
 10
165.2154725192638
 20
537.1892389530047
 30
0.0
  0
SPLINE
  5
20A
330
1E0
100
AcDbEntity
  8
$DDT_AUDIT_GENERATED_(CD)
  6
Continuous
 62
     7
100
AcDbSpline
210
0.0
220
0.0
230
1.0
 70
     8
 71
     3
 72
    22
 73
    18
 74
     0
 42
0.0000000002748447
 43
0.0000000001
 40
0.5015227536852683
 40
0.5015227536852683
 40
0.5015227536852683
 40
0.5015227536852683
 40
0.5625000000000002
 40
0.5625000000000002
 40
0.6250000000000001
 40
0.6250000000000001
 40
0.6875000000000001
 40
0.6875000000000001
 40
0.7500000000000001
 40
0.7500000000000001
 40
0.8125000000000001
 40
0.8125000000000001
 40
0.875
 40
0.875
 40
0.9375
 40
0.9375
 40
1.0
 40
1.0
 40
1.0
 40
1.0
 10
234.2458946214178
 20
547.5190901111703
 30
0.0
 10
234.2410871388068
 20
547.51837268393
 30
0.0
 10
234.1250515230867
 20
547.5010499848181
 30
0.0
 10
233.6735578195834
 20
547.4331894182895
 30
0.0
 10
233.3353282838004
 20
547.3822191334577
 30
0.0
 10
232.4386286553238
 20
547.2456221609489
 30
0.0
 10
231.8776773253028
 20
547.1595550099364
 30
0.0
 10
230.5813623503857
 20
546.9584140088693
 30
0.0
 10
229.8415611805839
 20
546.8425927158793
 30
0.0
 10
228.171539560726
 20
546.5798394637385
 30
0.0
 10
227.2649435332448
 20
546.436569239356
 30
0.0
 10
225.3254103503172
 20
546.1338449561375
 30
0.0
 10
224.2788697208596
 20
545.9725190848557
 30
0.0
 10
222.1046551059684
 20
545.6488974899448
 30
0.0
 10
220.9854384722271
 20
545.488491240944
 30
0.0
 10
218.6842728523811
 20
545.1662669060702
 30
0.0
 10
217.4959196462954
 20
545.0043858795592
 30
0.0
 10
216.3104990950114
 20
544.8271673817333
 30
0.0
  0
SPLINE
  5
20B
330
1E0
100
AcDbEntity
  8
$DDT_AUDIT_GENERATED_(CD)
  6
Continuous
 62
     7
100
AcDbSpline
210
0.0
220
0.0
230
1.0
 70
     8
 71
     3
 72
    18
 73
    14
 74
     0
 42
0.0000000002695388
 43
0.0000000001
 40
0.0
 40
0.0
 40
0.0
 40
0.0
 40
0.1250000000000001
 40
0.1250000000000001
 40
0.1875000000000001
 40
0.1875000000000001
 40
0.2500000000000001
 40
0.2500000000000001
 40
0.3750000000000001
 40
0.3750000000000001
 40
0.5000000000000001
 40
0.5000000000000001
 40
0.5002541647417068
 40
0.5002541647417068
 40
0.5002541647417068
 40
0.5002541647417068
 10
216.2261951347194
 20
545.3944464665965
 30
0.0
 10
218.6187941368381
 20
545.7423000167651
 30
0.0
 10
221.0414314655276
 20
546.0508738988641
 30
0.0
 10
224.3777706024687
 20
546.5332668541591
 30
0.0
 10
225.431519858709
 20
546.6910449895628
 30
0.0
 10
227.4251092307461
 20
546.9933919481429
 30
0.0
 10
228.368682311833
 20
547.1383519674413
 30
0.0
 10
230.9065255841666
 20
547.5266865147771
 30
0.0
 10
232.2740493576464
 20
547.7328046558447
 30
0.0
 10
234.1060867453342
 20
548.0045303787209
 30
0.0
 10
234.5891474208694
 20
548.0743541671914
 30
0.0
 10
234.590729468698
 20
548.0745848838055
 30
0.0
 10
234.5907306968793
 20
548.0745850639086
 30
0.0
 10
234.5907299432822
 20
548.0745849559769
 30
0.0
  0
ARC
  5
20C
330
1E0
100
AcDbEntity
  8
$DDT_AUDIT_GENERATED_(CD)
  6
Continuous
 62
     7
100
AcDbCircle
 10
201.6121594603
 20
524.8237365555
 30
0.0
 40
33.47782758015307
100
AcDbArc
 50
185.4740593466
 51
200.0681171175
  0
LINE
  5
20D
330
1E0
100
AcDbEntity
  8
$DDT_AUDIT_GENERATED_(CD)
  6
Continuous
 62
     7
100
AcDbLine
 10
128.4386558393
 20
534.9807224393
 30
0.0
 11
125.0605251477
 21
516.2822982788
 31
0.0
  0
ARC
  5
20E
330
1E0
100
AcDbEntity
  8
$DDT_AUDIT_GENERATED_(CD)
  6
Continuous
 62
     7
100
AcDbCircle
 10
181.8791250157
 20
286.7244882195
 30
0.0
 40
254.2455600187724
100
AcDbArc
 50
98.027406483
 51
102.0264029967
  0
SPLINE
  5
20F
330
1E0
100
AcDbEntity
  8
$DDT_AUDIT_GENERATED_(CD)
  6
Continuous
 62
     7
100
AcDbSpline
210
0.0
220
0.0
230
1.0
 70
     8
 71
     3
 72
     8
 73
     4
 74
     0
 42
0.000000000221657
 43
0.0000000001
 40
0.0
 40
0.0
 40
0.0
 40
0.0
 40
1.0
 40
1.0
 40
1.0
 40
1.0
 10
171.6113042717623
 20
536.7201659348002
 30
0.0
 10
182.6251302146075
 20
538.3679599524525
 30
0.0
 10
197.4979330377229
 20
540.5925416329602
 30
0.0
 10
216.2297127411085
 20
543.3939109763234
 30
0.0
  0
LINE
  5
210
330
1E0
100
AcDbEntity
  8
$DDT_AUDIT_GENERATED_(CD)
  6
Continuous
 62
     7
100
AcDbLine
 10
216.2200040626
 20
548.9154363261
 30
0.0
 11
146.3745536338
 21
538.4788558083
 31
0.0
  0
LINE
  5
211
330
1E0
100
AcDbEntity
  8
$DDT_AUDIT_GENERATED_(CD)
  6
Continuous
 62
     7
100
AcDbLine
 10
234.5906990374
 20
548.0747823143
 30
0.0
 11
234.1858121432
 21
550.6304140129
 31
0.0
  0
ARC
  5
212
330
1E0
100
AcDbEntity
  8
$DDT_AUDIT_GENERATED_(CD)
  6
Continuous
 62
     7
100
AcDbCircle
 10
202.2878246996
 20
645.6471209086
 30
0.0
 40
103.1992992583475
100
AcDbArc
 50
277.764213449
 51
288.0363358755
  0
ARC
  5
213
330
1E0
100
AcDbEntity
  8
$DDT_AUDIT_GENERATED_(CD)
  6
Continuous
 62
     7
100
AcDbCircle
 10
255.5510296163
 20
299.6579713656
 30
0.0
 40
252.3414005474929
100
AcDbArc
 50
95.002898672
 51
98.966928475
  0
ARC
  5
214
330
1E0
100
AcDbEntity
  8
$DDT_AUDIT_GENERATED_(CD)
  6
Continuous
 62
     7
100
AcDbCircle
 10
233.7014683272
 20
550.5718591109
 30
0.0
 40
0.4771556761998797
100
AcDbArc
 50
6.8412834069
 51
82.7272899592
  0
ARC
  5
215
330
1E0
100
AcDbEntity
  8
$DDT_AUDIT_GENERATED_(CD)
  6
Continuous
 62
     7
100
AcDbCircle
 10
128.9297841914
 20
534.8868130132
 30
0.0
 40
0.4999999982557386
100
AcDbArc
 50
99.1993020143
 51
169.3270005495
  0
ARC
  5
216
330
1E0
100
AcDbEntity
  8
$DDT_AUDIT_GENERATED_(CD)
  6
Continuous
 62
     7
100
AcDbCircle
 10
172.0694100934
 20
503.5856313206
 30
0.0
 40
0.2999999532183663
100
AcDbArc
 50
271.4985973268
 51
13.5226641681
  0
ARC
  5
217
330
1E0
100
AcDbEntity
  8
$DDT_AUDIT_GENERATED_(CD)
  6
Continuous
 62
     7
100
AcDbCircle
 10
125.356792938
 20
516.2347552716
 30
0.0
 40
0.2999999959089989
100
AcDbArc
 50
170.458864783
 51
243.5016723194
  0
ARC
  5
218
330
1E0
100
AcDbEntity
  8
$DDT_AUDIT_GENERATED_(CD)
  6
Continuous
 62
     7
100
AcDbCircle
 10
234.0968893714
 20
547.9963459923
 30
0.0
 40
0.4999999958264174
100
AcDbArc
 50
278.5665658666
 51
9.2949210173
  0
LINE
  5
219
330
1E0
100
AcDbEntity
  8
$DDT_AUDIT_GENERATED_(CD)
  6
Continuous
 62
     7
100
AcDbLine
 10
168.2869070338
 20
521.6305403447
 30
0.0
 11
166.7054916574
 21
528.6073699434
 31
0.0
  0
LINE
  5
21A
330
1E0
100
AcDbEntity
  8
$DDT_AUDIT_GENERATED_(CD)
  6
Continuous
 62
     7
100
AcDbLine
 10
172.3610259777
 20
503.6562094872
 30
0.0
 11
170.158719697
 21
513.3724389911
 31
0.0
  0
LINE
  5
21B
330
1E0
100
AcDbEntity
  8
$DDT_AUDIT_GENERATED_(FE)
  6
Continuous
 62
     7
100
AcDbLine
 10
279.204340839
 20
482.6774666975
 30
0.0
 11
259.3444194154
 21
474.6535375993
 31
0.0
  0
ELLIPSE
  5
21C
330
1E0
100
AcDbEntity
  8
$DDT_AUDIT_GENERATED_(FE)
  6
Continuous
 62
     7
100
AcDbEllipse
 10
270.2245394848
 20
476.3137752137
 30
0.0
 11
11.06593930425463
 21
4.470929692418927
 31
0.0
210
0.0
220
0.0
230
0.9999999999999998
 40
0.5773502692
 41
1.166970237634114
 42
1.974622415955683
  0
LINE
  5
21D
330
1E0
100
AcDbEntity
  8
$DDT_AUDIT_GENERATED_(FE)
  6
Continuous
 62
     7
100
AcDbLine
 10
263.5026299186
 20
480.4319957173
 30
0.0
 11
264.6374022181
 21
477.623335717
 31
0.0
  0
LINE
  5
21E
330
1E0
100
AcDbEntity
  8
$DDT_AUDIT_GENERATED_(FE)
  6
Continuous
 62
     7
100
AcDbLine
 10
273.3338925254
 20
481.1369458739
 30
0.0
 11
272.1991202259
 21
483.9456058742
 31
0.0
  0
SPLINE
  5
21F
330
1E0
100
AcDbEntity
  8
$DDT_AUDIT_GENERATED_(FE)
  6
Continuous
 62
     7
100
AcDbSpline
210
0.0
220
0.0
230
1.0
 70
     8
 71
     3
 72
    12
 73
     8
 74
     0
 42
0.0000000398432805
 43
0.0000000001
 40
0.0
 40
0.0
 40
0.0
 40
0.0
 40
0.5
 40
0.5
 40
0.75
 40
0.75
 40
1.0
 40
1.0
 40
1.0
 40
1.0
 10
273.2024089854406
 20
480.9437173025787
 30
0.0
 10
273.236355668283
 20
480.9669123897639
 30
0.0
 10
273.269074572734
 20
480.9931055776553
 30
0.0
 10
273.3094299567217
 20
481.0398938764224
 30
0.0
 10
273.3216882416322
 20
481.0570098013024
 30
0.0
 10
273.338056772918
 20
481.0953317245843
 30
0.0
 10
273.3417457883378
 20
481.1175083661733
 30
0.0
 10
273.3338925254471
 20
481.1369458739104
 30
0.0
  0
SPLINE
  5
220
330
1E0
100
AcDbEntity
  8
$DDT_AUDIT_GENERATED_(FE)
  6
Continuous
 62
     7
100
AcDbSpline
210
0.0
220
0.0
230
1.0
 70
     8
 71
     3
 72
    12
 73
     8
 74
     0
 42
0.0000000398474798
 43
0.0000000001
 40
0.0
 40
0.0
 40
0.0
 40
0.0
 40
0.25
 40
0.25
 40
0.5
 40
0.5
 40
1.0
 40
1.0
 40
1.0
 40
1.0
 10
264.6374022181188
 20
477.6233357170285
 30
0.0
 10
264.6451925220156
 20
477.6040540382695
 30
0.0
 10
264.6631317926625
 20
477.5906521803346
 30
0.0
 10
264.7011676984093
 20
477.5744752238094
 30
0.0
 10
264.7219767575947
 20
477.5705794742722
 30
0.0
 10
264.7838041850085
 20
477.5648582497998
 30
0.0
 10
264.8255742618556
 20
477.5687607456807
 30
0.0
 10
264.8662114060452
 20
477.5756748567489
 30
0.0
  0
SPLINE
  5
221
330
1E0
100
AcDbEntity
  8
$DDT_AUDIT_GENERATED_(FE)
  6
Continuous
 62
     7
100
AcDbSpline
210
0.0
220
0.0
230
1.0
 70
     8
 71
     3
 72
    14
 73
    10
 74
     0
 42
0.0000000011024152
 43
0.0000000001
 40
0.0
 40
0.0
 40
0.0
 40
0.0
 40
0.25
 40
0.25
 40
0.5
 40
0.5
 40
0.75
 40
0.75
 40
1.0
 40
1.0
 40
1.0
 40
1.0
 10
264.8662114060452
 20
477.5756748567489
 30
0.0
 10
265.6113684648446
 20
477.7024578473748
 30
0.0
 10
266.3573251890252
 20
477.863808411004
 30
0.0
 10
267.8126708019667
 20
478.2638863973659
 30
0.0
 10
268.5258147257721
 20
478.5032776872686
 30
0.0
 10
269.9208565422232
 20
479.0666919017211
 30
0.0
 10
270.6027477608604
 20
479.3907329031988
 30
0.0
 10
271.9368428890322
 20
480.1192246543494
 30
0.0
 10
272.5808517245187
 20
480.5190196988528
 30
0.0
 10
273.2024089854406
 20
480.9437173025787
 30
0.0
  0
LINE
  5
222
330
1E0
100
AcDbEntity
  8
$DDT_AUDIT_GENERATED_(FE)
  6
Continuous
 62
     7
100
AcDbLine
 10
272.1991202259
 20
483.9456058742
 30
0.0
 11
263.5026299186
 21
480.4319957173
 31
0.0
  0
LINE
  5
223
330
1E0
100
AcDbEntity
  8
$DDT_AUDIT_GENERATED_(FE)
  6
Continuous
 62
     7
100
AcDbLine
 10
255.6854812048
 20
480.4391166385
 30
0.0
 11
257.9197080675
 21
474.9092111031
 31
0.0
  0
LINE
  5
224
330
1E0
100
AcDbEntity
  8
$DDT_AUDIT_GENERATED_(FE)
  6
Continuous
 62
     7
100
AcDbLine
 10
280.051586676
 20
483.8510704879
 30
0.0
 11
278.4017288463
 21
487.9346119123
 31
0.0
  0
ARC
  5
225
330
1E0
100
AcDbEntity
  8
$DDT_AUDIT_GENERATED_(FE)
  6
Continuous
 62
     7
100
AcDbCircle
 10
258.0587856457
 20
474.9654020921
 30
0.0
 40
0.1500000000000012
100
AcDbArc
 50
202.0
 51
262.0
  0
LINE
  5
226
330
1E0
100
AcDbEntity
  8
$DDT_AUDIT_GENERATED_(FE)
  6
Continuous
 62
     7
100
AcDbLine
 10
258.0379096806
 20
474.8168618818
 30
0.0
 11
259.2673524612
 21
474.6440749671
 31
0.0
  0
LINE
  5
227
330
1E0
100
AcDbEntity
  8
$DDT_AUDIT_GENERATED_(FE)
  6
Continuous
 62
     7
100
AcDbLine
 10
279.2663514631
 20
482.7241950543
 30
0.0
 11
280.0307107109
 21
483.7025302776
 31
0.0
  0
ARC
  5
228
330
1E0
100
AcDbEntity
  8
$DDT_AUDIT_GENERATED_(FE)
  6
Continuous
 62
     7
100
AcDbCircle
 10
259.2882284264
 20
474.7926151775
 30
0.0
 40
0.1499999999999958
100
AcDbArc
 50
262.0
 51
292.0
  0
ARC
  5
229
330
1E0
100
AcDbEntity
  8
$DDT_AUDIT_GENERATED_(FE)
  6
Continuous
 62
     7
100
AcDbCircle
 10
279.14814985
 20
482.8165442756
 30
0.0
 40
0.149999999999996
100
AcDbArc
 50
292.0
 51
322.0
  0
ARC
  5
22A
330
1E0
100
AcDbEntity
  8
$DDT_AUDIT_GENERATED_(FE)
  6
Continuous
 62
     7
100
AcDbCircle
 10
279.9125090979
 20
483.7948794989
 30
0.0
 40
0.1500000000000067
100
AcDbArc
 50
322.0
 51
22.0
  0
LINE
  5
22B
330
1E0
100
AcDbEntity
  8
$DDT_AUDIT_GENERATED_(11B)
  6
Continuous
 62
     7
100
AcDbLine
 10
277.750147126
 20
481.71244714
 30
0.0
 11
261.0608377438
 21
474.9695284585
 31
0.0
  0
LINE
  5
22C
330
1E0
100
AcDbEntity
  8
$DDT_AUDIT_GENERATED_(11B)
  6
Continuous
 62
     7
100
AcDbLine
 10
260.9297254361
 20
475.2940428076
 30
0.0
 11
261.0608377438
 21
474.9695284585
 31
0.0
  0
LINE
  5
22D
330
1E0
100
AcDbEntity
  8
$DDT_AUDIT_GENERATED_(11B)
  6
Continuous
 62
     7
100
AcDbLine
 10
277.750147126
 20
481.71244714
 30
0.0
 11
277.6190348183
 21
482.0369614891
 31
0.0
  0
LINE
  5
22E
330
1E0
100
AcDbEntity
  8
$DDT_AUDIT_GENERATED_(1DC)
  6
Continuous
 62
     7
100
AcDbLine
 10
168.7413183818
 20
518.499945838
 30
0.0
 11
168.5965076356
 21
521.2630994799
 31
0.0
  0
LINE
  5
22F
330
1E0
100
AcDbEntity
  8
$DDT_AUDIT_GENERATED_(1DC)
  6
Continuous
 62
     7
100
AcDbLine
 10
168.5965076356
 20
521.2630994799
 30
0.0
 11
168.3086632304
 21
521.3852821809
 31
0.0
  0
ENDBLK
  5
231
330
1E0
100
AcDbEntity
  8
0
100
AcDbBlockEnd
  0
BLOCK
  5
25C
330
232
100
AcDbEntity
  8
0
100
AcDbBlockBegin
  2
SE2
 70
     0
 10
0.0
 20
0.0
 30
0.0
  3
SE2
  1

  0
SPLINE
  5
234
330
232
100
AcDbEntity
  8
$DDT_AUDIT_GENERATED_(77)
  6
Continuous
 62
     7
100
AcDbSpline
210
0.0
220
0.0
230
1.0
 70
     8
 71
     3
 72
    20
 73
    16
 74
     0
 42
0.0000000000939075
 43
0.0000000001
 40
0.0
 40
0.0
 40
0.0
 40
0.0
 40
0.066007319035647
 40
0.066007319035647
 40
0.066007319035647
 40
0.1878324513365143
 40
0.1878324513365143
 40
0.1878324513365143
 40
0.5939162256727387
 40
0.5939162256727387
 40
0.7969581128408508
 40
0.7969581128408508
 40
0.898479056424907
 40
0.898479056424907
 40
0.9388997175080261
 40
0.9388997175080261
 40
0.9388997175080261
 40
0.9388997175080261
 10
49.94066064911301
 20
125.4411621013944
 30
0.0
 10
49.94066064911301
 20
127.7839350910447
 30
0.0
 10
49.94066064911301
 20
130.126708080695
 30
0.0
 10
49.94066064911301
 20
132.4694810703452
 30
0.0
 10
49.94066064911301
 20
136.7933747473616
 30
0.0
 10
49.94066064911301
 20
141.117268424378
 30
0.0
 10
49.94066064911301
 20
145.4411621013944
 30
0.0
 10
49.94066064911301
 20
159.8541410247825
 30
0.0
 10
49.9228634239842
 20
174.2671887688522
 30
0.0
 10
50.0226994769405
 20
195.8864515512765
 30
0.0
 10
50.0519718330336
 20
203.0934679724797
 30
0.0
 10
50.3980782821739
 20
213.8983868240166
 30
0.0
 10
50.52137903002531
 20
217.5056701137285
 30
0.0
 10
51.22810661713093
 20
222.4968999468806
 30
0.0
 10
51.51137435598013
 20
223.9024400818952
 30
0.0
 10
51.95058841334517
 20
225.2675879982448
 30
0.0
  0
LINE
  5
235
330
232
100
AcDbEntity
  8
$DDT_AUDIT_GENERATED_(77)
  6
Continuous
 62
     7
100
AcDbLine
 10
55.8457331918
 20
239.2745989989
 30
0.0
 11
55.8454215326
 21
239.727810535
 31
0.0
  0
ARC
  5
236
330
232
100
AcDbEntity
  8
$DDT_AUDIT_GENERATED_(77)
  6
Continuous
 62
     7
100
AcDbCircle
 10
31.3464656159
 20
239.7288845147
 30
0.0
 40
24.49894810457726
100
AcDbArc
 50
359.9984856108
 51
89.991734123
  0
ARC
  5
237
330
232
100
AcDbEntity
  8
$DDT_AUDIT_GENERATED_(77)
  6
Continuous
 62
     7
100
AcDbCircle
 10
31.3535463211
 20
239.7288615288
 30
0.0
 40
24.49897109222897
100
AcDbArc
 50
90.0082937864
 51
180.0024614089
  0
ARC
  5
238
330
232
100
AcDbEntity
  8
$DDT_AUDIT_GENERATED_(77)
  6
Continuous
 62
     7
100
AcDbCircle
 10
56.1847489736
 20
348.0110206883
 30
0.0
 40
108.2833154082204
100
AcDbArc
 50
269.8204477755
 51
270.0838711413
  0
SPLINE
  5
239
330
232
100
AcDbEntity
  8
$DDT_AUDIT_GENERATED_(77)
  6
Continuous
 62
     7
100
AcDbSpline
210
0.0
220
0.0
230
1.0
 70
     8
 71
     3
 72
    10
 73
     6
 74
     0
 42
0.0000000199827036
 43
0.0000000001
 40
0.0
 40
0.0
 40
0.0
 40
0.0
 40
0.5
 40
0.5
 40
1.0
 40
1.0
 40
1.0
 40
1.0
 10
6.854575251492752
 20
239.727809060584
 30
0.0
 10
6.723747673603377
 20
239.7278333216358
 30
0.0
 10
6.59351212842861
 20
239.7277775201754
 30
0.0
 10
6.408265603471415
 20
239.7277159325023
 30
0.0
 10
6.354412446359516
 20
239.7277144767099
 30
0.0
 10
6.354655300803556
 20
239.7278323622371
 30
0.0
  0
LINE
  5
23A
330
232
100
AcDbEntity
  8
$DDT_AUDIT_GENERATED_(77)
  6
Continuous
 62
     7
100
AcDbLine
 10
56.3452630889
 20
239.7278206038
 30
0.0
 11
56.3444863228
 21
238.727833865
 31
0.0
  0
LINE
  5
23B
330
232
100
AcDbEntity
  8
$DDT_AUDIT_GENERATED_(77)
  6
Continuous
 62
     7
100
AcDbLine
 10
56.3452695561
 20
238.7278346594
 30
0.0
 11
55.9023992861
 21
238.7246823941
 31
0.0
  0
LINE
  5
23C
330
232
100
AcDbEntity
  8
$DDT_AUDIT_GENERATED_(77)
  6
Continuous
 62
     7
100
AcDbLine
 10
6.7973702732
 20
238.7246773353
 30
0.0
 11
6.3552486121
 21
238.7278369677
 31
0.0
  0
LINE
  5
23D
330
232
100
AcDbEntity
  8
$DDT_AUDIT_GENERATED_(77)
  6
Continuous
 62
     7
100
AcDbLine
 10
6.3555136754
 20
238.7278362867
 30
0.0
 11
6.354736902
 21
239.7278322374
 31
0.0
  0
SPLINE
  5
23E
330
232
100
AcDbEntity
  8
$DDT_AUDIT_GENERATED_(77)
  6
Continuous
 62
     7
100
AcDbSpline
210
0.0
220
0.0
230
1.0
 70
     8
 71
     6
 72
    15
 73
     8
 74
     0
 42
0.0000000002470465
 43
0.0000000001
 40
0.0
 40
0.0
 40
0.0
 40
0.0
 40
0.0
 40
0.0
 40
0.0
 40
0.5567689936157857
 40
1.0
 40
1.0
 40
1.0
 40
1.0
 40
1.0
 40
1.0
 40
1.0
 10
6.354655300803556
 20
239.7278323622371
 30
0.0
 10
6.354717500543866
 20
242.9123628556614
 30
0.0
 10
7.230140353964535
 20
248.7373388829125
 30
0.0
 10
9.78180915777909
 20
254.4880212780425
 30
0.0
 10
14.12441905251861
 20
259.6081948051483
 30
0.0
 10
20.31422059094372
 20
263.3610899036098
 30
0.0
 10
27.799607248829
 20
264.7278323643445
 30
0.0
 10
31.34999999999996
 20
264.7278323643445
 30
0.0
  0
ARC
  5
23F
330
232
100
AcDbEntity
  8
$DDT_AUDIT_GENERATED_(77)
  6
Continuous
 62
     7
100
AcDbCircle
 10
31.3466960722
 20
239.731271398
 30
0.0
 40
24.99656118465908
100
AcDbArc
 50
359.9920918569
 51
89.9924269134
  0
LINE
  5
240
330
232
100
AcDbEntity
  8
$DDT_AUDIT_GENERATED_(77)
  6
Continuous
 62
     7
100
AcDbLine
 10
7.7759311792
 20
231.1230310329
 30
0.0
 11
7.7465256413
 21
231.1122280622
 31
0.0
  0
SPLINE
  5
241
330
232
100
AcDbEntity
  8
$DDT_AUDIT_GENERATED_(77)
  6
Continuous
 62
     7
100
AcDbSpline
210
0.0
220
0.0
230
1.0
 70
     8
 71
     5
 72
    12
 73
     6
 74
     0
 42
0.0000000012796186
 43
0.0000000001
 40
0.0
 40
0.0
 40
0.0
 40
0.0
 40
0.0
 40
0.0
 40
1.0
 40
1.0
 40
1.0
 40
1.0
 40
1.0
 40
1.0
 10
56.3452695561377
 20
238.727834659383
 30
0.0
 10
56.3498236800665
 20
238.205297733486
 30
0.0
 10
56.36486178909988
 20
237.0865078388118
 30
0.0
 10
56.21966803996818
 20
235.4175933554976
 30
0.0
 10
55.77509589829132
 20
233.3633806811696
 30
0.0
 10
54.95269762602535
 20
231.1125226734381
 30
0.0
  0
ARC
  5
242
330
232
100
AcDbEntity
  8
$DDT_AUDIT_GENERATED_(77)
  6
Continuous
 62
     7
100
AcDbCircle
 10
28.0261863112
 20
238.7519587994
 30
0.0
 40
21.67095112414408
100
AcDbArc
 50
180.0637756705
 51
200.6423382402
  0
SPLINE
  5
243
330
232
100
AcDbEntity
  8
$DDT_AUDIT_GENERATED_(77)
  6
Continuous
 62
     7
100
AcDbSpline
210
0.0
220
0.0
230
1.0
 70
     8
 71
     3
 72
     8
 73
     4
 74
     0
 42
0.0000000000938658
 43
0.0000000001
 40
0.0
 40
0.0
 40
0.0
 40
0.0
 40
0.0200120259887141
 40
0.0200120259887141
 40
0.0200120259887141
 40
0.0200120259887141
 10
54.95269762602535
 20
231.1125226734381
 30
0.0
 10
54.70801855708585
 20
230.4457322047557
 30
0.0
 10
54.42497677212118
 20
229.793707690346
 30
0.0
 10
54.13132283475981
 20
229.146283829533
 30
0.0
  0
SPLINE
  5
244
330
232
100
AcDbEntity
  8
$DDT_AUDIT_GENERATED_(77)
  6
Continuous
 62
     7
100
AcDbSpline
210
0.0
220
0.0
230
1.0
 70
     8
 71
     3
 72
    18
 73
    14
 74
     0
 42
0.0000000000940382
 43
0.0000000001
 40
0.0265022791622494
 40
0.0265022791622494
 40
0.0265022791622494
 40
0.0265022791622494
 40
0.0625
 40
0.0625
 40
0.125
 40
0.125
 40
0.1875000000000001
 40
0.1875000000000001
 40
0.2500000000000001
 40
0.2500000000000001
 40
0.5000000000000001
 40
0.5000000000000001
 40
1.0
 40
1.0
 40
1.0
 40
1.0
 10
53.8432093900272
 20
228.5174758353247
 30
0.0
 10
53.30785192352297
 20
227.3563315347759
 30
0.0
 10
52.76727801166098
 20
226.1994061538816
 30
0.0
 10
51.71582667341515
 20
222.8834552905651
 30
0.0
 10
51.43331679444231
 20
220.6657114612207
 30
0.0
 10
51.02941874453586
 20
216.2545110040766
 30
0.0
 10
50.91998666170964
 20
214.0415760270403
 30
0.0
 10
50.75245193984931
 20
209.6142738824306
 30
0.0
 10
50.69787863623879
 20
207.3996894882434
 30
0.0
 10
50.48603527254813
 20
196.3261863911238
 30
0.0
 10
50.47479835252487
 20
187.4649896986047
 30
0.0
 10
50.42294941840064
 20
160.8833986112294
 30
0.0
 10
50.44066064911297
 20
143.1622638857559
 30
0.0
 10
50.44066064911291
 20
125.4411621013944
 30
0.0
  0
SPLINE
  5
245
330
232
100
AcDbEntity
  8
$DDT_AUDIT_GENERATED_(77)
  6
Continuous
 62
     7
100
AcDbSpline
210
0.0
220
0.0
230
1.0
 70
     8
 71
     3
 72
    18
 73
    14
 74
     0
 42
0.0000000000940383
 43
0.0000000001
 40
0.0
 40
0.0
 40
0.0
 40
0.0
 40
0.5
 40
0.5
 40
0.75
 40
0.75
 40
0.8125
 40
0.8125
 40
0.875
 40
0.875
 40
0.9375
 40
0.9375
 40
0.9748589379973897
 40
0.9748589379973897
 40
0.9748589379973897
 40
0.9748589379973897
 10
12.25933935088706
 20
125.4411621013944
 30
0.0
 10
12.25933935088704
 20
143.1613951903695
 30
0.0
 10
12.2770452767109
 20
160.8816930231288
 30
0.0
 10
12.22521138125496
 20
187.4619272732994
 30
0.0
 10
12.21397742027483
 20
196.3222954808157
 30
0.0
 10
12.00220963873982
 20
207.395862988541
 30
0.0
 10
11.94765725127163
 20
209.6103722005116
 30
0.0
 10
11.78020965346253
 20
214.0373636151355
 30
0.0
 10
11.67089973933302
 20
216.2495367328561
 30
0.0
 10
11.26715313370742
 20
220.6620372627961
 30
0.0
 10
10.9854493365363
 20
222.878050780924
 30
0.0
 10
9.919063858102955
 20
226.243266900337
 30
0.0
 10
9.351675893856774
 20
227.4424187642203
 30
0.0
 10
8.796331701363767
 20
228.6482937455632
 30
0.0
  0
SPLINE
  5
246
330
232
100
AcDbEntity
  8
$DDT_AUDIT_GENERATED_(77)
  6
Continuous
 62
     7
100
AcDbSpline
210
0.0
220
0.0
230
1.0
 70
     8
 71
     3
 72
     8
 73
     4
 74
     0
 42
0.0000000000938419
 43
0.0000000001
 40
0.9819775728253259
 40
0.9819775728253259
 40
0.9819775728253259
 40
0.9819775728253259
 40
1.0
 40
1.0
 40
1.0
 40
1.0
 10
8.481434623516044
 20
229.3388142244329
 30
0.0
 10
8.218904878308473
 20
229.9229454390588
 30
0.0
 10
7.967181219824766
 20
230.5115926726182
 30
0.0
 10
7.746525641296707
 20
231.1122280622185
 30
0.0
  0
ARC
  5
247
330
232
100
AcDbEntity
  8
$DDT_AUDIT_GENERATED_(77)
  6
Continuous
 62
     7
100
AcDbCircle
 10
31.4878698044
 20
125.3032922967
 30
0.0
 40
18.95329229671871
100
AcDbArc
 50
269.5832160735
 51
0.4167839272
  0
ARC
  5
248
330
232
100
AcDbEntity
  8
$DDT_AUDIT_GENERATED_(77)
  6
Continuous
 62
     7
100
AcDbCircle
 10
31.2121301956
 20
125.3032922967
 30
0.0
 40
18.95329229671577
100
AcDbArc
 50
179.5832160728
 51
270.4167839265
  0
ARC
  5
249
330
232
100
AcDbEntity
  8
$DDT_AUDIT_GENERATED_(C6)
  6
Continuous
 62
     7
100
AcDbCircle
 10
31.35
 20
239.7278323643
 30
0.0
 40
23.64931288642442
100
AcDbArc
 50
16.9434511512
 51
162.8062684536
  0
ARC
  5
24A
330
232
100
AcDbEntity
  8
$DDT_AUDIT_GENERATED_(CD)
  6
Continuous
 62
     7
100
AcDbCircle
 10
31.3499999682
 20
240.1197915201
 30
0.0
 40
18.16705474759974
100
AcDbArc
 50
0.6573651868
 51
179.3426348398
  0
SPLINE
  5
24B
330
232
100
AcDbEntity
  8
$DDT_AUDIT_GENERATED_(CD)
  6
Continuous
 62
     7
100
AcDbSpline
210
0.0
220
0.0
230
1.0
 70
     8
 71
     3
 72
    17
 73
    13
 74
     0
 42
0.0000000001433216
 43
0.0000000001
 40
0.0
 40
0.0
 40
0.0
 40
0.0
 40
0.1368372226797616
 40
0.1368372226797616
 40
0.1368372226797616
 40
0.410511668598606
 40
0.410511668598606
 40
0.410511668598606
 40
0.7052558341744025
 40
0.7052558341744025
 40
0.7052558341744025
 40
1.0
 40
1.0
 40
1.0
 40
1.0
 10
49.51584710667611
 20
240.2806147064367
 30
0.0
 10
49.5150625490777
 20
237.0980231705153
 30
0.0
 10
49.5143599203682
 20
233.9154488870612
 30
0.0
 10
49.51372413891762
 20
230.7328883203225
 30
0.0
 10
49.51245257601521
 20
224.3677671807154
 30
0.0
 10
49.51144788793786
 20
218.0027005897223
 30
0.0
 10
49.51059233859795
 20
211.637664204293
 30
0.0
 10
49.50967092200153
 20
204.7825947316698
 30
0.0
 10
49.50892206829771
 20
197.9275603006205
 30
0.0
 10
49.50821056309848
 20
191.0725361245904
 30
0.0
 10
49.50749905789849
 20
184.217511941185
 30
0.0
 10
49.50682499430273
 20
177.3624980864362
 30
0.0
 10
49.50606699660662
 20
170.5074743469122
 30
0.0
  0
SPLINE
  5
24C
330
232
100
AcDbEntity
  8
$DDT_AUDIT_GENERATED_(CD)
  6
Continuous
 62
     7
100
AcDbSpline
210
0.0
220
0.0
230
1.0
 70
     8
 71
     3
 72
    17
 73
    13
 74
     0
 42
0.0000000001433216
 43
0.0000000001
 40
0.0
 40
0.0
 40
0.0
 40
0.0
 40
0.1368372585048639
 40
0.1368372585048639
 40
0.1368372585048639
 40
0.4105117755282425
 40
0.4105117755282425
 40
0.4105117755282425
 40
0.7052558864632968
 40
0.7052558864632968
 40
0.7052558864632968
 40
1.0
 40
1.0
 40
1.0
 40
1.0
 10
13.19647686586877
 20
170.5074743469256
 30
0.0
 10
13.19600839181057
 20
173.6899720042017
 30
0.0
 10
13.1955428784265
 20
176.8724680124798
 30
0.0
 10
13.19507455375846
 20
180.0549641104522
 30
0.0
 10
13.19413790442237
 20
186.4199563065495
 30
0.0
 10
13.19319066477052
 20
192.7849486492309
 30
0.0
 10
13.19218098282234
 20
199.149957373084
 30
0.0
 10
13.19109356770136
 20
206.0049939951502
 30
0.0
 10
13.18993384382063
 20
212.8600494865922
 30
0.0
 10
13.18862372372456
 20
219.7151490306811
 30
0.0
 10
13.18731360361824
 20
226.5702486284794
 30
0.0
 10
13.18585248245446
 20
233.425392191711
 30
0.0
 10
13.18415271997908
 20
240.2806112594143
 30
0.0
  0
ARC
  5
24D
330
232
100
AcDbEntity
  8
$DDT_AUDIT_GENERATED_(CD)
  6
Continuous
 62
     7
100
AcDbCircle
 10
31.3512720316
 20
170.703886927
 30
0.0
 40
18.15656916568111
100
AcDbArc
 50
180.8190439448
 51
359.1809541273
  0
ARC
  5
24E
330
232
100
AcDbEntity
  8
$DDT_AUDIT_GENERATED_(CD)
  6
Continuous
 62
     7
100
AcDbCircle
 10
44.5935665241
 20
236.3285668503
 30
0.0
 40
11.37320779190093
100
AcDbArc
 50
346.6314814125
 51
358.2129899296
  0
ARC
  5
24F
330
232
100
AcDbEntity
  8
$DDT_AUDIT_GENERATED_(CD)
  6
Continuous
 62
     7
100
AcDbCircle
 10
31.3490901187
 20
239.3117566822
 30
0.0
 40
24.94589177743881
100
AcDbArc
 50
193.0005715694
 51
221.5952558908
  0
ARC
  5
250
330
232
100
AcDbEntity
  8
$DDT_AUDIT_GENERATED_(CD)
  6
Continuous
 62
     7
100
AcDbCircle
 10
31.3490901187
 20
239.3117566822
 30
0.0
 40
24.94589177743881
100
AcDbArc
 50
318.3933307118
 51
346.9984635362
  0
ARC
  5
251
330
232
100
AcDbEntity
  8
$DDT_AUDIT_GENERATED_(CD)
  6
Continuous
 62
     7
100
AcDbCircle
 10
28.1320332975
 20
236.7599938344
 30
0.0
 40
27.84338843453659
100
AcDbArc
 50
358.3871870886
 51
5.4340167835
  0
ARC
  5
252
330
232
100
AcDbEntity
  8
$DDT_AUDIT_GENERATED_(CD)
  6
Continuous
 62
     7
100
AcDbCircle
 10
31.3491094567
 20
237.0935212035
 30
0.0
 40
24.60131606444715
100
AcDbArc
 50
5.3753690535
 51
174.6243962718
  0
ARC
  5
253
330
232
100
AcDbEntity
  8
$DDT_AUDIT_GENERATED_(CD)
  6
Continuous
 62
     7
100
AcDbCircle
 10
33.4029202645
 20
236.7647795727
 30
0.0
 40
26.68041700291946
100
AcDbArc
 50
174.339315508
 51
181.6926741683
  0
ARC
  5
254
330
232
100
AcDbEntity
  8
$DDT_AUDIT_GENERATED_(CD)
  6
Continuous
 62
     7
100
AcDbCircle
 10
18.1476129909
 20
236.327317245
 30
0.0
 40
11.41671987521945
100
AcDbArc
 50
181.7731322783
 51
193.3108000529
  0
ARC
  5
255
330
232
100
AcDbEntity
  8
$DDT_AUDIT_GENERATED_(CD)
  6
Continuous
 62
     7
100
AcDbCircle
 10
2227.5899822388
 20
214.1532965578
 30
0.0
 40
2177.604880714131
100
AcDbArc
 50
179.3550655883
 51
179.804446535
  0
ARC
  5
256
330
232
100
AcDbEntity
  8
$DDT_AUDIT_GENERATED_(CD)
  6
Continuous
 62
     7
100
AcDbCircle
 10
35179.6893264781
 20
147.8414395695
 30
0.0
 40
35129.7664802653
100
AcDbArc
 50
179.8797244951
 51
179.9629231151
  0
LINE
  5
257
330
232
100
AcDbEntity
  8
$DDT_AUDIT_GENERATED_(CD)
  6
Continuous
 62
     7
100
AcDbLine
 10
49.9298445287
 20
170.4912004385
 30
0.0
 11
49.9299656381
 21
170.5744667697
 31
0.0
  0
ARC
  5
258
330
232
100
AcDbEntity
  8
$DDT_AUDIT_GENERATED_(CD)
  6
Continuous
 62
     7
100
AcDbCircle
 10
31.3518659162
 20
170.7390421389
 30
0.0
 40
18.5852946943273
100
AcDbArc
 50
180.7655376062
 51
359.2348212139
  0
LINE
  5
259
330
232
100
AcDbEntity
  8
$DDT_AUDIT_GENERATED_(CD)
  6
Continuous
 62
     7
100
AcDbLine
 10
12.772687322
 20
170.5745548374
 30
0.0
 11
12.772802215
 21
170.4912952616
 31
0.0
  0
SPLINE
  5
25A
330
232
100
AcDbEntity
  8
$DDT_AUDIT_GENERATED_(CD)
  6
Continuous
 62
     7
100
AcDbSpline
210
0.0
220
0.0
230
1.0
 70
     8
 71
     3
 72
     8
 73
     4
 74
     0
 42
0.0000000001960341
 43
0.0000000001
 40
0.0
 40
0.0
 40
0.0
 40
0.0
 40
1.0
 40
1.0
 40
1.0
 40
1.0
 10
12.7020524728936
 20
221.5858781233446
 30
0.0
 10
12.73433699371149
 20
201.6837971616721
 30
0.0
 10
12.7576853671925
 20
184.679965596341
 30
0.0
 10
12.77209759333664
 20
170.5743834273511
 30
0.0
  0
ARC
  5
25B
330
232
100
AcDbEntity
  8
$DDT_AUDIT_GENERATED_(CD)
  6
Continuous
 62
     7
100
AcDbCircle
 10
-2030.7892640423
 20
214.9689636156
 30
0.0
 40
2043.502518875044
100
AcDbArc
 50
0.1855166742
 51
0.6599420339
  0
ENDBLK
  5
25D
330
232
100
AcDbEntity
  8
0
100
AcDbBlockEnd
  0
ENDSEC
  0
SECTION
  2
ENTITIES
  0
INSERT
  5
5F
330
1F
100
AcDbEntity
  8
Default
100
AcDbBlockReference
  2
SEANNOT_GROUP
 10
0.0
 20
0.0
 30
0.0
  0
INSERT
  5
66
330
1F
100
AcDbEntity
  8
Default
100
AcDbBlockReference
  2
SEANNOT_GROUP1
 10
0.0
 20
0.0
 30
0.0
  0
INSERT
  5
6C
330
1F
100
AcDbEntity
  8
Default
100
AcDbBlockReference
  2
SEANNOT_GROUP2
 10
0.0
 20
0.0
 30
0.0
  0
INSERT
  5
76
330
1F
100
AcDbEntity
  8
Default
100
AcDbBlockReference
  2
SE
 10
0.0
 20
0.0
 30
0.0
  0
INSERT
  5
1E1
330
1F
100
AcDbEntity
  8
Default
100
AcDbBlockReference
  2
SE1
 10
0.0
 20
0.0
 30
0.0
  0
INSERT
  5
233
330
1F
100
AcDbEntity
  8
Default
100
AcDbBlockReference
  2
SE2
 10
0.0
 20
0.0
 30
0.0
  0
TEXT
  5
25F
330
1F
100
AcDbEntity
  8
Default
  6
Continuous
 62
     7
100
AcDbText
 10
5.9362635081
 20
53.4225120485
 30
0.0
 40
10.0
  1
Grohe AG^J
  7
SEACAD_seiso_ttf
 11
5.9362635081
 21
63.4225120485
 31
0.0
100
AcDbText
 73
     3
  0
TEXT
  5
260
330
1F
100
AcDbEntity
  8
Default
  6
Continuous
 62
     7
100
AcDbText
 10
5.9362635081
 20
37.0588756849
 30
0.0
 40
10.0
  1
 
  7
SEACAD_seiso_ttf
 11
5.9362635081
 21
47.0588756849
 31
0.0
100
AcDbText
 73
     3
  0
TEXT
  5
261
330
1F
100
AcDbEntity
  8
Default
  6
Continuous
 62
     7
100
AcDbText
 10
5.9362635081
 20
20.6952393213
 30
0.0
 40
10.0
  1
ecn:
  7
SEACAD_seiso_ttf
 11
5.9362635081
 21
30.6952393213
 31
0.0
100
AcDbText
 73
     3
  0
TEXT
  5
262
330
1F
100
AcDbEntity
  8
Default
  6
Continuous
 62
     7
100
AcDbText
 10
5.9362635081
 20
4.3316029576
 30
0.0
 40
10.0
  1
unit: mm
  7
SEACAD_seiso_ttf
 11
5.9362635081
 21
14.3316029576
 31
0.0
100
AcDbText
 73
     3
  0
LINE
  5
263
330
1F
100
AcDbEntity
  8
Default
  6
Continuous
 62
     7
100
AcDbLine
 10
0.0
 20
0.0
 30
0.0
 11
100.0
 21
0.0
 31
0.0
  0
LINE
  5
264
330
1F
100
AcDbEntity
  8
Default
  6
Continuous
 62
     7
100
AcDbLine
 10
0.0
 20
0.0
 30
0.0
 11
0.0
 21
100.0
 31
0.0
  0
TEXT
  5
265
330
1F
100
AcDbEntity
  8
Default
  6
Continuous
 62
     7
100
AcDbText
 10
24.3923665681
 20
-18.2375342018
 30
0.0
 40
10.0
  1
100 mm
  7
SEACAD_seiso_ttf
 11
24.3923665681
 21
-8.2375342018
 31
0.0
100
AcDbText
 73
     3
  0
TEXT
  5
266
330
1F
100
AcDbEntity
  8
Default
  6
Continuous
 62
     7
100
AcDbText
 10
-7.6150308803
 20
24.6231930421
 30
0.0
 40
10.0
  1
100 mm
 50
90.0
  7
SEACAD_seiso_ttf
 11
-17.6150308803
 21
24.6231930421
 31
0.0
100
AcDbText
 73
     3
  0
TEXT
  5
267
330
1F
100
AcDbEntity
  8
Default
  6
Continuous
 62
     7
100
AcDbText
 10
28.4878128572
 20
20.0907663715
 30
0.0
 40
10.0
  1
226394
  7
SEACAD_seiso_ttf
 11
28.4878128572
 21
30.0907663715
 31
0.0
100
AcDbText
 73
     3
  0
TEXT
  5
268
330
1F
100
AcDbEntity
  8
Default
  6
Continuous
 62
     7
100
AcDbText
 10
5.9012241913
 20
36.7242780188
 30
0.0
 40
10.0
  1
23327000
  7
SEACAD_seiso_ttf
 11
5.9012241913
 21
46.7242780188
 31
0.0
100
AcDbText
 73
     3
  0
ENDSEC
  0
SECTION
  2
OBJECTS
  0
DICTIONARY
  5
C
330
0
100
AcDbDictionary
281
     1
  3
ACAD_GROUP
350
D
  3
ACAD_LAYOUT
350
1A
  3
ACAD_MLEADERSTYLE
350
26C
  3
ACAD_MLINESTYLE
350
17
  3
ACAD_PLOTSETTINGS
350
19
  3
ACAD_PLOTSTYLENAME
350
E
  3
ACAD_SCALELIST
350
3B
  3
ACAD_TABLESTYLE
350
26B
  3
ACAD_VISUALSTYLE
350
2A
  3
AcDbVariableDictionary
350
269
  0
DICTIONARY
  5
D
102
{ACAD_REACTORS
330
C
102
}
330
C
100
AcDbDictionary
281
     1
  0
DICTIONARY
  5
1A
102
{ACAD_REACTORS
330
C
102
}
330
C
100
AcDbDictionary
281
     1
  3
Layout1
350
1E
  3
Model
350
22
  0
DICTIONARY
  5
26C
102
{ACAD_REACTORS
330
C
102
}
330
C
100
AcDbDictionary
281
     1
  0
DICTIONARY
  5
17
102
{ACAD_REACTORS
330
C
102
}
330
C
100
AcDbDictionary
281
     1
  3
Standard
350
18
  0
DICTIONARY
  5
19
102
{ACAD_REACTORS
330
C
102
}
330
C
100
AcDbDictionary
281
     1
  0
ACDBDICTIONARYWDFLT
  5
E
102
{ACAD_REACTORS
330
C
102
}
330
C
100
AcDbDictionary
281
     1
  3
Normal
350
F
100
AcDbDictionaryWithDefault
340
F
  0
DICTIONARY
  5
3B
102
{ACAD_REACTORS
330
C
102
}
330
C
100
AcDbDictionary
281
     1
  3
A0
350
3C
  3
A1
350
3D
  3
A2
350
3E
  3
A3
350
3F
  3
A4
350
40
  3
A5
350
41
  3
A6
350
42
  3
A7
350
43
  3
A8
350
44
  3
A9
350
45
  3
B0
350
46
  3
B1
350
47
  3
B2
350
48
  3
B3
350
49
  3
B4
350
4A
  3
B5
350
4B
  3
B6
350
4C
  3
B7
350
4D
  3
B8
350
4E
  3
B9
350
4F
  3
C0
350
50
  3
C1
350
51
  3
C2
350
52
  3
C3
350
53
  3
C4
350
54
  3
C5
350
55
  3
C6
350
56
  3
C7
350
57
  3
C8
350
58
  3
C9
350
59
  3
D0
350
5A
  3
D1
350
5B
  3
D2
350
5C
  0
DICTIONARY
  5
26B
102
{ACAD_REACTORS
330
C
102
}
330
C
100
AcDbDictionary
281
     1
  0
DICTIONARY
  5
2A
102
{ACAD_REACTORS
330
C
102
}
330
C
100
AcDbDictionary
281
     1
  3
2dWireframe
350
2F
  3
3D Hidden
350
31
  3
3dWireframe
350
30
  3
Basic
350
32
  3
Brighten
350
36
  3
ColorChange
350
3A
  3
Conceptual
350
34
  3
Dim
350
35
  3
Facepattern
350
39
  3
Flat
350
2B
  3
FlatWithEdges
350
2C
  3
Gouraud
350
2D
  3
GouraudWithEdges
350
2E
  3
Linepattern
350
38
  3
Realistic
350
33
  3
Thicken
350
37
  0
DICTIONARY
  5
269
102
{ACAD_REACTORS
330
C
102
}
330
C
100
AcDbDictionary
281
     1
  3
CANNOSCALE
350
26A
  3
PSOLHEIGHT
350
26E
  3
PSOLWIDTH
350
26D
  0
LAYOUT
  5
1E
102
{ACAD_REACTORS
330
1A
102
}
330
1A
100
AcDbPlotSettings
  1

  2
none_device
  4

  6

 40
0.0
 41
0.0
 42
0.0
 43
0.0
 44
0.0
 45
0.0
 46
0.0
 47
0.0
 48
0.0
 49
0.0
140
0.0
141
0.0
142
1.0
143
1.0
 70
   688
 72
     0
 73
     0
 74
     5
  7

 75
    16
147
1.0
148
0.0
149
0.0
100
AcDbLayout
  1
Layout1
 70
     1
 71
     1
 10
0.0
 20
0.0
 11
3000.0
 21
4500.0
 12
0.0
 22
0.0
 32
0.0
 14
0.0
 24
0.0
 34
0.0
 15
3000.0
 25
4500.0
 35
0.0
146
0.0
 13
0.0
 23
0.0
 33
0.0
 16
1.0
 26
0.0
 36
0.0
 17
0.0
 27
1.0
 37
0.0
 76
     0
330
1B
  0
LAYOUT
  5
22
102
{ACAD_REACTORS
330
1A
102
}
330
1A
100
AcDbPlotSettings
  1

  2
none_device
  4

  6

 40
0.0
 41
0.0
 42
0.0
 43
0.0
 44
0.0
 45
0.0
 46
0.0
 47
0.0
 48
0.0
 49
0.0
140
0.0
141
0.0
142
1.0
143
1.0
 70
  1712
 72
     0
 73
     0
 74
     0
  7

 75
     0
147
1.0
148
0.0
149
0.0
100
AcDbLayout
  1
Model
 70
     1
 71
     0
 10
0.0
 20
0.0
 11
3000.0
 21
4500.0
 12
0.0
 22
0.0
 32
0.0
 14
0.0
 24
0.0
 34
0.0
 15
3000.0
 25
4500.0
 35
0.0
146
0.0
 13
0.0
 23
0.0
 33
0.0
 16
1.0
 26
0.0
 36
0.0
 17
0.0
 27
1.0
 37
0.0
 76
     0
330
1F
331
29
  0
MLINESTYLE
  5
18
102
{ACAD_REACTORS
330
17
102
}
330
17
100
AcDbMlineStyle
  2
Standard
 70
     0
  3

 62
   256
 51
90.0
 52
90.0
 71
     2
 49
0.5
 62
   256
  6
BYLAYER
 49
-0.5
 62
   256
  6
BYLAYER
  0
ACDBPLACEHOLDER
  5
F
102
{ACAD_REACTORS
330
E
102
}
330
E
  0
SCALE
  5
3C
102
{ACAD_REACTORS
330
3B
102
}
330
3B
100
AcDbScale
 70
     0
300
1:1
140
1.0
141
1.0
290
     1
  0
SCALE
  5
3D
102
{ACAD_REACTORS
330
3B
102
}
330
3B
100
AcDbScale
 70
     0
300
1:2
140
1.0
141
2.0
290
     0
  0
SCALE
  5
3E
102
{ACAD_REACTORS
330
3B
102
}
330
3B
100
AcDbScale
 70
     0
300
1:4
140
1.0
141
4.0
290
     0
  0
SCALE
  5
3F
102
{ACAD_REACTORS
330
3B
102
}
330
3B
100
AcDbScale
 70
     0
300
1:5
140
1.0
141
5.0
290
     0
  0
SCALE
  5
40
102
{ACAD_REACTORS
330
3B
102
}
330
3B
100
AcDbScale
 70
     0
300
1:8
140
1.0
141
8.0
290
     0
  0
SCALE
  5
41
102
{ACAD_REACTORS
330
3B
102
}
330
3B
100
AcDbScale
 70
     0
300
1:10
140
1.0
141
10.0
290
     0
  0
SCALE
  5
42
102
{ACAD_REACTORS
330
3B
102
}
330
3B
100
AcDbScale
 70
     0
300
1:16
140
1.0
141
16.0
290
     0
  0
SCALE
  5
43
102
{ACAD_REACTORS
330
3B
102
}
330
3B
100
AcDbScale
 70
     0
300
1:20
140
1.0
141
20.0
290
     0
  0
SCALE
  5
44
102
{ACAD_REACTORS
330
3B
102
}
330
3B
100
AcDbScale
 70
     0
300
1:30
140
1.0
141
30.0
290
     0
  0
SCALE
  5
45
102
{ACAD_REACTORS
330
3B
102
}
330
3B
100
AcDbScale
 70
     0
300
1:40
140
1.0
141
40.0
290
     0
  0
SCALE
  5
46
102
{ACAD_REACTORS
330
3B
102
}
330
3B
100
AcDbScale
 70
     0
300
1:50
140
1.0
141
50.0
290
     0
  0
SCALE
  5
47
102
{ACAD_REACTORS
330
3B
102
}
330
3B
100
AcDbScale
 70
     0
300
1:100
140
1.0
141
100.0
290
     0
  0
SCALE
  5
48
102
{ACAD_REACTORS
330
3B
102
}
330
3B
100
AcDbScale
 70
     0
300
2:1
140
2.0
141
1.0
290
     0
  0
SCALE
  5
49
102
{ACAD_REACTORS
330
3B
102
}
330
3B
100
AcDbScale
 70
     0
300
4:1
140
4.0
141
1.0
290
     0
  0
SCALE
  5
4A
102
{ACAD_REACTORS
330
3B
102
}
330
3B
100
AcDbScale
 70
     0
300
8:1
140
8.0
141
1.0
290
     0
  0
SCALE
  5
4B
102
{ACAD_REACTORS
330
3B
102
}
330
3B
100
AcDbScale
 70
     0
300
10:1
140
10.0
141
1.0
290
     0
  0
SCALE
  5
4C
102
{ACAD_REACTORS
330
3B
102
}
330
3B
100
AcDbScale
 70
     0
300
100:1
140
100.0
141
1.0
290
     0
  0
SCALE
  5
4D
102
{ACAD_REACTORS
330
3B
102
}
330
3B
100
AcDbScale
 70
     0
300
1/128" = 1'-0"
140
0.0078125
141
12.0
290
     0
  0
SCALE
  5
4E
102
{ACAD_REACTORS
330
3B
102
}
330
3B
100
AcDbScale
 70
     0
300
1/64" = 1'-0"
140
0.015625
141
12.0
290
     0
  0
SCALE
  5
4F
102
{ACAD_REACTORS
330
3B
102
}
330
3B
100
AcDbScale
 70
     0
300
1/32" = 1'-0"
140
0.03125
141
12.0
290
     0
  0
SCALE
  5
50
102
{ACAD_REACTORS
330
3B
102
}
330
3B
100
AcDbScale
 70
     0
300
1/16" = 1'-0"
140
0.0625
141
12.0
290
     0
  0
SCALE
  5
51
102
{ACAD_REACTORS
330
3B
102
}
330
3B
100
AcDbScale
 70
     0
300
3/32" = 1'-0"
140
0.09375
141
12.0
290
     0
  0
SCALE
  5
52
102
{ACAD_REACTORS
330
3B
102
}
330
3B
100
AcDbScale
 70
     0
300
1/8" = 1'-0"
140
0.125
141
12.0
290
     0
  0
SCALE
  5
53
102
{ACAD_REACTORS
330
3B
102
}
330
3B
100
AcDbScale
 70
     0
300
3/16" = 1'-0"
140
0.1875
141
12.0
290
     0
  0
SCALE
  5
54
102
{ACAD_REACTORS
330
3B
102
}
330
3B
100
AcDbScale
 70
     0
300
1/4" = 1'-0"
140
0.25
141
12.0
290
     0
  0
SCALE
  5
55
102
{ACAD_REACTORS
330
3B
102
}
330
3B
100
AcDbScale
 70
     0
300
3/8" = 1'-0"
140
0.375
141
12.0
290
     0
  0
SCALE
  5
56
102
{ACAD_REACTORS
330
3B
102
}
330
3B
100
AcDbScale
 70
     0
300
1/2" = 1'-0"
140
0.5
141
12.0
290
     0
  0
SCALE
  5
57
102
{ACAD_REACTORS
330
3B
102
}
330
3B
100
AcDbScale
 70
     0
300
3/4" = 1'-0"
140
0.75
141
12.0
290
     0
  0
SCALE
  5
58
102
{ACAD_REACTORS
330
3B
102
}
330
3B
100
AcDbScale
 70
     0
300
1" = 1'-0"
140
1.0
141
12.0
290
     0
  0
SCALE
  5
59
102
{ACAD_REACTORS
330
3B
102
}
330
3B
100
AcDbScale
 70
     0
300
1-1/2" = 1'-0"
140
1.5
141
12.0
290
     0
  0
SCALE
  5
5A
102
{ACAD_REACTORS
330
3B
102
}
330
3B
100
AcDbScale
 70
     0
300
3" = 1'-0"
140
3.0
141
12.0
290
     0
  0
SCALE
  5
5B
102
{ACAD_REACTORS
330
3B
102
}
330
3B
100
AcDbScale
 70
     0
300
6" = 1'-0"
140
6.0
141
12.0
290
     0
  0
SCALE
  5
5C
102
{ACAD_REACTORS
330
3B
102
}
330
3B
100
AcDbScale
 70
     0
300
1'-0" = 1'-0"
140
12.0
141
12.0
290
     0
  0
VISUALSTYLE
  5
2F
102
{ACAD_REACTORS
330
2A
102
}
330
2A
100
AcDbVisualStyle
  2
2dWireframe
 70
     4
 71
     0
 72
     2
 73
     0
 90
        0
 40
-0.6
 41
-30.0
 62
     5
 63
     7
 74
     1
 91
        4
 64
     7
 65
   257
 75
     1
175
     1
 42
1.0
 92
        0
 66
   257
 43
1.0
 76
     1
 77
     6
 78
     2
 67
     7
 79
     5
170
     0
171
     0
290
     0
174
     0
 93
        1
 44
0.0
173
     0
291
     0
 45
0.0
1001
ACAD
1000
AcDbSavedByObjectVersion
1070
     0
  0
VISUALSTYLE
  5
31
102
{ACAD_REACTORS
330
2A
102
}
330
2A
100
AcDbVisualStyle
  2
3D Hidden
 70
     6
 71
     1
 72
     2
 73
     2
 90
        0
 40
-0.6
 41
-30.0
 62
     5
 63
     7
 74
     2
 91
        2
 64
     7
 65
   257
 75
     2
175
     1
 42
40.0
 92
        0
 66
   257
 43
1.0
 76
     1
 77
     6
 78
     2
 67
     7
 79
     3
170
     0
171
     0
290
     0
174
     0
 93
        1
 44
0.0
173
     0
291
     0
 45
0.0
1001
ACAD
1000
AcDbSavedByObjectVersion
1070
     0
  0
VISUALSTYLE
  5
30
102
{ACAD_REACTORS
330
2A
102
}
330
2A
100
AcDbVisualStyle
  2
3dWireframe
 70
     5
 71
     0
 72
     2
 73
     0
 90
        0
 40
-0.6
 41
-30.0
 62
     5
 63
     7
 74
     1
 91
        4
 64
     7
 65
   257
 75
     1
175
     1
 42
1.0
 92
        0
 66
   257
 43
1.0
 76
     1
 77
     6
 78
     2
 67
     7
 79
     5
170
     0
171
     0
290
     0
174
     0
 93
        1
 44
0.0
173
     0
291
     0
 45
0.0
1001
ACAD
1000
AcDbSavedByObjectVersion
1070
     0
  0
VISUALSTYLE
  5
32
102
{ACAD_REACTORS
330
2A
102
}
330
2A
100
AcDbVisualStyle
  2
Basic
 70
     7
 71
     1
 72
     0
 73
     1
 90
        0
 40
-0.6
 41
-30.0
 62
     5
 63
     7
 74
     0
 91
        4
 64
     7
 65
   257
 75
     1
175
     1
 42
1.0
 92
        8
 66
     7
 43
1.0
 76
     1
 77
     6
 78
     2
 67
     7
 79
     5
170
     0
171
     0
290
     0
174
     0
 93
        1
 44
0.0
173
     0
291
     1
 45
0.0
1001
ACAD
1000
AcDbSavedByObjectVersion
1070
     0
  0
VISUALSTYLE
  5
36
102
{ACAD_REACTORS
330
2A
102
}
330
2A
100
AcDbVisualStyle
  2
Brighten
 70
    12
 71
     2
 72
     2
 73
     0
 90
        0
 40
-0.6
 41
-30.0
 62
     5
 63
     7
 74
     1
 91
        4
 64
     7
 65
   257
 75
     1
175
     1
 42
1.0
 92
        8
 66
     7
 43
1.0
 76
     1
 77
     6
 78
     2
 67
     7
 79
     5
170
     0
171
     0
290
     0
174
     0
 93
        1
 44
50.0
173
     0
291
     1
 45
0.0
1001
ACAD
1000
AcDbSavedByObjectVersion
1070
     0
  0
VISUALSTYLE
  5
3A
102
{ACAD_REACTORS
330
2A
102
}
330
2A
100
AcDbVisualStyle
  2
ColorChange
 70
    16
 71
     2
 72
     2
 73
     3
 90
        0
 40
-0.6
 41
-30.0
 62
     5
 63
     8
 74
     1
 91
        4
 64
     7
 65
   257
 75
     1
175
     1
 42
1.0
 92
        8
 66
     8
 43
1.0
 76
     1
 77
     6
 78
     2
 67
     7
 79
     5
170
     0
171
     0
290
     0
174
     0
 93
        1
 44
0.0
173
     0
291
     1
 45
0.0
1001
ACAD
1000
AcDbSavedByObjectVersion
1070
     0
  0
VISUALSTYLE
  5
34
102
{ACAD_REACTORS
330
2A
102
}
330
2A
100
AcDbVisualStyle
  2
Conceptual
 70
     9
 71
     3
 72
     2
 73
     0
 90
        0
 40
-0.6
 41
-30.0
 62
     5
 63
     7
 74
     2
 91
        2
 64
     7
 65
   257
 75
     1
175
     1
 42
40.0
 92
        8
 66
     7
 43
1.0
 76
     1
 77
     6
 78
     2
 67
     7
 79
     3
170
     0
171
     0
290
     0
174
     0
 93
        1
 44
0.0
173
     0
291
     0
 45
0.0
1001
ACAD
1000
AcDbSavedByObjectVersion
1070
     0
  0
VISUALSTYLE
  5
35
102
{ACAD_REACTORS
330
2A
102
}
330
2A
100
AcDbVisualStyle
  2
Dim
 70
    11
 71
     2
 72
     2
 73
     0
 90
        0
 40
-0.6
 41
-30.0
 62
     5
 63
     7
 74
     1
 91
        4
 64
     7
 65
   257
 75
     1
175
     1
 42
1.0
 92
        8
 66
     7
 43
1.0
 76
     1
 77
     6
 78
     2
 67
     7
 79
     5
170
     0
171
     0
290
     0
174
     0
 93
        1
 44
-50.0
173
     0
291
     1
 45
0.0
1001
ACAD
1000
AcDbSavedByObjectVersion
1070
     0
  0
VISUALSTYLE
  5
39
102
{ACAD_REACTORS
330
2A
102
}
330
2A
100
AcDbVisualStyle
  2
Facepattern
 70
    15
 71
     2
 72
     2
 73
     0
 90
        0
 40
-0.6
 41
-30.0
 62
     5
 63
     7
 74
     1
 91
        4
 64
     7
 65
   257
 75
     1
175
     1
 42
1.0
 92
        8
 66
     7
 43
1.0
 76
     1
 77
     6
 78
     2
 67
     7
 79
     5
170
     0
171
     0
290
     0
174
     0
 93
        1
 44
0.0
173
     0
291
     1
 45
0.0
1001
ACAD
1000
AcDbSavedByObjectVersion
1070
     0
  0
VISUALSTYLE
  5
2B
102
{ACAD_REACTORS
330
2A
102
}
330
2A
100
AcDbVisualStyle
  2
Flat
 70
     0
 71
     2
 72
     1
 73
     1
 90
        2
 40
-0.6
 41
30.0
 62
     5
 63
     7
 74
     0
 91
        4
 64
     7
 65
   257
 75
     1
175
     1
 42
1.0
 92
        8
 66
     7
 43
1.0
 76
     1
 77
     6
 78
     2
 67
     7
 79
     5
170
     0
171
     0
290
     0
174
     0
 93
       13
 44
0.0
173
     0
291
     1
 45
0.0
1001
ACAD
1000
AcDbSavedByObjectVersion
1070
     0
  0
VISUALSTYLE
  5
2C
102
{ACAD_REACTORS
330
2A
102
}
330
2A
100
AcDbVisualStyle
  2
FlatWithEdges
 70
     1
 71
     2
 72
     1
 73
     1
 90
        2
 40
-0.6
 41
30.0
 62
     5
 63
     7
 74
     1
 91
        4
 64
     7
 65
   257
 75
     1
175
     1
 42
1.0
 92
        0
 66
   257
 43
1.0
 76
     1
 77
     6
 78
     2
 67
     7
 79
     5
170
     0
171
     0
290
     0
174
     0
 93
       13
 44
0.0
173
     0
291
     1
 45
0.0
1001
ACAD
1000
AcDbSavedByObjectVersion
1070
     0
  0
VISUALSTYLE
  5
2D
102
{ACAD_REACTORS
330
2A
102
}
330
2A
100
AcDbVisualStyle
  2
Gouraud
 70
     2
 71
     2
 72
     2
 73
     1
 90
        2
 40
-0.6
 41
30.0
 62
     5
 63
     7
 74
     0
 91
        4
 64
     7
 65
   257
 75
     1
175
     1
 42
1.0
 92
        0
 66
     7
 43
1.0
 76
     1
 77
     6
 78
     2
 67
     7
 79
     5
170
     0
171
     0
290
     0
174
     0
 93
       13
 44
0.0
173
     0
291
     1
 45
0.0
1001
ACAD
1000
AcDbSavedByObjectVersion
1070
     0
  0
VISUALSTYLE
  5
2E
102
{ACAD_REACTORS
330
2A
102
}
330
2A
100
AcDbVisualStyle
  2
GouraudWithEdges
 70
     3
 71
     2
 72
     2
 73
     1
 90
        2
 40
-0.6
 41
30.0
 62
     5
 63
     7
 74
     1
 91
        4
 64
     7
 65
   257
 75
     1
175
     1
 42
1.0
 92
        0
 66
   257
 43
1.0
 76
     1
 77
     6
 78
     2
 67
     7
 79
     5
170
     0
171
     0
290
     0
174
     0
 93
       13
 44
0.0
173
     0
291
     1
 45
0.0
1001
ACAD
1000
AcDbSavedByObjectVersion
1070
     0
  0
VISUALSTYLE
  5
38
102
{ACAD_REACTORS
330
2A
102
}
330
2A
100
AcDbVisualStyle
  2
Linepattern
 70
    14
 71
     2
 72
     2
 73
     0
 90
        0
 40
-0.6
 41
-30.0
 62
     5
 63
     7
 74
     1
 91
        4
 64
     7
 65
   257
 75
     7
175
     7
 42
1.0
 92
        8
 66
     7
 43
1.0
 76
     1
 77
     6
 78
     2
 67
     7
 79
     5
170
     0
171
     0
290
     0
174
     0
 93
        1
 44
0.0
173
     0
291
     1
 45
0.0
1001
ACAD
1000
AcDbSavedByObjectVersion
1070
     0
  0
VISUALSTYLE
  5
33
102
{ACAD_REACTORS
330
2A
102
}
330
2A
100
AcDbVisualStyle
  2
Realistic
 70
     8
 71
     2
 72
     2
 73
     0
 90
        0
 40
-0.6
 41
-30.0
 62
     5
 63
     7
 74
     1
 91
        0
 64
     7
 65
   257
 75
     1
175
     1
 42
1.0
 92
        8
 66
     8
 43
1.0
 76
     1
 77
     6
 78
     2
 67
     7
 79
     5
170
     0
171
     0
290
     0
174
     0
 93
       13
 44
0.0
173
     0
291
     0
 45
0.0
1001
ACAD
1000
AcDbSavedByObjectVersion
1070
     0
  0
VISUALSTYLE
  5
37
102
{ACAD_REACTORS
330
2A
102
}
330
2A
100
AcDbVisualStyle
  2
Thicken
 70
    13
 71
     2
 72
     2
 73
     0
 90
        0
 40
-0.6
 41
-30.0
 62
     5
 63
     7
 74
     1
 91
        4
 64
     7
 65
   257
 75
     1
175
     1
 42
1.0
 92
       12
 66
     7
 43
1.0
 76
     1
 77
     6
 78
     2
 67
     7
 79
     5
170
     0
171
     0
290
     0
174
     0
 93
        1
 44
0.0
173
     0
291
     1
 45
0.0
1001
ACAD
1000
AcDbSavedByObjectVersion
1070
     0
  0
DICTIONARYVAR
  5
26A
102
{ACAD_REACTORS
330
269
102
}
330
269
100
DictionaryVariables
280
     0
  1
1:1
  0
DICTIONARYVAR
  5
26E
102
{ACAD_REACTORS
330
269
102
}
330
269
100
DictionaryVariables
280
     0
  1
80.000000
  0
DICTIONARYVAR
  5
26D
102
{ACAD_REACTORS
330
269
102
}
330
269
100
DictionaryVariables
280
     0
  1
5.000000
  0
ENDSEC
  0
EOF
