  0
SECTION
  2
HEADER
  9
$ACADVER
  1
AC1015
  9
$ACADMAINTVER
 70
     6
  9
$DWGCODEPAGE
  3
ANSI_1252
  9
$INSBASE
 10
0.0
 20
0.0
 30
0.0
  9
$EXTMIN
 10
0.0
 20
0.0
 30
0.0
  9
$EXTMAX
 10
3000.0
 20
4500.0
 30
0.0
  9
$LIMMIN
 10
0.0
 20
0.0
  9
$LIMMAX
 10
3000.0
 20
4500.0
  9
$ORTHOMODE
 70
     0
  9
$REGENMODE
 70
     1
  9
$FILLMODE
 70
     1
  9
$QTEXTMODE
 70
     0
  9
$MIRRTEXT
 70
     1
  9
$LTSCALE
 40
1.0
  9
$ATTMODE
 70
     1
  9
$TEXTSIZE
 40
2.5
  9
$TRACEWID
 40
1.0
  9
$TEXTSTYLE
  7
Standard
  9
$CLAYER
  8
0
  9
$CELTYPE
  6
ByLayer
  9
$CECOLOR
 62
   256
  9
$CELTSCALE
 40
1.0
  9
$DISPSILH
 70
     0
  9
$DIMSCALE
 40
1.0
  9
$DIMASZ
 40
2.5
  9
$DIMEXO
 40
0.625
  9
$DIMDLI
 40
3.75
  9
$DIMRND
 40
0.0
  9
$DIMDLE
 40
0.0
  9
$DIMEXE
 40
1.25
  9
$DIMTP
 40
0.0
  9
$DIMTM
 40
0.0
  9
$DIMTXT
 40
2.5
  9
$DIMCEN
 40
2.5
  9
$DIMTSZ
 40
0.0
  9
$DIMTOL
 70
     0
  9
$DIMLIM
 70
     0
  9
$DIMTIH
 70
     0
  9
$DIMTOH
 70
     0
  9
$DIMSE1
 70
     0
  9
$DIMSE2
 70
     0
  9
$DIMTAD
 70
     1
  9
$DIMZIN
 70
     8
  9
$DIMBLK
  1

  9
$DIMASO
 70
     1
  9
$DIMSHO
 70
     1
  9
$DIMPOST
  1

  9
$DIMAPOST
  1

  9
$DIMALT
 70
     0
  9
$DIMALTD
 70
     3
  9
$DIMALTF
 40
0.0393700787
  9
$DIMLFAC
 40
1.0
  9
$DIMTOFL
 70
     1
  9
$DIMTVP
 40
0.0
  9
$DIMTIX
 70
     0
  9
$DIMSOXD
 70
     0
  9
$DIMSAH
 70
     0
  9
$DIMBLK1
  1

  9
$DIMBLK2
  1

  9
$DIMSTYLE
  2
ISO-25
  9
$DIMCLRD
 70
     0
  9
$DIMCLRE
 70
     0
  9
$DIMCLRT
 70
     0
  9
$DIMTFAC
 40
1.0
  9
$DIMGAP
 40
0.625
  9
$DIMJUST
 70
     0
  9
$DIMSD1
 70
     0
  9
$DIMSD2
 70
     0
  9
$DIMTOLJ
 70
     0
  9
$DIMTZIN
 70
     8
  9
$DIMALTZ
 70
     0
  9
$DIMALTTZ
 70
     0
  9
$DIMUPT
 70
     0
  9
$DIMDEC
 70
     2
  9
$DIMTDEC
 70
     2
  9
$DIMALTU
 70
     2
  9
$DIMALTTD
 70
     3
  9
$DIMTXSTY
  7
Standard
  9
$DIMAUNIT
 70
     0
  9
$DIMADEC
 70
     0
  9
$DIMALTRND
 40
0.0
  9
$DIMAZIN
 70
     0
  9
$DIMDSEP
 70
    44
  9
$DIMATFIT
 70
     3
  9
$DIMFRAC
 70
     0
  9
$DIMLDRBLK
  1

  9
$DIMLUNIT
 70
     2
  9
$DIMLWD
 70
    -2
  9
$DIMLWE
 70
    -2
  9
$DIMTMOVE
 70
     0
  9
$LUNITS
 70
     2
  9
$LUPREC
 70
     4
  9
$SKETCHINC
 40
1.0
  9
$FILLETRAD
 40
10.0
  9
$AUNITS
 70
     0
  9
$AUPREC
 70
     0
  9
$MENU
  1
.
  9
$ELEVATION
 40
0.0
  9
$PELEVATION
 40
0.0
  9
$THICKNESS
 40
0.0
  9
$LIMCHECK
 70
     0
  9
$CHAMFERA
 40
10.0
  9
$CHAMFERB
 40
10.0
  9
$CHAMFERC
 40
20.0
  9
$CHAMFERD
 40
0.0
  9
$SKPOLY
 70
     0
  9
$TDCREATE
 40
2456177.573491747
  9
$TDUCREATE
 40
2456177.490158414
  9
$TDUPDATE
 40
2456177.573491759
  9
$TDUUPDATE
 40
2456177.490158426
  9
$TDINDWG
 40
0.0000000116
  9
$TDUSRTIMER
 40
0.0000000116
  9
$USRTIMER
 70
     1
  9
$ANGBASE
 50
0.0
  9
$ANGDIR
 70
     0
  9
$PDMODE
 70
     0
  9
$PDSIZE
 40
0.0
  9
$PLINEWID
 40
0.0
  9
$SPLFRAME
 70
     0
  9
$SPLINETYPE
 70
     6
  9
$SPLINESEGS
 70
     8
  9
$HANDSEED
  5
205
  9
$SURFTAB1
 70
     6
  9
$SURFTAB2
 70
     6
  9
$SURFTYPE
 70
     6
  9
$SURFU
 70
     6
  9
$SURFV
 70
     6
  9
$UCSBASE
  2

  9
$UCSNAME
  2

  9
$UCSORG
 10
0.0
 20
0.0
 30
0.0
  9
$UCSXDIR
 10
1.0
 20
0.0
 30
0.0
  9
$UCSYDIR
 10
0.0
 20
1.0
 30
0.0
  9
$UCSORTHOREF
  2

  9
$UCSORTHOVIEW
 70
     0
  9
$UCSORGTOP
 10
0.0
 20
0.0
 30
0.0
  9
$UCSORGBOTTOM
 10
0.0
 20
0.0
 30
0.0
  9
$UCSORGLEFT
 10
0.0
 20
0.0
 30
0.0
  9
$UCSORGRIGHT
 10
0.0
 20
0.0
 30
0.0
  9
$UCSORGFRONT
 10
0.0
 20
0.0
 30
0.0
  9
$UCSORGBACK
 10
0.0
 20
0.0
 30
0.0
  9
$PUCSBASE
  2

  9
$PUCSNAME
  2

  9
$PUCSORG
 10
0.0
 20
0.0
 30
0.0
  9
$PUCSXDIR
 10
1.0
 20
0.0
 30
0.0
  9
$PUCSYDIR
 10
0.0
 20
1.0
 30
0.0
  9
$PUCSORTHOREF
  2

  9
$PUCSORTHOVIEW
 70
     0
  9
$PUCSORGTOP
 10
0.0
 20
0.0
 30
0.0
  9
$PUCSORGBOTTOM
 10
0.0
 20
0.0
 30
0.0
  9
$PUCSORGLEFT
 10
0.0
 20
0.0
 30
0.0
  9
$PUCSORGRIGHT
 10
0.0
 20
0.0
 30
0.0
  9
$PUCSORGFRONT
 10
0.0
 20
0.0
 30
0.0
  9
$PUCSORGBACK
 10
0.0
 20
0.0
 30
0.0
  9
$USERI1
 70
     0
  9
$USERI2
 70
     0
  9
$USERI3
 70
     0
  9
$USERI4
 70
     0
  9
$USERI5
 70
     0
  9
$USERR1
 40
0.0
  9
$USERR2
 40
0.0
  9
$USERR3
 40
0.0
  9
$USERR4
 40
0.0
  9
$USERR5
 40
0.0
  9
$WORLDVIEW
 70
     1
  9
$SHADEDGE
 70
     3
  9
$SHADEDIF
 70
    70
  9
$TILEMODE
 70
     1
  9
$MAXACTVP
 70
    64
  9
$PINSBASE
 10
0.0
 20
0.0
 30
0.0
  9
$PLIMCHECK
 70
     0
  9
$PEXTMIN
 10
0.0
 20
0.0
 30
0.0
  9
$PEXTMAX
 10
3000.0
 20
4500.0
 30
0.0
  9
$PLIMMIN
 10
0.0
 20
0.0
  9
$PLIMMAX
 10
3000.0
 20
4500.0
  9
$UNITMODE
 70
     0
  9
$VISRETAIN
 70
     1
  9
$PLINEGEN
 70
     0
  9
$PSLTSCALE
 70
     1
  9
$TREEDEPTH
 70
  3020
  9
$CMLSTYLE
  2
Standard
  9
$CMLJUST
 70
     0
  9
$CMLSCALE
 40
20.0
  9
$PROXYGRAPHICS
 70
     1
  9
$MEASUREMENT
 70
     1
  9
$CELWEIGHT
370
    -1
  9
$ENDCAPS
280
     0
  9
$JOINSTYLE
280
     0
  9
$LWDISPLAY
290
     0
  9
$INSUNITS
 70
     4
  9
$HYPERLINKBASE
  1

  9
$STYLESHEET
  1

  9
$XEDIT
290
     1
  9
$CEPSNTYPE
380
     0
  9
$PSTYLEMODE
290
     1
  9
$FINGERPRINTGUID
  2
{8AFC1FBA-ADBF-46E0-AF8F-0AFADD136857}
  9
$VERSIONGUID
  2
{FAEB1C32-E019-11D5-929B-00C0DF256EC4}
  9
$EXTNAMES
290
     1
  9
$PSVPSCALE
 40
0.0
  9
$OLESTARTUP
290
     0
  0
ENDSEC
  0
SECTION
  2
CLASSES
  0
CLASS
  1
ACDBDICTIONARYWDFLT
  2
AcDbDictionaryWithDefault
  3
ObjectDBX Classes
 90
        0
280
     0
281
     0
  0
CLASS
  1
VISUALSTYLE
  2
AcDbVisualStyle
  3
ObjectDBX Classes
 90
     4095
280
     0
281
     0
  0
CLASS
  1
SCALE
  2
AcDbScale
  3
ObjectDBX Classes
 90
     1153
280
     0
281
     0
  0
CLASS
  1
DICTIONARYVAR
  2
AcDbDictionaryVar
  3
ObjectDBX Classes
 90
        0
280
     0
281
     0
  0
CLASS
  1
ACDBPLACEHOLDER
  2
AcDbPlaceHolder
  3
ObjectDBX Classes
 90
        0
280
     0
281
     0
  0
CLASS
  1
LAYOUT
  2
AcDbLayout
  3
ObjectDBX Classes
 90
        0
280
     0
281
     0
  0
ENDSEC
  0
SECTION
  2
TABLES
  0
TABLE
  2
VPORT
  5
8
330
0
100
AcDbSymbolTable
 70
     1
  0
VPORT
  5
29
330
8
100
AcDbSymbolTableRecord
100
AcDbViewportTableRecord
  2
*Active
 70
     0
 10
0.0
 20
0.0
 11
1.0
 21
1.0
 12
344.1869158879
 22
148.5
 13
0.0
 23
0.0
 14
10.0
 24
10.0
 15
10.0
 25
10.0
 16
0.0
 26
0.0
 36
1.0
 17
0.0
 27
0.0
 37
0.0
 40
297.0
 41
1.9729729729
 42
50.0
 43
0.0
 44
0.0
 50
0.0
 51
0.0
 71
     0
 72
   100
 73
     1
 74
     3
 75
     0
 76
     0
 77
     0
 78
     0
281
     0
 65
     1
110
0.0
120
0.0
130
0.0
111
1.0
121
0.0
131
0.0
112
0.0
122
1.0
132
0.0
 79
     0
146
0.0
  0
ENDTAB
  0
TABLE
  2
LTYPE
  5
5
330
0
100
AcDbSymbolTable
 70
     2
  0
LTYPE
  5
14
330
5
100
AcDbSymbolTableRecord
100
AcDbLinetypeTableRecord
  2
ByBlock
 70
     0
  3

 72
    65
 73
     0
 40
0.0
  0
LTYPE
  5
15
330
5
100
AcDbSymbolTableRecord
100
AcDbLinetypeTableRecord
  2
ByLayer
 70
     0
  3

 72
    65
 73
     0
 40
0.0
  0
LTYPE
  5
16
330
5
100
AcDbSymbolTableRecord
100
AcDbLinetypeTableRecord
  2
Continuous
 70
     0
  3
Solid line
 72
    65
 73
     0
 40
0.0
  0
LTYPE
  5
60
330
5
100
AcDbSymbolTableRecord
100
AcDbLinetypeTableRecord
  2
CENTER2
 70
     0
  3
Center (.5x) ___ _ ___ _ ___ _ ___ _ ___ _ ___
 72
    65
 73
     4
 40
28.575
 49
19.05
 74
     4
 75
     0
340
0
 46
0.0
 50
0.0
 44
0.0
 45
0.0
 49
-3.175
 74
     4
 75
     0
340
0
 46
0.0
 50
0.0
 44
0.0
 45
0.0
 49
3.175
 74
     4
 75
     0
340
0
 46
0.0
 50
0.0
 44
0.0
 45
0.0
 49
-3.175
 74
     4
 75
     0
340
0
 46
0.0
 50
0.0
 44
0.0
 45
0.0
  0
ENDTAB
  0
TABLE
  2
LAYER
  5
2
330
0
100
AcDbSymbolTable
 70
    13
  0
LAYER
  5
10
330
2
100
AcDbSymbolTableRecord
100
AcDbLayerTableRecord
  2
0
 70
     0
 62
     7
  6
Continuous
370
    -3
390
F
  0
LAYER
  5
5D
330
2
100
AcDbSymbolTableRecord
100
AcDbLayerTableRecord
  2
Default
 70
     0
 62
     7
  6
Continuous
370
    -3
390
F
  0
LAYER
  5
98
330
2
100
AcDbSymbolTableRecord
100
AcDbLayerTableRecord
  2
$DDT_AUDIT_GENERATED_(98)
 70
     0
 62
     7
  6
Continuous
370
    -3
390
F
  0
LAYER
  5
A8
330
2
100
AcDbSymbolTableRecord
100
AcDbLayerTableRecord
  2
403672038_GRIFF_
 70
     0
 62
     7
  6
Continuous
370
    -3
390
F
  0
LAYER
  5
BE
330
2
100
AcDbSymbolTableRecord
100
AcDbLayerTableRecord
  2
403675038_TASTE_
 70
     0
 62
     7
  6
Continuous
370
    -3
390
F
  0
LAYER
  5
C6
330
2
100
AcDbSymbolTableRecord
100
AcDbLayerTableRecord
  2
403074038_KAPPE_
 70
     0
 62
     7
  6
Continuous
370
    -3
390
F
  0
LAYER
  5
CB
330
2
100
AcDbSymbolTableRecord
100
AcDbLayerTableRecord
  2
$DDT_AUDIT_GENERATED_(CB)
 70
     0
 62
     7
  6
Continuous
370
    -3
390
F
  0
LAYER
  5
E1
330
2
100
AcDbSymbolTableRecord
100
AcDbLayerTableRecord
  2
$DDT_AUDIT_GENERATED_(E1)
 70
     0
 62
     7
  6
Continuous
370
    -3
390
F
  0
LAYER
  5
EA
330
2
100
AcDbSymbolTableRecord
100
AcDbLayerTableRecord
  2
$DDT_AUDIT_GENERATED_(EA)
 70
     0
 62
     7
  6
Continuous
370
    -3
390
F
  0
LAYER
  5
EF
330
2
100
AcDbSymbolTableRecord
100
AcDbLayerTableRecord
  2
$DDT_AUDIT_GENERATED_(EF)
 70
     0
 62
     7
  6
Continuous
370
    -3
390
F
  0
LAYER
  5
129
330
2
100
AcDbSymbolTableRecord
100
AcDbLayerTableRecord
  2
$DDT_AUDIT_GENERATED_(129)
 70
     0
 62
     7
  6
Continuous
370
    -3
390
F
  0
LAYER
  5
12E
330
2
100
AcDbSymbolTableRecord
100
AcDbLayerTableRecord
  2
$DDT_AUDIT_GENERATED_(12E)
 70
     0
 62
     7
  6
Continuous
370
    -3
390
F
  0
LAYER
  5
157
330
2
100
AcDbSymbolTableRecord
100
AcDbLayerTableRecord
  2
$DDT_AUDIT_GENERATED_(157)
 70
     0
 62
     7
  6
Continuous
370
    -3
390
F
  0
ENDTAB
  0
TABLE
  2
STYLE
  5
3
330
0
100
AcDbSymbolTable
 70
     2
  0
STYLE
  5
11
330
3
100
AcDbSymbolTableRecord
100
AcDbTextStyleTableRecord
  2
Standard
 70
     0
 40
0.0
 41
1.0
 50
0.0
 71
     0
 42
2.5
  3
txt
  4

  0
STYLE
  5
1F4
330
3
100
AcDbSymbolTableRecord
100
AcDbTextStyleTableRecord
  2
SEACAD_seiso_ttf
 70
     0
 40
0.0
 41
1.0
 50
0.0
 71
     0
 42
0.2
  3
seiso.ttf
  4

  0
ENDTAB
  0
TABLE
  2
VIEW
  5
6
330
0
100
AcDbSymbolTable
 70
     0
  0
ENDTAB
  0
TABLE
  2
UCS
  5
7
330
0
100
AcDbSymbolTable
 70
     0
  0
ENDTAB
  0
TABLE
  2
APPID
  5
9
330
0
100
AcDbSymbolTable
 70
     1
  0
APPID
  5
12
330
9
100
AcDbSymbolTableRecord
100
AcDbRegAppTableRecord
  2
ACAD
 70
     0
  0
ENDTAB
  0
TABLE
  2
DIMSTYLE
  5
A
330
0
100
AcDbSymbolTable
 70
     1
100
AcDbDimStyleTable
  0
DIMSTYLE
105
27
330
A
100
AcDbSymbolTableRecord
100
AcDbDimStyleTableRecord
  2
ISO-25
 70
     0
 41
2.5
 42
0.625
 43
3.75
 44
1.25
 73
     0
 74
     0
 77
     1
 78
     8
140
2.5
141
2.5
143
0.0393700787
147
0.625
171
     3
172
     1
271
     2
272
     2
274
     3
278
    44
283
     0
284
     8
340
11
  0
ENDTAB
  0
TABLE
  2
BLOCK_RECORD
  5
1
330
0
100
AcDbSymbolTable
 70
    12
  0
BLOCK_RECORD
  5
1F
330
1
100
AcDbSymbolTableRecord
100
AcDbBlockTableRecord
  2
*Model_Space
340
22
  0
BLOCK_RECORD
  5
1B
330
1
100
AcDbSymbolTableRecord
100
AcDbBlockTableRecord
  2
*Paper_Space
340
1E
  0
BLOCK_RECORD
  5
5E
330
1
100
AcDbSymbolTableRecord
100
AcDbBlockTableRecord
  2
SEANNOT_GROUP
340
0
102
{BLKREFS
331
5F
102
}
  0
BLOCK_RECORD
  5
65
330
1
100
AcDbSymbolTableRecord
100
AcDbBlockTableRecord
  2
SEANNOT_GROUP1
340
0
102
{BLKREFS
331
66
102
}
  0
BLOCK_RECORD
  5
6B
330
1
100
AcDbSymbolTableRecord
100
AcDbBlockTableRecord
  2
SEANNOT_GROUP2
340
0
102
{BLKREFS
331
6C
102
}
  0
BLOCK_RECORD
  5
71
330
1
100
AcDbSymbolTableRecord
100
AcDbBlockTableRecord
  2
SEANNOT_GROUP3
340
0
102
{BLKREFS
331
72
102
}
  0
BLOCK_RECORD
  5
77
330
1
100
AcDbSymbolTableRecord
100
AcDbBlockTableRecord
  2
SEANNOT_GROUP4
340
0
102
{BLKREFS
331
78
102
}
  0
BLOCK_RECORD
  5
80
330
1
100
AcDbSymbolTableRecord
100
AcDbBlockTableRecord
  2
SEANNOT_GROUP5
340
0
102
{BLKREFS
331
81
102
}
  0
BLOCK_RECORD
  5
8A
330
1
100
AcDbSymbolTableRecord
100
AcDbBlockTableRecord
  2
SEANNOT_GROUP6
340
0
102
{BLKREFS
331
8B
102
}
  0
BLOCK_RECORD
  5
90
330
1
100
AcDbSymbolTableRecord
100
AcDbBlockTableRecord
  2
SEANNOT_GROUP7
340
0
102
{BLKREFS
331
91
102
}
  0
BLOCK_RECORD
  5
96
330
1
100
AcDbSymbolTableRecord
100
AcDbBlockTableRecord
  2
SE
340
0
102
{BLKREFS
331
97
102
}
  0
BLOCK_RECORD
  5
100
330
1
100
AcDbSymbolTableRecord
100
AcDbBlockTableRecord
  2
SE1
340
0
102
{BLKREFS
331
101
102
}
  0
BLOCK_RECORD
  5
15F
330
1
100
AcDbSymbolTableRecord
100
AcDbBlockTableRecord
  2
SE2
340
0
102
{BLKREFS
331
160
102
}
  0
ENDTAB
  0
ENDSEC
  0
SECTION
  2
BLOCKS
  0
BLOCK
  5
20
330
1F
100
AcDbEntity
  8
0
100
AcDbBlockBegin
  2
*Model_Space
 70
     0
 10
0.0
 20
0.0
 30
0.0
  3
*Model_Space
  1

  0
ENDBLK
  5
21
330
1F
100
AcDbEntity
  8
0
100
AcDbBlockEnd
  0
BLOCK
  5
1C
330
1B
100
AcDbEntity
 67
     1
  8
0
100
AcDbBlockBegin
  2
*Paper_Space
 70
     0
 10
0.0
 20
0.0
 30
0.0
  3
*Paper_Space
  1

  0
ENDBLK
  5
1D
330
1B
100
AcDbEntity
 67
     1
  8
0
100
AcDbBlockEnd
  0
BLOCK
  5
63
330
5E
100
AcDbEntity
  8
0
100
AcDbBlockBegin
  2
SEANNOT_GROUP
 70
     0
 10
0.0
 20
0.0
 30
0.0
  3
SEANNOT_GROUP
  1

  0
LINE
  5
61
330
5E
100
AcDbEntity
  8
Default
  6
CENTER2
 62
     7
100
AcDbLine
 10
336.8944411989
 20
446.3781040721
 30
0.0
 11
296.894442093
 21
446.3781040721
 31
0.0
  0
LINE
  5
62
330
5E
100
AcDbEntity
  8
Default
  6
CENTER2
 62
     7
100
AcDbLine
 10
316.8944416459
 20
466.378103625
 30
0.0
 11
316.8944416459
 21
426.3781045191
 31
0.0
  0
ENDBLK
  5
64
330
5E
100
AcDbEntity
  8
0
100
AcDbBlockEnd
  0
BLOCK
  5
69
330
65
100
AcDbEntity
  8
0
100
AcDbBlockBegin
  2
SEANNOT_GROUP1
 70
     0
 10
0.0
 20
0.0
 30
0.0
  3
SEANNOT_GROUP1
  1

  0
LINE
  5
67
330
65
100
AcDbEntity
  8
Default
  6
CENTER2
 62
     7
100
AcDbLine
 10
658.6958433963
 20
446.3781040721
 30
0.0
 11
618.6958442904
 21
446.3781040721
 31
0.0
  0
LINE
  5
68
330
65
100
AcDbEntity
  8
Default
  6
CENTER2
 62
     7
100
AcDbLine
 10
638.6958438434
 20
466.378103625
 30
0.0
 11
638.6958438434
 21
426.3781045191
 31
0.0
  0
ENDBLK
  5
6A
330
65
100
AcDbEntity
  8
0
100
AcDbBlockEnd
  0
BLOCK
  5
6F
330
6B
100
AcDbEntity
  8
0
100
AcDbBlockBegin
  2
SEANNOT_GROUP2
 70
     0
 10
0.0
 20
0.0
 30
0.0
  3
SEANNOT_GROUP2
  1

  0
LINE
  5
6D
330
6B
100
AcDbEntity
  8
Default
  6
CENTER2
 62
     7
100
AcDbLine
 10
607.8958433963
 20
473.8781040721
 30
0.0
 11
567.8958442904
 21
473.8781040721
 31
0.0
  0
LINE
  5
6E
330
6B
100
AcDbEntity
  8
Default
  6
CENTER2
 62
     7
100
AcDbLine
 10
587.8958438434
 20
493.878103625
 30
0.0
 11
587.8958438434
 21
453.8781045191
 31
0.0
  0
ENDBLK
  5
70
330
6B
100
AcDbEntity
  8
0
100
AcDbBlockEnd
  0
BLOCK
  5
75
330
71
100
AcDbEntity
  8
0
100
AcDbBlockBegin
  2
SEANNOT_GROUP3
 70
     0
 10
0.0
 20
0.0
 30
0.0
  3
SEANNOT_GROUP3
  1

  0
LINE
  5
73
330
71
100
AcDbEntity
  8
Default
  6
CENTER2
 62
     7
100
AcDbLine
 10
203.8944411989
 20
188.15
 30
0.0
 11
163.894442093
 21
188.15
 31
0.0
  0
LINE
  5
74
330
71
100
AcDbEntity
  8
Default
  6
CENTER2
 62
     7
100
AcDbLine
 10
183.8944416459
 20
208.149999553
 30
0.0
 11
183.8944416459
 21
168.150000447
 31
0.0
  0
ENDBLK
  5
76
330
71
100
AcDbEntity
  8
0
100
AcDbBlockEnd
  0
BLOCK
  5
7B
330
77
100
AcDbEntity
  8
0
100
AcDbBlockBegin
  2
SEANNOT_GROUP4
 70
     0
 10
0.0
 20
0.0
 30
0.0
  3
SEANNOT_GROUP4
  1

  0
LINE
  5
79
330
77
100
AcDbEntity
  8
Default
  6
CENTER2
 62
     7
100
AcDbLine
 10
353.8944411989
 20
188.15
 30
0.0
 11
313.894442093
 21
188.15
 31
0.0
  0
LINE
  5
7A
330
77
100
AcDbEntity
  8
Default
  6
CENTER2
 62
     7
100
AcDbLine
 10
333.8944416459
 20
208.149999553
 30
0.0
 11
333.8944416459
 21
168.150000447
 31
0.0
  0
ENDBLK
  5
7C
330
77
100
AcDbEntity
  8
0
100
AcDbBlockEnd
  0
BLOCK
  5
84
330
80
100
AcDbEntity
  8
0
100
AcDbBlockBegin
  2
SEANNOT_GROUP5
 70
     0
 10
0.0
 20
0.0
 30
0.0
  3
SEANNOT_GROUP5
  1

  0
LINE
  5
82
330
80
100
AcDbEntity
  8
Default
  6
CENTER2
 62
     7
100
AcDbLine
 10
336.8944411989
 20
137.35
 30
0.0
 11
296.894442093
 21
137.35
 31
0.0
  0
LINE
  5
83
330
80
100
AcDbEntity
  8
Default
  6
CENTER2
 62
     7
100
AcDbLine
 10
316.8944416459
 20
157.349999553
 30
0.0
 11
316.8944416459
 21
117.350000447
 31
0.0
  0
ENDBLK
  5
85
330
80
100
AcDbEntity
  8
0
100
AcDbBlockEnd
  0
BLOCK
  5
8E
330
8A
100
AcDbEntity
  8
0
100
AcDbBlockBegin
  2
SEANNOT_GROUP6
 70
     0
 10
0.0
 20
0.0
 30
0.0
  3
SEANNOT_GROUP6
  1

  0
LINE
  5
8C
330
8A
100
AcDbEntity
  8
Default
  6
CENTER2
 62
     7
100
AcDbLine
 10
203.8944411989
 20
473.8781040721
 30
0.0
 11
163.894442093
 21
473.8781040721
 31
0.0
  0
LINE
  5
8D
330
8A
100
AcDbEntity
  8
Default
  6
CENTER2
 62
     7
100
AcDbLine
 10
183.8944416459
 20
493.878103625
 30
0.0
 11
183.8944416459
 21
453.8781045191
 31
0.0
  0
ENDBLK
  5
8F
330
8A
100
AcDbEntity
  8
0
100
AcDbBlockEnd
  0
BLOCK
  5
94
330
90
100
AcDbEntity
  8
0
100
AcDbBlockBegin
  2
SEANNOT_GROUP7
 70
     0
 10
0.0
 20
0.0
 30
0.0
  3
SEANNOT_GROUP7
  1

  0
LINE
  5
92
330
90
100
AcDbEntity
  8
Default
  6
CENTER2
 62
     7
100
AcDbLine
 10
353.8944411989
 20
473.8781040721
 30
0.0
 11
313.894442093
 21
473.8781040721
 31
0.0
  0
LINE
  5
93
330
90
100
AcDbEntity
  8
Default
  6
CENTER2
 62
     7
100
AcDbLine
 10
333.8944416459
 20
493.878103625
 30
0.0
 11
333.8944416459
 21
453.8781045191
 31
0.0
  0
ENDBLK
  5
95
330
90
100
AcDbEntity
  8
0
100
AcDbBlockEnd
  0
BLOCK
  5
FE
330
96
100
AcDbEntity
  8
0
100
AcDbBlockBegin
  2
SE
 70
     0
 10
0.0
 20
0.0
 30
0.0
  3
SE
  1

  0
LINE
  5
99
330
96
100
AcDbEntity
  8
$DDT_AUDIT_GENERATED_(98)
  6
Continuous
 62
     7
100
AcDbLine
 10
389.3944416459
 20
511.3781040721
 30
0.0
 11
389.3944416459
 21
465.1788505819
 31
0.0
  0
LINE
  5
9A
330
96
100
AcDbEntity
  8
$DDT_AUDIT_GENERATED_(98)
  6
Continuous
 62
     7
100
AcDbLine
 10
389.3944416459
 20
465.1788505819
 30
0.0
 11
389.3944416459
 21
453.1337705047
 31
0.0
  0
LINE
  5
9B
330
96
100
AcDbEntity
  8
$DDT_AUDIT_GENERATED_(98)
  6
Continuous
 62
     7
100
AcDbLine
 10
389.3944416459
 20
453.1167334178
 30
0.0
 11
389.3944416459
 21
453.1337705047
 31
0.0
  0
LINE
  5
9C
330
96
100
AcDbEntity
  8
$DDT_AUDIT_GENERATED_(98)
  6
Continuous
 62
     7
100
AcDbLine
 10
388.8944416459
 20
511.8781040721
 30
0.0
 11
128.8944416459
 21
511.8781040721
 31
0.0
  0
LINE
  5
9D
330
96
100
AcDbEntity
  8
$DDT_AUDIT_GENERATED_(98)
  6
Continuous
 62
     7
100
AcDbLine
 10
128.3944416459
 20
453.1337705047
 30
0.0
 11
128.3944416459
 21
465.1788505105
 31
0.0
  0
LINE
  5
9E
330
96
100
AcDbEntity
  8
$DDT_AUDIT_GENERATED_(98)
  6
Continuous
 62
     7
100
AcDbLine
 10
128.3944416459
 20
453.1337705047
 30
0.0
 11
128.3944416459
 21
453.1167334178
 31
0.0
  0
LINE
  5
9F
330
96
100
AcDbEntity
  8
$DDT_AUDIT_GENERATED_(98)
  6
Continuous
 62
     7
100
AcDbLine
 10
128.3944416459
 20
465.1788505105
 30
0.0
 11
128.3944416459
 21
511.3781040721
 31
0.0
  0
ARC
  5
A0
330
96
100
AcDbEntity
  8
$DDT_AUDIT_GENERATED_(98)
  6
Continuous
 62
     7
100
AcDbCircle
 10
388.8944416459
 20
511.3781040721
 30
0.0
 40
0.5000000000000004
100
AcDbArc
 50
0.0
 51
90.0
  0
ARC
  5
A1
330
96
100
AcDbEntity
  8
$DDT_AUDIT_GENERATED_(98)
  6
Continuous
 62
     7
100
AcDbCircle
 10
128.8944416459
 20
511.3781040721
 30
0.0
 40
0.5000000000000004
100
AcDbArc
 50
90.0
 51
180.0
  0
ELLIPSE
  5
A2
330
96
100
AcDbEntity
  8
$DDT_AUDIT_GENERATED_(98)
  6
Continuous
 62
     7
100
AcDbEllipse
 10
316.8944416459
 20
461.1558313952
 30
0.0
 11
-9.250000000000009
 21
1.734723475976807E-15
 31
0.0
210
0.0
220
0.0
230
1.0
 40
0.2679491924
 41
2.908570527953058
 42
6.283185307179586
  0
ELLIPSE
  5
A3
330
96
100
AcDbEntity
  8
$DDT_AUDIT_GENERATED_(98)
  6
Continuous
 62
     7
100
AcDbEllipse
 10
316.8944416459
 20
461.1558313952
 30
0.0
 11
-9.250000000000009
 21
1.734723475976807E-15
 31
0.0
210
0.0
220
0.0
230
1.0
 40
0.2679491924
 41
0.0
 42
0.2330221256367618
  0
LINE
  5
A4
330
96
100
AcDbEntity
  8
$DDT_AUDIT_GENERATED_(98)
  6
Continuous
 62
     7
100
AcDbLine
 10
128.8944416459
 20
452.6167334178
 30
0.0
 11
306.4144416459
 21
452.6167334178
 31
0.0
  0
LINE
  5
A5
330
96
100
AcDbEntity
  8
$DDT_AUDIT_GENERATED_(98)
  6
Continuous
 62
     7
100
AcDbLine
 10
327.3744416459
 20
452.6167334178
 30
0.0
 11
388.8944416459
 21
452.6167334178
 31
0.0
  0
ARC
  5
A6
330
96
100
AcDbEntity
  8
$DDT_AUDIT_GENERATED_(98)
  6
Continuous
 62
     7
100
AcDbCircle
 10
388.8944416459
 20
453.1167334178
 30
0.0
 40
0.5000000000000004
100
AcDbArc
 50
270.0
 51
0.0
  0
ARC
  5
A7
330
96
100
AcDbEntity
  8
$DDT_AUDIT_GENERATED_(98)
  6
Continuous
 62
     7
100
AcDbCircle
 10
128.8944416459
 20
453.1167334178
 30
0.0
 40
0.5000000000000004
100
AcDbArc
 50
180.0
 51
270.0
  0
SPLINE
  5
A9
330
96
100
AcDbEntity
  8
403672038_GRIFF_
  6
Continuous
 62
     7
100
AcDbSpline
210
0.0
220
0.0
230
1.0
 70
     8
 71
     3
 72
    22
 73
    18
 74
     0
 42
0.0000000003985452
 43
0.0000000001
 40
0.3053280290749887
 40
0.3053280290749887
 40
0.3053280290749887
 40
0.3053280290749887
 40
0.3128927343692382
 40
0.3754054701616813
 40
0.4172018838628963
 40
0.4379165888113513
 40
0.4700205944148069
 40
0.5005391946207248
 40
0.5629343641629236
 40
0.6253225136517531
 40
0.687799509258543
 40
0.7501269742196249
 40
0.8125177679285059
 40
0.8749245993511596
 40
0.9372354966867126
 40
0.9662133226917919
 40
1.0
 40
1.0
 40
1.0
 40
1.0
 10
395.2448964021301
 20
511.8793540332147
 30
0.0
 10
395.2448158025093
 20
511.8796416257263
 30
0.0
 10
395.2439564638456
 20
511.8822756184659
 30
0.0
 10
395.2408380536807
 20
511.8853165613255
 30
0.0
 10
395.2478288576804
 20
511.8877971281987
 30
0.0
 10
395.2468098094949
 20
511.889138052124
 30
0.0
 10
395.3918297064473
 20
511.8900840026271
 30
0.0
 10
395.951368725037
 20
511.8910627377173
 30
0.0
 10
397.2866867677773
 20
511.8916298705292
 30
0.0
 10
399.6598817727573
 20
511.89179029172
 30
0.0
 10
402.5458991848161
 20
511.8918001786503
 30
0.0
 10
405.5944057844519
 20
511.8918013897944
 30
0.0
 10
408.4384611250891
 20
511.891784576012
 30
0.0
 10
410.7778804322699
 20
511.8916073837017
 30
0.0
 10
412.0442178389198
 20
511.8909869148629
 30
0.0
 10
412.5244094056922
 20
511.889972348108
 30
0.0
 10
412.6128531932647
 20
511.8891844180572
 30
0.0
 10
412.6604632523408
 20
511.8887602665968
 30
0.0
  0
ARC
  5
AA
330
96
100
AcDbEntity
  8
403672038_GRIFF_
  6
Continuous
 62
     7
100
AcDbCircle
 10
403.8861838327
 20
535.91360792
 30
0.0
 40
25.59018979942839
100
AcDbArc
 50
250.3381211702
 51
290.1059781231
  0
SPLINE
  5
AB
330
96
100
AcDbEntity
  8
403672038_GRIFF_
  6
Continuous
 62
     7
100
AcDbSpline
210
0.0
220
0.0
230
1.0
 70
     8
 71
     3
 72
    10
 73
     6
 74
     0
 42
0.0000000007420651
 43
0.0000000001
 40
0.0
 40
0.0
 40
0.0
 40
0.0
 40
0.0625
 40
0.0625
 40
0.1071356283710055
 40
0.1071356283710055
 40
0.1071356283710055
 40
0.1071356283710055
 10
412.3149902192101
 20
511.7495375192994
 30
0.0
 10
412.2547089116917
 20
511.7516678250802
 30
0.0
 10
412.1206721942581
 20
511.751517820729
 30
0.0
 10
411.5836987967263
 20
511.751662577867
 30
0.0
 10
411.2650757149251
 20
511.7519086705499
 30
0.0
 10
410.8712783498688
 20
511.7521556202325
 30
0.0
  0
SPLINE
  5
AC
330
96
100
AcDbEntity
  8
403672038_GRIFF_
  6
Continuous
 62
     7
100
AcDbSpline
210
0.0
220
0.0
230
1.0
 70
     8
 71
     3
 72
    14
 73
    10
 74
     0
 42
0.000000001888981
 43
0.0000000001
 40
0.4552299343835841
 40
0.4552299343835841
 40
0.4552299343835841
 40
0.4552299343835841
 40
0.4999999999999997
 40
0.4999999999999997
 40
0.5624999999999998
 40
0.5624999999999998
 40
0.6249999999999998
 40
0.6249999999999998
 40
0.7418042649305708
 40
0.7418042649305708
 40
0.7418042649305708
 40
0.7418042649305708
 10
397.0634162754031
 20
511.7522409010547
 30
0.0
 10
396.6678371719967
 20
511.7520787030631
 30
0.0
 10
396.3435512175661
 20
511.7518481118434
 30
0.0
 10
395.7716463536929
 20
511.7510588440218
 30
0.0
 10
395.6248403243957
 20
511.7507486180947
 30
0.0
 10
395.5740685653971
 20
511.7494171647627
 30
0.0
 10
395.5905872898717
 20
511.7473489303613
 30
0.0
 10
395.591319374601
 20
511.7402073217182
 30
0.0
 10
395.5904291495909
 20
511.7379698343116
 30
0.0
 10
395.5889809472504
 20
511.7376493367228
 30
0.0
  0
LINE
  5
AD
330
96
100
AcDbEntity
  8
403672038_GRIFF_
  6
Continuous
 62
     7
100
AcDbLine
 10
390.4644385069
 20
511.0916840009
 30
0.0
 11
390.4644385069
 21
506.9110270273
 31
0.0
  0
LINE
  5
AE
330
96
100
AcDbEntity
  8
403672038_GRIFF_
  6
Continuous
 62
     7
100
AcDbLine
 10
390.4644385069
 20
506.9096558157
 30
0.0
 11
390.4644385069
 21
464.6804736267
 31
0.0
  0
ARC
  5
AF
330
96
100
AcDbEntity
  8
403672038_GRIFF_
  6
Continuous
 62
     7
100
AcDbCircle
 10
391.2644385069
 20
511.0916840023
 30
0.0
 40
0.7999999999999952
100
AcDbArc
 50
90.0000000005
 51
180.0000000973
  0
LINE
  5
B0
330
96
100
AcDbEntity
  8
403672038_GRIFF_
  6
Continuous
 62
     7
100
AcDbLine
 10
417.4644416459
 20
507.3005906105
 30
0.0
 11
417.4644416459
 21
510.8033734377
 31
0.0
  0
LINE
  5
B1
330
96
100
AcDbEntity
  8
403672038_GRIFF_
  6
Continuous
 62
     7
100
AcDbLine
 10
417.4644416459
 20
507.3004275426
 30
0.0
 11
417.4644416459
 21
507.3005906105
 31
0.0
  0
LINE
  5
B2
330
96
100
AcDbEntity
  8
403672038_GRIFF_
  6
Continuous
 62
     7
100
AcDbLine
 10
417.4644416459
 20
464.8804736267
 30
0.0
 11
417.4644416459
 21
507.3004275426
 31
0.0
  0
ARC
  5
B3
330
96
100
AcDbEntity
  8
403672038_GRIFF_
  6
Continuous
 62
     7
100
AcDbCircle
 10
416.4644416459
 20
510.8916840023
 30
0.0
 40
1.00000000008732
100
AcDbArc
 50
0.0
 51
90.0000000005
  0
SPLINE
  5
B4
330
96
100
AcDbEntity
  8
403672038_GRIFF_
  6
Continuous
 62
     7
100
AcDbSpline
210
0.0
220
0.0
230
1.0
 70
     8
 71
     3
 72
    14
 73
    10
 74
     0
 42
0.0000000091859792
 43
0.0000000001
 40
0.0
 40
0.0
 40
0.0
 40
0.0
 40
0.25
 40
0.25
 40
0.5
 40
0.5
 40
0.75
 40
0.75
 40
1.0
 40
1.0
 40
1.0
 40
1.0
 10
416.4644416459462
 20
507.5667811532687
 30
0.0
 10
416.6270236324433
 20
507.5667811532687
 30
0.0
 10
416.7830567764208
 20
507.5566840394323
 30
0.0
 10
417.0452628337265
 20
507.5233893164439
 30
0.0
 10
417.150381021061
 20
507.5008100830589
 30
0.0
 10
417.3129335002374
 20
507.4500507652726
 30
0.0
 10
417.3699498611352
 20
507.4222843702664
 30
0.0
 10
417.4463634492092
 20
507.362897597811
 30
0.0
 10
417.4644416459462
 20
507.3319123386764
 30
0.0
 10
417.4644416459462
 20
507.3004275426466
 30
0.0
  0
LINE
  5
B5
330
96
100
AcDbEntity
  8
403672038_GRIFF_
  6
Continuous
 62
     7
100
AcDbLine
 10
395.2415267584
 20
511.8772228765
 30
0.0
 11
391.264438507
 21
511.8772228765
 31
0.0
  0
LINE
  5
B6
330
96
100
AcDbEntity
  8
403672038_GRIFF_
  6
Continuous
 62
     7
100
AcDbLine
 10
416.464441646
 20
511.8772228766
 30
0.0
 11
412.6762630176
 21
511.8772228766
 31
0.0
  0
ARC
  5
B7
330
96
100
AcDbEntity
  8
403672038_GRIFF_
  6
Continuous
 62
     7
100
AcDbCircle
 10
403.9313753878
 20
535.8981763175
 30
0.0
 40
25.56489767914868
100
AcDbArc
 50
250.4806256441
 51
289.4965291905
  0
LINE
  5
B8
330
96
100
AcDbEntity
  8
403672038_GRIFF_
  6
Continuous
 62
     7
100
AcDbLine
 10
391.2644385069
 20
463.8804736267
 30
0.0
 11
416.4644416459
 21
463.8804736267
 31
0.0
  0
ARC
  5
B9
330
96
100
AcDbEntity
  8
403672038_GRIFF_
  6
Continuous
 62
     7
100
AcDbCircle
 10
391.2644385069
 20
464.6804736267
 30
0.0
 40
0.7999999999999952
100
AcDbArc
 50
180.0
 51
270.0
  0
ARC
  5
BA
330
96
100
AcDbEntity
  8
403672038_GRIFF_
  6
Continuous
 62
     7
100
AcDbCircle
 10
416.4644416459
 20
510.8800738693
 30
0.0
 40
0.9999999999845763
100
AcDbArc
 50
0.0014270497
 51
89.9930736212
  0
ARC
  5
BB
330
96
100
AcDbEntity
  8
403672038_GRIFF_
  6
Continuous
 62
     7
100
AcDbCircle
 10
416.4644416462
 20
510.8857075213
 30
0.0
 40
1.000000000005475
100
AcDbArc
 50
359.5213021751
 51
20.1792951818
  0
ARC
  5
BC
330
96
100
AcDbEntity
  8
403672038_GRIFF_
  6
Continuous
 62
     7
100
AcDbCircle
 10
416.4644416462
 20
510.8857075213
 30
0.0
 40
1.000000000005475
100
AcDbArc
 50
88.5918277563
 51
89.9935716004
  0
ARC
  5
BD
330
96
100
AcDbEntity
  8
403672038_GRIFF_
  6
Continuous
 62
     7
100
AcDbCircle
 10
416.4644416459
 20
464.8804736267
 30
0.0
 40
1.000000000000001
100
AcDbArc
 50
270.0
 51
0.0
  0
SPLINE
  5
BF
330
96
100
AcDbEntity
  8
403675038_TASTE_
  6
Continuous
 62
     7
100
AcDbSpline
210
0.0
220
0.0
230
1.0
 70
     8
 71
     3
 72
    10
 73
     6
 74
     0
 42
0.0000000004220979
 43
0.0000000001
 40
0.173959434640046
 40
0.173959434640046
 40
0.173959434640046
 40
0.173959434640046
 40
0.2180624641190157
 40
0.2804579164191746
 40
0.3420401779537703
 40
0.3420401779537703
 40
0.3420401779537703
 40
0.3420401779537703
 10
410.6325117863809
 20
511.8398746350871
 30
0.0
 10
410.5724525930355
 20
511.8502504210706
 30
0.0
 10
410.2221540438704
 20
511.8724003514498
 30
0.0
 10
408.9131753737124
 20
511.8801823700081
 30
0.0
 10
407.448467717524
 20
511.8808529935407
 30
0.0
 10
406.6520919657855
 20
511.8808967936955
 30
0.0
  0
SPLINE
  5
C0
330
96
100
AcDbEntity
  8
403675038_TASTE_
  6
Continuous
 62
     7
100
AcDbSpline
210
0.0
220
0.0
230
1.0
 70
     8
 71
     3
 72
    10
 73
     6
 74
     0
 42
0.0000000004183671
 43
0.0000000001
 40
0.4722109698111933
 40
0.4722109698111933
 40
0.4722109698111933
 40
0.4722109698111933
 40
0.5302483391630152
 40
0.592638868412611
 40
0.6391674729947505
 40
0.6391674729947505
 40
0.6391674729947505
 40
0.6391674729947505
 10
401.2919511741585
 20
511.8808889944357
 30
0.0
 10
400.540683059601
 20
511.8808493022868
 30
0.0
 10
399.1072561667165
 20
511.8802309460979
 30
0.0
 10
397.7571241999019
 20
511.8734444204155
 30
0.0
 10
397.3724314389896
 20
511.8516169485511
 30
0.0
 10
397.3027113043607
 20
511.8410648169613
 30
0.0
  0
SPLINE
  5
C1
330
96
100
AcDbEntity
  8
403675038_TASTE_
  6
Continuous
 62
     7
100
AcDbSpline
210
0.0
220
0.0
230
1.0
 70
     8
 71
     3
 72
    15
 73
    11
 74
     0
 42
0.000000000340339
 43
0.0000000001
 40
0.6391674729947505
 40
0.6391674729947505
 40
0.6391674729947505
 40
0.6391674729947505
 40
0.655256902454259
 40
0.6865549832804707
 40
0.7180561236413692
 40
0.7493868762504969
 40
0.7808068041364498
 40
0.8540309046287528
 40
0.9268951826775177
 40
1.0
 40
1.0
 40
1.0
 40
1.0
 10
397.3027113043607
 20
511.8410648169613
 30
0.0
 10
397.2786023245602
 20
511.8374159265983
 30
0.0
 10
397.2409165944686
 20
511.8262366109836
 30
0.0
 10
397.3439957870236
 20
511.8066685835654
 30
0.0
 10
397.7227590374056
 20
511.7283274913701
 30
0.0
 10
398.3293279824213
 20
511.5847842179455
 30
0.0
 10
399.5137499659727
 20
511.3254431940874
 30
0.0
 10
401.6597493341102
 20
510.9560039816184
 30
0.0
 10
404.8352685062848
 20
510.8456254233647
 30
0.0
 10
406.8219534075984
 20
511.0702291016959
 30
0.0
 10
407.6677032806123
 20
511.2061947023643
 30
0.0
  0
LINE
  5
C2
330
96
100
AcDbEntity
  8
403675038_TASTE_
  6
Continuous
 62
     7
100
AcDbLine
 10
406.6511948951
 20
511.8808986433
 30
0.0
 11
401.2957074419
 21
511.8808986433
 31
0.0
  0
ARC
  5
C3
330
96
100
AcDbEntity
  8
403675038_TASTE_
  6
Continuous
 62
     7
100
AcDbCircle
 10
397.278254558
 20
511.5236460449
 30
0.0
 40
0.3143977820661558
100
AcDbArc
 50
94.5652452582
 51
172.8671266971
  0
SPLINE
  5
C4
330
96
100
AcDbEntity
  8
403675038_TASTE_
  6
Continuous
 62
     7
100
AcDbSpline
210
0.0
220
0.0
230
1.0
 70
     8
 71
     3
 72
    14
 73
    10
 74
     0
 42
0.0000000219355783
 43
0.0000000001
 40
0.0
 40
0.0
 40
0.0
 40
0.0
 40
0.0817655820288427
 40
0.2298885562285325
 40
0.3558951436798
 40
0.4764595969896152
 40
0.6135819218265184
 40
0.7915071617153856
 40
1.0
 40
1.0
 40
1.0
 40
1.0
 10
410.9584399211338
 20
511.5302243023015
 30
0.0
 10
410.9596932383886
 20
511.5531131342464
 30
0.0
 10
410.9621306687043
 20
511.6081478374355
 30
0.0
 10
410.9213503224361
 20
511.6941832247508
 30
0.0
 10
410.8615215502678
 20
511.7612739988414
 30
0.0
 10
410.8031788028853
 20
511.7996352507309
 30
0.0
 10
410.7556484949725
 20
511.8197572824802
 30
0.0
 10
410.7170646507782
 20
511.8307084570018
 30
0.0
 10
410.6978501125469
 20
511.8344450297183
 30
0.0
 10
410.6863512697727
 20
511.8362787901941
 30
0.0
  0
LINE
  5
C5
330
96
100
AcDbEntity
  8
403675038_TASTE_
  6
Continuous
 62
     7
100
AcDbLine
 10
396.9644416459
 20
511.5292722021
 30
0.0
 11
396.9644416459
 21
511.3698294852
 31
0.0
  0
LINE
  5
C7
330
96
100
AcDbEntity
  8
403074038_KAPPE_
  6
Continuous
 62
     7
100
AcDbLine
 10
390.1696773679
 20
507.9951443969
 30
0.0
 11
389.3944416459
 21
507.9816126071
 31
0.0
  0
LINE
  5
C8
330
96
100
AcDbEntity
  8
403074038_KAPPE_
  6
Continuous
 62
     7
100
AcDbLine
 10
389.3944416459
 20
467.774595537
 30
0.0
 11
390.1696773679
 21
467.7610637472
 31
0.0
  0
ARC
  5
C9
330
96
100
AcDbEntity
  8
403074038_KAPPE_
  6
Continuous
 62
     7
100
AcDbCircle
 10
390.1644416459
 20
508.2950987055
 30
0.0
 40
0.2999999999999947
100
AcDbArc
 50
271.0
 51
0.0
  0
ARC
  5
CA
330
96
100
AcDbEntity
  8
403074038_KAPPE_
  6
Continuous
 62
     7
100
AcDbCircle
 10
390.1644416459
 20
467.4611094386
 30
0.0
 40
0.2999999999999978
100
AcDbArc
 50
0.0
 51
89.0
  0
SPLINE
  5
CC
330
96
100
AcDbEntity
  8
$DDT_AUDIT_GENERATED_(CB)
  6
Continuous
 62
     7
100
AcDbSpline
210
0.0
220
0.0
230
1.0
 70
    12
 71
     3
 72
    22
 73
    18
 74
     0
 42
0.0000000003978493
 43
0.0000000001
 40
0.3049612561935293
 40
0.3049612561935293
 40
0.3049612561935293
 40
0.3049612561935293
 40
0.375
 40
0.375
 40
0.4375
 40
0.4375
 40
0.5
 40
0.5
 40
0.625
 40
0.625
 40
0.75
 40
0.75
 40
0.875
 40
0.875
 40
0.9375
 40
0.9375
 40
1.0
 40
1.0
 40
1.0
 40
1.0
 10
122.4151743275903
 20
511.8780080317352
 30
0.0
 41
1.0
 10
122.4159378676635
 20
511.8804762713071
 30
0.0
 41
1.0
 10
122.4165795099329
 20
511.8832905462293
 30
0.0
 41
1.0
 10
122.4145056053735
 20
511.886135976093
 30
0.0
 41
1.0
 10
122.4368905537175
 20
511.8871902175688
 30
0.0
 41
1.0
 10
122.3585620402755
 20
511.8888348639994
 30
0.0
 41
1.0
 10
122.1733800488425
 20
511.889427323419
 30
0.0
 41
1.0
 10
121.0798160957255
 20
511.8906357413726
 30
0.0
 41
1.0
 10
119.6656958580005
 20
511.8907672688141
 30
0.0
 41
1.0
 10
116.1634798776855
 20
511.8908806974987
 30
0.0
 41
1.0
 10
114.0546404493305
 20
511.890862149946
 30
0.0
 41
1.0
 10
110.1440606814005
 20
511.8908522866607
 30
0.0
 41
1.0
 10
108.2978336136075
 20
511.8908734609353
 30
0.0
 41
1.0
 10
106.3705071037275
 20
511.8904176983559
 30
0.0
 41
1.0
 10
105.8518246090335
 20
511.8901686073846
 30
0.0
 41
1.0
 10
105.2025076234225
 20
511.8893071239764
 30
0.0
 41
1.0
 10
105.0611465958795
 20
511.8886760455226
 30
0.0
 41
1.0
 10
104.9984200395515
 20
511.8878190948598
 30
0.0
 41
1.0
  0
ARC
  5
CD
330
96
100
AcDbEntity
  8
$DDT_AUDIT_GENERATED_(CB)
  6
Continuous
 62
     7
100
AcDbCircle
 10
113.7650030252
 20
535.995082927
 30
0.0
 40
25.67039845297543
100
AcDbArc
 50
249.9753071589
 51
289.6161616963
  0
SPLINE
  5
CE
330
96
100
AcDbEntity
  8
$DDT_AUDIT_GENERATED_(CB)
  6
Continuous
 62
     7
100
AcDbSpline
210
0.0
220
0.0
230
1.0
 70
    12
 71
     3
 72
    10
 73
     6
 74
     0
 42
0.0000000007435537
 43
0.0000000001
 40
0.0
 40
0.0
 40
0.0
 40
0.0
 40
0.0625
 40
0.0625
 40
0.1075836456774975
 40
0.1075836456774975
 40
0.1075836456774975
 40
0.1075836456774975
 10
105.3438930726822
 20
511.7485963475624
 30
0.0
 41
1.0
 10
105.4063857165445
 20
511.7486778230278
 30
0.0
 41
1.0
 10
105.5454912432695
 20
511.7488405159866
 30
0.0
 41
1.0
 10
106.0775565823421
 20
511.7512891265245
 30
0.0
 41
1.0
 10
106.3979743966548
 20
511.7517588283511
 30
0.0
 41
1.0
 10
106.7907716604164
 20
511.7518543080732
 30
0.0
 41
1.0
  0
SPLINE
  5
CF
330
96
100
AcDbEntity
  8
$DDT_AUDIT_GENERATED_(CB)
  6
Continuous
 62
     7
100
AcDbSpline
210
0.0
220
0.0
230
1.0
 70
    12
 71
     3
 72
    14
 73
    10
 74
     0
 42
0.0000000018862469
 43
0.0000000001
 40
0.4589567386112256
 40
0.4589567386112256
 40
0.4589567386112256
 40
0.4589567386112256
 40
0.5
 40
0.5
 40
0.5625
 40
0.5625
 40
0.625
 40
0.625
 40
0.7473934566697943
 40
0.7473934566697943
 40
0.7473934566697943
 40
0.7473934566697943
 10
120.5968938098405
 20
511.7510719944045
 30
0.0
 41
1.0
 10
120.9563417200867
 20
511.7508069011724
 30
0.0
 41
1.0
 10
121.256635058625
 20
511.7504278744652
 30
0.0
 41
1.0
 10
121.8353800845245
 20
511.7491558727578
 30
0.0
 41
1.0
 10
122.0140979026505
 20
511.7500927839861
 30
0.0
 41
1.0
 10
122.0906059496995
 20
511.7484939911969
 30
0.0
 41
1.0
 10
122.0682167464005
 20
511.7468070781499
 30
0.0
 41
1.0
 10
122.0704580349523
 20
511.7422115521447
 30
0.0
 41
1.0
 10
122.0679377615629
 20
511.7364196266696
 30
0.0
 41
1.0
 10
122.0681385616731
 20
511.7348911665841
 30
0.0
 41
1.0
  0
LINE
  5
D0
330
96
100
AcDbEntity
  8
$DDT_AUDIT_GENERATED_(CB)
  6
Continuous
 62
     7
100
AcDbLine
 10
127.194444785
 20
511.0907428292
 30
0.0
 11
127.194444785
 21
506.9100858556
 31
0.0
  0
LINE
  5
D1
330
96
100
AcDbEntity
  8
$DDT_AUDIT_GENERATED_(CB)
  6
Continuous
 62
     7
100
AcDbLine
 10
127.194444785
 20
506.908714644
 30
0.0
 11
127.194444785
 21
464.6795324549
 31
0.0
  0
ARC
  5
D2
330
96
100
AcDbEntity
  8
$DDT_AUDIT_GENERATED_(CB)
  6
Continuous
 62
     7
100
AcDbCircle
 10
126.394444785
 20
511.0907428306
 30
0.0
 40
0.800000000000002
100
AcDbArc
 50
0.0
 51
89.9999999995
  0
LINE
  5
D3
330
96
100
AcDbEntity
  8
$DDT_AUDIT_GENERATED_(CB)
  6
Continuous
 62
     7
100
AcDbLine
 10
100.1944416459
 20
507.2996494387
 30
0.0
 11
100.1944416459
 21
510.803590114
 31
0.0
  0
LINE
  5
D4
330
96
100
AcDbEntity
  8
$DDT_AUDIT_GENERATED_(CB)
  6
Continuous
 62
     7
100
AcDbLine
 10
100.1944416459
 20
507.2994863709
 30
0.0
 11
100.1944416459
 21
507.2996494387
 31
0.0
  0
LINE
  5
D5
330
96
100
AcDbEntity
  8
$DDT_AUDIT_GENERATED_(CB)
  6
Continuous
 62
     7
100
AcDbLine
 10
100.1944416459
 20
464.8795324549
 30
0.0
 11
100.1944416459
 21
507.2994863709
 31
0.0
  0
ARC
  5
D6
330
96
100
AcDbEntity
  8
$DDT_AUDIT_GENERATED_(CB)
  6
Continuous
 62
     7
100
AcDbCircle
 10
101.1944416459
 20
510.8907428306
 30
0.0
 40
1.000000000087299
100
AcDbArc
 50
89.9999999995
 51
180.0
  0
LINE
  5
D7
330
96
100
AcDbEntity
  8
$DDT_AUDIT_GENERATED_(CB)
  6
Continuous
 62
     7
100
AcDbLine
 10
105.0066852004
 20
511.8762817049
 30
0.0
 11
101.194441646
 21
511.8762817049
 31
0.0
  0
LINE
  5
D8
330
96
100
AcDbEntity
  8
$DDT_AUDIT_GENERATED_(CB)
  6
Continuous
 62
     7
100
AcDbLine
 10
126.3944447849
 20
511.8762817047
 30
0.0
 11
122.4173565334
 21
511.8762817048
 31
0.0
  0
ARC
  5
D9
330
96
100
AcDbEntity
  8
$DDT_AUDIT_GENERATED_(CB)
  6
Continuous
 62
     7
100
AcDbCircle
 10
113.7334859884
 20
535.7812364427
 30
0.0
 40
25.4535897098681
100
AcDbArc
 50
250.1406359756
 51
289.5939353191
  0
ARC
  5
DA
330
96
100
AcDbEntity
  8
$DDT_AUDIT_GENERATED_(CB)
  6
Continuous
 62
     7
100
AcDbCircle
 10
104.9955397273
 20
511.357750467
 30
0.0
 40
0.5214033657649644
100
AcDbArc
 50
51.7969732838
 51
64.3194933352
  0
ARC
  5
DB
330
96
100
AcDbEntity
  8
$DDT_AUDIT_GENERATED_(CB)
  6
Continuous
 62
     7
100
AcDbCircle
 10
104.9955397273
 20
511.357750467
 30
0.0
 40
0.5214033657649644
100
AcDbArc
 50
79.3336918405
 51
90.464280203
  0
LINE
  5
DC
330
96
100
AcDbEntity
  8
$DDT_AUDIT_GENERATED_(CB)
  6
Continuous
 62
     7
100
AcDbLine
 10
101.1944416459
 20
463.8795324549
 30
0.0
 11
126.394444785
 21
463.8795324549
 31
0.0
  0
ARC
  5
DD
330
96
100
AcDbEntity
  8
$DDT_AUDIT_GENERATED_(CB)
  6
Continuous
 62
     7
100
AcDbCircle
 10
126.394444785
 20
464.6795324549
 30
0.0
 40
0.7999999999999986
100
AcDbArc
 50
270.0
 51
0.0
  0
ARC
  5
DE
330
96
100
AcDbEntity
  8
$DDT_AUDIT_GENERATED_(CB)
  6
Continuous
 62
     7
100
AcDbCircle
 10
101.1944416459
 20
510.8791326976
 30
0.0
 40
1.000000000000005
100
AcDbArc
 50
90.0023370713
 51
179.9985729503
  0
ARC
  5
DF
330
96
100
AcDbEntity
  8
$DDT_AUDIT_GENERATED_(CB)
  6
Continuous
 62
     7
100
AcDbCircle
 10
101.1944416462
 20
510.8847663496
 30
0.0
 40
0.9999988482187326
100
AcDbArc
 50
89.9935716033
 51
180.4786978251
  0
ARC
  5
E0
330
96
100
AcDbEntity
  8
$DDT_AUDIT_GENERATED_(CB)
  6
Continuous
 62
     7
100
AcDbCircle
 10
101.1944416459
 20
464.8795324549
 30
0.0
 40
1.000000000000001
100
AcDbArc
 50
180.0
 51
270.0
  0
SPLINE
  5
E2
330
96
100
AcDbEntity
  8
$DDT_AUDIT_GENERATED_(E1)
  6
Continuous
 62
     7
100
AcDbSpline
210
0.0
220
0.0
230
1.0
 70
     8
 71
     3
 72
    10
 73
     6
 74
     0
 42
0.0000000004220979
 43
0.0000000001
 40
0.1739594346400459
 40
0.1739594346400459
 40
0.1739594346400459
 40
0.1739594346400459
 40
0.2180624641190157
 40
0.2804579164191746
 40
0.3420401779537703
 40
0.3420401779537703
 40
0.3420401779537703
 40
0.3420401779537703
 10
120.3625117863809
 20
511.8389334633501
 30
0.0
 10
120.3024525930355
 20
511.8493092493336
 30
0.0
 10
119.9521540438703
 20
511.8714591797128
 30
0.0
 10
118.6431753737124
 20
511.8792411982711
 30
0.0
 10
117.178467717524
 20
511.8799118218037
 30
0.0
 10
116.3820919657855
 20
511.8799556219585
 30
0.0
  0
SPLINE
  5
E3
330
96
100
AcDbEntity
  8
$DDT_AUDIT_GENERATED_(E1)
  6
Continuous
 62
     7
100
AcDbSpline
210
0.0
220
0.0
230
1.0
 70
     8
 71
     3
 72
    10
 73
     6
 74
     0
 42
0.0000000004183671
 43
0.0000000001
 40
0.4722109698111931
 40
0.4722109698111931
 40
0.4722109698111931
 40
0.4722109698111931
 40
0.5302483391630152
 40
0.592638868412611
 40
0.6391674729947506
 40
0.6391674729947506
 40
0.6391674729947506
 40
0.6391674729947506
 10
111.0219511741585
 20
511.8799478226987
 30
0.0
 10
110.270683059601
 20
511.8799081305498
 30
0.0
 10
108.8372561667166
 20
511.8792897743609
 30
0.0
 10
107.4871241999018
 20
511.8725032486785
 30
0.0
 10
107.1024314389896
 20
511.8506757768141
 30
0.0
 10
107.0327113043607
 20
511.8401236452243
 30
0.0
  0
SPLINE
  5
E4
330
96
100
AcDbEntity
  8
$DDT_AUDIT_GENERATED_(E1)
  6
Continuous
 62
     7
100
AcDbSpline
210
0.0
220
0.0
230
1.0
 70
     8
 71
     3
 72
    15
 73
    11
 74
     0
 42
0.000000000340339
 43
0.0000000001
 40
0.6391674729947506
 40
0.6391674729947506
 40
0.6391674729947506
 40
0.6391674729947506
 40
0.655256902454259
 40
0.6865549832804707
 40
0.7180561236413692
 40
0.7493868762504969
 40
0.7808068041364498
 40
0.8540309046287528
 40
0.9268951826775177
 40
1.0
 40
1.0
 40
1.0
 40
1.0
 10
107.0327113043607
 20
511.8401236452243
 30
0.0
 10
107.0086023245601
 20
511.8364747548613
 30
0.0
 10
106.9709165944686
 20
511.8252954392465
 30
0.0
 10
107.0739957870236
 20
511.8057274118284
 30
0.0
 10
107.4527590374056
 20
511.7273863196331
 30
0.0
 10
108.0593279824213
 20
511.5838430462085
 30
0.0
 10
109.2437499659728
 20
511.3245020223504
 30
0.0
 10
111.3897493341102
 20
510.9550628098814
 30
0.0
 10
114.5652685062848
 20
510.8446842516277
 30
0.0
 10
116.5519534075984
 20
511.0692879299589
 30
0.0
 10
117.3977032806123
 20
511.2052535306273
 30
0.0
  0
LINE
  5
E5
330
96
100
AcDbEntity
  8
$DDT_AUDIT_GENERATED_(E1)
  6
Continuous
 62
     7
100
AcDbLine
 10
116.3811948951
 20
511.8799574716
 30
0.0
 11
111.0257074419
 21
511.8799574716
 31
0.0
  0
ARC
  5
E6
330
96
100
AcDbEntity
  8
$DDT_AUDIT_GENERATED_(E1)
  6
Continuous
 62
     7
100
AcDbCircle
 10
107.008254558
 20
511.5227048731
 30
0.0
 40
0.3143977820662041
100
AcDbArc
 50
94.5652452582
 51
172.8671266971
  0
SPLINE
  5
E7
330
96
100
AcDbEntity
  8
$DDT_AUDIT_GENERATED_(E1)
  6
Continuous
 62
     7
100
AcDbSpline
210
0.0
220
0.0
230
1.0
 70
     8
 71
     3
 72
    14
 73
    10
 74
     0
 42
0.0000000219355783
 43
0.0000000001
 40
0.0
 40
0.0
 40
0.0
 40
0.0
 40
0.0817655820288439
 40
0.2298885562285228
 40
0.3558951436797965
 40
0.4764595969896036
 40
0.6135819218265091
 40
0.7915071617153835
 40
1.0
 40
1.0
 40
1.0
 40
1.0
 10
120.6884399211338
 20
511.5292831305645
 30
0.0
 10
120.6896932383887
 20
511.5521719625094
 30
0.0
 10
120.6921306687043
 20
511.6072066656985
 30
0.0
 10
120.6513503224363
 20
511.6932420530138
 30
0.0
 10
120.5915215502676
 20
511.7603328271044
 30
0.0
 10
120.5331788028852
 20
511.7986940789938
 30
0.0
 10
120.4856484949727
 20
511.8188161107432
 30
0.0
 10
120.4470646507781
 20
511.8297672852648
 30
0.0
 10
120.4278501125469
 20
511.8335038579813
 30
0.0
 10
120.4163512697727
 20
511.8353376184571
 30
0.0
  0
LINE
  5
E8
330
96
100
AcDbEntity
  8
$DDT_AUDIT_GENERATED_(E1)
  6
Continuous
 62
     7
100
AcDbLine
 10
120.6944416459
 20
511.3685842344
 30
0.0
 11
120.6944416459
 21
511.5292525079
 31
0.0
  0
LINE
  5
E9
330
96
100
AcDbEntity
  8
$DDT_AUDIT_GENERATED_(E1)
  6
Continuous
 62
     7
100
AcDbLine
 10
106.6944416459
 20
511.5283310303
 30
0.0
 11
106.6944416459
 21
511.372494834
 31
0.0
  0
LINE
  5
EB
330
96
100
AcDbEntity
  8
$DDT_AUDIT_GENERATED_(EA)
  6
Continuous
 62
     7
100
AcDbLine
 10
127.489205924
 20
467.7601225754
 30
0.0
 11
128.3944416459
 21
467.7759235237
 31
0.0
  0
LINE
  5
EC
330
96
100
AcDbEntity
  8
$DDT_AUDIT_GENERATED_(EA)
  6
Continuous
 62
     7
100
AcDbLine
 10
128.3944416459
 20
507.9784022769
 30
0.0
 11
127.489205924
 21
507.9942032252
 31
0.0
  0
ARC
  5
ED
330
96
100
AcDbEntity
  8
$DDT_AUDIT_GENERATED_(EA)
  6
Continuous
 62
     7
100
AcDbCircle
 10
127.4944416459
 20
467.4601682669
 30
0.0
 40
0.3000000000000017
100
AcDbArc
 50
91.0
 51
180.0
  0
ARC
  5
EE
330
96
100
AcDbEntity
  8
$DDT_AUDIT_GENERATED_(EA)
  6
Continuous
 62
     7
100
AcDbCircle
 10
127.4944416459
 20
508.2941575337
 30
0.0
 40
0.299999999999998
100
AcDbArc
 50
180.0
 51
269.0
  0
LINE
  5
F0
330
96
100
AcDbEntity
  8
$DDT_AUDIT_GENERATED_(EF)
  6
Continuous
 62
     7
100
AcDbLine
 10
307.8944416459
 20
455.2781040721
 30
0.0
 11
325.8944416459
 21
455.2781040721
 31
0.0
  0
LINE
  5
F1
330
96
100
AcDbEntity
  8
$DDT_AUDIT_GENERATED_(EF)
  6
Continuous
 62
     7
100
AcDbLine
 10
306.4144416459
 20
453.7981040721
 30
0.0
 11
327.3744416459
 21
453.7981040721
 31
0.0
  0
LINE
  5
F2
330
96
100
AcDbEntity
  8
$DDT_AUDIT_GENERATED_(EF)
  6
Continuous
 62
     7
100
AcDbLine
 10
307.6144416459
 20
446.3781040721
 30
0.0
 11
326.1744416459
 21
446.3781040721
 31
0.0
  0
LINE
  5
F3
330
96
100
AcDbEntity
  8
$DDT_AUDIT_GENERATED_(EF)
  6
Continuous
 62
     7
100
AcDbLine
 10
306.4144416459
 20
447.5781040721
 30
0.0
 11
327.3744416459
 21
447.5781040721
 31
0.0
  0
LINE
  5
F4
330
96
100
AcDbEntity
  8
$DDT_AUDIT_GENERATED_(EF)
  6
Continuous
 62
     7
100
AcDbLine
 10
306.4144416459
 20
453.7981040721
 30
0.0
 11
306.4144416459
 21
447.5781040721
 31
0.0
  0
LINE
  5
F5
330
96
100
AcDbEntity
  8
$DDT_AUDIT_GENERATED_(EF)
  6
Continuous
 62
     7
100
AcDbLine
 10
327.3744416459
 20
447.5781040721
 30
0.0
 11
327.3744416459
 21
453.7981040721
 31
0.0
  0
LINE
  5
F6
330
96
100
AcDbEntity
  8
$DDT_AUDIT_GENERATED_(EF)
  6
Continuous
 62
     7
100
AcDbLine
 10
307.8944416459
 20
461.7281711211
 30
0.0
 11
307.8944416459
 21
455.2781040721
 31
0.0
  0
LINE
  5
F7
330
96
100
AcDbEntity
  8
$DDT_AUDIT_GENERATED_(EF)
  6
Continuous
 62
     7
100
AcDbLine
 10
325.8944416459
 20
455.2781040721
 30
0.0
 11
325.8944416459
 21
461.7281711211
 31
0.0
  0
LINE
  5
F8
330
96
100
AcDbEntity
  8
$DDT_AUDIT_GENERATED_(EF)
  6
Continuous
 62
     7
100
AcDbLine
 10
327.3744416459
 20
453.7981040721
 30
0.0
 11
325.8944416459
 21
455.2781040721
 31
0.0
  0
LINE
  5
F9
330
96
100
AcDbEntity
  8
$DDT_AUDIT_GENERATED_(EF)
  6
Continuous
 62
     7
100
AcDbLine
 10
307.8944416459
 20
455.2781040721
 30
0.0
 11
306.4144416459
 21
453.7981040721
 31
0.0
  0
LINE
  5
FA
330
96
100
AcDbEntity
  8
$DDT_AUDIT_GENERATED_(EF)
  6
Continuous
 62
     7
100
AcDbLine
 10
306.4144416459
 20
447.5781040721
 30
0.0
 11
307.6144416459
 21
446.3781040721
 31
0.0
  0
LINE
  5
FB
330
96
100
AcDbEntity
  8
$DDT_AUDIT_GENERATED_(EF)
  6
Continuous
 62
     7
100
AcDbLine
 10
326.1744416459
 20
446.3781040721
 30
0.0
 11
327.3744416459
 21
447.5781040721
 31
0.0
  0
LINE
  5
FC
330
96
100
AcDbEntity
  8
$DDT_AUDIT_GENERATED_(EF)
  6
Continuous
 62
     7
100
AcDbLine
 10
326.2094416459
 20
454.9631040721
 30
0.0
 11
326.2094416459
 21
446.4131040721
 31
0.0
  0
LINE
  5
FD
330
96
100
AcDbEntity
  8
$DDT_AUDIT_GENERATED_(EF)
  6
Continuous
 62
     7
100
AcDbLine
 10
307.5794416459
 20
454.9631040721
 30
0.0
 11
307.5794416459
 21
446.4131040721
 31
0.0
  0
ENDBLK
  5
FF
330
96
100
AcDbEntity
  8
0
100
AcDbBlockEnd
  0
BLOCK
  5
15D
330
100
100
AcDbEntity
  8
0
100
AcDbBlockBegin
  2
SE1
 70
     0
 10
0.0
 20
0.0
 30
0.0
  3
SE1
  1

  0
ARC
  5
102
330
100
100
AcDbEntity
  8
$DDT_AUDIT_GENERATED_(98)
  6
Continuous
 62
     7
100
AcDbCircle
 10
606.6958438434
 20
510.8781040721
 30
0.0
 40
1.000000000000001
100
AcDbArc
 50
178.5979014363
 51
180.0
  0
LINE
  5
103
330
100
100
AcDbEntity
  8
$DDT_AUDIT_GENERATED_(98)
  6
Continuous
 62
     7
100
AcDbLine
 10
605.6958438434
 20
453.6167334178
 30
0.0
 11
605.6958438434
 21
510.8781040721
 31
0.0
  0
ARC
  5
104
330
100
100
AcDbEntity
  8
$DDT_AUDIT_GENERATED_(98)
  6
Continuous
 62
     7
100
AcDbCircle
 10
606.6958438434
 20
453.6167334178
 30
0.0
 40
0.9999999999999986
100
AcDbArc
 50
180.0
 51
285.0
  0
LINE
  5
105
330
100
100
AcDbEntity
  8
$DDT_AUDIT_GENERATED_(98)
  6
Continuous
 62
     7
100
AcDbLine
 10
651.9075137179
 20
464.6958876687
 30
0.0
 11
606.9546628885
 21
452.6508075915
 31
0.0
  0
ARC
  5
106
330
100
100
AcDbEntity
  8
$DDT_AUDIT_GENERATED_(98)
  6
Continuous
 62
     7
100
AcDbCircle
 10
645.6958438434
 20
487.8781040721
 30
0.0
 40
24.0
100
AcDbArc
 50
82.9517048283
 51
90.0
  0
ARC
  5
107
330
100
100
AcDbEntity
  8
$DDT_AUDIT_GENERATED_(98)
  6
Continuous
 62
     7
100
AcDbCircle
 10
645.6958438434
 20
487.8781040721
 30
0.0
 40
24.0
100
AcDbArc
 50
285.0000316161
 51
55.1233673701
  0
LINE
  5
108
330
100
100
AcDbEntity
  8
$DDT_AUDIT_GENERATED_(98)
  6
Continuous
 62
     7
100
AcDbLine
 10
620.6904225162
 20
511.8781040721
 30
0.0
 11
625.9468827516
 21
511.8781040721
 31
0.0
  0
LINE
  5
109
330
100
100
AcDbEntity
  8
$DDT_AUDIT_GENERATED_(98)
  6
Continuous
 62
     7
100
AcDbLine
 10
638.3176674307
 20
511.8781040721
 30
0.0
 11
645.6958438434
 21
511.8781040721
 31
0.0
  0
ARC
  5
10A
330
100
100
AcDbEntity
  8
403672038_GRIFF_
  6
Continuous
 62
     7
100
AcDbCircle
 10
625.1155827957
 20
-1993.5560804595
 30
0.0
 40
2505.46126048902
100
AcDbArc
 50
89.9893222914
 51
90.0067852511
  0
ARC
  5
10B
330
100
100
AcDbEntity
  8
403672038_GRIFF_
  6
Continuous
 62
     7
100
AcDbCircle
 10
625.1155827957
 20
-1993.5560804595
 30
0.0
 40
2505.46126048902
100
AcDbArc
 50
90.059809362
 51
90.0614106665
  0
ARC
  5
10C
330
100
100
AcDbEntity
  8
403672038_GRIFF_
  6
Continuous
 62
     7
100
AcDbCircle
 10
625.1155827957
 20
-1993.5560804595
 30
0.0
 40
2505.46126048902
100
AcDbArc
 50
90.1159883165
 51
90.1839774682
  0
SPLINE
  5
10D
330
100
100
AcDbEntity
  8
403672038_GRIFF_
  6
Continuous
 62
     7
100
AcDbSpline
210
0.0
220
0.0
230
1.0
 70
     8
 71
     3
 72
     8
 73
     4
 74
     0
 42
0.0000000021145102
 43
0.0000000001
 40
0.6979543763787888
 40
0.6979543763787888
 40
0.6979543763787888
 40
0.6979543763787888
 40
0.7488884753535708
 40
0.7488884753535708
 40
0.7488884753535708
 40
0.7488884753535708
 10
654.2121710298047
 20
510.3209670989373
 30
0.0
 10
654.3126489774512
 20
510.2830840500636
 30
0.0
 10
654.3010329661654
 20
510.2870193552271
 30
0.0
 10
654.1876959842768
 20
510.3300539199587
 30
0.0
  0
ARC
  5
10E
330
100
100
AcDbEntity
  8
403672038_GRIFF_
  6
Continuous
 62
     7
100
AcDbCircle
 10
606.695283535
 20
507.5503705859
 30
0.0
 40
1.000000000000001
100
AcDbArc
 50
180.0
 51
181.9181010429
  0
LINE
  5
10F
330
100
100
AcDbEntity
  8
403672038_GRIFF_
  6
Continuous
 62
     7
100
AcDbLine
 10
605.695283535
 20
510.8916840023
 30
0.0
 11
605.695283535
 21
507.5503705859
 31
0.0
  0
ARC
  5
110
330
100
100
AcDbEntity
  8
403672038_GRIFF_
  6
Continuous
 62
     7
100
AcDbCircle
 10
606.695283535
 20
510.8916840023
 30
0.0
 40
1.000000000000001
100
AcDbArc
 50
90.0
 51
180.0
  0
LINE
  5
111
330
100
100
AcDbEntity
  8
403672038_GRIFF_
  6
Continuous
 62
     7
100
AcDbLine
 10
613.6958438434
 20
511.8916840022
 30
0.0
 11
606.695283535
 21
511.8916840023
 31
0.0
  0
SPLINE
  5
112
330
100
100
AcDbEntity
  8
403672038_GRIFF_
  6
Continuous
 62
     7
100
AcDbSpline
210
0.0
220
0.0
230
1.0
 70
     8
 71
     3
 72
     8
 73
     4
 74
     0
 42
0.0000000002155199
 43
0.0000000001
 40
0.9691928435641042
 40
0.9691928435641042
 40
0.9691928435641042
 40
0.9691928435641042
 40
1.0
 40
1.0
 40
1.0
 40
1.0
 10
615.1252780236078
 20
511.8914454976434
 30
0.0
 10
614.6488028677303
 20
511.8916254657122
 30
0.0
 10
614.1723250372502
 20
511.8917105756005
 30
0.0
 10
613.6958438433671
 20
511.8916840021769
 30
0.0
  0
ARC
  5
113
330
100
100
AcDbEntity
  8
$DDT_AUDIT_GENERATED_(CB)
  6
Continuous
 62
     7
100
AcDbCircle
 10
625.7566647637
 20
-1746.7823100696
 30
0.0
 40
2258.690431166353
100
AcDbArc
 50
90.1230612371
 51
90.132744254
  0
SPLINE
  5
114
330
100
100
AcDbEntity
  8
$DDT_AUDIT_GENERATED_(CB)
  6
Continuous
 62
     7
100
AcDbSpline
210
0.0
220
0.0
230
1.0
 70
    12
 71
     3
 72
    12
 73
     8
 74
     0
 42
0.0000000002146626
 43
0.0000000001
 40
0.0
 40
0.0
 40
0.0
 40
0.0
 40
0.0625
 40
0.0625
 40
0.125
 40
0.125
 40
0.1384127829023608
 40
0.1384127829023608
 40
0.1384127829023608
 40
0.1384127829023608
 10
625.583290174137
 20
511.8878190948598
 30
0.0
 41
1.0
 10
626.551876189706
 20
511.886984678634
 30
0.0
 41
1.0
 10
627.5226796606129
 20
511.8859280438471
 30
0.0
 41
1.0
 10
629.4645055571973
 20
511.8832619668271
 30
0.0
 41
1.0
 10
630.4354049583052
 20
511.8816529973105
 30
0.0
 41
1.0
 10
631.6145994328366
 20
511.8792970671462
 30
0.0
 41
1.0
 10
631.822915628111
 20
511.8788909927194
 30
0.0
 41
1.0
 10
632.0312058116815
 20
511.8785019836628
 30
0.0
 41
1.0
  0
SPLINE
  5
115
330
100
100
AcDbEntity
  8
$DDT_AUDIT_GENERATED_(CB)
  6
Continuous
 62
     7
100
AcDbSpline
210
0.0
220
0.0
230
1.0
 70
    12
 71
     3
 72
    10
 73
     6
 74
     0
 42
0.0000000002144897
 43
0.0000000001
 40
0.4374709042627989
 40
0.4374709042627989
 40
0.4374709042627989
 40
0.4374709042627989
 40
0.4375
 40
0.4375
 40
0.4675010276061453
 40
0.4675010276061453
 40
0.4675010276061453
 40
0.4675010276061453
 10
645.9715209958975
 20
511.8225074074222
 30
0.0
 41
1.0
 10
645.9719737904887
 20
511.8224974378413
 30
0.0
 41
1.0
 10
645.9724265851124
 20
511.8224874665843
 30
0.0
 41
1.0
 10
646.4397623765963
 20
511.8121942605432
 30
0.0
 41
1.0
 10
646.9083182493257
 20
511.8044993769685
 30
0.0
 41
1.0
 10
647.3708440569626
 20
511.7814678231606
 30
0.0
 41
1.0
  0
SPLINE
  5
116
330
100
100
AcDbEntity
  8
$DDT_AUDIT_GENERATED_(CB)
  6
Continuous
 62
     7
100
AcDbSpline
210
0.0
220
0.0
230
1.0
 70
    12
 71
     3
 72
    10
 73
     6
 74
     0
 42
0.000000000866109
 43
0.0000000001
 40
0.6832466186907894
 40
0.6832466186907894
 40
0.6832466186907894
 40
0.6832466186907894
 40
0.75
 40
0.75
 40
0.8218168704437436
 40
0.8218168704437436
 40
0.8218168704437436
 40
0.8218168704437436
 10
654.0763689063288
 20
510.3760881131538
 30
0.0
 41
1.0
 10
654.2938876883939
 20
510.2953295257637
 30
0.0
 41
1.0
 10
654.3382161014173
 20
510.2722080394961
 30
0.0
 41
1.0
 10
654.0273872025281
 20
510.3903061431967
 30
0.0
 41
1.0
 10
653.6530799082034
 20
510.5360833536961
 30
0.0
 41
1.0
 10
653.0977018888608
 20
510.7156749664551
 30
0.0
 41
1.0
  0
SPLINE
  5
117
330
100
100
AcDbEntity
  8
$DDT_AUDIT_GENERATED_(CB)
  6
Continuous
 62
     7
100
AcDbSpline
210
0.0
220
0.0
230
1.0
 70
     8
 71
     3
 72
     8
 73
     4
 74
     0
 42
0.0000000002106571
 43
0.0000000001
 40
0.000002350381656
 40
0.000002350381656
 40
0.000002350381656
 40
0.000002350381656
 40
0.0851819741975497
 40
0.0851819741975497
 40
0.0851819741975497
 40
0.0851819741975497
 10
659.4194305597968
 20
507.5666329894675
 30
0.0
 10
658.3080031388462
 20
508.3354664804571
 30
0.0
 10
657.1404867756779
 20
509.0128549481764
 30
0.0
 10
655.9275288179697
 20
509.5877248220009
 30
0.0
  0
ARC
  5
118
330
100
100
AcDbEntity
  8
$DDT_AUDIT_GENERATED_(CB)
  6
Continuous
 62
     7
100
AcDbCircle
 10
645.6945240356
 20
487.878573037
 30
0.0
 40
23.99904058203987
100
AcDbArc
 50
179.700914941
 51
55.1184010067
  0
LINE
  5
119
330
100
100
AcDbEntity
  8
$DDT_AUDIT_GENERATED_(CB)
  6
Continuous
 62
     7
100
AcDbLine
 10
621.695810423
 20
488.0038479164
 30
0.0
 11
621.7301316921
 21
491.2306899782
 31
0.0
  0
LINE
  5
11A
330
100
100
AcDbEntity
  8
$DDT_AUDIT_GENERATED_(CB)
  6
Continuous
 62
     7
100
AcDbLine
 10
659.4200796323
 20
507.5671679762
 30
0.0
 11
659.4191540529
 21
507.5658399815
 31
0.0
  0
SPLINE
  5
11B
330
100
100
AcDbEntity
  8
$DDT_AUDIT_GENERATED_(CB)
  6
Continuous
 62
     7
100
AcDbSpline
210
0.0
220
0.0
230
1.0
 70
     8
 71
     3
 72
    22
 73
    18
 74
     0
 42
0.0000000004115571
 43
0.0000000001
 40
0.0
 40
0.0
 40
0.0
 40
0.0
 40
0.0625000000000001
 40
0.0625000000000001
 40
0.1250000000000001
 40
0.1250000000000001
 40
0.2500000000000003
 40
0.2500000000000003
 40
0.3750000000000004
 40
0.3750000000000004
 40
0.5000000000000006
 40
0.5000000000000006
 40
0.6250000000000007
 40
0.6250000000000007
 40
0.7500000000000007
 40
0.7500000000000007
 40
1.0
 40
1.0
 40
1.0
 40
1.0
 10
621.7301316921242
 20
491.2306899781569
 30
0.0
 10
621.741474810828
 20
491.7386880674976
 30
0.0
 10
621.752431908248
 20
492.2466933178521
 30
0.0
 10
621.7689455299043
 20
493.2628040036569
 30
0.0
 10
621.782320601346
 20
493.7722493010393
 30
0.0
 10
621.7066540440233
 20
495.2837451662672
 30
0.0
 10
621.5228187046387
 20
496.272987946798
 30
0.0
 10
620.887287936293
 20
498.2131231640425
 30
0.0
 10
620.4484540804949
 20
499.1165763456716
 30
0.0
 10
619.3382885873286
 20
500.7955575250352
 30
0.0
 10
618.6592866025139
 20
501.572564624774
 30
0.0
 10
617.1424677673082
 20
502.89556849591
 30
0.0
 10
616.2798479485134
 20
503.455166023966
 30
0.0
 10
614.4743655887783
 20
504.3605779074427
 30
0.0
 10
613.533094863687
 20
504.7157330581414
 30
0.0
 10
610.6540910799278
 20
505.6414619772661
 30
0.0
 10
608.6715570328944
 20
506.0838129852017
 30
0.0
 10
606.6968031715724
 20
506.5246519384517
 30
0.0
  0
SPLINE
  5
11C
330
100
100
AcDbEntity
  8
$DDT_AUDIT_GENERATED_(CB)
  6
Continuous
 62
     7
100
AcDbSpline
210
0.0
220
0.0
230
1.0
 70
     8
 71
     3
 72
    18
 73
    14
 74
     0
 42
0.0000000002144267
 43
0.0000000001
 40
0.0
 40
0.0
 40
0.0
 40
0.0
 40
0.5
 40
0.5
 40
0.625
 40
0.625
 40
0.6875
 40
0.6875
 40
0.75
 40
0.75
 40
0.875
 40
0.875
 40
1.0
 40
1.0
 40
1.0
 40
1.0
 10
613.6966335802246
 20
511.8907428306416
 30
0.0
 10
621.4702280806679
 20
511.8911763651172
 30
0.0
 10
629.2437452920913
 20
511.8621755029745
 30
0.0
 10
638.9608446149109
 20
511.8793600052027
 30
0.0
 10
640.9042669676971
 20
511.8835235103026
 30
0.0
 10
643.8192987682197
 20
511.8600622111916
 30
0.0
 10
644.7911085420619
 20
511.84728701312
 30
0.0
 10
646.7340445253351
 20
511.8066928963991
 30
0.0
 10
647.7051069188057
 20
511.783968494704
 30
0.0
 10
650.5761900196362
 20
511.4638191578278
 30
0.0
 10
652.4571132672505
 20
510.9950766847882
 30
0.0
 10
656.1011096846296
 20
509.5938764466256
 30
0.0
 10
657.8116802769911
 20
508.6788356655832
 30
0.0
 10
659.420079632334
 20
507.5671679762248
 30
0.0
  0
LINE
  5
11D
330
100
100
AcDbEntity
  8
$DDT_AUDIT_GENERATED_(CB)
  6
Continuous
 62
     7
100
AcDbLine
 10
606.6968031716
 20
506.5246519385
 30
0.0
 11
606.4781987342
 21
506.5734526286
 31
0.0
  0
LINE
  5
11E
330
100
100
AcDbEntity
  8
$DDT_AUDIT_GENERATED_(CB)
  6
Continuous
 62
     7
100
AcDbLine
 10
606.6960732718
 20
511.8907428306
 30
0.0
 11
613.6966335802
 21
511.8907428306
 31
0.0
  0
ARC
  5
11F
330
100
100
AcDbEntity
  8
$DDT_AUDIT_GENERATED_(CB)
  6
Continuous
 62
     7
100
AcDbCircle
 10
606.6960732718
 20
507.5494294141
 30
0.0
 40
0.9999999999999989
100
AcDbArc
 50
180.0
 51
257.4157750306
  0
ARC
  5
120
330
100
100
AcDbEntity
  8
$DDT_AUDIT_GENERATED_(CB)
  6
Continuous
 62
     7
100
AcDbCircle
 10
606.6960732718
 20
510.8907428306
 30
0.0
 40
1.000000000000001
100
AcDbArc
 50
90.0
 51
180.0
  0
LINE
  5
121
330
100
100
AcDbEntity
  8
$DDT_AUDIT_GENERATED_(CB)
  6
Continuous
 62
     7
100
AcDbLine
 10
605.6960732718
 20
507.5494294141
 30
0.0
 11
605.6960732718
 21
510.8907428306
 31
0.0
  0
CIRCLE
  5
122
330
100
100
AcDbEntity
  8
$DDT_AUDIT_GENERATED_(CB)
  6
Continuous
 62
     7
100
AcDbCircle
 10
645.6966335802
 20
487.8771629003
 30
0.0
 40
22.5
  0
LINE
  5
123
330
100
100
AcDbEntity
  8
$DDT_AUDIT_GENERATED_(CB)
  6
Continuous
 62
     7
100
AcDbLine
 10
637.1789986
 20
508.7026255445
 30
0.0
 11
637.7222931275
 21
508.7026255445
 31
0.0
  0
LINE
  5
124
330
100
100
AcDbEntity
  8
$DDT_AUDIT_GENERATED_(CB)
  6
Continuous
 62
     7
100
AcDbLine
 10
638.3015338513
 20
509.1271629003
 30
0.0
 11
638.9344224034
 21
509.1271629003
 31
0.0
  0
LINE
  5
125
330
100
100
AcDbEntity
  8
$DDT_AUDIT_GENERATED_(CB)
  6
Continuous
 62
     7
100
AcDbLine
 10
630.4110055073
 20
504.1141445908
 30
0.0
 11
630.1619088446
 21
504.1535976263
 31
0.0
  0
LINE
  5
126
330
100
100
AcDbEntity
  8
$DDT_AUDIT_GENERATED_(E1)
  6
Continuous
 62
     7
100
AcDbLine
 10
637.1170065487
 20
508.6771629003
 30
0.0
 11
637.6561112091
 21
508.6771629003
 31
0.0
  0
LINE
  5
127
330
100
100
AcDbEntity
  8
$DDT_AUDIT_GENERATED_(E1)
  6
Continuous
 62
     7
100
AcDbLine
 10
630.9572306072
 20
504.8771629003
 30
0.0
 11
631.2643780392
 21
504.8771629003
 31
0.0
  0
LINE
  5
128
330
100
100
AcDbEntity
  8
$DDT_AUDIT_GENERATED_(E1)
  6
Continuous
 62
     7
100
AcDbLine
 10
632.8903851054
 20
506.3771629003
 30
0.0
 11
633.2451276472
 21
506.3771629003
 31
0.0
  0
ARC
  5
12A
330
100
100
AcDbEntity
  8
$DDT_AUDIT_GENERATED_(129)
  6
Continuous
 62
     7
100
AcDbCircle
 10
645.6966335802
 20
487.8771629003
 30
0.0
 40
22.29999999999999
100
AcDbArc
 50
236.8678986682
 51
223.132101436
  0
ARC
  5
12B
330
100
100
AcDbEntity
  8
$DDT_AUDIT_GENERATED_(129)
  6
Continuous
 62
     7
100
AcDbCircle
 10
633.6174094582
 20
469.3703440324
 30
0.0
 40
0.1999999999999988
100
AcDbArc
 50
230.000000052
 51
236.8678986682
  0
LINE
  5
12C
330
100
100
AcDbEntity
  8
$DDT_AUDIT_GENERATED_(129)
  6
Continuous
 62
     7
100
AcDbLine
 10
629.4399526376
 20
472.6145650457
 30
0.0
 11
633.4888519364
 21
469.2171351436
 31
0.0
  0
ARC
  5
12D
330
100
100
AcDbEntity
  8
$DDT_AUDIT_GENERATED_(129)
  6
Continuous
 62
     7
100
AcDbCircle
 10
629.5685101594
 20
472.7677739345
 30
0.0
 40
0.1999999999999898
100
AcDbArc
 50
223.132101436
 51
230.0000000521
  0
LINE
  5
12F
330
100
100
AcDbEntity
  8
$DDT_AUDIT_GENERATED_(12E)
  6
Continuous
 62
     7
100
AcDbLine
 10
604.8958438434
 20
459.3781040721
 30
0.0
 11
604.8958438434
 21
488.3781040721
 31
0.0
  0
LINE
  5
130
330
100
100
AcDbEntity
  8
$DDT_AUDIT_GENERATED_(12E)
  6
Continuous
 62
     7
100
AcDbLine
 10
587.8958438434
 20
459.3781040721
 30
0.0
 11
587.8958438434
 21
488.3781040721
 31
0.0
  0
LINE
  5
131
330
100
100
AcDbEntity
  8
$DDT_AUDIT_GENERATED_(12E)
  6
Continuous
 62
     7
100
AcDbLine
 10
591.3958438434
 20
488.8781040721
 30
0.0
 11
591.3958438434
 21
486.7907628457
 31
0.0
  0
LINE
  5
132
330
100
100
AcDbEntity
  8
$DDT_AUDIT_GENERATED_(12E)
  6
Continuous
 62
     7
100
AcDbLine
 10
591.3958438434
 20
475.9654452984
 30
0.0
 11
591.3958438434
 21
471.7907628457
 31
0.0
  0
LINE
  5
133
330
100
100
AcDbEntity
  8
$DDT_AUDIT_GENERATED_(12E)
  6
Continuous
 62
     7
100
AcDbLine
 10
591.3958438434
 20
460.9654452984
 30
0.0
 11
591.3958438434
 21
458.8781040721
 31
0.0
  0
LINE
  5
134
330
100
100
AcDbEntity
  8
$DDT_AUDIT_GENERATED_(12E)
  6
Continuous
 62
     7
100
AcDbLine
 10
591.3958438434
 20
458.8781040721
 30
0.0
 11
588.6001151143
 21
458.8781040721
 31
0.0
  0
ARC
  5
135
330
100
100
AcDbEntity
  8
$DDT_AUDIT_GENERATED_(12E)
  6
Continuous
 62
     7
100
AcDbCircle
 10
595.1744033625
 20
466.3781040721
 30
0.0
 40
6.601089837288616
100
AcDbArc
 50
124.9187681796
 51
235.0812318204
  0
ARC
  5
136
330
100
100
AcDbEntity
  8
$DDT_AUDIT_GENERATED_(12E)
  6
Continuous
 62
     7
100
AcDbCircle
 10
595.1744033625
 20
481.3781040721
 30
0.0
 40
6.601089837288619
100
AcDbArc
 50
124.9187681796
 51
235.0812318204
  0
LINE
  5
137
330
100
100
AcDbEntity
  8
$DDT_AUDIT_GENERATED_(12E)
  6
Continuous
 62
     7
100
AcDbLine
 10
591.3958438434
 20
488.8781040721
 30
0.0
 11
588.6001151143
 21
488.8781040721
 31
0.0
  0
LINE
  5
138
330
100
100
AcDbEntity
  8
$DDT_AUDIT_GENERATED_(12E)
  6
Continuous
 62
     7
100
AcDbLine
 10
601.3958438434
 20
488.8781040721
 30
0.0
 11
601.3958438434
 21
486.7907628457
 31
0.0
  0
LINE
  5
139
330
100
100
AcDbEntity
  8
$DDT_AUDIT_GENERATED_(12E)
  6
Continuous
 62
     7
100
AcDbLine
 10
601.3958438434
 20
475.9654452984
 30
0.0
 11
601.3958438434
 21
471.7907628457
 31
0.0
  0
LINE
  5
13A
330
100
100
AcDbEntity
  8
$DDT_AUDIT_GENERATED_(12E)
  6
Continuous
 62
     7
100
AcDbLine
 10
601.3958438434
 20
460.9654452984
 30
0.0
 11
601.3958438434
 21
458.8781040721
 31
0.0
  0
LINE
  5
13B
330
100
100
AcDbEntity
  8
$DDT_AUDIT_GENERATED_(12E)
  6
Continuous
 62
     7
100
AcDbLine
 10
604.1915725725
 20
488.8781040721
 30
0.0
 11
601.3958438434
 21
488.8781040721
 31
0.0
  0
LINE
  5
13C
330
100
100
AcDbEntity
  8
$DDT_AUDIT_GENERATED_(12E)
  6
Continuous
 62
     7
100
AcDbLine
 10
601.3958438434
 20
488.8781040721
 30
0.0
 11
591.3958438434
 21
488.8781040721
 31
0.0
  0
LINE
  5
13D
330
100
100
AcDbEntity
  8
$DDT_AUDIT_GENERATED_(12E)
  6
Continuous
 62
     7
100
AcDbLine
 10
591.3958438434
 20
486.7907628457
 30
0.0
 11
601.3958438434
 21
486.7907628457
 31
0.0
  0
ARC
  5
13E
330
100
100
AcDbEntity
  8
$DDT_AUDIT_GENERATED_(12E)
  6
Continuous
 62
     7
100
AcDbCircle
 10
597.6172843242
 20
481.3781040721
 30
0.0
 40
6.601089837288606
100
AcDbArc
 50
304.9187681795
 51
55.0812318205
  0
LINE
  5
13F
330
100
100
AcDbEntity
  8
$DDT_AUDIT_GENERATED_(12E)
  6
Continuous
 62
     7
100
AcDbLine
 10
601.3958438434
 20
475.9654452984
 30
0.0
 11
591.3958438434
 21
475.9654452984
 31
0.0
  0
LINE
  5
140
330
100
100
AcDbEntity
  8
$DDT_AUDIT_GENERATED_(12E)
  6
Continuous
 62
     7
100
AcDbLine
 10
591.3958438434
 20
471.7907628457
 30
0.0
 11
601.3958438434
 21
471.7907628457
 31
0.0
  0
ARC
  5
141
330
100
100
AcDbEntity
  8
$DDT_AUDIT_GENERATED_(12E)
  6
Continuous
 62
     7
100
AcDbCircle
 10
597.6172843242
 20
466.3781040721
 30
0.0
 40
6.601089837288612
100
AcDbArc
 50
304.9187681795
 51
55.0812318205
  0
LINE
  5
142
330
100
100
AcDbEntity
  8
$DDT_AUDIT_GENERATED_(12E)
  6
Continuous
 62
     7
100
AcDbLine
 10
601.3958438434
 20
460.9654452984
 30
0.0
 11
591.3958438434
 21
460.9654452984
 31
0.0
  0
LINE
  5
143
330
100
100
AcDbEntity
  8
$DDT_AUDIT_GENERATED_(12E)
  6
Continuous
 62
     7
100
AcDbLine
 10
591.3958438434
 20
458.8781040721
 30
0.0
 11
601.3958438434
 21
458.8781040721
 31
0.0
  0
LINE
  5
144
330
100
100
AcDbEntity
  8
$DDT_AUDIT_GENERATED_(12E)
  6
Continuous
 62
     7
100
AcDbLine
 10
601.3958438434
 20
458.8781040721
 30
0.0
 11
604.1915725725
 21
458.8781040721
 31
0.0
  0
ARC
  5
145
330
100
100
AcDbEntity
  8
$DDT_AUDIT_GENERATED_(12E)
  6
Continuous
 62
     7
100
AcDbCircle
 10
598.7601426452
 20
480.4817016756
 30
0.0
 40
9.999999999999998
100
AcDbArc
 50
52.1519040322
 51
57.1027460523
  0
ARC
  5
146
330
100
100
AcDbEntity
  8
$DDT_AUDIT_GENERATED_(12E)
  6
Continuous
 62
     7
100
AcDbCircle
 10
598.7601426452
 20
467.2745064685
 30
0.0
 40
9.999999999999998
100
AcDbArc
 50
302.897202981
 51
307.8480959678
  0
ARC
  5
147
330
100
100
AcDbEntity
  8
$DDT_AUDIT_GENERATED_(12E)
  6
Continuous
 62
     7
100
AcDbCircle
 10
594.0315450416
 20
480.4817016756
 30
0.0
 40
9.999999999999996
100
AcDbArc
 50
122.897202981
 51
127.8480959678
  0
ARC
  5
148
330
100
100
AcDbEntity
  8
$DDT_AUDIT_GENERATED_(12E)
  6
Continuous
 62
     7
100
AcDbCircle
 10
594.0315450416
 20
467.2745064685
 30
0.0
 40
9.999999999999998
100
AcDbArc
 50
232.1519040322
 51
237.1027460523
  0
LINE
  5
149
330
100
100
AcDbEntity
  8
$DDT_AUDIT_GENERATED_(EF)
  6
Continuous
 62
     7
100
AcDbLine
 10
629.6958438434
 20
455.2781040721
 30
0.0
 11
647.6958438434
 21
455.2781040721
 31
0.0
  0
LINE
  5
14A
330
100
100
AcDbEntity
  8
$DDT_AUDIT_GENERATED_(EF)
  6
Continuous
 62
     7
100
AcDbLine
 10
649.1758438434
 20
453.7981040721
 30
0.0
 11
628.2158438434
 21
453.7981040721
 31
0.0
  0
LINE
  5
14B
330
100
100
AcDbEntity
  8
$DDT_AUDIT_GENERATED_(EF)
  6
Continuous
 62
     7
100
AcDbLine
 10
647.9758438434
 20
446.3781040721
 30
0.0
 11
629.4158438434
 21
446.3781040721
 31
0.0
  0
LINE
  5
14C
330
100
100
AcDbEntity
  8
$DDT_AUDIT_GENERATED_(EF)
  6
Continuous
 62
     7
100
AcDbLine
 10
649.1758438434
 20
447.5781040721
 30
0.0
 11
628.2158438434
 21
447.5781040721
 31
0.0
  0
LINE
  5
14D
330
100
100
AcDbEntity
  8
$DDT_AUDIT_GENERATED_(EF)
  6
Continuous
 62
     7
100
AcDbLine
 10
628.2158438434
 20
453.7981040721
 30
0.0
 11
628.2158438434
 21
447.5781040721
 31
0.0
  0
LINE
  5
14E
330
100
100
AcDbEntity
  8
$DDT_AUDIT_GENERATED_(EF)
  6
Continuous
 62
     7
100
AcDbLine
 10
649.1758438434
 20
447.5781040721
 30
0.0
 11
649.1758438434
 21
453.7981040721
 31
0.0
  0
LINE
  5
14F
330
100
100
AcDbEntity
  8
$DDT_AUDIT_GENERATED_(EF)
  6
Continuous
 62
     7
100
AcDbLine
 10
629.6958438434
 20
458.7442886633
 30
0.0
 11
629.6958438434
 21
455.2781040721
 31
0.0
  0
LINE
  5
150
330
100
100
AcDbEntity
  8
$DDT_AUDIT_GENERATED_(EF)
  6
Continuous
 62
     7
100
AcDbLine
 10
647.6958438434
 20
455.2781040721
 30
0.0
 11
647.6958438434
 21
463.5673741271
 31
0.0
  0
LINE
  5
151
330
100
100
AcDbEntity
  8
$DDT_AUDIT_GENERATED_(EF)
  6
Continuous
 62
     7
100
AcDbLine
 10
649.1758438434
 20
453.7981040721
 30
0.0
 11
647.6958438434
 21
455.2781040721
 31
0.0
  0
LINE
  5
152
330
100
100
AcDbEntity
  8
$DDT_AUDIT_GENERATED_(EF)
  6
Continuous
 62
     7
100
AcDbLine
 10
629.6958438434
 20
455.2781040721
 30
0.0
 11
628.2158438434
 21
453.7981040721
 31
0.0
  0
LINE
  5
153
330
100
100
AcDbEntity
  8
$DDT_AUDIT_GENERATED_(EF)
  6
Continuous
 62
     7
100
AcDbLine
 10
628.2158438434
 20
447.5781040721
 30
0.0
 11
629.4158438434
 21
446.3781040721
 31
0.0
  0
LINE
  5
154
330
100
100
AcDbEntity
  8
$DDT_AUDIT_GENERATED_(EF)
  6
Continuous
 62
     7
100
AcDbLine
 10
647.9758438434
 20
446.3781040721
 30
0.0
 11
649.1758438434
 21
447.5781040721
 31
0.0
  0
LINE
  5
155
330
100
100
AcDbEntity
  8
$DDT_AUDIT_GENERATED_(EF)
  6
Continuous
 62
     7
100
AcDbLine
 10
648.0108438434
 20
454.9631040721
 30
0.0
 11
648.0108438434
 21
446.4131040721
 31
0.0
  0
LINE
  5
156
330
100
100
AcDbEntity
  8
$DDT_AUDIT_GENERATED_(EF)
  6
Continuous
 62
     7
100
AcDbLine
 10
629.3808438434
 20
454.9631040721
 30
0.0
 11
629.3808438434
 21
446.4131040721
 31
0.0
  0
LINE
  5
158
330
100
100
AcDbEntity
  8
$DDT_AUDIT_GENERATED_(157)
  6
Continuous
 62
     7
100
AcDbLine
 10
604.9958438434
 20
463.4281040721
 30
0.0
 11
604.9958438434
 21
484.3281040721
 31
0.0
  0
LINE
  5
159
330
100
100
AcDbEntity
  8
$DDT_AUDIT_GENERATED_(157)
  6
Continuous
 62
     7
100
AcDbLine
 10
605.6958438434
 20
484.3281040721
 30
0.0
 11
604.9958438434
 21
484.3281040721
 31
0.0
  0
LINE
  5
15A
330
100
100
AcDbEntity
  8
$DDT_AUDIT_GENERATED_(157)
  6
Continuous
 62
     7
100
AcDbLine
 10
604.9958438434
 20
463.4281040721
 30
0.0
 11
605.6958438434
 21
463.4281040721
 31
0.0
  0
LINE
  5
15B
330
100
100
AcDbEntity
  8
$DDT_AUDIT_GENERATED_(157)
  6
Continuous
 62
     7
100
AcDbLine
 10
604.9958438434
 20
484.3281040721
 30
0.0
 11
604.8958438434
 21
484.2446536972
 31
0.0
  0
LINE
  5
15C
330
100
100
AcDbEntity
  8
$DDT_AUDIT_GENERATED_(157)
  6
Continuous
 62
     7
100
AcDbLine
 10
604.8958438434
 20
463.5115544469
 30
0.0
 11
604.9958438434
 21
463.4281040721
 31
0.0
  0
ENDBLK
  5
15E
330
100
100
AcDbEntity
  8
0
100
AcDbBlockEnd
  0
BLOCK
  5
1F2
330
15F
100
AcDbEntity
  8
0
100
AcDbBlockBegin
  2
SE2
 70
     0
 10
0.0
 20
0.0
 30
0.0
  3
SE2
  1

  0
LINE
  5
161
330
15F
100
AcDbEntity
  8
$DDT_AUDIT_GENERATED_(98)
  6
Continuous
 62
     7
100
AcDbLine
 10
389.3944416459
 20
169.35
 30
0.0
 11
389.3944416459
 21
130.35
 31
0.0
  0
LINE
  5
162
330
15F
100
AcDbEntity
  8
$DDT_AUDIT_GENERATED_(98)
  6
Continuous
 62
     7
100
AcDbLine
 10
389.3944416459
 20
130.35
 30
0.0
 11
389.3944416459
 21
106.85
 31
0.0
  0
LINE
  5
163
330
15F
100
AcDbEntity
  8
$DDT_AUDIT_GENERATED_(98)
  6
Continuous
 62
     7
100
AcDbLine
 10
389.3944416459
 20
169.85
 30
0.0
 11
389.3944416459
 21
169.35
 31
0.0
  0
LINE
  5
164
330
15F
100
AcDbEntity
  8
$DDT_AUDIT_GENERATED_(98)
  6
Continuous
 62
     7
100
AcDbLine
 10
128.8944416459
 20
170.35
 30
0.0
 11
388.8944416459
 21
170.35
 31
0.0
  0
LINE
  5
165
330
15F
100
AcDbEntity
  8
$DDT_AUDIT_GENERATED_(98)
  6
Continuous
 62
     7
100
AcDbLine
 10
388.8944416459
 20
130.35
 30
0.0
 11
128.8944416459
 21
130.35
 31
0.0
  0
LINE
  5
166
330
15F
100
AcDbEntity
  8
$DDT_AUDIT_GENERATED_(98)
  6
Continuous
 62
     7
100
AcDbLine
 10
128.3944416459
 20
169.35
 30
0.0
 11
128.3944416459
 21
169.85
 31
0.0
  0
LINE
  5
167
330
15F
100
AcDbEntity
  8
$DDT_AUDIT_GENERATED_(98)
  6
Continuous
 62
     7
100
AcDbLine
 10
128.3944416459
 20
130.35
 30
0.0
 11
128.3944416459
 21
169.35
 31
0.0
  0
LINE
  5
168
330
15F
100
AcDbEntity
  8
$DDT_AUDIT_GENERATED_(98)
  6
Continuous
 62
     7
100
AcDbLine
 10
128.3944416459
 20
106.85
 30
0.0
 11
128.3944416459
 21
130.35
 31
0.0
  0
ARC
  5
169
330
15F
100
AcDbEntity
  8
$DDT_AUDIT_GENERATED_(98)
  6
Continuous
 62
     7
100
AcDbCircle
 10
388.8944416459
 20
169.85
 30
0.0
 40
0.5000000000000004
100
AcDbArc
 50
0.0
 51
90.0
  0
ARC
  5
16A
330
15F
100
AcDbEntity
  8
$DDT_AUDIT_GENERATED_(98)
  6
Continuous
 62
     7
100
AcDbCircle
 10
128.8944416459
 20
169.85
 30
0.0
 40
0.5000000000000004
100
AcDbArc
 50
90.0
 51
180.0
  0
LINE
  5
16B
330
15F
100
AcDbEntity
  8
$DDT_AUDIT_GENERATED_(98)
  6
Continuous
 62
     7
100
AcDbLine
 10
128.8944416459
 20
106.35
 30
0.0
 11
388.8944416459
 21
106.35
 31
0.0
  0
ARC
  5
16C
330
15F
100
AcDbEntity
  8
$DDT_AUDIT_GENERATED_(98)
  6
Continuous
 62
     7
100
AcDbCircle
 10
388.8944416459
 20
106.85
 30
0.0
 40
0.5000000000000004
100
AcDbArc
 50
270.0
 51
0.0
  0
ARC
  5
16D
330
15F
100
AcDbEntity
  8
$DDT_AUDIT_GENERATED_(98)
  6
Continuous
 62
     7
100
AcDbCircle
 10
128.8944416459
 20
106.85
 30
0.0
 40
0.5000000000000004
100
AcDbArc
 50
180.0
 51
270.0
  0
LINE
  5
16E
330
15F
100
AcDbEntity
  8
$DDT_AUDIT_GENERATED_(157)
  6
Continuous
 62
     7
100
AcDbLine
 10
323.4444416459
 20
171.05
 30
0.0
 11
344.3444416459
 21
171.05
 31
0.0
  0
LINE
  5
16F
330
15F
100
AcDbEntity
  8
$DDT_AUDIT_GENERATED_(157)
  6
Continuous
 62
     7
100
AcDbLine
 10
344.3444416459
 20
170.35
 30
0.0
 11
344.3444416459
 21
171.05
 31
0.0
  0
LINE
  5
170
330
15F
100
AcDbEntity
  8
$DDT_AUDIT_GENERATED_(157)
  6
Continuous
 62
     7
100
AcDbLine
 10
323.4444416459
 20
171.05
 30
0.0
 11
323.4444416459
 21
170.35
 31
0.0
  0
LINE
  5
171
330
15F
100
AcDbEntity
  8
$DDT_AUDIT_GENERATED_(157)
  6
Continuous
 62
     7
100
AcDbLine
 10
344.3444416459
 20
171.05
 30
0.0
 11
344.2609912711
 21
171.15
 31
0.0
  0
LINE
  5
172
330
15F
100
AcDbEntity
  8
$DDT_AUDIT_GENERATED_(157)
  6
Continuous
 62
     7
100
AcDbLine
 10
323.5278920208
 20
171.15
 30
0.0
 11
323.4444416459
 21
171.05
 31
0.0
  0
SPLINE
  5
173
330
15F
100
AcDbEntity
  8
403672038_GRIFF_
  6
Continuous
 62
     7
100
AcDbSpline
210
0.0
220
0.0
230
1.0
 70
     8
 71
     3
 72
    27
 73
    23
 74
     0
 42
0.0000000002069658
 43
0.0000000001
 40
0.0
 40
0.0
 40
0.0
 40
0.0
 40
0.014704473287844
 40
0.0313735468713219
 40
0.0627030321099948
 40
0.1253168145350395
 40
0.2503659781492712
 40
0.3128927343692382
 40
0.3754054701616813
 40
0.4172018838628963
 40
0.4379165888113513
 40
0.4700205944148069
 40
0.5005391946207248
 40
0.5629343641629236
 40
0.6253225136517531
 40
0.687799509258543
 40
0.7501269742196249
 40
0.8125177679285059
 40
0.8749245993511596
 40
0.9372354966867126
 40
0.9662133226917919
 40
1.0
 40
1.0
 40
1.0
 40
1.0
 10
395.2758837397068
 20
129.7276047011142
 30
0.0
 10
395.2562770685258
 20
129.9614613117783
 30
0.0
 10
395.2144441646709
 20
130.4604190902995
 30
0.0
 10
395.1932319665793
 20
131.4613429079953
 30
0.0
 10
395.2272787056693
 20
133.2263440689249
 30
0.0
 10
395.2390033698516
 20
136.721648120671
 30
0.0
 10
395.2454931013717
 20
140.7147211318325
 30
0.0
 10
395.2454884948874
 20
144.7062257799986
 30
0.0
 10
395.2408380536807
 20
147.3690148515967
 30
0.0
 10
395.2478288576804
 20
149.3643793164493
 30
0.0
 10
395.2468098094949
 20
150.8745932033783
 30
0.0
 10
395.3918297064473
 20
152.2030980903126
 30
0.0
 10
395.951368725037
 20
154.1280448603677
 30
0.0
 10
397.2866867677773
 20
156.2812982734938
 30
0.0
 10
399.6598817727573
 20
158.1935470498873
 30
0.0
 10
402.5458991848161
 20
159.1661616716812
 30
0.0
 10
405.5944057844519
 20
159.1560930892133
 30
0.0
 10
408.4384611250891
 20
158.0599899605249
 30
0.0
 10
410.7778804322699
 20
156.1215940656175
 30
0.0
 10
412.0442178389198
 20
153.9468058100451
 30
0.0
 10
412.5244094056922
 20
152.0001111543615
 30
0.0
 10
412.6128531932647
 20
151.0011128634289
 30
0.0
 10
412.6604632523408
 20
150.4633434060875
 30
0.0
  0
SPLINE
  5
174
330
15F
100
AcDbEntity
  8
403672038_GRIFF_
  6
Continuous
 62
     7
100
AcDbSpline
210
0.0
220
0.0
230
1.0
 70
     8
 71
     3
 72
    28
 73
    24
 74
     0
 42
0.0000000002134565
 43
0.0000000001
 40
0.0
 40
0.0
 40
0.0
 40
0.0
 40
0.0221879429056326
 40
0.0637137241632779
 40
0.1245853587561565
 40
0.1901804740379872
 40
0.249132650433556
 40
0.3114478452901174
 40
0.3738175126126019
 40
0.4082645781989548
 40
0.4362619940552773
 40
0.4697346998378335
 40
0.4990336271283962
 40
0.5417268814285349
 40
0.5829487868592139
 40
0.6247912049635298
 40
0.6876963865419559
 40
0.7488884753535708
 40
0.8107927343881668
 40
0.8735121474808856
 40
0.9156065488110464
 40
0.9570195078138813
 40
1.0
 40
1.0
 40
1.0
 40
1.0
 10
412.6604632523408
 20
150.4633434060875
 30
0.0
 10
412.6703909772181
 20
150.1177675350178
 30
0.0
 10
412.6988989072724
 20
149.1254301281495
 30
0.0
 10
412.6880936404579
 20
147.1840529004488
 30
0.0
 10
412.6707294067921
 20
144.566821405857
 30
0.0
 10
412.647531263491
 20
141.6779235386688
 30
0.0
 10
412.6489889675248
 20
138.7664702194861
 30
0.0
 10
412.6708102336519
 20
135.9053448494153
 30
0.0
 10
412.6936538596817
 20
133.4261443388391
 30
0.0
 10
412.6807017296052
 20
131.4812702259943
 30
0.0
 10
412.6313126294393
 20
129.9882757075972
 30
0.0
 10
412.4756019723666
 20
128.5772160509173
 30
0.0
 10
412.0082111688612
 20
126.9986531735512
 30
0.0
 10
411.1719454726893
 20
125.4477921364533
 30
0.0
 10
409.8968760905977
 20
123.9800185445522
 30
0.0
 10
408.0560106131827
 20
122.6788478471869
 30
0.0
 10
405.6119404631039
 20
121.743597005595
 30
0.0
 10
402.6532528949126
 20
121.7112043138905
 30
0.0
 10
399.8491859660915
 20
122.5756963355672
 30
0.0
 10
397.7887203968268
 20
124.169383650041
 30
0.0
 10
396.4176895618128
 20
125.96096593454
 30
0.0
 10
395.5866374126987
 20
127.759613070002
 30
0.0
 10
395.3807430654051
 20
129.0635344316722
 30
0.0
 10
395.2758837397068
 20
129.7276047011142
 30
0.0
  0
ARC
  5
175
330
15F
100
AcDbEntity
  8
403672038_GRIFF_
  6
Continuous
 62
     7
100
AcDbCircle
 10
403.9286476471
 20
150.455682307
 30
0.0
 40
5.46055908375288
100
AcDbArc
 50
89.6645231951
 51
180.4288102342
  0
ARC
  5
176
330
15F
100
AcDbEntity
  8
403672038_GRIFF_
  6
Continuous
 62
     7
100
AcDbCircle
 10
403.9596116137
 20
150.4227547962
 30
0.0
 40
5.493393085013929
100
AcDbArc
 50
359.9172037346
 51
89.9894826674
  0
ARC
  5
177
330
15F
100
AcDbEntity
  8
403672038_GRIFF_
  6
Continuous
 62
     7
100
AcDbCircle
 10
-507.5323803923
 20
142.6020701508
 30
0.0
 40
917.018661182301
100
AcDbArc
 50
359.5580045925
 51
0.4881501602
  0
SPLINE
  5
178
330
15F
100
AcDbEntity
  8
403672038_GRIFF_
  6
Continuous
 62
     7
100
AcDbSpline
210
0.0
220
0.0
230
1.0
 70
     8
 71
     3
 72
    31
 73
    27
 74
     0
 42
0.0000000002193005
 43
0.0000000001
 40
0.0
 40
0.0
 40
0.0
 40
0.0
 40
0.016254868486832
 40
0.0318364503111189
 40
0.047137761364974
 40
0.0625750649354777
 40
0.0937899586566961
 40
0.1251456801128063
 40
0.1875689616655782
 40
0.2497646059575178
 40
0.3122715804126128
 40
0.3746550029240794
 40
0.4367056063342813
 40
0.4987411927344944
 40
0.5295714337732504
 40
0.5606998734636072
 40
0.5921446669212906
 40
0.6237675100915023
 40
0.6865194940081522
 40
0.749174972541211
 40
0.7909839559822619
 40
0.8327758084215171
 40
0.8745769388298946
 40
0.9164129641400064
 40
0.9582919164863698
 40
1.0
 40
1.0
 40
1.0
 40
1.0
 10
395.6202134194098
 20
129.7662857793503
 30
0.0
 10
395.6519746255403
 20
129.5220296045353
 30
0.0
 10
395.714181469085
 20
129.04363449608
 30
0.0
 10
395.8821980163314
 20
128.3495920243242
 30
0.0
 10
396.097439194248
 20
127.6835965441264
 30
0.0
 10
396.4550461579665
 20
126.8205633100616
 30
0.0
 10
397.028776575599
 20
125.7931783902686
 30
0.0
 10
398.2112260156228
 20
124.3382952405993
 30
0.0
 10
400.1404532058413
 20
122.9593019684442
 30
0.0
 10
402.8894342693782
 20
122.116618677651
 30
0.0
 10
405.781907799339
 20
122.2723806636377
 30
0.0
 10
408.4451969278954
 20
123.3247028078584
 30
0.0
 10
410.5684810742088
 20
125.1853846377048
 30
0.0
 10
411.7620127224393
 20
127.2354554968922
 30
0.0
 10
412.2251543019921
 20
129.0649597295159
 30
0.0
 10
412.3073154821611
 20
130.4815170028221
 30
0.0
 10
412.344413337835
 20
131.9072701796645
 30
0.0
 10
412.3393845186173
 20
133.8138747827077
 30
0.0
 10
412.3202526867358
 20
136.192725002792
 30
0.0
 10
412.3046800459723
 20
138.7261874494855
 30
0.0
 10
412.301146609992
 20
140.9420659903553
 30
0.0
 10
412.3057549181635
 20
142.8419920951225
 30
0.0
 10
412.319567480358
 20
144.7423080632079
 30
0.0
 10
412.3344265711499
 20
146.6438087630468
 30
0.0
 10
412.3802295324302
 20
148.5440647245475
 30
0.0
 10
412.3367070006598
 20
149.8100020845351
 30
0.0
 10
412.3149902192101
 20
150.4416768483324
 30
0.0
  0
SPLINE
  5
179
330
15F
100
AcDbEntity
  8
403672038_GRIFF_
  6
Continuous
 62
     7
100
AcDbSpline
210
0.0
220
0.0
230
1.0
 70
     8
 71
     3
 72
    28
 73
    24
 74
     0
 42
0.0000000002114702
 43
0.0000000001
 40
0.0
 40
0.0
 40
0.0
 40
0.0
 40
0.0625
 40
0.0625
 40
0.1250000000000001
 40
0.1250000000000001
 40
0.2499999999999999
 40
0.2499999999999999
 40
0.3749999999999998
 40
0.3749999999999998
 40
0.4999999999999997
 40
0.4999999999999997
 40
0.5624999999999998
 40
0.5624999999999998
 40
0.6249999999999998
 40
0.6249999999999998
 40
0.7499999999999999
 40
0.7499999999999999
 40
0.8749999999999999
 40
0.8749999999999999
 40
0.9375
 40
0.9375
 40
1.0
 40
1.0
 40
1.0
 40
1.0
 10
412.3149902192101
 20
150.4416768483324
 30
0.0
 10
412.2547089116917
 20
151.4189064230096
 30
0.0
 10
412.1206721942581
 20
152.3845566542937
 30
0.0
 10
411.4941609606744
 20
154.203922371919
 30
0.0
 10
410.9948306985976
 20
155.0581650149134
 30
0.0
 10
409.1011206427654
 20
157.2845114574351
 30
0.0
 10
407.3137826370237
 20
158.31037061232
 30
0.0
 10
403.5069232952612
 20
158.9916106895956
 30
0.0
 10
401.4842911754575
 20
158.6231981612069
 30
0.0
 10
398.1049936285493
 20
156.7137668565914
 30
0.0
 10
396.771293005907
 20
155.1377441520961
 30
0.0
 10
395.7716463536929
 20
152.4083311621786
 30
0.0
 10
395.6248403243957
 20
151.4406072626324
 30
0.0
 10
395.5740685653971
 20
149.4812986012093
 30
0.0
 10
395.5905872898717
 20
148.4936341077624
 30
0.0
 10
395.5913528371206
 20
145.535059329609
 30
0.0
 10
395.5902974910073
 20
143.5604128752807
 30
0.0
 10
395.5870387890291
 20
139.613906454686
 30
0.0
 10
395.5910427375744
 20
137.6419174529249
 30
0.0
 10
395.590055636738
 20
134.6840650672959
 30
0.0
 10
395.5856215996504
 20
133.6977499189139
 30
0.0
 10
395.5499340439954
 20
131.7219897573589
 30
0.0
 10
395.5142914646058
 20
130.7318128878578
 30
0.0
 10
395.6202134194098
 20
129.7662857793503
 30
0.0
  0
LINE
  5
17A
330
15F
100
AcDbEntity
  8
403672038_GRIFF_
  6
Continuous
 62
     7
100
AcDbLine
 10
390.4644385069
 20
162.35
 30
0.0
 11
390.4644385069
 21
117.0828935671
 31
0.0
  0
LINE
  5
17B
330
15F
100
AcDbEntity
  8
403672038_GRIFF_
  6
Continuous
 62
     7
100
AcDbLine
 10
390.4644385069
 20
169.3505603084
 30
0.0
 11
390.4644385069
 21
162.35
 31
0.0
  0
LINE
  5
17C
330
15F
100
AcDbEntity
  8
403672038_GRIFF_
  6
Continuous
 62
     7
100
AcDbLine
 10
390.4644385069
 20
169.5505603084
 30
0.0
 11
390.4644385069
 21
169.3505603084
 31
0.0
  0
LINE
  5
17D
330
15F
100
AcDbEntity
  8
403672038_GRIFF_
  6
Continuous
 62
     7
100
AcDbLine
 10
390.4644385069
 20
107.1530689626
 30
0.0
 11
390.4644385069
 21
117.0837564311
 31
0.0
  0
ARC
  5
17E
330
15F
100
AcDbEntity
  8
403672038_GRIFF_
  6
Continuous
 62
     7
100
AcDbCircle
 10
391.2644385069
 20
169.5505603084
 30
0.0
 40
0.7999999999999952
100
AcDbArc
 50
90.0
 51
180.0
  0
LINE
  5
17F
330
15F
100
AcDbEntity
  8
403672038_GRIFF_
  6
Continuous
 62
     7
100
AcDbLine
 10
417.4644416459
 20
162.3499442299
 30
0.0
 11
417.4644416459
 21
169.3505603084
 31
0.0
  0
LINE
  5
180
330
15F
100
AcDbEntity
  8
403672038_GRIFF_
  6
Continuous
 62
     7
100
AcDbLine
 10
417.4644416459
 20
118.0319312408
 30
0.0
 11
417.4644416459
 21
162.3499442299
 31
0.0
  0
LINE
  5
181
330
15F
100
AcDbEntity
  8
403672038_GRIFF_
  6
Continuous
 62
     7
100
AcDbLine
 10
417.4644416459
 20
118.032044895
 30
0.0
 11
417.4644416459
 21
107.3530689626
 31
0.0
  0
LINE
  5
182
330
15F
100
AcDbEntity
  8
403672038_GRIFF_
  6
Continuous
 62
     7
100
AcDbLine
 10
416.4644416459
 20
170.3505603084
 30
0.0
 11
391.2644385069
 21
170.3505603084
 31
0.0
  0
ARC
  5
183
330
15F
100
AcDbEntity
  8
403672038_GRIFF_
  6
Continuous
 62
     7
100
AcDbCircle
 10
416.4644416459
 20
169.3505603084
 30
0.0
 40
1.000000000000001
100
AcDbArc
 50
0.0
 51
90.0
  0
ARC
  5
184
330
15F
100
AcDbEntity
  8
403672038_GRIFF_
  6
Continuous
 62
     7
100
AcDbCircle
 10
403.9644687683
 20
130.3500253459
 30
0.0
 40
7.350028673784542
100
AcDbArc
 50
183.6327608597
 51
43.3007643001
  0
ARC
  5
185
330
15F
100
AcDbEntity
  8
403672038_GRIFF_
  6
Continuous
 62
     7
100
AcDbCircle
 10
403.9650885585
 20
130.3499266784
 30
0.0
 40
7.350640968225334
100
AcDbArc
 50
136.9441584755
 51
183.631687223
  0
ARC
  5
186
330
15F
100
AcDbEntity
  8
403672038_GRIFF_
  6
Continuous
 62
     7
100
AcDbCircle
 10
403.9644416459
 20
130.35
 30
0.0
 40
7.349999999999979
100
AcDbArc
 50
43.3007646406
 51
136.9411256484
  0
ARC
  5
187
330
15F
100
AcDbEntity
  8
403672038_GRIFF_
  6
Continuous
 62
     7
100
AcDbCircle
 10
1427.4019840319
 20
141.5560308521
 30
0.0
 40
1028.971877455183
100
AcDbArc
 50
179.5067141995
 51
180.3369833283
  0
LINE
  5
188
330
15F
100
AcDbEntity
  8
403672038_GRIFF_
  6
Continuous
 62
     7
100
AcDbLine
 10
409.4589950163
 20
135.5280060545
 30
0.0
 11
409.3135521628
 21
135.3908812598
 31
0.0
  0
SPLINE
  5
189
330
15F
100
AcDbEntity
  8
403672038_GRIFF_
  6
Continuous
 62
     7
100
AcDbSpline
210
0.0
220
0.0
230
1.0
 70
     8
 71
     3
 72
    10
 73
     6
 74
     0
 42
0.0000000491472611
 43
0.0000000001
 40
0.0
 40
0.0
 40
0.0
 40
0.0
 40
0.5
 40
0.5
 40
1.0
 40
1.0
 40
1.0
 40
1.0
 10
398.4479034547515
 20
135.5041999524394
 30
0.0
 10
398.4870845560745
 20
135.467669102407
 30
0.0
 10
398.5259608890707
 20
135.4314646148568
 30
0.0
 10
398.5803119044509
 20
135.3809111876123
 30
0.0
 10
398.5954225612074
 20
135.3669026393247
 30
0.0
 10
398.5940585138748
 20
135.3682888517375
 30
0.0
  0
LINE
  5
18A
330
15F
100
AcDbEntity
  8
403672038_GRIFF_
  6
Continuous
 62
     7
100
AcDbLine
 10
391.2644385069
 20
106.3530689626
 30
0.0
 11
416.4644416459
 21
106.3530689626
 31
0.0
  0
ARC
  5
18B
330
15F
100
AcDbEntity
  8
403672038_GRIFF_
  6
Continuous
 62
     7
100
AcDbCircle
 10
391.2644384847
 20
153.4773565765
 30
0.0
 40
0.7999896987780194
100
AcDbArc
 50
179.9306574341
 51
180.1051652441
  0
ARC
  5
18C
330
15F
100
AcDbEntity
  8
403672038_GRIFF_
  6
Continuous
 62
     7
100
AcDbCircle
 10
391.2644385069
 20
107.1530689626
 30
0.0
 40
0.7999999999999952
100
AcDbArc
 50
180.0
 51
270.0
  0
ELLIPSE
  5
18D
330
15F
100
AcDbEntity
  8
403672038_GRIFF_
  6
Continuous
 62
     7
100
AcDbEllipse
 10
416.4644416459
 20
153.27789161
 30
0.0
 11
-1.000000000003304
 21
-2.228703332995963E-10
 31
0.0
210
0.0
220
0.0
230
1.0
 40
0.999974257
 41
3.139918469552387
 42
3.143881747710153
  0
ARC
  5
18E
330
15F
100
AcDbEntity
  8
403672038_GRIFF_
  6
Continuous
 62
     7
100
AcDbCircle
 10
416.4644416459
 20
107.3530689626
 30
0.0
 40
1.000000000000001
100
AcDbArc
 50
270.0
 51
0.0
  0
CIRCLE
  5
18F
330
15F
100
AcDbEntity
  8
403675038_TASTE_
  6
Continuous
 62
     7
100
AcDbCircle
 10
403.9644416459
 20
130.35
 30
0.0
 40
7.000000000000001
  0
LINE
  5
190
330
15F
100
AcDbEntity
  8
403074038_KAPPE_
  6
Continuous
 62
     7
100
AcDbLine
 10
390.1696773679
 20
150.4670403249
 30
0.0
 11
389.3944416459
 21
150.453508535
 31
0.0
  0
LINE
  5
191
330
15F
100
AcDbEntity
  8
403074038_KAPPE_
  6
Continuous
 62
     7
100
AcDbLine
 10
389.3944416459
 20
110.246491465
 30
0.0
 11
390.1696773679
 21
110.2329596751
 31
0.0
  0
ARC
  5
192
330
15F
100
AcDbEntity
  8
403074038_KAPPE_
  6
Continuous
 62
     7
100
AcDbCircle
 10
390.1644416459
 20
150.7669946334
 30
0.0
 40
0.2999999999999947
100
AcDbArc
 50
271.0
 51
0.0
  0
ARC
  5
193
330
15F
100
AcDbEntity
  8
403074038_KAPPE_
  6
Continuous
 62
     7
100
AcDbCircle
 10
390.1644416459
 20
109.9330053666
 30
0.0
 40
0.2999999999999978
100
AcDbArc
 50
0.0
 51
89.0
  0
SPLINE
  5
194
330
15F
100
AcDbEntity
  8
$DDT_AUDIT_GENERATED_(CB)
  6
Continuous
 62
     7
100
AcDbSpline
210
0.0
220
0.0
230
1.0
 70
    12
 71
     3
 72
    28
 73
    24
 74
     0
 42
0.0000000002066395
 43
0.0000000001
 40
0.0
 40
0.0
 40
0.0
 40
0.0
 40
0.0625
 40
0.0625
 40
0.125
 40
0.125
 40
0.25
 40
0.25
 40
0.375
 40
0.375
 40
0.4375
 40
0.4375
 40
0.5
 40
0.5
 40
0.625
 40
0.625
 40
0.75
 40
0.75
 40
0.875
 40
0.875
 40
0.9375
 40
0.9375
 40
1.0
 40
1.0
 40
1.0
 40
1.0
 10
122.3829995521855
 20
129.7268149642568
 30
0.0
 41
1.0
 10
122.4853721645045
 20
130.7262790736399
 30
0.0
 41
1.0
 10
122.4575353328075
 20
131.7266305584531
 30
0.0
 41
1.0
 10
122.4302457787685
 20
133.7261815332124
 30
0.0
 41
1.0
 10
122.4258198134095
 20
134.7254806985254
 30
0.0
 41
1.0
 10
122.4197581233545
 20
137.7220080624038
 30
0.0
 41
1.0
 10
122.4140038930205
 20
139.7178380232332
 30
0.0
 41
1.0
 10
122.4138608486505
 20
143.7057922570003
 30
0.0
 41
1.0
 10
122.4174395180825
 20
145.7028871265945
 30
0.0
 41
1.0
 10
122.4145056053735
 20
148.696822004789
 30
0.0
 41
1.0
 10
122.4368905537175
 20
149.6962678280579
 30
0.0
 41
1.0
 10
122.3585620402755
 20
151.6874242002585
 30
0.0
 41
1.0
 10
122.1733800488425
 20
152.693127245097
 30
0.0
 41
1.0
 10
121.0798160957255
 20
155.4769792681904
 30
0.0
 41
1.0
 10
119.6656958580005
 20
157.0818360814411
 30
0.0
 41
1.0
 10
116.1634798776855
 20
158.9891528266809
 30
0.0
 41
1.0
 10
114.0546404493305
 20
159.3460744443127
 30
0.0
 41
1.0
 10
110.1440606814005
 20
158.6029860387553
 30
0.0
 41
1.0
 10
108.2978336136075
 20
157.5219961124705
 30
0.0
 41
1.0
 10
106.3705071037275
 20
155.2411788444998
 30
0.0
 41
1.0
 10
105.8518246090335
 20
154.3546782387409
 30
0.0
 41
1.0
 10
105.2025076234225
 20
152.473734034006
 30
0.0
 41
1.0
 10
105.0611465958795
 20
151.4572997577125
 30
0.0
 41
1.0
 10
104.9984200395515
 20
150.4625536692301
 30
0.0
 41
1.0
  0
SPLINE
  5
195
330
15F
100
AcDbEntity
  8
$DDT_AUDIT_GENERATED_(CB)
  6
Continuous
 62
     7
100
AcDbSpline
210
0.0
220
0.0
230
1.0
 70
    12
 71
     3
 72
    30
 73
    26
 74
     0
 42
0.0000000002130143
 43
0.0000000001
 40
0.0
 40
0.0
 40
0.0
 40
0.0
 40
0.0625
 40
0.0625
 40
0.125
 40
0.125
 40
0.25
 40
0.25
 40
0.375
 40
0.375
 40
0.4375
 40
0.4375
 40
0.46875
 40
0.46875
 40
0.5
 40
0.5
 40
0.625
 40
0.625
 40
0.75
 40
0.75
 40
0.875
 40
0.875
 40
0.9375
 40
0.9375
 40
1.0
 40
1.0
 40
1.0
 40
1.0
 10
104.9984200395515
 20
150.4625536692301
 30
0.0
 41
1.0
 10
104.9373430791365
 20
149.4939676536612
 30
0.0
 41
1.0
 10
104.9456141017335
 20
148.5231641827543
 30
0.0
 41
1.0
 10
104.9686528430555
 20
146.5813382861698
 30
0.0
 41
1.0
 10
104.9794558946055
 20
145.610438885062
 30
0.0
 41
1.0
 10
105.0059968337985
 20
142.6978995798041
 30
0.0
 41
1.0
 10
105.0148992248405
 20
140.7589724549308
 30
0.0
 41
1.0
 10
104.9985781086575
 20
136.877207877429
 30
0.0
 41
1.0
 10
104.9749483959015
 20
134.9344959698757
 30
0.0
 41
1.0
 10
104.9692631367435
 20
132.0180938452248
 30
0.0
 41
1.0
 10
104.9791491593455
 20
131.0456040573088
 30
0.0
 41
1.0
 10
105.0705161574695
 20
129.5866446667435
 30
0.0
 41
1.0
 10
105.1115297900715
 20
129.0985098077098
 30
0.0
 41
1.0
 10
105.2994795043785
 20
128.1360211466762
 30
0.0
 41
1.0
 10
105.4417775527455
 20
127.6686768727937
 30
0.0
 41
1.0
 10
106.3656185266055
 20
125.3927518504007
 30
0.0
 41
1.0
 10
107.6955502750075
 20
123.8641113985929
 30
0.0
 41
1.0
 10
111.0497180605325
 20
121.9770690539779
 30
0.0
 41
1.0
 10
113.0503461485225
 20
121.5769739246793
 30
0.0
 41
1.0
 10
116.8886010029765
 20
122.1377524737494
 30
0.0
 41
1.0
 10
118.6829369599315
 20
123.0640673401136
 30
0.0
 41
1.0
 10
120.6782057829745
 20
125.1681961506096
 30
0.0
 41
1.0
 10
121.2224266984935
 20
125.9852965506527
 30
0.0
 41
1.0
 10
122.0374464717045
 20
127.7758777749388
 30
0.0
 41
1.0
 10
122.2837664177925
 20
128.7580017172689
 30
0.0
 41
1.0
 10
122.3829995521855
 20
129.7268149642568
 30
0.0
 41
1.0
  0
ARC
  5
196
330
15F
100
AcDbEntity
  8
$DDT_AUDIT_GENERATED_(CB)
  6
Continuous
 62
     7
100
AcDbCircle
 10
113.7302302108
 20
150.454887145
 30
0.0
 40
5.460564476979367
100
AcDbArc
 50
359.5712471149
 51
90.3354194557
  0
ARC
  5
197
330
15F
100
AcDbEntity
  8
$DDT_AUDIT_GENERATED_(CB)
  6
Continuous
 62
     7
100
AcDbCircle
 10
113.6992747999
 20
150.4219619426
 30
0.0
 40
5.493396202269005
100
AcDbArc
 50
90.0105498864
 51
180.0827637116
  0
SPLINE
  5
198
330
15F
100
AcDbEntity
  8
$DDT_AUDIT_GENERATED_(CB)
  6
Continuous
 62
     7
100
AcDbSpline
210
0.0
220
0.0
230
1.0
 70
     8
 71
     3
 72
    14
 73
    10
 74
     0
 42
0.000000000671701
 43
0.0000000001
 40
0.0
 40
0.0
 40
0.0
 40
0.0
 40
0.066029295614604
 40
0.066029295614604
 40
0.3436012359628325
 40
0.3436012359628325
 40
0.8795627421112805
 40
0.8795627421112805
 40
1.0
 40
1.0
 40
1.0
 40
1.0
 10
108.2058843288471
 20
150.4140267385991
 30
0.0
 10
108.1952837313974
 20
150.1401652189073
 30
0.0
 10
108.1830344742186
 20
149.8749217763688
 30
0.0
 10
108.1705891279074
 20
148.2245370981175
 30
0.0
 10
108.192978588587
 20
146.7255671440423
 30
0.0
 10
108.2121146859444
 20
142.6189912000562
 30
0.0
 10
108.2130269030837
 20
139.9843961620975
 30
0.0
 10
108.20452822482
 20
136.7354211262096
 30
0.0
 10
108.2022483862173
 20
136.1328785855338
 30
0.0
 10
108.1998882755895
 20
135.5272163176921
 30
0.0
  0
SPLINE
  5
199
330
15F
100
AcDbEntity
  8
$DDT_AUDIT_GENERATED_(CB)
  6
Continuous
 62
     7
100
AcDbSpline
210
0.0
220
0.0
230
1.0
 70
    12
 71
     3
 72
    30
 73
    26
 74
     0
 42
0.0000000002188981
 43
0.0000000001
 40
0.0
 40
0.0
 40
0.0
 40
0.0
 40
0.0625
 40
0.0625
 40
0.125
 40
0.125
 40
0.25
 40
0.25
 40
0.375
 40
0.375
 40
0.5
 40
0.5
 40
0.53125
 40
0.53125
 40
0.5625
 40
0.5625
 40
0.625
 40
0.625
 40
0.75
 40
0.75
 40
0.875
 40
0.875
 40
0.9375
 40
0.9375
 40
1.0
 40
1.0
 40
1.0
 40
1.0
 10
122.0386698724825
 20
129.765496042493
 30
0.0
 41
1.0
 10
121.9405679479805
 20
128.8277452902586
 30
0.0
 41
1.0
 10
121.7011702021035
 20
127.9025455890407
 30
0.0
 41
1.0
 10
120.9106532815305
 20
126.1953446917873
 30
0.0
 41
1.0
 10
120.3811724308595
 20
125.4195731799211
 30
0.0
 41
1.0
 10
118.4562968736515
 20
123.4339366085705
 30
0.0
 41
1.0
 10
116.7304010291615
 20
122.565594279627
 30
0.0
 41
1.0
 10
113.0862936552325
 20
122.042143644132
 30
0.0
 41
1.0
 10
111.1747212124035
 20
122.4154381188141
 30
0.0
 41
1.0
 10
107.9634266613225
 20
124.1883341423211
 30
0.0
 41
1.0
 10
106.6708775920825
 20
125.6389392089493
 30
0.0
 41
1.0
 10
105.7753416710845
 20
127.7969812748975
 30
0.0
 41
1.0
 10
105.6376012340305
 20
128.2388811886443
 30
0.0
 41
1.0
 10
105.4556770087505
 20
129.1465866159583
 30
0.0
 41
1.0
 10
105.4154166075585
 20
129.6186407119118
 30
0.0
 41
1.0
 10
105.3261626247775
 20
131.0558916904326
 30
0.0
 41
1.0
 10
105.3159381684475
 20
132.0220881652239
 30
0.0
 41
1.0
 10
105.3219103115445
 20
134.9281616003589
 30
0.0
 41
1.0
 10
105.3448928209475
 20
136.8742792710842
 30
0.0
 41
1.0
 10
105.3604962823185
 20
140.7584966023359
 30
0.0
 41
1.0
 10
105.3526705656395
 20
142.7006240258674
 30
0.0
 41
1.0
 10
105.3265395981335
 20
145.6142390937136
 30
0.0
 41
1.0
 10
105.3155696962545
 20
146.586474759484
 30
0.0
 41
1.0
 10
105.2913829843665
 20
148.526629643983
 30
0.0
 41
1.0
 10
105.2830807817885
 20
149.4888425797492
 30
0.0
 41
1.0
 10
105.3438930726822
 20
150.4408871114751
 30
0.0
 41
1.0
  0
SPLINE
  5
19A
330
15F
100
AcDbEntity
  8
$DDT_AUDIT_GENERATED_(CB)
  6
Continuous
 62
     7
100
AcDbSpline
210
0.0
220
0.0
230
1.0
 70
    12
 71
     3
 72
    28
 73
    24
 74
     0
 42
0.0000000002115377
 43
0.0000000001
 40
0.0
 40
0.0
 40
0.0
 40
0.0
 40
0.0625
 40
0.0625
 40
0.125
 40
0.125
 40
0.25
 40
0.25
 40
0.375
 40
0.375
 40
0.5
 40
0.5
 40
0.5625
 40
0.5625
 40
0.625
 40
0.625
 40
0.75
 40
0.75
 40
0.875
 40
0.875
 40
0.9375
 40
0.9375
 40
1.0
 40
1.0
 40
1.0
 40
1.0
 10
105.3438930726822
 20
150.4408871114751
 30
0.0
 41
1.0
 10
105.4063857165445
 20
151.4192383654371
 30
0.0
 41
1.0
 10
105.5454912432695
 20
152.4026600640701
 30
0.0
 41
1.0
 10
106.1636908494015
 20
154.199807333594
 30
0.0
 41
1.0
 10
106.6600803876925
 20
155.0489986669427
 30
0.0
 41
1.0
 10
108.5107136666705
 20
157.2371370567814
 30
0.0
 41
1.0
 10
110.2888717554315
 20
158.2778728959887
 30
0.0
 41
1.0
 10
114.0391088206345
 20
158.9908301974501
 30
0.0
 41
1.0
 10
116.0666375688395
 20
158.6468102345676
 30
0.0
 41
1.0
 10
119.4311900264575
 20
156.8157567661857
 30
0.0
 41
1.0
 10
120.7873670038015
 20
155.274981643627
 30
0.0
 41
1.0
 10
121.8353800845245
 20
152.603991264206
 30
0.0
 41
1.0
 10
122.0140979026505
 20
151.6506407244293
 30
0.0
 41
1.0
 10
122.0906059496995
 20
149.7061055708104
 30
0.0
 41
1.0
 10
122.0682167464005
 20
148.696556130641
 30
0.0
 41
1.0
 10
122.0704896316125
 20
145.7029629300566
 30
0.0
 41
1.0
 10
122.0678285999905
 20
143.7075378233012
 30
0.0
 41
1.0
 10
122.0684817158735
 20
139.7162925941824
 30
0.0
 41
1.0
 10
122.0726918627745
 20
137.722034952875
 30
0.0
 41
1.0
 10
122.0777388442775
 20
134.7246645110728
 30
0.0
 41
1.0
 10
122.0821642509565
 20
133.7243941705291
 30
0.0
 41
1.0
 10
122.1115452898305
 20
131.7216645799603
 30
0.0
 41
1.0
 10
122.1399227320235
 20
130.73336646851
 30
0.0
 41
1.0
 10
122.0386698724825
 20
129.765496042493
 30
0.0
 41
1.0
  0
LINE
  5
19B
330
15F
100
AcDbEntity
  8
$DDT_AUDIT_GENERATED_(CB)
  6
Continuous
 62
     7
100
AcDbLine
 10
127.194444785
 20
162.3492102631
 30
0.0
 11
127.194444785
 21
117.0821038303
 31
0.0
  0
LINE
  5
19C
330
15F
100
AcDbEntity
  8
$DDT_AUDIT_GENERATED_(CB)
  6
Continuous
 62
     7
100
AcDbLine
 10
127.194444785
 20
169.3497705716
 30
0.0
 11
127.194444785
 21
162.3492102631
 31
0.0
  0
LINE
  5
19D
330
15F
100
AcDbEntity
  8
$DDT_AUDIT_GENERATED_(CB)
  6
Continuous
 62
     7
100
AcDbLine
 10
127.194444785
 20
169.5497705716
 30
0.0
 11
127.194444785
 21
169.3497705716
 31
0.0
  0
LINE
  5
19E
330
15F
100
AcDbEntity
  8
$DDT_AUDIT_GENERATED_(CB)
  6
Continuous
 62
     7
100
AcDbLine
 10
127.194444785
 20
107.1522792257
 30
0.0
 11
127.194444785
 21
117.0829666943
 31
0.0
  0
ARC
  5
19F
330
15F
100
AcDbEntity
  8
$DDT_AUDIT_GENERATED_(CB)
  6
Continuous
 62
     7
100
AcDbCircle
 10
126.394444785
 20
169.5497705716
 30
0.0
 40
0.800000000000002
100
AcDbArc
 50
0.0
 51
90.0
  0
LINE
  5
1A0
330
15F
100
AcDbEntity
  8
$DDT_AUDIT_GENERATED_(CB)
  6
Continuous
 62
     7
100
AcDbLine
 10
100.1944416459
 20
162.349154493
 30
0.0
 11
100.1944416459
 21
169.3497705716
 31
0.0
  0
LINE
  5
1A1
330
15F
100
AcDbEntity
  8
$DDT_AUDIT_GENERATED_(CB)
  6
Continuous
 62
     7
100
AcDbLine
 10
100.1944416459
 20
118.0311415039
 30
0.0
 11
100.1944416459
 21
162.349154493
 31
0.0
  0
LINE
  5
1A2
330
15F
100
AcDbEntity
  8
$DDT_AUDIT_GENERATED_(CB)
  6
Continuous
 62
     7
100
AcDbLine
 10
100.1944416459
 20
118.0312551582
 30
0.0
 11
100.1944416459
 21
107.3522792257
 31
0.0
  0
LINE
  5
1A3
330
15F
100
AcDbEntity
  8
$DDT_AUDIT_GENERATED_(CB)
  6
Continuous
 62
     7
100
AcDbLine
 10
101.1944416459
 20
170.3497705716
 30
0.0
 11
126.394444785
 21
170.3497705716
 31
0.0
  0
ARC
  5
1A4
330
15F
100
AcDbEntity
  8
$DDT_AUDIT_GENERATED_(CB)
  6
Continuous
 62
     7
100
AcDbCircle
 10
101.1944416459
 20
169.3497705716
 30
0.0
 40
1.000000000000001
100
AcDbArc
 50
90.0
 51
180.0
  0
ARC
  5
1A5
330
15F
100
AcDbEntity
  8
$DDT_AUDIT_GENERATED_(CB)
  6
Continuous
 62
     7
100
AcDbCircle
 10
113.6944145236
 20
130.3492356091
 30
0.0
 40
7.350028673784554
100
AcDbArc
 50
136.6992356999
 51
356.3672391403
  0
ARC
  5
1A6
330
15F
100
AcDbEntity
  8
$DDT_AUDIT_GENERATED_(CB)
  6
Continuous
 62
     7
100
AcDbCircle
 10
113.6937947334
 20
130.3491369415
 30
0.0
 40
7.350640968225336
100
AcDbArc
 50
356.368312777
 51
43.0558415245
  0
ARC
  5
1A7
330
15F
100
AcDbEntity
  8
$DDT_AUDIT_GENERATED_(CB)
  6
Continuous
 62
     7
100
AcDbCircle
 10
113.6944416459
 20
130.3492102631
 30
0.0
 40
7.350000000000005
100
AcDbArc
 50
43.0588743516
 51
136.6992353594
  0
ARC
  5
1A8
330
15F
100
AcDbEntity
  8
$DDT_AUDIT_GENERATED_(CB)
  6
Continuous
 62
     7
100
AcDbCircle
 10
-910.1014203346
 20
141.5547523683
 30
0.0
 40
1029.330187981066
100
AcDbArc
 50
359.6631611829
 51
0.4931412893
  0
LINE
  5
1A9
330
15F
100
AcDbEntity
  8
$DDT_AUDIT_GENERATED_(CB)
  6
Continuous
 62
     7
100
AcDbLine
 10
108.1998882756
 20
135.5272163177
 30
0.0
 11
108.3453311291
 21
135.3900915229
 31
0.0
  0
SPLINE
  5
1AA
330
15F
100
AcDbEntity
  8
$DDT_AUDIT_GENERATED_(CB)
  6
Continuous
 62
     7
100
AcDbSpline
210
0.0
220
0.0
230
1.0
 70
     8
 71
     3
 72
    10
 73
     6
 74
     0
 42
0.0000000500297639
 43
0.0000000001
 40
0.0
 40
0.0
 40
0.0
 40
0.0
 40
0.5
 40
0.5
 40
1.0
 40
1.0
 40
1.0
 40
1.0
 10
119.2109798371409
 20
135.5034102155821
 30
0.0
 10
119.1727635554861
 20
135.4676495708474
 30
0.0
 10
119.1347696981013
 20
135.4322235321336
 30
0.0
 10
119.0806376013604
 20
135.3819039484821
 30
0.0
 10
119.0648313028115
 20
135.3673189658249
 30
0.0
 10
119.0648247780176
 20
135.3674991148802
 30
0.0
  0
LINE
  5
1AB
330
15F
100
AcDbEntity
  8
$DDT_AUDIT_GENERATED_(CB)
  6
Continuous
 62
     7
100
AcDbLine
 10
101.1944416459
 20
106.3522792257
 30
0.0
 11
126.394444785
 21
106.3522792257
 31
0.0
  0
ARC
  5
1AC
330
15F
100
AcDbEntity
  8
$DDT_AUDIT_GENERATED_(CB)
  6
Continuous
 62
     7
100
AcDbCircle
 10
126.3944447591
 20
153.4765668397
 30
0.0
 40
0.800000025892463
100
AcDbArc
 50
359.8948347559
 51
0.0693425554
  0
ARC
  5
1AD
330
15F
100
AcDbEntity
  8
$DDT_AUDIT_GENERATED_(CB)
  6
Continuous
 62
     7
100
AcDbCircle
 10
126.394444785
 20
107.1522792257
 30
0.0
 40
0.7999999999999952
100
AcDbArc
 50
270.0
 51
0.0
  0
ELLIPSE
  5
1AE
330
15F
100
AcDbEntity
  8
$DDT_AUDIT_GENERATED_(CB)
  6
Continuous
 62
     7
100
AcDbEllipse
 10
101.1944416459
 20
153.2771018731
 30
0.0
 11
0.9999999999993486
 21
-4.461708780212348E-11
 31
0.0
210
0.0
220
0.0
230
1.0
 40
0.999974257
 41
3.139303560994195
 42
3.143266837446228
  0
ARC
  5
1AF
330
15F
100
AcDbEntity
  8
$DDT_AUDIT_GENERATED_(CB)
  6
Continuous
 62
     7
100
AcDbCircle
 10
101.1944416459
 20
107.3522792257
 30
0.0
 40
1.000000000000001
100
AcDbArc
 50
180.0
 51
270.0
  0
CIRCLE
  5
1B0
330
15F
100
AcDbEntity
  8
$DDT_AUDIT_GENERATED_(E1)
  6
Continuous
 62
     7
100
AcDbCircle
 10
113.6944416459
 20
130.3492102631
 30
0.0
 40
6.999999999999999
  0
LINE
  5
1B1
330
15F
100
AcDbEntity
  8
$DDT_AUDIT_GENERATED_(EA)
  6
Continuous
 62
     7
100
AcDbLine
 10
127.489205924
 20
110.2321699383
 30
0.0
 11
128.3944416459
 21
110.2479708866
 31
0.0
  0
LINE
  5
1B2
330
15F
100
AcDbEntity
  8
$DDT_AUDIT_GENERATED_(EA)
  6
Continuous
 62
     7
100
AcDbLine
 10
128.3944416459
 20
150.4504496397
 30
0.0
 11
127.489205924
 21
150.466250588
 31
0.0
  0
ARC
  5
1B3
330
15F
100
AcDbEntity
  8
$DDT_AUDIT_GENERATED_(EA)
  6
Continuous
 62
     7
100
AcDbCircle
 10
127.4944416459
 20
109.9322156297
 30
0.0
 40
0.2999999999999947
100
AcDbArc
 50
91.0
 51
180.0
  0
ARC
  5
1B4
330
15F
100
AcDbEntity
  8
$DDT_AUDIT_GENERATED_(EA)
  6
Continuous
 62
     7
100
AcDbCircle
 10
127.4944416459
 20
150.7662048966
 30
0.0
 40
0.299999999999998
100
AcDbArc
 50
180.0
 51
269.0
  0
LINE
  5
1B5
330
15F
100
AcDbEntity
  8
$DDT_AUDIT_GENERATED_(12E)
  6
Continuous
 62
     7
100
AcDbLine
 10
193.7598227027
 20
174.65
 30
0.0
 11
190.1444416459
 21
174.65
 31
0.0
  0
LINE
  5
1B6
330
15F
100
AcDbEntity
  8
$DDT_AUDIT_GENERATED_(12E)
  6
Continuous
 62
     7
100
AcDbLine
 10
198.3944416459
 20
171.15
 30
0.0
 11
169.3944416459
 21
171.15
 31
0.0
  0
LINE
  5
1B7
330
15F
100
AcDbEntity
  8
$DDT_AUDIT_GENERATED_(12E)
  6
Continuous
 62
     7
100
AcDbLine
 10
198.3944416459
 20
188.15
 30
0.0
 11
169.3944416459
 21
188.15
 31
0.0
  0
LINE
  5
1B8
330
15F
100
AcDbEntity
  8
$DDT_AUDIT_GENERATED_(12E)
  6
Continuous
 62
     7
100
AcDbLine
 10
193.7598227027
 20
184.65
 30
0.0
 11
190.1444416459
 21
184.65
 31
0.0
  0
LINE
  5
1B9
330
15F
100
AcDbEntity
  8
$DDT_AUDIT_GENERATED_(12E)
  6
Continuous
 62
     7
100
AcDbLine
 10
177.6444416459
 20
184.65
 30
0.0
 11
174.0290605892
 21
184.65
 31
0.0
  0
LINE
  5
1BA
330
15F
100
AcDbEntity
  8
$DDT_AUDIT_GENERATED_(12E)
  6
Continuous
 62
     7
100
AcDbLine
 10
167.6444416459
 20
184.65
 30
0.0
 11
167.7790605892
 21
184.65
 31
0.0
  0
LINE
  5
1BB
330
15F
100
AcDbEntity
  8
$DDT_AUDIT_GENERATED_(12E)
  6
Continuous
 62
     7
100
AcDbLine
 10
200.0098227027
 20
184.65
 30
0.0
 11
200.1444416459
 21
184.65
 31
0.0
  0
SPLINE
  5
1BC
330
15F
100
AcDbEntity
  8
$DDT_AUDIT_GENERATED_(12E)
  6
Continuous
 62
     7
100
AcDbSpline
210
0.0
220
0.0
230
1.0
 70
     8
 71
     3
 72
    14
 73
    10
 74
     0
 42
0.0000000011014719
 43
0.0000000001
 40
0.0
 40
0.0
 40
0.0
 40
0.0
 40
0.25
 40
0.25
 40
0.5
 40
0.5
 40
0.75
 40
0.75
 40
1.0
 40
1.0
 40
1.0
 40
1.0
 10
200.0098227027127
 20
184.65
 30
0.0
 10
199.6625048540855
 20
185.6278065684531
 30
0.0
 10
199.1645775415021
 20
186.324665062634
 30
0.0
 10
198.0746694769338
 20
187.2313470145037
 30
0.0
 10
197.4807952955288
 20
187.4452941148228
 30
0.0
 10
196.2923901921399
 20
187.4461612678647
 30
0.0
 10
195.7068364097428
 20
187.2388427095956
 30
0.0
 10
194.6065546666364
 20
186.3282442136723
 30
0.0
 10
194.1067579404625
 20
185.6267294011564
 30
0.0
 10
193.7598227027127
 20
184.65
 30
0.0
  0
SPLINE
  5
1BD
330
15F
100
AcDbEntity
  8
$DDT_AUDIT_GENERATED_(12E)
  6
Continuous
 62
     7
100
AcDbSpline
210
0.0
220
0.0
230
1.0
 70
     8
 71
     3
 72
    14
 73
    10
 74
     0
 42
0.0000000011014719
 43
0.0000000001
 40
0.0
 40
0.0
 40
0.0
 40
0.0
 40
0.25
 40
0.25
 40
0.5
 40
0.5
 40
0.75
 40
0.75
 40
1.0
 40
1.0
 40
1.0
 40
1.0
 10
174.0290605891796
 20
184.65
 30
0.0
 10
173.6817427405523
 20
185.6278065684531
 30
0.0
 10
173.1838154279689
 20
186.324665062634
 30
0.0
 10
172.0939073634007
 20
187.2313470145037
 30
0.0
 10
171.5000331819956
 20
187.4452941148228
 30
0.0
 10
170.3116280786068
 20
187.4461612678647
 30
0.0
 10
169.7260742962097
 20
187.2388427095956
 30
0.0
 10
168.6257925531032
 20
186.3282442136723
 30
0.0
 10
168.1259958269294
 20
185.6267294011564
 30
0.0
 10
167.7790605891796
 20
184.65
 30
0.0
  0
SPLINE
  5
1BE
330
15F
100
AcDbEntity
  8
$DDT_AUDIT_GENERATED_(12E)
  6
Continuous
 62
     7
100
AcDbSpline
210
0.0
220
0.0
230
1.0
 70
     8
 71
     3
 72
    14
 73
    10
 74
     0
 42
0.0000000006969408
 43
0.0000000001
 40
0.0
 40
0.0
 40
0.0
 40
0.0
 40
0.25
 40
0.25
 40
0.5
 40
0.5
 40
0.75
 40
0.75
 40
1.0
 40
1.0
 40
1.0
 40
1.0
 10
190.1444416459462
 20
184.65
 30
0.0
 10
189.451353293434
 20
185.6256284427698
 30
0.0
 10
188.4437931256032
 20
186.3316071314172
 30
0.0
 10
186.2531476732294
 20
187.2373208958134
 30
0.0
 10
185.06893336974
 20
187.4476232925033
 30
0.0
 10
182.6888453609155
 20
187.4438084543663
 30
0.0
 10
181.5058217513719
 20
187.2285092118166
 30
0.0
 10
179.3338187115295
 20
186.3233228971783
 30
0.0
 10
178.3323159982961
 20
185.6182889357064
 30
0.0
 10
177.6444416459462
 20
184.65
 30
0.0
  0
LINE
  5
1BF
330
15F
100
AcDbEntity
  8
$DDT_AUDIT_GENERATED_(12E)
  6
Continuous
 62
     7
100
AcDbLine
 10
177.6444416459
 20
174.65
 30
0.0
 11
174.0290605892
 21
174.65
 31
0.0
  0
LINE
  5
1C0
330
15F
100
AcDbEntity
  8
$DDT_AUDIT_GENERATED_(12E)
  6
Continuous
 62
     7
100
AcDbLine
 10
167.7790605892
 20
174.65
 30
0.0
 11
167.6444416459
 21
174.65
 31
0.0
  0
LINE
  5
1C1
330
15F
100
AcDbEntity
  8
$DDT_AUDIT_GENERATED_(12E)
  6
Continuous
 62
     7
100
AcDbLine
 10
200.0098227027
 20
174.65
 30
0.0
 11
200.1444416459
 21
174.65
 31
0.0
  0
LINE
  5
1C2
330
15F
100
AcDbEntity
  8
$DDT_AUDIT_GENERATED_(12E)
  6
Continuous
 62
     7
100
AcDbLine
 10
190.1444416459
 20
184.65
 30
0.0
 11
190.1444416459
 21
174.65
 31
0.0
  0
SPLINE
  5
1C3
330
15F
100
AcDbEntity
  8
$DDT_AUDIT_GENERATED_(12E)
  6
Continuous
 62
     7
100
AcDbSpline
210
0.0
220
0.0
230
1.0
 70
     8
 71
     3
 72
    14
 73
    10
 74
     0
 42
0.0000000006969408
 43
0.0000000001
 40
0.0
 40
0.0
 40
0.0
 40
0.0
 40
0.25
 40
0.25
 40
0.5
 40
0.5
 40
0.75
 40
0.75
 40
1.0
 40
1.0
 40
1.0
 40
1.0
 10
190.1444416459462
 20
174.65
 30
0.0
 10
189.451353293434
 20
173.6743715572303
 30
0.0
 10
188.4437931256032
 20
172.9683928685829
 30
0.0
 10
186.2531476732294
 20
172.0626791041867
 30
0.0
 10
185.06893336974
 20
171.8523767074967
 30
0.0
 10
182.6888453609155
 20
171.8561915456337
 30
0.0
 10
181.5058217513719
 20
172.0714907881835
 30
0.0
 10
179.3338187115294
 20
172.9766771028217
 30
0.0
 10
178.3323159982961
 20
173.6817110642937
 30
0.0
 10
177.6444416459462
 20
174.65
 30
0.0
  0
LINE
  5
1C4
330
15F
100
AcDbEntity
  8
$DDT_AUDIT_GENERATED_(12E)
  6
Continuous
 62
     7
100
AcDbLine
 10
177.6444416459
 20
174.65
 30
0.0
 11
177.6444416459
 21
184.65
 31
0.0
  0
LINE
  5
1C5
330
15F
100
AcDbEntity
  8
$DDT_AUDIT_GENERATED_(12E)
  6
Continuous
 62
     7
100
AcDbLine
 10
174.0290605892
 20
184.65
 30
0.0
 11
174.0290605892
 21
174.65
 31
0.0
  0
SPLINE
  5
1C6
330
15F
100
AcDbEntity
  8
$DDT_AUDIT_GENERATED_(12E)
  6
Continuous
 62
     7
100
AcDbSpline
210
0.0
220
0.0
230
1.0
 70
     8
 71
     3
 72
    14
 73
    10
 74
     0
 42
0.0000000011014719
 43
0.0000000001
 40
0.0
 40
0.0
 40
0.0
 40
0.0
 40
0.2500000000000001
 40
0.2500000000000001
 40
0.5000000000000001
 40
0.5000000000000001
 40
0.7500000000000002
 40
0.7500000000000002
 40
1.0
 40
1.0
 40
1.0
 40
1.0
 10
174.0290605891796
 20
174.65
 30
0.0
 10
173.6817427405523
 20
173.6721934315469
 30
0.0
 10
173.1838154279689
 20
172.9753349373661
 30
0.0
 10
172.0939073634007
 20
172.0686529854963
 30
0.0
 10
171.5000331819956
 20
171.8547058851773
 30
0.0
 10
170.3116280786068
 20
171.8538387321354
 30
0.0
 10
169.7260742962097
 20
172.0611572904045
 30
0.0
 10
168.6257925531032
 20
172.9717557863278
 30
0.0
 10
168.1259958269294
 20
173.6732705988436
 30
0.0
 10
167.7790605891796
 20
174.65
 30
0.0
  0
LINE
  5
1C7
330
15F
100
AcDbEntity
  8
$DDT_AUDIT_GENERATED_(12E)
  6
Continuous
 62
     7
100
AcDbLine
 10
167.7790605892
 20
174.65
 30
0.0
 11
167.7790605892
 21
184.65
 31
0.0
  0
LINE
  5
1C8
330
15F
100
AcDbEntity
  8
$DDT_AUDIT_GENERATED_(12E)
  6
Continuous
 62
     7
100
AcDbLine
 10
200.0098227027
 20
184.65
 30
0.0
 11
200.0098227027
 21
174.65
 31
0.0
  0
SPLINE
  5
1C9
330
15F
100
AcDbEntity
  8
$DDT_AUDIT_GENERATED_(12E)
  6
Continuous
 62
     7
100
AcDbSpline
210
0.0
220
0.0
230
1.0
 70
     8
 71
     3
 72
    14
 73
    10
 74
     0
 42
0.0000000011014719
 43
0.0000000001
 40
0.0
 40
0.0
 40
0.0
 40
0.0
 40
0.2499999999999999
 40
0.2499999999999999
 40
0.4999999999999999
 40
0.4999999999999999
 40
0.7499999999999999
 40
0.7499999999999999
 40
1.0
 40
1.0
 40
1.0
 40
1.0
 10
200.0098227027127
 20
174.65
 30
0.0
 10
199.6625048540855
 20
173.6721934315469
 30
0.0
 10
199.1645775415021
 20
172.9753349373661
 30
0.0
 10
198.0746694769338
 20
172.0686529854963
 30
0.0
 10
197.4807952955288
 20
171.8547058851773
 30
0.0
 10
196.2923901921399
 20
171.8538387321354
 30
0.0
 10
195.7068364097428
 20
172.0611572904045
 30
0.0
 10
194.6065546666364
 20
172.9717557863278
 30
0.0
 10
194.1067579404626
 20
173.6732705988436
 30
0.0
 10
193.7598227027127
 20
174.65
 30
0.0
  0
LINE
  5
1CA
330
15F
100
AcDbEntity
  8
$DDT_AUDIT_GENERATED_(12E)
  6
Continuous
 62
     7
100
AcDbLine
 10
193.7598227027
 20
174.65
 30
0.0
 11
193.7598227027
 21
184.65
 31
0.0
  0
LINE
  5
1CB
330
15F
100
AcDbEntity
  8
$DDT_AUDIT_GENERATED_(12E)
  6
Continuous
 62
     7
100
AcDbLine
 10
200.1444416459
 20
174.65
 30
0.0
 11
200.1444416459
 21
184.65
 31
0.0
  0
ARC
  5
1CC
330
15F
100
AcDbEntity
  8
$DDT_AUDIT_GENERATED_(12E)
  6
Continuous
 62
     7
100
AcDbCircle
 10
190.4980392495
 20
177.2857011982
 30
0.0
 40
10.0
100
AcDbArc
 50
322.1519040322
 51
344.7179936136
  0
ARC
  5
1CD
330
15F
100
AcDbEntity
  8
$DDT_AUDIT_GENERATED_(12E)
  6
Continuous
 62
     7
100
AcDbCircle
 10
177.2908440424
 20
177.2857011982
 30
0.0
 40
9.999999999999996
100
AcDbArc
 50
195.2820063864
 51
217.8480959678
  0
ARC
  5
1CE
330
15F
100
AcDbEntity
  8
$DDT_AUDIT_GENERATED_(12E)
  6
Continuous
 62
     7
100
AcDbCircle
 10
190.4980392495
 20
182.0142988018
 30
0.0
 40
9.999999999999998
100
AcDbArc
 50
15.2820063864
 51
37.8480959678
  0
ARC
  5
1CF
330
15F
100
AcDbEntity
  8
$DDT_AUDIT_GENERATED_(12E)
  6
Continuous
 62
     7
100
AcDbCircle
 10
177.2908440424
 20
182.0142988018
 30
0.0
 40
10.0
100
AcDbArc
 50
142.1519040322
 51
164.7179936136
  0
LINE
  5
1D0
330
15F
100
AcDbEntity
  8
$DDT_AUDIT_GENERATED_(12E)
  6
Continuous
 62
     7
100
AcDbLine
 10
167.6444416459
 20
184.65
 30
0.0
 11
167.6444416459
 21
174.65
 31
0.0
  0
LINE
  5
1D1
330
15F
100
AcDbEntity
  8
$DDT_AUDIT_GENERATED_(157)
  6
Continuous
 62
     7
100
AcDbLine
 10
194.3444416459
 20
171.05
 30
0.0
 11
173.4444416459
 21
171.05
 31
0.0
  0
LINE
  5
1D2
330
15F
100
AcDbEntity
  8
$DDT_AUDIT_GENERATED_(157)
  6
Continuous
 62
     7
100
AcDbLine
 10
194.3444416459
 20
170.35
 30
0.0
 11
194.3444416459
 21
171.05
 31
0.0
  0
LINE
  5
1D3
330
15F
100
AcDbEntity
  8
$DDT_AUDIT_GENERATED_(157)
  6
Continuous
 62
     7
100
AcDbLine
 10
173.4444416459
 20
171.05
 30
0.0
 11
173.4444416459
 21
170.35
 31
0.0
  0
LINE
  5
1D4
330
15F
100
AcDbEntity
  8
$DDT_AUDIT_GENERATED_(157)
  6
Continuous
 62
     7
100
AcDbLine
 10
194.3444416459
 20
171.05
 30
0.0
 11
194.2609912711
 21
171.15
 31
0.0
  0
LINE
  5
1D5
330
15F
100
AcDbEntity
  8
$DDT_AUDIT_GENERATED_(157)
  6
Continuous
 62
     7
100
AcDbLine
 10
173.5278920208
 20
171.15
 30
0.0
 11
173.4444416459
 21
171.05
 31
0.0
  0
LINE
  5
1D6
330
15F
100
AcDbEntity
  8
$DDT_AUDIT_GENERATED_(12E)
  6
Continuous
 62
     7
100
AcDbLine
 10
343.7598227027
 20
174.65
 30
0.0
 11
340.1444416459
 21
174.65
 31
0.0
  0
LINE
  5
1D7
330
15F
100
AcDbEntity
  8
$DDT_AUDIT_GENERATED_(12E)
  6
Continuous
 62
     7
100
AcDbLine
 10
319.3944416459
 20
171.15
 30
0.0
 11
348.3944416459
 21
171.15
 31
0.0
  0
LINE
  5
1D8
330
15F
100
AcDbEntity
  8
$DDT_AUDIT_GENERATED_(12E)
  6
Continuous
 62
     7
100
AcDbLine
 10
319.3944416459
 20
188.15
 30
0.0
 11
348.3944416459
 21
188.15
 31
0.0
  0
LINE
  5
1D9
330
15F
100
AcDbEntity
  8
$DDT_AUDIT_GENERATED_(12E)
  6
Continuous
 62
     7
100
AcDbLine
 10
343.7598227027
 20
184.65
 30
0.0
 11
340.1444416459
 21
184.65
 31
0.0
  0
LINE
  5
1DA
330
15F
100
AcDbEntity
  8
$DDT_AUDIT_GENERATED_(12E)
  6
Continuous
 62
     7
100
AcDbLine
 10
327.6444416459
 20
184.65
 30
0.0
 11
324.0290605892
 21
184.65
 31
0.0
  0
LINE
  5
1DB
330
15F
100
AcDbEntity
  8
$DDT_AUDIT_GENERATED_(12E)
  6
Continuous
 62
     7
100
AcDbLine
 10
317.7790605892
 20
184.65
 30
0.0
 11
317.6444416459
 21
184.65
 31
0.0
  0
LINE
  5
1DC
330
15F
100
AcDbEntity
  8
$DDT_AUDIT_GENERATED_(12E)
  6
Continuous
 62
     7
100
AcDbLine
 10
350.0098227027
 20
184.65
 30
0.0
 11
350.1444416459
 21
184.65
 31
0.0
  0
SPLINE
  5
1DD
330
15F
100
AcDbEntity
  8
$DDT_AUDIT_GENERATED_(12E)
  6
Continuous
 62
     7
100
AcDbSpline
210
0.0
220
0.0
230
1.0
 70
     8
 71
     3
 72
    14
 73
    10
 74
     0
 42
0.0000000011014719
 43
0.0000000001
 40
0.0
 40
0.0
 40
0.0
 40
0.0
 40
0.25
 40
0.25
 40
0.5
 40
0.5
 40
0.75
 40
0.75
 40
1.0
 40
1.0
 40
1.0
 40
1.0
 10
350.0098227027127
 20
184.65
 30
0.0
 10
349.6625048540855
 20
185.6278065684531
 30
0.0
 10
349.164577541502
 20
186.324665062634
 30
0.0
 10
348.0746694769338
 20
187.2313470145037
 30
0.0
 10
347.4807952955288
 20
187.4452941148228
 30
0.0
 10
346.2923901921399
 20
187.4461612678647
 30
0.0
 10
345.7068364097428
 20
187.2388427095956
 30
0.0
 10
344.6065546666364
 20
186.3282442136723
 30
0.0
 10
344.1067579404625
 20
185.6267294011564
 30
0.0
 10
343.7598227027127
 20
184.65
 30
0.0
  0
SPLINE
  5
1DE
330
15F
100
AcDbEntity
  8
$DDT_AUDIT_GENERATED_(12E)
  6
Continuous
 62
     7
100
AcDbSpline
210
0.0
220
0.0
230
1.0
 70
     8
 71
     3
 72
    14
 73
    10
 74
     0
 42
0.0000000011014719
 43
0.0000000001
 40
0.0
 40
0.0
 40
0.0
 40
0.0
 40
0.25
 40
0.25
 40
0.5
 40
0.5
 40
0.75
 40
0.75
 40
1.0
 40
1.0
 40
1.0
 40
1.0
 10
324.0290605891796
 20
184.65
 30
0.0
 10
323.6817427405523
 20
185.6278065684531
 30
0.0
 10
323.1838154279689
 20
186.324665062634
 30
0.0
 10
322.0939073634006
 20
187.2313470145037
 30
0.0
 10
321.5000331819956
 20
187.4452941148228
 30
0.0
 10
320.3116280786067
 20
187.4461612678647
 30
0.0
 10
319.7260742962097
 20
187.2388427095956
 30
0.0
 10
318.6257925531032
 20
186.3282442136722
 30
0.0
 10
318.1259958269293
 20
185.6267294011564
 30
0.0
 10
317.7790605891796
 20
184.65
 30
0.0
  0
SPLINE
  5
1DF
330
15F
100
AcDbEntity
  8
$DDT_AUDIT_GENERATED_(12E)
  6
Continuous
 62
     7
100
AcDbSpline
210
0.0
220
0.0
230
1.0
 70
     8
 71
     3
 72
    14
 73
    10
 74
     0
 42
0.0000000006969408
 43
0.0000000001
 40
0.0
 40
0.0
 40
0.0
 40
0.0
 40
0.25
 40
0.25
 40
0.5
 40
0.5
 40
0.75
 40
0.75
 40
1.0
 40
1.0
 40
1.0
 40
1.0
 10
340.1444416459461
 20
184.65
 30
0.0
 10
339.451353293434
 20
185.6256284427698
 30
0.0
 10
338.4437931256031
 20
186.3316071314171
 30
0.0
 10
336.2531476732294
 20
187.2373208958134
 30
0.0
 10
335.06893336974
 20
187.4476232925033
 30
0.0
 10
332.6888453609155
 20
187.4438084543663
 30
0.0
 10
331.5058217513719
 20
187.2285092118165
 30
0.0
 10
329.3338187115294
 20
186.3233228971783
 30
0.0
 10
328.3323159982961
 20
185.6182889357064
 30
0.0
 10
327.6444416459461
 20
184.65
 30
0.0
  0
LINE
  5
1E0
330
15F
100
AcDbEntity
  8
$DDT_AUDIT_GENERATED_(12E)
  6
Continuous
 62
     7
100
AcDbLine
 10
327.6444416459
 20
174.65
 30
0.0
 11
324.0290605892
 21
174.65
 31
0.0
  0
LINE
  5
1E1
330
15F
100
AcDbEntity
  8
$DDT_AUDIT_GENERATED_(12E)
  6
Continuous
 62
     7
100
AcDbLine
 10
317.7790605892
 20
174.65
 30
0.0
 11
317.6444416459
 21
174.65
 31
0.0
  0
LINE
  5
1E2
330
15F
100
AcDbEntity
  8
$DDT_AUDIT_GENERATED_(12E)
  6
Continuous
 62
     7
100
AcDbLine
 10
350.0098227027
 20
174.65
 30
0.0
 11
350.1444416459
 21
174.65
 31
0.0
  0
LINE
  5
1E3
330
15F
100
AcDbEntity
  8
$DDT_AUDIT_GENERATED_(12E)
  6
Continuous
 62
     7
100
AcDbLine
 10
340.1444416459
 20
184.65
 30
0.0
 11
340.1444416459
 21
174.65
 31
0.0
  0
SPLINE
  5
1E4
330
15F
100
AcDbEntity
  8
$DDT_AUDIT_GENERATED_(12E)
  6
Continuous
 62
     7
100
AcDbSpline
210
0.0
220
0.0
230
1.0
 70
     8
 71
     3
 72
    14
 73
    10
 74
     0
 42
0.0000000006969408
 43
0.0000000001
 40
0.0
 40
0.0
 40
0.0
 40
0.0
 40
0.25
 40
0.25
 40
0.5
 40
0.5
 40
0.75
 40
0.75
 40
1.0
 40
1.0
 40
1.0
 40
1.0
 10
340.1444416459461
 20
174.65
 30
0.0
 10
339.451353293434
 20
173.6743715572303
 30
0.0
 10
338.4437931256031
 20
172.9683928685829
 30
0.0
 10
336.2531476732294
 20
172.0626791041867
 30
0.0
 10
335.06893336974
 20
171.8523767074967
 30
0.0
 10
332.6888453609155
 20
171.8561915456337
 30
0.0
 10
331.5058217513719
 20
172.0714907881835
 30
0.0
 10
329.3338187115294
 20
172.9766771028217
 30
0.0
 10
328.3323159982961
 20
173.6817110642937
 30
0.0
 10
327.6444416459461
 20
174.65
 30
0.0
  0
LINE
  5
1E5
330
15F
100
AcDbEntity
  8
$DDT_AUDIT_GENERATED_(12E)
  6
Continuous
 62
     7
100
AcDbLine
 10
327.6444416459
 20
174.65
 30
0.0
 11
327.6444416459
 21
184.65
 31
0.0
  0
LINE
  5
1E6
330
15F
100
AcDbEntity
  8
$DDT_AUDIT_GENERATED_(12E)
  6
Continuous
 62
     7
100
AcDbLine
 10
324.0290605892
 20
184.65
 30
0.0
 11
324.0290605892
 21
174.65
 31
0.0
  0
SPLINE
  5
1E7
330
15F
100
AcDbEntity
  8
$DDT_AUDIT_GENERATED_(12E)
  6
Continuous
 62
     7
100
AcDbSpline
210
0.0
220
0.0
230
1.0
 70
     8
 71
     3
 72
    14
 73
    10
 74
     0
 42
0.0000000011014719
 43
0.0000000001
 40
0.0
 40
0.0
 40
0.0
 40
0.0
 40
0.2500000000000001
 40
0.2500000000000001
 40
0.5000000000000001
 40
0.5000000000000001
 40
0.7500000000000002
 40
0.7500000000000002
 40
1.0
 40
1.0
 40
1.0
 40
1.0
 10
324.0290605891796
 20
174.65
 30
0.0
 10
323.6817427405523
 20
173.6721934315469
 30
0.0
 10
323.1838154279689
 20
172.975334937366
 30
0.0
 10
322.0939073634006
 20
172.0686529854963
 30
0.0
 10
321.5000331819956
 20
171.8547058851772
 30
0.0
 10
320.3116280786067
 20
171.8538387321354
 30
0.0
 10
319.7260742962097
 20
172.0611572904045
 30
0.0
 10
318.6257925531032
 20
172.9717557863278
 30
0.0
 10
318.1259958269293
 20
173.6732705988436
 30
0.0
 10
317.7790605891796
 20
174.65
 30
0.0
  0
LINE
  5
1E8
330
15F
100
AcDbEntity
  8
$DDT_AUDIT_GENERATED_(12E)
  6
Continuous
 62
     7
100
AcDbLine
 10
317.7790605892
 20
174.65
 30
0.0
 11
317.7790605892
 21
184.65
 31
0.0
  0
LINE
  5
1E9
330
15F
100
AcDbEntity
  8
$DDT_AUDIT_GENERATED_(12E)
  6
Continuous
 62
     7
100
AcDbLine
 10
350.0098227027
 20
184.65
 30
0.0
 11
350.0098227027
 21
174.65
 31
0.0
  0
SPLINE
  5
1EA
330
15F
100
AcDbEntity
  8
$DDT_AUDIT_GENERATED_(12E)
  6
Continuous
 62
     7
100
AcDbSpline
210
0.0
220
0.0
230
1.0
 70
     8
 71
     3
 72
    14
 73
    10
 74
     0
 42
0.0000000011014719
 43
0.0000000001
 40
0.0
 40
0.0
 40
0.0
 40
0.0
 40
0.2499999999999999
 40
0.2499999999999999
 40
0.4999999999999999
 40
0.4999999999999999
 40
0.7499999999999999
 40
0.7499999999999999
 40
1.0
 40
1.0
 40
1.0
 40
1.0
 10
350.0098227027127
 20
174.65
 30
0.0
 10
349.6625048540855
 20
173.6721934315469
 30
0.0
 10
349.164577541502
 20
172.975334937366
 30
0.0
 10
348.0746694769338
 20
172.0686529854963
 30
0.0
 10
347.4807952955288
 20
171.8547058851772
 30
0.0
 10
346.2923901921399
 20
171.8538387321354
 30
0.0
 10
345.7068364097428
 20
172.0611572904045
 30
0.0
 10
344.6065546666364
 20
172.9717557863278
 30
0.0
 10
344.1067579404625
 20
173.6732705988436
 30
0.0
 10
343.7598227027127
 20
174.65
 30
0.0
  0
LINE
  5
1EB
330
15F
100
AcDbEntity
  8
$DDT_AUDIT_GENERATED_(12E)
  6
Continuous
 62
     7
100
AcDbLine
 10
343.7598227027
 20
174.65
 30
0.0
 11
343.7598227027
 21
184.65
 31
0.0
  0
LINE
  5
1EC
330
15F
100
AcDbEntity
  8
$DDT_AUDIT_GENERATED_(12E)
  6
Continuous
 62
     7
100
AcDbLine
 10
350.1444416459
 20
174.65
 30
0.0
 11
350.1444416459
 21
184.65
 31
0.0
  0
ARC
  5
1ED
330
15F
100
AcDbEntity
  8
$DDT_AUDIT_GENERATED_(12E)
  6
Continuous
 62
     7
100
AcDbCircle
 10
340.4980392495
 20
177.2857011982
 30
0.0
 40
9.999999999999988
100
AcDbArc
 50
322.1519040322
 51
344.7179936136
  0
ARC
  5
1EE
330
15F
100
AcDbEntity
  8
$DDT_AUDIT_GENERATED_(12E)
  6
Continuous
 62
     7
100
AcDbCircle
 10
327.2908440424
 20
177.2857011982
 30
0.0
 40
9.999999999999977
100
AcDbArc
 50
195.2820063864
 51
217.8480959678
  0
ARC
  5
1EF
330
15F
100
AcDbEntity
  8
$DDT_AUDIT_GENERATED_(12E)
  6
Continuous
 62
     7
100
AcDbCircle
 10
340.4980392495
 20
182.0142988018
 30
0.0
 40
9.999999999999979
100
AcDbArc
 50
15.2820063864
 51
37.8480959678
  0
ARC
  5
1F0
330
15F
100
AcDbEntity
  8
$DDT_AUDIT_GENERATED_(12E)
  6
Continuous
 62
     7
100
AcDbCircle
 10
327.2908440424
 20
182.0142988018
 30
0.0
 40
9.999999999999988
100
AcDbArc
 50
142.1519040322
 51
164.7179936136
  0
LINE
  5
1F1
330
15F
100
AcDbEntity
  8
$DDT_AUDIT_GENERATED_(12E)
  6
Continuous
 62
     7
100
AcDbLine
 10
317.6444416459
 20
184.65
 30
0.0
 11
317.6444416459
 21
174.65
 31
0.0
  0
ENDBLK
  5
1F3
330
15F
100
AcDbEntity
  8
0
100
AcDbBlockEnd
  0
ENDSEC
  0
SECTION
  2
ENTITIES
  0
INSERT
  5
5F
330
1F
100
AcDbEntity
  8
Default
100
AcDbBlockReference
  2
SEANNOT_GROUP
 10
0.0
 20
0.0
 30
0.0
  0
INSERT
  5
66
330
1F
100
AcDbEntity
  8
Default
100
AcDbBlockReference
  2
SEANNOT_GROUP1
 10
0.0
 20
0.0
 30
0.0
  0
INSERT
  5
6C
330
1F
100
AcDbEntity
  8
Default
100
AcDbBlockReference
  2
SEANNOT_GROUP2
 10
0.0
 20
0.0
 30
0.0
  0
INSERT
  5
72
330
1F
100
AcDbEntity
  8
Default
100
AcDbBlockReference
  2
SEANNOT_GROUP3
 10
0.0
 20
0.0
 30
0.0
  0
INSERT
  5
78
330
1F
100
AcDbEntity
  8
Default
100
AcDbBlockReference
  2
SEANNOT_GROUP4
 10
0.0
 20
0.0
 30
0.0
  0
LINE
  5
7D
330
1F
100
AcDbEntity
  8
Default
  6
Continuous
 62
     7
100
AcDbLine
 10
316.8944416459
 20
142.0514261032
 30
0.0
 11
316.8944416459
 21
137.35
 31
0.0
  0
LINE
  5
7E
330
1F
100
AcDbEntity
  8
Default
  6
Continuous
 62
     7
100
AcDbLine
 10
605.6958438434
 20
459.3781040721
 30
0.0
 11
605.6958438434
 21
424.8931025606
 31
0.0
  0
LINE
  5
7F
330
1F
100
AcDbEntity
  8
Default
  6
Continuous
 62
     7
100
AcDbLine
 10
316.8944416459
 20
137.35
 30
0.0
 11
321.4399114768
 21
137.35
 31
0.0
  0
INSERT
  5
81
330
1F
100
AcDbEntity
  8
Default
100
AcDbBlockReference
  2
SEANNOT_GROUP5
 10
0.0
 20
0.0
 30
0.0
  0
LINE
  5
86
330
1F
100
AcDbEntity
  8
Default
  6
Continuous
 62
     7
100
AcDbLine
 10
337.8628369347
 20
473.8781040721
 30
0.0
 11
333.8944416459
 21
473.8781040721
 31
0.0
  0
LINE
  5
87
330
1F
100
AcDbEntity
  8
Default
  6
Continuous
 62
     7
100
AcDbLine
 10
183.8944416459
 20
473.8781040721
 30
0.0
 11
180.5494875796
 21
473.8781040721
 31
0.0
  0
LINE
  5
88
330
1F
100
AcDbEntity
  8
Default
  6
Continuous
 62
     7
100
AcDbLine
 10
333.8944416459
 20
473.8781040721
 30
0.0
 11
333.8944416459
 21
479.3183766718
 31
0.0
  0
LINE
  5
89
330
1F
100
AcDbEntity
  8
Default
  6
Continuous
 62
     7
100
AcDbLine
 10
183.8944416459
 20
473.8781040721
 30
0.0
 11
183.8944416459
 21
478.5923150594
 31
0.0
  0
INSERT
  5
8B
330
1F
100
AcDbEntity
  8
Default
100
AcDbBlockReference
  2
SEANNOT_GROUP6
 10
0.0
 20
0.0
 30
0.0
  0
INSERT
  5
91
330
1F
100
AcDbEntity
  8
Default
100
AcDbBlockReference
  2
SEANNOT_GROUP7
 10
0.0
 20
0.0
 30
0.0
  0
INSERT
  5
97
330
1F
100
AcDbEntity
  8
Default
100
AcDbBlockReference
  2
SE
 10
0.0
 20
0.0
 30
0.0
  0
INSERT
  5
101
330
1F
100
AcDbEntity
  8
Default
100
AcDbBlockReference
  2
SE1
 10
0.0
 20
0.0
 30
0.0
  0
INSERT
  5
160
330
1F
100
AcDbEntity
  8
Default
100
AcDbBlockReference
  2
SE2
 10
0.0
 20
0.0
 30
0.0
  0
TEXT
  5
1F5
330
1F
100
AcDbEntity
  8
Default
  6
Continuous
 62
     7
100
AcDbText
 10
5.9362635081
 20
53.4225120485
 30
0.0
 40
10.0
  1
Grohe AG^J
  7
SEACAD_seiso_ttf
 11
5.9362635081
 21
63.4225120485
 31
0.0
100
AcDbText
 73
     3
  0
TEXT
  5
1F6
330
1F
100
AcDbEntity
  8
Default
  6
Continuous
 62
     7
100
AcDbText
 10
5.9362635081
 20
37.0588756849
 30
0.0
 40
10.0
  1
 
  7
SEACAD_seiso_ttf
 11
5.9362635081
 21
47.0588756849
 31
0.0
100
AcDbText
 73
     3
  0
TEXT
  5
1F7
330
1F
100
AcDbEntity
  8
Default
  6
Continuous
 62
     7
100
AcDbText
 10
5.9362635081
 20
20.6952393213
 30
0.0
 40
10.0
  1
ecn:
  7
SEACAD_seiso_ttf
 11
5.9362635081
 21
30.6952393213
 31
0.0
100
AcDbText
 73
     3
  0
TEXT
  5
1F8
330
1F
100
AcDbEntity
  8
Default
  6
Continuous
 62
     7
100
AcDbText
 10
5.9362635081
 20
4.3316029576
 30
0.0
 40
10.0
  1
unit: mm
  7
SEACAD_seiso_ttf
 11
5.9362635081
 21
14.3316029576
 31
0.0
100
AcDbText
 73
     3
  0
LINE
  5
1F9
330
1F
100
AcDbEntity
  8
Default
  6
Continuous
 62
     7
100
AcDbLine
 10
0.0
 20
0.0
 30
0.0
 11
100.0
 21
0.0
 31
0.0
  0
LINE
  5
1FA
330
1F
100
AcDbEntity
  8
Default
  6
Continuous
 62
     7
100
AcDbLine
 10
0.0
 20
0.0
 30
0.0
 11
0.0
 21
100.0
 31
0.0
  0
TEXT
  5
1FB
330
1F
100
AcDbEntity
  8
Default
  6
Continuous
 62
     7
100
AcDbText
 10
24.3923665681
 20
-18.2375342018
 30
0.0
 40
10.0
  1
100 mm
  7
SEACAD_seiso_ttf
 11
24.3923665681
 21
-8.2375342018
 31
0.0
100
AcDbText
 73
     3
  0
TEXT
  5
1FC
330
1F
100
AcDbEntity
  8
Default
  6
Continuous
 62
     7
100
AcDbText
 10
-7.6150308803
 20
24.6231930421
 30
0.0
 40
10.0
  1
100 mm
 50
90.0
  7
SEACAD_seiso_ttf
 11
-17.6150308803
 21
24.6231930421
 31
0.0
100
AcDbText
 73
     3
  0
TEXT
  5
1FD
330
1F
100
AcDbEntity
  8
Default
  6
Continuous
 62
     7
100
AcDbText
 10
28.4878128572
 20
20.0907663715
 30
0.0
 40
10.0
  1
225666
  7
SEACAD_seiso_ttf
 11
28.4878128572
 21
30.0907663715
 31
0.0
100
AcDbText
 73
     3
  0
TEXT
  5
1FE
330
1F
100
AcDbEntity
  8
Default
  6
Continuous
 62
     7
100
AcDbText
 10
5.9012241913
 20
36.7242780188
 30
0.0
 40
10.0
  1
34170001
  7
SEACAD_seiso_ttf
 11
5.9012241913
 21
46.7242780188
 31
0.0
100
AcDbText
 73
     3
  0
ENDSEC
  0
SECTION
  2
OBJECTS
  0
DICTIONARY
  5
C
330
0
100
AcDbDictionary
281
     1
  3
ACAD_GROUP
350
D
  3
ACAD_LAYOUT
350
1A
  3
ACAD_MLEADERSTYLE
350
202
  3
ACAD_MLINESTYLE
350
17
  3
ACAD_PLOTSETTINGS
350
19
  3
ACAD_PLOTSTYLENAME
350
E
  3
ACAD_SCALELIST
350
3B
  3
ACAD_TABLESTYLE
350
201
  3
ACAD_VISUALSTYLE
350
2A
  3
AcDbVariableDictionary
350
1FF
  0
DICTIONARY
  5
D
102
{ACAD_REACTORS
330
C
102
}
330
C
100
AcDbDictionary
281
     1
  0
DICTIONARY
  5
1A
102
{ACAD_REACTORS
330
C
102
}
330
C
100
AcDbDictionary
281
     1
  3
Layout1
350
1E
  3
Model
350
22
  0
DICTIONARY
  5
202
102
{ACAD_REACTORS
330
C
102
}
330
C
100
AcDbDictionary
281
     1
  0
DICTIONARY
  5
17
102
{ACAD_REACTORS
330
C
102
}
330
C
100
AcDbDictionary
281
     1
  3
Standard
350
18
  0
DICTIONARY
  5
19
102
{ACAD_REACTORS
330
C
102
}
330
C
100
AcDbDictionary
281
     1
  0
ACDBDICTIONARYWDFLT
  5
E
102
{ACAD_REACTORS
330
C
102
}
330
C
100
AcDbDictionary
281
     1
  3
Normal
350
F
100
AcDbDictionaryWithDefault
340
F
  0
DICTIONARY
  5
3B
102
{ACAD_REACTORS
330
C
102
}
330
C
100
AcDbDictionary
281
     1
  3
A0
350
3C
  3
A1
350
3D
  3
A2
350
3E
  3
A3
350
3F
  3
A4
350
40
  3
A5
350
41
  3
A6
350
42
  3
A7
350
43
  3
A8
350
44
  3
A9
350
45
  3
B0
350
46
  3
B1
350
47
  3
B2
350
48
  3
B3
350
49
  3
B4
350
4A
  3
B5
350
4B
  3
B6
350
4C
  3
B7
350
4D
  3
B8
350
4E
  3
B9
350
4F
  3
C0
350
50
  3
C1
350
51
  3
C2
350
52
  3
C3
350
53
  3
C4
350
54
  3
C5
350
55
  3
C6
350
56
  3
C7
350
57
  3
C8
350
58
  3
C9
350
59
  3
D0
350
5A
  3
D1
350
5B
  3
D2
350
5C
  0
DICTIONARY
  5
201
102
{ACAD_REACTORS
330
C
102
}
330
C
100
AcDbDictionary
281
     1
  0
DICTIONARY
  5
2A
102
{ACAD_REACTORS
330
C
102
}
330
C
100
AcDbDictionary
281
     1
  3
2dWireframe
350
2F
  3
3D Hidden
350
31
  3
3dWireframe
350
30
  3
Basic
350
32
  3
Brighten
350
36
  3
ColorChange
350
3A
  3
Conceptual
350
34
  3
Dim
350
35
  3
Facepattern
350
39
  3
Flat
350
2B
  3
FlatWithEdges
350
2C
  3
Gouraud
350
2D
  3
GouraudWithEdges
350
2E
  3
Linepattern
350
38
  3
Realistic
350
33
  3
Thicken
350
37
  0
DICTIONARY
  5
1FF
102
{ACAD_REACTORS
330
C
102
}
330
C
100
AcDbDictionary
281
     1
  3
CANNOSCALE
350
200
  3
PSOLHEIGHT
350
204
  3
PSOLWIDTH
350
203
  0
LAYOUT
  5
1E
102
{ACAD_REACTORS
330
1A
102
}
330
1A
100
AcDbPlotSettings
  1

  2
none_device
  4

  6

 40
0.0
 41
0.0
 42
0.0
 43
0.0
 44
0.0
 45
0.0
 46
0.0
 47
0.0
 48
0.0
 49
0.0
140
0.0
141
0.0
142
1.0
143
1.0
 70
   688
 72
     0
 73
     0
 74
     5
  7

 75
    16
147
1.0
148
0.0
149
0.0
100
AcDbLayout
  1
Layout1
 70
     1
 71
     1
 10
0.0
 20
0.0
 11
3000.0
 21
4500.0
 12
0.0
 22
0.0
 32
0.0
 14
0.0
 24
0.0
 34
0.0
 15
3000.0
 25
4500.0
 35
0.0
146
0.0
 13
0.0
 23
0.0
 33
0.0
 16
1.0
 26
0.0
 36
0.0
 17
0.0
 27
1.0
 37
0.0
 76
     0
330
1B
  0
LAYOUT
  5
22
102
{ACAD_REACTORS
330
1A
102
}
330
1A
100
AcDbPlotSettings
  1

  2
none_device
  4

  6

 40
0.0
 41
0.0
 42
0.0
 43
0.0
 44
0.0
 45
0.0
 46
0.0
 47
0.0
 48
0.0
 49
0.0
140
0.0
141
0.0
142
1.0
143
1.0
 70
  1712
 72
     0
 73
     0
 74
     0
  7

 75
     0
147
1.0
148
0.0
149
0.0
100
AcDbLayout
  1
Model
 70
     1
 71
     0
 10
0.0
 20
0.0
 11
3000.0
 21
4500.0
 12
0.0
 22
0.0
 32
0.0
 14
0.0
 24
0.0
 34
0.0
 15
3000.0
 25
4500.0
 35
0.0
146
0.0
 13
0.0
 23
0.0
 33
0.0
 16
1.0
 26
0.0
 36
0.0
 17
0.0
 27
1.0
 37
0.0
 76
     0
330
1F
331
29
  0
MLINESTYLE
  5
18
102
{ACAD_REACTORS
330
17
102
}
330
17
100
AcDbMlineStyle
  2
Standard
 70
     0
  3

 62
   256
 51
90.0
 52
90.0
 71
     2
 49
0.5
 62
   256
  6
BYLAYER
 49
-0.5
 62
   256
  6
BYLAYER
  0
ACDBPLACEHOLDER
  5
F
102
{ACAD_REACTORS
330
E
102
}
330
E
  0
SCALE
  5
3C
102
{ACAD_REACTORS
330
3B
102
}
330
3B
100
AcDbScale
 70
     0
300
1:1
140
1.0
141
1.0
290
     1
  0
SCALE
  5
3D
102
{ACAD_REACTORS
330
3B
102
}
330
3B
100
AcDbScale
 70
     0
300
1:2
140
1.0
141
2.0
290
     0
  0
SCALE
  5
3E
102
{ACAD_REACTORS
330
3B
102
}
330
3B
100
AcDbScale
 70
     0
300
1:4
140
1.0
141
4.0
290
     0
  0
SCALE
  5
3F
102
{ACAD_REACTORS
330
3B
102
}
330
3B
100
AcDbScale
 70
     0
300
1:5
140
1.0
141
5.0
290
     0
  0
SCALE
  5
40
102
{ACAD_REACTORS
330
3B
102
}
330
3B
100
AcDbScale
 70
     0
300
1:8
140
1.0
141
8.0
290
     0
  0
SCALE
  5
41
102
{ACAD_REACTORS
330
3B
102
}
330
3B
100
AcDbScale
 70
     0
300
1:10
140
1.0
141
10.0
290
     0
  0
SCALE
  5
42
102
{ACAD_REACTORS
330
3B
102
}
330
3B
100
AcDbScale
 70
     0
300
1:16
140
1.0
141
16.0
290
     0
  0
SCALE
  5
43
102
{ACAD_REACTORS
330
3B
102
}
330
3B
100
AcDbScale
 70
     0
300
1:20
140
1.0
141
20.0
290
     0
  0
SCALE
  5
44
102
{ACAD_REACTORS
330
3B
102
}
330
3B
100
AcDbScale
 70
     0
300
1:30
140
1.0
141
30.0
290
     0
  0
SCALE
  5
45
102
{ACAD_REACTORS
330
3B
102
}
330
3B
100
AcDbScale
 70
     0
300
1:40
140
1.0
141
40.0
290
     0
  0
SCALE
  5
46
102
{ACAD_REACTORS
330
3B
102
}
330
3B
100
AcDbScale
 70
     0
300
1:50
140
1.0
141
50.0
290
     0
  0
SCALE
  5
47
102
{ACAD_REACTORS
330
3B
102
}
330
3B
100
AcDbScale
 70
     0
300
1:100
140
1.0
141
100.0
290
     0
  0
SCALE
  5
48
102
{ACAD_REACTORS
330
3B
102
}
330
3B
100
AcDbScale
 70
     0
300
2:1
140
2.0
141
1.0
290
     0
  0
SCALE
  5
49
102
{ACAD_REACTORS
330
3B
102
}
330
3B
100
AcDbScale
 70
     0
300
4:1
140
4.0
141
1.0
290
     0
  0
SCALE
  5
4A
102
{ACAD_REACTORS
330
3B
102
}
330
3B
100
AcDbScale
 70
     0
300
8:1
140
8.0
141
1.0
290
     0
  0
SCALE
  5
4B
102
{ACAD_REACTORS
330
3B
102
}
330
3B
100
AcDbScale
 70
     0
300
10:1
140
10.0
141
1.0
290
     0
  0
SCALE
  5
4C
102
{ACAD_REACTORS
330
3B
102
}
330
3B
100
AcDbScale
 70
     0
300
100:1
140
100.0
141
1.0
290
     0
  0
SCALE
  5
4D
102
{ACAD_REACTORS
330
3B
102
}
330
3B
100
AcDbScale
 70
     0
300
1/128" = 1'-0"
140
0.0078125
141
12.0
290
     0
  0
SCALE
  5
4E
102
{ACAD_REACTORS
330
3B
102
}
330
3B
100
AcDbScale
 70
     0
300
1/64" = 1'-0"
140
0.015625
141
12.0
290
     0
  0
SCALE
  5
4F
102
{ACAD_REACTORS
330
3B
102
}
330
3B
100
AcDbScale
 70
     0
300
1/32" = 1'-0"
140
0.03125
141
12.0
290
     0
  0
SCALE
  5
50
102
{ACAD_REACTORS
330
3B
102
}
330
3B
100
AcDbScale
 70
     0
300
1/16" = 1'-0"
140
0.0625
141
12.0
290
     0
  0
SCALE
  5
51
102
{ACAD_REACTORS
330
3B
102
}
330
3B
100
AcDbScale
 70
     0
300
3/32" = 1'-0"
140
0.09375
141
12.0
290
     0
  0
SCALE
  5
52
102
{ACAD_REACTORS
330
3B
102
}
330
3B
100
AcDbScale
 70
     0
300
1/8" = 1'-0"
140
0.125
141
12.0
290
     0
  0
SCALE
  5
53
102
{ACAD_REACTORS
330
3B
102
}
330
3B
100
AcDbScale
 70
     0
300
3/16" = 1'-0"
140
0.1875
141
12.0
290
     0
  0
SCALE
  5
54
102
{ACAD_REACTORS
330
3B
102
}
330
3B
100
AcDbScale
 70
     0
300
1/4" = 1'-0"
140
0.25
141
12.0
290
     0
  0
SCALE
  5
55
102
{ACAD_REACTORS
330
3B
102
}
330
3B
100
AcDbScale
 70
     0
300
3/8" = 1'-0"
140
0.375
141
12.0
290
     0
  0
SCALE
  5
56
102
{ACAD_REACTORS
330
3B
102
}
330
3B
100
AcDbScale
 70
     0
300
1/2" = 1'-0"
140
0.5
141
12.0
290
     0
  0
SCALE
  5
57
102
{ACAD_REACTORS
330
3B
102
}
330
3B
100
AcDbScale
 70
     0
300
3/4" = 1'-0"
140
0.75
141
12.0
290
     0
  0
SCALE
  5
58
102
{ACAD_REACTORS
330
3B
102
}
330
3B
100
AcDbScale
 70
     0
300
1" = 1'-0"
140
1.0
141
12.0
290
     0
  0
SCALE
  5
59
102
{ACAD_REACTORS
330
3B
102
}
330
3B
100
AcDbScale
 70
     0
300
1-1/2" = 1'-0"
140
1.5
141
12.0
290
     0
  0
SCALE
  5
5A
102
{ACAD_REACTORS
330
3B
102
}
330
3B
100
AcDbScale
 70
     0
300
3" = 1'-0"
140
3.0
141
12.0
290
     0
  0
SCALE
  5
5B
102
{ACAD_REACTORS
330
3B
102
}
330
3B
100
AcDbScale
 70
     0
300
6" = 1'-0"
140
6.0
141
12.0
290
     0
  0
SCALE
  5
5C
102
{ACAD_REACTORS
330
3B
102
}
330
3B
100
AcDbScale
 70
     0
300
1'-0" = 1'-0"
140
12.0
141
12.0
290
     0
  0
VISUALSTYLE
  5
2F
102
{ACAD_REACTORS
330
2A
102
}
330
2A
100
AcDbVisualStyle
  2
2dWireframe
 70
     4
 71
     0
 72
     2
 73
     0
 90
        0
 40
-0.6
 41
-30.0
 62
     5
 63
     7
 74
     1
 91
        4
 64
     7
 65
   257
 75
     1
175
     1
 42
1.0
 92
        0
 66
   257
 43
1.0
 76
     1
 77
     6
 78
     2
 67
     7
 79
     5
170
     0
171
     0
290
     0
174
     0
 93
        1
 44
0.0
173
     0
291
     0
 45
0.0
1001
ACAD
1000
AcDbSavedByObjectVersion
1070
     0
  0
VISUALSTYLE
  5
31
102
{ACAD_REACTORS
330
2A
102
}
330
2A
100
AcDbVisualStyle
  2
3D Hidden
 70
     6
 71
     1
 72
     2
 73
     2
 90
        0
 40
-0.6
 41
-30.0
 62
     5
 63
     7
 74
     2
 91
        2
 64
     7
 65
   257
 75
     2
175
     1
 42
40.0
 92
        0
 66
   257
 43
1.0
 76
     1
 77
     6
 78
     2
 67
     7
 79
     3
170
     0
171
     0
290
     0
174
     0
 93
        1
 44
0.0
173
     0
291
     0
 45
0.0
1001
ACAD
1000
AcDbSavedByObjectVersion
1070
     0
  0
VISUALSTYLE
  5
30
102
{ACAD_REACTORS
330
2A
102
}
330
2A
100
AcDbVisualStyle
  2
3dWireframe
 70
     5
 71
     0
 72
     2
 73
     0
 90
        0
 40
-0.6
 41
-30.0
 62
     5
 63
     7
 74
     1
 91
        4
 64
     7
 65
   257
 75
     1
175
     1
 42
1.0
 92
        0
 66
   257
 43
1.0
 76
     1
 77
     6
 78
     2
 67
     7
 79
     5
170
     0
171
     0
290
     0
174
     0
 93
        1
 44
0.0
173
     0
291
     0
 45
0.0
1001
ACAD
1000
AcDbSavedByObjectVersion
1070
     0
  0
VISUALSTYLE
  5
32
102
{ACAD_REACTORS
330
2A
102
}
330
2A
100
AcDbVisualStyle
  2
Basic
 70
     7
 71
     1
 72
     0
 73
     1
 90
        0
 40
-0.6
 41
-30.0
 62
     5
 63
     7
 74
     0
 91
        4
 64
     7
 65
   257
 75
     1
175
     1
 42
1.0
 92
        8
 66
     7
 43
1.0
 76
     1
 77
     6
 78
     2
 67
     7
 79
     5
170
     0
171
     0
290
     0
174
     0
 93
        1
 44
0.0
173
     0
291
     1
 45
0.0
1001
ACAD
1000
AcDbSavedByObjectVersion
1070
     0
  0
VISUALSTYLE
  5
36
102
{ACAD_REACTORS
330
2A
102
}
330
2A
100
AcDbVisualStyle
  2
Brighten
 70
    12
 71
     2
 72
     2
 73
     0
 90
        0
 40
-0.6
 41
-30.0
 62
     5
 63
     7
 74
     1
 91
        4
 64
     7
 65
   257
 75
     1
175
     1
 42
1.0
 92
        8
 66
     7
 43
1.0
 76
     1
 77
     6
 78
     2
 67
     7
 79
     5
170
     0
171
     0
290
     0
174
     0
 93
        1
 44
50.0
173
     0
291
     1
 45
0.0
1001
ACAD
1000
AcDbSavedByObjectVersion
1070
     0
  0
VISUALSTYLE
  5
3A
102
{ACAD_REACTORS
330
2A
102
}
330
2A
100
AcDbVisualStyle
  2
ColorChange
 70
    16
 71
     2
 72
     2
 73
     3
 90
        0
 40
-0.6
 41
-30.0
 62
     5
 63
     8
 74
     1
 91
        4
 64
     7
 65
   257
 75
     1
175
     1
 42
1.0
 92
        8
 66
     8
 43
1.0
 76
     1
 77
     6
 78
     2
 67
     7
 79
     5
170
     0
171
     0
290
     0
174
     0
 93
        1
 44
0.0
173
     0
291
     1
 45
0.0
1001
ACAD
1000
AcDbSavedByObjectVersion
1070
     0
  0
VISUALSTYLE
  5
34
102
{ACAD_REACTORS
330
2A
102
}
330
2A
100
AcDbVisualStyle
  2
Conceptual
 70
     9
 71
     3
 72
     2
 73
     0
 90
        0
 40
-0.6
 41
-30.0
 62
     5
 63
     7
 74
     2
 91
        2
 64
     7
 65
   257
 75
     1
175
     1
 42
40.0
 92
        8
 66
     7
 43
1.0
 76
     1
 77
     6
 78
     2
 67
     7
 79
     3
170
     0
171
     0
290
     0
174
     0
 93
        1
 44
0.0
173
     0
291
     0
 45
0.0
1001
ACAD
1000
AcDbSavedByObjectVersion
1070
     0
  0
VISUALSTYLE
  5
35
102
{ACAD_REACTORS
330
2A
102
}
330
2A
100
AcDbVisualStyle
  2
Dim
 70
    11
 71
     2
 72
     2
 73
     0
 90
        0
 40
-0.6
 41
-30.0
 62
     5
 63
     7
 74
     1
 91
        4
 64
     7
 65
   257
 75
     1
175
     1
 42
1.0
 92
        8
 66
     7
 43
1.0
 76
     1
 77
     6
 78
     2
 67
     7
 79
     5
170
     0
171
     0
290
     0
174
     0
 93
        1
 44
-50.0
173
     0
291
     1
 45
0.0
1001
ACAD
1000
AcDbSavedByObjectVersion
1070
     0
  0
VISUALSTYLE
  5
39
102
{ACAD_REACTORS
330
2A
102
}
330
2A
100
AcDbVisualStyle
  2
Facepattern
 70
    15
 71
     2
 72
     2
 73
     0
 90
        0
 40
-0.6
 41
-30.0
 62
     5
 63
     7
 74
     1
 91
        4
 64
     7
 65
   257
 75
     1
175
     1
 42
1.0
 92
        8
 66
     7
 43
1.0
 76
     1
 77
     6
 78
     2
 67
     7
 79
     5
170
     0
171
     0
290
     0
174
     0
 93
        1
 44
0.0
173
     0
291
     1
 45
0.0
1001
ACAD
1000
AcDbSavedByObjectVersion
1070
     0
  0
VISUALSTYLE
  5
2B
102
{ACAD_REACTORS
330
2A
102
}
330
2A
100
AcDbVisualStyle
  2
Flat
 70
     0
 71
     2
 72
     1
 73
     1
 90
        2
 40
-0.6
 41
30.0
 62
     5
 63
     7
 74
     0
 91
        4
 64
     7
 65
   257
 75
     1
175
     1
 42
1.0
 92
        8
 66
     7
 43
1.0
 76
     1
 77
     6
 78
     2
 67
     7
 79
     5
170
     0
171
     0
290
     0
174
     0
 93
       13
 44
0.0
173
     0
291
     1
 45
0.0
1001
ACAD
1000
AcDbSavedByObjectVersion
1070
     0
  0
VISUALSTYLE
  5
2C
102
{ACAD_REACTORS
330
2A
102
}
330
2A
100
AcDbVisualStyle
  2
FlatWithEdges
 70
     1
 71
     2
 72
     1
 73
     1
 90
        2
 40
-0.6
 41
30.0
 62
     5
 63
     7
 74
     1
 91
        4
 64
     7
 65
   257
 75
     1
175
     1
 42
1.0
 92
        0
 66
   257
 43
1.0
 76
     1
 77
     6
 78
     2
 67
     7
 79
     5
170
     0
171
     0
290
     0
174
     0
 93
       13
 44
0.0
173
     0
291
     1
 45
0.0
1001
ACAD
1000
AcDbSavedByObjectVersion
1070
     0
  0
VISUALSTYLE
  5
2D
102
{ACAD_REACTORS
330
2A
102
}
330
2A
100
AcDbVisualStyle
  2
Gouraud
 70
     2
 71
     2
 72
     2
 73
     1
 90
        2
 40
-0.6
 41
30.0
 62
     5
 63
     7
 74
     0
 91
        4
 64
     7
 65
   257
 75
     1
175
     1
 42
1.0
 92
        0
 66
     7
 43
1.0
 76
     1
 77
     6
 78
     2
 67
     7
 79
     5
170
     0
171
     0
290
     0
174
     0
 93
       13
 44
0.0
173
     0
291
     1
 45
0.0
1001
ACAD
1000
AcDbSavedByObjectVersion
1070
     0
  0
VISUALSTYLE
  5
2E
102
{ACAD_REACTORS
330
2A
102
}
330
2A
100
AcDbVisualStyle
  2
GouraudWithEdges
 70
     3
 71
     2
 72
     2
 73
     1
 90
        2
 40
-0.6
 41
30.0
 62
     5
 63
     7
 74
     1
 91
        4
 64
     7
 65
   257
 75
     1
175
     1
 42
1.0
 92
        0
 66
   257
 43
1.0
 76
     1
 77
     6
 78
     2
 67
     7
 79
     5
170
     0
171
     0
290
     0
174
     0
 93
       13
 44
0.0
173
     0
291
     1
 45
0.0
1001
ACAD
1000
AcDbSavedByObjectVersion
1070
     0
  0
VISUALSTYLE
  5
38
102
{ACAD_REACTORS
330
2A
102
}
330
2A
100
AcDbVisualStyle
  2
Linepattern
 70
    14
 71
     2
 72
     2
 73
     0
 90
        0
 40
-0.6
 41
-30.0
 62
     5
 63
     7
 74
     1
 91
        4
 64
     7
 65
   257
 75
     7
175
     7
 42
1.0
 92
        8
 66
     7
 43
1.0
 76
     1
 77
     6
 78
     2
 67
     7
 79
     5
170
     0
171
     0
290
     0
174
     0
 93
        1
 44
0.0
173
     0
291
     1
 45
0.0
1001
ACAD
1000
AcDbSavedByObjectVersion
1070
     0
  0
VISUALSTYLE
  5
33
102
{ACAD_REACTORS
330
2A
102
}
330
2A
100
AcDbVisualStyle
  2
Realistic
 70
     8
 71
     2
 72
     2
 73
     0
 90
        0
 40
-0.6
 41
-30.0
 62
     5
 63
     7
 74
     1
 91
        0
 64
     7
 65
   257
 75
     1
175
     1
 42
1.0
 92
        8
 66
     8
 43
1.0
 76
     1
 77
     6
 78
     2
 67
     7
 79
     5
170
     0
171
     0
290
     0
174
     0
 93
       13
 44
0.0
173
     0
291
     0
 45
0.0
1001
ACAD
1000
AcDbSavedByObjectVersion
1070
     0
  0
VISUALSTYLE
  5
37
102
{ACAD_REACTORS
330
2A
102
}
330
2A
100
AcDbVisualStyle
  2
Thicken
 70
    13
 71
     2
 72
     2
 73
     0
 90
        0
 40
-0.6
 41
-30.0
 62
     5
 63
     7
 74
     1
 91
        4
 64
     7
 65
   257
 75
     1
175
     1
 42
1.0
 92
       12
 66
     7
 43
1.0
 76
     1
 77
     6
 78
     2
 67
     7
 79
     5
170
     0
171
     0
290
     0
174
     0
 93
        1
 44
0.0
173
     0
291
     1
 45
0.0
1001
ACAD
1000
AcDbSavedByObjectVersion
1070
     0
  0
DICTIONARYVAR
  5
200
102
{ACAD_REACTORS
330
1FF
102
}
330
1FF
100
DictionaryVariables
280
     0
  1
1:1
  0
DICTIONARYVAR
  5
204
102
{ACAD_REACTORS
330
1FF
102
}
330
1FF
100
DictionaryVariables
280
     0
  1
80.000000
  0
DICTIONARYVAR
  5
203
102
{ACAD_REACTORS
330
1FF
102
}
330
1FF
100
DictionaryVariables
280
     0
  1
5.000000
  0
ENDSEC
  0
EOF
