  0
SECTION
  2
HEADER
  9
$ACADVER
  1
AC1009
  9
$DWGCODEPAGE
  3
ansi_1252
  9
$INSBASE
 10
0.0
 20
0.0
 30
0.0
  9
$EXTMIN
 10
1.000000000000000E+20
 20
1.000000000000000E+20
 30
1.000000000000000E+20
  9
$EXTMAX
 10
-1.000000000000000E+20
 20
-1.000000000000000E+20
 30
-1.000000000000000E+20
  9
$LIMMIN
 10
0.0
 20
0.0
  9
$LIMMAX
 10
12.0
 20
9.0
  9
$ORTHOMODE
 70
     0
  9
$REGENMODE
 70
     1
  9
$FILLMODE
 70
     1
  9
$QTEXTMODE
 70
     0
  9
$MIRRTEXT
 70
     1
  9
$DRAGMODE
 70
     2
  9
$LTSCALE
 40
1.0
  9
$OSMODE
 70
    37
  9
$ATTMODE
 70
     1
  9
$TEXTSIZE
 40
0.2
  9
$TRACEWID
 40
0.05
  9
$TEXTSTYLE
  7
STANDARD
  9
$CLAYER
  8
0
  9
$CELTYPE
  6
BYLAYER
  9
$CECOLOR
 62
   256
  9
$DIMSCALE
 40
1.0
  9
$DIMASZ
 40
0.18
  9
$DIMEXO
 40
0.0625
  9
$DIMDLI
 40
0.38
  9
$DIMRND
 40
0.0
  9
$DIMDLE
 40
0.0
  9
$DIMEXE
 40
0.18
  9
$DIMTP
 40
0.0
  9
$DIMTM
 40
0.0
  9
$DIMTXT
 40
0.18
  9
$DIMCEN
 40
0.09
  9
$DIMTSZ
 40
0.0
  9
$DIMTOL
 70
     0
  9
$DIMLIM
 70
     0
  9
$DIMTIH
 70
     1
  9
$DIMTOH
 70
     1
  9
$DIMSE1
 70
     0
  9
$DIMSE2
 70
     0
  9
$DIMTAD
 70
     0
  9
$DIMZIN
 70
     0
  9
$DIMBLK
  1

  9
$DIMASO
 70
     1
  9
$DIMSHO
 70
     1
  9
$DIMPOST
  1

  9
$DIMAPOST
  1

  9
$DIMALT
 70
     0
  9
$DIMALTD
 70
     2
  9
$DIMALTF
 40
25.4
  9
$DIMLFAC
 40
1.0
  9
$DIMTOFL
 70
     0
  9
$DIMTVP
 40
0.0
  9
$DIMTIX
 70
     0
  9
$DIMSOXD
 70
     0
  9
$DIMSAH
 70
     0
  9
$DIMBLK1
  1

  9
$DIMBLK2
  1

  9
$DIMSTYLE
  2
STANDARD
  9
$DIMCLRD
 70
     0
  9
$DIMCLRE
 70
     0
  9
$DIMCLRT
 70
     0
  9
$DIMTFAC
 40
1.0
  9
$DIMGAP
 40
0.09
  9
$LUNITS
 70
     2
  9
$LUPREC
 70
     4
  9
$SKETCHINC
 40
0.1
  9
$FILLETRAD
 40
0.5
  9
$AUNITS
 70
     0
  9
$AUPREC
 70
     0
  9
$MENU
  1
.
  9
$ELEVATION
 40
0.0
  9
$PELEVATION
 40
0.0
  9
$THICKNESS
 40
0.0
  9
$LIMCHECK
 70
     0
  9
$CHAMFERA
 40
0.5
  9
$CHAMFERB
 40
0.5
  9
$SKPOLY
 70
     0
  9
$TDCREATE
 40
2456167.358408102
  9
$TDUPDATE
 40
2456167.358408102
  9
$TDINDWG
 40
0.0000000116
  9
$TDUSRTIMER
 40
0.0000000116
  9
$USRTIMER
 70
     1
  9
$ANGBASE
 50
0.0
  9
$ANGDIR
 70
     0
  9
$PDMODE
 70
     0
  9
$PDSIZE
 40
0.0
  9
$PLINEWID
 40
0.0
  9
$COORDS
 70
     1
  9
$SPLFRAME
 70
     0
  9
$SPLINETYPE
 70
     6
  9
$SPLINESEGS
 70
     8
  9
$ATTDIA
 70
     0
  9
$ATTREQ
 70
     1
  9
$HANDLING
 70
     1
  9
$HANDSEED
  5
B99
  9
$SURFTAB1
 70
     6
  9
$SURFTAB2
 70
     6
  9
$SURFTYPE
 70
     6
  9
$SURFU
 70
     6
  9
$SURFV
 70
     6
  9
$UCSNAME
  2

  9
$UCSORG
 10
0.0
 20
0.0
 30
0.0
  9
$UCSXDIR
 10
1.0
 20
0.0
 30
0.0
  9
$UCSYDIR
 10
0.0
 20
1.0
 30
0.0
  9
$PUCSNAME
  2

  9
$PUCSORG
 10
0.0
 20
0.0
 30
0.0
  9
$PUCSXDIR
 10
1.0
 20
0.0
 30
0.0
  9
$PUCSYDIR
 10
0.0
 20
1.0
 30
0.0
  9
$USERI1
 70
     0
  9
$USERI2
 70
     0
  9
$USERI3
 70
     0
  9
$USERI4
 70
     0
  9
$USERI5
 70
     0
  9
$USERR1
 40
0.0
  9
$USERR2
 40
0.0
  9
$USERR3
 40
0.0
  9
$USERR4
 40
0.0
  9
$USERR5
 40
0.0
  9
$WORLDVIEW
 70
     1
  9
$SHADEDGE
 70
     3
  9
$SHADEDIF
 70
    70
  9
$TILEMODE
 70
     1
  9
$MAXACTVP
 70
    64
  9
$PLIMCHECK
 70
     0
  9
$PEXTMIN
 10
1.000000000000000E+20
 20
1.000000000000000E+20
 30
1.000000000000000E+20
  9
$PEXTMAX
 10
-1.000000000000000E+20
 20
-1.000000000000000E+20
 30
-1.000000000000000E+20
  9
$PLIMMIN
 10
0.0
 20
0.0
  9
$PLIMMAX
 10
12.0
 20
9.0
  9
$UNITMODE
 70
     0
  9
$VISRETAIN
 70
     1
  9
$PLINEGEN
 70
     0
  9
$PSLTSCALE
 70
     1
  0
ENDSEC
  0
SECTION
  2
TABLES
  0
TABLE
  2
VPORT
 70
     1
  0
VPORT
  2
*ACTIVE
 70
     0
 10
0.0
 20
0.0
 11
1.0
 21
1.0
 12
0.0
 22
0.0
 13
0.0
 23
0.0
 14
0.5
 24
0.5
 15
0.5
 25
0.5
 16
-385.5291748046875
 26
-159.69140625
 36
83.00491333007812
 17
2.841217041015625
 27
-8.184371948242188
 37
-27.66324234008789
 40
173.1658388010308
 41
1.972972972850329
 42
50.0
 43
0.0
 44
0.0
 50
0.0
 51
0.0
 71
     0
 72
   100
 73
     1
 74
     3
 75
     0
 76
     0
 77
     0
 78
     0
  0
ENDTAB
  0
TABLE
  2
LTYPE
 70
     1
  0
LTYPE
  2
CONTINUOUS
 70
     0
  3
Solid line
 72
    65
 73
     0
 40
0.0
  0
ENDTAB
  0
TABLE
  2
LAYER
 70
     2
  0
LAYER
  2
0
 70
     0
 62
     7
  6
CONTINUOUS
  0
LAYER
  2
LAYER_1
 70
     0
 62
     7
  6
CONTINUOUS
  0
ENDTAB
  0
TABLE
  2
STYLE
 70
     1
  0
STYLE
  2
STANDARD
 70
     0
 40
0.0
 41
1.0
 50
0.0
 71
     0
 42
0.2
  3
txt
  4

  0
ENDTAB
  0
TABLE
  2
VIEW
 70
     0
  0
ENDTAB
  0
TABLE
  2
UCS
 70
     0
  0
ENDTAB
  0
TABLE
  2
APPID
 70
     1
  0
APPID
  2
ACAD
 70
     0
  0
ENDTAB
  0
TABLE
  2
DIMSTYLE
 70
     1
  0
DIMSTYLE
  2
STANDARD
 70
     0
  3

  4

  5

  6

  7

 40
1.0
 41
0.18
 42
0.0625
 43
0.38
 44
0.18
 45
0.0
 46
0.0
 47
0.0
 48
0.0
140
0.18
141
0.09
142
0.0
143
25.4
144
1.0
145
0.0
146
1.0
147
0.09
 71
     0
 72
     0
 73
     1
 74
     1
 75
     0
 76
     0
 77
     0
 78
     0
170
     0
171
     2
172
     0
173
     0
174
     0
175
     0
176
     0
177
     0
178
     0
  0
ENDTAB
  0
ENDSEC
  0
SECTION
  2
BLOCKS
  0
BLOCK
  8
0
  2
$MODEL_SPACE
 70
     0
 10
0.0
 20
0.0
 30
0.0
  3
$MODEL_SPACE
  1

  0
ENDBLK
  5
21
  8
0
  0
BLOCK
 67
     1
  8
0
  2
$PAPER_SPACE
 70
     0
 10
0.0
 20
0.0
 30
0.0
  3
$PAPER_SPACE
  1

  0
ENDBLK
  5
1D
 67
     1
  8
0
  0
BLOCK
  8
0
  2
38
 70
     0
 10
0.0
 20
0.0
 30
0.0
  3
38
  1

  0
POLYLINE
  5
3C
  8
0
 62
     9
 66
     1
 10
0.0
 20
0.0
 30
0.0
 70
    64
 71
    42
 72
    64
  0
VERTEX
  5
3D
  8
0
 10
81.44347381591797
 20
40.40690612792969
 30
-0.8036850094795227
 70
   192
  0
VERTEX
  5
3E
  8
0
 10
78.57171630859375
 20
40.44290161132812
 30
-0.8036850094795227
 70
   192
  0
VERTEX
  5
3F
  8
0
 10
86.50161743164062
 20
34.09999847412109
 30
-0.8036850094795227
 70
   192
  0
VERTEX
  5
40
  8
0
 10
76.0382080078125
 20
39.08579635620117
 30
-0.8036850094795227
 70
   192
  0
VERTEX
  5
41
  8
0
 10
85.85612487792969
 20
36.90181732177734
 30
-0.8036850094795227
 70
   192
  0
VERTEX
  5
42
  8
0
 10
84.03577423095703
 20
39.15171813964844
 30
-0.8036850094795227
 70
   192
  0
VERTEX
  5
43
  8
0
 10
74.13459777832031
 20
36.94656753540039
 30
-0.8036850094795227
 70
   192
  0
VERTEX
  5
44
  8
0
 10
73.50161743164062
 20
34.09999847412109
 30
-0.8036850094795227
 70
   192
  0
VERTEX
  5
45
  8
0
 10
86.50161743164062
 20
-34.09999847412109
 30
-0.8036850094795227
 70
   192
  0
VERTEX
  5
46
  8
0
 10
81.4315185546875
 20
-40.44290161132812
 30
-0.8036850094795227
 70
   192
  0
VERTEX
  5
47
  8
0
 10
73.50161743164062
 20
-34.09999847412109
 30
-0.8036850094795227
 70
   192
  0
VERTEX
  5
48
  8
0
 10
78.55976104736328
 20
-40.40690612792969
 30
-0.8036850094795227
 70
   192
  0
VERTEX
  5
49
  8
0
 10
74.14710998535156
 20
-36.90181732177734
 30
-0.8036850094795227
 70
   192
  0
VERTEX
  5
4A
  8
0
 10
75.96746826171875
 20
-39.15171813964844
 30
-0.8036850094795227
 70
   192
  0
VERTEX
  5
4B
  8
0
 10
83.96503448486328
 20
-39.08579635620117
 30
-0.8036850094795227
 70
   192
  0
VERTEX
  5
4C
  8
0
 10
85.86863708496094
 20
-36.94656753540039
 30
-0.8036850094795227
 70
   192
  0
VERTEX
  5
4D
  8
0
 10
86.50161743164062
 20
34.09999847412109
 30
3.196315050125122
 70
   192
  0
VERTEX
  5
4E
  8
0
 10
86.50161743164062
 20
-34.09999847412109
 30
3.196315050125122
 70
   192
  0
VERTEX
  5
4F
  8
0
 10
79.90887451171875
 20
-40.60012435913086
 30
3.196315050125122
 70
   192
  0
VERTEX
  5
50
  8
0
 10
77.47757720947266
 20
-40.06478118896484
 30
3.196315050125122
 70
   192
  0
VERTEX
  5
51
  8
0
 10
75.44389343261719
 20
-38.59756469726562
 30
3.196315050125122
 70
   192
  0
VERTEX
  5
52
  8
0
 10
73.97652435302734
 20
-36.58733367919922
 30
3.196315050125122
 70
   192
  0
VERTEX
  5
53
  8
0
 10
73.50161743164062
 20
-34.09999847412109
 30
3.196315050125122
 70
   192
  0
VERTEX
  5
54
  8
0
 10
82.92481994628906
 20
-41.29864883422852
 30
3.196315050125122
 70
   192
  0
VERTEX
  5
55
  8
0
 10
85.48776245117188
 20
-39.58614349365234
 30
3.196315050125122
 70
   192
  0
VERTEX
  5
56
  8
0
 10
87.20026397705078
 20
-37.02320098876953
 30
3.196315050125122
 70
   192
  0
VERTEX
  5
57
  8
0
 10
73.50161743164062
 20
34.09999847412109
 30
3.196315050125122
 70
   192
  0
VERTEX
  5
58
  8
0
 10
79.92851257324219
 20
40.5988883972168
 30
3.196315050125122
 70
   192
  0
VERTEX
  5
59
  8
0
 10
82.92481231689453
 20
41.29863357543945
 30
3.196315050125122
 70
   192
  0
VERTEX
  5
5A
  8
0
 10
85.48776245117188
 20
39.58614349365234
 30
3.196315050125122
 70
   192
  0
VERTEX
  5
5B
  8
0
 10
87.20024871826172
 20
37.023193359375
 30
3.196315050125122
 70
   192
  0
VERTEX
  5
5C
  8
0
 10
77.47637176513672
 20
40.0426139831543
 30
3.196315050125122
 70
   192
  0
VERTEX
  5
5D
  8
0
 10
75.38480377197266
 20
38.64732360839844
 30
3.196315050125122
 70
   192
  0
VERTEX
  5
5E
  8
0
 10
73.99240112304688
 20
36.55519866943359
 30
3.196315050125122
 70
   192
  0
VERTEX
  5
5F
  8
0
 10
69.88816833496094
 20
-39.93548202514648
 30
3.196315050125122
 70
   192
  0
VERTEX
  5
60
  8
0
 10
37.16703796386719
 20
-11.19476890563965
 30
3.196315050125122
 70
   192
  0
VERTEX
  5
61
  8
0
 10
69.88816833496094
 20
39.93548202514648
 30
3.196315050125122
 70
   192
  0
VERTEX
  5
62
  8
0
 10
75.10161590576172
 20
-41.90000152587891
 30
3.196315050125122
 70
   192
  0
VERTEX
  5
63
  8
0
 10
37.16703796386719
 20
11.19476890563965
 30
3.196315050125122
 70
   192
  0
VERTEX
  5
64
  8
0
 10
32.69257736206055
 20
4.158882141113281
 30
3.196315050125122
 70
   192
  0
VERTEX
  5
65
  8
0
 10
32.69752502441406
 20
-4.173888206481934
 30
3.196315050125122
 70
   192
  0
VERTEX
  5
66
  8
0
 10
75.10161590576172
 20
41.90000152587891
 30
3.196315050125122
 70
   192
  0
VERTEX
  5
67
  8
0
 62
     9
 10
0.0
 20
0.0
 30
0.0
 70
   128
 71
     3
 72
     2
 73
     1
  0
VERTEX
  5
68
  8
0
 62
     9
 10
0.0
 20
0.0
 30
0.0
 70
   128
 71
     3
 72
     4
 73
     2
  0
VERTEX
  5
69
  8
0
 62
     9
 10
0.0
 20
0.0
 30
0.0
 70
   128
 71
     5
 72
     3
 73
     1
  0
VERTEX
  5
6A
  8
0
 62
     9
 10
0.0
 20
0.0
 30
0.0
 70
   128
 71
     5
 72
     1
 73
     6
  0
VERTEX
  5
6B
  8
0
 62
     9
 10
0.0
 20
0.0
 30
0.0
 70
   128
 71
     3
 72
     7
 73
     4
  0
VERTEX
  5
6C
  8
0
 62
     9
 10
0.0
 20
0.0
 30
0.0
 70
   128
 71
     8
 72
     7
 73
     3
  0
VERTEX
  5
6D
  8
0
 62
     9
 10
0.0
 20
0.0
 30
0.0
 70
   128
 71
     9
 72
     8
 73
     3
  0
VERTEX
  5
6E
  8
0
 62
     9
 10
0.0
 20
0.0
 30
0.0
 70
   128
 71
    12
 72
    11
 73
    10
  0
VERTEX
  5
6F
  8
0
 62
     9
 10
0.0
 20
0.0
 30
0.0
 70
   128
 71
    12
 72
    14
 73
    13
  0
VERTEX
  5
70
  8
0
 62
     9
 10
0.0
 20
0.0
 30
0.0
 70
   128
 71
    11
 72
    15
 73
    10
  0
VERTEX
  5
71
  8
0
 62
     9
 10
0.0
 20
0.0
 30
0.0
 70
   128
 71
    11
 72
    12
 73
    13
  0
VERTEX
  5
72
  8
0
 62
     9
 10
0.0
 20
0.0
 30
0.0
 70
   128
 71
    11
 72
     9
 73
    16
  0
VERTEX
  5
73
  8
0
 62
     9
 10
0.0
 20
0.0
 30
0.0
 70
   128
 71
    15
 72
    11
 73
    16
  0
VERTEX
  5
74
  8
0
 62
     9
 10
0.0
 20
0.0
 30
0.0
 70
   128
 71
     9
 72
    11
 73
     8
  0
VERTEX
  5
75
  8
0
 62
     9
 10
0.0
 20
0.0
 30
0.0
 70
   128
 71
    18
 72
     9
 73
    17
  0
VERTEX
  5
76
  8
0
 62
     9
 10
0.0
 20
0.0
 30
0.0
 70
   128
 71
     9
 72
     3
 73
    17
  0
VERTEX
  5
77
  8
0
 62
     9
 10
0.0
 20
0.0
 30
0.0
 70
   128
 71
    12
 72
    10
 73
    19
  0
VERTEX
  5
78
  8
0
 62
     9
 10
0.0
 20
0.0
 30
0.0
 70
   128
 71
    20
 72
    14
 73
    12
  0
VERTEX
  5
79
  8
0
 62
     9
 10
0.0
 20
0.0
 30
0.0
 70
   128
 71
    12
 72
    19
 73
    20
  0
VERTEX
  5
7A
  8
0
 62
     9
 10
0.0
 20
0.0
 30
0.0
 70
   128
 71
    14
 72
    21
 73
    13
  0
VERTEX
  5
7B
  8
0
 62
     9
 10
0.0
 20
0.0
 30
0.0
 70
   128
 71
    21
 72
    14
 73
    20
  0
VERTEX
  5
7C
  8
0
 62
     9
 10
0.0
 20
0.0
 30
0.0
 70
   128
 71
    11
 72
    13
 73
    22
  0
VERTEX
  5
7D
  8
0
 62
     9
 10
0.0
 20
0.0
 30
0.0
 70
   128
 71
    21
 72
    22
 73
    13
  0
VERTEX
  5
7E
  8
0
 62
     9
 10
0.0
 20
0.0
 30
0.0
 70
   128
 71
    11
 72
    22
 73
    23
  0
VERTEX
  5
7F
  8
0
 62
     9
 10
0.0
 20
0.0
 30
0.0
 70
   128
 71
    24
 72
    19
 73
    10
  0
VERTEX
  5
80
  8
0
 62
     9
 10
0.0
 20
0.0
 30
0.0
 70
   128
 71
    25
 72
    24
 73
    15
  0
VERTEX
  5
81
  8
0
 62
     9
 10
0.0
 20
0.0
 30
0.0
 70
   128
 71
    10
 72
    15
 73
    24
  0
VERTEX
  5
82
  8
0
 62
     9
 10
0.0
 20
0.0
 30
0.0
 70
   128
 71
    16
 72
    26
 73
    25
  0
VERTEX
  5
83
  8
0
 62
     9
 10
0.0
 20
0.0
 30
0.0
 70
   128
 71
    25
 72
    15
 73
    16
  0
VERTEX
  5
84
  8
0
 62
     9
 10
0.0
 20
0.0
 30
0.0
 70
   128
 71
     9
 72
    26
 73
    16
  0
VERTEX
  5
85
  8
0
 62
     9
 10
0.0
 20
0.0
 30
0.0
 70
   128
 71
     9
 72
    18
 73
    26
  0
VERTEX
  5
86
  8
0
 62
     9
 10
0.0
 20
0.0
 30
0.0
 70
   128
 71
     8
 72
    11
 73
    23
  0
VERTEX
  5
87
  8
0
 62
     9
 10
0.0
 20
0.0
 30
0.0
 70
   128
 71
    23
 72
    27
 73
     8
  0
VERTEX
  5
88
  8
0
 62
     9
 10
0.0
 20
0.0
 30
0.0
 70
   128
 71
     1
 72
     2
 73
    28
  0
VERTEX
  5
89
  8
0
 62
     9
 10
0.0
 20
0.0
 30
0.0
 70
   128
 71
    29
 72
     6
 73
     1
  0
VERTEX
  5
8A
  8
0
 62
     9
 10
0.0
 20
0.0
 30
0.0
 70
   128
 71
     1
 72
    28
 73
    29
  0
VERTEX
  5
8B
  8
0
 62
     9
 10
0.0
 20
0.0
 30
0.0
 70
   128
 71
     6
 72
    30
 73
     5
  0
VERTEX
  5
8C
  8
0
 62
     9
 10
0.0
 20
0.0
 30
0.0
 70
   128
 71
    30
 72
     6
 73
    29
  0
VERTEX
  5
8D
  8
0
 62
     9
 10
0.0
 20
0.0
 30
0.0
 70
   128
 71
     3
 72
     5
 73
    31
  0
VERTEX
  5
8E
  8
0
 62
     9
 10
0.0
 20
0.0
 30
0.0
 70
   128
 71
    30
 72
    31
 73
     5
  0
VERTEX
  5
8F
  8
0
 62
     9
 10
0.0
 20
0.0
 30
0.0
 70
   128
 71
     3
 72
    31
 73
    17
  0
VERTEX
  5
90
  8
0
 62
     9
 10
0.0
 20
0.0
 30
0.0
 70
   128
 71
    32
 72
    28
 73
     2
  0
VERTEX
  5
91
  8
0
 62
     9
 10
0.0
 20
0.0
 30
0.0
 70
   128
 71
    33
 72
    32
 73
     4
  0
VERTEX
  5
92
  8
0
 62
     9
 10
0.0
 20
0.0
 30
0.0
 70
   128
 71
     2
 72
     4
 73
    32
  0
VERTEX
  5
93
  8
0
 62
     9
 10
0.0
 20
0.0
 30
0.0
 70
   128
 71
     7
 72
    34
 73
    33
  0
VERTEX
  5
94
  8
0
 62
     9
 10
0.0
 20
0.0
 30
0.0
 70
   128
 71
    33
 72
     4
 73
     7
  0
VERTEX
  5
95
  8
0
 62
     9
 10
0.0
 20
0.0
 30
0.0
 70
   128
 71
     8
 72
    34
 73
     7
  0
VERTEX
  5
96
  8
0
 62
     9
 10
0.0
 20
0.0
 30
0.0
 70
   128
 71
     8
 72
    27
 73
    34
  0
VERTEX
  5
97
  8
0
 62
     9
 10
0.0
 20
0.0
 30
0.0
 70
   128
 71
    36
 72
    23
 73
    35
  0
VERTEX
  5
98
  8
0
 62
     9
 10
0.0
 20
0.0
 30
0.0
 70
   128
 71
    33
 72
    34
 73
    37
  0
VERTEX
  5
99
  8
0
 62
     9
 10
0.0
 20
0.0
 30
0.0
 70
   128
 71
    20
 72
    19
 73
    38
  0
VERTEX
  5
9A
  8
0
 62
     9
 10
0.0
 20
0.0
 30
0.0
 70
   128
 71
    35
 72
    21
 73
    38
  0
VERTEX
  5
9B
  8
0
 62
     9
 10
0.0
 20
0.0
 30
0.0
 70
   128
 71
    27
 72
    39
 73
    37
  0
VERTEX
  5
9C
  8
0
 62
     9
 10
0.0
 20
0.0
 30
0.0
 70
   128
 71
    36
 72
    40
 73
    39
  0
VERTEX
  5
9D
  8
0
 62
     9
 10
0.0
 20
0.0
 30
0.0
 70
   128
 71
    41
 72
    40
 73
    36
  0
VERTEX
  5
9E
  8
0
 62
     9
 10
0.0
 20
0.0
 30
0.0
 70
   128
 71
    39
 72
    27
 73
    23
  0
VERTEX
  5
9F
  8
0
 62
     9
 10
0.0
 20
0.0
 30
0.0
 70
   128
 71
    28
 72
    32
 73
    42
  0
VERTEX
  5
A0
  8
0
 62
     9
 10
0.0
 20
0.0
 30
0.0
 70
   128
 71
    33
 72
    42
 73
    32
  0
VERTEX
  5
A1
  8
0
 62
     9
 10
0.0
 20
0.0
 30
0.0
 70
   128
 71
    27
 72
    37
 73
    34
  0
VERTEX
  5
A2
  8
0
 62
     9
 10
0.0
 20
0.0
 30
0.0
 70
   128
 71
    33
 72
    37
 73
    42
  0
VERTEX
  5
A3
  8
0
 62
     9
 10
0.0
 20
0.0
 30
0.0
 70
   128
 71
    36
 72
    39
 73
    23
  0
VERTEX
  5
A4
  8
0
 62
     9
 10
0.0
 20
0.0
 30
0.0
 70
   128
 71
    22
 72
    21
 73
    35
  0
VERTEX
  5
A5
  8
0
 62
     9
 10
0.0
 20
0.0
 30
0.0
 70
   128
 71
    23
 72
    22
 73
    35
  0
VERTEX
  5
A6
  8
0
 62
     9
 10
0.0
 20
0.0
 30
0.0
 70
   128
 71
    21
 72
    20
 73
    38
  0
SEQEND
  5
A7
  8
0
 62
     9
  0
ENDBLK
  5
AB
  8
0
  0
BLOCK
  8
0
  2
39
 70
     0
 10
0.0
 20
0.0
 30
0.0
  3
39
  1

  0
POLYLINE
  5
AD
  8
0
 62
     9
 66
     1
 10
0.0
 20
0.0
 30
0.0
 70
    64
 71
    32
 72
    44
  0
VERTEX
  5
AE
  8
0
 10
79.0572509765625
 20
-38.22374725341797
 30
-1.100000023841858
 70
   192
  0
VERTEX
  5
AF
  8
0
 10
80.9349365234375
 20
-38.24728393554688
 30
-1.100000023841858
 70
   192
  0
VERTEX
  5
B0
  8
0
 10
75.75
 20
-34.09999847412109
 30
-1.100000023841858
 70
   192
  0
VERTEX
  5
B1
  8
0
 10
82.59146118164062
 20
-37.35994338989258
 30
-1.100000023841858
 70
   192
  0
VERTEX
  5
B2
  8
0
 10
76.17205047607422
 20
-35.93195724487305
 30
-1.100000023841858
 70
   192
  0
VERTEX
  5
B3
  8
0
 10
77.3622817993164
 20
-37.40304946899414
 30
-1.100000023841858
 70
   192
  0
VERTEX
  5
B4
  8
0
 10
83.83612823486328
 20
-35.96121597290039
 30
-1.100000023841858
 70
   192
  0
VERTEX
  5
B5
  8
0
 10
84.25
 20
-34.09999847412109
 30
-1.100000023841858
 70
   192
  0
VERTEX
  5
B6
  8
0
 10
75.75
 20
34.09999847412109
 30
-1.100000023841858
 70
   192
  0
VERTEX
  5
B7
  8
0
 10
79.0650634765625
 20
38.24728393554688
 30
-1.100000023841858
 70
   192
  0
VERTEX
  5
B8
  8
0
 10
84.25
 20
34.09999847412109
 30
-1.100000023841858
 70
   192
  0
VERTEX
  5
B9
  8
0
 10
80.9427490234375
 20
38.22374725341797
 30
-1.100000023841858
 70
   192
  0
VERTEX
  5
BA
  8
0
 10
83.82794952392578
 20
35.93195724487305
 30
-1.100000023841858
 70
   192
  0
VERTEX
  5
BB
  8
0
 10
82.6377182006836
 20
37.40304946899414
 30
-1.100000023841858
 70
   192
  0
VERTEX
  5
BC
  8
0
 10
77.40853881835938
 20
37.35994338989258
 30
-1.100000023841858
 70
   192
  0
VERTEX
  5
BD
  8
0
 10
76.16387176513672
 20
35.96121597290039
 30
-1.100000023841858
 70
   192
  0
VERTEX
  5
BE
  8
0
 10
84.25
 20
34.09999847412109
 30
6.400000095367432
 70
   192
  0
VERTEX
  5
BF
  8
0
 10
84.25
 20
-34.09999847412109
 30
6.400000095367432
 70
   192
  0
VERTEX
  5
C0
  8
0
 10
80.9349365234375
 20
38.24728393554688
 30
6.400000095367432
 70
   192
  0
VERTEX
  5
C1
  8
0
 10
82.59146118164062
 20
37.35994338989258
 30
6.400000095367432
 70
   192
  0
VERTEX
  5
C2
  8
0
 10
83.83612823486328
 20
35.96121597290039
 30
6.400000095367432
 70
   192
  0
VERTEX
  5
C3
  8
0
 10
79.0572509765625
 20
38.22374725341797
 30
6.400000095367432
 70
   192
  0
VERTEX
  5
C4
  8
0
 10
77.3622817993164
 20
37.40304946899414
 30
6.400000095367432
 70
   192
  0
VERTEX
  5
C5
  8
0
 10
76.17205047607422
 20
35.93195724487305
 30
6.400000095367432
 70
   192
  0
VERTEX
  5
C6
  8
0
 10
75.75
 20
34.09999847412109
 30
6.400000095367432
 70
   192
  0
VERTEX
  5
C7
  8
0
 10
79.0650634765625
 20
-38.24728393554688
 30
6.400000095367432
 70
   192
  0
VERTEX
  5
C8
  8
0
 10
77.40853881835938
 20
-37.35994338989258
 30
6.400000095367432
 70
   192
  0
VERTEX
  5
C9
  8
0
 10
76.16387176513672
 20
-35.96121597290039
 30
6.400000095367432
 70
   192
  0
VERTEX
  5
CA
  8
0
 10
75.75
 20
-34.09999847412109
 30
6.400000095367432
 70
   192
  0
VERTEX
  5
CB
  8
0
 10
80.9427490234375
 20
-38.22374725341797
 30
6.400000095367432
 70
   192
  0
VERTEX
  5
CC
  8
0
 10
82.6377182006836
 20
-37.40304946899414
 30
6.400000095367432
 70
   192
  0
VERTEX
  5
CD
  8
0
 10
83.82794952392578
 20
-35.93195724487305
 30
6.400000095367432
 70
   192
  0
VERTEX
  5
CE
  8
0
 62
     9
 10
0.0
 20
0.0
 30
0.0
 70
   128
 71
     3
 72
     2
 73
     1
  0
VERTEX
  5
CF
  8
0
 62
     9
 10
0.0
 20
0.0
 30
0.0
 70
   128
 71
     3
 72
     4
 73
     2
  0
VERTEX
  5
D0
  8
0
 62
     9
 10
0.0
 20
0.0
 30
0.0
 70
   128
 71
     5
 72
     3
 73
     1
  0
VERTEX
  5
D1
  8
0
 62
     9
 10
0.0
 20
0.0
 30
0.0
 70
   128
 71
     5
 72
     1
 73
     6
  0
VERTEX
  5
D2
  8
0
 62
     9
 10
0.0
 20
0.0
 30
0.0
 70
   128
 71
     3
 72
     7
 73
     4
  0
VERTEX
  5
D3
  8
0
 62
     9
 10
0.0
 20
0.0
 30
0.0
 70
   128
 71
     8
 72
     7
 73
     3
  0
VERTEX
  5
D4
  8
0
 62
     9
 10
0.0
 20
0.0
 30
0.0
 70
   128
 71
     9
 72
     8
 73
     3
  0
VERTEX
  5
D5
  8
0
 62
     9
 10
0.0
 20
0.0
 30
0.0
 70
   128
 71
    12
 72
    11
 73
    10
  0
VERTEX
  5
D6
  8
0
 62
     9
 10
0.0
 20
0.0
 30
0.0
 70
   128
 71
    12
 72
    14
 73
    13
  0
VERTEX
  5
D7
  8
0
 62
     9
 10
0.0
 20
0.0
 30
0.0
 70
   128
 71
    11
 72
    15
 73
    10
  0
VERTEX
  5
D8
  8
0
 62
     9
 10
0.0
 20
0.0
 30
0.0
 70
   128
 71
    11
 72
    12
 73
    13
  0
VERTEX
  5
D9
  8
0
 62
     9
 10
0.0
 20
0.0
 30
0.0
 70
   128
 71
    11
 72
     9
 73
    16
  0
VERTEX
  5
DA
  8
0
 62
     9
 10
0.0
 20
0.0
 30
0.0
 70
   128
 71
    15
 72
    11
 73
    16
  0
VERTEX
  5
DB
  8
0
 62
     9
 10
0.0
 20
0.0
 30
0.0
 70
   128
 71
     9
 72
    11
 73
     8
  0
VERTEX
  5
DC
  8
0
 62
     9
 10
0.0
 20
0.0
 30
0.0
 70
   128
 71
    18
 72
     8
 73
    17
  0
VERTEX
  5
DD
  8
0
 62
     9
 10
0.0
 20
0.0
 30
0.0
 70
   128
 71
     8
 72
    11
 73
    17
  0
VERTEX
  5
DE
  8
0
 62
     9
 10
0.0
 20
0.0
 30
0.0
 70
   128
 71
    12
 72
    10
 73
    19
  0
VERTEX
  5
DF
  8
0
 62
     9
 10
0.0
 20
0.0
 30
0.0
 70
   128
 71
    19
 72
    20
 73
    14
  0
VERTEX
  5
E0
  8
0
 62
     9
 10
0.0
 20
0.0
 30
0.0
 70
   128
 71
    14
 72
    12
 73
    19
  0
VERTEX
  5
E1
  8
0
 62
     9
 10
0.0
 20
0.0
 30
0.0
 70
   128
 71
    13
 72
    20
 73
    21
  0
VERTEX
  5
E2
  8
0
 62
     9
 10
0.0
 20
0.0
 30
0.0
 70
   128
 71
    20
 72
    13
 73
    14
  0
VERTEX
  5
E3
  8
0
 62
     9
 10
0.0
 20
0.0
 30
0.0
 70
   128
 71
    17
 72
    11
 73
    21
  0
VERTEX
  5
E4
  8
0
 62
     9
 10
0.0
 20
0.0
 30
0.0
 70
   128
 71
    13
 72
    21
 73
    11
  0
VERTEX
  5
E5
  8
0
 62
     9
 10
0.0
 20
0.0
 30
0.0
 70
   128
 71
    10
 72
    22
 73
    19
  0
VERTEX
  5
E6
  8
0
 62
     9
 10
0.0
 20
0.0
 30
0.0
 70
   128
 71
    15
 72
    23
 73
    10
  0
VERTEX
  5
E7
  8
0
 62
     9
 10
0.0
 20
0.0
 30
0.0
 70
   128
 71
    22
 72
    10
 73
    23
  0
VERTEX
  5
E8
  8
0
 62
     9
 10
0.0
 20
0.0
 30
0.0
 70
   128
 71
    15
 72
    16
 73
    24
  0
VERTEX
  5
E9
  8
0
 62
     9
 10
0.0
 20
0.0
 30
0.0
 70
   128
 71
    24
 72
    23
 73
    15
  0
VERTEX
  5
EA
  8
0
 62
     9
 10
0.0
 20
0.0
 30
0.0
 70
   128
 71
    16
 72
    25
 73
    24
  0
VERTEX
  5
EB
  8
0
 62
     9
 10
0.0
 20
0.0
 30
0.0
 70
   128
 71
    16
 72
     9
 73
    25
  0
VERTEX
  5
EC
  8
0
 62
     9
 10
0.0
 20
0.0
 30
0.0
 70
   128
 71
     1
 72
     2
 73
    26
  0
VERTEX
  5
ED
  8
0
 62
     9
 10
0.0
 20
0.0
 30
0.0
 70
   128
 71
    26
 72
    27
 73
     6
  0
VERTEX
  5
EE
  8
0
 62
     9
 10
0.0
 20
0.0
 30
0.0
 70
   128
 71
     6
 72
     1
 73
    26
  0
VERTEX
  5
EF
  8
0
 62
     9
 10
0.0
 20
0.0
 30
0.0
 70
   128
 71
     5
 72
    27
 73
    28
  0
VERTEX
  5
F0
  8
0
 62
     9
 10
0.0
 20
0.0
 30
0.0
 70
   128
 71
    27
 72
     5
 73
     6
  0
VERTEX
  5
F1
  8
0
 62
     9
 10
0.0
 20
0.0
 30
0.0
 70
   128
 71
    29
 72
     3
 73
    28
  0
VERTEX
  5
F2
  8
0
 62
     9
 10
0.0
 20
0.0
 30
0.0
 70
   128
 71
     5
 72
    28
 73
     3
  0
VERTEX
  5
F3
  8
0
 62
     9
 10
0.0
 20
0.0
 30
0.0
 70
   128
 71
     2
 72
    30
 73
    26
  0
VERTEX
  5
F4
  8
0
 62
     9
 10
0.0
 20
0.0
 30
0.0
 70
   128
 71
     4
 72
    31
 73
     2
  0
VERTEX
  5
F5
  8
0
 62
     9
 10
0.0
 20
0.0
 30
0.0
 70
   128
 71
    30
 72
     2
 73
    31
  0
VERTEX
  5
F6
  8
0
 62
     9
 10
0.0
 20
0.0
 30
0.0
 70
   128
 71
     4
 72
     7
 73
    32
  0
VERTEX
  5
F7
  8
0
 62
     9
 10
0.0
 20
0.0
 30
0.0
 70
   128
 71
    32
 72
    31
 73
     4
  0
VERTEX
  5
F8
  8
0
 62
     9
 10
0.0
 20
0.0
 30
0.0
 70
   128
 71
     7
 72
    18
 73
    32
  0
VERTEX
  5
F9
  8
0
 62
     9
 10
0.0
 20
0.0
 30
0.0
 70
   128
 71
     7
 72
     8
 73
    18
  0
SEQEND
  5
FA
  8
0
 62
     9
  0
ENDBLK
  5
FD
  8
0
  0
BLOCK
  8
0
  2
40
 70
     0
 10
0.0
 20
0.0
 30
0.0
  3
40
  1

  0
POLYLINE
  5
FF
  8
0
 62
     9
 66
     1
 10
0.0
 20
0.0
 30
0.0
 70
    64
 71
    60
 72
    60
  0
VERTEX
  5
100
  8
0
 10
19.89534187316895
 20
124.5
 30
-2.08099365234375
 70
   192
  0
VERTEX
  5
101
  8
0
 10
19.89534187316895
 20
131.5
 30
2.08099365234375
 70
   192
  0
VERTEX
  5
102
  8
0
 10
19.86115074157715
 20
131.5
 30
-2.088839769363403
 70
   192
  0
VERTEX
  5
103
  8
0
 10
19.00349807739258
 20
131.5
 30
-6.178953647613525
 70
   192
  0
VERTEX
  5
104
  8
0
 10
18.92807197570801
 20
124.5
 30
-6.136475086212158
 70
   192
  0
VERTEX
  5
105
  8
0
 10
17.32477569580078
 20
124.5
 30
-10.00130367279053
 70
   192
  0
VERTEX
  5
106
  8
0
 10
17.31132316589355
 20
131.5
 30
-9.995911598205566
 70
   192
  0
VERTEX
  5
107
  8
0
 10
14.85184860229492
 20
131.5
 30
-13.38624382019043
 70
   192
  0
VERTEX
  5
108
  8
0
 10
14.86748504638672
 20
124.5
 30
-13.38424301147461
 70
   192
  0
VERTEX
  5
109
  8
0
 10
11.73755359649658
 20
131.5
 30
-16.17873573303223
 70
   192
  0
VERTEX
  5
10A
  8
0
 10
11.76692485809326
 20
124.5
 30
-16.18789482116699
 70
   192
  0
VERTEX
  5
10B
  8
0
 10
8.144272804260254
 20
124.5
 30
-18.28109359741211
 70
   192
  0
VERTEX
  5
10C
  8
0
 10
8.118839263916016
 20
131.5
 30
-18.26507568359375
 70
   192
  0
VERTEX
  5
10D
  8
0
 10
4.148841857910156
 20
131.5
 30
-19.55701637268066
 70
   192
  0
VERTEX
  5
10E
  8
0
 10
4.163449287414551
 20
124.5
 30
-19.57234954833984
 70
   192
  0
VERTEX
  5
10F
  8
0
 10
0.0000000000000238
 20
124.5
 30
-20.0
 70
   192
  0
VERTEX
  5
110
  8
0
 10
0.0000000000000371
 20
131.5
 30
-20.0
 70
   192
  0
VERTEX
  5
111
  8
0
 10
19.86115074157715
 20
124.5
 30
2.088839769363403
 70
   192
  0
VERTEX
  5
112
  8
0
 10
18.92807197570801
 20
131.5
 30
6.136475086212158
 70
   192
  0
VERTEX
  5
113
  8
0
 10
19.00349807739258
 20
124.5
 30
6.178953647613525
 70
   192
  0
VERTEX
  5
114
  8
0
 10
17.31132316589355
 20
124.5
 30
9.995911598205566
 70
   192
  0
VERTEX
  5
115
  8
0
 10
17.32477569580078
 20
131.5
 30
10.00130367279053
 70
   192
  0
VERTEX
  5
116
  8
0
 10
14.85184860229492
 20
124.5
 30
13.38624382019043
 70
   192
  0
VERTEX
  5
117
  8
0
 10
14.86748504638672
 20
131.5
 30
13.38424301147461
 70
   192
  0
VERTEX
  5
118
  8
0
 10
11.76692485809326
 20
131.5
 30
16.18789482116699
 70
   192
  0
VERTEX
  5
119
  8
0
 10
11.73755359649658
 20
124.5
 30
16.17873573303223
 70
   192
  0
VERTEX
  5
11A
  8
0
 10
8.118839263916016
 20
124.5
 30
18.26507568359375
 70
   192
  0
VERTEX
  5
11B
  8
0
 10
8.144272804260254
 20
131.5
 30
18.28109359741211
 70
   192
  0
VERTEX
  5
11C
  8
0
 10
4.148841857910156
 20
124.5
 30
19.55701637268066
 70
   192
  0
VERTEX
  5
11D
  8
0
 10
4.163449287414551
 20
131.5
 30
19.57234954833984
 70
   192
  0
VERTEX
  5
11E
  8
0
 10
0.0000000000000411
 20
131.5
 30
20.0
 70
   192
  0
VERTEX
  5
11F
  8
0
 10
0.0000000000000278
 20
124.5
 30
20.0
 70
   192
  0
VERTEX
  5
120
  8
0
 10
-4.148841857910156
 20
124.5
 30
-19.55701637268066
 70
   192
  0
VERTEX
  5
121
  8
0
 10
-14.85184860229492
 20
124.5
 30
-13.38624382019043
 70
   192
  0
VERTEX
  5
122
  8
0
 10
-11.73755359649658
 20
124.5
 30
-16.17873573303223
 70
   192
  0
VERTEX
  5
123
  8
0
 10
-14.86748504638672
 20
131.5
 30
-13.38424301147461
 70
   192
  0
VERTEX
  5
124
  8
0
 10
-8.118839263916016
 20
124.5
 30
-18.26507568359375
 70
   192
  0
VERTEX
  5
125
  8
0
 10
-8.144272804260254
 20
131.5
 30
-18.28109359741211
 70
   192
  0
VERTEX
  5
126
  8
0
 10
-11.76692485809326
 20
131.5
 30
-16.18789482116699
 70
   192
  0
VERTEX
  5
127
  8
0
 10
-19.86115074157715
 20
124.5
 30
-2.088839769363403
 70
   192
  0
VERTEX
  5
128
  8
0
 10
-19.89534187316895
 20
131.5
 30
-2.08099365234375
 70
   192
  0
VERTEX
  5
129
  8
0
 10
-19.89534187316895
 20
124.5
 30
2.08099365234375
 70
   192
  0
VERTEX
  5
12A
  8
0
 10
-17.31132316589355
 20
124.5
 30
-9.995911598205566
 70
   192
  0
VERTEX
  5
12B
  8
0
 10
-18.92807197570801
 20
131.5
 30
-6.136475086212158
 70
   192
  0
VERTEX
  5
12C
  8
0
 10
-19.00349807739258
 20
124.5
 30
-6.178953647613525
 70
   192
  0
VERTEX
  5
12D
  8
0
 10
-18.92807197570801
 20
124.5
 30
6.136475086212158
 70
   192
  0
VERTEX
  5
12E
  8
0
 10
-17.31132316589355
 20
131.5
 30
9.995911598205566
 70
   192
  0
VERTEX
  5
12F
  8
0
 10
-17.32477569580078
 20
124.5
 30
10.00130367279053
 70
   192
  0
VERTEX
  5
130
  8
0
 10
-19.00349807739258
 20
131.5
 30
6.178953647613525
 70
   192
  0
VERTEX
  5
131
  8
0
 10
-14.86748504638672
 20
124.5
 30
13.38424301147461
 70
   192
  0
VERTEX
  5
132
  8
0
 10
-11.73755359649658
 20
131.5
 30
16.17873573303223
 70
   192
  0
VERTEX
  5
133
  8
0
 10
-11.76692485809326
 20
124.5
 30
16.18789482116699
 70
   192
  0
VERTEX
  5
134
  8
0
 10
-14.85184860229492
 20
131.5
 30
13.38624382019043
 70
   192
  0
VERTEX
  5
135
  8
0
 10
-8.118839263916016
 20
131.5
 30
18.26507568359375
 70
   192
  0
VERTEX
  5
136
  8
0
 10
-8.144272804260254
 20
124.5
 30
18.28109359741211
 70
   192
  0
VERTEX
  5
137
  8
0
 10
-4.163449287414551
 20
124.5
 30
19.57234954833984
 70
   192
  0
VERTEX
  5
138
  8
0
 10
-4.148841857910156
 20
131.5
 30
19.55701637268066
 70
   192
  0
VERTEX
  5
139
  8
0
 10
-19.86115074157715
 20
131.5
 30
2.088839769363403
 70
   192
  0
VERTEX
  5
13A
  8
0
 10
-17.32477569580078
 20
131.5
 30
-10.00130367279053
 70
   192
  0
VERTEX
  5
13B
  8
0
 10
-4.163449287414551
 20
131.5
 30
-19.57234954833984
 70
   192
  0
VERTEX
  5
13C
  8
0
 62
     9
 10
0.0
 20
0.0
 30
0.0
 70
   128
 71
     3
 72
     2
 73
     1
  0
VERTEX
  5
13D
  8
0
 62
     9
 10
0.0
 20
0.0
 30
0.0
 70
   128
 71
     1
 72
     5
 73
     4
  0
VERTEX
  5
13E
  8
0
 62
     9
 10
0.0
 20
0.0
 30
0.0
 70
   128
 71
     4
 72
     3
 73
     1
  0
VERTEX
  5
13F
  8
0
 62
     9
 10
0.0
 20
0.0
 30
0.0
 70
   128
 71
     7
 72
     5
 73
     6
  0
VERTEX
  5
140
  8
0
 62
     9
 10
0.0
 20
0.0
 30
0.0
 70
   128
 71
     5
 72
     7
 73
     4
  0
VERTEX
  5
141
  8
0
 62
     9
 10
0.0
 20
0.0
 30
0.0
 70
   128
 71
     9
 72
     8
 73
     6
  0
VERTEX
  5
142
  8
0
 62
     9
 10
0.0
 20
0.0
 30
0.0
 70
   128
 71
     7
 72
     6
 73
     8
  0
VERTEX
  5
143
  8
0
 62
     9
 10
0.0
 20
0.0
 30
0.0
 70
   128
 71
     9
 72
    11
 73
    10
  0
VERTEX
  5
144
  8
0
 62
     9
 10
0.0
 20
0.0
 30
0.0
 70
   128
 71
    10
 72
     8
 73
     9
  0
VERTEX
  5
145
  8
0
 62
     9
 10
0.0
 20
0.0
 30
0.0
 70
   128
 71
    13
 72
    11
 73
    12
  0
VERTEX
  5
146
  8
0
 62
     9
 10
0.0
 20
0.0
 30
0.0
 70
   128
 71
    11
 72
    13
 73
    10
  0
VERTEX
  5
147
  8
0
 62
     9
 10
0.0
 20
0.0
 30
0.0
 70
   128
 71
    15
 72
    14
 73
    12
  0
VERTEX
  5
148
  8
0
 62
     9
 10
0.0
 20
0.0
 30
0.0
 70
   128
 71
    13
 72
    12
 73
    14
  0
VERTEX
  5
149
  8
0
 62
     9
 10
0.0
 20
0.0
 30
0.0
 70
   128
 71
    14
 72
    15
 73
    16
  0
VERTEX
  5
14A
  8
0
 62
     9
 10
0.0
 20
0.0
 30
0.0
 70
   128
 71
    17
 72
    14
 73
    16
  0
VERTEX
  5
14B
  8
0
 62
     9
 10
0.0
 20
0.0
 30
0.0
 70
   128
 71
     2
 72
    18
 73
     1
  0
VERTEX
  5
14C
  8
0
 62
     9
 10
0.0
 20
0.0
 30
0.0
 70
   128
 71
    20
 72
     2
 73
    19
  0
VERTEX
  5
14D
  8
0
 62
     9
 10
0.0
 20
0.0
 30
0.0
 70
   128
 71
     2
 72
    20
 73
    18
  0
VERTEX
  5
14E
  8
0
 62
     9
 10
0.0
 20
0.0
 30
0.0
 70
   128
 71
    22
 72
    21
 73
    19
  0
VERTEX
  5
14F
  8
0
 62
     9
 10
0.0
 20
0.0
 30
0.0
 70
   128
 71
    20
 72
    19
 73
    21
  0
VERTEX
  5
150
  8
0
 62
     9
 10
0.0
 20
0.0
 30
0.0
 70
   128
 71
    22
 72
    24
 73
    23
  0
VERTEX
  5
151
  8
0
 62
     9
 10
0.0
 20
0.0
 30
0.0
 70
   128
 71
    23
 72
    21
 73
    22
  0
VERTEX
  5
152
  8
0
 62
     9
 10
0.0
 20
0.0
 30
0.0
 70
   128
 71
    26
 72
    24
 73
    25
  0
VERTEX
  5
153
  8
0
 62
     9
 10
0.0
 20
0.0
 30
0.0
 70
   128
 71
    24
 72
    26
 73
    23
  0
VERTEX
  5
154
  8
0
 62
     9
 10
0.0
 20
0.0
 30
0.0
 70
   128
 71
    28
 72
    27
 73
    25
  0
VERTEX
  5
155
  8
0
 62
     9
 10
0.0
 20
0.0
 30
0.0
 70
   128
 71
    26
 72
    25
 73
    27
  0
VERTEX
  5
156
  8
0
 62
     9
 10
0.0
 20
0.0
 30
0.0
 70
   128
 71
    28
 72
    30
 73
    29
  0
VERTEX
  5
157
  8
0
 62
     9
 10
0.0
 20
0.0
 30
0.0
 70
   128
 71
    29
 72
    27
 73
    28
  0
VERTEX
  5
158
  8
0
 62
     9
 10
0.0
 20
0.0
 30
0.0
 70
   128
 71
    31
 72
    29
 73
    30
  0
VERTEX
  5
159
  8
0
 62
     9
 10
0.0
 20
0.0
 30
0.0
 70
   128
 71
    31
 72
    32
 73
    29
  0
VERTEX
  5
15A
  8
0
 62
     9
 10
0.0
 20
0.0
 30
0.0
 70
   128
 71
    17
 72
    16
 73
    33
  0
VERTEX
  5
15B
  8
0
 62
     9
 10
0.0
 20
0.0
 30
0.0
 70
   128
 71
    36
 72
    35
 73
    34
  0
VERTEX
  5
15C
  8
0
 62
     9
 10
0.0
 20
0.0
 30
0.0
 70
   128
 71
    39
 72
    38
 73
    37
  0
VERTEX
  5
15D
  8
0
 62
     9
 10
0.0
 20
0.0
 30
0.0
 70
   128
 71
    42
 72
    41
 73
    40
  0
VERTEX
  5
15E
  8
0
 62
     9
 10
0.0
 20
0.0
 30
0.0
 70
   128
 71
    45
 72
    44
 73
    43
  0
VERTEX
  5
15F
  8
0
 62
     9
 10
0.0
 20
0.0
 30
0.0
 70
   128
 71
    48
 72
    47
 73
    46
  0
VERTEX
  5
160
  8
0
 62
     9
 10
0.0
 20
0.0
 30
0.0
 70
   128
 71
    49
 72
    42
 73
    46
  0
VERTEX
  5
161
  8
0
 62
     9
 10
0.0
 20
0.0
 30
0.0
 70
   128
 71
    52
 72
    51
 73
    50
  0
VERTEX
  5
162
  8
0
 62
     9
 10
0.0
 20
0.0
 30
0.0
 70
   128
 71
    53
 72
    48
 73
    50
  0
VERTEX
  5
163
  8
0
 62
     9
 10
0.0
 20
0.0
 30
0.0
 70
   128
 71
    52
 72
    55
 73
    54
  0
VERTEX
  5
164
  8
0
 62
     9
 10
0.0
 20
0.0
 30
0.0
 70
   128
 71
    54
 72
    51
 73
    52
  0
VERTEX
  5
165
  8
0
 62
     9
 10
0.0
 20
0.0
 30
0.0
 70
   128
 71
    57
 72
    55
 73
    56
  0
VERTEX
  5
166
  8
0
 62
     9
 10
0.0
 20
0.0
 30
0.0
 70
   128
 71
    55
 72
    57
 73
    54
  0
VERTEX
  5
167
  8
0
 62
     9
 10
0.0
 20
0.0
 30
0.0
 70
   128
 71
    31
 72
    57
 73
    32
  0
VERTEX
  5
168
  8
0
 62
     9
 10
0.0
 20
0.0
 30
0.0
 70
   128
 71
    56
 72
    32
 73
    57
  0
VERTEX
  5
169
  8
0
 62
     9
 10
0.0
 20
0.0
 30
0.0
 70
   128
 71
    48
 72
    53
 73
    47
  0
VERTEX
  5
16A
  8
0
 62
     9
 10
0.0
 20
0.0
 30
0.0
 70
   128
 71
    51
 72
    53
 73
    50
  0
VERTEX
  5
16B
  8
0
 62
     9
 10
0.0
 20
0.0
 30
0.0
 70
   128
 71
    58
 72
    42
 73
    49
  0
VERTEX
  5
16C
  8
0
 62
     9
 10
0.0
 20
0.0
 30
0.0
 70
   128
 71
    47
 72
    49
 73
    46
  0
VERTEX
  5
16D
  8
0
 62
     9
 10
0.0
 20
0.0
 30
0.0
 70
   128
 71
    40
 72
    41
 73
    45
  0
VERTEX
  5
16E
  8
0
 62
     9
 10
0.0
 20
0.0
 30
0.0
 70
   128
 71
    58
 72
    41
 73
    42
  0
VERTEX
  5
16F
  8
0
 62
     9
 10
0.0
 20
0.0
 30
0.0
 70
   128
 71
    43
 72
    44
 73
    59
  0
VERTEX
  5
170
  8
0
 62
     9
 10
0.0
 20
0.0
 30
0.0
 70
   128
 71
    45
 72
    41
 73
    44
  0
VERTEX
  5
171
  8
0
 62
     9
 10
0.0
 20
0.0
 30
0.0
 70
   128
 71
    59
 72
    36
 73
    34
  0
VERTEX
  5
172
  8
0
 62
     9
 10
0.0
 20
0.0
 30
0.0
 70
   128
 71
    34
 72
    43
 73
    59
  0
VERTEX
  5
173
  8
0
 62
     9
 10
0.0
 20
0.0
 30
0.0
 70
   128
 71
    39
 72
    37
 73
    35
  0
VERTEX
  5
174
  8
0
 62
     9
 10
0.0
 20
0.0
 30
0.0
 70
   128
 71
    39
 72
    35
 73
    36
  0
VERTEX
  5
175
  8
0
 62
     9
 10
0.0
 20
0.0
 30
0.0
 70
   128
 71
    38
 72
    60
 73
    33
  0
VERTEX
  5
176
  8
0
 62
     9
 10
0.0
 20
0.0
 30
0.0
 70
   128
 71
    38
 72
    33
 73
    37
  0
VERTEX
  5
177
  8
0
 62
     9
 10
0.0
 20
0.0
 30
0.0
 70
   128
 71
    33
 72
    60
 73
    17
  0
SEQEND
  5
178
  8
0
 62
     9
  0
ENDBLK
  5
17B
  8
0
  0
BLOCK
  8
0
  2
403671038_GRIFF_THM-_TEMPE
 70
     0
 10
0.0
 20
0.0
 30
0.0
  3
403671038_GRIFF_THM-_TEMPE
  1

  0
POLYLINE
  5
17D
  8
0
 62
     9
 66
     1
 10
0.0
 20
0.0
 30
0.0
 70
    64
 71
   117
 72
   230
  0
VERTEX
  5
17E
  8
0
 10
-15.39782047271729
 20
131.5
 30
-18.40599250793457
 70
   192
  0
VERTEX
  5
17F
  8
0
 10
-9.371101379394531
 20
158.5
 30
-22.09117698669434
 70
   192
  0
VERTEX
  5
180
  8
0
 10
-9.41616439819336
 20
131.5
 30
-22.0710391998291
 70
   192
  0
VERTEX
  5
181
  8
0
 10
-2.585216999053955
 20
158.5
 30
-23.85723686218262
 70
   192
  0
VERTEX
  5
182
  8
0
 10
-2.625797986984253
 20
131.5
 30
-23.85052871704102
 70
   192
  0
VERTEX
  5
183
  8
0
 10
4.419358730316162
 20
158.5
 30
-23.58653831481934
 70
   192
  0
VERTEX
  5
184
  8
0
 10
4.394787311553955
 20
131.5
 30
-23.58884048461914
 70
   192
  0
VERTEX
  5
185
  8
0
 10
11.04583549499512
 20
158.5
 30
-21.30344581604004
 70
   192
  0
VERTEX
  5
186
  8
0
 10
11.04583549499512
 20
131.5
 30
-21.30344581604004
 70
   192
  0
VERTEX
  5
187
  8
0
 10
-15.35935974121094
 20
158.5
 30
-18.43692779541016
 70
   192
  0
VERTEX
  5
188
  8
0
 10
-20.06223106384277
 20
131.5
 30
-13.17049217224121
 70
   192
  0
VERTEX
  5
189
  8
0
 10
-20.03776741027832
 20
158.5
 30
-13.20355796813965
 70
   192
  0
VERTEX
  5
18A
  8
0
 10
-23.00417518615723
 20
158.5
 30
-6.835079193115234
 70
   192
  0
VERTEX
  5
18B
  8
0
 10
-23.01332473754883
 20
131.5
 30
-6.812159061431885
 70
   192
  0
VERTEX
  5
18C
  8
0
 10
-24.00082397460938
 20
131.5
 30
0.1266850233078003
 70
   192
  0
VERTEX
  5
18D
  8
0
 10
-24.00082397460938
 20
158.5
 30
0.1266850233078003
 70
   192
  0
VERTEX
  5
18E
  8
0
 10
-6.374274253845215
 20
141.3448638916016
 30
18.23964691162109
 70
   192
  0
VERTEX
  5
18F
  8
0
 10
-7.349979877471924
 20
144.98388671875
 30
23.01059341430664
 70
   192
  0
VERTEX
  5
190
  8
0
 10
-4.856348514556885
 20
139.4828948974609
 30
23.00909996032715
 70
   192
  0
VERTEX
  5
191
  8
0
 10
-2.591379165649414
 20
138.1219787597656
 30
23.05653953552246
 70
   192
  0
VERTEX
  5
192
  8
0
 10
-3.695473432540894
 20
138.6526641845703
 30
18.23964691162109
 70
   192
  0
VERTEX
  5
193
  8
0
 10
0.0000000000214236
 20
137.6499938964844
 30
18.23964691162109
 70
   192
  0
VERTEX
  5
194
  8
0
 10
0.0000000000000451
 20
137.6499938964844
 30
23.16320419311523
 70
   192
  0
VERTEX
  5
195
  8
0
 10
-3.655134201049805
 20
151.374267578125
 30
18.23964691162109
 70
   192
  0
VERTEX
  5
196
  8
0
 10
-4.880477905273438
 20
150.4957580566406
 30
23.01921081542969
 70
   192
  0
VERTEX
  5
197
  8
0
 10
-6.347328662872314
 20
148.6954803466797
 30
18.23964691162109
 70
   192
  0
VERTEX
  5
198
  8
0
 10
-7.349999904632568
 20
145.0
 30
18.23964691162109
 70
   192
  0
VERTEX
  5
199
  8
0
 10
0.0000000000159512
 20
152.3500061035156
 30
18.23964691162109
 70
   192
  0
VERTEX
  5
19A
  8
0
 10
0.0000000000159523
 20
152.3500061035156
 30
23.18642616271973
 70
   192
  0
VERTEX
  5
19B
  8
0
 10
-2.604398012161255
 20
151.8731079101562
 30
23.0620288848877
 70
   192
  0
VERTEX
  5
19C
  8
0
 10
3.711712121963501
 20
138.6270599365234
 30
18.23964691162109
 70
   192
  0
VERTEX
  5
19D
  8
0
 10
6.367984294891357
 20
141.3448028564453
 30
18.23964691162109
 70
   192
  0
VERTEX
  5
19E
  8
0
 10
6.314254760742188
 20
148.6957397460938
 30
18.23964691162109
 70
   192
  0
VERTEX
  5
19F
  8
0
 10
3.624374389648438
 20
151.3547515869141
 30
18.23964691162109
 70
   192
  0
VERTEX
  5
1A0
  8
0
 10
7.349999904632568
 20
145.0
 30
18.23964691162109
 70
   192
  0
VERTEX
  5
1A1
  8
0
 10
0.4623447954654694
 20
137.6705169677734
 30
23.15962982177734
 70
   192
  0
VERTEX
  5
1A2
  8
0
 10
3.98202919960022
 20
138.8225402832031
 30
22.8746223449707
 70
   192
  0
VERTEX
  5
1A3
  8
0
 10
6.297557353973389
 20
148.7841796875
 30
22.33355140686035
 70
   192
  0
VERTEX
  5
1A4
  8
0
 10
7.340889930725098
 20
145.1904449462891
 30
22.02076721191406
 70
   192
  0
VERTEX
  5
1A5
  8
0
 10
6.490882873535156
 20
141.5580291748047
 30
22.28571891784668
 70
   192
  0
VERTEX
  5
1A6
  8
0
 10
3.637756109237671
 20
151.3823089599609
 30
22.91138648986816
 70
   192
  0
VERTEX
  5
1A7
  8
0
 10
-40.00056076049805
 20
158.5
 30
18.87088966369629
 70
   192
  0
VERTEX
  5
1A8
  8
0
 10
-40.00056076049805
 20
131.5
 30
24.01358032226562
 70
   192
  0
VERTEX
  5
1A9
  8
0
 10
-40.00056076049805
 20
158.5
 30
24.01358032226562
 70
   192
  0
VERTEX
  5
1AA
  8
0
 10
-40.00056076049805
 20
131.5
 30
18.87088966369629
 70
   192
  0
VERTEX
  5
1AB
  8
0
 10
-32.0
 20
131.5
 30
24.01351547241211
 70
   192
  0
VERTEX
  5
1AC
  8
0
 10
-32.0
 20
158.5
 30
24.01351547241211
 70
   192
  0
VERTEX
  5
1AD
  8
0
 10
-23.96650123596191
 20
158.5
 30
3.353527069091797
 70
   192
  0
VERTEX
  5
1AE
  8
0
 10
-23.96650123596191
 20
131.5
 30
3.353527069091797
 70
   192
  0
VERTEX
  5
1AF
  8
0
 10
-26.15894317626953
 20
131.5
 30
12.58646011352539
 70
   192
  0
VERTEX
  5
1B0
  8
0
 10
-26.15053176879883
 20
158.5
 30
12.57481288909912
 70
   192
  0
VERTEX
  5
1B1
  8
0
 10
-24.20125770568848
 20
158.5
 30
8.170028686523438
 70
   192
  0
VERTEX
  5
1B2
  8
0
 10
-24.17845153808594
 20
131.5
 30
8.200395584106445
 70
   192
  0
VERTEX
  5
1B3
  8
0
 10
-34.30111694335938
 20
158.5
 30
17.47344589233398
 70
   192
  0
VERTEX
  5
1B4
  8
0
 10
-34.30753326416016
 20
131.5
 30
17.44919586181641
 70
   192
  0
VERTEX
  5
1B5
  8
0
 10
-39.00295639038086
 20
131.5
 30
18.63447380065918
 70
   192
  0
VERTEX
  5
1B6
  8
0
 10
-29.76509857177734
 20
158.5
 30
15.74889850616455
 70
   192
  0
VERTEX
  5
1B7
  8
0
 10
-29.81129264831543
 20
131.5
 30
15.70938301086426
 70
   192
  0
VERTEX
  5
1B8
  8
0
 10
-39.00295639038086
 20
158.5
 30
18.63447380065918
 70
   192
  0
VERTEX
  5
1B9
  8
0
 10
16.74582481384277
 20
158.5
 30
-17.18402862548828
 70
   192
  0
VERTEX
  5
1BA
  8
0
 10
23.91646385192871
 20
131.5
 30
1.929972887039185
 70
   192
  0
VERTEX
  5
1BB
  8
0
 10
23.45301246643066
 20
131.5
 30
-5.069846630096436
 70
   192
  0
VERTEX
  5
1BC
  8
0
 10
23.91332626342773
 20
158.5
 30
1.979377150535583
 70
   192
  0
VERTEX
  5
1BD
  8
0
 10
21.00467109680176
 20
158.5
 30
-11.59660339355469
 70
   192
  0
VERTEX
  5
1BE
  8
0
 10
20.98673629760742
 20
131.5
 30
-11.63370037078857
 70
   192
  0
VERTEX
  5
1BF
  8
0
 10
18.82495498657227
 20
158.5
 30
14.88369369506836
 70
   192
  0
VERTEX
  5
1C0
  8
0
 10
18.83855247497559
 20
131.5
 30
14.86283779144287
 70
   192
  0
VERTEX
  5
1C1
  8
0
 10
22.32157707214355
 20
158.5
 30
8.808252334594727
 70
   192
  0
VERTEX
  5
1C2
  8
0
 10
22.33457565307617
 20
131.5
 30
8.769036293029785
 70
   192
  0
VERTEX
  5
1C3
  8
0
 10
13.72252082824707
 20
158.5
 30
19.68867683410645
 70
   192
  0
VERTEX
  5
1C4
  8
0
 10
13.72273063659668
 20
131.5
 30
19.68852996826172
 70
   192
  0
VERTEX
  5
1C5
  8
0
 10
23.46253967285156
 20
158.5
 30
-5.021306037902832
 70
   192
  0
VERTEX
  5
1C6
  8
0
 10
16.72976112365723
 20
131.5
 30
-17.20281219482422
 70
   192
  0
VERTEX
  5
1C7
  8
0
 10
-13.37126922607422
 20
158.5
 30
24.02420425415039
 70
   192
  0
VERTEX
  5
1C8
  8
0
 10
-3.956495046615601
 20
158.5
 30
24.39100646972656
 70
   192
  0
VERTEX
  5
1C9
  8
0
 10
5.153756141662598
 20
158.5
 30
23.29452705383301
 70
   192
  0
VERTEX
  5
1CA
  8
0
 10
-22.68573188781738
 20
158.5
 30
24.00764083862305
 70
   192
  0
VERTEX
  5
1CB
  8
0
 10
-22.68568229675293
 20
131.5
 30
24.00764083862305
 70
   192
  0
VERTEX
  5
1CC
  8
0
 10
-4.057501316070557
 20
131.5
 30
23.94324684143066
 70
   192
  0
VERTEX
  5
1CD
  8
0
 10
-13.37136268615723
 20
131.5
 30
24.00170135498047
 70
   192
  0
VERTEX
  5
1CE
  8
0
 10
5.153954982757568
 20
131.5
 30
23.29449081420898
 70
   192
  0
VERTEX
  5
1CF
  8
0
 10
-25.55896377563477
 20
144.9961547851562
 30
23.03024673461914
 70
   192
  0
VERTEX
  5
1D0
  8
0
 10
-26.27443313598633
 20
141.5030670166016
 30
23.1591911315918
 70
   192
  0
VERTEX
  5
1D1
  8
0
 10
-23.9390697479248
 20
141.0794067382812
 30
23.03007125854492
 70
   192
  0
VERTEX
  5
1D2
  8
0
 10
-28.41324806213379
 20
146.3315124511719
 30
24.01371955871582
 70
   192
  0
VERTEX
  5
1D3
  8
0
 10
-27.08703994750977
 20
146.250732421875
 30
23.15934371948242
 70
   192
  0
VERTEX
  5
1D4
  8
0
 10
-24.59757995605469
 20
150.4919738769531
 30
23.15910339355469
 70
   192
  0
VERTEX
  5
1D5
  8
0
 10
-23.96947288513184
 20
148.85791015625
 30
23.03018188476562
 70
   192
  0
VERTEX
  5
1D6
  8
0
 10
-25.53512001037598
 20
151.3544464111328
 30
24.01327514648438
 70
   192
  0
VERTEX
  5
1D7
  8
0
 10
-20.06481742858887
 20
150.4885559082031
 30
23.02818870544434
 70
   192
  0
VERTEX
  5
1D8
  8
0
 10
-20.06888961791992
 20
152.1174468994141
 30
23.15561676025391
 70
   192
  0
VERTEX
  5
1D9
  8
0
 10
-20.09610748291016
 20
153.4865875244141
 30
24.01064109802246
 70
   192
  0
VERTEX
  5
1DA
  8
0
 10
-22.80675315856934
 20
137.5404357910156
 30
24.00938415527344
 70
   192
  0
VERTEX
  5
1DB
  8
0
 10
-22.58059883117676
 20
138.3021087646484
 30
23.15825462341309
 70
   192
  0
VERTEX
  5
1DC
  8
0
 10
-17.23442268371582
 20
137.8013458251953
 30
23.15248680114746
 70
   192
  0
VERTEX
  5
1DD
  8
0
 10
-20.06480407714844
 20
139.5037994384766
 30
23.00543785095215
 70
   192
  0
VERTEX
  5
1DE
  8
0
 10
-17.087890625
 20
136.7642364501953
 30
23.99488830566406
 70
   192
  0
VERTEX
  5
1DF
  8
0
 10
-11.25620555877686
 20
137.8546752929688
 30
23.14446830749512
 70
   192
  0
VERTEX
  5
1E0
  8
0
 10
-14.99532222747803
 20
139.496826171875
 30
23.00714874267578
 70
   192
  0
VERTEX
  5
1E1
  8
0
 10
-9.925840377807617
 20
139.4898529052734
 30
23.00885772705078
 70
   192
  0
VERTEX
  5
1E2
  8
0
 10
-5.342820167541504
 20
137.8502807617188
 30
23.1381664276123
 70
   192
  0
VERTEX
  5
1E3
  8
0
 10
0.6030142307281494
 20
136.5206604003906
 30
23.93782234191895
 70
   192
  0
VERTEX
  5
1E4
  8
0
 10
-27.08687210083008
 20
140.934326171875
 30
24.01355361938477
 70
   192
  0
VERTEX
  5
1E5
  8
0
 10
-11.19092273712158
 20
136.6830444335938
 30
23.97586631774902
 70
   192
  0
VERTEX
  5
1E6
  8
0
 10
-5.29395580291748
 20
136.6018524169922
 30
23.95684432983398
 70
   192
  0
VERTEX
  5
1E7
  8
0
 10
8.255315780639648
 20
143.8511810302734
 30
22.54049110412598
 70
   192
  0
VERTEX
  5
1E8
  8
0
 10
2.817327499389648
 20
152.9522247314453
 30
23.81403160095215
 70
   192
  0
VERTEX
  5
1E9
  8
0
 10
5.742937564849854
 20
138.8897247314453
 30
23.26937675476074
 70
   192
  0
VERTEX
  5
1EA
  8
0
 10
-9.941939353942871
 20
150.4931335449219
 30
23.01058769226074
 70
   192
  0
VERTEX
  5
1EB
  8
0
 10
-8.482044219970703
 20
152.126708984375
 30
23.15135955810547
 70
   192
  0
VERTEX
  5
1EC
  8
0
 10
-14.28448963165283
 20
152.1357574462891
 30
23.1473388671875
 70
   192
  0
VERTEX
  5
1ED
  8
0
 10
-15.00337505340576
 20
150.4908447265625
 30
23.00887870788574
 70
   192
  0
VERTEX
  5
1EE
  8
0
 10
-2.873941421508789
 20
153.4941864013672
 30
23.9818172454834
 70
   192
  0
VERTEX
  5
1EF
  8
0
 10
6.927762508392334
 20
149.2640533447266
 30
22.97043228149414
 70
   192
  0
VERTEX
  5
1F0
  8
0
 10
-8.614470481872559
 20
153.4773101806641
 30
23.99895668029785
 70
   192
  0
VERTEX
  5
1F1
  8
0
 10
-14.3552885055542
 20
153.4819488525391
 30
24.00479888916016
 70
   192
  0
VERTEX
  5
1F2
  8
0
 10
-20.06480979919434
 20
144.9961853027344
 30
23.00630378723145
 70
   192
  0
VERTEX
  5
1F3
  8
0
 62
     9
 10
0.0
 20
0.0
 30
0.0
 70
   128
 71
     3
 72
     2
 73
     1
  0
VERTEX
  5
1F4
  8
0
 62
     9
 10
0.0
 20
0.0
 30
0.0
 70
   128
 71
     2
 72
     5
 73
     4
  0
VERTEX
  5
1F5
  8
0
 62
     9
 10
0.0
 20
0.0
 30
0.0
 70
   128
 71
     5
 72
     2
 73
     3
  0
VERTEX
  5
1F6
  8
0
 62
     9
 10
0.0
 20
0.0
 30
0.0
 70
   128
 71
     7
 72
     6
 73
     4
  0
VERTEX
  5
1F7
  8
0
 62
     9
 10
0.0
 20
0.0
 30
0.0
 70
   128
 71
     4
 72
     5
 73
     7
  0
VERTEX
  5
1F8
  8
0
 62
     9
 10
0.0
 20
0.0
 30
0.0
 70
   128
 71
     6
 72
     7
 73
     8
  0
VERTEX
  5
1F9
  8
0
 62
     9
 10
0.0
 20
0.0
 30
0.0
 70
   128
 71
     7
 72
     9
 73
     8
  0
VERTEX
  5
1FA
  8
0
 62
     9
 10
0.0
 20
0.0
 30
0.0
 70
   128
 71
    10
 72
     1
 73
     2
  0
VERTEX
  5
1FB
  8
0
 62
     9
 10
0.0
 20
0.0
 30
0.0
 70
   128
 71
    12
 72
    11
 73
     1
  0
VERTEX
  5
1FC
  8
0
 62
     9
 10
0.0
 20
0.0
 30
0.0
 70
   128
 71
     1
 72
    10
 73
    12
  0
VERTEX
  5
1FD
  8
0
 62
     9
 10
0.0
 20
0.0
 30
0.0
 70
   128
 71
    14
 72
    11
 73
    13
  0
VERTEX
  5
1FE
  8
0
 62
     9
 10
0.0
 20
0.0
 30
0.0
 70
   128
 71
    12
 72
    13
 73
    11
  0
VERTEX
  5
1FF
  8
0
 62
     9
 10
0.0
 20
0.0
 30
0.0
 70
   128
 71
    13
 72
    15
 73
    14
  0
VERTEX
  5
200
  8
0
 62
     9
 10
0.0
 20
0.0
 30
0.0
 70
   128
 71
    16
 72
    15
 73
    13
  0
VERTEX
  5
201
  8
0
 62
     9
 10
0.0
 20
0.0
 30
0.0
 70
   128
 71
    19
 72
    18
 73
    17
  0
VERTEX
  5
202
  8
0
 62
     9
 10
0.0
 20
0.0
 30
0.0
 70
   128
 71
    19
 72
    21
 73
    20
  0
VERTEX
  5
203
  8
0
 62
     9
 10
0.0
 20
0.0
 30
0.0
 70
   128
 71
    21
 72
    22
 73
    20
  0
VERTEX
  5
204
  8
0
 62
     9
 10
0.0
 20
0.0
 30
0.0
 70
   128
 71
    23
 72
    20
 73
    22
  0
VERTEX
  5
205
  8
0
 62
     9
 10
0.0
 20
0.0
 30
0.0
 70
   128
 71
    21
 72
    19
 73
    17
  0
VERTEX
  5
206
  8
0
 62
     9
 10
0.0
 20
0.0
 30
0.0
 70
   128
 71
    26
 72
    25
 73
    24
  0
VERTEX
  5
207
  8
0
 62
     9
 10
0.0
 20
0.0
 30
0.0
 70
   128
 71
    17
 72
    18
 73
    27
  0
VERTEX
  5
208
  8
0
 62
     9
 10
0.0
 20
0.0
 30
0.0
 70
   128
 71
    30
 72
    29
 73
    28
  0
VERTEX
  5
209
  8
0
 62
     9
 10
0.0
 20
0.0
 30
0.0
 70
   128
 71
    28
 72
    24
 73
    30
  0
VERTEX
  5
20A
  8
0
 62
     9
 10
0.0
 20
0.0
 30
0.0
 70
   128
 71
    30
 72
    24
 73
    25
  0
VERTEX
  5
20B
  8
0
 62
     9
 10
0.0
 20
0.0
 30
0.0
 70
   128
 71
    27
 72
    18
 73
    26
  0
VERTEX
  5
20C
  8
0
 62
     9
 10
0.0
 20
0.0
 30
0.0
 70
   128
 71
    26
 72
    18
 73
    25
  0
VERTEX
  5
20D
  8
0
 62
     9
 10
0.0
 20
0.0
 30
0.0
 70
   128
 71
    32
 72
    31
 73
    22
  0
VERTEX
  5
20E
  8
0
 62
     9
 10
0.0
 20
0.0
 30
0.0
 70
   128
 71
    21
 72
    34
 73
    33
  0
VERTEX
  5
20F
  8
0
 62
     9
 10
0.0
 20
0.0
 30
0.0
 70
   128
 71
    32
 72
    22
 73
    35
  0
VERTEX
  5
210
  8
0
 62
     9
 10
0.0
 20
0.0
 30
0.0
 70
   128
 71
    21
 72
    17
 73
    34
  0
VERTEX
  5
211
  8
0
 62
     9
 10
0.0
 20
0.0
 30
0.0
 70
   128
 71
    35
 72
    21
 73
    33
  0
VERTEX
  5
212
  8
0
 62
     9
 10
0.0
 20
0.0
 30
0.0
 70
   128
 71
    28
 72
    26
 73
    24
  0
VERTEX
  5
213
  8
0
 62
     9
 10
0.0
 20
0.0
 30
0.0
 70
   128
 71
    34
 72
    27
 73
    28
  0
VERTEX
  5
214
  8
0
 62
     9
 10
0.0
 20
0.0
 30
0.0
 70
   128
 71
    26
 72
    28
 73
    27
  0
VERTEX
  5
215
  8
0
 62
     9
 10
0.0
 20
0.0
 30
0.0
 70
   128
 71
    34
 72
    17
 73
    27
  0
VERTEX
  5
216
  8
0
 62
     9
 10
0.0
 20
0.0
 30
0.0
 70
   128
 71
    35
 72
    22
 73
    21
  0
VERTEX
  5
217
  8
0
 62
     9
 10
0.0
 20
0.0
 30
0.0
 70
   128
 71
    36
 72
    23
 73
    22
  0
VERTEX
  5
218
  8
0
 62
     9
 10
0.0
 20
0.0
 30
0.0
 70
   128
 71
    36
 72
    31
 73
    37
  0
VERTEX
  5
219
  8
0
 62
     9
 10
0.0
 20
0.0
 30
0.0
 70
   128
 71
    39
 72
    33
 73
    38
  0
VERTEX
  5
21A
  8
0
 62
     9
 10
0.0
 20
0.0
 30
0.0
 70
   128
 71
    40
 72
    32
 73
    35
  0
VERTEX
  5
21B
  8
0
 62
     9
 10
0.0
 20
0.0
 30
0.0
 70
   128
 71
    28
 72
    29
 73
    41
  0
VERTEX
  5
21C
  8
0
 62
     9
 10
0.0
 20
0.0
 30
0.0
 70
   128
 71
    41
 72
    38
 73
    34
  0
VERTEX
  5
21D
  8
0
 62
     9
 10
0.0
 20
0.0
 30
0.0
 70
   128
 71
    34
 72
    28
 73
    41
  0
VERTEX
  5
21E
  8
0
 62
     9
 10
0.0
 20
0.0
 30
0.0
 70
   128
 71
    39
 72
    40
 73
    35
  0
VERTEX
  5
21F
  8
0
 62
     9
 10
0.0
 20
0.0
 30
0.0
 70
   128
 71
    33
 72
    39
 73
    35
  0
VERTEX
  5
220
  8
0
 62
     9
 10
0.0
 20
0.0
 30
0.0
 70
   128
 71
    38
 72
    33
 73
    34
  0
VERTEX
  5
221
  8
0
 62
     9
 10
0.0
 20
0.0
 30
0.0
 70
   128
 71
    36
 72
    22
 73
    31
  0
VERTEX
  5
222
  8
0
 62
     9
 10
0.0
 20
0.0
 30
0.0
 70
   128
 71
    40
 72
    37
 73
    32
  0
VERTEX
  5
223
  8
0
 62
     9
 10
0.0
 20
0.0
 30
0.0
 70
   128
 71
    31
 72
    32
 73
    37
  0
VERTEX
  5
224
  8
0
 62
     9
 10
0.0
 20
0.0
 30
0.0
 70
   128
 71
    44
 72
    43
 73
    42
  0
VERTEX
  5
225
  8
0
 62
     9
 10
0.0
 20
0.0
 30
0.0
 70
   128
 71
    45
 72
    42
 73
    43
  0
VERTEX
  5
226
  8
0
 62
     9
 10
0.0
 20
0.0
 30
0.0
 70
   128
 71
    47
 72
    46
 73
    43
  0
VERTEX
  5
227
  8
0
 62
     9
 10
0.0
 20
0.0
 30
0.0
 70
   128
 71
    44
 72
    47
 73
    43
  0
VERTEX
  5
228
  8
0
 62
     9
 10
0.0
 20
0.0
 30
0.0
 70
   128
 71
    49
 72
    15
 73
    48
  0
VERTEX
  5
229
  8
0
 62
     9
 10
0.0
 20
0.0
 30
0.0
 70
   128
 71
    16
 72
    48
 73
    15
  0
VERTEX
  5
22A
  8
0
 62
     9
 10
0.0
 20
0.0
 30
0.0
 70
   128
 71
    52
 72
    51
 73
    50
  0
VERTEX
  5
22B
  8
0
 62
     9
 10
0.0
 20
0.0
 30
0.0
 70
   128
 71
    53
 72
    49
 73
    48
  0
VERTEX
  5
22C
  8
0
 62
     9
 10
0.0
 20
0.0
 30
0.0
 70
   128
 71
    56
 72
    55
 73
    54
  0
VERTEX
  5
22D
  8
0
 62
     9
 10
0.0
 20
0.0
 30
0.0
 70
   128
 71
    58
 72
    57
 73
    55
  0
VERTEX
  5
22E
  8
0
 62
     9
 10
0.0
 20
0.0
 30
0.0
 70
   128
 71
    58
 72
    51
 73
    57
  0
VERTEX
  5
22F
  8
0
 62
     9
 10
0.0
 20
0.0
 30
0.0
 70
   128
 71
    59
 72
    56
 73
    54
  0
VERTEX
  5
230
  8
0
 62
     9
 10
0.0
 20
0.0
 30
0.0
 70
   128
 71
    55
 72
    57
 73
    54
  0
VERTEX
  5
231
  8
0
 62
     9
 10
0.0
 20
0.0
 30
0.0
 70
   128
 71
    53
 72
    52
 73
    50
  0
VERTEX
  5
232
  8
0
 62
     9
 10
0.0
 20
0.0
 30
0.0
 70
   128
 71
    50
 72
    51
 73
    58
  0
VERTEX
  5
233
  8
0
 62
     9
 10
0.0
 20
0.0
 30
0.0
 70
   128
 71
    52
 72
    53
 73
    48
  0
VERTEX
  5
234
  8
0
 62
     9
 10
0.0
 20
0.0
 30
0.0
 70
   128
 71
    42
 72
    45
 73
    56
  0
VERTEX
  5
235
  8
0
 62
     9
 10
0.0
 20
0.0
 30
0.0
 70
   128
 71
    59
 72
    42
 73
    56
  0
VERTEX
  5
236
  8
0
 62
     9
 10
0.0
 20
0.0
 30
0.0
 70
   128
 71
     8
 72
     9
 73
    60
  0
VERTEX
  5
237
  8
0
 62
     9
 10
0.0
 20
0.0
 30
0.0
 70
   128
 71
    63
 72
    62
 73
    61
  0
VERTEX
  5
238
  8
0
 62
     9
 10
0.0
 20
0.0
 30
0.0
 70
   128
 71
    65
 72
    62
 73
    64
  0
VERTEX
  5
239
  8
0
 62
     9
 10
0.0
 20
0.0
 30
0.0
 70
   128
 71
    68
 72
    67
 73
    66
  0
VERTEX
  5
23A
  8
0
 62
     9
 10
0.0
 20
0.0
 30
0.0
 70
   128
 71
    68
 72
    63
 73
    69
  0
VERTEX
  5
23B
  8
0
 62
     9
 10
0.0
 20
0.0
 30
0.0
 70
   128
 71
    67
 72
    71
 73
    70
  0
VERTEX
  5
23C
  8
0
 62
     9
 10
0.0
 20
0.0
 30
0.0
 70
   128
 71
    70
 72
    66
 73
    67
  0
VERTEX
  5
23D
  8
0
 62
     9
 10
0.0
 20
0.0
 30
0.0
 70
   128
 71
    69
 72
    63
 73
    61
  0
VERTEX
  5
23E
  8
0
 62
     9
 10
0.0
 20
0.0
 30
0.0
 70
   128
 71
    68
 72
    69
 73
    67
  0
VERTEX
  5
23F
  8
0
 62
     9
 10
0.0
 20
0.0
 30
0.0
 70
   128
 71
    64
 72
    62
 73
    72
  0
VERTEX
  5
240
  8
0
 62
     9
 10
0.0
 20
0.0
 30
0.0
 70
   128
 71
    63
 72
    72
 73
    62
  0
VERTEX
  5
241
  8
0
 62
     9
 10
0.0
 20
0.0
 30
0.0
 70
   128
 71
    73
 72
    65
 73
    60
  0
VERTEX
  5
242
  8
0
 62
     9
 10
0.0
 20
0.0
 30
0.0
 70
   128
 71
    60
 72
    65
 73
    64
  0
VERTEX
  5
243
  8
0
 62
     9
 10
0.0
 20
0.0
 30
0.0
 70
   128
 71
    73
 72
    60
 73
     9
  0
VERTEX
  5
244
  8
0
 62
     9
 10
0.0
 20
0.0
 30
0.0
 70
   128
 71
    54
 72
    47
 73
    59
  0
VERTEX
  5
245
  8
0
 62
     9
 10
0.0
 20
0.0
 30
0.0
 70
   128
 71
    75
 72
    74
 73
    52
  0
VERTEX
  5
246
  8
0
 62
     9
 10
0.0
 20
0.0
 30
0.0
 70
   128
 71
    76
 72
    75
 73
    16
  0
VERTEX
  5
247
  8
0
 62
     9
 10
0.0
 20
0.0
 30
0.0
 70
   128
 71
    12
 72
    10
 73
     2
  0
VERTEX
  5
248
  8
0
 62
     9
 10
0.0
 20
0.0
 30
0.0
 70
   128
 71
    77
 72
    51
 73
    74
  0
VERTEX
  5
249
  8
0
 62
     9
 10
0.0
 20
0.0
 30
0.0
 70
   128
 71
    52
 72
    74
 73
    51
  0
VERTEX
  5
24A
  8
0
 62
     9
 10
0.0
 20
0.0
 30
0.0
 70
   128
 71
    77
 72
    47
 73
    57
  0
VERTEX
  5
24B
  8
0
 62
     9
 10
0.0
 20
0.0
 30
0.0
 70
   128
 71
    44
 72
    42
 73
    59
  0
VERTEX
  5
24C
  8
0
 62
     9
 10
0.0
 20
0.0
 30
0.0
 70
   128
 71
    59
 72
    47
 73
    44
  0
VERTEX
  5
24D
  8
0
 62
     9
 10
0.0
 20
0.0
 30
0.0
 70
   128
 71
    57
 72
    47
 73
    54
  0
VERTEX
  5
24E
  8
0
 62
     9
 10
0.0
 20
0.0
 30
0.0
 70
   128
 71
    52
 72
    48
 73
    75
  0
VERTEX
  5
24F
  8
0
 62
     9
 10
0.0
 20
0.0
 30
0.0
 70
   128
 71
    77
 72
    57
 73
    51
  0
VERTEX
  5
250
  8
0
 62
     9
 10
0.0
 20
0.0
 30
0.0
 70
   128
 71
    48
 72
    16
 73
    75
  0
VERTEX
  5
251
  8
0
 62
     9
 10
0.0
 20
0.0
 30
0.0
 70
   128
 71
    76
 72
    66
 73
    70
  0
VERTEX
  5
252
  8
0
 62
     9
 10
0.0
 20
0.0
 30
0.0
 70
   128
 71
    76
 72
    63
 73
    68
  0
VERTEX
  5
253
  8
0
 62
     9
 10
0.0
 20
0.0
 30
0.0
 70
   128
 71
    66
 72
    76
 73
    68
  0
VERTEX
  5
254
  8
0
 62
     9
 10
0.0
 20
0.0
 30
0.0
 70
   128
 71
    76
 72
    64
 73
    72
  0
VERTEX
  5
255
  8
0
 62
     9
 10
0.0
 20
0.0
 30
0.0
 70
   128
 71
    63
 72
    76
 73
    72
  0
VERTEX
  5
256
  8
0
 62
     9
 10
0.0
 20
0.0
 30
0.0
 70
   128
 71
    16
 72
    60
 73
    76
  0
VERTEX
  5
257
  8
0
 62
     9
 10
0.0
 20
0.0
 30
0.0
 70
   128
 71
    64
 72
    76
 73
    60
  0
VERTEX
  5
258
  8
0
 62
     9
 10
0.0
 20
0.0
 30
0.0
 70
   128
 71
     8
 72
    16
 73
     6
  0
VERTEX
  5
259
  8
0
 62
     9
 10
0.0
 20
0.0
 30
0.0
 70
   128
 71
     8
 72
    60
 73
    16
  0
VERTEX
  5
25A
  8
0
 62
     9
 10
0.0
 20
0.0
 30
0.0
 70
   128
 71
     2
 72
     4
 73
    13
  0
VERTEX
  5
25B
  8
0
 62
     9
 10
0.0
 20
0.0
 30
0.0
 70
   128
 71
     4
 72
     6
 73
    16
  0
VERTEX
  5
25C
  8
0
 62
     9
 10
0.0
 20
0.0
 30
0.0
 70
   128
 71
    12
 72
     2
 73
    13
  0
VERTEX
  5
25D
  8
0
 62
     9
 10
0.0
 20
0.0
 30
0.0
 70
   128
 71
     4
 72
    16
 73
    13
  0
VERTEX
  5
25E
  8
0
 62
     9
 10
0.0
 20
0.0
 30
0.0
 70
   128
 71
    15
 72
     5
 73
    14
  0
VERTEX
  5
25F
  8
0
 62
     9
 10
0.0
 20
0.0
 30
0.0
 70
   128
 71
    78
 72
    50
 73
    58
  0
VERTEX
  5
260
  8
0
 62
     9
 10
0.0
 20
0.0
 30
0.0
 70
   128
 71
    49
 72
    53
 73
    79
  0
VERTEX
  5
261
  8
0
 62
     9
 10
0.0
 20
0.0
 30
0.0
 70
   128
 71
    46
 72
    56
 73
    43
  0
VERTEX
  5
262
  8
0
 62
     9
 10
0.0
 20
0.0
 30
0.0
 70
   128
 71
    56
 72
    46
 73
    55
  0
VERTEX
  5
263
  8
0
 62
     9
 10
0.0
 20
0.0
 30
0.0
 70
   128
 71
    43
 72
    56
 73
    45
  0
VERTEX
  5
264
  8
0
 62
     9
 10
0.0
 20
0.0
 30
0.0
 70
   128
 71
    58
 72
    55
 73
    46
  0
VERTEX
  5
265
  8
0
 62
     9
 10
0.0
 20
0.0
 30
0.0
 70
   128
 71
    50
 72
    78
 73
    80
  0
VERTEX
  5
266
  8
0
 62
     9
 10
0.0
 20
0.0
 30
0.0
 70
   128
 71
    58
 72
    46
 73
    78
  0
VERTEX
  5
267
  8
0
 62
     9
 10
0.0
 20
0.0
 30
0.0
 70
   128
 71
    79
 72
    53
 73
    80
  0
VERTEX
  5
268
  8
0
 62
     9
 10
0.0
 20
0.0
 30
0.0
 70
   128
 71
    50
 72
    80
 73
    53
  0
VERTEX
  5
269
  8
0
 62
     9
 10
0.0
 20
0.0
 30
0.0
 70
   128
 71
    15
 72
    49
 73
    79
  0
VERTEX
  5
26A
  8
0
 62
     9
 10
0.0
 20
0.0
 30
0.0
 70
   128
 71
     3
 72
    14
 73
     5
  0
VERTEX
  5
26B
  8
0
 62
     9
 10
0.0
 20
0.0
 30
0.0
 70
   128
 71
    79
 72
    81
 73
    15
  0
VERTEX
  5
26C
  8
0
 62
     9
 10
0.0
 20
0.0
 30
0.0
 70
   128
 71
    11
 72
    14
 73
     3
  0
VERTEX
  5
26D
  8
0
 62
     9
 10
0.0
 20
0.0
 30
0.0
 70
   128
 71
     3
 72
     1
 73
    11
  0
VERTEX
  5
26E
  8
0
 62
     9
 10
0.0
 20
0.0
 30
0.0
 70
   128
 71
     7
 72
     5
 73
    15
  0
VERTEX
  5
26F
  8
0
 62
     9
 10
0.0
 20
0.0
 30
0.0
 70
   128
 71
     9
 72
    15
 73
    73
  0
VERTEX
  5
270
  8
0
 62
     9
 10
0.0
 20
0.0
 30
0.0
 70
   128
 71
     9
 72
     7
 73
    15
  0
VERTEX
  5
271
  8
0
 62
     9
 10
0.0
 20
0.0
 30
0.0
 70
   128
 71
    73
 72
    15
 73
    81
  0
VERTEX
  5
272
  8
0
 62
     9
 10
0.0
 20
0.0
 30
0.0
 70
   128
 71
    73
 72
    81
 73
    65
  0
VERTEX
  5
273
  8
0
 62
     9
 10
0.0
 20
0.0
 30
0.0
 70
   128
 71
    81
 72
    62
 73
    65
  0
VERTEX
  5
274
  8
0
 62
     9
 10
0.0
 20
0.0
 30
0.0
 70
   128
 71
    69
 72
    61
 73
    81
  0
VERTEX
  5
275
  8
0
 62
     9
 10
0.0
 20
0.0
 30
0.0
 70
   128
 71
    81
 72
    61
 73
    62
  0
VERTEX
  5
276
  8
0
 62
     9
 10
0.0
 20
0.0
 30
0.0
 70
   128
 71
    67
 72
    81
 73
    71
  0
VERTEX
  5
277
  8
0
 62
     9
 10
0.0
 20
0.0
 30
0.0
 70
   128
 71
    81
 72
    67
 73
    69
  0
VERTEX
  5
278
  8
0
 62
     9
 10
0.0
 20
0.0
 30
0.0
 70
   128
 71
    84
 72
    83
 73
    82
  0
VERTEX
  5
279
  8
0
 62
     9
 10
0.0
 20
0.0
 30
0.0
 70
   128
 71
    87
 72
    86
 73
    85
  0
VERTEX
  5
27A
  8
0
 62
     9
 10
0.0
 20
0.0
 30
0.0
 70
   128
 71
    86
 72
    87
 73
    88
  0
VERTEX
  5
27B
  8
0
 62
     9
 10
0.0
 20
0.0
 30
0.0
 70
   128
 71
    85
 72
    89
 73
    87
  0
VERTEX
  5
27C
  8
0
 62
     9
 10
0.0
 20
0.0
 30
0.0
 70
   128
 71
    87
 72
    91
 73
    90
  0
VERTEX
  5
27D
  8
0
 62
     9
 10
0.0
 20
0.0
 30
0.0
 70
   128
 71
    92
 72
    91
 73
    89
  0
VERTEX
  5
27E
  8
0
 62
     9
 10
0.0
 20
0.0
 30
0.0
 70
   128
 71
    82
 72
    83
 73
    86
  0
VERTEX
  5
27F
  8
0
 62
     9
 10
0.0
 20
0.0
 30
0.0
 70
   128
 71
    94
 72
    93
 73
    83
  0
VERTEX
  5
280
  8
0
 62
     9
 10
0.0
 20
0.0
 30
0.0
 70
   128
 71
    84
 72
    94
 73
    83
  0
VERTEX
  5
281
  8
0
 62
     9
 10
0.0
 20
0.0
 30
0.0
 70
   128
 71
    94
 72
    96
 73
    95
  0
VERTEX
  5
282
  8
0
 62
     9
 10
0.0
 20
0.0
 30
0.0
 70
   128
 71
    94
 72
    95
 73
    97
  0
VERTEX
  5
283
  8
0
 62
     9
 10
0.0
 20
0.0
 30
0.0
 70
   128
 71
    95
 72
    99
 73
    98
  0
VERTEX
  5
284
  8
0
 62
     9
 10
0.0
 20
0.0
 30
0.0
 70
   128
 71
    99
 72
   100
 73
    98
  0
VERTEX
  5
285
  8
0
 62
     9
 10
0.0
 20
0.0
 30
0.0
 70
   128
 71
    98
 72
   100
 73
   101
  0
VERTEX
  5
286
  8
0
 62
     9
 10
0.0
 20
0.0
 30
0.0
 70
   128
 71
    19
 72
    20
 73
   101
  0
VERTEX
  5
287
  8
0
 62
     9
 10
0.0
 20
0.0
 30
0.0
 70
   128
 71
    23
 72
    36
 73
   102
  0
VERTEX
  5
288
  8
0
 62
     9
 10
0.0
 20
0.0
 30
0.0
 70
   128
 71
    20
 72
    23
 73
   101
  0
VERTEX
  5
289
  8
0
 62
     9
 10
0.0
 20
0.0
 30
0.0
 70
   128
 71
   102
 72
   101
 73
    23
  0
VERTEX
  5
28A
  8
0
 62
     9
 10
0.0
 20
0.0
 30
0.0
 70
   128
 71
   100
 72
    19
 73
   101
  0
VERTEX
  5
28B
  8
0
 62
     9
 10
0.0
 20
0.0
 30
0.0
 70
   128
 71
    88
 72
    87
 73
    90
  0
VERTEX
  5
28C
  8
0
 62
     9
 10
0.0
 20
0.0
 30
0.0
 70
   128
 71
    87
 72
    89
 73
    91
  0
VERTEX
  5
28D
  8
0
 62
     9
 10
0.0
 20
0.0
 30
0.0
 70
   128
 71
    85
 72
    86
 73
   103
  0
VERTEX
  5
28E
  8
0
 62
     9
 10
0.0
 20
0.0
 30
0.0
 70
   128
 71
    82
 72
    86
 73
    88
  0
VERTEX
  5
28F
  8
0
 62
     9
 10
0.0
 20
0.0
 30
0.0
 70
   128
 71
    83
 72
   103
 73
    86
  0
VERTEX
  5
290
  8
0
 62
     9
 10
0.0
 20
0.0
 30
0.0
 70
   128
 71
   103
 72
    83
 73
    93
  0
VERTEX
  5
291
  8
0
 62
     9
 10
0.0
 20
0.0
 30
0.0
 70
   128
 71
    93
 72
    94
 73
    97
  0
VERTEX
  5
292
  8
0
 62
     9
 10
0.0
 20
0.0
 30
0.0
 70
   128
 71
    94
 72
    84
 73
    96
  0
VERTEX
  5
293
  8
0
 62
     9
 10
0.0
 20
0.0
 30
0.0
 70
   128
 71
    97
 72
    95
 73
   104
  0
VERTEX
  5
294
  8
0
 62
     9
 10
0.0
 20
0.0
 30
0.0
 70
   128
 71
    95
 72
    96
 73
    99
  0
VERTEX
  5
295
  8
0
 62
     9
 10
0.0
 20
0.0
 30
0.0
 70
   128
 71
    98
 72
   104
 73
    95
  0
VERTEX
  5
296
  8
0
 62
     9
 10
0.0
 20
0.0
 30
0.0
 70
   128
 71
   104
 72
    98
 73
   105
  0
VERTEX
  5
297
  8
0
 62
     9
 10
0.0
 20
0.0
 30
0.0
 70
   128
 71
   101
 72
   105
 73
    98
  0
VERTEX
  5
298
  8
0
 62
     9
 10
0.0
 20
0.0
 30
0.0
 70
   128
 71
   102
 72
   105
 73
   101
  0
VERTEX
  5
299
  8
0
 62
     9
 10
0.0
 20
0.0
 30
0.0
 70
   128
 71
    40
 72
    39
 73
   106
  0
VERTEX
  5
29A
  8
0
 62
     9
 10
0.0
 20
0.0
 30
0.0
 70
   128
 71
    38
 72
    41
 73
   107
  0
VERTEX
  5
29B
  8
0
 62
     9
 10
0.0
 20
0.0
 30
0.0
 70
   128
 71
    37
 72
   108
 73
   102
  0
VERTEX
  5
29C
  8
0
 62
     9
 10
0.0
 20
0.0
 30
0.0
 70
   128
 71
   111
 72
   110
 73
   109
  0
VERTEX
  5
29D
  8
0
 62
     9
 10
0.0
 20
0.0
 30
0.0
 70
   128
 71
   110
 72
    30
 73
    25
  0
VERTEX
  5
29E
  8
0
 62
     9
 10
0.0
 20
0.0
 30
0.0
 70
   128
 71
   112
 72
   111
 73
   109
  0
VERTEX
  5
29F
  8
0
 62
     9
 10
0.0
 20
0.0
 30
0.0
 70
   128
 71
    91
 72
   112
 73
    90
  0
VERTEX
  5
2A0
  8
0
 62
     9
 10
0.0
 20
0.0
 30
0.0
 70
   128
 71
    92
 72
   111
 73
    91
  0
VERTEX
  5
2A1
  8
0
 62
     9
 10
0.0
 20
0.0
 30
0.0
 70
   128
 71
    91
 72
   111
 73
   112
  0
VERTEX
  5
2A2
  8
0
 62
     9
 10
0.0
 20
0.0
 30
0.0
 70
   128
 71
    29
 72
    30
 73
   113
  0
VERTEX
  5
2A3
  8
0
 62
     9
 10
0.0
 20
0.0
 30
0.0
 70
   128
 71
    29
 72
   113
 73
   107
  0
VERTEX
  5
2A4
  8
0
 62
     9
 10
0.0
 20
0.0
 30
0.0
 70
   128
 71
   114
 72
    38
 73
   107
  0
VERTEX
  5
2A5
  8
0
 62
     9
 10
0.0
 20
0.0
 30
0.0
 70
   128
 71
    41
 72
    29
 73
   107
  0
VERTEX
  5
2A6
  8
0
 62
     9
 10
0.0
 20
0.0
 30
0.0
 70
   128
 71
    39
 72
   114
 73
   106
  0
VERTEX
  5
2A7
  8
0
 62
     9
 10
0.0
 20
0.0
 30
0.0
 70
   128
 71
   114
 72
    39
 73
    38
  0
VERTEX
  5
2A8
  8
0
 62
     9
 10
0.0
 20
0.0
 30
0.0
 70
   128
 71
   108
 72
    40
 73
   106
  0
VERTEX
  5
2A9
  8
0
 62
     9
 10
0.0
 20
0.0
 30
0.0
 70
   128
 71
    36
 72
    37
 73
   102
  0
VERTEX
  5
2AA
  8
0
 62
     9
 10
0.0
 20
0.0
 30
0.0
 70
   128
 71
    37
 72
    40
 73
   108
  0
VERTEX
  5
2AB
  8
0
 62
     9
 10
0.0
 20
0.0
 30
0.0
 70
   128
 71
   113
 72
    30
 73
   115
  0
VERTEX
  5
2AC
  8
0
 62
     9
 10
0.0
 20
0.0
 30
0.0
 70
   128
 71
   110
 72
   115
 73
    30
  0
VERTEX
  5
2AD
  8
0
 62
     9
 10
0.0
 20
0.0
 30
0.0
 70
   128
 71
   115
 72
   110
 73
   116
  0
VERTEX
  5
2AE
  8
0
 62
     9
 10
0.0
 20
0.0
 30
0.0
 70
   128
 71
   109
 72
   110
 73
    25
  0
VERTEX
  5
2AF
  8
0
 62
     9
 10
0.0
 20
0.0
 30
0.0
 70
   128
 71
   111
 72
   116
 73
   110
  0
VERTEX
  5
2B0
  8
0
 62
     9
 10
0.0
 20
0.0
 30
0.0
 70
   128
 71
   116
 72
   111
 73
    92
  0
VERTEX
  5
2B1
  8
0
 62
     9
 10
0.0
 20
0.0
 30
0.0
 70
   128
 71
    99
 72
    96
 73
   117
  0
VERTEX
  5
2B2
  8
0
 62
     9
 10
0.0
 20
0.0
 30
0.0
 70
   128
 71
   117
 72
   112
 73
    99
  0
VERTEX
  5
2B3
  8
0
 62
     9
 10
0.0
 20
0.0
 30
0.0
 70
   128
 71
   112
 72
   117
 73
    90
  0
VERTEX
  5
2B4
  8
0
 62
     9
 10
0.0
 20
0.0
 30
0.0
 70
   128
 71
   100
 72
    99
 73
    18
  0
VERTEX
  5
2B5
  8
0
 62
     9
 10
0.0
 20
0.0
 30
0.0
 70
   128
 71
    18
 72
    99
 73
   112
  0
VERTEX
  5
2B6
  8
0
 62
     9
 10
0.0
 20
0.0
 30
0.0
 70
   128
 71
   100
 72
    18
 73
    19
  0
VERTEX
  5
2B7
  8
0
 62
     9
 10
0.0
 20
0.0
 30
0.0
 70
   128
 71
   112
 72
   109
 73
    18
  0
VERTEX
  5
2B8
  8
0
 62
     9
 10
0.0
 20
0.0
 30
0.0
 70
   128
 71
    18
 72
   109
 73
    25
  0
VERTEX
  5
2B9
  8
0
 62
     9
 10
0.0
 20
0.0
 30
0.0
 70
   128
 71
    82
 72
    88
 73
   117
  0
VERTEX
  5
2BA
  8
0
 62
     9
 10
0.0
 20
0.0
 30
0.0
 70
   128
 71
    88
 72
    90
 73
   117
  0
VERTEX
  5
2BB
  8
0
 62
     9
 10
0.0
 20
0.0
 30
0.0
 70
   128
 71
    84
 72
    82
 73
   117
  0
VERTEX
  5
2BC
  8
0
 62
     9
 10
0.0
 20
0.0
 30
0.0
 70
   128
 71
    96
 72
    84
 73
   117
  0
VERTEX
  5
2BD
  8
0
 62
     9
 10
0.0
 20
0.0
 30
0.0
 70
   128
 71
    93
 72
    78
 73
   103
  0
VERTEX
  5
2BE
  8
0
 62
     9
 10
0.0
 20
0.0
 30
0.0
 70
   128
 71
    81
 72
   108
 73
   106
  0
VERTEX
  5
2BF
  8
0
 62
     9
 10
0.0
 20
0.0
 30
0.0
 70
   128
 71
    92
 72
    77
 73
    74
  0
VERTEX
  5
2C0
  8
0
 62
     9
 10
0.0
 20
0.0
 30
0.0
 70
   128
 71
   114
 72
    76
 73
    70
  0
VERTEX
  5
2C1
  8
0
 62
     9
 10
0.0
 20
0.0
 30
0.0
 70
   128
 71
    76
 72
   114
 73
   107
  0
VERTEX
  5
2C2
  8
0
 62
     9
 10
0.0
 20
0.0
 30
0.0
 70
   128
 71
    75
 72
   113
 73
   115
  0
VERTEX
  5
2C3
  8
0
 62
     9
 10
0.0
 20
0.0
 30
0.0
 70
   128
 71
    78
 72
    93
 73
    97
  0
VERTEX
  5
2C4
  8
0
 62
     9
 10
0.0
 20
0.0
 30
0.0
 70
   128
 71
   102
 72
    79
 73
   105
  0
VERTEX
  5
2C5
  8
0
 62
     9
 10
0.0
 20
0.0
 30
0.0
 70
   128
 71
    97
 72
   104
 73
    80
  0
VERTEX
  5
2C6
  8
0
 62
     9
 10
0.0
 20
0.0
 30
0.0
 70
   128
 71
   105
 72
    79
 73
   104
  0
VERTEX
  5
2C7
  8
0
 62
     9
 10
0.0
 20
0.0
 30
0.0
 70
   128
 71
   102
 72
    81
 73
    79
  0
VERTEX
  5
2C8
  8
0
 62
     9
 10
0.0
 20
0.0
 30
0.0
 70
   128
 71
    74
 72
   115
 73
   116
  0
VERTEX
  5
2C9
  8
0
 62
     9
 10
0.0
 20
0.0
 30
0.0
 70
   128
 71
    80
 72
   104
 73
    79
  0
VERTEX
  5
2CA
  8
0
 62
     9
 10
0.0
 20
0.0
 30
0.0
 70
   128
 71
    97
 72
    80
 73
    78
  0
VERTEX
  5
2CB
  8
0
 62
     9
 10
0.0
 20
0.0
 30
0.0
 70
   128
 71
    47
 72
    85
 73
    46
  0
VERTEX
  5
2CC
  8
0
 62
     9
 10
0.0
 20
0.0
 30
0.0
 70
   128
 71
    46
 72
   103
 73
    78
  0
VERTEX
  5
2CD
  8
0
 62
     9
 10
0.0
 20
0.0
 30
0.0
 70
   128
 71
    85
 72
   103
 73
    46
  0
VERTEX
  5
2CE
  8
0
 62
     9
 10
0.0
 20
0.0
 30
0.0
 70
   128
 71
    89
 72
    47
 73
    77
  0
VERTEX
  5
2CF
  8
0
 62
     9
 10
0.0
 20
0.0
 30
0.0
 70
   128
 71
    89
 72
    85
 73
    47
  0
VERTEX
  5
2D0
  8
0
 62
     9
 10
0.0
 20
0.0
 30
0.0
 70
   128
 71
    89
 72
    77
 73
    92
  0
VERTEX
  5
2D1
  8
0
 62
     9
 10
0.0
 20
0.0
 30
0.0
 70
   128
 71
   116
 72
    92
 73
    74
  0
VERTEX
  5
2D2
  8
0
 62
     9
 10
0.0
 20
0.0
 30
0.0
 70
   128
 71
   115
 72
    74
 73
    75
  0
VERTEX
  5
2D3
  8
0
 62
     9
 10
0.0
 20
0.0
 30
0.0
 70
   128
 71
   107
 72
    75
 73
    76
  0
VERTEX
  5
2D4
  8
0
 62
     9
 10
0.0
 20
0.0
 30
0.0
 70
   128
 71
   107
 72
   113
 73
    75
  0
VERTEX
  5
2D5
  8
0
 62
     9
 10
0.0
 20
0.0
 30
0.0
 70
   128
 71
    81
 72
   102
 73
   108
  0
VERTEX
  5
2D6
  8
0
 62
     9
 10
0.0
 20
0.0
 30
0.0
 70
   128
 71
   106
 72
    70
 73
    71
  0
VERTEX
  5
2D7
  8
0
 62
     9
 10
0.0
 20
0.0
 30
0.0
 70
   128
 71
    70
 72
   106
 73
   114
  0
VERTEX
  5
2D8
  8
0
 62
     9
 10
0.0
 20
0.0
 30
0.0
 70
   128
 71
   106
 72
    71
 73
    81
  0
SEQEND
  5
2D9
  8
0
 62
     9
  0
ENDBLK
  5
2DC
  8
0
  0
BLOCK
  8
0
  2
42
 70
     0
 10
0.0
 20
0.0
 30
0.0
  3
42
  1

  0
POLYLINE
  5
2DE
  8
0
 62
     9
 66
     1
 10
0.0
 20
0.0
 30
0.0
 70
    64
 71
    60
 72
    60
  0
VERTEX
  5
2DF
  8
0
 10
-19.89534187316895
 20
-124.6999969482422
 30
-2.08099365234375
 70
   192
  0
VERTEX
  5
2E0
  8
0
 10
-19.89534187316895
 20
-131.6999969482422
 30
2.08099365234375
 70
   192
  0
VERTEX
  5
2E1
  8
0
 10
-19.86115074157715
 20
-131.6999969482422
 30
-2.088839769363403
 70
   192
  0
VERTEX
  5
2E2
  8
0
 10
-19.00349807739258
 20
-131.6999969482422
 30
-6.178953647613525
 70
   192
  0
VERTEX
  5
2E3
  8
0
 10
-18.92807197570801
 20
-124.6999969482422
 30
-6.136475086212158
 70
   192
  0
VERTEX
  5
2E4
  8
0
 10
-17.32477569580078
 20
-124.6999969482422
 30
-10.00130367279053
 70
   192
  0
VERTEX
  5
2E5
  8
0
 10
-17.31132316589355
 20
-131.6999969482422
 30
-9.995911598205566
 70
   192
  0
VERTEX
  5
2E6
  8
0
 10
-14.85184860229492
 20
-131.6999969482422
 30
-13.38624382019043
 70
   192
  0
VERTEX
  5
2E7
  8
0
 10
-14.86748504638672
 20
-124.6999969482422
 30
-13.38424301147461
 70
   192
  0
VERTEX
  5
2E8
  8
0
 10
-11.73755359649658
 20
-131.6999969482422
 30
-16.17873573303223
 70
   192
  0
VERTEX
  5
2E9
  8
0
 10
-11.76692485809326
 20
-124.6999969482422
 30
-16.18789482116699
 70
   192
  0
VERTEX
  5
2EA
  8
0
 10
-8.144272804260254
 20
-124.6999969482422
 30
-18.28109359741211
 70
   192
  0
VERTEX
  5
2EB
  8
0
 10
-8.118839263916016
 20
-131.6999969482422
 30
-18.26507568359375
 70
   192
  0
VERTEX
  5
2EC
  8
0
 10
-4.148841857910156
 20
-131.6999969482422
 30
-19.55701637268066
 70
   192
  0
VERTEX
  5
2ED
  8
0
 10
-4.163449287414551
 20
-124.6999969482422
 30
-19.57234954833984
 70
   192
  0
VERTEX
  5
2EE
  8
0
 10
0.0000000000042589
 20
-124.6999969482422
 30
-20.0
 70
   192
  0
VERTEX
  5
2EF
  8
0
 10
0.0000000000042565
 20
-131.6999969482422
 30
-20.0
 70
   192
  0
VERTEX
  5
2F0
  8
0
 10
-19.86115074157715
 20
-124.6999969482422
 30
2.088839769363403
 70
   192
  0
VERTEX
  5
2F1
  8
0
 10
-18.92807197570801
 20
-131.6999969482422
 30
6.136475086212158
 70
   192
  0
VERTEX
  5
2F2
  8
0
 10
-19.00349807739258
 20
-124.6999969482422
 30
6.178953647613525
 70
   192
  0
VERTEX
  5
2F3
  8
0
 10
-17.31132316589355
 20
-124.6999969482422
 30
9.995911598205566
 70
   192
  0
VERTEX
  5
2F4
  8
0
 10
-17.32477569580078
 20
-131.6999969482422
 30
10.00130367279053
 70
   192
  0
VERTEX
  5
2F5
  8
0
 10
-14.85184860229492
 20
-124.6999969482422
 30
13.38624382019043
 70
   192
  0
VERTEX
  5
2F6
  8
0
 10
-14.86748504638672
 20
-131.6999969482422
 30
13.38424301147461
 70
   192
  0
VERTEX
  5
2F7
  8
0
 10
-11.76692485809326
 20
-131.6999969482422
 30
16.18789482116699
 70
   192
  0
VERTEX
  5
2F8
  8
0
 10
-11.73755359649658
 20
-124.6999969482422
 30
16.17873573303223
 70
   192
  0
VERTEX
  5
2F9
  8
0
 10
-8.118839263916016
 20
-124.6999969482422
 30
18.26507568359375
 70
   192
  0
VERTEX
  5
2FA
  8
0
 10
-8.144272804260254
 20
-131.6999969482422
 30
18.28109359741211
 70
   192
  0
VERTEX
  5
2FB
  8
0
 10
-4.148841857910156
 20
-124.6999969482422
 30
19.55701637268066
 70
   192
  0
VERTEX
  5
2FC
  8
0
 10
-4.163449287414551
 20
-131.6999969482422
 30
19.57234954833984
 70
   192
  0
VERTEX
  5
2FD
  8
0
 10
-0.0000000000043006
 20
-131.6999969482422
 30
20.0
 70
   192
  0
VERTEX
  5
2FE
  8
0
 10
-0.0000000000042982
 20
-124.6999969482422
 30
20.0
 70
   192
  0
VERTEX
  5
2FF
  8
0
 10
4.148841857910156
 20
-124.6999969482422
 30
-19.55701637268066
 70
   192
  0
VERTEX
  5
300
  8
0
 10
14.85184860229492
 20
-124.6999969482422
 30
-13.38624382019043
 70
   192
  0
VERTEX
  5
301
  8
0
 10
11.73755359649658
 20
-124.6999969482422
 30
-16.17873573303223
 70
   192
  0
VERTEX
  5
302
  8
0
 10
14.86748504638672
 20
-131.6999969482422
 30
-13.38424301147461
 70
   192
  0
VERTEX
  5
303
  8
0
 10
8.118839263916016
 20
-124.6999969482422
 30
-18.26507568359375
 70
   192
  0
VERTEX
  5
304
  8
0
 10
8.144272804260254
 20
-131.6999969482422
 30
-18.28109359741211
 70
   192
  0
VERTEX
  5
305
  8
0
 10
11.76692485809326
 20
-131.6999969482422
 30
-16.18789482116699
 70
   192
  0
VERTEX
  5
306
  8
0
 10
19.86115074157715
 20
-124.6999969482422
 30
-2.088839769363403
 70
   192
  0
VERTEX
  5
307
  8
0
 10
19.89534187316895
 20
-131.6999969482422
 30
-2.08099365234375
 70
   192
  0
VERTEX
  5
308
  8
0
 10
19.89534187316895
 20
-124.6999969482422
 30
2.08099365234375
 70
   192
  0
VERTEX
  5
309
  8
0
 10
17.31132316589355
 20
-124.6999969482422
 30
-9.995911598205566
 70
   192
  0
VERTEX
  5
30A
  8
0
 10
18.92807197570801
 20
-131.6999969482422
 30
-6.136475086212158
 70
   192
  0
VERTEX
  5
30B
  8
0
 10
19.00349807739258
 20
-124.6999969482422
 30
-6.178953647613525
 70
   192
  0
VERTEX
  5
30C
  8
0
 10
18.92807197570801
 20
-124.6999969482422
 30
6.136475086212158
 70
   192
  0
VERTEX
  5
30D
  8
0
 10
17.31132316589355
 20
-131.6999969482422
 30
9.995911598205566
 70
   192
  0
VERTEX
  5
30E
  8
0
 10
17.32477569580078
 20
-124.6999969482422
 30
10.00130367279053
 70
   192
  0
VERTEX
  5
30F
  8
0
 10
19.00349807739258
 20
-131.6999969482422
 30
6.178953647613525
 70
   192
  0
VERTEX
  5
310
  8
0
 10
14.86748504638672
 20
-124.6999969482422
 30
13.38424301147461
 70
   192
  0
VERTEX
  5
311
  8
0
 10
11.73755359649658
 20
-131.6999969482422
 30
16.17873573303223
 70
   192
  0
VERTEX
  5
312
  8
0
 10
11.76692485809326
 20
-124.6999969482422
 30
16.18789482116699
 70
   192
  0
VERTEX
  5
313
  8
0
 10
14.85184860229492
 20
-131.6999969482422
 30
13.38624382019043
 70
   192
  0
VERTEX
  5
314
  8
0
 10
8.118839263916016
 20
-131.6999969482422
 30
18.26507568359375
 70
   192
  0
VERTEX
  5
315
  8
0
 10
8.144272804260254
 20
-124.6999969482422
 30
18.28109359741211
 70
   192
  0
VERTEX
  5
316
  8
0
 10
4.163449287414551
 20
-124.6999969482422
 30
19.57234954833984
 70
   192
  0
VERTEX
  5
317
  8
0
 10
4.148841857910156
 20
-131.6999969482422
 30
19.55701637268066
 70
   192
  0
VERTEX
  5
318
  8
0
 10
19.86115074157715
 20
-131.6999969482422
 30
2.088839769363403
 70
   192
  0
VERTEX
  5
319
  8
0
 10
17.32477569580078
 20
-131.6999969482422
 30
-10.00130367279053
 70
   192
  0
VERTEX
  5
31A
  8
0
 10
4.163449287414551
 20
-131.6999969482422
 30
-19.57234954833984
 70
   192
  0
VERTEX
  5
31B
  8
0
 62
     9
 10
0.0
 20
0.0
 30
0.0
 70
   128
 71
     3
 72
     2
 73
     1
  0
VERTEX
  5
31C
  8
0
 62
     9
 10
0.0
 20
0.0
 30
0.0
 70
   128
 71
     1
 72
     5
 73
     4
  0
VERTEX
  5
31D
  8
0
 62
     9
 10
0.0
 20
0.0
 30
0.0
 70
   128
 71
     4
 72
     3
 73
     1
  0
VERTEX
  5
31E
  8
0
 62
     9
 10
0.0
 20
0.0
 30
0.0
 70
   128
 71
     7
 72
     5
 73
     6
  0
VERTEX
  5
31F
  8
0
 62
     9
 10
0.0
 20
0.0
 30
0.0
 70
   128
 71
     5
 72
     7
 73
     4
  0
VERTEX
  5
320
  8
0
 62
     9
 10
0.0
 20
0.0
 30
0.0
 70
   128
 71
     9
 72
     8
 73
     6
  0
VERTEX
  5
321
  8
0
 62
     9
 10
0.0
 20
0.0
 30
0.0
 70
   128
 71
     7
 72
     6
 73
     8
  0
VERTEX
  5
322
  8
0
 62
     9
 10
0.0
 20
0.0
 30
0.0
 70
   128
 71
     9
 72
    11
 73
    10
  0
VERTEX
  5
323
  8
0
 62
     9
 10
0.0
 20
0.0
 30
0.0
 70
   128
 71
    10
 72
     8
 73
     9
  0
VERTEX
  5
324
  8
0
 62
     9
 10
0.0
 20
0.0
 30
0.0
 70
   128
 71
    13
 72
    11
 73
    12
  0
VERTEX
  5
325
  8
0
 62
     9
 10
0.0
 20
0.0
 30
0.0
 70
   128
 71
    11
 72
    13
 73
    10
  0
VERTEX
  5
326
  8
0
 62
     9
 10
0.0
 20
0.0
 30
0.0
 70
   128
 71
    15
 72
    14
 73
    12
  0
VERTEX
  5
327
  8
0
 62
     9
 10
0.0
 20
0.0
 30
0.0
 70
   128
 71
    13
 72
    12
 73
    14
  0
VERTEX
  5
328
  8
0
 62
     9
 10
0.0
 20
0.0
 30
0.0
 70
   128
 71
    14
 72
    15
 73
    16
  0
VERTEX
  5
329
  8
0
 62
     9
 10
0.0
 20
0.0
 30
0.0
 70
   128
 71
    17
 72
    14
 73
    16
  0
VERTEX
  5
32A
  8
0
 62
     9
 10
0.0
 20
0.0
 30
0.0
 70
   128
 71
     2
 72
    18
 73
     1
  0
VERTEX
  5
32B
  8
0
 62
     9
 10
0.0
 20
0.0
 30
0.0
 70
   128
 71
    20
 72
     2
 73
    19
  0
VERTEX
  5
32C
  8
0
 62
     9
 10
0.0
 20
0.0
 30
0.0
 70
   128
 71
     2
 72
    20
 73
    18
  0
VERTEX
  5
32D
  8
0
 62
     9
 10
0.0
 20
0.0
 30
0.0
 70
   128
 71
    22
 72
    21
 73
    19
  0
VERTEX
  5
32E
  8
0
 62
     9
 10
0.0
 20
0.0
 30
0.0
 70
   128
 71
    20
 72
    19
 73
    21
  0
VERTEX
  5
32F
  8
0
 62
     9
 10
0.0
 20
0.0
 30
0.0
 70
   128
 71
    22
 72
    24
 73
    23
  0
VERTEX
  5
330
  8
0
 62
     9
 10
0.0
 20
0.0
 30
0.0
 70
   128
 71
    23
 72
    21
 73
    22
  0
VERTEX
  5
331
  8
0
 62
     9
 10
0.0
 20
0.0
 30
0.0
 70
   128
 71
    26
 72
    24
 73
    25
  0
VERTEX
  5
332
  8
0
 62
     9
 10
0.0
 20
0.0
 30
0.0
 70
   128
 71
    24
 72
    26
 73
    23
  0
VERTEX
  5
333
  8
0
 62
     9
 10
0.0
 20
0.0
 30
0.0
 70
   128
 71
    28
 72
    27
 73
    25
  0
VERTEX
  5
334
  8
0
 62
     9
 10
0.0
 20
0.0
 30
0.0
 70
   128
 71
    26
 72
    25
 73
    27
  0
VERTEX
  5
335
  8
0
 62
     9
 10
0.0
 20
0.0
 30
0.0
 70
   128
 71
    28
 72
    30
 73
    29
  0
VERTEX
  5
336
  8
0
 62
     9
 10
0.0
 20
0.0
 30
0.0
 70
   128
 71
    29
 72
    27
 73
    28
  0
VERTEX
  5
337
  8
0
 62
     9
 10
0.0
 20
0.0
 30
0.0
 70
   128
 71
    31
 72
    29
 73
    30
  0
VERTEX
  5
338
  8
0
 62
     9
 10
0.0
 20
0.0
 30
0.0
 70
   128
 71
    31
 72
    32
 73
    29
  0
VERTEX
  5
339
  8
0
 62
     9
 10
0.0
 20
0.0
 30
0.0
 70
   128
 71
    17
 72
    16
 73
    33
  0
VERTEX
  5
33A
  8
0
 62
     9
 10
0.0
 20
0.0
 30
0.0
 70
   128
 71
    36
 72
    35
 73
    34
  0
VERTEX
  5
33B
  8
0
 62
     9
 10
0.0
 20
0.0
 30
0.0
 70
   128
 71
    39
 72
    38
 73
    37
  0
VERTEX
  5
33C
  8
0
 62
     9
 10
0.0
 20
0.0
 30
0.0
 70
   128
 71
    42
 72
    41
 73
    40
  0
VERTEX
  5
33D
  8
0
 62
     9
 10
0.0
 20
0.0
 30
0.0
 70
   128
 71
    45
 72
    44
 73
    43
  0
VERTEX
  5
33E
  8
0
 62
     9
 10
0.0
 20
0.0
 30
0.0
 70
   128
 71
    48
 72
    47
 73
    46
  0
VERTEX
  5
33F
  8
0
 62
     9
 10
0.0
 20
0.0
 30
0.0
 70
   128
 71
    49
 72
    42
 73
    46
  0
VERTEX
  5
340
  8
0
 62
     9
 10
0.0
 20
0.0
 30
0.0
 70
   128
 71
    52
 72
    51
 73
    50
  0
VERTEX
  5
341
  8
0
 62
     9
 10
0.0
 20
0.0
 30
0.0
 70
   128
 71
    53
 72
    48
 73
    50
  0
VERTEX
  5
342
  8
0
 62
     9
 10
0.0
 20
0.0
 30
0.0
 70
   128
 71
    52
 72
    55
 73
    54
  0
VERTEX
  5
343
  8
0
 62
     9
 10
0.0
 20
0.0
 30
0.0
 70
   128
 71
    54
 72
    51
 73
    52
  0
VERTEX
  5
344
  8
0
 62
     9
 10
0.0
 20
0.0
 30
0.0
 70
   128
 71
    57
 72
    55
 73
    56
  0
VERTEX
  5
345
  8
0
 62
     9
 10
0.0
 20
0.0
 30
0.0
 70
   128
 71
    55
 72
    57
 73
    54
  0
VERTEX
  5
346
  8
0
 62
     9
 10
0.0
 20
0.0
 30
0.0
 70
   128
 71
    31
 72
    57
 73
    32
  0
VERTEX
  5
347
  8
0
 62
     9
 10
0.0
 20
0.0
 30
0.0
 70
   128
 71
    56
 72
    32
 73
    57
  0
VERTEX
  5
348
  8
0
 62
     9
 10
0.0
 20
0.0
 30
0.0
 70
   128
 71
    48
 72
    53
 73
    47
  0
VERTEX
  5
349
  8
0
 62
     9
 10
0.0
 20
0.0
 30
0.0
 70
   128
 71
    51
 72
    53
 73
    50
  0
VERTEX
  5
34A
  8
0
 62
     9
 10
0.0
 20
0.0
 30
0.0
 70
   128
 71
    58
 72
    42
 73
    49
  0
VERTEX
  5
34B
  8
0
 62
     9
 10
0.0
 20
0.0
 30
0.0
 70
   128
 71
    47
 72
    49
 73
    46
  0
VERTEX
  5
34C
  8
0
 62
     9
 10
0.0
 20
0.0
 30
0.0
 70
   128
 71
    40
 72
    41
 73
    45
  0
VERTEX
  5
34D
  8
0
 62
     9
 10
0.0
 20
0.0
 30
0.0
 70
   128
 71
    58
 72
    41
 73
    42
  0
VERTEX
  5
34E
  8
0
 62
     9
 10
0.0
 20
0.0
 30
0.0
 70
   128
 71
    43
 72
    44
 73
    59
  0
VERTEX
  5
34F
  8
0
 62
     9
 10
0.0
 20
0.0
 30
0.0
 70
   128
 71
    45
 72
    41
 73
    44
  0
VERTEX
  5
350
  8
0
 62
     9
 10
0.0
 20
0.0
 30
0.0
 70
   128
 71
    59
 72
    36
 73
    34
  0
VERTEX
  5
351
  8
0
 62
     9
 10
0.0
 20
0.0
 30
0.0
 70
   128
 71
    34
 72
    43
 73
    59
  0
VERTEX
  5
352
  8
0
 62
     9
 10
0.0
 20
0.0
 30
0.0
 70
   128
 71
    39
 72
    37
 73
    35
  0
VERTEX
  5
353
  8
0
 62
     9
 10
0.0
 20
0.0
 30
0.0
 70
   128
 71
    39
 72
    35
 73
    36
  0
VERTEX
  5
354
  8
0
 62
     9
 10
0.0
 20
0.0
 30
0.0
 70
   128
 71
    38
 72
    60
 73
    33
  0
VERTEX
  5
355
  8
0
 62
     9
 10
0.0
 20
0.0
 30
0.0
 70
   128
 71
    38
 72
    33
 73
    37
  0
VERTEX
  5
356
  8
0
 62
     9
 10
0.0
 20
0.0
 30
0.0
 70
   128
 71
    33
 72
    60
 73
    17
  0
SEQEND
  5
357
  8
0
 62
     9
  0
ENDBLK
  5
35A
  8
0
  0
BLOCK
  8
0
  2
43
 70
     0
 10
0.0
 20
0.0
 30
0.0
  3
43
  1

  0
POLYLINE
  5
35C
  8
0
 62
     9
 66
     1
 10
0.0
 20
0.0
 30
0.0
 70
    64
 71
    48
 72
    70
  0
VERTEX
  5
35D
  8
0
 10
-6.062314987182617
 20
148.4991302490234
 30
24.00284385681152
 70
   192
  0
VERTEX
  5
35E
  8
0
 10
-6.76176643371582
 20
146.8098297119141
 30
24.0025577545166
 70
   192
  0
VERTEX
  5
35F
  8
0
 10
-6.757226943969727
 20
146.8165740966797
 30
18.5
 70
   192
  0
VERTEX
  5
360
  8
0
 10
-6.05434513092041
 20
148.5024719238281
 30
18.5
 70
   192
  0
VERTEX
  5
361
  8
0
 10
-7.0
 20
145.0
 30
18.5
 70
   192
  0
VERTEX
  5
362
  8
0
 10
-4.943592548370361
 20
149.9482116699219
 30
18.5
 70
   192
  0
VERTEX
  5
363
  8
0
 10
-4.95552396774292
 20
149.9439697265625
 30
24.0015869140625
 70
   192
  0
VERTEX
  5
364
  8
0
 10
-1.814877390861511
 20
151.7604827880859
 30
23.98077392578125
 70
   192
  0
VERTEX
  5
365
  8
0
 10
-1.806235551834106
 20
151.7589263916016
 30
18.5
 70
   192
  0
VERTEX
  5
366
  8
0
 10
0.0000000000002177
 20
152.0
 30
18.5
 70
   192
  0
VERTEX
  5
367
  8
0
 10
-3.503644227981567
 20
151.0600891113281
 30
23.99592590332031
 70
   192
  0
VERTEX
  5
368
  8
0
 10
-3.492393493652344
 20
151.0609130859375
 30
18.5
 70
   192
  0
VERTEX
  5
369
  8
0
 10
0.0000000000002192
 20
152.0
 30
23.95123672485352
 70
   192
  0
VERTEX
  5
36A
  8
0
 10
-6.999999523162842
 20
144.9976806640625
 30
24.00230026245117
 70
   192
  0
VERTEX
  5
36B
  8
0
 10
-6.761196136474609
 20
143.1868591308594
 30
24.00251388549805
 70
   192
  0
VERTEX
  5
36C
  8
0
 10
-6.062753677368164
 20
141.5022125244141
 30
24.00274658203125
 70
   192
  0
VERTEX
  5
36D
  8
0
 10
-6.761712551116943
 20
143.1909027099609
 30
18.5
 70
   192
  0
VERTEX
  5
36E
  8
0
 10
-4.950176239013672
 20
140.0506744384766
 30
24.0015754699707
 70
   192
  0
VERTEX
  5
36F
  8
0
 10
-6.065645694732666
 20
141.5007781982422
 30
18.5
 70
   192
  0
VERTEX
  5
370
  8
0
 10
-4.950963973999023
 20
140.0462799072266
 30
18.5
 70
   192
  0
VERTEX
  5
371
  8
0
 10
-3.502077102661133
 20
138.9391784667969
 30
23.99563407897949
 70
   192
  0
VERTEX
  5
372
  8
0
 10
-1.816006064414978
 20
138.2398071289062
 30
23.98050498962402
 70
   192
  0
VERTEX
  5
373
  8
0
 10
-3.50224494934082
 20
138.9352416992188
 30
18.5
 70
   192
  0
VERTEX
  5
374
  8
0
 10
0.0000000000001952
 20
138.0
 30
23.95123672485352
 70
   192
  0
VERTEX
  5
375
  8
0
 10
-1.814658164978027
 20
138.2356262207031
 30
18.5
 70
   192
  0
VERTEX
  5
376
  8
0
 10
0.0000000000001937
 20
138.0
 30
18.5
 70
   192
  0
VERTEX
  5
377
  8
0
 10
1.814658164978027
 20
151.7643737792969
 30
18.5
 70
   192
  0
VERTEX
  5
378
  8
0
 10
1.820731997489929
 20
151.7584991455078
 30
23.89374542236328
 70
   192
  0
VERTEX
  5
379
  8
0
 10
6.06071662902832
 20
148.5028228759766
 30
23.22572135925293
 70
   192
  0
VERTEX
  5
37A
  8
0
 10
4.950386047363281
 20
149.9491119384766
 30
23.48505401611328
 70
   192
  0
VERTEX
  5
37B
  8
0
 10
6.065645694732666
 20
148.4992218017578
 30
18.5
 70
   192
  0
VERTEX
  5
37C
  8
0
 10
3.510764837265015
 20
151.0555419921875
 30
23.72990608215332
 70
   192
  0
VERTEX
  5
37D
  8
0
 10
3.50224494934082
 20
151.0647583007812
 30
18.5
 70
   192
  0
VERTEX
  5
37E
  8
0
 10
4.950963973999023
 20
149.9537200927734
 30
18.5
 70
   192
  0
VERTEX
  5
37F
  8
0
 10
6.757226943969727
 20
143.1834259033203
 30
18.5
 70
   192
  0
VERTEX
  5
380
  8
0
 10
6.757961750030518
 20
143.1780700683594
 30
23.03559303283691
 70
   192
  0
VERTEX
  5
381
  8
0
 10
7.0
 20
145.0014801025391
 30
22.96222686767578
 70
   192
  0
VERTEX
  5
382
  8
0
 10
6.760128974914551
 20
146.8162384033203
 30
23.03335189819336
 70
   192
  0
VERTEX
  5
383
  8
0
 10
6.761712551116943
 20
146.8090972900391
 30
18.5
 70
   192
  0
VERTEX
  5
384
  8
0
 10
4.949733257293701
 20
140.0502319335938
 30
23.48518943786621
 70
   192
  0
VERTEX
  5
385
  8
0
 10
4.943592548370361
 20
140.0517883300781
 30
18.5
 70
   192
  0
VERTEX
  5
386
  8
0
 10
3.50489616394043
 20
138.9406585693359
 30
23.73276710510254
 70
   192
  0
VERTEX
  5
387
  8
0
 10
6.058107852935791
 20
141.4930572509766
 30
23.22877311706543
 70
   192
  0
VERTEX
  5
388
  8
0
 10
6.05434513092041
 20
141.4975280761719
 30
18.5
 70
   192
  0
VERTEX
  5
389
  8
0
 10
3.492393493652344
 20
138.9390869140625
 30
18.5
 70
   192
  0
VERTEX
  5
38A
  8
0
 10
1.814117550849915
 20
138.2393798828125
 30
23.89291954040527
 70
   192
  0
VERTEX
  5
38B
  8
0
 10
1.806235551834106
 20
138.2410736083984
 30
18.5
 70
   192
  0
VERTEX
  5
38C
  8
0
 10
7.0
 20
145.0
 30
18.5
 70
   192
  0
VERTEX
  5
38D
  8
0
 62
     9
 10
0.0
 20
0.0
 30
0.0
 70
   128
 71
     3
 72
     2
 73
     1
  0
VERTEX
  5
38E
  8
0
 62
     9
 10
0.0
 20
0.0
 30
0.0
 70
   128
 71
     3
 72
     1
 73
     4
  0
VERTEX
  5
38F
  8
0
 62
     9
 10
0.0
 20
0.0
 30
0.0
 70
   128
 71
     2
 72
     3
 73
     5
  0
VERTEX
  5
390
  8
0
 62
     9
 10
0.0
 20
0.0
 30
0.0
 70
   128
 71
     7
 72
     6
 73
     1
  0
VERTEX
  5
391
  8
0
 62
     9
 10
0.0
 20
0.0
 30
0.0
 70
   128
 71
     4
 72
     1
 73
     6
  0
VERTEX
  5
392
  8
0
 62
     9
 10
0.0
 20
0.0
 30
0.0
 70
   128
 71
    10
 72
     9
 73
     8
  0
VERTEX
  5
393
  8
0
 62
     9
 10
0.0
 20
0.0
 30
0.0
 70
   128
 71
    12
 72
    11
 73
     9
  0
VERTEX
  5
394
  8
0
 62
     9
 10
0.0
 20
0.0
 30
0.0
 70
   128
 71
     8
 72
     9
 73
    11
  0
VERTEX
  5
395
  8
0
 62
     9
 10
0.0
 20
0.0
 30
0.0
 70
   128
 71
    10
 72
     8
 73
    13
  0
VERTEX
  5
396
  8
0
 62
     9
 10
0.0
 20
0.0
 30
0.0
 70
   128
 71
     6
 72
     7
 73
    12
  0
VERTEX
  5
397
  8
0
 62
     9
 10
0.0
 20
0.0
 30
0.0
 70
   128
 71
    12
 72
     7
 73
    11
  0
VERTEX
  5
398
  8
0
 62
     9
 10
0.0
 20
0.0
 30
0.0
 70
   128
 71
     2
 72
     5
 73
    14
  0
VERTEX
  5
399
  8
0
 62
     9
 10
0.0
 20
0.0
 30
0.0
 70
   128
 71
    14
 72
     5
 73
    15
  0
VERTEX
  5
39A
  8
0
 62
     9
 10
0.0
 20
0.0
 30
0.0
 70
   128
 71
    17
 72
    16
 73
    15
  0
VERTEX
  5
39B
  8
0
 62
     9
 10
0.0
 20
0.0
 30
0.0
 70
   128
 71
    15
 72
     5
 73
    17
  0
VERTEX
  5
39C
  8
0
 62
     9
 10
0.0
 20
0.0
 30
0.0
 70
   128
 71
    16
 72
    19
 73
    18
  0
VERTEX
  5
39D
  8
0
 62
     9
 10
0.0
 20
0.0
 30
0.0
 70
   128
 71
    19
 72
    16
 73
    17
  0
VERTEX
  5
39E
  8
0
 62
     9
 10
0.0
 20
0.0
 30
0.0
 70
   128
 71
    21
 72
    18
 73
    20
  0
VERTEX
  5
39F
  8
0
 62
     9
 10
0.0
 20
0.0
 30
0.0
 70
   128
 71
    19
 72
    20
 73
    18
  0
VERTEX
  5
3A0
  8
0
 62
     9
 10
0.0
 20
0.0
 30
0.0
 70
   128
 71
    23
 72
    22
 73
    21
  0
VERTEX
  5
3A1
  8
0
 62
     9
 10
0.0
 20
0.0
 30
0.0
 70
   128
 71
    21
 72
    20
 73
    23
  0
VERTEX
  5
3A2
  8
0
 62
     9
 10
0.0
 20
0.0
 30
0.0
 70
   128
 71
    22
 72
    25
 73
    24
  0
VERTEX
  5
3A3
  8
0
 62
     9
 10
0.0
 20
0.0
 30
0.0
 70
   128
 71
    25
 72
    22
 73
    23
  0
VERTEX
  5
3A4
  8
0
 62
     9
 10
0.0
 20
0.0
 30
0.0
 70
   128
 71
    25
 72
    26
 73
    24
  0
VERTEX
  5
3A5
  8
0
 62
     9
 10
0.0
 20
0.0
 30
0.0
 70
   128
 71
    13
 72
    28
 73
    27
  0
VERTEX
  5
3A6
  8
0
 62
     9
 10
0.0
 20
0.0
 30
0.0
 70
   128
 71
    31
 72
    30
 73
    29
  0
VERTEX
  5
3A7
  8
0
 62
     9
 10
0.0
 20
0.0
 30
0.0
 70
   128
 71
    34
 72
    33
 73
    32
  0
VERTEX
  5
3A8
  8
0
 62
     9
 10
0.0
 20
0.0
 30
0.0
 70
   128
 71
    37
 72
    36
 73
    35
  0
VERTEX
  5
3A9
  8
0
 62
     9
 10
0.0
 20
0.0
 30
0.0
 70
   128
 71
    37
 72
    39
 73
    38
  0
VERTEX
  5
3AA
  8
0
 62
     9
 10
0.0
 20
0.0
 30
0.0
 70
   128
 71
    42
 72
    41
 73
    40
  0
VERTEX
  5
3AB
  8
0
 62
     9
 10
0.0
 20
0.0
 30
0.0
 70
   128
 71
    41
 72
    44
 73
    43
  0
VERTEX
  5
3AC
  8
0
 62
     9
 10
0.0
 20
0.0
 30
0.0
 70
   128
 71
    42
 72
    46
 73
    45
  0
VERTEX
  5
3AD
  8
0
 62
     9
 10
0.0
 20
0.0
 30
0.0
 70
   128
 71
    45
 72
    41
 73
    42
  0
VERTEX
  5
3AE
  8
0
 62
     9
 10
0.0
 20
0.0
 30
0.0
 70
   128
 71
    47
 72
    24
 73
    26
  0
VERTEX
  5
3AF
  8
0
 62
     9
 10
0.0
 20
0.0
 30
0.0
 70
   128
 71
    46
 72
    24
 73
    47
  0
VERTEX
  5
3B0
  8
0
 62
     9
 10
0.0
 20
0.0
 30
0.0
 70
   128
 71
    46
 72
    47
 73
    45
  0
VERTEX
  5
3B1
  8
0
 62
     9
 10
0.0
 20
0.0
 30
0.0
 70
   128
 71
    36
 72
    43
 73
    44
  0
VERTEX
  5
3B2
  8
0
 62
     9
 10
0.0
 20
0.0
 30
0.0
 70
   128
 71
    40
 72
    41
 73
    43
  0
VERTEX
  5
3B3
  8
0
 62
     9
 10
0.0
 20
0.0
 30
0.0
 70
   128
 71
    37
 72
    35
 73
    48
  0
VERTEX
  5
3B4
  8
0
 62
     9
 10
0.0
 20
0.0
 30
0.0
 70
   128
 71
    36
 72
    44
 73
    35
  0
VERTEX
  5
3B5
  8
0
 62
     9
 10
0.0
 20
0.0
 30
0.0
 70
   128
 71
    29
 72
    38
 73
    39
  0
VERTEX
  5
3B6
  8
0
 62
     9
 10
0.0
 20
0.0
 30
0.0
 70
   128
 71
    37
 72
    48
 73
    39
  0
VERTEX
  5
3B7
  8
0
 62
     9
 10
0.0
 20
0.0
 30
0.0
 70
   128
 71
    34
 72
    30
 73
    31
  0
VERTEX
  5
3B8
  8
0
 62
     9
 10
0.0
 20
0.0
 30
0.0
 70
   128
 71
    31
 72
    29
 73
    39
  0
VERTEX
  5
3B9
  8
0
 62
     9
 10
0.0
 20
0.0
 30
0.0
 70
   128
 71
    33
 72
    28
 73
    32
  0
VERTEX
  5
3BA
  8
0
 62
     9
 10
0.0
 20
0.0
 30
0.0
 70
   128
 71
    34
 72
    32
 73
    30
  0
VERTEX
  5
3BB
  8
0
 62
     9
 10
0.0
 20
0.0
 30
0.0
 70
   128
 71
    27
 72
    10
 73
    13
  0
VERTEX
  5
3BC
  8
0
 62
     9
 10
0.0
 20
0.0
 30
0.0
 70
   128
 71
    33
 72
    27
 73
    28
  0
VERTEX
  5
3BD
  8
0
 62
     9
 10
0.0
 20
0.0
 30
0.0
 70
   128
 71
    14
 72
    15
 73
     2
  0
VERTEX
  5
3BE
  8
0
 62
     9
 10
0.0
 20
0.0
 30
0.0
 70
   128
 71
    13
 72
    24
 73
    46
  0
VERTEX
  5
3BF
  8
0
 62
     9
 10
0.0
 20
0.0
 30
0.0
 70
   128
 71
     2
 72
    16
 73
     1
  0
VERTEX
  5
3C0
  8
0
 62
     9
 10
0.0
 20
0.0
 30
0.0
 70
   128
 71
    16
 72
     2
 73
    15
  0
VERTEX
  5
3C1
  8
0
 62
     9
 10
0.0
 20
0.0
 30
0.0
 70
   128
 71
     7
 72
     1
 73
    18
  0
VERTEX
  5
3C2
  8
0
 62
     9
 10
0.0
 20
0.0
 30
0.0
 70
   128
 71
    16
 72
    18
 73
     1
  0
VERTEX
  5
3C3
  8
0
 62
     9
 10
0.0
 20
0.0
 30
0.0
 70
   128
 71
    11
 72
     7
 73
    21
  0
VERTEX
  5
3C4
  8
0
 62
     9
 10
0.0
 20
0.0
 30
0.0
 70
   128
 71
    18
 72
    21
 73
     7
  0
VERTEX
  5
3C5
  8
0
 62
     9
 10
0.0
 20
0.0
 30
0.0
 70
   128
 71
    22
 72
     8
 73
    11
  0
VERTEX
  5
3C6
  8
0
 62
     9
 10
0.0
 20
0.0
 30
0.0
 70
   128
 71
    11
 72
    21
 73
    22
  0
VERTEX
  5
3C7
  8
0
 62
     9
 10
0.0
 20
0.0
 30
0.0
 70
   128
 71
    24
 72
     8
 73
    22
  0
VERTEX
  5
3C8
  8
0
 62
     9
 10
0.0
 20
0.0
 30
0.0
 70
   128
 71
    24
 72
    13
 73
     8
  0
VERTEX
  5
3C9
  8
0
 62
     9
 10
0.0
 20
0.0
 30
0.0
 70
   128
 71
    30
 72
    40
 73
    43
  0
VERTEX
  5
3CA
  8
0
 62
     9
 10
0.0
 20
0.0
 30
0.0
 70
   128
 71
    32
 72
    28
 73
    42
  0
VERTEX
  5
3CB
  8
0
 62
     9
 10
0.0
 20
0.0
 30
0.0
 70
   128
 71
    37
 72
    38
 73
    36
  0
VERTEX
  5
3CC
  8
0
 62
     9
 10
0.0
 20
0.0
 30
0.0
 70
   128
 71
    36
 72
    38
 73
    29
  0
VERTEX
  5
3CD
  8
0
 62
     9
 10
0.0
 20
0.0
 30
0.0
 70
   128
 71
    43
 72
    36
 73
    29
  0
VERTEX
  5
3CE
  8
0
 62
     9
 10
0.0
 20
0.0
 30
0.0
 70
   128
 71
    40
 72
    30
 73
    32
  0
VERTEX
  5
3CF
  8
0
 62
     9
 10
0.0
 20
0.0
 30
0.0
 70
   128
 71
    43
 72
    29
 73
    30
  0
VERTEX
  5
3D0
  8
0
 62
     9
 10
0.0
 20
0.0
 30
0.0
 70
   128
 71
    46
 72
    42
 73
    28
  0
VERTEX
  5
3D1
  8
0
 62
     9
 10
0.0
 20
0.0
 30
0.0
 70
   128
 71
    42
 72
    40
 73
    32
  0
VERTEX
  5
3D2
  8
0
 62
     9
 10
0.0
 20
0.0
 30
0.0
 70
   128
 71
    28
 72
    13
 73
    46
  0
SEQEND
  5
3D3
  8
0
 62
     9
  0
ENDBLK
  5
3D6
  8
0
  0
BLOCK
  8
0
  2
44
 70
     0
 10
0.0
 20
0.0
 30
0.0
  3
44
  1

  0
POLYLINE
  5
3D8
  8
0
 62
     9
 66
     1
 10
0.0
 20
0.0
 30
0.0
 70
    64
 71
    48
 72
    70
  0
VERTEX
  5
3D9
  8
0
 10
-6.062314987182617
 20
-141.7008819580078
 30
24.00284385681152
 70
   192
  0
VERTEX
  5
3DA
  8
0
 10
-6.76176643371582
 20
-143.3901672363281
 30
24.0025577545166
 70
   192
  0
VERTEX
  5
3DB
  8
0
 10
-6.757226943969727
 20
-143.3834228515625
 30
18.5
 70
   192
  0
VERTEX
  5
3DC
  8
0
 10
-6.05434513092041
 20
-141.6975250244141
 30
18.5
 70
   192
  0
VERTEX
  5
3DD
  8
0
 10
-7.0
 20
-145.1999969482422
 30
18.5
 70
   192
  0
VERTEX
  5
3DE
  8
0
 10
-4.943592548370361
 20
-140.2517852783203
 30
18.5
 70
   192
  0
VERTEX
  5
3DF
  8
0
 10
-4.95552396774292
 20
-140.2560424804688
 30
24.0015869140625
 70
   192
  0
VERTEX
  5
3E0
  8
0
 10
-1.814877390861511
 20
-138.4395141601562
 30
23.98077392578125
 70
   192
  0
VERTEX
  5
3E1
  8
0
 10
-1.806235551834106
 20
-138.4410705566406
 30
18.5
 70
   192
  0
VERTEX
  5
3E2
  8
0
 10
-0.0000000000039651
 20
-138.1999969482422
 30
18.5
 70
   192
  0
VERTEX
  5
3E3
  8
0
 10
-3.503644227981567
 20
-139.1399078369141
 30
23.99592590332031
 70
   192
  0
VERTEX
  5
3E4
  8
0
 10
-3.492393493652344
 20
-139.1390838623047
 30
18.5
 70
   192
  0
VERTEX
  5
3E5
  8
0
 10
-0.0000000000051309
 20
-138.1999969482422
 30
23.95123672485352
 70
   192
  0
VERTEX
  5
3E6
  8
0
 10
-6.999999523162842
 20
-145.2023162841797
 30
24.00230026245117
 70
   192
  0
VERTEX
  5
3E7
  8
0
 10
-6.761196136474609
 20
-147.0131378173828
 30
24.00251388549805
 70
   192
  0
VERTEX
  5
3E8
  8
0
 10
-6.062753677368164
 20
-148.6977844238281
 30
24.00274658203125
 70
   192
  0
VERTEX
  5
3E9
  8
0
 10
-6.761712551116943
 20
-147.0091094970703
 30
18.5
 70
   192
  0
VERTEX
  5
3EA
  8
0
 10
-4.950176239013672
 20
-150.1493225097656
 30
24.0015754699707
 70
   192
  0
VERTEX
  5
3EB
  8
0
 10
-6.065645694732666
 20
-148.69921875
 30
18.5
 70
   192
  0
VERTEX
  5
3EC
  8
0
 10
-4.950963973999023
 20
-150.1537170410156
 30
18.5
 70
   192
  0
VERTEX
  5
3ED
  8
0
 10
-3.502077102661133
 20
-151.2608184814453
 30
23.99563407897949
 70
   192
  0
VERTEX
  5
3EE
  8
0
 10
-1.816006064414978
 20
-151.9601898193359
 30
23.98050498962402
 70
   192
  0
VERTEX
  5
3EF
  8
0
 10
-3.50224494934082
 20
-151.2647552490234
 30
18.5
 70
   192
  0
VERTEX
  5
3F0
  8
0
 10
-0.0000000000051292
 20
-152.1999969482422
 30
23.95123672485352
 70
   192
  0
VERTEX
  5
3F1
  8
0
 10
-1.814658164978027
 20
-151.9643707275391
 30
18.5
 70
   192
  0
VERTEX
  5
3F2
  8
0
 10
-0.0000000000039634
 20
-152.1999969482422
 30
18.5
 70
   192
  0
VERTEX
  5
3F3
  8
0
 10
1.814658164978027
 20
-138.4356384277344
 30
18.5
 70
   192
  0
VERTEX
  5
3F4
  8
0
 10
1.820731997489929
 20
-138.4415130615234
 30
23.89374542236328
 70
   192
  0
VERTEX
  5
3F5
  8
0
 10
6.06071662902832
 20
-141.6971740722656
 30
23.22572135925293
 70
   192
  0
VERTEX
  5
3F6
  8
0
 10
4.950386047363281
 20
-140.2508850097656
 30
23.48505401611328
 70
   192
  0
VERTEX
  5
3F7
  8
0
 10
6.065645694732666
 20
-141.7007751464844
 30
18.5
 70
   192
  0
VERTEX
  5
3F8
  8
0
 10
3.510764837265015
 20
-139.1444549560547
 30
23.72990608215332
 70
   192
  0
VERTEX
  5
3F9
  8
0
 10
3.50224494934082
 20
-139.1352386474609
 30
18.5
 70
   192
  0
VERTEX
  5
3FA
  8
0
 10
4.950963973999023
 20
-140.2462921142578
 30
18.5
 70
   192
  0
VERTEX
  5
3FB
  8
0
 10
6.757226943969727
 20
-147.0165710449219
 30
18.5
 70
   192
  0
VERTEX
  5
3FC
  8
0
 10
6.757961750030518
 20
-147.0219268798828
 30
23.03559303283691
 70
   192
  0
VERTEX
  5
3FD
  8
0
 10
7.0
 20
-145.1985168457031
 30
22.96222686767578
 70
   192
  0
VERTEX
  5
3FE
  8
0
 10
6.760128974914551
 20
-143.3837738037109
 30
23.03335189819336
 70
   192
  0
VERTEX
  5
3FF
  8
0
 10
6.761712551116943
 20
-143.3908996582031
 30
18.5
 70
   192
  0
VERTEX
  5
400
  8
0
 10
4.949733257293701
 20
-150.1497650146484
 30
23.48518943786621
 70
   192
  0
VERTEX
  5
401
  8
0
 10
4.943592548370361
 20
-150.1482086181641
 30
18.5
 70
   192
  0
VERTEX
  5
402
  8
0
 10
3.50489616394043
 20
-151.2593536376953
 30
23.73276710510254
 70
   192
  0
VERTEX
  5
403
  8
0
 10
6.058107852935791
 20
-148.7069396972656
 30
23.22877311706543
 70
   192
  0
VERTEX
  5
404
  8
0
 10
6.05434513092041
 20
-148.7024688720703
 30
18.5
 70
   192
  0
VERTEX
  5
405
  8
0
 10
3.492393493652344
 20
-151.2609100341797
 30
18.5
 70
   192
  0
VERTEX
  5
406
  8
0
 10
1.814117550849915
 20
-151.9606170654297
 30
23.89291954040527
 70
   192
  0
VERTEX
  5
407
  8
0
 10
1.806235551834106
 20
-151.9589385986328
 30
18.5
 70
   192
  0
VERTEX
  5
408
  8
0
 10
7.0
 20
-145.1999969482422
 30
18.5
 70
   192
  0
VERTEX
  5
409
  8
0
 62
     9
 10
0.0
 20
0.0
 30
0.0
 70
   128
 71
     3
 72
     2
 73
     1
  0
VERTEX
  5
40A
  8
0
 62
     9
 10
0.0
 20
0.0
 30
0.0
 70
   128
 71
     3
 72
     1
 73
     4
  0
VERTEX
  5
40B
  8
0
 62
     9
 10
0.0
 20
0.0
 30
0.0
 70
   128
 71
     2
 72
     3
 73
     5
  0
VERTEX
  5
40C
  8
0
 62
     9
 10
0.0
 20
0.0
 30
0.0
 70
   128
 71
     7
 72
     6
 73
     1
  0
VERTEX
  5
40D
  8
0
 62
     9
 10
0.0
 20
0.0
 30
0.0
 70
   128
 71
     4
 72
     1
 73
     6
  0
VERTEX
  5
40E
  8
0
 62
     9
 10
0.0
 20
0.0
 30
0.0
 70
   128
 71
    10
 72
     9
 73
     8
  0
VERTEX
  5
40F
  8
0
 62
     9
 10
0.0
 20
0.0
 30
0.0
 70
   128
 71
    12
 72
    11
 73
     9
  0
VERTEX
  5
410
  8
0
 62
     9
 10
0.0
 20
0.0
 30
0.0
 70
   128
 71
     8
 72
     9
 73
    11
  0
VERTEX
  5
411
  8
0
 62
     9
 10
0.0
 20
0.0
 30
0.0
 70
   128
 71
    10
 72
     8
 73
    13
  0
VERTEX
  5
412
  8
0
 62
     9
 10
0.0
 20
0.0
 30
0.0
 70
   128
 71
     6
 72
     7
 73
    12
  0
VERTEX
  5
413
  8
0
 62
     9
 10
0.0
 20
0.0
 30
0.0
 70
   128
 71
    12
 72
     7
 73
    11
  0
VERTEX
  5
414
  8
0
 62
     9
 10
0.0
 20
0.0
 30
0.0
 70
   128
 71
     2
 72
     5
 73
    14
  0
VERTEX
  5
415
  8
0
 62
     9
 10
0.0
 20
0.0
 30
0.0
 70
   128
 71
    14
 72
     5
 73
    15
  0
VERTEX
  5
416
  8
0
 62
     9
 10
0.0
 20
0.0
 30
0.0
 70
   128
 71
    17
 72
    16
 73
    15
  0
VERTEX
  5
417
  8
0
 62
     9
 10
0.0
 20
0.0
 30
0.0
 70
   128
 71
    15
 72
     5
 73
    17
  0
VERTEX
  5
418
  8
0
 62
     9
 10
0.0
 20
0.0
 30
0.0
 70
   128
 71
    16
 72
    19
 73
    18
  0
VERTEX
  5
419
  8
0
 62
     9
 10
0.0
 20
0.0
 30
0.0
 70
   128
 71
    19
 72
    16
 73
    17
  0
VERTEX
  5
41A
  8
0
 62
     9
 10
0.0
 20
0.0
 30
0.0
 70
   128
 71
    21
 72
    18
 73
    20
  0
VERTEX
  5
41B
  8
0
 62
     9
 10
0.0
 20
0.0
 30
0.0
 70
   128
 71
    19
 72
    20
 73
    18
  0
VERTEX
  5
41C
  8
0
 62
     9
 10
0.0
 20
0.0
 30
0.0
 70
   128
 71
    23
 72
    22
 73
    21
  0
VERTEX
  5
41D
  8
0
 62
     9
 10
0.0
 20
0.0
 30
0.0
 70
   128
 71
    21
 72
    20
 73
    23
  0
VERTEX
  5
41E
  8
0
 62
     9
 10
0.0
 20
0.0
 30
0.0
 70
   128
 71
    22
 72
    25
 73
    24
  0
VERTEX
  5
41F
  8
0
 62
     9
 10
0.0
 20
0.0
 30
0.0
 70
   128
 71
    25
 72
    22
 73
    23
  0
VERTEX
  5
420
  8
0
 62
     9
 10
0.0
 20
0.0
 30
0.0
 70
   128
 71
    25
 72
    26
 73
    24
  0
VERTEX
  5
421
  8
0
 62
     9
 10
0.0
 20
0.0
 30
0.0
 70
   128
 71
    13
 72
    28
 73
    27
  0
VERTEX
  5
422
  8
0
 62
     9
 10
0.0
 20
0.0
 30
0.0
 70
   128
 71
    31
 72
    30
 73
    29
  0
VERTEX
  5
423
  8
0
 62
     9
 10
0.0
 20
0.0
 30
0.0
 70
   128
 71
    34
 72
    33
 73
    32
  0
VERTEX
  5
424
  8
0
 62
     9
 10
0.0
 20
0.0
 30
0.0
 70
   128
 71
    37
 72
    36
 73
    35
  0
VERTEX
  5
425
  8
0
 62
     9
 10
0.0
 20
0.0
 30
0.0
 70
   128
 71
    37
 72
    39
 73
    38
  0
VERTEX
  5
426
  8
0
 62
     9
 10
0.0
 20
0.0
 30
0.0
 70
   128
 71
    42
 72
    41
 73
    40
  0
VERTEX
  5
427
  8
0
 62
     9
 10
0.0
 20
0.0
 30
0.0
 70
   128
 71
    41
 72
    44
 73
    43
  0
VERTEX
  5
428
  8
0
 62
     9
 10
0.0
 20
0.0
 30
0.0
 70
   128
 71
    42
 72
    46
 73
    45
  0
VERTEX
  5
429
  8
0
 62
     9
 10
0.0
 20
0.0
 30
0.0
 70
   128
 71
    45
 72
    41
 73
    42
  0
VERTEX
  5
42A
  8
0
 62
     9
 10
0.0
 20
0.0
 30
0.0
 70
   128
 71
    47
 72
    24
 73
    26
  0
VERTEX
  5
42B
  8
0
 62
     9
 10
0.0
 20
0.0
 30
0.0
 70
   128
 71
    46
 72
    24
 73
    47
  0
VERTEX
  5
42C
  8
0
 62
     9
 10
0.0
 20
0.0
 30
0.0
 70
   128
 71
    46
 72
    47
 73
    45
  0
VERTEX
  5
42D
  8
0
 62
     9
 10
0.0
 20
0.0
 30
0.0
 70
   128
 71
    36
 72
    43
 73
    44
  0
VERTEX
  5
42E
  8
0
 62
     9
 10
0.0
 20
0.0
 30
0.0
 70
   128
 71
    40
 72
    41
 73
    43
  0
VERTEX
  5
42F
  8
0
 62
     9
 10
0.0
 20
0.0
 30
0.0
 70
   128
 71
    37
 72
    35
 73
    48
  0
VERTEX
  5
430
  8
0
 62
     9
 10
0.0
 20
0.0
 30
0.0
 70
   128
 71
    36
 72
    44
 73
    35
  0
VERTEX
  5
431
  8
0
 62
     9
 10
0.0
 20
0.0
 30
0.0
 70
   128
 71
    29
 72
    38
 73
    39
  0
VERTEX
  5
432
  8
0
 62
     9
 10
0.0
 20
0.0
 30
0.0
 70
   128
 71
    37
 72
    48
 73
    39
  0
VERTEX
  5
433
  8
0
 62
     9
 10
0.0
 20
0.0
 30
0.0
 70
   128
 71
    34
 72
    30
 73
    31
  0
VERTEX
  5
434
  8
0
 62
     9
 10
0.0
 20
0.0
 30
0.0
 70
   128
 71
    31
 72
    29
 73
    39
  0
VERTEX
  5
435
  8
0
 62
     9
 10
0.0
 20
0.0
 30
0.0
 70
   128
 71
    33
 72
    28
 73
    32
  0
VERTEX
  5
436
  8
0
 62
     9
 10
0.0
 20
0.0
 30
0.0
 70
   128
 71
    34
 72
    32
 73
    30
  0
VERTEX
  5
437
  8
0
 62
     9
 10
0.0
 20
0.0
 30
0.0
 70
   128
 71
    27
 72
    10
 73
    13
  0
VERTEX
  5
438
  8
0
 62
     9
 10
0.0
 20
0.0
 30
0.0
 70
   128
 71
    33
 72
    27
 73
    28
  0
VERTEX
  5
439
  8
0
 62
     9
 10
0.0
 20
0.0
 30
0.0
 70
   128
 71
    14
 72
    15
 73
     2
  0
VERTEX
  5
43A
  8
0
 62
     9
 10
0.0
 20
0.0
 30
0.0
 70
   128
 71
    13
 72
    24
 73
    46
  0
VERTEX
  5
43B
  8
0
 62
     9
 10
0.0
 20
0.0
 30
0.0
 70
   128
 71
     2
 72
    16
 73
     1
  0
VERTEX
  5
43C
  8
0
 62
     9
 10
0.0
 20
0.0
 30
0.0
 70
   128
 71
    16
 72
     2
 73
    15
  0
VERTEX
  5
43D
  8
0
 62
     9
 10
0.0
 20
0.0
 30
0.0
 70
   128
 71
     7
 72
     1
 73
    18
  0
VERTEX
  5
43E
  8
0
 62
     9
 10
0.0
 20
0.0
 30
0.0
 70
   128
 71
    16
 72
    18
 73
     1
  0
VERTEX
  5
43F
  8
0
 62
     9
 10
0.0
 20
0.0
 30
0.0
 70
   128
 71
    11
 72
     7
 73
    21
  0
VERTEX
  5
440
  8
0
 62
     9
 10
0.0
 20
0.0
 30
0.0
 70
   128
 71
    18
 72
    21
 73
     7
  0
VERTEX
  5
441
  8
0
 62
     9
 10
0.0
 20
0.0
 30
0.0
 70
   128
 71
    22
 72
     8
 73
    11
  0
VERTEX
  5
442
  8
0
 62
     9
 10
0.0
 20
0.0
 30
0.0
 70
   128
 71
    11
 72
    21
 73
    22
  0
VERTEX
  5
443
  8
0
 62
     9
 10
0.0
 20
0.0
 30
0.0
 70
   128
 71
    24
 72
     8
 73
    22
  0
VERTEX
  5
444
  8
0
 62
     9
 10
0.0
 20
0.0
 30
0.0
 70
   128
 71
    24
 72
    13
 73
     8
  0
VERTEX
  5
445
  8
0
 62
     9
 10
0.0
 20
0.0
 30
0.0
 70
   128
 71
    30
 72
    40
 73
    43
  0
VERTEX
  5
446
  8
0
 62
     9
 10
0.0
 20
0.0
 30
0.0
 70
   128
 71
    32
 72
    28
 73
    42
  0
VERTEX
  5
447
  8
0
 62
     9
 10
0.0
 20
0.0
 30
0.0
 70
   128
 71
    37
 72
    38
 73
    36
  0
VERTEX
  5
448
  8
0
 62
     9
 10
0.0
 20
0.0
 30
0.0
 70
   128
 71
    36
 72
    38
 73
    29
  0
VERTEX
  5
449
  8
0
 62
     9
 10
0.0
 20
0.0
 30
0.0
 70
   128
 71
    43
 72
    36
 73
    29
  0
VERTEX
  5
44A
  8
0
 62
     9
 10
0.0
 20
0.0
 30
0.0
 70
   128
 71
    40
 72
    30
 73
    32
  0
VERTEX
  5
44B
  8
0
 62
     9
 10
0.0
 20
0.0
 30
0.0
 70
   128
 71
    43
 72
    29
 73
    30
  0
VERTEX
  5
44C
  8
0
 62
     9
 10
0.0
 20
0.0
 30
0.0
 70
   128
 71
    46
 72
    42
 73
    28
  0
VERTEX
  5
44D
  8
0
 62
     9
 10
0.0
 20
0.0
 30
0.0
 70
   128
 71
    42
 72
    40
 73
    32
  0
VERTEX
  5
44E
  8
0
 62
     9
 10
0.0
 20
0.0
 30
0.0
 70
   128
 71
    28
 72
    13
 73
    46
  0
SEQEND
  5
44F
  8
0
 62
     9
  0
ENDBLK
  5
452
  8
0
  0
BLOCK
  8
0
  2
403671038_GRIFF_THM-_TEMP0
 70
     0
 10
0.0
 20
0.0
 30
0.0
  3
403671038_GRIFF_THM-_TEMP0
  1

  0
POLYLINE
  5
454
  8
0
 62
     9
 66
     1
 10
0.0
 20
0.0
 30
0.0
 70
    64
 71
   117
 72
   230
  0
VERTEX
  5
455
  8
0
 10
23.91333770751953
 20
-131.6999969482422
 30
1.979230761528015
 70
   192
  0
VERTEX
  5
456
  8
0
 10
23.45303535461426
 20
-158.6999969482422
 30
-5.069739818572998
 70
   192
  0
VERTEX
  5
457
  8
0
 10
23.46251678466797
 20
-131.6999969482422
 30
-5.021413803100586
 70
   192
  0
VERTEX
  5
458
  8
0
 10
20.98677253723145
 20
-158.6999969482422
 30
-11.63363647460938
 70
   192
  0
VERTEX
  5
459
  8
0
 10
21.00463485717773
 20
-131.6999969482422
 30
-11.5966682434082
 70
   192
  0
VERTEX
  5
45A
  8
0
 10
16.72978591918945
 20
-158.6999969482422
 30
-17.20278549194336
 70
   192
  0
VERTEX
  5
45B
  8
0
 10
16.74579811096191
 20
-131.6999969482422
 30
-17.18405532836914
 70
   192
  0
VERTEX
  5
45C
  8
0
 10
11.04583549499512
 20
-158.6999969482422
 30
-21.30344581604004
 70
   192
  0
VERTEX
  5
45D
  8
0
 10
11.04583549499512
 20
-131.6999969482422
 30
-21.30344581604004
 70
   192
  0
VERTEX
  5
45E
  8
0
 10
23.91645050048828
 20
-158.6999969482422
 30
1.930118441581726
 70
   192
  0
VERTEX
  5
45F
  8
0
 10
22.3216438293457
 20
-131.6999969482422
 30
8.80808162689209
 70
   192
  0
VERTEX
  5
460
  8
0
 10
22.33450889587402
 20
-158.6999969482422
 30
8.769206047058105
 70
   192
  0
VERTEX
  5
461
  8
0
 10
18.83841705322266
 20
-158.6999969482422
 30
14.86300945281982
 70
   192
  0
VERTEX
  5
462
  8
0
 10
18.82509231567383
 20
-131.6999969482422
 30
14.88352108001709
 70
   192
  0
VERTEX
  5
463
  8
0
 10
13.72273063659668
 20
-131.6999969482422
 30
19.68852996826172
 70
   192
  0
VERTEX
  5
464
  8
0
 10
13.72252082824707
 20
-158.6999969482422
 30
19.68867683410645
 70
   192
  0
VERTEX
  5
465
  8
0
 10
6.374274253845215
 20
-141.5448608398438
 30
18.23964691162109
 70
   192
  0
VERTEX
  5
466
  8
0
 10
6.510123252868652
 20
-141.7855224609375
 30
22.26386260986328
 70
   192
  0
VERTEX
  5
467
  8
0
 10
4.012590885162354
 20
-139.0450439453125
 30
22.84682846069336
 70
   192
  0
VERTEX
  5
468
  8
0
 10
7.349999904632568
 20
-145.1999969482422
 30
18.23964691162109
 70
   192
  0
VERTEX
  5
469
  8
0
 10
7.339098453521729
 20
-145.45166015625
 30
22.02405166625977
 70
   192
  0
VERTEX
  5
46A
  8
0
 10
6.347328662872314
 20
-148.8954772949219
 30
18.23964691162109
 70
   192
  0
VERTEX
  5
46B
  8
0
 10
3.695473432540894
 20
-138.8526763916016
 30
18.23964691162109
 70
   192
  0
VERTEX
  5
46C
  8
0
 10
0.4624267816543579
 20
-137.8696746826172
 30
23.16070365905762
 70
   192
  0
VERTEX
  5
46D
  8
0
 10
-0.000000000004457
 20
-137.8500061035156
 30
18.23964691162109
 70
   192
  0
VERTEX
  5
46E
  8
0
 10
-0.0000000000055101
 20
-137.8500061035156
 30
23.16320419311523
 70
   192
  0
VERTEX
  5
46F
  8
0
 10
6.268443584442139
 20
-149.0293273925781
 30
22.3636302947998
 70
   192
  0
VERTEX
  5
470
  8
0
 10
3.655134201049805
 20
-151.5742797851562
 30
18.23964691162109
 70
   192
  0
VERTEX
  5
471
  8
0
 10
3.603637456893921
 20
-151.6051177978516
 30
22.93634796142578
 70
   192
  0
VERTEX
  5
472
  8
0
 10
0.0000000000109458
 20
-152.5500030517578
 30
23.18642616271973
 70
   192
  0
VERTEX
  5
473
  8
0
 10
-0.0000000000039248
 20
-152.5500030517578
 30
18.23964691162109
 70
   192
  0
VERTEX
  5
474
  8
0
 10
-6.367984294891357
 20
-141.5447998046875
 30
18.23964691162109
 70
   192
  0
VERTEX
  5
475
  8
0
 10
-3.711712121963501
 20
-138.8270568847656
 30
18.23964691162109
 70
   192
  0
VERTEX
  5
476
  8
0
 10
-7.349999904632568
 20
-145.1999969482422
 30
18.23964691162109
 70
   192
  0
VERTEX
  5
477
  8
0
 10
-3.624374389648438
 20
-151.5547485351562
 30
18.23964691162109
 70
   192
  0
VERTEX
  5
478
  8
0
 10
-6.314254760742188
 20
-148.8957366943359
 30
18.23964691162109
 70
   192
  0
VERTEX
  5
479
  8
0
 10
-2.591379165649414
 20
-138.3219757080078
 30
23.05653953552246
 70
   192
  0
VERTEX
  5
47A
  8
0
 10
-4.856330394744873
 20
-139.6828918457031
 30
23.01748275756836
 70
   192
  0
VERTEX
  5
47B
  8
0
 10
-2.604398012161255
 20
-152.0731048583984
 30
23.0620288848877
 70
   192
  0
VERTEX
  5
47C
  8
0
 10
-4.880491733551025
 20
-150.6957550048828
 30
23.01229667663574
 70
   192
  0
VERTEX
  5
47D
  8
0
 10
-7.349982261657715
 20
-145.1838836669922
 30
23.01750755310059
 70
   192
  0
VERTEX
  5
47E
  8
0
 10
-40.00056076049805
 20
-131.6999969482422
 30
24.01358032226562
 70
   192
  0
VERTEX
  5
47F
  8
0
 10
-40.00056076049805
 20
-158.6999969482422
 30
18.87088966369629
 70
   192
  0
VERTEX
  5
480
  8
0
 10
-40.00056076049805
 20
-158.6999969482422
 30
24.01358032226562
 70
   192
  0
VERTEX
  5
481
  8
0
 10
-40.00056076049805
 20
-131.6999969482422
 30
18.87088966369629
 70
   192
  0
VERTEX
  5
482
  8
0
 10
-32.0
 20
-158.6999969482422
 30
24.01351547241211
 70
   192
  0
VERTEX
  5
483
  8
0
 10
-32.0
 20
-131.6999969482422
 30
24.01351547241211
 70
   192
  0
VERTEX
  5
484
  8
0
 10
-23.96650123596191
 20
-131.6999969482422
 30
3.353527069091797
 70
   192
  0
VERTEX
  5
485
  8
0
 10
-24.00082397460938
 20
-158.6999969482422
 30
0.1266850233078003
 70
   192
  0
VERTEX
  5
486
  8
0
 10
-23.96650123596191
 20
-158.6999969482422
 30
3.353527069091797
 70
   192
  0
VERTEX
  5
487
  8
0
 10
-24.00082397460938
 20
-131.6999969482422
 30
0.1266850233078003
 70
   192
  0
VERTEX
  5
488
  8
0
 10
-24.17845153808594
 20
-158.6999969482422
 30
8.200395584106445
 70
   192
  0
VERTEX
  5
489
  8
0
 10
-24.20125770568848
 20
-131.6999969482422
 30
8.170028686523438
 70
   192
  0
VERTEX
  5
48A
  8
0
 10
-29.81129264831543
 20
-158.6999969482422
 30
15.70938301086426
 70
   192
  0
VERTEX
  5
48B
  8
0
 10
-34.30111694335938
 20
-131.6999969482422
 30
17.47344589233398
 70
   192
  0
VERTEX
  5
48C
  8
0
 10
-29.76509857177734
 20
-131.6999969482422
 30
15.74889850616455
 70
   192
  0
VERTEX
  5
48D
  8
0
 10
-26.15894317626953
 20
-158.6999969482422
 30
12.58646011352539
 70
   192
  0
VERTEX
  5
48E
  8
0
 10
-26.15053176879883
 20
-131.6999969482422
 30
12.57481288909912
 70
   192
  0
VERTEX
  5
48F
  8
0
 10
-34.30753326416016
 20
-158.6999969482422
 30
17.44919586181641
 70
   192
  0
VERTEX
  5
490
  8
0
 10
-39.00295639038086
 20
-158.6999969482422
 30
18.63447380065918
 70
   192
  0
VERTEX
  5
491
  8
0
 10
-39.00295639038086
 20
-131.6999969482422
 30
18.63447380065918
 70
   192
  0
VERTEX
  5
492
  8
0
 10
4.394787311553955
 20
-158.6999969482422
 30
-23.58884048461914
 70
   192
  0
VERTEX
  5
493
  8
0
 10
-15.35935974121094
 20
-131.6999969482422
 30
-18.43692779541016
 70
   192
  0
VERTEX
  5
494
  8
0
 10
-9.371101379394531
 20
-131.6999969482422
 30
-22.09117698669434
 70
   192
  0
VERTEX
  5
495
  8
0
 10
-15.39782047271729
 20
-158.6999969482422
 30
-18.40599250793457
 70
   192
  0
VERTEX
  5
496
  8
0
 10
-2.625797986984253
 20
-158.6999969482422
 30
-23.85052871704102
 70
   192
  0
VERTEX
  5
497
  8
0
 10
-2.585216999053955
 20
-131.6999969482422
 30
-23.85723686218262
 70
   192
  0
VERTEX
  5
498
  8
0
 10
-23.01332473754883
 20
-158.6999969482422
 30
-6.812159061431885
 70
   192
  0
VERTEX
  5
499
  8
0
 10
-23.00417518615723
 20
-131.6999969482422
 30
-6.835079193115234
 70
   192
  0
VERTEX
  5
49A
  8
0
 10
-20.06223106384277
 20
-158.6999969482422
 30
-13.17049217224121
 70
   192
  0
VERTEX
  5
49B
  8
0
 10
-20.03776741027832
 20
-131.6999969482422
 30
-13.20355796813965
 70
   192
  0
VERTEX
  5
49C
  8
0
 10
-9.41616439819336
 20
-158.6999969482422
 30
-22.0710391998291
 70
   192
  0
VERTEX
  5
49D
  8
0
 10
4.419358730316162
 20
-131.6999969482422
 30
-23.58653831481934
 70
   192
  0
VERTEX
  5
49E
  8
0
 10
5.248682975769043
 20
-158.6999969482422
 30
23.41039848327637
 70
   192
  0
VERTEX
  5
49F
  8
0
 10
-4.057862281799316
 20
-158.6999969482422
 30
23.92107963562012
 70
   192
  0
VERTEX
  5
4A0
  8
0
 10
-13.37147617340088
 20
-158.6999969482422
 30
24.00168991088867
 70
   192
  0
VERTEX
  5
4A1
  8
0
 10
-22.68573760986328
 20
-158.6999969482422
 30
24.00763511657715
 70
   192
  0
VERTEX
  5
4A2
  8
0
 10
-3.956336736679077
 20
-131.6999969482422
 30
24.39101219177246
 70
   192
  0
VERTEX
  5
4A3
  8
0
 10
5.153954982757568
 20
-131.6999969482422
 30
23.29449081420898
 70
   192
  0
VERTEX
  5
4A4
  8
0
 10
-22.68568229675293
 20
-131.6999969482422
 30
24.00764083862305
 70
   192
  0
VERTEX
  5
4A5
  8
0
 10
-13.37116718292236
 20
-131.6999969482422
 30
24.02420616149902
 70
   192
  0
VERTEX
  5
4A6
  8
0
 10
-17.087890625
 20
-136.9642333984375
 30
23.99488830566406
 70
   192
  0
VERTEX
  5
4A7
  8
0
 10
-22.81406402587891
 20
-137.7336273193359
 30
24.00938606262207
 70
   192
  0
VERTEX
  5
4A8
  8
0
 10
-22.58059883117676
 20
-138.5021209716797
 30
23.15825462341309
 70
   192
  0
VERTEX
  5
4A9
  8
0
 10
0.6030110120773315
 20
-136.7206573486328
 30
23.93782234191895
 70
   192
  0
VERTEX
  5
4AA
  8
0
 10
-5.342820167541504
 20
-138.0502777099609
 30
23.1381664276123
 70
   192
  0
VERTEX
  5
4AB
  8
0
 10
-5.29395580291748
 20
-136.8018493652344
 30
23.95684432983398
 70
   192
  0
VERTEX
  5
4AC
  8
0
 10
-11.25620555877686
 20
-138.0546722412109
 30
23.14446830749512
 70
   192
  0
VERTEX
  5
4AD
  8
0
 10
-11.19092273712158
 20
-136.8830413818359
 30
23.97586631774902
 70
   192
  0
VERTEX
  5
4AE
  8
0
 10
-17.23442268371582
 20
-138.0013427734375
 30
23.15248680114746
 70
   192
  0
VERTEX
  5
4AF
  8
0
 10
-26.27443313598633
 20
-141.7030792236328
 30
23.1591911315918
 70
   192
  0
VERTEX
  5
4B0
  8
0
 10
-27.44815254211426
 20
-141.0277252197266
 30
24.01358413696289
 70
   192
  0
VERTEX
  5
4B1
  8
0
 10
-27.08703994750977
 20
-146.4507446289062
 30
23.15934371948242
 70
   192
  0
VERTEX
  5
4B2
  8
0
 10
-20.06481742858887
 20
-150.6885528564453
 30
23.02818870544434
 70
   192
  0
VERTEX
  5
4B3
  8
0
 10
-23.93712425231934
 20
-149.0913696289062
 30
23.03020477294922
 70
   192
  0
VERTEX
  5
4B4
  8
0
 10
-24.59757995605469
 20
-150.6919708251953
 30
23.15910339355469
 70
   192
  0
VERTEX
  5
4B5
  8
0
 10
-28.4100399017334
 20
-146.7297973632812
 30
24.01374053955078
 70
   192
  0
VERTEX
  5
4B6
  8
0
 10
-25.3670482635498
 20
-151.4961853027344
 30
24.01325225830078
 70
   192
  0
VERTEX
  5
4B7
  8
0
 10
-20.09610748291016
 20
-153.6865844726562
 30
24.01064109802246
 70
   192
  0
VERTEX
  5
4B8
  8
0
 10
-20.06888961791992
 20
-152.3174438476562
 30
23.15561676025391
 70
   192
  0
VERTEX
  5
4B9
  8
0
 10
-25.55997085571289
 20
-145.1961517333984
 30
23.03024482727051
 70
   192
  0
VERTEX
  5
4BA
  8
0
 10
-23.96030044555664
 20
-141.3140258789062
 30
23.0300464630127
 70
   192
  0
VERTEX
  5
4BB
  8
0
 10
-20.06481170654297
 20
-139.7037963867188
 30
23.02850151062012
 70
   192
  0
VERTEX
  5
4BC
  8
0
 10
-14.99531745910645
 20
-139.6968231201172
 30
23.01406288146973
 70
   192
  0
VERTEX
  5
4BD
  8
0
 10
-9.925824165344238
 20
-139.6898498535156
 30
23.01577186584473
 70
   192
  0
VERTEX
  5
4BE
  8
0
 10
8.255688667297363
 20
-144.0508270263672
 30
22.54030799865723
 70
   192
  0
VERTEX
  5
4BF
  8
0
 10
5.538060188293457
 20
-139.2471771240234
 30
23.30066680908203
 70
   192
  0
VERTEX
  5
4C0
  8
0
 10
2.817327499389648
 20
-153.1522216796875
 30
23.81403160095215
 70
   192
  0
VERTEX
  5
4C1
  8
0
 10
7.126173496246338
 20
-149.527587890625
 30
22.8965950012207
 70
   192
  0
VERTEX
  5
4C2
  8
0
 10
-2.874002695083618
 20
-153.6883239746094
 30
23.97887802124023
 70
   192
  0
VERTEX
  5
4C3
  8
0
 10
-8.614470481872559
 20
-153.6773071289062
 30
23.99895668029785
 70
   192
  0
VERTEX
  5
4C4
  8
0
 10
-14.28448963165283
 20
-152.3357543945312
 30
23.1473388671875
 70
   192
  0
VERTEX
  5
4C5
  8
0
 10
-14.3552885055542
 20
-153.6819458007812
 30
24.00479888916016
 70
   192
  0
VERTEX
  5
4C6
  8
0
 10
-8.482044219970703
 20
-152.3267059326172
 30
23.15135955810547
 70
   192
  0
VERTEX
  5
4C7
  8
0
 10
-9.941923141479492
 20
-150.693359375
 30
23.01750183105469
 70
   192
  0
VERTEX
  5
4C8
  8
0
 10
-15.00336742401123
 20
-150.6909637451172
 30
23.01579284667969
 70
   192
  0
VERTEX
  5
4C9
  8
0
 10
-20.06480979919434
 20
-145.1961822509766
 30
23.01321792602539
 70
   192
  0
VERTEX
  5
4CA
  8
0
 62
     9
 10
0.0
 20
0.0
 30
0.0
 70
   128
 71
     3
 72
     2
 73
     1
  0
VERTEX
  5
4CB
  8
0
 62
     9
 10
0.0
 20
0.0
 30
0.0
 70
   128
 71
     2
 72
     5
 73
     4
  0
VERTEX
  5
4CC
  8
0
 62
     9
 10
0.0
 20
0.0
 30
0.0
 70
   128
 71
     5
 72
     2
 73
     3
  0
VERTEX
  5
4CD
  8
0
 62
     9
 10
0.0
 20
0.0
 30
0.0
 70
   128
 71
     7
 72
     6
 73
     4
  0
VERTEX
  5
4CE
  8
0
 62
     9
 10
0.0
 20
0.0
 30
0.0
 70
   128
 71
     4
 72
     5
 73
     7
  0
VERTEX
  5
4CF
  8
0
 62
     9
 10
0.0
 20
0.0
 30
0.0
 70
   128
 71
     6
 72
     7
 73
     8
  0
VERTEX
  5
4D0
  8
0
 62
     9
 10
0.0
 20
0.0
 30
0.0
 70
   128
 71
     7
 72
     9
 73
     8
  0
VERTEX
  5
4D1
  8
0
 62
     9
 10
0.0
 20
0.0
 30
0.0
 70
   128
 71
    10
 72
     1
 73
     2
  0
VERTEX
  5
4D2
  8
0
 62
     9
 10
0.0
 20
0.0
 30
0.0
 70
   128
 71
    12
 72
    11
 73
     1
  0
VERTEX
  5
4D3
  8
0
 62
     9
 10
0.0
 20
0.0
 30
0.0
 70
   128
 71
     1
 72
    10
 73
    12
  0
VERTEX
  5
4D4
  8
0
 62
     9
 10
0.0
 20
0.0
 30
0.0
 70
   128
 71
    14
 72
    11
 73
    13
  0
VERTEX
  5
4D5
  8
0
 62
     9
 10
0.0
 20
0.0
 30
0.0
 70
   128
 71
    12
 72
    13
 73
    11
  0
VERTEX
  5
4D6
  8
0
 62
     9
 10
0.0
 20
0.0
 30
0.0
 70
   128
 71
    13
 72
    15
 73
    14
  0
VERTEX
  5
4D7
  8
0
 62
     9
 10
0.0
 20
0.0
 30
0.0
 70
   128
 71
    16
 72
    15
 73
    13
  0
VERTEX
  5
4D8
  8
0
 62
     9
 10
0.0
 20
0.0
 30
0.0
 70
   128
 71
    19
 72
    18
 73
    17
  0
VERTEX
  5
4D9
  8
0
 62
     9
 10
0.0
 20
0.0
 30
0.0
 70
   128
 71
    17
 72
    18
 73
    20
  0
VERTEX
  5
4DA
  8
0
 62
     9
 10
0.0
 20
0.0
 30
0.0
 70
   128
 71
    18
 72
    21
 73
    20
  0
VERTEX
  5
4DB
  8
0
 62
     9
 10
0.0
 20
0.0
 30
0.0
 70
   128
 71
    22
 72
    20
 73
    21
  0
VERTEX
  5
4DC
  8
0
 62
     9
 10
0.0
 20
0.0
 30
0.0
 70
   128
 71
    25
 72
    24
 73
    23
  0
VERTEX
  5
4DD
  8
0
 62
     9
 10
0.0
 20
0.0
 30
0.0
 70
   128
 71
    19
 72
    17
 73
    23
  0
VERTEX
  5
4DE
  8
0
 62
     9
 10
0.0
 20
0.0
 30
0.0
 70
   128
 71
    24
 72
    25
 73
    26
  0
VERTEX
  5
4DF
  8
0
 62
     9
 10
0.0
 20
0.0
 30
0.0
 70
   128
 71
    23
 72
    24
 73
    19
  0
VERTEX
  5
4E0
  8
0
 62
     9
 10
0.0
 20
0.0
 30
0.0
 70
   128
 71
    21
 72
    27
 73
    22
  0
VERTEX
  5
4E1
  8
0
 62
     9
 10
0.0
 20
0.0
 30
0.0
 70
   128
 71
    27
 72
    29
 73
    28
  0
VERTEX
  5
4E2
  8
0
 62
     9
 10
0.0
 20
0.0
 30
0.0
 70
   128
 71
    28
 72
    22
 73
    27
  0
VERTEX
  5
4E3
  8
0
 62
     9
 10
0.0
 20
0.0
 30
0.0
 70
   128
 71
    31
 72
    28
 73
    30
  0
VERTEX
  5
4E4
  8
0
 62
     9
 10
0.0
 20
0.0
 30
0.0
 70
   128
 71
    29
 72
    30
 73
    28
  0
VERTEX
  5
4E5
  8
0
 62
     9
 10
0.0
 20
0.0
 30
0.0
 70
   128
 71
    25
 72
    23
 73
    20
  0
VERTEX
  5
4E6
  8
0
 62
     9
 10
0.0
 20
0.0
 30
0.0
 70
   128
 71
    22
 72
    25
 73
    20
  0
VERTEX
  5
4E7
  8
0
 62
     9
 10
0.0
 20
0.0
 30
0.0
 70
   128
 71
    20
 72
    23
 73
    17
  0
VERTEX
  5
4E8
  8
0
 62
     9
 10
0.0
 20
0.0
 30
0.0
 70
   128
 71
    33
 72
    22
 73
    32
  0
VERTEX
  5
4E9
  8
0
 62
     9
 10
0.0
 20
0.0
 30
0.0
 70
   128
 71
    33
 72
    25
 73
    22
  0
VERTEX
  5
4EA
  8
0
 62
     9
 10
0.0
 20
0.0
 30
0.0
 70
   128
 71
    32
 72
    22
 73
    28
  0
VERTEX
  5
4EB
  8
0
 62
     9
 10
0.0
 20
0.0
 30
0.0
 70
   128
 71
    32
 72
    31
 73
    34
  0
VERTEX
  5
4EC
  8
0
 62
     9
 10
0.0
 20
0.0
 30
0.0
 70
   128
 71
    31
 72
    32
 73
    28
  0
VERTEX
  5
4ED
  8
0
 62
     9
 10
0.0
 20
0.0
 30
0.0
 70
   128
 71
    35
 72
    34
 73
    31
  0
VERTEX
  5
4EE
  8
0
 62
     9
 10
0.0
 20
0.0
 30
0.0
 70
   128
 71
    35
 72
    36
 73
    34
  0
VERTEX
  5
4EF
  8
0
 62
     9
 10
0.0
 20
0.0
 30
0.0
 70
   128
 71
    37
 72
    26
 73
    25
  0
VERTEX
  5
4F0
  8
0
 62
     9
 10
0.0
 20
0.0
 30
0.0
 70
   128
 71
    38
 72
    33
 73
    32
  0
VERTEX
  5
4F1
  8
0
 62
     9
 10
0.0
 20
0.0
 30
0.0
 70
   128
 71
    40
 72
    35
 73
    39
  0
VERTEX
  5
4F2
  8
0
 62
     9
 10
0.0
 20
0.0
 30
0.0
 70
   128
 71
    41
 72
    34
 73
    36
  0
VERTEX
  5
4F3
  8
0
 62
     9
 10
0.0
 20
0.0
 30
0.0
 70
   128
 71
    31
 72
    30
 73
    39
  0
VERTEX
  5
4F4
  8
0
 62
     9
 10
0.0
 20
0.0
 30
0.0
 70
   128
 71
    39
 72
    35
 73
    31
  0
VERTEX
  5
4F5
  8
0
 62
     9
 10
0.0
 20
0.0
 30
0.0
 70
   128
 71
    32
 72
    34
 73
    41
  0
VERTEX
  5
4F6
  8
0
 62
     9
 10
0.0
 20
0.0
 30
0.0
 70
   128
 71
    41
 72
    36
 73
    40
  0
VERTEX
  5
4F7
  8
0
 62
     9
 10
0.0
 20
0.0
 30
0.0
 70
   128
 71
    40
 72
    36
 73
    35
  0
VERTEX
  5
4F8
  8
0
 62
     9
 10
0.0
 20
0.0
 30
0.0
 70
   128
 71
    25
 72
    33
 73
    37
  0
VERTEX
  5
4F9
  8
0
 62
     9
 10
0.0
 20
0.0
 30
0.0
 70
   128
 71
    38
 72
    32
 73
    41
  0
VERTEX
  5
4FA
  8
0
 62
     9
 10
0.0
 20
0.0
 30
0.0
 70
   128
 71
    38
 72
    37
 73
    33
  0
VERTEX
  5
4FB
  8
0
 62
     9
 10
0.0
 20
0.0
 30
0.0
 70
   128
 71
    44
 72
    43
 73
    42
  0
VERTEX
  5
4FC
  8
0
 62
     9
 10
0.0
 20
0.0
 30
0.0
 70
   128
 71
    45
 72
    42
 73
    43
  0
VERTEX
  5
4FD
  8
0
 62
     9
 10
0.0
 20
0.0
 30
0.0
 70
   128
 71
    47
 72
    46
 73
    44
  0
VERTEX
  5
4FE
  8
0
 62
     9
 10
0.0
 20
0.0
 30
0.0
 70
   128
 71
    42
 72
    47
 73
    44
  0
VERTEX
  5
4FF
  8
0
 62
     9
 10
0.0
 20
0.0
 30
0.0
 70
   128
 71
    50
 72
    49
 73
    48
  0
VERTEX
  5
500
  8
0
 62
     9
 10
0.0
 20
0.0
 30
0.0
 70
   128
 71
    51
 72
    48
 73
    49
  0
VERTEX
  5
501
  8
0
 62
     9
 10
0.0
 20
0.0
 30
0.0
 70
   128
 71
    53
 72
    52
 73
    50
  0
VERTEX
  5
502
  8
0
 62
     9
 10
0.0
 20
0.0
 30
0.0
 70
   128
 71
    56
 72
    55
 73
    54
  0
VERTEX
  5
503
  8
0
 62
     9
 10
0.0
 20
0.0
 30
0.0
 70
   128
 71
    52
 72
    58
 73
    57
  0
VERTEX
  5
504
  8
0
 62
     9
 10
0.0
 20
0.0
 30
0.0
 70
   128
 71
    61
 72
    60
 73
    59
  0
VERTEX
  5
505
  8
0
 62
     9
 10
0.0
 20
0.0
 30
0.0
 70
   128
 71
    59
 72
    55
 73
    61
  0
VERTEX
  5
506
  8
0
 62
     9
 10
0.0
 20
0.0
 30
0.0
 70
   128
 71
    55
 72
    59
 73
    54
  0
VERTEX
  5
507
  8
0
 62
     9
 10
0.0
 20
0.0
 30
0.0
 70
   128
 71
    54
 72
    57
 73
    56
  0
VERTEX
  5
508
  8
0
 62
     9
 10
0.0
 20
0.0
 30
0.0
 70
   128
 71
    58
 72
    56
 73
    57
  0
VERTEX
  5
509
  8
0
 62
     9
 10
0.0
 20
0.0
 30
0.0
 70
   128
 71
    48
 72
    53
 73
    50
  0
VERTEX
  5
50A
  8
0
 62
     9
 10
0.0
 20
0.0
 30
0.0
 70
   128
 71
    53
 72
    58
 73
    52
  0
VERTEX
  5
50B
  8
0
 62
     9
 10
0.0
 20
0.0
 30
0.0
 70
   128
 71
    45
 72
    43
 73
    60
  0
VERTEX
  5
50C
  8
0
 62
     9
 10
0.0
 20
0.0
 30
0.0
 70
   128
 71
    61
 72
    45
 73
    60
  0
VERTEX
  5
50D
  8
0
 62
     9
 10
0.0
 20
0.0
 30
0.0
 70
   128
 71
     8
 72
     9
 73
    62
  0
VERTEX
  5
50E
  8
0
 62
     9
 10
0.0
 20
0.0
 30
0.0
 70
   128
 71
    65
 72
    64
 73
    63
  0
VERTEX
  5
50F
  8
0
 62
     9
 10
0.0
 20
0.0
 30
0.0
 70
   128
 71
    67
 72
    64
 73
    66
  0
VERTEX
  5
510
  8
0
 62
     9
 10
0.0
 20
0.0
 30
0.0
 70
   128
 71
    70
 72
    69
 73
    68
  0
VERTEX
  5
511
  8
0
 62
     9
 10
0.0
 20
0.0
 30
0.0
 70
   128
 71
    70
 72
    65
 73
    71
  0
VERTEX
  5
512
  8
0
 62
     9
 10
0.0
 20
0.0
 30
0.0
 70
   128
 71
    69
 72
    51
 73
    49
  0
VERTEX
  5
513
  8
0
 62
     9
 10
0.0
 20
0.0
 30
0.0
 70
   128
 71
    49
 72
    68
 73
    69
  0
VERTEX
  5
514
  8
0
 62
     9
 10
0.0
 20
0.0
 30
0.0
 70
   128
 71
    71
 72
    65
 73
    63
  0
VERTEX
  5
515
  8
0
 62
     9
 10
0.0
 20
0.0
 30
0.0
 70
   128
 71
    70
 72
    71
 73
    69
  0
VERTEX
  5
516
  8
0
 62
     9
 10
0.0
 20
0.0
 30
0.0
 70
   128
 71
    66
 72
    64
 73
    72
  0
VERTEX
  5
517
  8
0
 62
     9
 10
0.0
 20
0.0
 30
0.0
 70
   128
 71
    65
 72
    72
 73
    64
  0
VERTEX
  5
518
  8
0
 62
     9
 10
0.0
 20
0.0
 30
0.0
 70
   128
 71
    73
 72
    67
 73
    62
  0
VERTEX
  5
519
  8
0
 62
     9
 10
0.0
 20
0.0
 30
0.0
 70
   128
 71
    62
 72
    67
 73
    66
  0
VERTEX
  5
51A
  8
0
 62
     9
 10
0.0
 20
0.0
 30
0.0
 70
   128
 71
    73
 72
    62
 73
     9
  0
VERTEX
  5
51B
  8
0
 62
     9
 10
0.0
 20
0.0
 30
0.0
 70
   128
 71
    10
 72
    66
 73
    12
  0
VERTEX
  5
51C
  8
0
 62
     9
 10
0.0
 20
0.0
 30
0.0
 70
   128
 71
    72
 72
    12
 73
    66
  0
VERTEX
  5
51D
  8
0
 62
     9
 10
0.0
 20
0.0
 30
0.0
 70
   128
 71
    60
 72
    43
 73
    44
  0
VERTEX
  5
51E
  8
0
 62
     9
 10
0.0
 20
0.0
 30
0.0
 70
   128
 71
     8
 72
     4
 73
     6
  0
VERTEX
  5
51F
  8
0
 62
     9
 10
0.0
 20
0.0
 30
0.0
 70
   128
 71
     4
 72
    62
 73
     2
  0
VERTEX
  5
520
  8
0
 62
     9
 10
0.0
 20
0.0
 30
0.0
 70
   128
 71
    62
 72
    10
 73
     2
  0
VERTEX
  5
521
  8
0
 62
     9
 10
0.0
 20
0.0
 30
0.0
 70
   128
 71
    62
 72
     4
 73
     8
  0
VERTEX
  5
522
  8
0
 62
     9
 10
0.0
 20
0.0
 30
0.0
 70
   128
 71
    10
 72
    62
 73
    66
  0
VERTEX
  5
523
  8
0
 62
     9
 10
0.0
 20
0.0
 30
0.0
 70
   128
 71
    13
 72
    12
 73
    72
  0
VERTEX
  5
524
  8
0
 62
     9
 10
0.0
 20
0.0
 30
0.0
 70
   128
 71
    65
 72
    16
 73
    13
  0
VERTEX
  5
525
  8
0
 62
     9
 10
0.0
 20
0.0
 30
0.0
 70
   128
 71
    13
 72
    72
 73
    65
  0
VERTEX
  5
526
  8
0
 62
     9
 10
0.0
 20
0.0
 30
0.0
 70
   128
 71
    74
 72
    16
 73
    70
  0
VERTEX
  5
527
  8
0
 62
     9
 10
0.0
 20
0.0
 30
0.0
 70
   128
 71
    65
 72
    70
 73
    16
  0
VERTEX
  5
528
  8
0
 62
     9
 10
0.0
 20
0.0
 30
0.0
 70
   128
 71
    68
 72
    74
 73
    70
  0
VERTEX
  5
529
  8
0
 62
     9
 10
0.0
 20
0.0
 30
0.0
 70
   128
 71
    75
 72
    74
 73
    49
  0
VERTEX
  5
52A
  8
0
 62
     9
 10
0.0
 20
0.0
 30
0.0
 70
   128
 71
    68
 72
    49
 73
    74
  0
VERTEX
  5
52B
  8
0
 62
     9
 10
0.0
 20
0.0
 30
0.0
 70
   128
 71
    76
 72
    75
 73
    52
  0
VERTEX
  5
52C
  8
0
 62
     9
 10
0.0
 20
0.0
 30
0.0
 70
   128
 71
    50
 72
    75
 73
    49
  0
VERTEX
  5
52D
  8
0
 62
     9
 10
0.0
 20
0.0
 30
0.0
 70
   128
 71
    57
 72
    77
 73
    76
  0
VERTEX
  5
52E
  8
0
 62
     9
 10
0.0
 20
0.0
 30
0.0
 70
   128
 71
    54
 72
    59
 73
    46
  0
VERTEX
  5
52F
  8
0
 62
     9
 10
0.0
 20
0.0
 30
0.0
 70
   128
 71
    60
 72
    46
 73
    59
  0
VERTEX
  5
530
  8
0
 62
     9
 10
0.0
 20
0.0
 30
0.0
 70
   128
 71
    46
 72
    60
 73
    44
  0
VERTEX
  5
531
  8
0
 62
     9
 10
0.0
 20
0.0
 30
0.0
 70
   128
 71
    77
 72
    54
 73
    46
  0
VERTEX
  5
532
  8
0
 62
     9
 10
0.0
 20
0.0
 30
0.0
 70
   128
 71
    52
 72
    57
 73
    76
  0
VERTEX
  5
533
  8
0
 62
     9
 10
0.0
 20
0.0
 30
0.0
 70
   128
 71
    57
 72
    54
 73
    77
  0
VERTEX
  5
534
  8
0
 62
     9
 10
0.0
 20
0.0
 30
0.0
 70
   128
 71
    50
 72
    52
 73
    75
  0
VERTEX
  5
535
  8
0
 62
     9
 10
0.0
 20
0.0
 30
0.0
 70
   128
 71
    79
 72
    78
 73
    51
  0
VERTEX
  5
536
  8
0
 62
     9
 10
0.0
 20
0.0
 30
0.0
 70
   128
 71
    79
 72
    14
 73
    15
  0
VERTEX
  5
537
  8
0
 62
     9
 10
0.0
 20
0.0
 30
0.0
 70
   128
 71
    11
 72
    14
 73
    79
  0
VERTEX
  5
538
  8
0
 62
     9
 10
0.0
 20
0.0
 30
0.0
 70
   128
 71
     3
 72
     1
 73
    79
  0
VERTEX
  5
539
  8
0
 62
     9
 10
0.0
 20
0.0
 30
0.0
 70
   128
 71
    11
 72
    79
 73
     1
  0
VERTEX
  5
53A
  8
0
 62
     9
 10
0.0
 20
0.0
 30
0.0
 70
   128
 71
     5
 72
     3
 73
    79
  0
VERTEX
  5
53B
  8
0
 62
     9
 10
0.0
 20
0.0
 30
0.0
 70
   128
 71
    51
 72
    73
 73
     9
  0
VERTEX
  5
53C
  8
0
 62
     9
 10
0.0
 20
0.0
 30
0.0
 70
   128
 71
     7
 72
     5
 73
    79
  0
VERTEX
  5
53D
  8
0
 62
     9
 10
0.0
 20
0.0
 30
0.0
 70
   128
 71
    63
 72
    64
 73
    71
  0
VERTEX
  5
53E
  8
0
 62
     9
 10
0.0
 20
0.0
 30
0.0
 70
   128
 71
    64
 72
    67
 73
    69
  0
VERTEX
  5
53F
  8
0
 62
     9
 10
0.0
 20
0.0
 30
0.0
 70
   128
 71
    51
 72
    69
 73
    67
  0
VERTEX
  5
540
  8
0
 62
     9
 10
0.0
 20
0.0
 30
0.0
 70
   128
 71
    69
 72
    71
 73
    64
  0
VERTEX
  5
541
  8
0
 62
     9
 10
0.0
 20
0.0
 30
0.0
 70
   128
 71
     7
 72
    51
 73
     9
  0
VERTEX
  5
542
  8
0
 62
     9
 10
0.0
 20
0.0
 30
0.0
 70
   128
 71
    67
 72
    73
 73
    51
  0
VERTEX
  5
543
  8
0
 62
     9
 10
0.0
 20
0.0
 30
0.0
 70
   128
 71
    51
 72
    78
 73
    48
  0
VERTEX
  5
544
  8
0
 62
     9
 10
0.0
 20
0.0
 30
0.0
 70
   128
 71
    51
 72
     7
 73
    79
  0
VERTEX
  5
545
  8
0
 62
     9
 10
0.0
 20
0.0
 30
0.0
 70
   128
 71
    47
 72
    56
 73
    80
  0
VERTEX
  5
546
  8
0
 62
     9
 10
0.0
 20
0.0
 30
0.0
 70
   128
 71
    61
 72
    55
 73
    47
  0
VERTEX
  5
547
  8
0
 62
     9
 10
0.0
 20
0.0
 30
0.0
 70
   128
 71
    48
 72
    78
 73
    53
  0
VERTEX
  5
548
  8
0
 62
     9
 10
0.0
 20
0.0
 30
0.0
 70
   128
 71
    58
 72
    53
 73
    81
  0
VERTEX
  5
549
  8
0
 62
     9
 10
0.0
 20
0.0
 30
0.0
 70
   128
 71
    78
 72
    81
 73
    53
  0
VERTEX
  5
54A
  8
0
 62
     9
 10
0.0
 20
0.0
 30
0.0
 70
   128
 71
    56
 72
    58
 73
    80
  0
VERTEX
  5
54B
  8
0
 62
     9
 10
0.0
 20
0.0
 30
0.0
 70
   128
 71
    80
 72
    58
 73
    81
  0
VERTEX
  5
54C
  8
0
 62
     9
 10
0.0
 20
0.0
 30
0.0
 70
   128
 71
    55
 72
    56
 73
    47
  0
VERTEX
  5
54D
  8
0
 62
     9
 10
0.0
 20
0.0
 30
0.0
 70
   128
 71
    45
 72
    61
 73
    42
  0
VERTEX
  5
54E
  8
0
 62
     9
 10
0.0
 20
0.0
 30
0.0
 70
   128
 71
    61
 72
    47
 73
    42
  0
VERTEX
  5
54F
  8
0
 62
     9
 10
0.0
 20
0.0
 30
0.0
 70
   128
 71
    84
 72
    83
 73
    82
  0
VERTEX
  5
550
  8
0
 62
     9
 10
0.0
 20
0.0
 30
0.0
 70
   128
 71
    26
 72
    86
 73
    85
  0
VERTEX
  5
551
  8
0
 62
     9
 10
0.0
 20
0.0
 30
0.0
 70
   128
 71
    88
 72
    87
 73
    86
  0
VERTEX
  5
552
  8
0
 62
     9
 10
0.0
 20
0.0
 30
0.0
 70
   128
 71
    38
 72
    86
 73
    37
  0
VERTEX
  5
553
  8
0
 62
     9
 10
0.0
 20
0.0
 30
0.0
 70
   128
 71
    87
 72
    85
 73
    86
  0
VERTEX
  5
554
  8
0
 62
     9
 10
0.0
 20
0.0
 30
0.0
 70
   128
 71
    89
 72
    87
 73
    88
  0
VERTEX
  5
555
  8
0
 62
     9
 10
0.0
 20
0.0
 30
0.0
 70
   128
 71
    85
 72
    24
 73
    26
  0
VERTEX
  5
556
  8
0
 62
     9
 10
0.0
 20
0.0
 30
0.0
 70
   128
 71
    90
 72
    89
 73
    88
  0
VERTEX
  5
557
  8
0
 62
     9
 10
0.0
 20
0.0
 30
0.0
 70
   128
 71
    84
 72
    82
 73
    90
  0
VERTEX
  5
558
  8
0
 62
     9
 10
0.0
 20
0.0
 30
0.0
 70
   128
 71
    89
 72
    90
 73
    82
  0
VERTEX
  5
559
  8
0
 62
     9
 10
0.0
 20
0.0
 30
0.0
 70
   128
 71
    93
 72
    92
 73
    91
  0
VERTEX
  5
55A
  8
0
 62
     9
 10
0.0
 20
0.0
 30
0.0
 70
   128
 71
    96
 72
    95
 73
    94
  0
VERTEX
  5
55B
  8
0
 62
     9
 10
0.0
 20
0.0
 30
0.0
 70
   128
 71
    96
 72
    98
 73
    97
  0
VERTEX
  5
55C
  8
0
 62
     9
 10
0.0
 20
0.0
 30
0.0
 70
   128
 71
    98
 72
   100
 73
    99
  0
VERTEX
  5
55D
  8
0
 62
     9
 10
0.0
 20
0.0
 30
0.0
 70
   128
 71
   100
 72
    96
 73
    94
  0
VERTEX
  5
55E
  8
0
 62
     9
 10
0.0
 20
0.0
 30
0.0
 70
   128
 71
    93
 72
    96
 73
    97
  0
VERTEX
  5
55F
  8
0
 62
     9
 10
0.0
 20
0.0
 30
0.0
 70
   128
 71
    92
 72
    83
 73
    91
  0
VERTEX
  5
560
  8
0
 62
     9
 10
0.0
 20
0.0
 30
0.0
 70
   128
 71
    97
 72
    92
 73
    93
  0
VERTEX
  5
561
  8
0
 62
     9
 10
0.0
 20
0.0
 30
0.0
 70
   128
 71
    84
 72
    91
 73
    83
  0
VERTEX
  5
562
  8
0
 62
     9
 10
0.0
 20
0.0
 30
0.0
 70
   128
 71
    93
 72
   101
 73
    95
  0
VERTEX
  5
563
  8
0
 62
     9
 10
0.0
 20
0.0
 30
0.0
 70
   128
 71
    96
 72
   100
 73
    98
  0
VERTEX
  5
564
  8
0
 62
     9
 10
0.0
 20
0.0
 30
0.0
 70
   128
 71
    96
 72
    93
 73
    95
  0
VERTEX
  5
565
  8
0
 62
     9
 10
0.0
 20
0.0
 30
0.0
 70
   128
 71
    91
 72
   102
 73
   101
  0
VERTEX
  5
566
  8
0
 62
     9
 10
0.0
 20
0.0
 30
0.0
 70
   128
 71
    93
 72
    91
 73
   101
  0
VERTEX
  5
567
  8
0
 62
     9
 10
0.0
 20
0.0
 30
0.0
 70
   128
 71
    84
 72
   102
 73
    91
  0
VERTEX
  5
568
  8
0
 62
     9
 10
0.0
 20
0.0
 30
0.0
 70
   128
 71
    84
 72
   103
 73
   102
  0
VERTEX
  5
569
  8
0
 62
     9
 10
0.0
 20
0.0
 30
0.0
 70
   128
 71
    90
 72
   103
 73
    84
  0
VERTEX
  5
56A
  8
0
 62
     9
 10
0.0
 20
0.0
 30
0.0
 70
   128
 71
    90
 72
   104
 73
   103
  0
VERTEX
  5
56B
  8
0
 62
     9
 10
0.0
 20
0.0
 30
0.0
 70
   128
 71
    88
 72
   105
 73
   104
  0
VERTEX
  5
56C
  8
0
 62
     9
 10
0.0
 20
0.0
 30
0.0
 70
   128
 71
    90
 72
    88
 73
   104
  0
VERTEX
  5
56D
  8
0
 62
     9
 10
0.0
 20
0.0
 30
0.0
 70
   128
 71
   105
 72
    86
 73
    38
  0
VERTEX
  5
56E
  8
0
 62
     9
 10
0.0
 20
0.0
 30
0.0
 70
   128
 71
    88
 72
    86
 73
   105
  0
VERTEX
  5
56F
  8
0
 62
     9
 10
0.0
 20
0.0
 30
0.0
 70
   128
 71
    37
 72
    86
 73
    26
  0
VERTEX
  5
570
  8
0
 62
     9
 10
0.0
 20
0.0
 30
0.0
 70
   128
 71
    24
 72
    85
 73
    19
  0
VERTEX
  5
571
  8
0
 62
     9
 10
0.0
 20
0.0
 30
0.0
 70
   128
 71
   107
 72
   106
 73
    18
  0
VERTEX
  5
572
  8
0
 62
     9
 10
0.0
 20
0.0
 30
0.0
 70
   128
 71
    29
 72
    27
 73
   108
  0
VERTEX
  5
573
  8
0
 62
     9
 10
0.0
 20
0.0
 30
0.0
 70
   128
 71
   106
 72
   109
 73
    21
  0
VERTEX
  5
574
  8
0
 62
     9
 10
0.0
 20
0.0
 30
0.0
 70
   128
 71
   111
 72
    39
 73
   110
  0
VERTEX
  5
575
  8
0
 62
     9
 10
0.0
 20
0.0
 30
0.0
 70
   128
 71
   114
 72
   113
 73
   112
  0
VERTEX
  5
576
  8
0
 62
     9
 10
0.0
 20
0.0
 30
0.0
 70
   128
 71
   113
 72
   114
 73
   111
  0
VERTEX
  5
577
  8
0
 62
     9
 10
0.0
 20
0.0
 30
0.0
 70
   128
 71
   115
 72
    40
 73
   114
  0
VERTEX
  5
578
  8
0
 62
     9
 10
0.0
 20
0.0
 30
0.0
 70
   128
 71
   100
 72
    94
 73
   116
  0
VERTEX
  5
579
  8
0
 62
     9
 10
0.0
 20
0.0
 30
0.0
 70
   128
 71
   116
 72
   112
 73
   100
  0
VERTEX
  5
57A
  8
0
 62
     9
 10
0.0
 20
0.0
 30
0.0
 70
   128
 71
   112
 72
   113
 73
    99
  0
VERTEX
  5
57B
  8
0
 62
     9
 10
0.0
 20
0.0
 30
0.0
 70
   128
 71
    30
 72
   108
 73
   110
  0
VERTEX
  5
57C
  8
0
 62
     9
 10
0.0
 20
0.0
 30
0.0
 70
   128
 71
    30
 72
   110
 73
    39
  0
VERTEX
  5
57D
  8
0
 62
     9
 10
0.0
 20
0.0
 30
0.0
 70
   128
 71
    30
 72
    29
 73
   108
  0
VERTEX
  5
57E
  8
0
 62
     9
 10
0.0
 20
0.0
 30
0.0
 70
   128
 71
   109
 72
    27
 73
    21
  0
VERTEX
  5
57F
  8
0
 62
     9
 10
0.0
 20
0.0
 30
0.0
 70
   128
 71
    27
 72
   109
 73
   108
  0
VERTEX
  5
580
  8
0
 62
     9
 10
0.0
 20
0.0
 30
0.0
 70
   128
 71
    18
 72
   106
 73
    21
  0
VERTEX
  5
581
  8
0
 62
     9
 10
0.0
 20
0.0
 30
0.0
 70
   128
 71
   107
 72
    19
 73
    85
  0
VERTEX
  5
582
  8
0
 62
     9
 10
0.0
 20
0.0
 30
0.0
 70
   128
 71
    18
 72
    19
 73
   107
  0
VERTEX
  5
583
  8
0
 62
     9
 10
0.0
 20
0.0
 30
0.0
 70
   128
 71
   114
 72
    39
 73
   111
  0
VERTEX
  5
584
  8
0
 62
     9
 10
0.0
 20
0.0
 30
0.0
 70
   128
 71
    39
 72
   114
 73
    40
  0
VERTEX
  5
585
  8
0
 62
     9
 10
0.0
 20
0.0
 30
0.0
 70
   128
 71
   112
 72
   116
 73
   115
  0
VERTEX
  5
586
  8
0
 62
     9
 10
0.0
 20
0.0
 30
0.0
 70
   128
 71
   115
 72
   114
 73
   112
  0
VERTEX
  5
587
  8
0
 62
     9
 10
0.0
 20
0.0
 30
0.0
 70
   128
 71
   100
 72
   112
 73
    99
  0
VERTEX
  5
588
  8
0
 62
     9
 10
0.0
 20
0.0
 30
0.0
 70
   128
 71
   105
 72
    41
 73
   104
  0
VERTEX
  5
589
  8
0
 62
     9
 10
0.0
 20
0.0
 30
0.0
 70
   128
 71
   104
 72
   117
 73
   103
  0
VERTEX
  5
58A
  8
0
 62
     9
 10
0.0
 20
0.0
 30
0.0
 70
   128
 71
    41
 72
    40
 73
   115
  0
VERTEX
  5
58B
  8
0
 62
     9
 10
0.0
 20
0.0
 30
0.0
 70
   128
 71
   116
 72
    41
 73
   115
  0
VERTEX
  5
58C
  8
0
 62
     9
 10
0.0
 20
0.0
 30
0.0
 70
   128
 71
    41
 72
   105
 73
    38
  0
VERTEX
  5
58D
  8
0
 62
     9
 10
0.0
 20
0.0
 30
0.0
 70
   128
 71
   104
 72
    41
 73
   116
  0
VERTEX
  5
58E
  8
0
 62
     9
 10
0.0
 20
0.0
 30
0.0
 70
   128
 71
   117
 72
   116
 73
    94
  0
VERTEX
  5
58F
  8
0
 62
     9
 10
0.0
 20
0.0
 30
0.0
 70
   128
 71
   116
 72
   117
 73
   104
  0
VERTEX
  5
590
  8
0
 62
     9
 10
0.0
 20
0.0
 30
0.0
 70
   128
 71
   101
 72
   117
 73
    95
  0
VERTEX
  5
591
  8
0
 62
     9
 10
0.0
 20
0.0
 30
0.0
 70
   128
 71
    94
 72
    95
 73
   117
  0
VERTEX
  5
592
  8
0
 62
     9
 10
0.0
 20
0.0
 30
0.0
 70
   128
 71
   103
 72
   117
 73
   102
  0
VERTEX
  5
593
  8
0
 62
     9
 10
0.0
 20
0.0
 30
0.0
 70
   128
 71
   101
 72
   102
 73
   117
  0
VERTEX
  5
594
  8
0
 62
     9
 10
0.0
 20
0.0
 30
0.0
 70
   128
 71
    99
 72
    77
 73
    98
  0
VERTEX
  5
595
  8
0
 62
     9
 10
0.0
 20
0.0
 30
0.0
 70
   128
 71
    82
 72
    81
 73
    89
  0
VERTEX
  5
596
  8
0
 62
     9
 10
0.0
 20
0.0
 30
0.0
 70
   128
 71
   107
 72
    85
 73
    79
  0
VERTEX
  5
597
  8
0
 62
     9
 10
0.0
 20
0.0
 30
0.0
 70
   128
 71
    79
 72
    85
 73
    78
  0
VERTEX
  5
598
  8
0
 62
     9
 10
0.0
 20
0.0
 30
0.0
 70
   128
 71
    79
 72
    15
 73
   106
  0
VERTEX
  5
599
  8
0
 62
     9
 10
0.0
 20
0.0
 30
0.0
 70
   128
 71
    87
 72
    89
 73
    78
  0
VERTEX
  5
59A
  8
0
 62
     9
 10
0.0
 20
0.0
 30
0.0
 70
   128
 71
    82
 72
    83
 73
    80
  0
VERTEX
  5
59B
  8
0
 62
     9
 10
0.0
 20
0.0
 30
0.0
 70
   128
 71
    46
 72
    97
 73
    98
  0
VERTEX
  5
59C
  8
0
 62
     9
 10
0.0
 20
0.0
 30
0.0
 70
   128
 71
    80
 72
    83
 73
    92
  0
VERTEX
  5
59D
  8
0
 62
     9
 10
0.0
 20
0.0
 30
0.0
 70
   128
 71
    99
 72
    76
 73
    77
  0
VERTEX
  5
59E
  8
0
 62
     9
 10
0.0
 20
0.0
 30
0.0
 70
   128
 71
    47
 72
    92
 73
    97
  0
VERTEX
  5
59F
  8
0
 62
     9
 10
0.0
 20
0.0
 30
0.0
 70
   128
 71
    98
 72
    77
 73
    46
  0
VERTEX
  5
5A0
  8
0
 62
     9
 10
0.0
 20
0.0
 30
0.0
 70
   128
 71
    97
 72
    46
 73
    47
  0
VERTEX
  5
5A1
  8
0
 62
     9
 10
0.0
 20
0.0
 30
0.0
 70
   128
 71
    92
 72
    47
 73
    80
  0
VERTEX
  5
5A2
  8
0
 62
     9
 10
0.0
 20
0.0
 30
0.0
 70
   128
 71
   111
 72
    76
 73
   113
  0
VERTEX
  5
5A3
  8
0
 62
     9
 10
0.0
 20
0.0
 30
0.0
 70
   128
 71
    82
 72
    80
 73
    81
  0
VERTEX
  5
5A4
  8
0
 62
     9
 10
0.0
 20
0.0
 30
0.0
 70
   128
 71
   110
 72
    75
 73
   111
  0
VERTEX
  5
5A5
  8
0
 62
     9
 10
0.0
 20
0.0
 30
0.0
 70
   128
 71
    89
 72
    81
 73
    78
  0
VERTEX
  5
5A6
  8
0
 62
     9
 10
0.0
 20
0.0
 30
0.0
 70
   128
 71
    78
 72
    85
 73
    87
  0
VERTEX
  5
5A7
  8
0
 62
     9
 10
0.0
 20
0.0
 30
0.0
 70
   128
 71
   109
 72
    74
 73
   108
  0
VERTEX
  5
5A8
  8
0
 62
     9
 10
0.0
 20
0.0
 30
0.0
 70
   128
 71
    16
 72
   109
 73
   106
  0
VERTEX
  5
5A9
  8
0
 62
     9
 10
0.0
 20
0.0
 30
0.0
 70
   128
 71
   106
 72
   107
 73
    79
  0
VERTEX
  5
5AA
  8
0
 62
     9
 10
0.0
 20
0.0
 30
0.0
 70
   128
 71
   106
 72
    15
 73
    16
  0
VERTEX
  5
5AB
  8
0
 62
     9
 10
0.0
 20
0.0
 30
0.0
 70
   128
 71
   109
 72
    16
 73
    74
  0
VERTEX
  5
5AC
  8
0
 62
     9
 10
0.0
 20
0.0
 30
0.0
 70
   128
 71
   108
 72
    75
 73
   110
  0
VERTEX
  5
5AD
  8
0
 62
     9
 10
0.0
 20
0.0
 30
0.0
 70
   128
 71
   108
 72
    74
 73
    75
  0
VERTEX
  5
5AE
  8
0
 62
     9
 10
0.0
 20
0.0
 30
0.0
 70
   128
 71
   111
 72
    75
 73
    76
  0
VERTEX
  5
5AF
  8
0
 62
     9
 10
0.0
 20
0.0
 30
0.0
 70
   128
 71
   113
 72
    76
 73
    99
  0
SEQEND
  5
5B0
  8
0
 62
     9
  0
ENDBLK
  5
5B3
  8
0
  0
BLOCK
  8
0
  2
46
 70
     0
 10
0.0
 20
0.0
 30
0.0
  3
46
  1

  0
POLYLINE
  5
5B5
  8
0
 62
     9
 66
     1
 10
0.0
 20
0.0
 30
0.0
 70
    64
 71
    48
 72
    48
  0
VERTEX
  5
5B6
  8
0
 10
-41.00161743164062
 20
-93.82369995117188
 30
-19.06044578552246
 70
   192
  0
VERTEX
  5
5B7
  8
0
 10
-68.00161743164062
 20
-94.5
 30
-14.0
 70
   192
  0
VERTEX
  5
5B8
  8
0
 10
-41.00161743164062
 20
-94.5
 30
-14.0
 70
   192
  0
VERTEX
  5
5B9
  8
0
 10
-68.00161743164062
 20
-93.83619689941406
 30
-19.03964424133301
 70
   192
  0
VERTEX
  5
5BA
  8
0
 10
-41.00161743164062
 20
-91.86567687988281
 30
-23.75687599182129
 70
   192
  0
VERTEX
  5
5BB
  8
0
 10
-41.00161743164062
 20
-88.77143859863281
 30
-27.78430366516113
 70
   192
  0
VERTEX
  5
5BC
  8
0
 10
-68.00161743164062
 20
-91.89715576171875
 30
-23.74782562255859
 70
   192
  0
VERTEX
  5
5BD
  8
0
 10
-41.00161743164062
 20
-84.72881317138672
 30
-30.88396453857422
 70
   192
  0
VERTEX
  5
5BE
  8
0
 10
-68.00161743164062
 20
-88.7919692993164
 30
-27.79962730407715
 70
   192
  0
VERTEX
  5
5BF
  8
0
 10
-68.00161743164062
 20
-84.75625610351562
 30
-30.89468002319336
 70
   192
  0
VERTEX
  5
5C0
  8
0
 10
-41.00161743164062
 20
-80.03165435791016
 30
-32.82845687866211
 70
   192
  0
VERTEX
  5
5C1
  8
0
 10
-41.00161743164062
 20
-75.0
 30
-33.5
 70
   192
  0
VERTEX
  5
5C2
  8
0
 10
-68.00161743164062
 20
-80.05512237548828
 30
-32.84359359741211
 70
   192
  0
VERTEX
  5
5C3
  8
0
 10
-68.00161743164062
 20
-75.0
 30
-33.5
 70
   192
  0
VERTEX
  5
5C4
  8
0
 10
-68.00161743164062
 20
-93.82369995117188
 30
-8.939555168151855
 70
   192
  0
VERTEX
  5
5C5
  8
0
 10
-68.00161743164062
 20
-91.86567687988281
 30
-4.243124008178711
 70
   192
  0
VERTEX
  5
5C6
  8
0
 10
-41.00161743164062
 20
-93.83619689941406
 30
-8.960355758666992
 70
   192
  0
VERTEX
  5
5C7
  8
0
 10
-68.00161743164062
 20
-88.77143859863281
 30
-0.2156960964202881
 70
   192
  0
VERTEX
  5
5C8
  8
0
 10
-41.00161743164062
 20
-91.89715576171875
 30
-4.252174854278564
 70
   192
  0
VERTEX
  5
5C9
  8
0
 10
-41.00161743164062
 20
-88.7919692993164
 30
-0.2003717571496964
 70
   192
  0
VERTEX
  5
5CA
  8
0
 10
-68.00161743164062
 20
-84.72881317138672
 30
2.883965253829956
 70
   192
  0
VERTEX
  5
5CB
  8
0
 10
-68.00161743164062
 20
-80.03165435791016
 30
4.828455448150635
 70
   192
  0
VERTEX
  5
5CC
  8
0
 10
-41.00161743164062
 20
-84.75625610351562
 30
2.894680261611938
 70
   192
  0
VERTEX
  5
5CD
  8
0
 10
-68.00161743164062
 20
-75.0
 30
5.5
 70
   192
  0
VERTEX
  5
5CE
  8
0
 10
-41.00161743164062
 20
-80.05512237548828
 30
4.843594074249268
 70
   192
  0
VERTEX
  5
5CF
  8
0
 10
-41.00161743164062
 20
-75.0
 30
5.5
 70
   192
  0
VERTEX
  5
5D0
  8
0
 10
-41.00161743164062
 20
-69.94487762451172
 30
-32.84359359741211
 70
   192
  0
VERTEX
  5
5D1
  8
0
 10
-68.00161743164062
 20
-69.96834564208984
 30
-32.82845687866211
 70
   192
  0
VERTEX
  5
5D2
  8
0
 10
-41.00161743164062
 20
-56.16379928588867
 30
-19.03964424133301
 70
   192
  0
VERTEX
  5
5D3
  8
0
 10
-68.00161743164062
 20
-58.13432312011719
 30
-23.75687599182129
 70
   192
  0
VERTEX
  5
5D4
  8
0
 10
-41.00161743164062
 20
-58.10284423828125
 30
-23.74782562255859
 70
   192
  0
VERTEX
  5
5D5
  8
0
 10
-68.00161743164062
 20
-65.27118682861328
 30
-30.88396453857422
 70
   192
  0
VERTEX
  5
5D6
  8
0
 10
-41.00161743164062
 20
-65.24374389648438
 30
-30.89468002319336
 70
   192
  0
VERTEX
  5
5D7
  8
0
 10
-41.00161743164062
 20
-61.20803070068359
 30
-27.79962730407715
 70
   192
  0
VERTEX
  5
5D8
  8
0
 10
-41.00161743164062
 20
-56.17629623413086
 30
-8.939555168151855
 70
   192
  0
VERTEX
  5
5D9
  8
0
 10
-41.00161743164062
 20
-58.13432312011719
 30
-4.243124008178711
 70
   192
  0
VERTEX
  5
5DA
  8
0
 10
-68.00161743164062
 20
-56.16379928588867
 30
-8.960355758666992
 70
   192
  0
VERTEX
  5
5DB
  8
0
 10
-68.00161743164062
 20
-56.17629623413086
 30
-19.06044578552246
 70
   192
  0
VERTEX
  5
5DC
  8
0
 10
-41.00161743164062
 20
-55.5
 30
-14.0
 70
   192
  0
VERTEX
  5
5DD
  8
0
 10
-68.00161743164062
 20
-55.5
 30
-14.0
 70
   192
  0
VERTEX
  5
5DE
  8
0
 10
-41.00161743164062
 20
-61.22856140136719
 30
-0.2156960964202881
 70
   192
  0
VERTEX
  5
5DF
  8
0
 10
-41.00161743164062
 20
-65.27118682861328
 30
2.883965253829956
 70
   192
  0
VERTEX
  5
5E0
  8
0
 10
-68.00161743164062
 20
-61.20803070068359
 30
-0.2003717571496964
 70
   192
  0
VERTEX
  5
5E1
  8
0
 10
-68.00161743164062
 20
-58.10284423828125
 30
-4.252174854278564
 70
   192
  0
VERTEX
  5
5E2
  8
0
 10
-41.00161743164062
 20
-69.96834564208984
 30
4.828455448150635
 70
   192
  0
VERTEX
  5
5E3
  8
0
 10
-68.00161743164062
 20
-65.24374389648438
 30
2.894680261611938
 70
   192
  0
VERTEX
  5
5E4
  8
0
 10
-68.00161743164062
 20
-69.94487762451172
 30
4.843594074249268
 70
   192
  0
VERTEX
  5
5E5
  8
0
 10
-68.00161743164062
 20
-61.22856140136719
 30
-27.78430366516113
 70
   192
  0
VERTEX
  5
5E6
  8
0
 62
     9
 10
0.0
 20
0.0
 30
0.0
 70
   128
 71
     3
 72
     2
 73
     1
  0
VERTEX
  5
5E7
  8
0
 62
     9
 10
0.0
 20
0.0
 30
0.0
 70
   128
 71
     5
 72
     1
 73
     4
  0
VERTEX
  5
5E8
  8
0
 62
     9
 10
0.0
 20
0.0
 30
0.0
 70
   128
 71
     2
 72
     4
 73
     1
  0
VERTEX
  5
5E9
  8
0
 62
     9
 10
0.0
 20
0.0
 30
0.0
 70
   128
 71
     7
 72
     6
 73
     5
  0
VERTEX
  5
5EA
  8
0
 62
     9
 10
0.0
 20
0.0
 30
0.0
 70
   128
 71
     5
 72
     4
 73
     7
  0
VERTEX
  5
5EB
  8
0
 62
     9
 10
0.0
 20
0.0
 30
0.0
 70
   128
 71
     6
 72
     9
 73
     8
  0
VERTEX
  5
5EC
  8
0
 62
     9
 10
0.0
 20
0.0
 30
0.0
 70
   128
 71
     9
 72
     6
 73
     7
  0
VERTEX
  5
5ED
  8
0
 62
     9
 10
0.0
 20
0.0
 30
0.0
 70
   128
 71
    11
 72
     8
 73
    10
  0
VERTEX
  5
5EE
  8
0
 62
     9
 10
0.0
 20
0.0
 30
0.0
 70
   128
 71
     9
 72
    10
 73
     8
  0
VERTEX
  5
5EF
  8
0
 62
     9
 10
0.0
 20
0.0
 30
0.0
 70
   128
 71
    13
 72
    12
 73
    11
  0
VERTEX
  5
5F0
  8
0
 62
     9
 10
0.0
 20
0.0
 30
0.0
 70
   128
 71
    11
 72
    10
 73
    13
  0
VERTEX
  5
5F1
  8
0
 62
     9
 10
0.0
 20
0.0
 30
0.0
 70
   128
 71
    14
 72
    12
 73
    13
  0
VERTEX
  5
5F2
  8
0
 62
     9
 10
0.0
 20
0.0
 30
0.0
 70
   128
 71
    15
 72
     2
 73
     3
  0
VERTEX
  5
5F3
  8
0
 62
     9
 10
0.0
 20
0.0
 30
0.0
 70
   128
 71
    17
 72
    16
 73
    15
  0
VERTEX
  5
5F4
  8
0
 62
     9
 10
0.0
 20
0.0
 30
0.0
 70
   128
 71
    15
 72
     3
 73
    17
  0
VERTEX
  5
5F5
  8
0
 62
     9
 10
0.0
 20
0.0
 30
0.0
 70
   128
 71
    16
 72
    19
 73
    18
  0
VERTEX
  5
5F6
  8
0
 62
     9
 10
0.0
 20
0.0
 30
0.0
 70
   128
 71
    19
 72
    16
 73
    17
  0
VERTEX
  5
5F7
  8
0
 62
     9
 10
0.0
 20
0.0
 30
0.0
 70
   128
 71
    21
 72
    18
 73
    20
  0
VERTEX
  5
5F8
  8
0
 62
     9
 10
0.0
 20
0.0
 30
0.0
 70
   128
 71
    19
 72
    20
 73
    18
  0
VERTEX
  5
5F9
  8
0
 62
     9
 10
0.0
 20
0.0
 30
0.0
 70
   128
 71
    23
 72
    22
 73
    21
  0
VERTEX
  5
5FA
  8
0
 62
     9
 10
0.0
 20
0.0
 30
0.0
 70
   128
 71
    21
 72
    20
 73
    23
  0
VERTEX
  5
5FB
  8
0
 62
     9
 10
0.0
 20
0.0
 30
0.0
 70
   128
 71
    22
 72
    25
 73
    24
  0
VERTEX
  5
5FC
  8
0
 62
     9
 10
0.0
 20
0.0
 30
0.0
 70
   128
 71
    25
 72
    22
 73
    23
  0
VERTEX
  5
5FD
  8
0
 62
     9
 10
0.0
 20
0.0
 30
0.0
 70
   128
 71
    25
 72
    26
 73
    24
  0
VERTEX
  5
5FE
  8
0
 62
     9
 10
0.0
 20
0.0
 30
0.0
 70
   128
 71
    14
 72
    28
 73
    27
  0
VERTEX
  5
5FF
  8
0
 62
     9
 10
0.0
 20
0.0
 30
0.0
 70
   128
 71
    31
 72
    30
 73
    29
  0
VERTEX
  5
600
  8
0
 62
     9
 10
0.0
 20
0.0
 30
0.0
 70
   128
 71
    34
 72
    33
 73
    32
  0
VERTEX
  5
601
  8
0
 62
     9
 10
0.0
 20
0.0
 30
0.0
 70
   128
 71
    37
 72
    36
 73
    35
  0
VERTEX
  5
602
  8
0
 62
     9
 10
0.0
 20
0.0
 30
0.0
 70
   128
 71
    40
 72
    39
 73
    38
  0
VERTEX
  5
603
  8
0
 62
     9
 10
0.0
 20
0.0
 30
0.0
 70
   128
 71
    43
 72
    42
 73
    41
  0
VERTEX
  5
604
  8
0
 62
     9
 10
0.0
 20
0.0
 30
0.0
 70
   128
 71
    41
 72
    36
 73
    44
  0
VERTEX
  5
605
  8
0
 62
     9
 10
0.0
 20
0.0
 30
0.0
 70
   128
 71
    42
 72
    46
 73
    45
  0
VERTEX
  5
606
  8
0
 62
     9
 10
0.0
 20
0.0
 30
0.0
 70
   128
 71
    46
 72
    42
 73
    43
  0
VERTEX
  5
607
  8
0
 62
     9
 10
0.0
 20
0.0
 30
0.0
 70
   128
 71
    26
 72
    45
 73
    47
  0
VERTEX
  5
608
  8
0
 62
     9
 10
0.0
 20
0.0
 30
0.0
 70
   128
 71
    46
 72
    47
 73
    45
  0
VERTEX
  5
609
  8
0
 62
     9
 10
0.0
 20
0.0
 30
0.0
 70
   128
 71
    26
 72
    47
 73
    24
  0
VERTEX
  5
60A
  8
0
 62
     9
 10
0.0
 20
0.0
 30
0.0
 70
   128
 71
    36
 72
    37
 73
    44
  0
VERTEX
  5
60B
  8
0
 62
     9
 10
0.0
 20
0.0
 30
0.0
 70
   128
 71
    43
 72
    41
 73
    44
  0
VERTEX
  5
60C
  8
0
 62
     9
 10
0.0
 20
0.0
 30
0.0
 70
   128
 71
    40
 72
    35
 73
    39
  0
VERTEX
  5
60D
  8
0
 62
     9
 10
0.0
 20
0.0
 30
0.0
 70
   128
 71
    37
 72
    35
 73
    40
  0
VERTEX
  5
60E
  8
0
 62
     9
 10
0.0
 20
0.0
 30
0.0
 70
   128
 71
    30
 72
    38
 73
    29
  0
VERTEX
  5
60F
  8
0
 62
     9
 10
0.0
 20
0.0
 30
0.0
 70
   128
 71
    38
 72
    39
 73
    29
  0
VERTEX
  5
610
  8
0
 62
     9
 10
0.0
 20
0.0
 30
0.0
 70
   128
 71
    34
 72
    48
 73
    31
  0
VERTEX
  5
611
  8
0
 62
     9
 10
0.0
 20
0.0
 30
0.0
 70
   128
 71
    48
 72
    30
 73
    31
  0
VERTEX
  5
612
  8
0
 62
     9
 10
0.0
 20
0.0
 30
0.0
 70
   128
 71
    33
 72
    28
 73
    32
  0
VERTEX
  5
613
  8
0
 62
     9
 10
0.0
 20
0.0
 30
0.0
 70
   128
 71
    34
 72
    32
 73
    48
  0
VERTEX
  5
614
  8
0
 62
     9
 10
0.0
 20
0.0
 30
0.0
 70
   128
 71
    27
 72
    12
 73
    14
  0
VERTEX
  5
615
  8
0
 62
     9
 10
0.0
 20
0.0
 30
0.0
 70
   128
 71
    33
 72
    27
 73
    28
  0
SEQEND
  5
616
  8
0
 62
     9
  0
ENDBLK
  5
619
  8
0
  0
BLOCK
  8
0
  2
47
 70
     0
 10
0.0
 20
0.0
 30
0.0
  3
47
  1

  0
POLYLINE
  5
61B
  8
0
 62
     9
 66
     1
 10
0.0
 20
0.0
 30
0.0
 70
    64
 71
    49
 72
    94
  0
VERTEX
  5
61C
  8
0
 10
-59.80207443237305
 20
-75.0
 30
-14.0
 70
   192
  0
VERTEX
  5
61D
  8
0
 10
-60.38566970825195
 20
-92.09162902832031
 30
15.54449081420898
 70
   192
  0
VERTEX
  5
61E
  8
0
 10
-60.38566970825195
 20
-99.14669036865234
 30
10.12414932250977
 70
   192
  0
VERTEX
  5
61F
  8
0
 10
-60.38566970825195
 20
-104.576530456543
 30
3.042467832565308
 70
   192
  0
VERTEX
  5
620
  8
0
 10
-60.38566970825195
 20
-83.8646469116211
 30
18.97446823120117
 70
   192
  0
VERTEX
  5
621
  8
0
 10
-60.38566970825195
 20
-107.982795715332
 30
-5.185783863067627
 70
   192
  0
VERTEX
  5
622
  8
0
 10
-60.38566970825195
 20
-109.1591720581055
 30
-14.0
 70
   192
  0
VERTEX
  5
623
  8
0
 10
-60.38566970825195
 20
-75.0
 30
20.1591739654541
 70
   192
  0
VERTEX
  5
624
  8
0
 10
-60.38566970825195
 20
-45.40470123291016
 30
3.090541839599609
 70
   192
  0
VERTEX
  5
625
  8
0
 10
-60.38566970825195
 20
-50.82646560668945
 30
10.16011905670166
 70
   192
  0
VERTEX
  5
626
  8
0
 10
-60.38566970825195
 20
-57.92426300048828
 30
15.60000991821289
 70
   192
  0
VERTEX
  5
627
  8
0
 10
-60.38566970825195
 20
-41.99068832397461
 30
-5.14468240737915
 70
   192
  0
VERTEX
  5
628
  8
0
 10
-60.38566970825195
 20
-66.17147827148438
 30
18.99335670471191
 70
   192
  0
VERTEX
  5
629
  8
0
 10
-60.38566970825195
 20
-40.84082794189453
 30
-14.0
 70
   192
  0
VERTEX
  5
62A
  8
0
 10
-60.38566970825195
 20
-57.90836715698242
 30
-43.54449081420898
 70
   192
  0
VERTEX
  5
62B
  8
0
 10
-60.38566970825195
 20
-50.85330963134766
 30
-38.12414932250977
 70
   192
  0
VERTEX
  5
62C
  8
0
 10
-60.38566970825195
 20
-45.4234733581543
 30
-31.04246711730957
 70
   192
  0
VERTEX
  5
62D
  8
0
 10
-60.38566970825195
 20
-66.1353530883789
 30
-46.97446823120117
 70
   192
  0
VERTEX
  5
62E
  8
0
 10
-60.38566970825195
 20
-42.01720809936523
 30
-22.81421661376953
 70
   192
  0
VERTEX
  5
62F
  8
0
 10
-60.38566970825195
 20
-75.0
 30
-48.15917205810547
 70
   192
  0
VERTEX
  5
630
  8
0
 10
-93.0020751953125
 20
-74.97211456298828
 30
-49.01079559326172
 70
   192
  0
VERTEX
  5
631
  8
0
 10
-93.0020751953125
 20
-65.91642761230469
 30
-47.81283187866211
 70
   192
  0
VERTEX
  5
632
  8
0
 10
-93.0020751953125
 20
-105.3106994628906
 30
-31.52786827087402
 70
   192
  0
VERTEX
  5
633
  8
0
 10
-93.0020751953125
 20
-99.73977661132812
 30
-38.77375411987305
 70
   192
  0
VERTEX
  5
634
  8
0
 10
-60.38566970825195
 20
-99.15418243408203
 30
-38.15418243408203
 70
   192
  0
VERTEX
  5
635
  8
0
 10
-60.38566970825195
 20
-104.7967224121094
 30
-30.67938995361328
 70
   192
  0
VERTEX
  5
636
  8
0
 10
-93.0020751953125
 20
-108.8117370605469
 30
-23.08888816833496
 70
   192
  0
VERTEX
  5
637
  8
0
 10
-60.38566970825195
 20
-108.1192932128906
 30
-22.31925392150879
 70
   192
  0
VERTEX
  5
638
  8
0
 10
-93.0020751953125
 20
-110.0064086914062
 30
-14.00000190734863
 70
   192
  0
VERTEX
  5
639
  8
0
 10
-93.0020751953125
 20
-92.47916412353516
 30
-44.33640289306641
 70
   192
  0
VERTEX
  5
63A
  8
0
 10
-60.38566970825195
 20
-91.72570037841797
 30
-43.78844451904297
 70
   192
  0
VERTEX
  5
63B
  8
0
 10
-60.38566970825195
 20
-83.36170959472656
 30
-47.12860107421875
 70
   192
  0
VERTEX
  5
63C
  8
0
 10
-93.0020751953125
 20
-84.03978729248047
 30
-47.82574081420898
 70
   192
  0
VERTEX
  5
63D
  8
0
 10
-93.0020751953125
 20
-57.48359680175781
 30
-44.31811141967773
 70
   192
  0
VERTEX
  5
63E
  8
0
 10
-93.0020751953125
 20
-44.67081069946289
 30
-31.49247741699219
 70
   192
  0
VERTEX
  5
63F
  8
0
 10
-93.0020751953125
 20
-50.22225952148438
 30
-38.73237609863281
 70
   192
  0
VERTEX
  5
640
  8
0
 10
-93.0020751953125
 20
-41.17758178710938
 30
-23.05631256103516
 70
   192
  0
VERTEX
  5
641
  8
0
 10
-93.0020751953125
 20
-39.98673629760742
 30
-14.0
 70
   192
  0
VERTEX
  5
642
  8
0
 10
-93.0020751953125
 20
-50.26563262939453
 30
10.77692890167236
 70
   192
  0
VERTEX
  5
643
  8
0
 10
-93.0020751953125
 20
-57.51124954223633
 30
16.33110618591309
 70
   192
  0
VERTEX
  5
644
  8
0
 10
-93.0020751953125
 20
-41.18711090087891
 30
-4.917007446289062
 70
   192
  0
VERTEX
  5
645
  8
0
 10
-93.0020751953125
 20
-44.68216705322266
 30
3.515605926513672
 70
   192
  0
VERTEX
  5
646
  8
0
 10
-93.0020751953125
 20
-84.08731842041016
 30
19.81200790405273
 70
   192
  0
VERTEX
  5
647
  8
0
 10
-93.0020751953125
 20
-75.02987670898438
 30
21.00983428955078
 70
   192
  0
VERTEX
  5
648
  8
0
 10
-93.0020751953125
 20
-65.94935607910156
 30
19.82464408874512
 70
   192
  0
VERTEX
  5
649
  8
0
 10
-93.0020751953125
 20
-105.3368453979492
 30
3.478251457214355
 70
   192
  0
VERTEX
  5
64A
  8
0
 10
-93.0020751953125
 20
-92.53038787841797
 30
16.3076000213623
 70
   192
  0
VERTEX
  5
64B
  8
0
 10
-93.0020751953125
 20
-108.8270034790039
 30
-4.961297512054443
 70
   192
  0
VERTEX
  5
64C
  8
0
 10
-93.0020751953125
 20
-99.77345275878906
 30
10.74099349975586
 70
   192
  0
VERTEX
  5
64D
  8
0
 62
     9
 10
0.0
 20
0.0
 30
0.0
 70
   128
 71
     3
 72
     2
 73
     1
  0
VERTEX
  5
64E
  8
0
 62
     9
 10
0.0
 20
0.0
 30
0.0
 70
   128
 71
     1
 72
     4
 73
     3
  0
VERTEX
  5
64F
  8
0
 62
     9
 10
0.0
 20
0.0
 30
0.0
 70
   128
 71
     5
 72
     1
 73
     2
  0
VERTEX
  5
650
  8
0
 62
     9
 10
0.0
 20
0.0
 30
0.0
 70
   128
 71
     1
 72
     6
 73
     4
  0
VERTEX
  5
651
  8
0
 62
     9
 10
0.0
 20
0.0
 30
0.0
 70
   128
 71
     1
 72
     7
 73
     6
  0
VERTEX
  5
652
  8
0
 62
     9
 10
0.0
 20
0.0
 30
0.0
 70
   128
 71
     8
 72
     1
 73
     5
  0
VERTEX
  5
653
  8
0
 62
     9
 10
0.0
 20
0.0
 30
0.0
 70
   128
 71
    10
 72
     9
 73
     1
  0
VERTEX
  5
654
  8
0
 62
     9
 10
0.0
 20
0.0
 30
0.0
 70
   128
 71
     1
 72
    11
 73
    10
  0
VERTEX
  5
655
  8
0
 62
     9
 10
0.0
 20
0.0
 30
0.0
 70
   128
 71
    12
 72
     1
 73
     9
  0
VERTEX
  5
656
  8
0
 62
     9
 10
0.0
 20
0.0
 30
0.0
 70
   128
 71
     1
 72
    13
 73
    11
  0
VERTEX
  5
657
  8
0
 62
     9
 10
0.0
 20
0.0
 30
0.0
 70
   128
 71
     1
 72
     8
 73
    13
  0
VERTEX
  5
658
  8
0
 62
     9
 10
0.0
 20
0.0
 30
0.0
 70
   128
 71
    14
 72
     1
 73
    12
  0
VERTEX
  5
659
  8
0
 62
     9
 10
0.0
 20
0.0
 30
0.0
 70
   128
 71
    16
 72
    15
 73
     1
  0
VERTEX
  5
65A
  8
0
 62
     9
 10
0.0
 20
0.0
 30
0.0
 70
   128
 71
     1
 72
    17
 73
    16
  0
VERTEX
  5
65B
  8
0
 62
     9
 10
0.0
 20
0.0
 30
0.0
 70
   128
 71
    18
 72
     1
 73
    15
  0
VERTEX
  5
65C
  8
0
 62
     9
 10
0.0
 20
0.0
 30
0.0
 70
   128
 71
     1
 72
    19
 73
    17
  0
VERTEX
  5
65D
  8
0
 62
     9
 10
0.0
 20
0.0
 30
0.0
 70
   128
 71
     1
 72
    14
 73
    19
  0
VERTEX
  5
65E
  8
0
 62
     9
 10
0.0
 20
0.0
 30
0.0
 70
   128
 71
    20
 72
     1
 73
    18
  0
VERTEX
  5
65F
  8
0
 62
     9
 10
0.0
 20
0.0
 30
0.0
 70
   128
 71
    18
 72
    22
 73
    21
  0
VERTEX
  5
660
  8
0
 62
     9
 10
0.0
 20
0.0
 30
0.0
 70
   128
 71
    25
 72
    24
 73
    23
  0
VERTEX
  5
661
  8
0
 62
     9
 10
0.0
 20
0.0
 30
0.0
 70
   128
 71
    26
 72
    25
 73
    23
  0
VERTEX
  5
662
  8
0
 62
     9
 10
0.0
 20
0.0
 30
0.0
 70
   128
 71
    28
 72
    26
 73
    27
  0
VERTEX
  5
663
  8
0
 62
     9
 10
0.0
 20
0.0
 30
0.0
 70
   128
 71
    28
 72
    29
 73
     7
  0
VERTEX
  5
664
  8
0
 62
     9
 10
0.0
 20
0.0
 30
0.0
 70
   128
 71
    29
 72
    28
 73
    27
  0
VERTEX
  5
665
  8
0
 62
     9
 10
0.0
 20
0.0
 30
0.0
 70
   128
 71
    23
 72
    27
 73
    26
  0
VERTEX
  5
666
  8
0
 62
     9
 10
0.0
 20
0.0
 30
0.0
 70
   128
 71
    31
 72
    30
 73
    24
  0
VERTEX
  5
667
  8
0
 62
     9
 10
0.0
 20
0.0
 30
0.0
 70
   128
 71
    24
 72
    25
 73
    31
  0
VERTEX
  5
668
  8
0
 62
     9
 10
0.0
 20
0.0
 30
0.0
 70
   128
 71
    33
 72
    30
 73
    32
  0
VERTEX
  5
669
  8
0
 62
     9
 10
0.0
 20
0.0
 30
0.0
 70
   128
 71
    31
 72
    32
 73
    30
  0
VERTEX
  5
66A
  8
0
 62
     9
 10
0.0
 20
0.0
 30
0.0
 70
   128
 71
    33
 72
    20
 73
    21
  0
VERTEX
  5
66B
  8
0
 62
     9
 10
0.0
 20
0.0
 30
0.0
 70
   128
 71
    20
 72
    33
 73
    32
  0
VERTEX
  5
66C
  8
0
 62
     9
 10
0.0
 20
0.0
 30
0.0
 70
   128
 71
    22
 72
    15
 73
    34
  0
VERTEX
  5
66D
  8
0
 62
     9
 10
0.0
 20
0.0
 30
0.0
 70
   128
 71
    17
 72
    19
 73
    35
  0
VERTEX
  5
66E
  8
0
 62
     9
 10
0.0
 20
0.0
 30
0.0
 70
   128
 71
    36
 72
    16
 73
    17
  0
VERTEX
  5
66F
  8
0
 62
     9
 10
0.0
 20
0.0
 30
0.0
 70
   128
 71
    14
 72
    38
 73
    37
  0
VERTEX
  5
670
  8
0
 62
     9
 10
0.0
 20
0.0
 30
0.0
 70
   128
 71
    37
 72
    19
 73
    14
  0
VERTEX
  5
671
  8
0
 62
     9
 10
0.0
 20
0.0
 30
0.0
 70
   128
 71
    36
 72
    17
 73
    35
  0
VERTEX
  5
672
  8
0
 62
     9
 10
0.0
 20
0.0
 30
0.0
 70
   128
 71
    35
 72
    19
 73
    37
  0
VERTEX
  5
673
  8
0
 62
     9
 10
0.0
 20
0.0
 30
0.0
 70
   128
 71
    36
 72
    34
 73
    16
  0
VERTEX
  5
674
  8
0
 62
     9
 10
0.0
 20
0.0
 30
0.0
 70
   128
 71
    18
 72
    15
 73
    22
  0
VERTEX
  5
675
  8
0
 62
     9
 10
0.0
 20
0.0
 30
0.0
 70
   128
 71
    15
 72
    16
 73
    34
  0
VERTEX
  5
676
  8
0
 62
     9
 10
0.0
 20
0.0
 30
0.0
 70
   128
 71
    20
 72
    18
 73
    21
  0
VERTEX
  5
677
  8
0
 62
     9
 10
0.0
 20
0.0
 30
0.0
 70
   128
 71
    36
 72
    35
 73
    37
  0
VERTEX
  5
678
  8
0
 62
     9
 10
0.0
 20
0.0
 30
0.0
 70
   128
 71
    40
 72
    23
 73
    39
  0
VERTEX
  5
679
  8
0
 62
     9
 10
0.0
 20
0.0
 30
0.0
 70
   128
 71
    22
 72
    36
 73
    37
  0
VERTEX
  5
67A
  8
0
 62
     9
 10
0.0
 20
0.0
 30
0.0
 70
   128
 71
    22
 72
    34
 73
    36
  0
VERTEX
  5
67B
  8
0
 62
     9
 10
0.0
 20
0.0
 30
0.0
 70
   128
 71
    37
 72
    38
 73
    22
  0
VERTEX
  5
67C
  8
0
 62
     9
 10
0.0
 20
0.0
 30
0.0
 70
   128
 71
    41
 72
    33
 73
    21
  0
VERTEX
  5
67D
  8
0
 62
     9
 10
0.0
 20
0.0
 30
0.0
 70
   128
 71
    38
 72
    21
 73
    22
  0
VERTEX
  5
67E
  8
0
 62
     9
 10
0.0
 20
0.0
 30
0.0
 70
   128
 71
    24
 72
    39
 73
    23
  0
VERTEX
  5
67F
  8
0
 62
     9
 10
0.0
 20
0.0
 30
0.0
 70
   128
 71
    30
 72
    41
 73
    42
  0
VERTEX
  5
680
  8
0
 62
     9
 10
0.0
 20
0.0
 30
0.0
 70
   128
 71
    29
 72
    44
 73
    43
  0
VERTEX
  5
681
  8
0
 62
     9
 10
0.0
 20
0.0
 30
0.0
 70
   128
 71
    45
 72
    29
 73
    27
  0
VERTEX
  5
682
  8
0
 62
     9
 10
0.0
 20
0.0
 30
0.0
 70
   128
 71
    43
 72
    47
 73
    46
  0
VERTEX
  5
683
  8
0
 62
     9
 10
0.0
 20
0.0
 30
0.0
 70
   128
 71
    48
 72
    43
 73
    46
  0
VERTEX
  5
684
  8
0
 62
     9
 10
0.0
 20
0.0
 30
0.0
 70
   128
 71
    47
 72
    49
 73
    46
  0
VERTEX
  5
685
  8
0
 62
     9
 10
0.0
 20
0.0
 30
0.0
 70
   128
 71
    45
 72
    44
 73
    29
  0
VERTEX
  5
686
  8
0
 62
     9
 10
0.0
 20
0.0
 30
0.0
 70
   128
 71
    43
 72
    48
 73
    29
  0
VERTEX
  5
687
  8
0
 62
     9
 10
0.0
 20
0.0
 30
0.0
 70
   128
 71
    27
 72
    23
 73
    40
  0
VERTEX
  5
688
  8
0
 62
     9
 10
0.0
 20
0.0
 30
0.0
 70
   128
 71
    27
 72
    40
 73
    45
  0
VERTEX
  5
689
  8
0
 62
     9
 10
0.0
 20
0.0
 30
0.0
 70
   128
 71
    30
 72
    39
 73
    24
  0
VERTEX
  5
68A
  8
0
 62
     9
 10
0.0
 20
0.0
 30
0.0
 70
   128
 71
    39
 72
    30
 73
    42
  0
VERTEX
  5
68B
  8
0
 62
     9
 10
0.0
 20
0.0
 30
0.0
 70
   128
 71
    38
 72
    41
 73
    21
  0
VERTEX
  5
68C
  8
0
 62
     9
 10
0.0
 20
0.0
 30
0.0
 70
   128
 71
    41
 72
    30
 73
    33
  0
VERTEX
  5
68D
  8
0
 62
     9
 10
0.0
 20
0.0
 30
0.0
 70
   128
 71
     6
 72
     7
 73
    48
  0
VERTEX
  5
68E
  8
0
 62
     9
 10
0.0
 20
0.0
 30
0.0
 70
   128
 71
    46
 72
    49
 73
     4
  0
VERTEX
  5
68F
  8
0
 62
     9
 10
0.0
 20
0.0
 30
0.0
 70
   128
 71
    44
 72
     8
 73
     5
  0
VERTEX
  5
690
  8
0
 62
     9
 10
0.0
 20
0.0
 30
0.0
 70
   128
 71
     2
 72
    47
 73
    43
  0
VERTEX
  5
691
  8
0
 62
     9
 10
0.0
 20
0.0
 30
0.0
 70
   128
 71
    40
 72
    39
 73
    11
  0
VERTEX
  5
692
  8
0
 62
     9
 10
0.0
 20
0.0
 30
0.0
 70
   128
 71
    13
 72
    45
 73
    40
  0
VERTEX
  5
693
  8
0
 62
     9
 10
0.0
 20
0.0
 30
0.0
 70
   128
 71
    42
 72
     9
 73
    10
  0
VERTEX
  5
694
  8
0
 62
     9
 10
0.0
 20
0.0
 30
0.0
 70
   128
 71
    10
 72
    39
 73
    42
  0
VERTEX
  5
695
  8
0
 62
     9
 10
0.0
 20
0.0
 30
0.0
 70
   128
 71
    12
 72
     9
 73
    41
  0
VERTEX
  5
696
  8
0
 62
     9
 10
0.0
 20
0.0
 30
0.0
 70
   128
 71
    42
 72
    41
 73
     9
  0
VERTEX
  5
697
  8
0
 62
     9
 10
0.0
 20
0.0
 30
0.0
 70
   128
 71
    12
 72
    38
 73
    14
  0
VERTEX
  5
698
  8
0
 62
     9
 10
0.0
 20
0.0
 30
0.0
 70
   128
 71
    38
 72
    12
 73
    41
  0
VERTEX
  5
699
  8
0
 62
     9
 10
0.0
 20
0.0
 30
0.0
 70
   128
 71
    10
 72
    11
 73
    39
  0
VERTEX
  5
69A
  8
0
 62
     9
 10
0.0
 20
0.0
 30
0.0
 70
   128
 71
    47
 72
     2
 73
     3
  0
VERTEX
  5
69B
  8
0
 62
     9
 10
0.0
 20
0.0
 30
0.0
 70
   128
 71
    13
 72
    40
 73
    11
  0
VERTEX
  5
69C
  8
0
 62
     9
 10
0.0
 20
0.0
 30
0.0
 70
   128
 71
    45
 72
     8
 73
    44
  0
VERTEX
  5
69D
  8
0
 62
     9
 10
0.0
 20
0.0
 30
0.0
 70
   128
 71
     8
 72
    45
 73
    13
  0
VERTEX
  5
69E
  8
0
 62
     9
 10
0.0
 20
0.0
 30
0.0
 70
   128
 71
     6
 72
    46
 73
     4
  0
VERTEX
  5
69F
  8
0
 62
     9
 10
0.0
 20
0.0
 30
0.0
 70
   128
 71
     5
 72
     2
 73
    43
  0
VERTEX
  5
6A0
  8
0
 62
     9
 10
0.0
 20
0.0
 30
0.0
 70
   128
 71
    44
 72
     5
 73
    43
  0
VERTEX
  5
6A1
  8
0
 62
     9
 10
0.0
 20
0.0
 30
0.0
 70
   128
 71
     4
 72
    49
 73
     3
  0
VERTEX
  5
6A2
  8
0
 62
     9
 10
0.0
 20
0.0
 30
0.0
 70
   128
 71
     3
 72
    49
 73
    47
  0
VERTEX
  5
6A3
  8
0
 62
     9
 10
0.0
 20
0.0
 30
0.0
 70
   128
 71
    29
 72
    48
 73
     7
  0
VERTEX
  5
6A4
  8
0
 62
     9
 10
0.0
 20
0.0
 30
0.0
 70
   128
 71
     6
 72
    48
 73
    46
  0
VERTEX
  5
6A5
  8
0
 62
     9
 10
0.0
 20
0.0
 30
0.0
 70
   128
 71
    26
 72
    28
 73
     1
  0
VERTEX
  5
6A6
  8
0
 62
     9
 10
0.0
 20
0.0
 30
0.0
 70
   128
 71
     1
 72
    25
 73
    26
  0
VERTEX
  5
6A7
  8
0
 62
     9
 10
0.0
 20
0.0
 30
0.0
 70
   128
 71
    28
 72
     7
 73
     1
  0
VERTEX
  5
6A8
  8
0
 62
     9
 10
0.0
 20
0.0
 30
0.0
 70
   128
 71
     1
 72
    32
 73
    31
  0
VERTEX
  5
6A9
  8
0
 62
     9
 10
0.0
 20
0.0
 30
0.0
 70
   128
 71
    25
 72
     1
 73
    31
  0
VERTEX
  5
6AA
  8
0
 62
     9
 10
0.0
 20
0.0
 30
0.0
 70
   128
 71
    32
 72
     1
 73
    20
  0
SEQEND
  5
6AB
  8
0
 62
     9
  0
ENDBLK
  5
6AE
  8
0
  0
BLOCK
  8
0
  2
48
 70
     0
 10
0.0
 20
0.0
 30
0.0
  3
48
  1

  0
POLYLINE
  5
6B0
  8
0
 62
     9
 66
     1
 10
0.0
 20
0.0
 30
0.0
 70
    64
 71
    48
 72
    48
  0
VERTEX
  5
6B1
  8
0
 10
-41.00161743164062
 20
56.17629623413086
 30
-19.06044578552246
 70
   192
  0
VERTEX
  5
6B2
  8
0
 10
-68.00161743164062
 20
55.5
 30
-14.0
 70
   192
  0
VERTEX
  5
6B3
  8
0
 10
-41.00161743164062
 20
55.5
 30
-14.0
 70
   192
  0
VERTEX
  5
6B4
  8
0
 10
-68.00161743164062
 20
56.16379928588867
 30
-19.03964424133301
 70
   192
  0
VERTEX
  5
6B5
  8
0
 10
-41.00161743164062
 20
58.13432312011719
 30
-23.75687599182129
 70
   192
  0
VERTEX
  5
6B6
  8
0
 10
-41.00161743164062
 20
61.22856140136719
 30
-27.78430366516113
 70
   192
  0
VERTEX
  5
6B7
  8
0
 10
-68.00161743164062
 20
58.10284423828125
 30
-23.74782562255859
 70
   192
  0
VERTEX
  5
6B8
  8
0
 10
-41.00161743164062
 20
65.27118682861328
 30
-30.88396453857422
 70
   192
  0
VERTEX
  5
6B9
  8
0
 10
-68.00161743164062
 20
61.20803070068359
 30
-27.79962730407715
 70
   192
  0
VERTEX
  5
6BA
  8
0
 10
-68.00161743164062
 20
65.24374389648438
 30
-30.89468002319336
 70
   192
  0
VERTEX
  5
6BB
  8
0
 10
-41.00161743164062
 20
69.96834564208984
 30
-32.82845687866211
 70
   192
  0
VERTEX
  5
6BC
  8
0
 10
-41.00161743164062
 20
75.0
 30
-33.5
 70
   192
  0
VERTEX
  5
6BD
  8
0
 10
-68.00161743164062
 20
69.94487762451172
 30
-32.84359359741211
 70
   192
  0
VERTEX
  5
6BE
  8
0
 10
-68.00161743164062
 20
75.0
 30
-33.5
 70
   192
  0
VERTEX
  5
6BF
  8
0
 10
-68.00161743164062
 20
56.17629623413086
 30
-8.939555168151855
 70
   192
  0
VERTEX
  5
6C0
  8
0
 10
-68.00161743164062
 20
58.13432312011719
 30
-4.243124008178711
 70
   192
  0
VERTEX
  5
6C1
  8
0
 10
-41.00161743164062
 20
56.16379928588867
 30
-8.960355758666992
 70
   192
  0
VERTEX
  5
6C2
  8
0
 10
-68.00161743164062
 20
61.22856140136719
 30
-0.2156960964202881
 70
   192
  0
VERTEX
  5
6C3
  8
0
 10
-41.00161743164062
 20
58.10284423828125
 30
-4.252174854278564
 70
   192
  0
VERTEX
  5
6C4
  8
0
 10
-41.00161743164062
 20
61.20803070068359
 30
-0.2003717571496964
 70
   192
  0
VERTEX
  5
6C5
  8
0
 10
-68.00161743164062
 20
65.27118682861328
 30
2.883965253829956
 70
   192
  0
VERTEX
  5
6C6
  8
0
 10
-68.00161743164062
 20
69.96834564208984
 30
4.828455448150635
 70
   192
  0
VERTEX
  5
6C7
  8
0
 10
-41.00161743164062
 20
65.24374389648438
 30
2.894680261611938
 70
   192
  0
VERTEX
  5
6C8
  8
0
 10
-68.00161743164062
 20
75.0
 30
5.5
 70
   192
  0
VERTEX
  5
6C9
  8
0
 10
-41.00161743164062
 20
69.94487762451172
 30
4.843594074249268
 70
   192
  0
VERTEX
  5
6CA
  8
0
 10
-41.00161743164062
 20
75.0
 30
5.5
 70
   192
  0
VERTEX
  5
6CB
  8
0
 10
-41.00161743164062
 20
80.05512237548828
 30
-32.84359359741211
 70
   192
  0
VERTEX
  5
6CC
  8
0
 10
-68.00161743164062
 20
80.03165435791016
 30
-32.82845687866211
 70
   192
  0
VERTEX
  5
6CD
  8
0
 10
-41.00161743164062
 20
93.83619689941406
 30
-19.03964424133301
 70
   192
  0
VERTEX
  5
6CE
  8
0
 10
-68.00161743164062
 20
91.86567687988281
 30
-23.75687599182129
 70
   192
  0
VERTEX
  5
6CF
  8
0
 10
-41.00161743164062
 20
91.89715576171875
 30
-23.74782562255859
 70
   192
  0
VERTEX
  5
6D0
  8
0
 10
-68.00161743164062
 20
84.72881317138672
 30
-30.88396453857422
 70
   192
  0
VERTEX
  5
6D1
  8
0
 10
-41.00161743164062
 20
84.75625610351562
 30
-30.89468002319336
 70
   192
  0
VERTEX
  5
6D2
  8
0
 10
-41.00161743164062
 20
88.7919692993164
 30
-27.79962730407715
 70
   192
  0
VERTEX
  5
6D3
  8
0
 10
-41.00161743164062
 20
93.82369995117188
 30
-8.939555168151855
 70
   192
  0
VERTEX
  5
6D4
  8
0
 10
-41.00161743164062
 20
91.86567687988281
 30
-4.243124008178711
 70
   192
  0
VERTEX
  5
6D5
  8
0
 10
-68.00161743164062
 20
93.83619689941406
 30
-8.960355758666992
 70
   192
  0
VERTEX
  5
6D6
  8
0
 10
-68.00161743164062
 20
93.82369995117188
 30
-19.06044578552246
 70
   192
  0
VERTEX
  5
6D7
  8
0
 10
-41.00161743164062
 20
94.5
 30
-14.0
 70
   192
  0
VERTEX
  5
6D8
  8
0
 10
-68.00161743164062
 20
94.5
 30
-14.0
 70
   192
  0
VERTEX
  5
6D9
  8
0
 10
-41.00161743164062
 20
88.77143859863281
 30
-0.2156960964202881
 70
   192
  0
VERTEX
  5
6DA
  8
0
 10
-41.00161743164062
 20
84.72881317138672
 30
2.883965253829956
 70
   192
  0
VERTEX
  5
6DB
  8
0
 10
-68.00161743164062
 20
88.7919692993164
 30
-0.2003717571496964
 70
   192
  0
VERTEX
  5
6DC
  8
0
 10
-68.00161743164062
 20
91.89715576171875
 30
-4.252174854278564
 70
   192
  0
VERTEX
  5
6DD
  8
0
 10
-41.00161743164062
 20
80.03165435791016
 30
4.828455448150635
 70
   192
  0
VERTEX
  5
6DE
  8
0
 10
-68.00161743164062
 20
84.75625610351562
 30
2.894680261611938
 70
   192
  0
VERTEX
  5
6DF
  8
0
 10
-68.00161743164062
 20
80.05512237548828
 30
4.843594074249268
 70
   192
  0
VERTEX
  5
6E0
  8
0
 10
-68.00161743164062
 20
88.77143859863281
 30
-27.78430366516113
 70
   192
  0
VERTEX
  5
6E1
  8
0
 62
     9
 10
0.0
 20
0.0
 30
0.0
 70
   128
 71
     3
 72
     2
 73
     1
  0
VERTEX
  5
6E2
  8
0
 62
     9
 10
0.0
 20
0.0
 30
0.0
 70
   128
 71
     5
 72
     1
 73
     4
  0
VERTEX
  5
6E3
  8
0
 62
     9
 10
0.0
 20
0.0
 30
0.0
 70
   128
 71
     2
 72
     4
 73
     1
  0
VERTEX
  5
6E4
  8
0
 62
     9
 10
0.0
 20
0.0
 30
0.0
 70
   128
 71
     7
 72
     6
 73
     5
  0
VERTEX
  5
6E5
  8
0
 62
     9
 10
0.0
 20
0.0
 30
0.0
 70
   128
 71
     5
 72
     4
 73
     7
  0
VERTEX
  5
6E6
  8
0
 62
     9
 10
0.0
 20
0.0
 30
0.0
 70
   128
 71
     6
 72
     9
 73
     8
  0
VERTEX
  5
6E7
  8
0
 62
     9
 10
0.0
 20
0.0
 30
0.0
 70
   128
 71
     9
 72
     6
 73
     7
  0
VERTEX
  5
6E8
  8
0
 62
     9
 10
0.0
 20
0.0
 30
0.0
 70
   128
 71
    11
 72
     8
 73
    10
  0
VERTEX
  5
6E9
  8
0
 62
     9
 10
0.0
 20
0.0
 30
0.0
 70
   128
 71
     9
 72
    10
 73
     8
  0
VERTEX
  5
6EA
  8
0
 62
     9
 10
0.0
 20
0.0
 30
0.0
 70
   128
 71
    13
 72
    12
 73
    11
  0
VERTEX
  5
6EB
  8
0
 62
     9
 10
0.0
 20
0.0
 30
0.0
 70
   128
 71
    11
 72
    10
 73
    13
  0
VERTEX
  5
6EC
  8
0
 62
     9
 10
0.0
 20
0.0
 30
0.0
 70
   128
 71
    14
 72
    12
 73
    13
  0
VERTEX
  5
6ED
  8
0
 62
     9
 10
0.0
 20
0.0
 30
0.0
 70
   128
 71
    15
 72
     2
 73
     3
  0
VERTEX
  5
6EE
  8
0
 62
     9
 10
0.0
 20
0.0
 30
0.0
 70
   128
 71
    17
 72
    16
 73
    15
  0
VERTEX
  5
6EF
  8
0
 62
     9
 10
0.0
 20
0.0
 30
0.0
 70
   128
 71
    15
 72
     3
 73
    17
  0
VERTEX
  5
6F0
  8
0
 62
     9
 10
0.0
 20
0.0
 30
0.0
 70
   128
 71
    16
 72
    19
 73
    18
  0
VERTEX
  5
6F1
  8
0
 62
     9
 10
0.0
 20
0.0
 30
0.0
 70
   128
 71
    19
 72
    16
 73
    17
  0
VERTEX
  5
6F2
  8
0
 62
     9
 10
0.0
 20
0.0
 30
0.0
 70
   128
 71
    21
 72
    18
 73
    20
  0
VERTEX
  5
6F3
  8
0
 62
     9
 10
0.0
 20
0.0
 30
0.0
 70
   128
 71
    19
 72
    20
 73
    18
  0
VERTEX
  5
6F4
  8
0
 62
     9
 10
0.0
 20
0.0
 30
0.0
 70
   128
 71
    23
 72
    22
 73
    21
  0
VERTEX
  5
6F5
  8
0
 62
     9
 10
0.0
 20
0.0
 30
0.0
 70
   128
 71
    21
 72
    20
 73
    23
  0
VERTEX
  5
6F6
  8
0
 62
     9
 10
0.0
 20
0.0
 30
0.0
 70
   128
 71
    22
 72
    25
 73
    24
  0
VERTEX
  5
6F7
  8
0
 62
     9
 10
0.0
 20
0.0
 30
0.0
 70
   128
 71
    25
 72
    22
 73
    23
  0
VERTEX
  5
6F8
  8
0
 62
     9
 10
0.0
 20
0.0
 30
0.0
 70
   128
 71
    25
 72
    26
 73
    24
  0
VERTEX
  5
6F9
  8
0
 62
     9
 10
0.0
 20
0.0
 30
0.0
 70
   128
 71
    14
 72
    28
 73
    27
  0
VERTEX
  5
6FA
  8
0
 62
     9
 10
0.0
 20
0.0
 30
0.0
 70
   128
 71
    31
 72
    30
 73
    29
  0
VERTEX
  5
6FB
  8
0
 62
     9
 10
0.0
 20
0.0
 30
0.0
 70
   128
 71
    34
 72
    33
 73
    32
  0
VERTEX
  5
6FC
  8
0
 62
     9
 10
0.0
 20
0.0
 30
0.0
 70
   128
 71
    37
 72
    36
 73
    35
  0
VERTEX
  5
6FD
  8
0
 62
     9
 10
0.0
 20
0.0
 30
0.0
 70
   128
 71
    40
 72
    39
 73
    38
  0
VERTEX
  5
6FE
  8
0
 62
     9
 10
0.0
 20
0.0
 30
0.0
 70
   128
 71
    43
 72
    42
 73
    41
  0
VERTEX
  5
6FF
  8
0
 62
     9
 10
0.0
 20
0.0
 30
0.0
 70
   128
 71
    41
 72
    36
 73
    44
  0
VERTEX
  5
700
  8
0
 62
     9
 10
0.0
 20
0.0
 30
0.0
 70
   128
 71
    42
 72
    46
 73
    45
  0
VERTEX
  5
701
  8
0
 62
     9
 10
0.0
 20
0.0
 30
0.0
 70
   128
 71
    46
 72
    42
 73
    43
  0
VERTEX
  5
702
  8
0
 62
     9
 10
0.0
 20
0.0
 30
0.0
 70
   128
 71
    26
 72
    45
 73
    47
  0
VERTEX
  5
703
  8
0
 62
     9
 10
0.0
 20
0.0
 30
0.0
 70
   128
 71
    46
 72
    47
 73
    45
  0
VERTEX
  5
704
  8
0
 62
     9
 10
0.0
 20
0.0
 30
0.0
 70
   128
 71
    26
 72
    47
 73
    24
  0
VERTEX
  5
705
  8
0
 62
     9
 10
0.0
 20
0.0
 30
0.0
 70
   128
 71
    36
 72
    37
 73
    44
  0
VERTEX
  5
706
  8
0
 62
     9
 10
0.0
 20
0.0
 30
0.0
 70
   128
 71
    43
 72
    41
 73
    44
  0
VERTEX
  5
707
  8
0
 62
     9
 10
0.0
 20
0.0
 30
0.0
 70
   128
 71
    40
 72
    35
 73
    39
  0
VERTEX
  5
708
  8
0
 62
     9
 10
0.0
 20
0.0
 30
0.0
 70
   128
 71
    37
 72
    35
 73
    40
  0
VERTEX
  5
709
  8
0
 62
     9
 10
0.0
 20
0.0
 30
0.0
 70
   128
 71
    30
 72
    38
 73
    29
  0
VERTEX
  5
70A
  8
0
 62
     9
 10
0.0
 20
0.0
 30
0.0
 70
   128
 71
    38
 72
    39
 73
    29
  0
VERTEX
  5
70B
  8
0
 62
     9
 10
0.0
 20
0.0
 30
0.0
 70
   128
 71
    34
 72
    48
 73
    31
  0
VERTEX
  5
70C
  8
0
 62
     9
 10
0.0
 20
0.0
 30
0.0
 70
   128
 71
    48
 72
    30
 73
    31
  0
VERTEX
  5
70D
  8
0
 62
     9
 10
0.0
 20
0.0
 30
0.0
 70
   128
 71
    33
 72
    28
 73
    32
  0
VERTEX
  5
70E
  8
0
 62
     9
 10
0.0
 20
0.0
 30
0.0
 70
   128
 71
    34
 72
    32
 73
    48
  0
VERTEX
  5
70F
  8
0
 62
     9
 10
0.0
 20
0.0
 30
0.0
 70
   128
 71
    27
 72
    12
 73
    14
  0
VERTEX
  5
710
  8
0
 62
     9
 10
0.0
 20
0.0
 30
0.0
 70
   128
 71
    33
 72
    27
 73
    28
  0
SEQEND
  5
711
  8
0
 62
     9
  0
ENDBLK
  5
714
  8
0
  0
BLOCK
  8
0
  2
49
 70
     0
 10
0.0
 20
0.0
 30
0.0
  3
49
  1

  0
POLYLINE
  5
716
  8
0
 62
     9
 66
     1
 10
0.0
 20
0.0
 30
0.0
 70
    64
 71
    49
 72
    94
  0
VERTEX
  5
717
  8
0
 10
-59.80207443237305
 20
75.0
 30
-14.0
 70
   192
  0
VERTEX
  5
718
  8
0
 10
-60.38566970825195
 20
57.90836715698242
 30
15.54449081420898
 70
   192
  0
VERTEX
  5
719
  8
0
 10
-60.38566970825195
 20
50.85330963134766
 30
10.12414932250977
 70
   192
  0
VERTEX
  5
71A
  8
0
 10
-60.38566970825195
 20
45.4234733581543
 30
3.042467832565308
 70
   192
  0
VERTEX
  5
71B
  8
0
 10
-60.38566970825195
 20
66.1353530883789
 30
18.97446823120117
 70
   192
  0
VERTEX
  5
71C
  8
0
 10
-60.38566970825195
 20
42.01720809936523
 30
-5.185783863067627
 70
   192
  0
VERTEX
  5
71D
  8
0
 10
-60.38566970825195
 20
40.84082794189453
 30
-14.0
 70
   192
  0
VERTEX
  5
71E
  8
0
 10
-60.38566970825195
 20
75.0
 30
20.1591739654541
 70
   192
  0
VERTEX
  5
71F
  8
0
 10
-60.38566970825195
 20
104.5952987670898
 30
3.090541839599609
 70
   192
  0
VERTEX
  5
720
  8
0
 10
-60.38566970825195
 20
99.17353057861328
 30
10.16011905670166
 70
   192
  0
VERTEX
  5
721
  8
0
 10
-60.38566970825195
 20
92.07573699951172
 30
15.60000991821289
 70
   192
  0
VERTEX
  5
722
  8
0
 10
-60.38566970825195
 20
108.0093154907227
 30
-5.14468240737915
 70
   192
  0
VERTEX
  5
723
  8
0
 10
-60.38566970825195
 20
83.82852172851562
 30
18.99335670471191
 70
   192
  0
VERTEX
  5
724
  8
0
 10
-60.38566970825195
 20
109.1591720581055
 30
-14.0
 70
   192
  0
VERTEX
  5
725
  8
0
 10
-60.38566970825195
 20
92.09162902832031
 30
-43.54449081420898
 70
   192
  0
VERTEX
  5
726
  8
0
 10
-60.38566970825195
 20
99.14669036865234
 30
-38.12414932250977
 70
   192
  0
VERTEX
  5
727
  8
0
 10
-60.38566970825195
 20
104.576530456543
 30
-31.04246711730957
 70
   192
  0
VERTEX
  5
728
  8
0
 10
-60.38566970825195
 20
83.8646469116211
 30
-46.97446823120117
 70
   192
  0
VERTEX
  5
729
  8
0
 10
-60.38566970825195
 20
107.982795715332
 30
-22.81421661376953
 70
   192
  0
VERTEX
  5
72A
  8
0
 10
-60.38566970825195
 20
75.0
 30
-48.15917205810547
 70
   192
  0
VERTEX
  5
72B
  8
0
 10
-93.0020751953125
 20
75.02788543701172
 30
-49.01079559326172
 70
   192
  0
VERTEX
  5
72C
  8
0
 10
-93.0020751953125
 20
84.08357238769531
 30
-47.81283187866211
 70
   192
  0
VERTEX
  5
72D
  8
0
 10
-93.0020751953125
 20
44.68930053710938
 30
-31.52786827087402
 70
   192
  0
VERTEX
  5
72E
  8
0
 10
-93.0020751953125
 20
50.26022720336914
 30
-38.77375411987305
 70
   192
  0
VERTEX
  5
72F
  8
0
 10
-60.38566970825195
 20
50.84581756591797
 30
-38.15418243408203
 70
   192
  0
VERTEX
  5
730
  8
0
 10
-60.38566970825195
 20
45.20328140258789
 30
-30.67938995361328
 70
   192
  0
VERTEX
  5
731
  8
0
 10
-93.0020751953125
 20
41.18826293945312
 30
-23.08888816833496
 70
   192
  0
VERTEX
  5
732
  8
0
 10
-60.38566970825195
 20
41.88071060180664
 30
-22.31925392150879
 70
   192
  0
VERTEX
  5
733
  8
0
 10
-93.0020751953125
 20
39.99359512329102
 30
-14.00000190734863
 70
   192
  0
VERTEX
  5
734
  8
0
 10
-93.0020751953125
 20
57.52083206176758
 30
-44.33640289306641
 70
   192
  0
VERTEX
  5
735
  8
0
 10
-60.38566970825195
 20
58.27429962158203
 30
-43.78844451904297
 70
   192
  0
VERTEX
  5
736
  8
0
 10
-60.38566970825195
 20
66.63829040527344
 30
-47.12860107421875
 70
   192
  0
VERTEX
  5
737
  8
0
 10
-93.0020751953125
 20
65.96021270751953
 30
-47.82574081420898
 70
   192
  0
VERTEX
  5
738
  8
0
 10
-93.0020751953125
 20
92.51640319824219
 30
-44.31811141967773
 70
   192
  0
VERTEX
  5
739
  8
0
 10
-93.0020751953125
 20
105.3291931152344
 30
-31.49247741699219
 70
   192
  0
VERTEX
  5
73A
  8
0
 10
-93.0020751953125
 20
99.77774047851562
 30
-38.73237609863281
 70
   192
  0
VERTEX
  5
73B
  8
0
 10
-93.0020751953125
 20
108.8224182128906
 30
-23.05631256103516
 70
   192
  0
VERTEX
  5
73C
  8
0
 10
-93.0020751953125
 20
110.0132675170898
 30
-14.0
 70
   192
  0
VERTEX
  5
73D
  8
0
 10
-93.0020751953125
 20
99.73436737060547
 30
10.77692890167236
 70
   192
  0
VERTEX
  5
73E
  8
0
 10
-93.0020751953125
 20
92.4887466430664
 30
16.33110618591309
 70
   192
  0
VERTEX
  5
73F
  8
0
 10
-93.0020751953125
 20
108.8128890991211
 30
-4.917007446289062
 70
   192
  0
VERTEX
  5
740
  8
0
 10
-93.0020751953125
 20
105.3178329467773
 30
3.515605926513672
 70
   192
  0
VERTEX
  5
741
  8
0
 10
-93.0020751953125
 20
65.91268157958984
 30
19.81200790405273
 70
   192
  0
VERTEX
  5
742
  8
0
 10
-93.0020751953125
 20
74.97012329101562
 30
21.00983428955078
 70
   192
  0
VERTEX
  5
743
  8
0
 10
-93.0020751953125
 20
84.05064392089844
 30
19.82464408874512
 70
   192
  0
VERTEX
  5
744
  8
0
 10
-93.0020751953125
 20
44.66315078735352
 30
3.478251457214355
 70
   192
  0
VERTEX
  5
745
  8
0
 10
-93.0020751953125
 20
57.46961212158203
 30
16.3076000213623
 70
   192
  0
VERTEX
  5
746
  8
0
 10
-93.0020751953125
 20
41.17299652099609
 30
-4.961297512054443
 70
   192
  0
VERTEX
  5
747
  8
0
 10
-93.0020751953125
 20
50.22654724121094
 30
10.74099349975586
 70
   192
  0
VERTEX
  5
748
  8
0
 62
     9
 10
0.0
 20
0.0
 30
0.0
 70
   128
 71
     3
 72
     2
 73
     1
  0
VERTEX
  5
749
  8
0
 62
     9
 10
0.0
 20
0.0
 30
0.0
 70
   128
 71
     1
 72
     4
 73
     3
  0
VERTEX
  5
74A
  8
0
 62
     9
 10
0.0
 20
0.0
 30
0.0
 70
   128
 71
     5
 72
     1
 73
     2
  0
VERTEX
  5
74B
  8
0
 62
     9
 10
0.0
 20
0.0
 30
0.0
 70
   128
 71
     1
 72
     6
 73
     4
  0
VERTEX
  5
74C
  8
0
 62
     9
 10
0.0
 20
0.0
 30
0.0
 70
   128
 71
     1
 72
     7
 73
     6
  0
VERTEX
  5
74D
  8
0
 62
     9
 10
0.0
 20
0.0
 30
0.0
 70
   128
 71
     8
 72
     1
 73
     5
  0
VERTEX
  5
74E
  8
0
 62
     9
 10
0.0
 20
0.0
 30
0.0
 70
   128
 71
    10
 72
     9
 73
     1
  0
VERTEX
  5
74F
  8
0
 62
     9
 10
0.0
 20
0.0
 30
0.0
 70
   128
 71
     1
 72
    11
 73
    10
  0
VERTEX
  5
750
  8
0
 62
     9
 10
0.0
 20
0.0
 30
0.0
 70
   128
 71
    12
 72
     1
 73
     9
  0
VERTEX
  5
751
  8
0
 62
     9
 10
0.0
 20
0.0
 30
0.0
 70
   128
 71
     1
 72
    13
 73
    11
  0
VERTEX
  5
752
  8
0
 62
     9
 10
0.0
 20
0.0
 30
0.0
 70
   128
 71
     1
 72
     8
 73
    13
  0
VERTEX
  5
753
  8
0
 62
     9
 10
0.0
 20
0.0
 30
0.0
 70
   128
 71
    14
 72
     1
 73
    12
  0
VERTEX
  5
754
  8
0
 62
     9
 10
0.0
 20
0.0
 30
0.0
 70
   128
 71
    16
 72
    15
 73
     1
  0
VERTEX
  5
755
  8
0
 62
     9
 10
0.0
 20
0.0
 30
0.0
 70
   128
 71
     1
 72
    17
 73
    16
  0
VERTEX
  5
756
  8
0
 62
     9
 10
0.0
 20
0.0
 30
0.0
 70
   128
 71
    18
 72
     1
 73
    15
  0
VERTEX
  5
757
  8
0
 62
     9
 10
0.0
 20
0.0
 30
0.0
 70
   128
 71
     1
 72
    19
 73
    17
  0
VERTEX
  5
758
  8
0
 62
     9
 10
0.0
 20
0.0
 30
0.0
 70
   128
 71
     1
 72
    14
 73
    19
  0
VERTEX
  5
759
  8
0
 62
     9
 10
0.0
 20
0.0
 30
0.0
 70
   128
 71
    20
 72
     1
 73
    18
  0
VERTEX
  5
75A
  8
0
 62
     9
 10
0.0
 20
0.0
 30
0.0
 70
   128
 71
    18
 72
    22
 73
    21
  0
VERTEX
  5
75B
  8
0
 62
     9
 10
0.0
 20
0.0
 30
0.0
 70
   128
 71
    25
 72
    24
 73
    23
  0
VERTEX
  5
75C
  8
0
 62
     9
 10
0.0
 20
0.0
 30
0.0
 70
   128
 71
    26
 72
    25
 73
    23
  0
VERTEX
  5
75D
  8
0
 62
     9
 10
0.0
 20
0.0
 30
0.0
 70
   128
 71
    28
 72
    26
 73
    27
  0
VERTEX
  5
75E
  8
0
 62
     9
 10
0.0
 20
0.0
 30
0.0
 70
   128
 71
    28
 72
    29
 73
     7
  0
VERTEX
  5
75F
  8
0
 62
     9
 10
0.0
 20
0.0
 30
0.0
 70
   128
 71
    29
 72
    28
 73
    27
  0
VERTEX
  5
760
  8
0
 62
     9
 10
0.0
 20
0.0
 30
0.0
 70
   128
 71
    23
 72
    27
 73
    26
  0
VERTEX
  5
761
  8
0
 62
     9
 10
0.0
 20
0.0
 30
0.0
 70
   128
 71
    31
 72
    30
 73
    24
  0
VERTEX
  5
762
  8
0
 62
     9
 10
0.0
 20
0.0
 30
0.0
 70
   128
 71
    24
 72
    25
 73
    31
  0
VERTEX
  5
763
  8
0
 62
     9
 10
0.0
 20
0.0
 30
0.0
 70
   128
 71
    33
 72
    30
 73
    32
  0
VERTEX
  5
764
  8
0
 62
     9
 10
0.0
 20
0.0
 30
0.0
 70
   128
 71
    31
 72
    32
 73
    30
  0
VERTEX
  5
765
  8
0
 62
     9
 10
0.0
 20
0.0
 30
0.0
 70
   128
 71
    33
 72
    20
 73
    21
  0
VERTEX
  5
766
  8
0
 62
     9
 10
0.0
 20
0.0
 30
0.0
 70
   128
 71
    20
 72
    33
 73
    32
  0
VERTEX
  5
767
  8
0
 62
     9
 10
0.0
 20
0.0
 30
0.0
 70
   128
 71
    22
 72
    15
 73
    34
  0
VERTEX
  5
768
  8
0
 62
     9
 10
0.0
 20
0.0
 30
0.0
 70
   128
 71
    17
 72
    19
 73
    35
  0
VERTEX
  5
769
  8
0
 62
     9
 10
0.0
 20
0.0
 30
0.0
 70
   128
 71
    36
 72
    16
 73
    17
  0
VERTEX
  5
76A
  8
0
 62
     9
 10
0.0
 20
0.0
 30
0.0
 70
   128
 71
    14
 72
    38
 73
    37
  0
VERTEX
  5
76B
  8
0
 62
     9
 10
0.0
 20
0.0
 30
0.0
 70
   128
 71
    37
 72
    19
 73
    14
  0
VERTEX
  5
76C
  8
0
 62
     9
 10
0.0
 20
0.0
 30
0.0
 70
   128
 71
    36
 72
    17
 73
    35
  0
VERTEX
  5
76D
  8
0
 62
     9
 10
0.0
 20
0.0
 30
0.0
 70
   128
 71
    35
 72
    19
 73
    37
  0
VERTEX
  5
76E
  8
0
 62
     9
 10
0.0
 20
0.0
 30
0.0
 70
   128
 71
    36
 72
    34
 73
    16
  0
VERTEX
  5
76F
  8
0
 62
     9
 10
0.0
 20
0.0
 30
0.0
 70
   128
 71
    18
 72
    15
 73
    22
  0
VERTEX
  5
770
  8
0
 62
     9
 10
0.0
 20
0.0
 30
0.0
 70
   128
 71
    15
 72
    16
 73
    34
  0
VERTEX
  5
771
  8
0
 62
     9
 10
0.0
 20
0.0
 30
0.0
 70
   128
 71
    20
 72
    18
 73
    21
  0
VERTEX
  5
772
  8
0
 62
     9
 10
0.0
 20
0.0
 30
0.0
 70
   128
 71
    36
 72
    35
 73
    37
  0
VERTEX
  5
773
  8
0
 62
     9
 10
0.0
 20
0.0
 30
0.0
 70
   128
 71
    40
 72
    23
 73
    39
  0
VERTEX
  5
774
  8
0
 62
     9
 10
0.0
 20
0.0
 30
0.0
 70
   128
 71
    22
 72
    36
 73
    37
  0
VERTEX
  5
775
  8
0
 62
     9
 10
0.0
 20
0.0
 30
0.0
 70
   128
 71
    22
 72
    34
 73
    36
  0
VERTEX
  5
776
  8
0
 62
     9
 10
0.0
 20
0.0
 30
0.0
 70
   128
 71
    37
 72
    38
 73
    22
  0
VERTEX
  5
777
  8
0
 62
     9
 10
0.0
 20
0.0
 30
0.0
 70
   128
 71
    41
 72
    33
 73
    21
  0
VERTEX
  5
778
  8
0
 62
     9
 10
0.0
 20
0.0
 30
0.0
 70
   128
 71
    38
 72
    21
 73
    22
  0
VERTEX
  5
779
  8
0
 62
     9
 10
0.0
 20
0.0
 30
0.0
 70
   128
 71
    24
 72
    39
 73
    23
  0
VERTEX
  5
77A
  8
0
 62
     9
 10
0.0
 20
0.0
 30
0.0
 70
   128
 71
    30
 72
    41
 73
    42
  0
VERTEX
  5
77B
  8
0
 62
     9
 10
0.0
 20
0.0
 30
0.0
 70
   128
 71
    29
 72
    44
 73
    43
  0
VERTEX
  5
77C
  8
0
 62
     9
 10
0.0
 20
0.0
 30
0.0
 70
   128
 71
    45
 72
    29
 73
    27
  0
VERTEX
  5
77D
  8
0
 62
     9
 10
0.0
 20
0.0
 30
0.0
 70
   128
 71
    43
 72
    47
 73
    46
  0
VERTEX
  5
77E
  8
0
 62
     9
 10
0.0
 20
0.0
 30
0.0
 70
   128
 71
    48
 72
    43
 73
    46
  0
VERTEX
  5
77F
  8
0
 62
     9
 10
0.0
 20
0.0
 30
0.0
 70
   128
 71
    47
 72
    49
 73
    46
  0
VERTEX
  5
780
  8
0
 62
     9
 10
0.0
 20
0.0
 30
0.0
 70
   128
 71
    45
 72
    44
 73
    29
  0
VERTEX
  5
781
  8
0
 62
     9
 10
0.0
 20
0.0
 30
0.0
 70
   128
 71
    43
 72
    48
 73
    29
  0
VERTEX
  5
782
  8
0
 62
     9
 10
0.0
 20
0.0
 30
0.0
 70
   128
 71
    27
 72
    23
 73
    40
  0
VERTEX
  5
783
  8
0
 62
     9
 10
0.0
 20
0.0
 30
0.0
 70
   128
 71
    27
 72
    40
 73
    45
  0
VERTEX
  5
784
  8
0
 62
     9
 10
0.0
 20
0.0
 30
0.0
 70
   128
 71
    30
 72
    39
 73
    24
  0
VERTEX
  5
785
  8
0
 62
     9
 10
0.0
 20
0.0
 30
0.0
 70
   128
 71
    39
 72
    30
 73
    42
  0
VERTEX
  5
786
  8
0
 62
     9
 10
0.0
 20
0.0
 30
0.0
 70
   128
 71
    38
 72
    41
 73
    21
  0
VERTEX
  5
787
  8
0
 62
     9
 10
0.0
 20
0.0
 30
0.0
 70
   128
 71
    41
 72
    30
 73
    33
  0
VERTEX
  5
788
  8
0
 62
     9
 10
0.0
 20
0.0
 30
0.0
 70
   128
 71
     6
 72
     7
 73
    48
  0
VERTEX
  5
789
  8
0
 62
     9
 10
0.0
 20
0.0
 30
0.0
 70
   128
 71
    46
 72
    49
 73
     4
  0
VERTEX
  5
78A
  8
0
 62
     9
 10
0.0
 20
0.0
 30
0.0
 70
   128
 71
    44
 72
     8
 73
     5
  0
VERTEX
  5
78B
  8
0
 62
     9
 10
0.0
 20
0.0
 30
0.0
 70
   128
 71
     2
 72
    47
 73
    43
  0
VERTEX
  5
78C
  8
0
 62
     9
 10
0.0
 20
0.0
 30
0.0
 70
   128
 71
    40
 72
    39
 73
    11
  0
VERTEX
  5
78D
  8
0
 62
     9
 10
0.0
 20
0.0
 30
0.0
 70
   128
 71
    13
 72
    45
 73
    40
  0
VERTEX
  5
78E
  8
0
 62
     9
 10
0.0
 20
0.0
 30
0.0
 70
   128
 71
    42
 72
     9
 73
    10
  0
VERTEX
  5
78F
  8
0
 62
     9
 10
0.0
 20
0.0
 30
0.0
 70
   128
 71
    10
 72
    39
 73
    42
  0
VERTEX
  5
790
  8
0
 62
     9
 10
0.0
 20
0.0
 30
0.0
 70
   128
 71
    12
 72
     9
 73
    41
  0
VERTEX
  5
791
  8
0
 62
     9
 10
0.0
 20
0.0
 30
0.0
 70
   128
 71
    42
 72
    41
 73
     9
  0
VERTEX
  5
792
  8
0
 62
     9
 10
0.0
 20
0.0
 30
0.0
 70
   128
 71
    12
 72
    38
 73
    14
  0
VERTEX
  5
793
  8
0
 62
     9
 10
0.0
 20
0.0
 30
0.0
 70
   128
 71
    38
 72
    12
 73
    41
  0
VERTEX
  5
794
  8
0
 62
     9
 10
0.0
 20
0.0
 30
0.0
 70
   128
 71
    10
 72
    11
 73
    39
  0
VERTEX
  5
795
  8
0
 62
     9
 10
0.0
 20
0.0
 30
0.0
 70
   128
 71
    47
 72
     2
 73
     3
  0
VERTEX
  5
796
  8
0
 62
     9
 10
0.0
 20
0.0
 30
0.0
 70
   128
 71
    13
 72
    40
 73
    11
  0
VERTEX
  5
797
  8
0
 62
     9
 10
0.0
 20
0.0
 30
0.0
 70
   128
 71
    45
 72
     8
 73
    44
  0
VERTEX
  5
798
  8
0
 62
     9
 10
0.0
 20
0.0
 30
0.0
 70
   128
 71
     8
 72
    45
 73
    13
  0
VERTEX
  5
799
  8
0
 62
     9
 10
0.0
 20
0.0
 30
0.0
 70
   128
 71
     6
 72
    46
 73
     4
  0
VERTEX
  5
79A
  8
0
 62
     9
 10
0.0
 20
0.0
 30
0.0
 70
   128
 71
     5
 72
     2
 73
    43
  0
VERTEX
  5
79B
  8
0
 62
     9
 10
0.0
 20
0.0
 30
0.0
 70
   128
 71
    44
 72
     5
 73
    43
  0
VERTEX
  5
79C
  8
0
 62
     9
 10
0.0
 20
0.0
 30
0.0
 70
   128
 71
     4
 72
    49
 73
     3
  0
VERTEX
  5
79D
  8
0
 62
     9
 10
0.0
 20
0.0
 30
0.0
 70
   128
 71
     3
 72
    49
 73
    47
  0
VERTEX
  5
79E
  8
0
 62
     9
 10
0.0
 20
0.0
 30
0.0
 70
   128
 71
    29
 72
    48
 73
     7
  0
VERTEX
  5
79F
  8
0
 62
     9
 10
0.0
 20
0.0
 30
0.0
 70
   128
 71
     6
 72
    48
 73
    46
  0
VERTEX
  5
7A0
  8
0
 62
     9
 10
0.0
 20
0.0
 30
0.0
 70
   128
 71
    26
 72
    28
 73
     1
  0
VERTEX
  5
7A1
  8
0
 62
     9
 10
0.0
 20
0.0
 30
0.0
 70
   128
 71
     1
 72
    25
 73
    26
  0
VERTEX
  5
7A2
  8
0
 62
     9
 10
0.0
 20
0.0
 30
0.0
 70
   128
 71
    28
 72
     7
 73
     1
  0
VERTEX
  5
7A3
  8
0
 62
     9
 10
0.0
 20
0.0
 30
0.0
 70
   128
 71
     1
 72
    32
 73
    31
  0
VERTEX
  5
7A4
  8
0
 62
     9
 10
0.0
 20
0.0
 30
0.0
 70
   128
 71
    25
 72
     1
 73
    31
  0
VERTEX
  5
7A5
  8
0
 62
     9
 10
0.0
 20
0.0
 30
0.0
 70
   128
 71
    32
 72
     1
 73
    20
  0
SEQEND
  5
7A6
  8
0
 62
     9
  0
ENDBLK
  5
7A9
  8
0
  0
BLOCK
  8
0
  2
50
 70
     0
 10
0.0
 20
0.0
 30
0.0
  3
50
  1

  0
POLYLINE
  5
7AB
  8
0
 62
     9
 66
     1
 10
0.0
 20
0.0
 30
0.0
 70
    64
 71
    80
 72
   138
  0
VERTEX
  5
7AC
  8
0
 10
-17.97885513305664
 20
57.73979949951172
 30
-40.59999847412109
 70
   192
  0
VERTEX
  5
7AD
  8
0
 10
-17.97885513305664
 20
57.76020050048828
 30
-31.70000076293945
 70
   192
  0
VERTEX
  5
7AE
  8
0
 10
-17.4692497253418
 20
54.51686859130859
 30
-31.70000076293945
 70
   192
  0
VERTEX
  5
7AF
  8
0
 10
-15.98105335235596
 20
51.59381103515625
 30
-31.70000076293945
 70
   192
  0
VERTEX
  5
7B0
  8
0
 10
-17.46469879150391
 20
54.50490188598633
 30
-40.59999847412109
 70
   192
  0
VERTEX
  5
7B1
  8
0
 10
-13.66489887237549
 20
49.27564239501953
 30
-31.70000076293945
 70
   192
  0
VERTEX
  5
7B2
  8
0
 10
-15.97232532501221
 20
51.58193206787109
 30
-40.59999847412109
 70
   192
  0
VERTEX
  5
7B3
  8
0
 10
-13.65079116821289
 20
49.26562118530273
 30
-40.59999847412109
 70
   192
  0
VERTEX
  5
7B4
  8
0
 10
-10.74319648742676
 20
47.78472518920898
 30
-31.70000076293945
 70
   192
  0
VERTEX
  5
7B5
  8
0
 10
-7.5
 20
47.27000045776367
 30
-31.70000076293945
 70
   192
  0
VERTEX
  5
7B6
  8
0
 10
-10.72932815551758
 20
47.77994918823242
 30
-40.59999847412109
 70
   192
  0
VERTEX
  5
7B7
  8
0
 10
-7.499999046325684
 20
47.27219772338867
 30
-40.59999847412109
 70
   192
  0
VERTEX
  5
7B8
  8
0
 10
-17.4692497253418
 20
60.98313140869141
 30
-40.59999847412109
 70
   192
  0
VERTEX
  5
7B9
  8
0
 10
-15.98105335235596
 20
63.90618896484375
 30
-40.59999847412109
 70
   192
  0
VERTEX
  5
7BA
  8
0
 10
-17.46469879150391
 20
60.99509811401367
 30
-31.70000076293945
 70
   192
  0
VERTEX
  5
7BB
  8
0
 10
-15.97232532501221
 20
63.91806793212891
 30
-31.70000076293945
 70
   192
  0
VERTEX
  5
7BC
  8
0
 10
-13.66489887237549
 20
66.22435760498047
 30
-40.59999847412109
 70
   192
  0
VERTEX
  5
7BD
  8
0
 10
-10.74319648742676
 20
67.71527862548828
 30
-40.59999847412109
 70
   192
  0
VERTEX
  5
7BE
  8
0
 10
-13.65079116821289
 20
66.234375
 30
-31.70000076293945
 70
   192
  0
VERTEX
  5
7BF
  8
0
 10
-7.5
 20
68.2300033569336
 30
-40.59999847412109
 70
   192
  0
VERTEX
  5
7C0
  8
0
 10
-10.72932815551758
 20
67.72004699707031
 30
-31.70000076293945
 70
   192
  0
VERTEX
  5
7C1
  8
0
 10
-7.499999046325684
 20
68.22779846191406
 30
-31.70000076293945
 70
   192
  0
VERTEX
  5
7C2
  8
0
 10
-16.5
 20
57.75
 30
-31.70000076293945
 70
   192
  0
VERTEX
  5
7C3
  8
0
 10
-16.5
 20
57.75
 30
-23.20000076293945
 70
   192
  0
VERTEX
  5
7C4
  8
0
 10
-16.05479431152344
 20
54.96181488037109
 30
-23.20000076293945
 70
   192
  0
VERTEX
  5
7C5
  8
0
 10
-14.77509880065918
 20
52.45766448974609
 30
-23.20000076293945
 70
   192
  0
VERTEX
  5
7C6
  8
0
 10
-16.05810356140137
 20
54.96516036987305
 30
-31.70000076293945
 70
   192
  0
VERTEX
  5
7C7
  8
0
 10
-12.78453826904297
 20
50.464111328125
 30
-23.20000076293945
 70
   192
  0
VERTEX
  5
7C8
  8
0
 10
-14.77763843536377
 20
52.45537567138672
 30
-31.70000076293945
 70
   192
  0
VERTEX
  5
7C9
  8
0
 10
-10.27829742431641
 20
49.18964004516602
 30
-31.70000076293945
 70
   192
  0
VERTEX
  5
7CA
  8
0
 10
-12.78263473510742
 20
50.46463775634766
 30
-31.70000076293945
 70
   192
  0
VERTEX
  5
7CB
  8
0
 10
-10.26895141601562
 20
49.2399787902832
 30
-23.20000076293945
 70
   192
  0
VERTEX
  5
7CC
  8
0
 10
-7.5
 20
48.75
 30
-31.70000076293945
 70
   192
  0
VERTEX
  5
7CD
  8
0
 10
-7.5
 20
48.75
 30
-23.20000076293945
 70
   192
  0
VERTEX
  5
7CE
  8
0
 10
-16.06059837341309
 20
60.52676010131836
 30
-31.70000076293945
 70
   192
  0
VERTEX
  5
7CF
  8
0
 10
-14.78536128997803
 20
63.03263473510742
 30
-31.70000076293945
 70
   192
  0
VERTEX
  5
7D0
  8
0
 10
-16.06078147888184
 20
60.52538299560547
 30
-23.20000076293945
 70
   192
  0
VERTEX
  5
7D1
  8
0
 10
-14.78606414794922
 20
63.03699493408203
 30
-23.20000076293945
 70
   192
  0
VERTEX
  5
7D2
  8
0
 10
-12.79462623596191
 20
65.02764129638672
 30
-31.70000076293945
 70
   192
  0
VERTEX
  5
7D3
  8
0
 10
-12.79517936706543
 20
65.03114318847656
 30
-23.20000076293945
 70
   192
  0
VERTEX
  5
7D4
  8
0
 10
-10.28390502929688
 20
66.27799987792969
 30
-23.20000076293945
 70
   192
  0
VERTEX
  5
7D5
  8
0
 10
-10.28483867645264
 20
66.30810546875
 30
-31.70000076293945
 70
   192
  0
VERTEX
  5
7D6
  8
0
 10
-7.5
 20
66.75
 30
-23.20000076293945
 70
   192
  0
VERTEX
  5
7D7
  8
0
 10
-7.5
 20
66.75
 30
-31.70000076293945
 70
   192
  0
VERTEX
  5
7D8
  8
0
 10
-4.715161323547363
 20
49.19189453125
 30
-31.70000076293945
 70
   192
  0
VERTEX
  5
7D9
  8
0
 10
1.5
 20
57.75
 30
-23.20000076293945
 70
   192
  0
VERTEX
  5
7DA
  8
0
 10
1.060598969459534
 20
54.97323989868164
 30
-31.70000076293945
 70
   192
  0
VERTEX
  5
7DB
  8
0
 10
1.060782074928284
 20
54.97461700439453
 30
-23.20000076293945
 70
   192
  0
VERTEX
  5
7DC
  8
0
 10
-2.205374002456665
 20
50.47236251831055
 30
-31.70000076293945
 70
   192
  0
VERTEX
  5
7DD
  8
0
 10
-2.204820871353149
 20
50.4688606262207
 30
-23.20000076293945
 70
   192
  0
VERTEX
  5
7DE
  8
0
 10
-0.2139362543821335
 20
52.46300506591797
 30
-23.20000076293945
 70
   192
  0
VERTEX
  5
7DF
  8
0
 10
-0.2249013632535934
 20
63.04233551025391
 30
-23.20000076293945
 70
   192
  0
VERTEX
  5
7E0
  8
0
 10
-0.2223620265722275
 20
63.04462432861328
 30
-31.70000076293945
 70
   192
  0
VERTEX
  5
7E1
  8
0
 10
1.058103680610657
 20
60.53483963012695
 30
-31.70000076293945
 70
   192
  0
VERTEX
  5
7E2
  8
0
 10
1.5
 20
57.75
 30
-31.70000076293945
 70
   192
  0
VERTEX
  5
7E3
  8
0
 10
1.054795265197754
 20
60.53818511962891
 30
-23.20000076293945
 70
   192
  0
VERTEX
  5
7E4
  8
0
 10
-2.215461730957031
 20
65.035888671875
 30
-23.20000076293945
 70
   192
  0
VERTEX
  5
7E5
  8
0
 10
-4.721702098846436
 20
66.31035614013672
 30
-31.70000076293945
 70
   192
  0
VERTEX
  5
7E6
  8
0
 10
-2.217365026473999
 20
65.03536224365234
 30
-31.70000076293945
 70
   192
  0
VERTEX
  5
7E7
  8
0
 10
-4.731048583984375
 20
66.26002502441406
 30
-23.20000076293945
 70
   192
  0
VERTEX
  5
7E8
  8
0
 10
-0.2146384119987488
 20
52.46736526489258
 30
-31.70000076293945
 70
   192
  0
VERTEX
  5
7E9
  8
0
 10
-4.716095447540283
 20
49.22200012207031
 30
-23.20000076293945
 70
   192
  0
VERTEX
  5
7EA
  8
0
 10
-1.332761168479919
 20
66.22314453125
 30
-31.70000076293945
 70
   192
  0
VERTEX
  5
7EB
  8
0
 10
-4.252120971679688
 20
67.71368408203125
 30
-31.70000076293945
 70
   192
  0
VERTEX
  5
7EC
  8
0
 10
0.9853189587593079
 20
63.89879989624023
 30
-31.70000076293945
 70
   192
  0
VERTEX
  5
7ED
  8
0
 10
2.464009046554565
 20
54.50334930419922
 30
-31.70000076293945
 70
   192
  0
VERTEX
  5
7EE
  8
0
 10
2.979247808456421
 20
57.74071884155273
 30
-31.70000076293945
 70
   192
  0
VERTEX
  5
7EF
  8
0
 10
0.9754205942153931
 20
51.58618927001953
 30
-31.70000076293945
 70
   192
  0
VERTEX
  5
7F0
  8
0
 10
-1.34674334526062
 20
49.26753997802734
 30
-31.70000076293945
 70
   192
  0
VERTEX
  5
7F1
  8
0
 10
-4.264684677124023
 20
47.78168487548828
 30
-31.70000076293945
 70
   192
  0
VERTEX
  5
7F2
  8
0
 10
2.46916127204895
 20
60.98199844360352
 30
-31.70000076293945
 70
   192
  0
VERTEX
  5
7F3
  8
0
 10
-4.252120971679688
 20
47.78631210327148
 30
-40.59999847412109
 70
   192
  0
VERTEX
  5
7F4
  8
0
 10
2.46916127204895
 20
54.51800155639648
 30
-40.59999847412109
 70
   192
  0
VERTEX
  5
7F5
  8
0
 10
-1.332761168479919
 20
49.27685546875
 30
-40.59999847412109
 70
   192
  0
VERTEX
  5
7F6
  8
0
 10
0.9754205942153931
 20
63.91381072998047
 30
-40.59999847412109
 70
   192
  0
VERTEX
  5
7F7
  8
0
 10
2.464009046554565
 20
60.99665069580078
 30
-40.59999847412109
 70
   192
  0
VERTEX
  5
7F8
  8
0
 10
2.979247808456421
 20
57.75928115844727
 30
-40.59999847412109
 70
   192
  0
VERTEX
  5
7F9
  8
0
 10
-1.34674334526062
 20
66.23246002197266
 30
-40.59999847412109
 70
   192
  0
VERTEX
  5
7FA
  8
0
 10
-4.264684677124023
 20
67.71831512451172
 30
-40.59999847412109
 70
   192
  0
VERTEX
  5
7FB
  8
0
 10
0.9853189587593079
 20
51.60120010375977
 30
-40.59999847412109
 70
   192
  0
VERTEX
  5
7FC
  8
0
 62
     9
 10
0.0
 20
0.0
 30
0.0
 70
   128
 71
     3
 72
     2
 73
     1
  0
VERTEX
  5
7FD
  8
0
 62
     9
 10
0.0
 20
0.0
 30
0.0
 70
   128
 71
     5
 72
     4
 73
     3
  0
VERTEX
  5
7FE
  8
0
 62
     9
 10
0.0
 20
0.0
 30
0.0
 70
   128
 71
     3
 72
     1
 73
     5
  0
VERTEX
  5
7FF
  8
0
 62
     9
 10
0.0
 20
0.0
 30
0.0
 70
   128
 71
     4
 72
     7
 73
     6
  0
VERTEX
  5
800
  8
0
 62
     9
 10
0.0
 20
0.0
 30
0.0
 70
   128
 71
     7
 72
     4
 73
     5
  0
VERTEX
  5
801
  8
0
 62
     9
 10
0.0
 20
0.0
 30
0.0
 70
   128
 71
     9
 72
     6
 73
     8
  0
VERTEX
  5
802
  8
0
 62
     9
 10
0.0
 20
0.0
 30
0.0
 70
   128
 71
     7
 72
     8
 73
     6
  0
VERTEX
  5
803
  8
0
 62
     9
 10
0.0
 20
0.0
 30
0.0
 70
   128
 71
    11
 72
    10
 73
     9
  0
VERTEX
  5
804
  8
0
 62
     9
 10
0.0
 20
0.0
 30
0.0
 70
   128
 71
     9
 72
     8
 73
    11
  0
VERTEX
  5
805
  8
0
 62
     9
 10
0.0
 20
0.0
 30
0.0
 70
   128
 71
    12
 72
    10
 73
    11
  0
VERTEX
  5
806
  8
0
 62
     9
 10
0.0
 20
0.0
 30
0.0
 70
   128
 71
    13
 72
     1
 73
     2
  0
VERTEX
  5
807
  8
0
 62
     9
 10
0.0
 20
0.0
 30
0.0
 70
   128
 71
    13
 72
    15
 73
    14
  0
VERTEX
  5
808
  8
0
 62
     9
 10
0.0
 20
0.0
 30
0.0
 70
   128
 71
    15
 72
    13
 73
     2
  0
VERTEX
  5
809
  8
0
 62
     9
 10
0.0
 20
0.0
 30
0.0
 70
   128
 71
    17
 72
    14
 73
    16
  0
VERTEX
  5
80A
  8
0
 62
     9
 10
0.0
 20
0.0
 30
0.0
 70
   128
 71
    15
 72
    16
 73
    14
  0
VERTEX
  5
80B
  8
0
 62
     9
 10
0.0
 20
0.0
 30
0.0
 70
   128
 71
    19
 72
    18
 73
    17
  0
VERTEX
  5
80C
  8
0
 62
     9
 10
0.0
 20
0.0
 30
0.0
 70
   128
 71
    17
 72
    16
 73
    19
  0
VERTEX
  5
80D
  8
0
 62
     9
 10
0.0
 20
0.0
 30
0.0
 70
   128
 71
    18
 72
    21
 73
    20
  0
VERTEX
  5
80E
  8
0
 62
     9
 10
0.0
 20
0.0
 30
0.0
 70
   128
 71
    21
 72
    18
 73
    19
  0
VERTEX
  5
80F
  8
0
 62
     9
 10
0.0
 20
0.0
 30
0.0
 70
   128
 71
    21
 72
    22
 73
    20
  0
VERTEX
  5
810
  8
0
 62
     9
 10
0.0
 20
0.0
 30
0.0
 70
   128
 71
    25
 72
    24
 73
    23
  0
VERTEX
  5
811
  8
0
 62
     9
 10
0.0
 20
0.0
 30
0.0
 70
   128
 71
    27
 72
    26
 73
    25
  0
VERTEX
  5
812
  8
0
 62
     9
 10
0.0
 20
0.0
 30
0.0
 70
   128
 71
    25
 72
    23
 73
    27
  0
VERTEX
  5
813
  8
0
 62
     9
 10
0.0
 20
0.0
 30
0.0
 70
   128
 71
    26
 72
    29
 73
    28
  0
VERTEX
  5
814
  8
0
 62
     9
 10
0.0
 20
0.0
 30
0.0
 70
   128
 71
    29
 72
    26
 73
    27
  0
VERTEX
  5
815
  8
0
 62
     9
 10
0.0
 20
0.0
 30
0.0
 70
   128
 71
    28
 72
    31
 73
    30
  0
VERTEX
  5
816
  8
0
 62
     9
 10
0.0
 20
0.0
 30
0.0
 70
   128
 71
    29
 72
    31
 73
    28
  0
VERTEX
  5
817
  8
0
 62
     9
 10
0.0
 20
0.0
 30
0.0
 70
   128
 71
    33
 72
    32
 73
    30
  0
VERTEX
  5
818
  8
0
 62
     9
 10
0.0
 20
0.0
 30
0.0
 70
   128
 71
    28
 72
    30
 73
    32
  0
VERTEX
  5
819
  8
0
 62
     9
 10
0.0
 20
0.0
 30
0.0
 70
   128
 71
    34
 72
    32
 73
    33
  0
VERTEX
  5
81A
  8
0
 62
     9
 10
0.0
 20
0.0
 30
0.0
 70
   128
 71
    35
 72
    23
 73
    24
  0
VERTEX
  5
81B
  8
0
 62
     9
 10
0.0
 20
0.0
 30
0.0
 70
   128
 71
    35
 72
    37
 73
    36
  0
VERTEX
  5
81C
  8
0
 62
     9
 10
0.0
 20
0.0
 30
0.0
 70
   128
 71
    37
 72
    35
 73
    24
  0
VERTEX
  5
81D
  8
0
 62
     9
 10
0.0
 20
0.0
 30
0.0
 70
   128
 71
    39
 72
    36
 73
    38
  0
VERTEX
  5
81E
  8
0
 62
     9
 10
0.0
 20
0.0
 30
0.0
 70
   128
 71
    37
 72
    38
 73
    36
  0
VERTEX
  5
81F
  8
0
 62
     9
 10
0.0
 20
0.0
 30
0.0
 70
   128
 71
    41
 72
    39
 73
    40
  0
VERTEX
  5
820
  8
0
 62
     9
 10
0.0
 20
0.0
 30
0.0
 70
   128
 71
    39
 72
    38
 73
    40
  0
VERTEX
  5
821
  8
0
 62
     9
 10
0.0
 20
0.0
 30
0.0
 70
   128
 71
    41
 72
    43
 73
    42
  0
VERTEX
  5
822
  8
0
 62
     9
 10
0.0
 20
0.0
 30
0.0
 70
   128
 71
    42
 72
    39
 73
    41
  0
VERTEX
  5
823
  8
0
 62
     9
 10
0.0
 20
0.0
 30
0.0
 70
   128
 71
    43
 72
    44
 73
    42
  0
VERTEX
  5
824
  8
0
 62
     9
 10
0.0
 20
0.0
 30
0.0
 70
   128
 71
    34
 72
    33
 73
    45
  0
VERTEX
  5
825
  8
0
 62
     9
 10
0.0
 20
0.0
 30
0.0
 70
   128
 71
    48
 72
    47
 73
    46
  0
VERTEX
  5
826
  8
0
 62
     9
 10
0.0
 20
0.0
 30
0.0
 70
   128
 71
    51
 72
    50
 73
    49
  0
VERTEX
  5
827
  8
0
 62
     9
 10
0.0
 20
0.0
 30
0.0
 70
   128
 71
    54
 72
    53
 73
    52
  0
VERTEX
  5
828
  8
0
 62
     9
 10
0.0
 20
0.0
 30
0.0
 70
   128
 71
    54
 72
    56
 73
    55
  0
VERTEX
  5
829
  8
0
 62
     9
 10
0.0
 20
0.0
 30
0.0
 70
   128
 71
    59
 72
    58
 73
    57
  0
VERTEX
  5
82A
  8
0
 62
     9
 10
0.0
 20
0.0
 30
0.0
 70
   128
 71
    59
 72
    57
 73
    53
  0
VERTEX
  5
82B
  8
0
 62
     9
 10
0.0
 20
0.0
 30
0.0
 70
   128
 71
    60
 72
    58
 73
    44
  0
VERTEX
  5
82C
  8
0
 62
     9
 10
0.0
 20
0.0
 30
0.0
 70
   128
 71
    58
 72
    60
 73
    57
  0
VERTEX
  5
82D
  8
0
 62
     9
 10
0.0
 20
0.0
 30
0.0
 70
   128
 71
    60
 72
    44
 73
    43
  0
VERTEX
  5
82E
  8
0
 62
     9
 10
0.0
 20
0.0
 30
0.0
 70
   128
 71
    54
 72
    52
 73
    56
  0
VERTEX
  5
82F
  8
0
 62
     9
 10
0.0
 20
0.0
 30
0.0
 70
   128
 71
    53
 72
    57
 73
    52
  0
VERTEX
  5
830
  8
0
 62
     9
 10
0.0
 20
0.0
 30
0.0
 70
   128
 71
    47
 72
    55
 73
    46
  0
VERTEX
  5
831
  8
0
 62
     9
 10
0.0
 20
0.0
 30
0.0
 70
   128
 71
    55
 72
    56
 73
    46
  0
VERTEX
  5
832
  8
0
 62
     9
 10
0.0
 20
0.0
 30
0.0
 70
   128
 71
    51
 72
    61
 73
    48
  0
VERTEX
  5
833
  8
0
 62
     9
 10
0.0
 20
0.0
 30
0.0
 70
   128
 71
    61
 72
    47
 73
    48
  0
VERTEX
  5
834
  8
0
 62
     9
 10
0.0
 20
0.0
 30
0.0
 70
   128
 71
    62
 72
    49
 73
    50
  0
VERTEX
  5
835
  8
0
 62
     9
 10
0.0
 20
0.0
 30
0.0
 70
   128
 71
    51
 72
    49
 73
    61
  0
VERTEX
  5
836
  8
0
 62
     9
 10
0.0
 20
0.0
 30
0.0
 70
   128
 71
    45
 72
    62
 73
    34
  0
VERTEX
  5
837
  8
0
 62
     9
 10
0.0
 20
0.0
 30
0.0
 70
   128
 71
    62
 72
    45
 73
    49
  0
VERTEX
  5
838
  8
0
 62
     9
 10
0.0
 20
0.0
 30
0.0
 70
   128
 71
    21
 72
    44
 73
    22
  0
VERTEX
  5
839
  8
0
 62
     9
 10
0.0
 20
0.0
 30
0.0
 70
   128
 71
    63
 72
    59
 73
    53
  0
VERTEX
  5
83A
  8
0
 62
     9
 10
0.0
 20
0.0
 30
0.0
 70
   128
 71
    58
 72
    64
 73
    22
  0
VERTEX
  5
83B
  8
0
 62
     9
 10
0.0
 20
0.0
 30
0.0
 70
   128
 71
    58
 72
    59
 73
    64
  0
VERTEX
  5
83C
  8
0
 62
     9
 10
0.0
 20
0.0
 30
0.0
 70
   128
 71
    58
 72
    22
 73
    44
  0
VERTEX
  5
83D
  8
0
 62
     9
 10
0.0
 20
0.0
 30
0.0
 70
   128
 71
    15
 72
    36
 73
    16
  0
VERTEX
  5
83E
  8
0
 62
     9
 10
0.0
 20
0.0
 30
0.0
 70
   128
 71
    65
 72
    53
 73
    54
  0
VERTEX
  5
83F
  8
0
 62
     9
 10
0.0
 20
0.0
 30
0.0
 70
   128
 71
    47
 72
    61
 73
    66
  0
VERTEX
  5
840
  8
0
 62
     9
 10
0.0
 20
0.0
 30
0.0
 70
   128
 71
    55
 72
    66
 73
    67
  0
VERTEX
  5
841
  8
0
 62
     9
 10
0.0
 20
0.0
 30
0.0
 70
   128
 71
    61
 72
    49
 73
    68
  0
VERTEX
  5
842
  8
0
 62
     9
 10
0.0
 20
0.0
 30
0.0
 70
   128
 71
    49
 72
    45
 73
    69
  0
VERTEX
  5
843
  8
0
 62
     9
 10
0.0
 20
0.0
 30
0.0
 70
   128
 71
    33
 72
    70
 73
    45
  0
VERTEX
  5
844
  8
0
 62
     9
 10
0.0
 20
0.0
 30
0.0
 70
   128
 71
    19
 72
    39
 73
    42
  0
VERTEX
  5
845
  8
0
 62
     9
 10
0.0
 20
0.0
 30
0.0
 70
   128
 71
    54
 72
    67
 73
    71
  0
VERTEX
  5
846
  8
0
 62
     9
 10
0.0
 20
0.0
 30
0.0
 70
   128
 71
    36
 72
    15
 73
    35
  0
VERTEX
  5
847
  8
0
 62
     9
 10
0.0
 20
0.0
 30
0.0
 70
   128
 71
    59
 72
    63
 73
    64
  0
VERTEX
  5
848
  8
0
 62
     9
 10
0.0
 20
0.0
 30
0.0
 70
   128
 71
    53
 72
    65
 73
    63
  0
VERTEX
  5
849
  8
0
 62
     9
 10
0.0
 20
0.0
 30
0.0
 70
   128
 71
    54
 72
    71
 73
    65
  0
VERTEX
  5
84A
  8
0
 62
     9
 10
0.0
 20
0.0
 30
0.0
 70
   128
 71
    54
 72
    55
 73
    67
  0
VERTEX
  5
84B
  8
0
 62
     9
 10
0.0
 20
0.0
 30
0.0
 70
   128
 71
    55
 72
    47
 73
    66
  0
VERTEX
  5
84C
  8
0
 62
     9
 10
0.0
 20
0.0
 30
0.0
 70
   128
 71
    61
 72
    68
 73
    66
  0
VERTEX
  5
84D
  8
0
 62
     9
 10
0.0
 20
0.0
 30
0.0
 70
   128
 71
    49
 72
    69
 73
    68
  0
VERTEX
  5
84E
  8
0
 62
     9
 10
0.0
 20
0.0
 30
0.0
 70
   128
 71
    45
 72
    70
 73
    69
  0
VERTEX
  5
84F
  8
0
 62
     9
 10
0.0
 20
0.0
 30
0.0
 70
   128
 71
    33
 72
    10
 73
    70
  0
VERTEX
  5
850
  8
0
 62
     9
 10
0.0
 20
0.0
 30
0.0
 70
   128
 71
    30
 72
     9
 73
    10
  0
VERTEX
  5
851
  8
0
 62
     9
 10
0.0
 20
0.0
 30
0.0
 70
   128
 71
    30
 72
    10
 73
    33
  0
VERTEX
  5
852
  8
0
 62
     9
 10
0.0
 20
0.0
 30
0.0
 70
   128
 71
    31
 72
     6
 73
     9
  0
VERTEX
  5
853
  8
0
 62
     9
 10
0.0
 20
0.0
 30
0.0
 70
   128
 71
    31
 72
     9
 73
    30
  0
VERTEX
  5
854
  8
0
 62
     9
 10
0.0
 20
0.0
 30
0.0
 70
   128
 71
    29
 72
     4
 73
     6
  0
VERTEX
  5
855
  8
0
 62
     9
 10
0.0
 20
0.0
 30
0.0
 70
   128
 71
    29
 72
     6
 73
    31
  0
VERTEX
  5
856
  8
0
 62
     9
 10
0.0
 20
0.0
 30
0.0
 70
   128
 71
    27
 72
     3
 73
     4
  0
VERTEX
  5
857
  8
0
 62
     9
 10
0.0
 20
0.0
 30
0.0
 70
   128
 71
    27
 72
     4
 73
    29
  0
VERTEX
  5
858
  8
0
 62
     9
 10
0.0
 20
0.0
 30
0.0
 70
   128
 71
    27
 72
    23
 73
     2
  0
VERTEX
  5
859
  8
0
 62
     9
 10
0.0
 20
0.0
 30
0.0
 70
   128
 71
    27
 72
     2
 73
     3
  0
VERTEX
  5
85A
  8
0
 62
     9
 10
0.0
 20
0.0
 30
0.0
 70
   128
 71
    23
 72
    35
 73
    15
  0
VERTEX
  5
85B
  8
0
 62
     9
 10
0.0
 20
0.0
 30
0.0
 70
   128
 71
    23
 72
    15
 73
     2
  0
VERTEX
  5
85C
  8
0
 62
     9
 10
0.0
 20
0.0
 30
0.0
 70
   128
 71
    39
 72
    16
 73
    36
  0
VERTEX
  5
85D
  8
0
 62
     9
 10
0.0
 20
0.0
 30
0.0
 70
   128
 71
    39
 72
    19
 73
    16
  0
VERTEX
  5
85E
  8
0
 62
     9
 10
0.0
 20
0.0
 30
0.0
 70
   128
 71
    21
 72
    42
 73
    44
  0
VERTEX
  5
85F
  8
0
 62
     9
 10
0.0
 20
0.0
 30
0.0
 70
   128
 71
    42
 72
    21
 73
    19
  0
VERTEX
  5
860
  8
0
 62
     9
 10
0.0
 20
0.0
 30
0.0
 70
   128
 71
    12
 72
    72
 73
    70
  0
VERTEX
  5
861
  8
0
 62
     9
 10
0.0
 20
0.0
 30
0.0
 70
   128
 71
    66
 72
    73
 73
    67
  0
VERTEX
  5
862
  8
0
 62
     9
 10
0.0
 20
0.0
 30
0.0
 70
   128
 71
    68
 72
    69
 73
    74
  0
VERTEX
  5
863
  8
0
 62
     9
 10
0.0
 20
0.0
 30
0.0
 70
   128
 71
    76
 72
    75
 73
    65
  0
VERTEX
  5
864
  8
0
 62
     9
 10
0.0
 20
0.0
 30
0.0
 70
   128
 71
    76
 72
    71
 73
    77
  0
VERTEX
  5
865
  8
0
 62
     9
 10
0.0
 20
0.0
 30
0.0
 70
   128
 71
    63
 72
    78
 73
    64
  0
VERTEX
  5
866
  8
0
 62
     9
 10
0.0
 20
0.0
 30
0.0
 70
   128
 71
    78
 72
    63
 73
    75
  0
VERTEX
  5
867
  8
0
 62
     9
 10
0.0
 20
0.0
 30
0.0
 70
   128
 71
    22
 72
    64
 73
    79
  0
VERTEX
  5
868
  8
0
 62
     9
 10
0.0
 20
0.0
 30
0.0
 70
   128
 71
    78
 72
    79
 73
    64
  0
VERTEX
  5
869
  8
0
 62
     9
 10
0.0
 20
0.0
 30
0.0
 70
   128
 71
    22
 72
    79
 73
    20
  0
VERTEX
  5
86A
  8
0
 62
     9
 10
0.0
 20
0.0
 30
0.0
 70
   128
 71
    76
 72
    65
 73
    71
  0
VERTEX
  5
86B
  8
0
 62
     9
 10
0.0
 20
0.0
 30
0.0
 70
   128
 71
    75
 72
    63
 73
    65
  0
VERTEX
  5
86C
  8
0
 62
     9
 10
0.0
 20
0.0
 30
0.0
 70
   128
 71
    73
 72
    77
 73
    67
  0
VERTEX
  5
86D
  8
0
 62
     9
 10
0.0
 20
0.0
 30
0.0
 70
   128
 71
    77
 72
    71
 73
    67
  0
VERTEX
  5
86E
  8
0
 62
     9
 10
0.0
 20
0.0
 30
0.0
 70
   128
 71
    68
 72
    80
 73
    66
  0
VERTEX
  5
86F
  8
0
 62
     9
 10
0.0
 20
0.0
 30
0.0
 70
   128
 71
    80
 72
    73
 73
    66
  0
VERTEX
  5
870
  8
0
 62
     9
 10
0.0
 20
0.0
 30
0.0
 70
   128
 71
    69
 72
    72
 73
    74
  0
VERTEX
  5
871
  8
0
 62
     9
 10
0.0
 20
0.0
 30
0.0
 70
   128
 71
    68
 72
    74
 73
    80
  0
VERTEX
  5
872
  8
0
 62
     9
 10
0.0
 20
0.0
 30
0.0
 70
   128
 71
    70
 72
    10
 73
    12
  0
VERTEX
  5
873
  8
0
 62
     9
 10
0.0
 20
0.0
 30
0.0
 70
   128
 71
    69
 72
    70
 73
    72
  0
VERTEX
  5
874
  8
0
 62
     9
 10
0.0
 20
0.0
 30
0.0
 70
   128
 71
    76
 72
    12
 73
    11
  0
VERTEX
  5
875
  8
0
 62
     9
 10
0.0
 20
0.0
 30
0.0
 70
   128
 71
    78
 72
     7
 73
     5
  0
VERTEX
  5
876
  8
0
 62
     9
 10
0.0
 20
0.0
 30
0.0
 70
   128
 71
    80
 72
    72
 73
    73
  0
VERTEX
  5
877
  8
0
 62
     9
 10
0.0
 20
0.0
 30
0.0
 70
   128
 71
    72
 72
    12
 73
    73
  0
VERTEX
  5
878
  8
0
 62
     9
 10
0.0
 20
0.0
 30
0.0
 70
   128
 71
    72
 72
    80
 73
    74
  0
VERTEX
  5
879
  8
0
 62
     9
 10
0.0
 20
0.0
 30
0.0
 70
   128
 71
    12
 72
    76
 73
    77
  0
VERTEX
  5
87A
  8
0
 62
     9
 10
0.0
 20
0.0
 30
0.0
 70
   128
 71
    73
 72
    12
 73
    77
  0
VERTEX
  5
87B
  8
0
 62
     9
 10
0.0
 20
0.0
 30
0.0
 70
   128
 71
    11
 72
     8
 73
    76
  0
VERTEX
  5
87C
  8
0
 62
     9
 10
0.0
 20
0.0
 30
0.0
 70
   128
 71
     8
 72
    75
 73
    76
  0
VERTEX
  5
87D
  8
0
 62
     9
 10
0.0
 20
0.0
 30
0.0
 70
   128
 71
     7
 72
    78
 73
     8
  0
VERTEX
  5
87E
  8
0
 62
     9
 10
0.0
 20
0.0
 30
0.0
 70
   128
 71
    75
 72
     8
 73
    78
  0
VERTEX
  5
87F
  8
0
 62
     9
 10
0.0
 20
0.0
 30
0.0
 70
   128
 71
    78
 72
     5
 73
    79
  0
VERTEX
  5
880
  8
0
 62
     9
 10
0.0
 20
0.0
 30
0.0
 70
   128
 71
     1
 72
    20
 73
    79
  0
VERTEX
  5
881
  8
0
 62
     9
 10
0.0
 20
0.0
 30
0.0
 70
   128
 71
    79
 72
     5
 73
     1
  0
VERTEX
  5
882
  8
0
 62
     9
 10
0.0
 20
0.0
 30
0.0
 70
   128
 71
    13
 72
    18
 73
     1
  0
VERTEX
  5
883
  8
0
 62
     9
 10
0.0
 20
0.0
 30
0.0
 70
   128
 71
    17
 72
    18
 73
    13
  0
VERTEX
  5
884
  8
0
 62
     9
 10
0.0
 20
0.0
 30
0.0
 70
   128
 71
    14
 72
    17
 73
    13
  0
VERTEX
  5
885
  8
0
 62
     9
 10
0.0
 20
0.0
 30
0.0
 70
   128
 71
    20
 72
     1
 73
    18
  0
SEQEND
  5
886
  8
0
 62
     9
  0
ENDBLK
  5
889
  8
0
  0
BLOCK
  8
0
  2
51
 70
     0
 10
0.0
 20
0.0
 30
0.0
  3
51
  1

  0
POLYLINE
  5
88B
  8
0
 66
     1
 10
0.0
 20
0.0
 30
0.0
 70
    64
 71
   272
 72
   502
  0
VERTEX
  5
88C
  8
0
 10
21.63619041442871
 20
-54.21918869018555
 30
10.37924480438232
 70
   192
  0
VERTEX
  5
88D
  8
0
 10
22.53391265869141
 20
-53.931884765625
 30
8.251604080200195
 70
   192
  0
VERTEX
  5
88E
  8
0
 10
21.92696189880371
 20
-130.5
 30
9.74933910369873
 70
   192
  0
VERTEX
  5
88F
  8
0
 10
-0.0016188889276236
 20
-130.5
 30
23.99631500244141
 70
   192
  0
VERTEX
  5
890
  8
0
 10
0.1848070621490479
 20
-55.49525451660156
 30
23.99625015258789
 70
   192
  0
VERTEX
  5
891
  8
0
 10
1.283683061599731
 20
-57.26863098144531
 30
23.96187400817871
 70
   192
  0
VERTEX
  5
892
  8
0
 10
23.79305648803711
 20
-130.5
 30
3.128950119018555
 70
   192
  0
VERTEX
  5
893
  8
0
 10
23.27279853820801
 20
-53.58533096313477
 30
5.853064060211182
 70
   192
  0
VERTEX
  5
894
  8
0
 10
23.70179557800293
 20
-53.23420333862305
 30
3.695298910140991
 70
   192
  0
VERTEX
  5
895
  8
0
 10
23.79305648803711
 20
-53.13475036621094
 30
3.128950595855713
 70
   192
  0
VERTEX
  5
896
  8
0
 10
19.3204288482666
 20
-54.72014617919922
 30
14.23213005065918
 70
   192
  0
VERTEX
  5
897
  8
0
 10
18.248046875
 20
-130.5
 30
15.58334827423096
 70
   192
  0
VERTEX
  5
898
  8
0
 10
18.63369560241699
 20
-54.83969879150391
 30
15.12800121307373
 70
   192
  0
VERTEX
  5
899
  8
0
 10
16.30516242980957
 20
-55.19647216796875
 30
17.55216598510742
 70
   192
  0
VERTEX
  5
89A
  8
0
 10
13.07791900634766
 20
-130.5
 30
20.11821937561035
 70
   192
  0
VERTEX
  5
89B
  8
0
 10
13.66787624359131
 20
-55.55814743041992
 30
19.72307014465332
 70
   192
  0
VERTEX
  5
89C
  8
0
 10
12.755934715271
 20
-55.67447280883789
 30
20.32473945617676
 70
   192
  0
VERTEX
  5
89D
  8
0
 10
8.741320610046387
 20
-56.17560195922852
 30
22.34717559814453
 70
   192
  0
VERTEX
  5
89E
  8
0
 10
6.818501949310303
 20
-130.5
 30
23.00699615478516
 70
   192
  0
VERTEX
  5
89F
  8
0
 10
6.525099754333496
 20
-56.46620941162109
 30
23.09181213378906
 70
   192
  0
VERTEX
  5
8A0
  8
0
 10
3.274693250656128
 20
-56.93659210205078
 30
23.77163314819336
 70
   192
  0
VERTEX
  5
8A1
  8
0
 10
2.222225904464722
 20
-57.10623550415039
 30
23.89306259155273
 70
   192
  0
VERTEX
  5
8A2
  8
0
 10
0.0534662306308746
 20
-57.20419692993164
 30
23.99625015258789
 70
   192
  0
VERTEX
  5
8A3
  8
0
 10
23.79305648803711
 20
130.5
 30
3.128950119018555
 70
   192
  0
VERTEX
  5
8A4
  8
0
 10
23.70799446105957
 20
53.23629379272461
 30
3.695194482803345
 70
   192
  0
VERTEX
  5
8A5
  8
0
 10
23.65144157409668
 20
53.28582382202148
 30
3.991412162780762
 70
   192
  0
VERTEX
  5
8A6
  8
0
 10
21.92199516296387
 20
130.5
 30
9.761591911315918
 70
   192
  0
VERTEX
  5
8A7
  8
0
 10
23.27279663085938
 20
53.58533477783203
 30
5.853068828582764
 70
   192
  0
VERTEX
  5
8A8
  8
0
 10
22.53391647338867
 20
53.93184280395508
 30
8.251593589782715
 70
   192
  0
VERTEX
  5
8A9
  8
0
 10
23.79305648803711
 20
53.13475036621094
 30
3.128950119018555
 70
   192
  0
VERTEX
  5
8AA
  8
0
 10
18.24091339111328
 20
130.5
 30
15.59039688110352
 70
   192
  0
VERTEX
  5
8AB
  8
0
 10
18.63369560241699
 20
54.83969879150391
 30
15.12800121307373
 70
   192
  0
VERTEX
  5
8AC
  8
0
 10
16.30516242980957
 20
55.19647216796875
 30
17.55216598510742
 70
   192
  0
VERTEX
  5
8AD
  8
0
 10
1.283683061599731
 20
57.26863098144531
 30
23.96187400817871
 70
   192
  0
VERTEX
  5
8AE
  8
0
 10
-0.0016188877634704
 20
130.5
 30
23.99631500244141
 70
   192
  0
VERTEX
  5
8AF
  8
0
 10
2.222225904464722
 20
57.10623550415039
 30
23.89306259155273
 70
   192
  0
VERTEX
  5
8B0
  8
0
 10
6.805706024169922
 20
130.5
 30
23.01032066345215
 70
   192
  0
VERTEX
  5
8B1
  8
0
 10
3.274693250656128
 20
56.93659210205078
 30
23.77163314819336
 70
   192
  0
VERTEX
  5
8B2
  8
0
 10
0.0534662306308746
 20
57.20419692993164
 30
23.99625015258789
 70
   192
  0
VERTEX
  5
8B3
  8
0
 10
6.525325298309326
 20
56.46617889404297
 30
23.09174728393555
 70
   192
  0
VERTEX
  5
8B4
  8
0
 10
8.741318702697754
 20
56.17563629150391
 30
22.34717750549316
 70
   192
  0
VERTEX
  5
8B5
  8
0
 10
13.06999969482422
 20
130.5
 30
20.1243724822998
 70
   192
  0
VERTEX
  5
8B6
  8
0
 10
12.75595855712891
 20
55.67462539672852
 30
20.3247241973877
 70
   192
  0
VERTEX
  5
8B7
  8
0
 10
13.66788005828857
 20
55.55814743041992
 30
19.72306823730469
 70
   192
  0
VERTEX
  5
8B8
  8
0
 10
19.32043266296387
 20
54.7200927734375
 30
14.23212718963623
 70
   192
  0
VERTEX
  5
8B9
  8
0
 10
21.63619804382324
 20
54.21929550170898
 30
10.37922763824463
 70
   192
  0
VERTEX
  5
8BA
  8
0
 10
59.9261474609375
 20
-44.85355377197266
 30
3.342761516571045
 70
   192
  0
VERTEX
  5
8BB
  8
0
 10
88.19837951660156
 20
-45.0
 30
3.696315050125122
 70
   192
  0
VERTEX
  5
8BC
  8
0
 10
88.19837951660156
 20
-44.85355377197266
 30
3.342761516571045
 70
   192
  0
VERTEX
  5
8BD
  8
0
 10
59.91642761230469
 20
-45.0
 30
3.696315050125122
 70
   192
  0
VERTEX
  5
8BE
  8
0
 10
31.64427185058594
 20
-44.97159194946289
 30
3.530180692672729
 70
   192
  0
VERTEX
  5
8BF
  8
0
 10
31.65194320678711
 20
-44.88951873779297
 30
3.382824897766113
 70
   192
  0
VERTEX
  5
8C0
  8
0
 10
31.63447570800781
 20
-45.0
 30
3.696315050125122
 70
   192
  0
VERTEX
  5
8C1
  8
0
 10
52.40997695922852
 20
-45.0
 30
23.49631500244141
 70
   192
  0
VERTEX
  5
8C2
  8
0
 10
52.40997695922852
 20
-44.85355377197266
 30
23.84986877441406
 70
   192
  0
VERTEX
  5
8C3
  8
0
 10
88.19837951660156
 20
-44.85355377197266
 30
23.84986877441406
 70
   192
  0
VERTEX
  5
8C4
  8
0
 10
16.6215705871582
 20
-45.0
 30
23.49631500244141
 70
   192
  0
VERTEX
  5
8C5
  8
0
 10
16.6215705871582
 20
-44.85355377197266
 30
23.84986877441406
 70
   192
  0
VERTEX
  5
8C6
  8
0
 10
88.19837951660156
 20
-45.0
 30
23.49631500244141
 70
   192
  0
VERTEX
  5
8C7
  8
0
 10
96.61676025390625
 20
44.5
 30
19.71203804016113
 70
   192
  0
VERTEX
  5
8C8
  8
0
 10
97.34223175048828
 20
45.0
 30
17.39099311828613
 70
   192
  0
VERTEX
  5
8C9
  8
0
 10
98.09019470214844
 20
44.5
 30
16.80561256408691
 70
   192
  0
VERTEX
  5
8CA
  8
0
 10
95.19183349609375
 20
45.0
 30
20.60256004333496
 70
   192
  0
VERTEX
  5
8CB
  8
0
 10
98.09626770019531
 20
45.0
 30
13.59631633758545
 70
   192
  0
VERTEX
  5
8CC
  8
0
 10
98.59838104248047
 20
44.5
 30
13.59631538391113
 70
   192
  0
VERTEX
  5
8CD
  8
0
 10
94.31473541259766
 20
44.5
 30
22.01355934143066
 70
   192
  0
VERTEX
  5
8CE
  8
0
 10
91.97992706298828
 20
45.0
 30
22.74552345275879
 70
   192
  0
VERTEX
  5
8CF
  8
0
 10
91.4161148071289
 20
44.5
 30
23.49169921875
 70
   192
  0
VERTEX
  5
8D0
  8
0
 10
88.19837951660156
 20
45.0
 30
23.49631500244141
 70
   192
  0
VERTEX
  5
8D1
  8
0
 10
88.19837951660156
 20
44.5
 30
23.99631500244141
 70
   192
  0
VERTEX
  5
8D2
  8
0
 10
1.298581600189209
 20
60.60247802734375
 30
-23.20000076293945
 70
   192
  0
VERTEX
  5
8D3
  8
0
 10
-0.0604016482830048
 20
63.24701309204102
 30
-24.86606407165527
 70
   192
  0
VERTEX
  5
8D4
  8
0
 10
-0.0115455947816372
 20
63.18385696411133
 30
-23.20000076293945
 70
   192
  0
VERTEX
  5
8D5
  8
0
 10
1.283952593803406
 20
60.6502571105957
 30
-24.50584602355957
 70
   192
  0
VERTEX
  5
8D6
  8
0
 10
1.75
 20
57.75
 30
-23.20000076293945
 70
   192
  0
VERTEX
  5
8D7
  8
0
 10
1.292428374290466
 20
54.88436508178711
 30
-23.20000076293945
 70
   192
  0
VERTEX
  5
8D8
  8
0
 10
1.748830676078796
 20
57.7411994934082
 30
-24.38128089904785
 70
   192
  0
VERTEX
  5
8D9
  8
0
 10
-0.0640757530927658
 20
52.24882507324219
 30
-24.8670482635498
 70
   192
  0
VERTEX
  5
8DA
  8
0
 10
1.280101537704468
 20
54.841064453125
 30
-24.50687789916992
 70
   192
  0
VERTEX
  5
8DB
  8
0
 10
-0.0228152889758348
 20
52.3106575012207
 30
-23.20000076293945
 70
   192
  0
VERTEX
  5
8DC
  8
0
 10
-2.129971027374268
 20
50.21954345703125
 30
-25.42060279846191
 70
   192
  0
VERTEX
  5
8DD
  8
0
 10
-2.068669080734253
 20
50.26172256469727
 30
-23.20000076293945
 70
   192
  0
VERTEX
  5
8DE
  8
0
 10
-4.654133319854736
 20
49.00358963012695
 30
-23.20000076293945
 70
   192
  0
VERTEX
  5
8DF
  8
0
 10
-4.687641143798828
 20
48.93781661987305
 30
-26.10592842102051
 70
   192
  0
VERTEX
  5
8E0
  8
0
 10
-7.5
 20
48.5
 30
-26.85949897766113
 70
   192
  0
VERTEX
  5
8E1
  8
0
 10
-7.5
 20
48.5
 30
-23.20000076293945
 70
   192
  0
VERTEX
  5
8E2
  8
0
 10
-2.057732582092285
 20
65.23339080810547
 30
-23.20000076293945
 70
   192
  0
VERTEX
  5
8E3
  8
0
 10
-2.119473218917847
 20
65.27381896972656
 30
-25.41779136657715
 70
   192
  0
VERTEX
  5
8E4
  8
0
 10
-4.681363582611084
 20
66.55989074707031
 30
-26.104248046875
 70
   192
  0
VERTEX
  5
8E5
  8
0
 10
-4.63876485824585
 20
66.51488494873047
 30
-23.20000076293945
 70
   192
  0
VERTEX
  5
8E6
  8
0
 10
-7.5
 20
67.0
 30
-26.85949897766113
 70
   192
  0
VERTEX
  5
8E7
  8
0
 10
-7.5
 20
67.0
 30
-23.20000076293945
 70
   192
  0
VERTEX
  5
8E8
  8
0
 10
9.082324981689453
 20
-45.98876953125
 30
23.98208618164062
 70
   192
  0
VERTEX
  5
8E9
  8
0
 10
12.01282215118408
 20
-45.0
 30
23.99631500244141
 70
   192
  0
VERTEX
  5
8EA
  8
0
 10
2.713876962661743
 20
-50.23624801635742
 30
23.9958438873291
 70
   192
  0
VERTEX
  5
8EB
  8
0
 10
2.500638008117676
 20
-50.51900482177734
 30
23.99454498291016
 70
   192
  0
VERTEX
  5
8EC
  8
0
 10
6.812188148498535
 20
-47.06155395507812
 30
23.9751033782959
 70
   192
  0
VERTEX
  5
8ED
  8
0
 10
12.09341812133789
 20
-45.37147903442383
 30
23.82113647460938
 70
   192
  0
VERTEX
  5
8EE
  8
0
 10
6.522716999053955
 20
-47.09415817260742
 30
23.99631500244141
 70
   192
  0
VERTEX
  5
8EF
  8
0
 10
16.61906051635742
 20
-44.5
 30
23.99631500244141
 70
   192
  0
VERTEX
  5
8F0
  8
0
 10
2.133069753646851
 20
-50.95887756347656
 30
23.99631500244141
 70
   192
  0
VERTEX
  5
8F1
  8
0
 10
-10.36123561859131
 20
48.98511123657227
 30
-23.20000076293945
 70
   192
  0
VERTEX
  5
8F2
  8
0
 10
-10.31863689422607
 20
48.94011306762695
 30
-27.61474990844727
 70
   192
  0
VERTEX
  5
8F3
  8
0
 10
-16.75
 20
57.75
 30
-23.20000076293945
 70
   192
  0
VERTEX
  5
8F4
  8
0
 10
-16.74883079528809
 20
57.7588005065918
 30
-29.33771514892578
 70
   192
  0
VERTEX
  5
8F5
  8
0
 10
-16.2839527130127
 20
54.8497428894043
 30
-29.2131519317627
 70
   192
  0
VERTEX
  5
8F6
  8
0
 10
-14.98845481872559
 20
52.31614303588867
 30
-23.20000076293945
 70
   192
  0
VERTEX
  5
8F7
  8
0
 10
-14.93959808349609
 20
52.25298690795898
 30
-28.85293197631836
 70
   192
  0
VERTEX
  5
8F8
  8
0
 10
-12.88052654266357
 20
50.2261848449707
 30
-28.30120658874512
 70
   192
  0
VERTEX
  5
8F9
  8
0
 10
-14.9771842956543
 20
63.1893424987793
 30
-23.20000076293945
 70
   192
  0
VERTEX
  5
8FA
  8
0
 10
-14.9359245300293
 20
63.25117492675781
 30
-28.85194778442383
 70
   192
  0
VERTEX
  5
8FB
  8
0
 10
-16.28010177612305
 20
60.658935546875
 30
-29.21212005615234
 70
   192
  0
VERTEX
  5
8FC
  8
0
 10
-16.29242897033691
 20
60.61563491821289
 30
-23.20000076293945
 70
   192
  0
VERTEX
  5
8FD
  8
0
 10
-12.93133068084717
 20
65.23827362060547
 30
-23.20000076293945
 70
   192
  0
VERTEX
  5
8FE
  8
0
 10
-10.31235885620117
 20
66.56218719482422
 30
-27.61306762695312
 70
   192
  0
VERTEX
  5
8FF
  8
0
 10
-12.87002849578857
 20
65.28045654296875
 30
-28.29839324951172
 70
   192
  0
VERTEX
  5
900
  8
0
 10
-10.34586620330811
 20
66.49641418457031
 30
-23.20000076293945
 70
   192
  0
VERTEX
  5
901
  8
0
 10
-16.29858207702637
 20
54.89752197265625
 30
-23.20000076293945
 70
   192
  0
VERTEX
  5
902
  8
0
 10
-12.94226741790771
 20
50.26660537719727
 30
-23.20000076293945
 70
   192
  0
VERTEX
  5
903
  8
0
 10
88.19837951660156
 20
44.5
 30
3.196315050125122
 70
   192
  0
VERTEX
  5
904
  8
0
 10
31.65732002258301
 20
44.76368713378906
 30
3.271499633789062
 70
   192
  0
VERTEX
  5
905
  8
0
 10
31.66084098815918
 20
44.5
 30
3.196315050125122
 70
   192
  0
VERTEX
  5
906
  8
0
 10
31.65194320678711
 20
44.88951873779297
 30
3.382824897766113
 70
   192
  0
VERTEX
  5
907
  8
0
 10
31.64427185058594
 20
44.97159194946289
 30
3.530180692672729
 70
   192
  0
VERTEX
  5
908
  8
0
 10
88.19837951660156
 20
45.0
 30
3.696315050125122
 70
   192
  0
VERTEX
  5
909
  8
0
 10
31.63447570800781
 20
45.0
 30
3.696315050125122
 70
   192
  0
VERTEX
  5
90A
  8
0
 10
91.99331665039062
 20
45.0
 30
4.452472686767578
 70
   192
  0
VERTEX
  5
90B
  8
0
 10
97.34742736816406
 20
45.0
 30
9.814653396606445
 70
   192
  0
VERTEX
  5
90C
  8
0
 10
95.20497131347656
 20
45.0
 30
6.603731155395508
 70
   192
  0
VERTEX
  5
90D
  8
0
 10
30.74608421325684
 20
45.0
 30
8.683955192565918
 70
   192
  0
VERTEX
  5
90E
  8
0
 10
25.39559364318848
 20
45.0
 30
17.85948753356934
 70
   192
  0
VERTEX
  5
90F
  8
0
 10
28.6447582244873
 20
45.0
 30
13.5479211807251
 70
   192
  0
VERTEX
  5
910
  8
0
 10
16.6215705871582
 20
45.0
 30
23.49631500244141
 70
   192
  0
VERTEX
  5
911
  8
0
 10
21.25115966796875
 20
45.0
 30
21.24601745605469
 70
   192
  0
VERTEX
  5
912
  8
0
 10
6.2100510597229
 20
130.5
 30
-23.1859016418457
 70
   192
  0
VERTEX
  5
913
  8
0
 10
-40.00161743164062
 20
130.5
 30
23.99631500244141
 70
   192
  0
VERTEX
  5
914
  8
0
 10
-40.00161743164062
 20
130.5
 30
-35.56827926635742
 70
   192
  0
VERTEX
  5
915
  8
0
 10
21.71324157714844
 20
130.5
 30
-10.22235870361328
 70
   192
  0
VERTEX
  5
916
  8
0
 10
23.74799346923828
 20
130.5
 30
-3.488977909088135
 70
   192
  0
VERTEX
  5
917
  8
0
 10
12.26632022857666
 20
130.5
 30
-20.62254905700684
 70
   192
  0
VERTEX
  5
918
  8
0
 10
17.71718978881836
 20
130.5
 30
-16.18914604187012
 70
   192
  0
VERTEX
  5
919
  8
0
 10
24.32679176330566
 20
50.05233764648438
 30
3.696274518966675
 70
   192
  0
VERTEX
  5
91A
  8
0
 10
28.52841377258301
 20
45.65435028076172
 30
3.696301460266113
 70
   192
  0
VERTEX
  5
91B
  8
0
 10
27.6726131439209
 20
46.04409027099609
 30
3.037333488464355
 70
   192
  0
VERTEX
  5
91C
  8
0
 10
26.01247978210449
 20
47.43144607543945
 30
3.696287870407104
 70
   192
  0
VERTEX
  5
91D
  8
0
 10
24.92983818054199
 20
48.86561965942383
 30
2.163868427276611
 70
   192
  0
VERTEX
  5
91E
  8
0
 10
23.97444915771484
 20
52.58098983764648
 30
1.055949807167053
 70
   192
  0
VERTEX
  5
91F
  8
0
 10
23.96615219116211
 20
51.11695861816406
 30
-1.237553954124451
 70
   192
  0
VERTEX
  5
920
  8
0
 10
27.84804534912109
 20
45.72279357910156
 30
2.661327123641968
 70
   192
  0
VERTEX
  5
921
  8
0
 10
25.0686149597168
 20
48.01759338378906
 30
0.9924120306968689
 70
   192
  0
VERTEX
  5
922
  8
0
 10
23.84243774414062
 20
48.85626983642578
 30
-2.733773708343506
 70
   192
  0
VERTEX
  5
923
  8
0
 10
27.94349098205566
 20
45.36146545410156
 30
2.467245578765869
 70
   192
  0
VERTEX
  5
924
  8
0
 10
25.12647819519043
 20
46.83905029296875
 30
0.2907615900039673
 70
   192
  0
VERTEX
  5
925
  8
0
 10
23.74724197387695
 20
46.24332046508789
 30
-3.466555833816528
 70
   192
  0
VERTEX
  5
926
  8
0
 10
27.99898529052734
 20
44.89912033081055
 30
2.33477520942688
 70
   192
  0
VERTEX
  5
927
  8
0
 10
25.14604568481445
 20
45.47749328613281
 30
-0.0640909299254417
 70
   192
  0
VERTEX
  5
928
  8
0
 10
23.72684478759766
 20
44.5
 30
-3.603684902191162
 70
   192
  0
VERTEX
  5
929
  8
0
 10
25.15670204162598
 20
44.5
 30
-0.1093613430857658
 70
   192
  0
VERTEX
  5
92A
  8
0
 10
27.96131706237793
 20
44.5
 30
2.292590141296387
 70
   192
  0
VERTEX
  5
92B
  8
0
 10
14.89072227478027
 20
45.84643936157227
 30
22.29553604125977
 70
   192
  0
VERTEX
  5
92C
  8
0
 10
21.05020523071289
 20
47.87685775756836
 30
15.154541015625
 70
   192
  0
VERTEX
  5
92D
  8
0
 10
22.45404243469238
 20
50.64665985107422
 30
9.947332382202148
 70
   192
  0
VERTEX
  5
92E
  8
0
 10
24.33287048339844
 20
47.70484924316406
 30
9.655831336975098
 70
   192
  0
VERTEX
  5
92F
  8
0
 10
27.14616203308105
 20
45.71906661987305
 30
9.338188171386719
 70
   192
  0
VERTEX
  5
930
  8
0
 10
18.87378311157227
 20
51.0552864074707
 30
15.58560657501221
 70
   192
  0
VERTEX
  5
931
  8
0
 10
16.33503913879395
 20
48.03925323486328
 30
19.63165283203125
 70
   192
  0
VERTEX
  5
932
  8
0
 10
24.2767448425293
 20
45.75996017456055
 30
14.65591907501221
 70
   192
  0
VERTEX
  5
933
  8
0
 10
20.06253623962402
 20
45.79843902587891
 30
19.11507797241211
 70
   192
  0
VERTEX
  5
934
  8
0
 10
13.81246662139893
 20
51.44240188598633
 30
20.05643081665039
 70
   192
  0
VERTEX
  5
935
  8
0
 10
10.61746025085449
 20
48.23344802856445
 30
22.64960479736328
 70
   192
  0
VERTEX
  5
936
  8
0
 10
12.09341812133789
 20
45.37147903442383
 30
23.82113647460938
 70
   192
  0
VERTEX
  5
937
  8
0
 10
7.722652435302734
 20
51.88497161865234
 30
22.93241500854492
 70
   192
  0
VERTEX
  5
938
  8
0
 10
6.832753658294678
 20
47.08029937744141
 30
23.97736930847168
 70
   192
  0
VERTEX
  5
939
  8
0
 10
2.5196692943573
 20
50.51194000244141
 30
23.99508857727051
 70
   192
  0
VERTEX
  5
93A
  8
0
 10
2.503084421157837
 20
50.46857833862305
 30
23.99631500244141
 70
   192
  0
VERTEX
  5
93B
  8
0
 10
6.791952133178711
 20
46.94781494140625
 30
23.99631500244141
 70
   192
  0
VERTEX
  5
93C
  8
0
 10
12.01282215118408
 20
45.0
 30
23.99631500244141
 70
   192
  0
VERTEX
  5
93D
  8
0
 10
96.59972381591797
 20
44.5
 30
7.48139476776123
 70
   192
  0
VERTEX
  5
93E
  8
0
 10
94.30150604248047
 20
44.5
 30
5.184271335601807
 70
   192
  0
VERTEX
  5
93F
  8
0
 10
98.0818099975586
 20
44.5
 30
10.37588214874268
 70
   192
  0
VERTEX
  5
940
  8
0
 10
91.40229034423828
 20
44.5
 30
3.708937644958496
 70
   192
  0
VERTEX
  5
941
  8
0
 10
16.61906051635742
 20
44.5
 30
23.99631500244141
 70
   192
  0
VERTEX
  5
942
  8
0
 10
52.40872192382812
 20
-44.5
 30
23.99631500244141
 70
   192
  0
VERTEX
  5
943
  8
0
 10
88.19837951660156
 20
-44.5
 30
23.99631500244141
 70
   192
  0
VERTEX
  5
944
  8
0
 10
91.11913299560547
 20
-44.5
 30
23.57136917114258
 70
   192
  0
VERTEX
  5
945
  8
0
 10
98.49020385742188
 20
-44.5
 30
15.08178615570068
 70
   192
  0
VERTEX
  5
946
  8
0
 10
97.61376953125
 20
-45.0
 30
16.65667152404785
 70
   192
  0
VERTEX
  5
947
  8
0
 10
97.64842224121094
 20
-44.5
 30
17.92129516601562
 70
   192
  0
VERTEX
  5
948
  8
0
 10
91.26497650146484
 20
-45.0
 30
23.00912475585938
 70
   192
  0
VERTEX
  5
949
  8
0
 10
97.61119079589844
 20
-45.0
 30
10.52972221374512
 70
   192
  0
VERTEX
  5
94A
  8
0
 10
98.09838104248047
 20
-45.0
 30
13.59631538391113
 70
   192
  0
VERTEX
  5
94B
  8
0
 10
98.49227142333984
 20
-44.5
 30
12.12076473236084
 70
   192
  0
VERTEX
  5
94C
  8
0
 10
93.81189727783203
 20
-44.5
 30
22.34270286560059
 70
   192
  0
VERTEX
  5
94D
  8
0
 10
96.04576110839844
 20
-44.5
 30
20.40815925598145
 70
   192
  0
VERTEX
  5
94E
  8
0
 10
94.01420593261719
 20
-45.0
 30
21.60743713378906
 70
   192
  0
VERTEX
  5
94F
  8
0
 10
94.00817108154297
 20
-45.0
 30
5.580788135528564
 70
   192
  0
VERTEX
  5
950
  8
0
 10
96.06369018554688
 20
-44.5
 30
6.784261703491211
 70
   192
  0
VERTEX
  5
951
  8
0
 10
93.82227325439453
 20
-44.5
 30
4.842010498046875
 70
   192
  0
VERTEX
  5
952
  8
0
 10
96.20950317382812
 20
-45.0
 30
7.780492782592773
 70
   192
  0
VERTEX
  5
953
  8
0
 10
97.66199493408203
 20
-44.5
 30
9.276297569274902
 70
   192
  0
VERTEX
  5
954
  8
0
 10
91.25873565673828
 20
-45.0
 30
4.180922985076904
 70
   192
  0
VERTEX
  5
955
  8
0
 10
91.1329116821289
 20
-44.5
 30
3.613384485244751
 70
   192
  0
VERTEX
  5
956
  8
0
 10
88.19837951660156
 20
-44.5
 30
3.196315050125122
 70
   192
  0
VERTEX
  5
957
  8
0
 10
96.21390533447266
 20
-45.0
 30
19.40610885620117
 70
   192
  0
VERTEX
  5
958
  8
0
 10
59.92961120605469
 20
-44.5
 30
3.196315050125122
 70
   192
  0
VERTEX
  5
959
  8
0
 10
31.65732002258301
 20
-44.76368713378906
 30
3.271499633789062
 70
   192
  0
VERTEX
  5
95A
  8
0
 10
31.66084098815918
 20
-44.5
 30
3.196315050125122
 70
   192
  0
VERTEX
  5
95B
  8
0
 10
25.40182685852051
 20
-45.0
 30
17.85285758972168
 70
   192
  0
VERTEX
  5
95C
  8
0
 10
21.26375579833984
 20
-45.0
 30
21.24314498901367
 70
   192
  0
VERTEX
  5
95D
  8
0
 10
28.64873504638672
 20
-45.0
 30
13.53979873657227
 70
   192
  0
VERTEX
  5
95E
  8
0
 10
30.74443626403809
 20
-45.0
 30
8.67151927947998
 70
   192
  0
VERTEX
  5
95F
  8
0
 10
-40.00161743164062
 20
63.927490234375
 30
-14.0
 70
   192
  0
VERTEX
  5
960
  8
0
 10
-40.00161743164062
 20
65.41423034667969
 30
-8.458908081054688
 70
   192
  0
VERTEX
  5
961
  8
0
 10
-40.00161743164062
 20
-65.408935546875
 30
-8.468979835510254
 70
   192
  0
VERTEX
  5
962
  8
0
 10
-40.00161743164062
 20
-84.58576965332031
 30
-8.458908081054688
 70
   192
  0
VERTEX
  5
963
  8
0
 10
-40.00161743164062
 20
-130.5
 30
23.99631500244141
 70
   192
  0
VERTEX
  5
964
  8
0
 10
-40.00161743164062
 20
-86.072509765625
 30
-14.0
 70
   192
  0
VERTEX
  5
965
  8
0
 10
-40.00161743164062
 20
69.46897888183594
 30
-4.408933639526367
 70
   192
  0
VERTEX
  5
966
  8
0
 10
-40.00161743164062
 20
-80.53102111816406
 30
-4.408933639526367
 70
   192
  0
VERTEX
  5
967
  8
0
 10
-40.00161743164062
 20
-75.0
 30
-2.927488565444946
 70
   192
  0
VERTEX
  5
968
  8
0
 10
-40.00161743164062
 20
69.45890808105469
 30
-23.58576774597168
 70
   192
  0
VERTEX
  5
969
  8
0
 10
-40.00161743164062
 20
-65.41423034667969
 30
-19.54109191894531
 70
   192
  0
VERTEX
  5
96A
  8
0
 10
-40.00161743164062
 20
-69.46897888183594
 30
-23.59106636047363
 70
   192
  0
VERTEX
  5
96B
  8
0
 10
-40.00161743164062
 20
-84.591064453125
 30
-19.53101921081543
 70
   192
  0
VERTEX
  5
96C
  8
0
 10
-40.00161743164062
 20
-130.5
 30
-35.56827926635742
 70
   192
  0
VERTEX
  5
96D
  8
0
 10
-40.00161743164062
 20
-75.0
 30
-25.07251167297363
 70
   192
  0
VERTEX
  5
96E
  8
0
 10
-40.00161743164062
 20
-80.54109191894531
 30
-23.58576774597168
 70
   192
  0
VERTEX
  5
96F
  8
0
 10
-40.00161743164062
 20
-69.45890808105469
 30
-4.414232730865479
 70
   192
  0
VERTEX
  5
970
  8
0
 10
-40.00161743164062
 20
75.0
 30
-2.927488565444946
 70
   192
  0
VERTEX
  5
971
  8
0
 10
-40.00161743164062
 20
80.53102111816406
 30
-23.59106636047363
 70
   192
  0
VERTEX
  5
972
  8
0
 10
-40.00161743164062
 20
84.58576965332031
 30
-19.54109191894531
 70
   192
  0
VERTEX
  5
973
  8
0
 10
-40.00161743164062
 20
-63.927490234375
 30
-14.0
 70
   192
  0
VERTEX
  5
974
  8
0
 10
-40.00161743164062
 20
65.408935546875
 30
-19.53101921081543
 70
   192
  0
VERTEX
  5
975
  8
0
 10
-40.00161743164062
 20
75.0
 30
-25.07251167297363
 70
   192
  0
VERTEX
  5
976
  8
0
 10
-40.00161743164062
 20
86.072509765625
 30
-14.0
 70
   192
  0
VERTEX
  5
977
  8
0
 10
-40.00161743164062
 20
84.591064453125
 30
-8.468979835510254
 70
   192
  0
VERTEX
  5
978
  8
0
 10
-40.00161743164062
 20
80.54109191894531
 30
-4.414232730865479
 70
   192
  0
VERTEX
  5
979
  8
0
 10
6.2100510597229
 20
-130.5
 30
-23.1859016418457
 70
   192
  0
VERTEX
  5
97A
  8
0
 10
12.29158973693848
 20
-130.5
 30
-20.6209831237793
 70
   192
  0
VERTEX
  5
97B
  8
0
 10
21.72067070007324
 20
-130.5
 30
-10.20519161224365
 70
   192
  0
VERTEX
  5
97C
  8
0
 10
17.73033905029297
 20
-130.5
 30
-16.17586708068848
 70
   192
  0
VERTEX
  5
97D
  8
0
 10
23.7399730682373
 20
-130.5
 30
-3.464849233627319
 70
   192
  0
VERTEX
  5
97E
  8
0
 10
23.9749755859375
 20
-52.58098602294922
 30
1.055972814559937
 70
   192
  0
VERTEX
  5
97F
  8
0
 10
23.84259414672852
 20
-48.85626983642578
 30
-2.733791589736938
 70
   192
  0
VERTEX
  5
980
  8
0
 10
23.96664237976074
 20
-51.11695861816406
 30
-1.237579226493835
 70
   192
  0
VERTEX
  5
981
  8
0
 10
23.72684478759766
 20
-44.5
 30
-3.603684902191162
 70
   192
  0
VERTEX
  5
982
  8
0
 10
23.74724388122559
 20
-46.24332046508789
 30
-3.466556310653687
 70
   192
  0
VERTEX
  5
983
  8
0
 10
18.87378311157227
 20
-51.0552864074707
 30
15.58560657501221
 70
   192
  0
VERTEX
  5
984
  8
0
 10
13.81246662139893
 20
-51.44240188598633
 30
20.05643081665039
 70
   192
  0
VERTEX
  5
985
  8
0
 10
7.722652435302734
 20
-51.88497161865234
 30
22.93241500854492
 70
   192
  0
VERTEX
  5
986
  8
0
 10
10.61746025085449
 20
-48.23344802856445
 30
22.64960479736328
 70
   192
  0
VERTEX
  5
987
  8
0
 10
14.89072227478027
 20
-45.84643936157227
 30
22.29553604125977
 70
   192
  0
VERTEX
  5
988
  8
0
 10
20.06253623962402
 20
-45.79843902587891
 30
19.11507797241211
 70
   192
  0
VERTEX
  5
989
  8
0
 10
16.33503913879395
 20
-48.03925323486328
 30
19.63165283203125
 70
   192
  0
VERTEX
  5
98A
  8
0
 10
22.45404243469238
 20
-50.64665985107422
 30
9.947332382202148
 70
   192
  0
VERTEX
  5
98B
  8
0
 10
24.33287048339844
 20
-47.70484924316406
 30
9.655831336975098
 70
   192
  0
VERTEX
  5
98C
  8
0
 10
24.32681846618652
 20
-50.05226898193359
 30
3.695652484893799
 70
   192
  0
VERTEX
  5
98D
  8
0
 10
24.2767448425293
 20
-45.75996017456055
 30
14.65591907501221
 70
   192
  0
VERTEX
  5
98E
  8
0
 10
28.52839279174805
 20
-45.65433883666992
 30
3.696094274520874
 70
   192
  0
VERTEX
  5
98F
  8
0
 10
27.14616203308105
 20
-45.71906661987305
 30
9.338188171386719
 70
   192
  0
VERTEX
  5
990
  8
0
 10
21.05020523071289
 20
-47.87685775756836
 30
15.154541015625
 70
   192
  0
VERTEX
  5
991
  8
0
 10
26.0124626159668
 20
-47.43140411376953
 30
3.695873498916626
 70
   192
  0
VERTEX
  5
992
  8
0
 10
25.14604568481445
 20
-45.47749328613281
 30
-0.0640909075737
 70
   192
  0
VERTEX
  5
993
  8
0
 10
25.17955207824707
 20
-44.50003433227539
 30
-0.0900349244475365
 70
   192
  0
VERTEX
  5
994
  8
0
 10
27.98416709899902
 20
-44.50006866455078
 30
2.311916589736938
 70
   192
  0
VERTEX
  5
995
  8
0
 10
27.99898529052734
 20
-44.89912033081055
 30
2.33477520942688
 70
   192
  0
VERTEX
  5
996
  8
0
 10
25.12647819519043
 20
-46.83905029296875
 30
0.2907617092132568
 70
   192
  0
VERTEX
  5
997
  8
0
 10
27.94349098205566
 20
-45.36146545410156
 30
2.467245578765869
 70
   192
  0
VERTEX
  5
998
  8
0
 10
25.0686149597168
 20
-48.01759338378906
 30
0.992412269115448
 70
   192
  0
VERTEX
  5
999
  8
0
 10
27.84804534912109
 20
-45.72279357910156
 30
2.661327362060547
 70
   192
  0
VERTEX
  5
99A
  8
0
 10
24.92983818054199
 20
-48.86561965942383
 30
2.163869142532349
 70
   192
  0
VERTEX
  5
99B
  8
0
 10
27.6726131439209
 20
-46.04409027099609
 30
3.037333726882935
 70
   192
  0
VERTEX
  5
99C
  8
0
 62
   253
 10
0.0
 20
0.0
 30
0.0
 70
   128
 71
     3
 72
     2
 73
     1
  0
VERTEX
  5
99D
  8
0
 62
   253
 10
0.0
 20
0.0
 30
0.0
 70
   128
 71
     6
 72
     5
 73
     4
  0
VERTEX
  5
99E
  8
0
 62
   253
 10
0.0
 20
0.0
 30
0.0
 70
   128
 71
     8
 72
     3
 73
     7
  0
VERTEX
  5
99F
  8
0
 62
   253
 10
0.0
 20
0.0
 30
0.0
 70
   128
 71
     3
 72
     8
 73
     2
  0
VERTEX
  5
9A0
  8
0
 62
   253
 10
0.0
 20
0.0
 30
0.0
 70
   128
 71
     8
 72
     7
 73
     9
  0
VERTEX
  5
9A1
  8
0
 62
   253
 10
0.0
 20
0.0
 30
0.0
 70
   128
 71
    10
 72
     9
 73
     7
  0
VERTEX
  5
9A2
  8
0
 62
   253
 10
0.0
 20
0.0
 30
0.0
 70
   128
 71
    11
 72
     3
 73
     1
  0
VERTEX
  5
9A3
  8
0
 62
   253
 10
0.0
 20
0.0
 30
0.0
 70
   128
 71
    11
 72
    12
 73
     3
  0
VERTEX
  5
9A4
  8
0
 62
   253
 10
0.0
 20
0.0
 30
0.0
 70
   128
 71
    11
 72
    13
 73
    12
  0
VERTEX
  5
9A5
  8
0
 62
   253
 10
0.0
 20
0.0
 30
0.0
 70
   128
 71
    13
 72
    14
 73
    12
  0
VERTEX
  5
9A6
  8
0
 62
   253
 10
0.0
 20
0.0
 30
0.0
 70
   128
 71
    12
 72
    14
 73
    15
  0
VERTEX
  5
9A7
  8
0
 62
   253
 10
0.0
 20
0.0
 30
0.0
 70
   128
 71
    15
 72
    14
 73
    16
  0
VERTEX
  5
9A8
  8
0
 62
   253
 10
0.0
 20
0.0
 30
0.0
 70
   128
 71
    15
 72
    16
 73
    17
  0
VERTEX
  5
9A9
  8
0
 62
   253
 10
0.0
 20
0.0
 30
0.0
 70
   128
 71
    15
 72
    17
 73
    18
  0
VERTEX
  5
9AA
  8
0
 62
   253
 10
0.0
 20
0.0
 30
0.0
 70
   128
 71
    19
 72
    15
 73
    18
  0
VERTEX
  5
9AB
  8
0
 62
   253
 10
0.0
 20
0.0
 30
0.0
 70
   128
 71
    20
 72
    19
 73
    18
  0
VERTEX
  5
9AC
  8
0
 62
   253
 10
0.0
 20
0.0
 30
0.0
 70
   128
 71
    21
 72
    19
 73
    20
  0
VERTEX
  5
9AD
  8
0
 62
   253
 10
0.0
 20
0.0
 30
0.0
 70
   128
 71
    21
 72
     4
 73
    19
  0
VERTEX
  5
9AE
  8
0
 62
   253
 10
0.0
 20
0.0
 30
0.0
 70
   128
 71
    21
 72
    22
 73
     4
  0
VERTEX
  5
9AF
  8
0
 62
   253
 10
0.0
 20
0.0
 30
0.0
 70
   128
 71
    22
 72
     6
 73
     4
  0
VERTEX
  5
9B0
  8
0
 62
   253
 10
0.0
 20
0.0
 30
0.0
 70
   128
 71
    23
 72
     4
 73
     5
  0
VERTEX
  5
9B1
  8
0
 62
   253
 10
0.0
 20
0.0
 30
0.0
 70
   128
 71
    26
 72
    25
 73
    24
  0
VERTEX
  5
9B2
  8
0
 62
   253
 10
0.0
 20
0.0
 30
0.0
 70
   128
 71
    29
 72
    28
 73
    27
  0
VERTEX
  5
9B3
  8
0
 62
   253
 10
0.0
 20
0.0
 30
0.0
 70
   128
 71
    30
 72
    24
 73
    25
  0
VERTEX
  5
9B4
  8
0
 62
   253
 10
0.0
 20
0.0
 30
0.0
 70
   128
 71
    33
 72
    32
 73
    31
  0
VERTEX
  5
9B5
  8
0
 62
   253
 10
0.0
 20
0.0
 30
0.0
 70
   128
 71
    36
 72
    35
 73
    34
  0
VERTEX
  5
9B6
  8
0
 62
   253
 10
0.0
 20
0.0
 30
0.0
 70
   128
 71
    35
 72
    38
 73
    37
  0
VERTEX
  5
9B7
  8
0
 62
   253
 10
0.0
 20
0.0
 30
0.0
 70
   128
 71
    34
 72
    35
 73
    39
  0
VERTEX
  5
9B8
  8
0
 62
   253
 10
0.0
 20
0.0
 30
0.0
 70
   128
 71
    38
 72
    40
 73
    37
  0
VERTEX
  5
9B9
  8
0
 62
   253
 10
0.0
 20
0.0
 30
0.0
 70
   128
 71
    35
 72
    36
 73
    38
  0
VERTEX
  5
9BA
  8
0
 62
   253
 10
0.0
 20
0.0
 30
0.0
 70
   128
 71
    40
 72
    41
 73
    37
  0
VERTEX
  5
9BB
  8
0
 62
   253
 10
0.0
 20
0.0
 30
0.0
 70
   128
 71
    37
 72
    41
 73
    42
  0
VERTEX
  5
9BC
  8
0
 62
   253
 10
0.0
 20
0.0
 30
0.0
 70
   128
 71
    42
 72
    41
 73
    43
  0
VERTEX
  5
9BD
  8
0
 62
   253
 10
0.0
 20
0.0
 30
0.0
 70
   128
 71
    44
 72
    42
 73
    43
  0
VERTEX
  5
9BE
  8
0
 62
   253
 10
0.0
 20
0.0
 30
0.0
 70
   128
 71
    33
 72
    42
 73
    44
  0
VERTEX
  5
9BF
  8
0
 62
   253
 10
0.0
 20
0.0
 30
0.0
 70
   128
 71
    33
 72
    31
 73
    42
  0
VERTEX
  5
9C0
  8
0
 62
   253
 10
0.0
 20
0.0
 30
0.0
 70
   128
 71
    45
 72
    31
 73
    32
  0
VERTEX
  5
9C1
  8
0
 62
   253
 10
0.0
 20
0.0
 30
0.0
 70
   128
 71
    45
 72
    27
 73
    31
  0
VERTEX
  5
9C2
  8
0
 62
   253
 10
0.0
 20
0.0
 30
0.0
 70
   128
 71
    45
 72
    46
 73
    27
  0
VERTEX
  5
9C3
  8
0
 62
   253
 10
0.0
 20
0.0
 30
0.0
 70
   128
 71
    46
 72
    29
 73
    27
  0
VERTEX
  5
9C4
  8
0
 62
   253
 10
0.0
 20
0.0
 30
0.0
 70
   128
 71
    24
 72
    28
 73
    26
  0
VERTEX
  5
9C5
  8
0
 62
   253
 10
0.0
 20
0.0
 30
0.0
 70
   128
 71
    28
 72
    24
 73
    27
  0
VERTEX
  5
9C6
  8
0
 62
   253
 10
0.0
 20
0.0
 30
0.0
 70
   128
 71
    49
 72
    48
 73
    47
  0
VERTEX
  5
9C7
  8
0
 62
   253
 10
0.0
 20
0.0
 30
0.0
 70
   128
 71
    48
 72
    50
 73
    47
  0
VERTEX
  5
9C8
  8
0
 62
   253
 10
0.0
 20
0.0
 30
0.0
 70
   128
 71
    51
 72
    47
 73
    50
  0
VERTEX
  5
9C9
  8
0
 62
   253
 10
0.0
 20
0.0
 30
0.0
 70
   128
 71
    51
 72
    52
 73
    47
  0
VERTEX
  5
9CA
  8
0
 62
   253
 10
0.0
 20
0.0
 30
0.0
 70
   128
 71
    53
 72
    51
 73
    50
  0
VERTEX
  5
9CB
  8
0
 62
   253
 10
0.0
 20
0.0
 30
0.0
 70
   128
 71
    56
 72
    55
 73
    54
  0
VERTEX
  5
9CC
  8
0
 62
   253
 10
0.0
 20
0.0
 30
0.0
 70
   128
 71
    58
 72
    57
 73
    55
  0
VERTEX
  5
9CD
  8
0
 62
   253
 10
0.0
 20
0.0
 30
0.0
 70
   128
 71
    57
 72
    54
 73
    55
  0
VERTEX
  5
9CE
  8
0
 62
   253
 10
0.0
 20
0.0
 30
0.0
 70
   128
 71
    54
 72
    59
 73
    56
  0
VERTEX
  5
9CF
  8
0
 62
   253
 10
0.0
 20
0.0
 30
0.0
 70
   128
 71
    62
 72
    61
 73
    60
  0
VERTEX
  5
9D0
  8
0
 62
   253
 10
0.0
 20
0.0
 30
0.0
 70
   128
 71
    63
 72
    60
 73
    61
  0
VERTEX
  5
9D1
  8
0
 62
   253
 10
0.0
 20
0.0
 30
0.0
 70
   128
 71
    65
 72
    64
 73
    62
  0
VERTEX
  5
9D2
  8
0
 62
   253
 10
0.0
 20
0.0
 30
0.0
 70
   128
 71
    64
 72
    61
 73
    62
  0
VERTEX
  5
9D3
  8
0
 62
   253
 10
0.0
 20
0.0
 30
0.0
 70
   128
 71
    60
 72
    63
 73
    66
  0
VERTEX
  5
9D4
  8
0
 62
   253
 10
0.0
 20
0.0
 30
0.0
 70
   128
 71
    66
 72
    63
 73
    67
  0
VERTEX
  5
9D5
  8
0
 62
   253
 10
0.0
 20
0.0
 30
0.0
 70
   128
 71
    67
 72
    69
 73
    68
  0
VERTEX
  5
9D6
  8
0
 62
   253
 10
0.0
 20
0.0
 30
0.0
 70
   128
 71
    68
 72
    66
 73
    67
  0
VERTEX
  5
9D7
  8
0
 62
   253
 10
0.0
 20
0.0
 30
0.0
 70
   128
 71
    69
 72
    70
 73
    68
  0
VERTEX
  5
9D8
  8
0
 62
     9
 10
0.0
 20
0.0
 30
0.0
 70
   128
 71
    73
 72
    72
 73
    71
  0
VERTEX
  5
9D9
  8
0
 62
     9
 10
0.0
 20
0.0
 30
0.0
 70
   128
 71
    71
 72
    72
 73
    74
  0
VERTEX
  5
9DA
  8
0
 62
     9
 10
0.0
 20
0.0
 30
0.0
 70
   128
 71
    75
 72
    71
 73
    74
  0
VERTEX
  5
9DB
  8
0
 62
     9
 10
0.0
 20
0.0
 30
0.0
 70
   128
 71
    77
 72
    76
 73
    75
  0
VERTEX
  5
9DC
  8
0
 62
     9
 10
0.0
 20
0.0
 30
0.0
 70
   128
 71
    80
 72
    79
 73
    78
  0
VERTEX
  5
9DD
  8
0
 62
     9
 10
0.0
 20
0.0
 30
0.0
 70
   128
 71
    82
 72
    78
 73
    81
  0
VERTEX
  5
9DE
  8
0
 62
     9
 10
0.0
 20
0.0
 30
0.0
 70
   128
 71
    78
 72
    82
 73
    80
  0
VERTEX
  5
9DF
  8
0
 62
     9
 10
0.0
 20
0.0
 30
0.0
 70
   128
 71
    84
 72
    83
 73
    81
  0
VERTEX
  5
9E0
  8
0
 62
     9
 10
0.0
 20
0.0
 30
0.0
 70
   128
 71
    82
 72
    81
 73
    83
  0
VERTEX
  5
9E1
  8
0
 62
     9
 10
0.0
 20
0.0
 30
0.0
 70
   128
 71
    86
 72
    83
 73
    85
  0
VERTEX
  5
9E2
  8
0
 62
     9
 10
0.0
 20
0.0
 30
0.0
 70
   128
 71
    84
 72
    85
 73
    83
  0
VERTEX
  5
9E3
  8
0
 62
     9
 10
0.0
 20
0.0
 30
0.0
 70
   128
 71
    76
 72
    79
 73
    80
  0
VERTEX
  5
9E4
  8
0
 62
     9
 10
0.0
 20
0.0
 30
0.0
 70
   128
 71
    77
 72
    75
 73
    74
  0
VERTEX
  5
9E5
  8
0
 62
     9
 10
0.0
 20
0.0
 30
0.0
 70
   128
 71
    79
 72
    76
 73
    77
  0
VERTEX
  5
9E6
  8
0
 62
     9
 10
0.0
 20
0.0
 30
0.0
 70
   128
 71
    88
 72
    73
 73
    87
  0
VERTEX
  5
9E7
  8
0
 62
     9
 10
0.0
 20
0.0
 30
0.0
 70
   128
 71
    72
 72
    73
 73
    88
  0
VERTEX
  5
9E8
  8
0
 62
     9
 10
0.0
 20
0.0
 30
0.0
 70
   128
 71
    90
 72
    89
 73
    87
  0
VERTEX
  5
9E9
  8
0
 62
     9
 10
0.0
 20
0.0
 30
0.0
 70
   128
 71
    88
 72
    87
 73
    89
  0
VERTEX
  5
9EA
  8
0
 62
     9
 10
0.0
 20
0.0
 30
0.0
 70
   128
 71
    90
 72
    92
 73
    91
  0
VERTEX
  5
9EB
  8
0
 62
     9
 10
0.0
 20
0.0
 30
0.0
 70
   128
 71
    91
 72
    89
 73
    90
  0
VERTEX
  5
9EC
  8
0
 62
     9
 10
0.0
 20
0.0
 30
0.0
 70
   128
 71
    58
 72
    94
 73
    93
  0
VERTEX
  5
9ED
  8
0
 62
     9
 10
0.0
 20
0.0
 30
0.0
 70
   128
 71
     5
 72
    96
 73
    95
  0
VERTEX
  5
9EE
  8
0
 62
     9
 10
0.0
 20
0.0
 30
0.0
 70
   128
 71
    95
 72
    23
 73
     5
  0
VERTEX
  5
9EF
  8
0
 62
     9
 10
0.0
 20
0.0
 30
0.0
 70
   128
 71
    95
 72
    97
 73
    93
  0
VERTEX
  5
9F0
  8
0
 62
     9
 10
0.0
 20
0.0
 30
0.0
 70
   128
 71
    58
 72
    93
 73
    98
  0
VERTEX
  5
9F1
  8
0
 62
     9
 10
0.0
 20
0.0
 30
0.0
 70
   128
 71
    95
 72
    96
 73
    97
  0
VERTEX
  5
9F2
  8
0
 62
     9
 10
0.0
 20
0.0
 30
0.0
 70
   128
 71
    98
 72
    57
 73
    58
  0
VERTEX
  5
9F3
  8
0
 62
     9
 10
0.0
 20
0.0
 30
0.0
 70
   128
 71
    94
 72
    99
 73
    93
  0
VERTEX
  5
9F4
  8
0
 62
     9
 10
0.0
 20
0.0
 30
0.0
 70
   128
 71
    58
 72
   100
 73
    94
  0
VERTEX
  5
9F5
  8
0
 62
     9
 10
0.0
 20
0.0
 30
0.0
 70
   128
 71
    99
 72
   101
 73
    95
  0
VERTEX
  5
9F6
  8
0
 62
     9
 10
0.0
 20
0.0
 30
0.0
 70
   128
 71
    98
 72
    93
 73
    97
  0
VERTEX
  5
9F7
  8
0
 62
     9
 10
0.0
 20
0.0
 30
0.0
 70
   128
 71
    95
 72
    93
 73
    99
  0
VERTEX
  5
9F8
  8
0
 62
     9
 10
0.0
 20
0.0
 30
0.0
 70
   128
 71
    95
 72
   101
 73
    23
  0
VERTEX
  5
9F9
  8
0
 62
     9
 10
0.0
 20
0.0
 30
0.0
 70
   128
 71
   103
 72
   102
 73
    85
  0
VERTEX
  5
9FA
  8
0
 62
     9
 10
0.0
 20
0.0
 30
0.0
 70
   128
 71
   106
 72
   105
 73
   104
  0
VERTEX
  5
9FB
  8
0
 62
     9
 10
0.0
 20
0.0
 30
0.0
 70
   128
 71
   109
 72
   108
 73
   107
  0
VERTEX
  5
9FC
  8
0
 62
     9
 10
0.0
 20
0.0
 30
0.0
 70
   128
 71
   112
 72
   111
 73
   110
  0
VERTEX
  5
9FD
  8
0
 62
     9
 10
0.0
 20
0.0
 30
0.0
 70
   128
 71
   110
 72
   113
 73
   112
  0
VERTEX
  5
9FE
  8
0
 62
     9
 10
0.0
 20
0.0
 30
0.0
 70
   128
 71
   116
 72
   115
 73
   114
  0
VERTEX
  5
9FF
  8
0
 62
     9
 10
0.0
 20
0.0
 30
0.0
 70
   128
 71
   116
 72
   114
 73
   111
  0
VERTEX
  5
A00
  8
0
 62
     9
 10
0.0
 20
0.0
 30
0.0
 70
   128
 71
   117
 72
   115
 73
    91
  0
VERTEX
  5
A01
  8
0
 62
     9
 10
0.0
 20
0.0
 30
0.0
 70
   128
 71
   115
 72
   117
 73
   114
  0
VERTEX
  5
A02
  8
0
 62
     9
 10
0.0
 20
0.0
 30
0.0
 70
   128
 71
   117
 72
    91
 73
    92
  0
VERTEX
  5
A03
  8
0
 62
     9
 10
0.0
 20
0.0
 30
0.0
 70
   128
 71
   114
 72
   110
 73
   111
  0
VERTEX
  5
A04
  8
0
 62
     9
 10
0.0
 20
0.0
 30
0.0
 70
   128
 71
   105
 72
   112
 73
   113
  0
VERTEX
  5
A05
  8
0
 62
     9
 10
0.0
 20
0.0
 30
0.0
 70
   128
 71
   104
 72
   118
 73
   106
  0
VERTEX
  5
A06
  8
0
 62
     9
 10
0.0
 20
0.0
 30
0.0
 70
   128
 71
   105
 72
   113
 73
   104
  0
VERTEX
  5
A07
  8
0
 62
     9
 10
0.0
 20
0.0
 30
0.0
 70
   128
 71
   107
 72
   108
 73
   118
  0
VERTEX
  5
A08
  8
0
 62
     9
 10
0.0
 20
0.0
 30
0.0
 70
   128
 71
   108
 72
   106
 73
   118
  0
VERTEX
  5
A09
  8
0
 62
     9
 10
0.0
 20
0.0
 30
0.0
 70
   128
 71
   119
 72
   103
 73
   109
  0
VERTEX
  5
A0A
  8
0
 62
     9
 10
0.0
 20
0.0
 30
0.0
 70
   128
 71
   119
 72
   109
 73
   107
  0
VERTEX
  5
A0B
  8
0
 62
     9
 10
0.0
 20
0.0
 30
0.0
 70
   128
 71
   102
 72
    86
 73
    85
  0
VERTEX
  5
A0C
  8
0
 62
     9
 10
0.0
 20
0.0
 30
0.0
 70
   128
 71
   119
 72
   102
 73
   103
  0
VERTEX
  5
A0D
  8
0
 62
   253
 10
0.0
 20
0.0
 30
0.0
 70
   128
 71
   122
 72
   121
 73
   120
  0
VERTEX
  5
A0E
  8
0
 62
   253
 10
0.0
 20
0.0
 30
0.0
 70
   128
 71
   123
 72
   120
 73
   121
  0
VERTEX
  5
A0F
  8
0
 62
   253
 10
0.0
 20
0.0
 30
0.0
 70
   128
 71
   125
 72
   123
 73
   124
  0
VERTEX
  5
A10
  8
0
 62
   253
 10
0.0
 20
0.0
 30
0.0
 70
   128
 71
   125
 72
   124
 73
   126
  0
VERTEX
  5
A11
  8
0
 62
   253
 10
0.0
 20
0.0
 30
0.0
 70
   128
 71
   123
 72
   125
 73
   120
  0
VERTEX
  5
A12
  8
0
 62
   253
 10
0.0
 20
0.0
 30
0.0
 70
   128
 71
   125
 72
    61
 73
    64
  0
VERTEX
  5
A13
  8
0
 62
   253
 10
0.0
 20
0.0
 30
0.0
 70
   128
 71
    64
 72
   128
 73
   127
  0
VERTEX
  5
A14
  8
0
 62
   253
 10
0.0
 20
0.0
 30
0.0
 70
   128
 71
   128
 72
   129
 73
   127
  0
VERTEX
  5
A15
  8
0
 62
   253
 10
0.0
 20
0.0
 30
0.0
 70
   128
 71
    64
 72
   127
 73
   125
  0
VERTEX
  5
A16
  8
0
 62
   253
 10
0.0
 20
0.0
 30
0.0
 70
   128
 71
    67
 72
    63
 73
   125
  0
VERTEX
  5
A17
  8
0
 62
   253
 10
0.0
 20
0.0
 30
0.0
 70
   128
 71
    63
 72
    61
 73
   125
  0
VERTEX
  5
A18
  8
0
 62
   253
 10
0.0
 20
0.0
 30
0.0
 70
   128
 71
    69
 72
    67
 73
   125
  0
VERTEX
  5
A19
  8
0
 62
   253
 10
0.0
 20
0.0
 30
0.0
 70
   128
 71
   130
 72
   125
 73
   126
  0
VERTEX
  5
A1A
  8
0
 62
   253
 10
0.0
 20
0.0
 30
0.0
 70
   128
 71
   130
 72
    69
 73
   125
  0
VERTEX
  5
A1B
  8
0
 62
   253
 10
0.0
 20
0.0
 30
0.0
 70
   128
 71
    69
 72
   132
 73
   131
  0
VERTEX
  5
A1C
  8
0
 62
   253
 10
0.0
 20
0.0
 30
0.0
 70
   128
 71
   130
 72
   132
 73
    69
  0
VERTEX
  5
A1D
  8
0
 62
   253
 10
0.0
 20
0.0
 30
0.0
 70
   128
 71
    69
 72
   134
 73
   133
  0
VERTEX
  5
A1E
  8
0
 62
   253
 10
0.0
 20
0.0
 30
0.0
 70
   128
 71
   131
 72
   134
 73
    69
  0
VERTEX
  5
A1F
  8
0
 62
   253
 10
0.0
 20
0.0
 30
0.0
 70
   128
 71
   136
 72
    35
 73
   135
  0
VERTEX
  5
A20
  8
0
 62
   253
 10
0.0
 20
0.0
 30
0.0
 70
   128
 71
   135
 72
   137
 73
   136
  0
VERTEX
  5
A21
  8
0
 62
   253
 10
0.0
 20
0.0
 30
0.0
 70
   128
 71
    27
 72
    37
 73
    31
  0
VERTEX
  5
A22
  8
0
 62
   253
 10
0.0
 20
0.0
 30
0.0
 70
   128
 71
    42
 72
    31
 73
    37
  0
VERTEX
  5
A23
  8
0
 62
   253
 10
0.0
 20
0.0
 30
0.0
 70
   128
 71
    24
 72
    35
 73
    37
  0
VERTEX
  5
A24
  8
0
 62
   253
 10
0.0
 20
0.0
 30
0.0
 70
   128
 71
    37
 72
    27
 73
    24
  0
VERTEX
  5
A25
  8
0
 62
   253
 10
0.0
 20
0.0
 30
0.0
 70
   128
 71
   139
 72
   138
 73
    35
  0
VERTEX
  5
A26
  8
0
 62
   253
 10
0.0
 20
0.0
 30
0.0
 70
   128
 71
   139
 72
    35
 73
    24
  0
VERTEX
  5
A27
  8
0
 62
   253
 10
0.0
 20
0.0
 30
0.0
 70
   128
 71
   141
 72
   140
 73
    35
  0
VERTEX
  5
A28
  8
0
 62
   253
 10
0.0
 20
0.0
 30
0.0
 70
   128
 71
   141
 72
    35
 73
   138
  0
VERTEX
  5
A29
  8
0
 62
   253
 10
0.0
 20
0.0
 30
0.0
 70
   128
 71
   140
 72
   135
 73
    35
  0
VERTEX
  5
A2A
  8
0
 62
   253
 10
0.0
 20
0.0
 30
0.0
 70
   128
 71
    30
 72
    25
 73
   142
  0
VERTEX
  5
A2B
  8
0
 62
   253
 10
0.0
 20
0.0
 30
0.0
 70
   128
 71
   124
 72
   144
 73
   143
  0
VERTEX
  5
A2C
  8
0
 62
   253
 10
0.0
 20
0.0
 30
0.0
 70
   128
 71
   144
 72
   145
 73
   143
  0
VERTEX
  5
A2D
  8
0
 62
   253
 10
0.0
 20
0.0
 30
0.0
 70
   128
 71
   124
 72
   143
 73
   126
  0
VERTEX
  5
A2E
  8
0
 62
   253
 10
0.0
 20
0.0
 30
0.0
 70
   128
 71
   145
 72
   144
 73
   146
  0
VERTEX
  5
A2F
  8
0
 62
   253
 10
0.0
 20
0.0
 30
0.0
 70
   128
 71
   142
 72
   145
 73
   146
  0
VERTEX
  5
A30
  8
0
 62
   253
 10
0.0
 20
0.0
 30
0.0
 70
   128
 71
   147
 72
   142
 73
   146
  0
VERTEX
  5
A31
  8
0
 62
   253
 10
0.0
 20
0.0
 30
0.0
 70
   128
 71
   147
 72
    30
 73
   142
  0
VERTEX
  5
A32
  8
0
 62
   253
 10
0.0
 20
0.0
 30
0.0
 70
   128
 71
   148
 72
   147
 73
   146
  0
VERTEX
  5
A33
  8
0
 62
   253
 10
0.0
 20
0.0
 30
0.0
 70
   128
 71
   123
 72
   149
 73
   124
  0
VERTEX
  5
A34
  8
0
 62
   253
 10
0.0
 20
0.0
 30
0.0
 70
   128
 71
   149
 72
   150
 73
   144
  0
VERTEX
  5
A35
  8
0
 62
   253
 10
0.0
 20
0.0
 30
0.0
 70
   128
 71
   124
 72
   149
 73
   144
  0
VERTEX
  5
A36
  8
0
 62
   253
 10
0.0
 20
0.0
 30
0.0
 70
   128
 71
   144
 72
   150
 73
   146
  0
VERTEX
  5
A37
  8
0
 62
   253
 10
0.0
 20
0.0
 30
0.0
 70
   128
 71
   150
 72
   148
 73
   146
  0
VERTEX
  5
A38
  8
0
 62
   253
 10
0.0
 20
0.0
 30
0.0
 70
   128
 71
   151
 72
   148
 73
   150
  0
VERTEX
  5
A39
  8
0
 62
   253
 10
0.0
 20
0.0
 30
0.0
 70
   128
 71
   121
 72
   152
 73
   123
  0
VERTEX
  5
A3A
  8
0
 62
   253
 10
0.0
 20
0.0
 30
0.0
 70
   128
 71
   152
 72
   153
 73
   149
  0
VERTEX
  5
A3B
  8
0
 62
   253
 10
0.0
 20
0.0
 30
0.0
 70
   128
 71
   149
 72
   123
 73
   152
  0
VERTEX
  5
A3C
  8
0
 62
   253
 10
0.0
 20
0.0
 30
0.0
 70
   128
 71
   153
 72
   150
 73
   149
  0
VERTEX
  5
A3D
  8
0
 62
   253
 10
0.0
 20
0.0
 30
0.0
 70
   128
 71
   150
 72
   153
 73
   151
  0
VERTEX
  5
A3E
  8
0
 62
   253
 10
0.0
 20
0.0
 30
0.0
 70
   128
 71
   154
 72
   151
 73
   153
  0
VERTEX
  5
A3F
  8
0
 62
   253
 10
0.0
 20
0.0
 30
0.0
 70
   128
 71
   122
 72
   155
 73
   121
  0
VERTEX
  5
A40
  8
0
 62
   253
 10
0.0
 20
0.0
 30
0.0
 70
   128
 71
   155
 72
   156
 73
   152
  0
VERTEX
  5
A41
  8
0
 62
   253
 10
0.0
 20
0.0
 30
0.0
 70
   128
 71
   121
 72
   155
 73
   152
  0
VERTEX
  5
A42
  8
0
 62
   253
 10
0.0
 20
0.0
 30
0.0
 70
   128
 71
   153
 72
   156
 73
   154
  0
VERTEX
  5
A43
  8
0
 62
   253
 10
0.0
 20
0.0
 30
0.0
 70
   128
 71
   156
 72
   153
 73
   152
  0
VERTEX
  5
A44
  8
0
 62
   253
 10
0.0
 20
0.0
 30
0.0
 70
   128
 71
   157
 72
   154
 73
   156
  0
VERTEX
  5
A45
  8
0
 62
   253
 10
0.0
 20
0.0
 30
0.0
 70
   128
 71
   159
 72
   158
 73
   155
  0
VERTEX
  5
A46
  8
0
 62
   253
 10
0.0
 20
0.0
 30
0.0
 70
   128
 71
   155
 72
   158
 73
   156
  0
VERTEX
  5
A47
  8
0
 62
   253
 10
0.0
 20
0.0
 30
0.0
 70
   128
 71
   159
 72
   155
 73
   122
  0
VERTEX
  5
A48
  8
0
 62
   253
 10
0.0
 20
0.0
 30
0.0
 70
   128
 71
   156
 72
   158
 73
   157
  0
VERTEX
  5
A49
  8
0
 62
   253
 10
0.0
 20
0.0
 30
0.0
 70
   128
 71
   134
 72
   160
 73
   133
  0
VERTEX
  5
A4A
  8
0
 62
   253
 10
0.0
 20
0.0
 30
0.0
 70
   128
 71
    38
 72
    36
 73
    39
  0
VERTEX
  5
A4B
  8
0
 62
   253
 10
0.0
 20
0.0
 30
0.0
 70
   128
 71
   163
 72
   162
 73
   161
  0
VERTEX
  5
A4C
  8
0
 62
   253
 10
0.0
 20
0.0
 30
0.0
 70
   128
 71
    25
 72
    26
 73
   162
  0
VERTEX
  5
A4D
  8
0
 62
   253
 10
0.0
 20
0.0
 30
0.0
 70
   128
 71
   145
 72
   142
 73
   163
  0
VERTEX
  5
A4E
  8
0
 62
   253
 10
0.0
 20
0.0
 30
0.0
 70
   128
 71
    29
 72
    46
 73
   162
  0
VERTEX
  5
A4F
  8
0
 62
   253
 10
0.0
 20
0.0
 30
0.0
 70
   128
 71
   143
 72
   145
 73
   164
  0
VERTEX
  5
A50
  8
0
 62
   253
 10
0.0
 20
0.0
 30
0.0
 70
   128
 71
   126
 72
   143
 73
   130
  0
VERTEX
  5
A51
  8
0
 62
   253
 10
0.0
 20
0.0
 30
0.0
 70
   128
 71
   164
 72
   130
 73
   143
  0
VERTEX
  5
A52
  8
0
 62
   253
 10
0.0
 20
0.0
 30
0.0
 70
   128
 71
    26
 72
    28
 73
   162
  0
VERTEX
  5
A53
  8
0
 62
   253
 10
0.0
 20
0.0
 30
0.0
 70
   128
 71
    45
 72
    32
 73
   165
  0
VERTEX
  5
A54
  8
0
 62
   253
 10
0.0
 20
0.0
 30
0.0
 70
   128
 71
   166
 72
   161
 73
   165
  0
VERTEX
  5
A55
  8
0
 62
   253
 10
0.0
 20
0.0
 30
0.0
 70
   128
 71
   167
 72
   164
 73
   163
  0
VERTEX
  5
A56
  8
0
 62
   253
 10
0.0
 20
0.0
 30
0.0
 70
   128
 71
   168
 72
   167
 73
   161
  0
VERTEX
  5
A57
  8
0
 62
   253
 10
0.0
 20
0.0
 30
0.0
 70
   128
 71
    33
 72
   169
 73
    32
  0
VERTEX
  5
A58
  8
0
 62
   253
 10
0.0
 20
0.0
 30
0.0
 70
   128
 71
   166
 72
   169
 73
   170
  0
VERTEX
  5
A59
  8
0
 62
   253
 10
0.0
 20
0.0
 30
0.0
 70
   128
 71
   160
 72
   168
 73
   166
  0
VERTEX
  5
A5A
  8
0
 62
   253
 10
0.0
 20
0.0
 30
0.0
 70
   128
 71
   170
 72
   171
 73
   160
  0
VERTEX
  5
A5B
  8
0
 62
   253
 10
0.0
 20
0.0
 30
0.0
 70
   128
 71
    43
 72
   172
 73
    44
  0
VERTEX
  5
A5C
  8
0
 62
   253
 10
0.0
 20
0.0
 30
0.0
 70
   128
 71
   174
 72
   173
 73
   172
  0
VERTEX
  5
A5D
  8
0
 62
   253
 10
0.0
 20
0.0
 30
0.0
 70
   128
 71
   170
 72
   172
 73
   173
  0
VERTEX
  5
A5E
  8
0
 62
   253
 10
0.0
 20
0.0
 30
0.0
 70
   128
 71
   172
 72
    41
 73
    40
  0
VERTEX
  5
A5F
  8
0
 62
   253
 10
0.0
 20
0.0
 30
0.0
 70
   128
 71
   174
 72
   172
 73
    40
  0
VERTEX
  5
A60
  8
0
 62
   253
 10
0.0
 20
0.0
 30
0.0
 70
   128
 71
    40
 72
    39
 73
   174
  0
VERTEX
  5
A61
  8
0
 62
   253
 10
0.0
 20
0.0
 30
0.0
 70
   128
 71
    40
 72
    38
 73
    39
  0
VERTEX
  5
A62
  8
0
 62
   253
 10
0.0
 20
0.0
 30
0.0
 70
   128
 71
    34
 72
    39
 73
    36
  0
VERTEX
  5
A63
  8
0
 62
   253
 10
0.0
 20
0.0
 30
0.0
 70
   128
 71
   160
 72
   171
 73
   133
  0
VERTEX
  5
A64
  8
0
 62
   253
 10
0.0
 20
0.0
 30
0.0
 70
   128
 71
   131
 72
   168
 73
   134
  0
VERTEX
  5
A65
  8
0
 62
   253
 10
0.0
 20
0.0
 30
0.0
 70
   128
 71
    44
 72
   172
 73
   169
  0
VERTEX
  5
A66
  8
0
 62
   253
 10
0.0
 20
0.0
 30
0.0
 70
   128
 71
   170
 72
   173
 73
   171
  0
VERTEX
  5
A67
  8
0
 62
   253
 10
0.0
 20
0.0
 30
0.0
 70
   128
 71
   169
 72
   172
 73
   170
  0
VERTEX
  5
A68
  8
0
 62
   253
 10
0.0
 20
0.0
 30
0.0
 70
   128
 71
   172
 72
    43
 73
    41
  0
VERTEX
  5
A69
  8
0
 62
   253
 10
0.0
 20
0.0
 30
0.0
 70
   128
 71
   168
 72
   160
 73
   134
  0
VERTEX
  5
A6A
  8
0
 62
   253
 10
0.0
 20
0.0
 30
0.0
 70
   128
 71
   163
 72
   164
 73
   145
  0
VERTEX
  5
A6B
  8
0
 62
   253
 10
0.0
 20
0.0
 30
0.0
 70
   128
 71
    32
 72
   169
 73
   165
  0
VERTEX
  5
A6C
  8
0
 62
   253
 10
0.0
 20
0.0
 30
0.0
 70
   128
 71
   166
 72
   170
 73
   160
  0
VERTEX
  5
A6D
  8
0
 62
   253
 10
0.0
 20
0.0
 30
0.0
 70
   128
 71
   165
 72
   169
 73
   166
  0
VERTEX
  5
A6E
  8
0
 62
   253
 10
0.0
 20
0.0
 30
0.0
 70
   128
 71
    33
 72
    44
 73
   169
  0
VERTEX
  5
A6F
  8
0
 62
   253
 10
0.0
 20
0.0
 30
0.0
 70
   128
 71
   131
 72
   167
 73
   168
  0
VERTEX
  5
A70
  8
0
 62
   253
 10
0.0
 20
0.0
 30
0.0
 70
   128
 71
   167
 72
   131
 73
   132
  0
VERTEX
  5
A71
  8
0
 62
   253
 10
0.0
 20
0.0
 30
0.0
 70
   128
 71
    46
 72
   165
 73
   162
  0
VERTEX
  5
A72
  8
0
 62
   253
 10
0.0
 20
0.0
 30
0.0
 70
   128
 71
   161
 72
   166
 73
   168
  0
VERTEX
  5
A73
  8
0
 62
   253
 10
0.0
 20
0.0
 30
0.0
 70
   128
 71
   161
 72
   162
 73
   165
  0
VERTEX
  5
A74
  8
0
 62
   253
 10
0.0
 20
0.0
 30
0.0
 70
   128
 71
   165
 72
    46
 73
    45
  0
VERTEX
  5
A75
  8
0
 62
   253
 10
0.0
 20
0.0
 30
0.0
 70
   128
 71
   132
 72
   164
 73
   167
  0
VERTEX
  5
A76
  8
0
 62
   253
 10
0.0
 20
0.0
 30
0.0
 70
   128
 71
   132
 72
   130
 73
   164
  0
VERTEX
  5
A77
  8
0
 62
   253
 10
0.0
 20
0.0
 30
0.0
 70
   128
 71
   162
 72
   142
 73
    25
  0
VERTEX
  5
A78
  8
0
 62
   253
 10
0.0
 20
0.0
 30
0.0
 70
   128
 71
   167
 72
   163
 73
   161
  0
VERTEX
  5
A79
  8
0
 62
   253
 10
0.0
 20
0.0
 30
0.0
 70
   128
 71
   162
 72
   163
 73
   142
  0
VERTEX
  5
A7A
  8
0
 62
   253
 10
0.0
 20
0.0
 30
0.0
 70
   128
 71
   162
 72
    28
 73
    29
  0
VERTEX
  5
A7B
  8
0
 62
   253
 10
0.0
 20
0.0
 30
0.0
 70
   128
 71
    39
 72
   175
 73
   174
  0
VERTEX
  5
A7C
  8
0
 62
   253
 10
0.0
 20
0.0
 30
0.0
 70
   128
 71
   173
 72
   176
 73
   171
  0
VERTEX
  5
A7D
  8
0
 62
   253
 10
0.0
 20
0.0
 30
0.0
 70
   128
 71
   175
 72
   176
 73
   173
  0
VERTEX
  5
A7E
  8
0
 62
   253
 10
0.0
 20
0.0
 30
0.0
 70
   128
 71
   177
 72
   171
 73
   176
  0
VERTEX
  5
A7F
  8
0
 62
   253
 10
0.0
 20
0.0
 30
0.0
 70
   128
 71
   175
 72
   173
 73
   174
  0
VERTEX
  5
A80
  8
0
 62
   253
 10
0.0
 20
0.0
 30
0.0
 70
   128
 71
   129
 72
   128
 73
   178
  0
VERTEX
  5
A81
  8
0
 62
   253
 10
0.0
 20
0.0
 30
0.0
 70
   128
 71
   129
 72
   179
 73
   127
  0
VERTEX
  5
A82
  8
0
 62
   253
 10
0.0
 20
0.0
 30
0.0
 70
   128
 71
    65
 72
   180
 73
    64
  0
VERTEX
  5
A83
  8
0
 62
   253
 10
0.0
 20
0.0
 30
0.0
 70
   128
 71
   120
 72
   125
 73
   181
  0
VERTEX
  5
A84
  8
0
 62
   253
 10
0.0
 20
0.0
 30
0.0
 70
   128
 71
   127
 72
   181
 73
   125
  0
VERTEX
  5
A85
  8
0
 62
   253
 10
0.0
 20
0.0
 30
0.0
 70
   128
 71
   127
 72
   179
 73
   181
  0
VERTEX
  5
A86
  8
0
 62
   253
 10
0.0
 20
0.0
 30
0.0
 70
   128
 71
   128
 72
    64
 73
   180
  0
VERTEX
  5
A87
  8
0
 62
   253
 10
0.0
 20
0.0
 30
0.0
 70
   128
 71
   129
 72
   178
 73
   179
  0
VERTEX
  5
A88
  8
0
 62
   253
 10
0.0
 20
0.0
 30
0.0
 70
   128
 71
   128
 72
   180
 73
   178
  0
VERTEX
  5
A89
  8
0
 62
   253
 10
0.0
 20
0.0
 30
0.0
 70
   128
 71
    70
 72
    69
 73
   182
  0
VERTEX
  5
A8A
  8
0
 62
   253
 10
0.0
 20
0.0
 30
0.0
 70
   128
 71
    69
 72
   133
 73
   182
  0
VERTEX
  5
A8B
  8
0
 62
   253
 10
0.0
 20
0.0
 30
0.0
 70
   128
 71
   177
 72
   182
 73
   171
  0
VERTEX
  5
A8C
  8
0
 62
   253
 10
0.0
 20
0.0
 30
0.0
 70
   128
 71
   182
 72
   133
 73
   171
  0
VERTEX
  5
A8D
  8
0
 62
   253
 10
0.0
 20
0.0
 30
0.0
 70
   128
 71
   183
 72
    58
 73
    55
  0
VERTEX
  5
A8E
  8
0
 62
   253
 10
0.0
 20
0.0
 30
0.0
 70
   128
 71
   184
 72
   183
 73
    55
  0
VERTEX
  5
A8F
  8
0
 62
   253
 10
0.0
 20
0.0
 30
0.0
 70
   128
 71
    55
 72
    56
 73
   184
  0
VERTEX
  5
A90
  8
0
 62
   253
 10
0.0
 20
0.0
 30
0.0
 70
   128
 71
    58
 72
   183
 73
   100
  0
VERTEX
  5
A91
  8
0
 62
   253
 10
0.0
 20
0.0
 30
0.0
 70
   128
 71
   185
 72
    56
 73
    59
  0
VERTEX
  5
A92
  8
0
 62
   253
 10
0.0
 20
0.0
 30
0.0
 70
   128
 71
   188
 72
   187
 73
   186
  0
VERTEX
  5
A93
  8
0
 62
   253
 10
0.0
 20
0.0
 30
0.0
 70
   128
 71
   185
 72
    59
 73
   189
  0
VERTEX
  5
A94
  8
0
 62
   253
 10
0.0
 20
0.0
 30
0.0
 70
   128
 71
   192
 72
   191
 73
   190
  0
VERTEX
  5
A95
  8
0
 62
   253
 10
0.0
 20
0.0
 30
0.0
 70
   128
 71
   195
 72
   194
 73
   193
  0
VERTEX
  5
A96
  8
0
 62
   253
 10
0.0
 20
0.0
 30
0.0
 70
   128
 71
   198
 72
   197
 73
   196
  0
VERTEX
  5
A97
  8
0
 62
   253
 10
0.0
 20
0.0
 30
0.0
 70
   128
 71
   200
 72
   199
 73
   197
  0
VERTEX
  5
A98
  8
0
 62
   253
 10
0.0
 20
0.0
 30
0.0
 70
   128
 71
   202
 72
   201
 73
    48
  0
VERTEX
  5
A99
  8
0
 62
   253
 10
0.0
 20
0.0
 30
0.0
 70
   128
 71
   198
 72
   201
 73
   202
  0
VERTEX
  5
A9A
  8
0
 62
   253
 10
0.0
 20
0.0
 30
0.0
 70
   128
 71
   202
 72
    48
 73
    49
  0
VERTEX
  5
A9B
  8
0
 62
   253
 10
0.0
 20
0.0
 30
0.0
 70
   128
 71
    49
 72
   203
 73
   202
  0
VERTEX
  5
A9C
  8
0
 62
   253
 10
0.0
 20
0.0
 30
0.0
 70
   128
 71
   201
 72
   198
 73
   196
  0
VERTEX
  5
A9D
  8
0
 62
   253
 10
0.0
 20
0.0
 30
0.0
 70
   128
 71
   196
 72
   197
 73
   199
  0
VERTEX
  5
A9E
  8
0
 62
   253
 10
0.0
 20
0.0
 30
0.0
 70
   128
 71
   190
 72
   199
 73
   200
  0
VERTEX
  5
A9F
  8
0
 62
   253
 10
0.0
 20
0.0
 30
0.0
 70
   128
 71
   192
 72
   186
 73
   191
  0
VERTEX
  5
AA0
  8
0
 62
   253
 10
0.0
 20
0.0
 30
0.0
 70
   128
 71
   200
 72
   192
 73
   190
  0
VERTEX
  5
AA1
  8
0
 62
   253
 10
0.0
 20
0.0
 30
0.0
 70
   128
 71
   187
 72
   188
 73
   204
  0
VERTEX
  5
AA2
  8
0
 62
   253
 10
0.0
 20
0.0
 30
0.0
 70
   128
 71
   191
 72
   186
 73
   187
  0
VERTEX
  5
AA3
  8
0
 62
   253
 10
0.0
 20
0.0
 30
0.0
 70
   128
 71
   184
 72
    56
 73
   185
  0
VERTEX
  5
AA4
  8
0
 62
   253
 10
0.0
 20
0.0
 30
0.0
 70
   128
 71
   194
 72
   204
 73
   188
  0
VERTEX
  5
AA5
  8
0
 62
   253
 10
0.0
 20
0.0
 30
0.0
 70
   128
 71
   185
 72
   189
 73
   193
  0
VERTEX
  5
AA6
  8
0
 62
   253
 10
0.0
 20
0.0
 30
0.0
 70
   128
 71
   189
 72
   195
 73
   193
  0
VERTEX
  5
AA7
  8
0
 62
   253
 10
0.0
 20
0.0
 30
0.0
 70
   128
 71
   194
 72
   195
 73
   204
  0
VERTEX
  5
AA8
  8
0
 62
   253
 10
0.0
 20
0.0
 30
0.0
 70
   128
 71
   120
 72
   181
 73
   202
  0
VERTEX
  5
AA9
  8
0
 62
   253
 10
0.0
 20
0.0
 30
0.0
 70
   128
 71
   200
 72
   180
 73
   192
  0
VERTEX
  5
AAA
  8
0
 62
   253
 10
0.0
 20
0.0
 30
0.0
 70
   128
 71
   197
 72
   198
 73
   179
  0
VERTEX
  5
AAB
  8
0
 62
   253
 10
0.0
 20
0.0
 30
0.0
 70
   128
 71
    60
 72
   194
 73
   188
  0
VERTEX
  5
AAC
  8
0
 62
   253
 10
0.0
 20
0.0
 30
0.0
 70
   128
 71
    62
 72
   186
 73
    65
  0
VERTEX
  5
AAD
  8
0
 62
   253
 10
0.0
 20
0.0
 30
0.0
 70
   128
 71
    66
 72
    68
 73
   193
  0
VERTEX
  5
AAE
  8
0
 62
   253
 10
0.0
 20
0.0
 30
0.0
 70
   128
 71
   193
 72
   194
 73
    66
  0
VERTEX
  5
AAF
  8
0
 62
   253
 10
0.0
 20
0.0
 30
0.0
 70
   128
 71
   185
 72
    68
 73
    70
  0
VERTEX
  5
AB0
  8
0
 62
   253
 10
0.0
 20
0.0
 30
0.0
 70
   128
 71
    68
 72
   185
 73
   193
  0
VERTEX
  5
AB1
  8
0
 62
   253
 10
0.0
 20
0.0
 30
0.0
 70
   128
 71
   185
 72
    70
 73
   184
  0
VERTEX
  5
AB2
  8
0
 62
   253
 10
0.0
 20
0.0
 30
0.0
 70
   128
 71
    60
 72
   188
 73
    62
  0
VERTEX
  5
AB3
  8
0
 62
   253
 10
0.0
 20
0.0
 30
0.0
 70
   128
 71
    66
 72
   194
 73
    60
  0
VERTEX
  5
AB4
  8
0
 62
   253
 10
0.0
 20
0.0
 30
0.0
 70
   128
 71
    65
 72
   186
 73
   192
  0
VERTEX
  5
AB5
  8
0
 62
   253
 10
0.0
 20
0.0
 30
0.0
 70
   128
 71
    62
 72
   188
 73
   186
  0
VERTEX
  5
AB6
  8
0
 62
   253
 10
0.0
 20
0.0
 30
0.0
 70
   128
 71
   178
 72
   180
 73
   200
  0
VERTEX
  5
AB7
  8
0
 62
   253
 10
0.0
 20
0.0
 30
0.0
 70
   128
 71
   180
 72
    65
 73
   192
  0
VERTEX
  5
AB8
  8
0
 62
   253
 10
0.0
 20
0.0
 30
0.0
 70
   128
 71
   178
 72
   197
 73
   179
  0
VERTEX
  5
AB9
  8
0
 62
   253
 10
0.0
 20
0.0
 30
0.0
 70
   128
 71
   197
 72
   178
 73
   200
  0
VERTEX
  5
ABA
  8
0
 62
   253
 10
0.0
 20
0.0
 30
0.0
 70
   128
 71
   198
 72
   202
 73
   181
  0
VERTEX
  5
ABB
  8
0
 62
   253
 10
0.0
 20
0.0
 30
0.0
 70
   128
 71
   198
 72
   181
 73
   179
  0
VERTEX
  5
ABC
  8
0
 62
   253
 10
0.0
 20
0.0
 30
0.0
 70
   128
 71
   202
 72
   203
 73
   120
  0
VERTEX
  5
ABD
  8
0
 62
   253
 10
0.0
 20
0.0
 30
0.0
 70
   128
 71
    47
 72
   206
 73
   205
  0
VERTEX
  5
ABE
  8
0
 62
   253
 10
0.0
 20
0.0
 30
0.0
 70
   128
 71
    52
 72
   206
 73
    47
  0
VERTEX
  5
ABF
  8
0
 62
   253
 10
0.0
 20
0.0
 30
0.0
 70
   128
 71
   205
 72
   206
 73
   207
  0
VERTEX
  5
AC0
  8
0
 62
   253
 10
0.0
 20
0.0
 30
0.0
 70
   128
 71
    49
 72
    47
 73
   205
  0
VERTEX
  5
AC1
  8
0
 62
   253
 10
0.0
 20
0.0
 30
0.0
 70
   128
 71
   203
 72
    49
 73
   205
  0
VERTEX
  5
AC2
  8
0
 62
   253
 10
0.0
 20
0.0
 30
0.0
 70
   128
 71
    54
 72
   209
 73
   208
  0
VERTEX
  5
AC3
  8
0
 62
   253
 10
0.0
 20
0.0
 30
0.0
 70
   128
 71
    48
 72
   201
 73
    59
  0
VERTEX
  5
AC4
  8
0
 62
   253
 10
0.0
 20
0.0
 30
0.0
 70
   128
 71
   210
 72
    54
 73
   208
  0
VERTEX
  5
AC5
  8
0
 62
   253
 10
0.0
 20
0.0
 30
0.0
 70
   128
 71
    57
 72
   209
 73
    54
  0
VERTEX
  5
AC6
  8
0
 62
   253
 10
0.0
 20
0.0
 30
0.0
 70
   128
 71
    53
 72
    50
 73
   211
  0
VERTEX
  5
AC7
  8
0
 62
   253
 10
0.0
 20
0.0
 30
0.0
 70
   128
 71
   211
 72
    54
 73
   210
  0
VERTEX
  5
AC8
  8
0
 62
   253
 10
0.0
 20
0.0
 30
0.0
 70
   128
 71
    54
 72
    50
 73
    59
  0
VERTEX
  5
AC9
  8
0
 62
   253
 10
0.0
 20
0.0
 30
0.0
 70
   128
 71
    54
 72
   211
 73
    50
  0
VERTEX
  5
ACA
  8
0
 62
   253
 10
0.0
 20
0.0
 30
0.0
 70
   128
 71
   196
 72
    59
 73
   201
  0
VERTEX
  5
ACB
  8
0
 62
   253
 10
0.0
 20
0.0
 30
0.0
 70
   128
 71
    50
 72
    48
 73
    59
  0
VERTEX
  5
ACC
  8
0
 62
   253
 10
0.0
 20
0.0
 30
0.0
 70
   128
 71
   196
 72
   199
 73
    59
  0
VERTEX
  5
ACD
  8
0
 62
   253
 10
0.0
 20
0.0
 30
0.0
 70
   128
 71
    59
 72
   190
 73
   191
  0
VERTEX
  5
ACE
  8
0
 62
   253
 10
0.0
 20
0.0
 30
0.0
 70
   128
 71
   199
 72
   190
 73
    59
  0
VERTEX
  5
ACF
  8
0
 62
   253
 10
0.0
 20
0.0
 30
0.0
 70
   128
 71
   204
 72
   195
 73
   189
  0
VERTEX
  5
AD0
  8
0
 62
   253
 10
0.0
 20
0.0
 30
0.0
 70
   128
 71
   187
 72
   189
 73
   191
  0
VERTEX
  5
AD1
  8
0
 62
   253
 10
0.0
 20
0.0
 30
0.0
 70
   128
 71
   189
 72
    59
 73
   191
  0
VERTEX
  5
AD2
  8
0
 62
   253
 10
0.0
 20
0.0
 30
0.0
 70
   128
 71
   187
 72
   204
 73
   189
  0
VERTEX
  5
AD3
  8
0
 62
   253
 10
0.0
 20
0.0
 30
0.0
 70
   128
 71
   120
 72
   205
 73
   122
  0
VERTEX
  5
AD4
  8
0
 62
   253
 10
0.0
 20
0.0
 30
0.0
 70
   128
 71
   205
 72
   207
 73
   122
  0
VERTEX
  5
AD5
  8
0
 62
   253
 10
0.0
 20
0.0
 30
0.0
 70
   128
 71
   203
 72
   205
 73
   120
  0
VERTEX
  5
AD6
  8
0
 62
   253
 10
0.0
 20
0.0
 30
0.0
 70
   128
 71
   214
 72
   213
 73
   212
  0
VERTEX
  5
AD7
  8
0
 62
   253
 10
0.0
 20
0.0
 30
0.0
 70
   128
 71
   217
 72
   216
 73
   215
  0
VERTEX
  5
AD8
  8
0
 62
   253
 10
0.0
 20
0.0
 30
0.0
 70
   128
 71
   136
 72
   218
 73
   216
  0
VERTEX
  5
AD9
  8
0
 62
   253
 10
0.0
 20
0.0
 30
0.0
 70
   128
 71
   219
 72
   215
 73
   216
  0
VERTEX
  5
ADA
  8
0
 62
   253
 10
0.0
 20
0.0
 30
0.0
 70
   128
 71
   220
 72
   219
 73
   216
  0
VERTEX
  5
ADB
  8
0
 62
   253
 10
0.0
 20
0.0
 30
0.0
 70
   128
 71
   223
 72
   222
 73
   221
  0
VERTEX
  5
ADC
  8
0
 62
   253
 10
0.0
 20
0.0
 30
0.0
 70
   128
 71
   225
 72
   217
 73
   224
  0
VERTEX
  5
ADD
  8
0
 62
   253
 10
0.0
 20
0.0
 30
0.0
 70
   128
 71
   217
 72
   225
 73
   216
  0
VERTEX
  5
ADE
  8
0
 62
   253
 10
0.0
 20
0.0
 30
0.0
 70
   128
 71
   225
 72
   227
 73
   226
  0
VERTEX
  5
ADF
  8
0
 62
   253
 10
0.0
 20
0.0
 30
0.0
 70
   128
 71
   224
 72
   227
 73
   225
  0
VERTEX
  5
AE0
  8
0
 62
   253
 10
0.0
 20
0.0
 30
0.0
 70
   128
 71
   225
 72
   226
 73
   137
  0
VERTEX
  5
AE1
  8
0
 62
   253
 10
0.0
 20
0.0
 30
0.0
 70
   128
 71
   228
 72
   213
 73
   214
  0
VERTEX
  5
AE2
  8
0
 62
   253
 10
0.0
 20
0.0
 30
0.0
 70
   128
 71
   218
 72
   228
 73
   216
  0
VERTEX
  5
AE3
  8
0
 62
   253
 10
0.0
 20
0.0
 30
0.0
 70
   128
 71
   228
 72
   220
 73
   216
  0
VERTEX
  5
AE4
  8
0
 62
   253
 10
0.0
 20
0.0
 30
0.0
 70
   128
 71
   136
 72
   229
 73
   218
  0
VERTEX
  5
AE5
  8
0
 62
   253
 10
0.0
 20
0.0
 30
0.0
 70
   128
 71
   228
 72
   218
 73
   213
  0
VERTEX
  5
AE6
  8
0
 62
   253
 10
0.0
 20
0.0
 30
0.0
 70
   128
 71
   231
 72
   137
 73
   230
  0
VERTEX
  5
AE7
  8
0
 62
   253
 10
0.0
 20
0.0
 30
0.0
 70
   128
 71
   214
 72
   212
 73
   232
  0
VERTEX
  5
AE8
  8
0
 62
   253
 10
0.0
 20
0.0
 30
0.0
 70
   128
 71
   233
 72
   222
 73
   232
  0
VERTEX
  5
AE9
  8
0
 62
   253
 10
0.0
 20
0.0
 30
0.0
 70
   128
 71
   232
 72
   212
 73
   233
  0
VERTEX
  5
AEA
  8
0
 62
   253
 10
0.0
 20
0.0
 30
0.0
 70
   128
 71
   234
 72
   223
 73
   221
  0
VERTEX
  5
AEB
  8
0
 62
   253
 10
0.0
 20
0.0
 30
0.0
 70
   128
 71
   221
 72
   222
 73
   233
  0
VERTEX
  5
AEC
  8
0
 62
   253
 10
0.0
 20
0.0
 30
0.0
 70
   128
 71
   226
 72
   234
 73
   137
  0
VERTEX
  5
AED
  8
0
 62
   253
 10
0.0
 20
0.0
 30
0.0
 70
   128
 71
   234
 72
   226
 73
   223
  0
VERTEX
  5
AEE
  8
0
 62
   253
 10
0.0
 20
0.0
 30
0.0
 70
   128
 71
   235
 72
   137
 73
   231
  0
VERTEX
  5
AEF
  8
0
 62
   253
 10
0.0
 20
0.0
 30
0.0
 70
   128
 71
   234
 72
   230
 73
   137
  0
VERTEX
  5
AF0
  8
0
 62
   253
 10
0.0
 20
0.0
 30
0.0
 70
   128
 71
   136
 72
   235
 73
   236
  0
VERTEX
  5
AF1
  8
0
 62
   253
 10
0.0
 20
0.0
 30
0.0
 70
   128
 71
   235
 72
   136
 73
   137
  0
VERTEX
  5
AF2
  8
0
 62
   253
 10
0.0
 20
0.0
 30
0.0
 70
   128
 71
   136
 72
   237
 73
   229
  0
VERTEX
  5
AF3
  8
0
 62
   253
 10
0.0
 20
0.0
 30
0.0
 70
   128
 71
   236
 72
   237
 73
   136
  0
VERTEX
  5
AF4
  8
0
 62
   253
 10
0.0
 20
0.0
 30
0.0
 70
   128
 71
    85
 72
   238
 73
   225
  0
VERTEX
  5
AF5
  8
0
 62
   253
 10
0.0
 20
0.0
 30
0.0
 70
   128
 71
   135
 72
    88
 73
    89
  0
VERTEX
  5
AF6
  8
0
 62
   253
 10
0.0
 20
0.0
 30
0.0
 70
   128
 71
   238
 72
    84
 73
    81
  0
VERTEX
  5
AF7
  8
0
 62
   253
 10
0.0
 20
0.0
 30
0.0
 70
   128
 71
    85
 72
    84
 73
   238
  0
VERTEX
  5
AF8
  8
0
 62
   253
 10
0.0
 20
0.0
 30
0.0
 70
   128
 71
   238
 72
    78
 73
    79
  0
VERTEX
  5
AF9
  8
0
 62
   253
 10
0.0
 20
0.0
 30
0.0
 70
   128
 71
    81
 72
    78
 73
   238
  0
VERTEX
  5
AFA
  8
0
 62
   253
 10
0.0
 20
0.0
 30
0.0
 70
   128
 71
   238
 72
    77
 73
   135
  0
VERTEX
  5
AFB
  8
0
 62
   253
 10
0.0
 20
0.0
 30
0.0
 70
   128
 71
    79
 72
    77
 73
   238
  0
VERTEX
  5
AFC
  8
0
 62
   253
 10
0.0
 20
0.0
 30
0.0
 70
   128
 71
   135
 72
    74
 73
    72
  0
VERTEX
  5
AFD
  8
0
 62
   253
 10
0.0
 20
0.0
 30
0.0
 70
   128
 71
    77
 72
    74
 73
   135
  0
VERTEX
  5
AFE
  8
0
 62
   253
 10
0.0
 20
0.0
 30
0.0
 70
   128
 71
    72
 72
    88
 73
   135
  0
VERTEX
  5
AFF
  8
0
 62
   253
 10
0.0
 20
0.0
 30
0.0
 70
   128
 71
    91
 72
   135
 73
    89
  0
VERTEX
  5
B00
  8
0
 62
   253
 10
0.0
 20
0.0
 30
0.0
 70
   128
 71
   115
 72
   135
 73
    91
  0
VERTEX
  5
B01
  8
0
 62
   253
 10
0.0
 20
0.0
 30
0.0
 70
   128
 71
   137
 72
   115
 73
   116
  0
VERTEX
  5
B02
  8
0
 62
   253
 10
0.0
 20
0.0
 30
0.0
 70
   128
 71
   115
 72
   137
 73
   135
  0
VERTEX
  5
B03
  8
0
 62
   253
 10
0.0
 20
0.0
 30
0.0
 70
   128
 71
   106
 72
   225
 73
   137
  0
VERTEX
  5
B04
  8
0
 62
   253
 10
0.0
 20
0.0
 30
0.0
 70
   128
 71
   137
 72
   111
 73
   112
  0
VERTEX
  5
B05
  8
0
 62
   253
 10
0.0
 20
0.0
 30
0.0
 70
   128
 71
   116
 72
   111
 73
   137
  0
VERTEX
  5
B06
  8
0
 62
   253
 10
0.0
 20
0.0
 30
0.0
 70
   128
 71
   105
 72
   106
 73
   137
  0
VERTEX
  5
B07
  8
0
 62
   253
 10
0.0
 20
0.0
 30
0.0
 70
   128
 71
   112
 72
   105
 73
   137
  0
VERTEX
  5
B08
  8
0
 62
   253
 10
0.0
 20
0.0
 30
0.0
 70
   128
 71
   225
 72
   108
 73
   109
  0
VERTEX
  5
B09
  8
0
 62
   253
 10
0.0
 20
0.0
 30
0.0
 70
   128
 71
   106
 72
   108
 73
   225
  0
VERTEX
  5
B0A
  8
0
 62
   253
 10
0.0
 20
0.0
 30
0.0
 70
   128
 71
   225
 72
   103
 73
    85
  0
VERTEX
  5
B0B
  8
0
 62
   253
 10
0.0
 20
0.0
 30
0.0
 70
   128
 71
   109
 72
   103
 73
   225
  0
VERTEX
  5
B0C
  8
0
 62
   253
 10
0.0
 20
0.0
 30
0.0
 70
   128
 71
   238
 72
   216
 73
   225
  0
VERTEX
  5
B0D
  8
0
 62
   253
 10
0.0
 20
0.0
 30
0.0
 70
   128
 71
   241
 72
   240
 73
   239
  0
VERTEX
  5
B0E
  8
0
 62
   253
 10
0.0
 20
0.0
 30
0.0
 70
   128
 71
   239
 72
   240
 73
   238
  0
VERTEX
  5
B0F
  8
0
 62
   253
 10
0.0
 20
0.0
 30
0.0
 70
   128
 71
     7
 72
   238
 73
   242
  0
VERTEX
  5
B10
  8
0
 62
   253
 10
0.0
 20
0.0
 30
0.0
 70
   128
 71
   238
 72
   240
 73
   242
  0
VERTEX
  5
B11
  8
0
 62
   253
 10
0.0
 20
0.0
 30
0.0
 70
   128
 71
   238
 72
     7
 73
     3
  0
VERTEX
  5
B12
  8
0
 62
   253
 10
0.0
 20
0.0
 30
0.0
 70
   128
 71
   238
 72
     3
 73
    12
  0
VERTEX
  5
B13
  8
0
 62
   253
 10
0.0
 20
0.0
 30
0.0
 70
   128
 71
   238
 72
    12
 73
    15
  0
VERTEX
  5
B14
  8
0
 62
   253
 10
0.0
 20
0.0
 30
0.0
 70
   128
 71
    19
 72
     4
 73
   238
  0
VERTEX
  5
B15
  8
0
 62
   253
 10
0.0
 20
0.0
 30
0.0
 70
   128
 71
    19
 72
   238
 73
    15
  0
VERTEX
  5
B16
  8
0
 62
   253
 10
0.0
 20
0.0
 30
0.0
 70
   128
 71
     4
 72
   216
 73
   238
  0
VERTEX
  5
B17
  8
0
 62
   253
 10
0.0
 20
0.0
 30
0.0
 70
   128
 71
     7
 72
   243
 73
    10
  0
VERTEX
  5
B18
  8
0
 62
   253
 10
0.0
 20
0.0
 30
0.0
 70
   128
 71
   245
 72
   242
 73
   244
  0
VERTEX
  5
B19
  8
0
 62
   253
 10
0.0
 20
0.0
 30
0.0
 70
   128
 71
   141
 72
   239
 73
   140
  0
VERTEX
  5
B1A
  8
0
 62
   253
 10
0.0
 20
0.0
 30
0.0
 70
   128
 71
   138
 72
   241
 73
   141
  0
VERTEX
  5
B1B
  8
0
 62
   253
 10
0.0
 20
0.0
 30
0.0
 70
   128
 71
   135
 72
   140
 73
   238
  0
VERTEX
  5
B1C
  8
0
 62
   253
 10
0.0
 20
0.0
 30
0.0
 70
   128
 71
   239
 72
   238
 73
   140
  0
VERTEX
  5
B1D
  8
0
 62
   253
 10
0.0
 20
0.0
 30
0.0
 70
   128
 71
   239
 72
   141
 73
   241
  0
VERTEX
  5
B1E
  8
0
 62
   253
 10
0.0
 20
0.0
 30
0.0
 70
   128
 71
   138
 72
   240
 73
   241
  0
VERTEX
  5
B1F
  8
0
 62
   253
 10
0.0
 20
0.0
 30
0.0
 70
   128
 71
   138
 72
   139
 73
   157
  0
VERTEX
  5
B20
  8
0
 62
   253
 10
0.0
 20
0.0
 30
0.0
 70
   128
 71
   139
 72
   154
 73
   157
  0
VERTEX
  5
B21
  8
0
 62
   253
 10
0.0
 20
0.0
 30
0.0
 70
   128
 71
   147
 72
   139
 73
    24
  0
VERTEX
  5
B22
  8
0
 62
   253
 10
0.0
 20
0.0
 30
0.0
 70
   128
 71
    30
 72
   147
 73
    24
  0
VERTEX
  5
B23
  8
0
 62
   253
 10
0.0
 20
0.0
 30
0.0
 70
   128
 71
   139
 72
   147
 73
   148
  0
VERTEX
  5
B24
  8
0
 62
   253
 10
0.0
 20
0.0
 30
0.0
 70
   128
 71
   139
 72
   148
 73
   151
  0
VERTEX
  5
B25
  8
0
 62
   253
 10
0.0
 20
0.0
 30
0.0
 70
   128
 71
   139
 72
   151
 73
   154
  0
VERTEX
  5
B26
  8
0
 62
   253
 10
0.0
 20
0.0
 30
0.0
 70
   128
 71
   138
 72
   157
 73
   240
  0
VERTEX
  5
B27
  8
0
 62
   253
 10
0.0
 20
0.0
 30
0.0
 70
   128
 71
   240
 72
   246
 73
   242
  0
VERTEX
  5
B28
  8
0
 62
   253
 10
0.0
 20
0.0
 30
0.0
 70
   128
 71
   157
 72
   246
 73
   240
  0
VERTEX
  5
B29
  8
0
 62
   253
 10
0.0
 20
0.0
 30
0.0
 70
   128
 71
   246
 72
   247
 73
   242
  0
VERTEX
  5
B2A
  8
0
 62
   253
 10
0.0
 20
0.0
 30
0.0
 70
   128
 71
   244
 72
   242
 73
   247
  0
VERTEX
  5
B2B
  8
0
 62
   253
 10
0.0
 20
0.0
 30
0.0
 70
   128
 71
   243
 72
   242
 73
   245
  0
VERTEX
  5
B2C
  8
0
 62
   253
 10
0.0
 20
0.0
 30
0.0
 70
   128
 71
   243
 72
     7
 73
   242
  0
VERTEX
  5
B2D
  8
0
 62
   253
 10
0.0
 20
0.0
 30
0.0
 70
   128
 71
    22
 72
    21
 73
     5
  0
VERTEX
  5
B2E
  8
0
 62
   253
 10
0.0
 20
0.0
 30
0.0
 70
   128
 71
   249
 72
    13
 73
   248
  0
VERTEX
  5
B2F
  8
0
 62
   253
 10
0.0
 20
0.0
 30
0.0
 70
   128
 71
    22
 72
     5
 73
     6
  0
VERTEX
  5
B30
  8
0
 62
   253
 10
0.0
 20
0.0
 30
0.0
 70
   128
 71
     5
 72
    21
 73
    20
  0
VERTEX
  5
B31
  8
0
 62
   253
 10
0.0
 20
0.0
 30
0.0
 70
   128
 71
     5
 72
    20
 73
    96
  0
VERTEX
  5
B32
  8
0
 62
   253
 10
0.0
 20
0.0
 30
0.0
 70
   128
 71
    20
 72
    18
 73
   250
  0
VERTEX
  5
B33
  8
0
 62
   253
 10
0.0
 20
0.0
 30
0.0
 70
   128
 71
    18
 72
    17
 73
   250
  0
VERTEX
  5
B34
  8
0
 62
   253
 10
0.0
 20
0.0
 30
0.0
 70
   128
 71
    17
 72
    16
 73
   250
  0
VERTEX
  5
B35
  8
0
 62
   253
 10
0.0
 20
0.0
 30
0.0
 70
   128
 71
    14
 72
   249
 73
    16
  0
VERTEX
  5
B36
  8
0
 62
   253
 10
0.0
 20
0.0
 30
0.0
 70
   128
 71
   249
 72
   250
 73
    16
  0
VERTEX
  5
B37
  8
0
 62
   253
 10
0.0
 20
0.0
 30
0.0
 70
   128
 71
   248
 72
    13
 73
    11
  0
VERTEX
  5
B38
  8
0
 62
   253
 10
0.0
 20
0.0
 30
0.0
 70
   128
 71
   250
 72
   249
 73
   251
  0
VERTEX
  5
B39
  8
0
 62
   253
 10
0.0
 20
0.0
 30
0.0
 70
   128
 71
   253
 72
   209
 73
   252
  0
VERTEX
  5
B3A
  8
0
 62
   253
 10
0.0
 20
0.0
 30
0.0
 70
   128
 71
   254
 72
   252
 73
   251
  0
VERTEX
  5
B3B
  8
0
 62
   253
 10
0.0
 20
0.0
 30
0.0
 70
   128
 71
   257
 72
   256
 73
   255
  0
VERTEX
  5
B3C
  8
0
 62
   253
 10
0.0
 20
0.0
 30
0.0
 70
   128
 71
   255
 72
     9
 73
   257
  0
VERTEX
  5
B3D
  8
0
 62
   253
 10
0.0
 20
0.0
 30
0.0
 70
   128
 71
   208
 72
   258
 73
   210
  0
VERTEX
  5
B3E
  8
0
 62
   253
 10
0.0
 20
0.0
 30
0.0
 70
   128
 71
   258
 72
   208
 73
   253
  0
VERTEX
  5
B3F
  8
0
 62
   253
 10
0.0
 20
0.0
 30
0.0
 70
   128
 71
    53
 72
   211
 73
   259
  0
VERTEX
  5
B40
  8
0
 62
   253
 10
0.0
 20
0.0
 30
0.0
 70
   128
 71
   260
 72
   211
 73
   210
  0
VERTEX
  5
B41
  8
0
 62
   253
 10
0.0
 20
0.0
 30
0.0
 70
   128
 71
   260
 72
   259
 73
   211
  0
VERTEX
  5
B42
  8
0
 62
   253
 10
0.0
 20
0.0
 30
0.0
 70
   128
 71
   253
 72
   261
 73
   258
  0
VERTEX
  5
B43
  8
0
 62
   253
 10
0.0
 20
0.0
 30
0.0
 70
   128
 71
   248
 72
   255
 73
   261
  0
VERTEX
  5
B44
  8
0
 62
   253
 10
0.0
 20
0.0
 30
0.0
 70
   128
 71
   255
 72
   248
 73
     1
  0
VERTEX
  5
B45
  8
0
 62
   253
 10
0.0
 20
0.0
 30
0.0
 70
   128
 71
    57
 72
    98
 73
   252
  0
VERTEX
  5
B46
  8
0
 62
   253
 10
0.0
 20
0.0
 30
0.0
 70
   128
 71
   252
 72
   209
 73
    57
  0
VERTEX
  5
B47
  8
0
 62
   253
 10
0.0
 20
0.0
 30
0.0
 70
   128
 71
   251
 72
    98
 73
    97
  0
VERTEX
  5
B48
  8
0
 62
   253
 10
0.0
 20
0.0
 30
0.0
 70
   128
 71
   260
 72
   256
 73
   262
  0
VERTEX
  5
B49
  8
0
 62
   253
 10
0.0
 20
0.0
 30
0.0
 70
   128
 71
   253
 72
   208
 73
   209
  0
VERTEX
  5
B4A
  8
0
 62
   253
 10
0.0
 20
0.0
 30
0.0
 70
   128
 71
   261
 72
   253
 73
   254
  0
VERTEX
  5
B4B
  8
0
 62
   253
 10
0.0
 20
0.0
 30
0.0
 70
   128
 71
   258
 72
   260
 73
   210
  0
VERTEX
  5
B4C
  8
0
 62
   253
 10
0.0
 20
0.0
 30
0.0
 70
   128
 71
   258
 72
   256
 73
   260
  0
VERTEX
  5
B4D
  8
0
 62
   253
 10
0.0
 20
0.0
 30
0.0
 70
   128
 71
   260
 72
   262
 73
   259
  0
VERTEX
  5
B4E
  8
0
 62
   253
 10
0.0
 20
0.0
 30
0.0
 70
   128
 71
   251
 72
   252
 73
    98
  0
VERTEX
  5
B4F
  8
0
 62
   253
 10
0.0
 20
0.0
 30
0.0
 70
   128
 71
   250
 72
    97
 73
    96
  0
VERTEX
  5
B50
  8
0
 62
   253
 10
0.0
 20
0.0
 30
0.0
 70
   128
 71
    11
 72
     1
 73
   248
  0
VERTEX
  5
B51
  8
0
 62
   253
 10
0.0
 20
0.0
 30
0.0
 70
   128
 71
   254
 72
   253
 73
   252
  0
VERTEX
  5
B52
  8
0
 62
   253
 10
0.0
 20
0.0
 30
0.0
 70
   128
 71
   249
 72
   248
 73
   254
  0
VERTEX
  5
B53
  8
0
 62
   253
 10
0.0
 20
0.0
 30
0.0
 70
   128
 71
     8
 72
   255
 73
     2
  0
VERTEX
  5
B54
  8
0
 62
   253
 10
0.0
 20
0.0
 30
0.0
 70
   128
 71
   257
 72
   262
 73
   256
  0
VERTEX
  5
B55
  8
0
 62
   253
 10
0.0
 20
0.0
 30
0.0
 70
   128
 71
   261
 72
   256
 73
   258
  0
VERTEX
  5
B56
  8
0
 62
   253
 10
0.0
 20
0.0
 30
0.0
 70
   128
 71
   250
 72
   251
 73
    97
  0
VERTEX
  5
B57
  8
0
 62
   253
 10
0.0
 20
0.0
 30
0.0
 70
   128
 71
    96
 72
    20
 73
   250
  0
VERTEX
  5
B58
  8
0
 62
   253
 10
0.0
 20
0.0
 30
0.0
 70
   128
 71
   249
 72
    14
 73
    13
  0
VERTEX
  5
B59
  8
0
 62
   253
 10
0.0
 20
0.0
 30
0.0
 70
   128
 71
   251
 72
   249
 73
   254
  0
VERTEX
  5
B5A
  8
0
 62
   253
 10
0.0
 20
0.0
 30
0.0
 70
   128
 71
     1
 72
     2
 73
   255
  0
VERTEX
  5
B5B
  8
0
 62
   253
 10
0.0
 20
0.0
 30
0.0
 70
   128
 71
   254
 72
   248
 73
   261
  0
VERTEX
  5
B5C
  8
0
 62
   253
 10
0.0
 20
0.0
 30
0.0
 70
   128
 71
     8
 72
     9
 73
   255
  0
VERTEX
  5
B5D
  8
0
 62
   253
 10
0.0
 20
0.0
 30
0.0
 70
   128
 71
   261
 72
   255
 73
   256
  0
VERTEX
  5
B5E
  8
0
 62
   253
 10
0.0
 20
0.0
 30
0.0
 70
   128
 71
   246
 72
   264
 73
   263
  0
VERTEX
  5
B5F
  8
0
 62
   253
 10
0.0
 20
0.0
 30
0.0
 70
   128
 71
   207
 72
   266
 73
   265
  0
VERTEX
  5
B60
  8
0
 62
   253
 10
0.0
 20
0.0
 30
0.0
 70
   128
 71
   266
 72
   264
 73
   265
  0
VERTEX
  5
B61
  8
0
 62
   253
 10
0.0
 20
0.0
 30
0.0
 70
   128
 71
   263
 72
   247
 73
   246
  0
VERTEX
  5
B62
  8
0
 62
   253
 10
0.0
 20
0.0
 30
0.0
 70
   128
 71
   263
 72
   264
 73
   266
  0
VERTEX
  5
B63
  8
0
 62
   253
 10
0.0
 20
0.0
 30
0.0
 70
   128
 71
   247
 72
   263
 73
   267
  0
VERTEX
  5
B64
  8
0
 62
   253
 10
0.0
 20
0.0
 30
0.0
 70
   128
 71
   206
 72
   268
 73
   266
  0
VERTEX
  5
B65
  8
0
 62
   253
 10
0.0
 20
0.0
 30
0.0
 70
   128
 71
   268
 72
   263
 73
   266
  0
VERTEX
  5
B66
  8
0
 62
   253
 10
0.0
 20
0.0
 30
0.0
 70
   128
 71
   207
 72
   206
 73
   266
  0
VERTEX
  5
B67
  8
0
 62
   253
 10
0.0
 20
0.0
 30
0.0
 70
   128
 71
   268
 72
   267
 73
   263
  0
VERTEX
  5
B68
  8
0
 62
   253
 10
0.0
 20
0.0
 30
0.0
 70
   128
 71
   267
 72
   244
 73
   247
  0
VERTEX
  5
B69
  8
0
 62
   253
 10
0.0
 20
0.0
 30
0.0
 70
   128
 71
   244
 72
   267
 73
   269
  0
VERTEX
  5
B6A
  8
0
 62
   253
 10
0.0
 20
0.0
 30
0.0
 70
   128
 71
    52
 72
   270
 73
   268
  0
VERTEX
  5
B6B
  8
0
 62
   253
 10
0.0
 20
0.0
 30
0.0
 70
   128
 71
   270
 72
   267
 73
   268
  0
VERTEX
  5
B6C
  8
0
 62
   253
 10
0.0
 20
0.0
 30
0.0
 70
   128
 71
   206
 72
    52
 73
   268
  0
VERTEX
  5
B6D
  8
0
 62
   253
 10
0.0
 20
0.0
 30
0.0
 70
   128
 71
   270
 72
   269
 73
   267
  0
VERTEX
  5
B6E
  8
0
 62
   253
 10
0.0
 20
0.0
 30
0.0
 70
   128
 71
   269
 72
   245
 73
   244
  0
VERTEX
  5
B6F
  8
0
 62
   253
 10
0.0
 20
0.0
 30
0.0
 70
   128
 71
   245
 72
   269
 73
   271
  0
VERTEX
  5
B70
  8
0
 62
   253
 10
0.0
 20
0.0
 30
0.0
 70
   128
 71
    51
 72
   272
 73
   270
  0
VERTEX
  5
B71
  8
0
 62
   253
 10
0.0
 20
0.0
 30
0.0
 70
   128
 71
   272
 72
   269
 73
   270
  0
VERTEX
  5
B72
  8
0
 62
   253
 10
0.0
 20
0.0
 30
0.0
 70
   128
 71
    52
 72
    51
 73
   270
  0
VERTEX
  5
B73
  8
0
 62
   253
 10
0.0
 20
0.0
 30
0.0
 70
   128
 71
   272
 72
   271
 73
   269
  0
VERTEX
  5
B74
  8
0
 62
   253
 10
0.0
 20
0.0
 30
0.0
 70
   128
 71
   271
 72
   243
 73
   245
  0
VERTEX
  5
B75
  8
0
 62
   253
 10
0.0
 20
0.0
 30
0.0
 70
   128
 71
   243
 72
   257
 73
    10
  0
VERTEX
  5
B76
  8
0
 62
   253
 10
0.0
 20
0.0
 30
0.0
 70
   128
 71
   259
 72
   272
 73
    51
  0
VERTEX
  5
B77
  8
0
 62
   253
 10
0.0
 20
0.0
 30
0.0
 70
   128
 71
    53
 72
   259
 73
    51
  0
VERTEX
  5
B78
  8
0
 62
   253
 10
0.0
 20
0.0
 30
0.0
 70
   128
 71
   271
 72
   257
 73
   243
  0
VERTEX
  5
B79
  8
0
 62
   253
 10
0.0
 20
0.0
 30
0.0
 70
   128
 71
   272
 72
   259
 73
   262
  0
VERTEX
  5
B7A
  8
0
 62
   253
 10
0.0
 20
0.0
 30
0.0
 70
   128
 71
   262
 72
   257
 73
   271
  0
VERTEX
  5
B7B
  8
0
 62
   253
 10
0.0
 20
0.0
 30
0.0
 70
   128
 71
   271
 72
   272
 73
   262
  0
VERTEX
  5
B7C
  8
0
 62
   253
 10
0.0
 20
0.0
 30
0.0
 70
   128
 71
     9
 72
    10
 73
   257
  0
VERTEX
  5
B7D
  8
0
 62
   253
 10
0.0
 20
0.0
 30
0.0
 70
   128
 71
   207
 72
   265
 73
   159
  0
VERTEX
  5
B7E
  8
0
 62
   253
 10
0.0
 20
0.0
 30
0.0
 70
   128
 71
   157
 72
   158
 73
   264
  0
VERTEX
  5
B7F
  8
0
 62
   253
 10
0.0
 20
0.0
 30
0.0
 70
   128
 71
   158
 72
   265
 73
   264
  0
VERTEX
  5
B80
  8
0
 62
   253
 10
0.0
 20
0.0
 30
0.0
 70
   128
 71
   246
 72
   157
 73
   264
  0
VERTEX
  5
B81
  8
0
 62
   253
 10
0.0
 20
0.0
 30
0.0
 70
   128
 71
   159
 72
   122
 73
   207
  0
VERTEX
  5
B82
  8
0
 62
   253
 10
0.0
 20
0.0
 30
0.0
 70
   128
 71
   159
 72
   265
 73
   158
  0
VERTEX
  5
B83
  8
0
 62
   253
 10
0.0
 20
0.0
 30
0.0
 70
   128
 71
    94
 72
   100
 73
   177
  0
VERTEX
  5
B84
  8
0
 62
   253
 10
0.0
 20
0.0
 30
0.0
 70
   128
 71
    99
 72
    94
 73
   176
  0
VERTEX
  5
B85
  8
0
 62
   253
 10
0.0
 20
0.0
 30
0.0
 70
   128
 71
   216
 72
    23
 73
   136
  0
VERTEX
  5
B86
  8
0
 62
   253
 10
0.0
 20
0.0
 30
0.0
 70
   128
 71
   182
 72
   177
 73
   100
  0
VERTEX
  5
B87
  8
0
 62
   253
 10
0.0
 20
0.0
 30
0.0
 70
   128
 71
   176
 72
    94
 73
   177
  0
VERTEX
  5
B88
  8
0
 62
   253
 10
0.0
 20
0.0
 30
0.0
 70
   128
 71
   182
 72
   100
 73
   183
  0
VERTEX
  5
B89
  8
0
 62
   253
 10
0.0
 20
0.0
 30
0.0
 70
   128
 71
     4
 72
    23
 73
   216
  0
VERTEX
  5
B8A
  8
0
 62
   253
 10
0.0
 20
0.0
 30
0.0
 70
   128
 71
    70
 72
   182
 73
   183
  0
VERTEX
  5
B8B
  8
0
 62
   253
 10
0.0
 20
0.0
 30
0.0
 70
   128
 71
   184
 72
    70
 73
   183
  0
VERTEX
  5
B8C
  8
0
 62
   253
 10
0.0
 20
0.0
 30
0.0
 70
   128
 71
   175
 72
    99
 73
   176
  0
VERTEX
  5
B8D
  8
0
 62
   253
 10
0.0
 20
0.0
 30
0.0
 70
   128
 71
    99
 72
   175
 73
   101
  0
VERTEX
  5
B8E
  8
0
 62
   253
 10
0.0
 20
0.0
 30
0.0
 70
   128
 71
   175
 72
    39
 73
    23
  0
VERTEX
  5
B8F
  8
0
 62
   253
 10
0.0
 20
0.0
 30
0.0
 70
   128
 71
    23
 72
   101
 73
   175
  0
VERTEX
  5
B90
  8
0
 62
   253
 10
0.0
 20
0.0
 30
0.0
 70
   128
 71
    35
 72
   136
 73
    39
  0
VERTEX
  5
B91
  8
0
 62
   253
 10
0.0
 20
0.0
 30
0.0
 70
   128
 71
   136
 72
    23
 73
    39
  0
SEQEND
  5
B92
  8
0
  0
ENDBLK
  5
B95
  8
0
  0
ENDSEC
  0
SECTION
  2
ENTITIES
  0
INSERT
  5
A8
  8
LAYER_1
  2
38
 10
0.0
 20
0.0
 30
0.0
  0
INSERT
  5
FB
  8
LAYER_1
  2
39
 10
0.0
 20
0.0
 30
0.0
  0
INSERT
  5
179
  8
LAYER_1
  2
40
 10
0.0
 20
0.0
 30
0.0
  0
INSERT
  5
2DA
  8
LAYER_1
  2
403671038_GRIFF_THM-_TEMPE
 10
0.0
 20
0.0
 30
0.0
  0
INSERT
  5
358
  8
LAYER_1
  2
42
 10
0.0
 20
0.0
 30
0.0
  0
INSERT
  5
3D4
  8
LAYER_1
  2
43
 10
0.0
 20
0.0
 30
0.0
  0
INSERT
  5
450
  8
LAYER_1
  2
44
 10
0.0
 20
0.0
 30
0.0
  0
INSERT
  5
5B1
  8
LAYER_1
  2
403671038_GRIFF_THM-_TEMP0
 10
0.0
 20
0.0
 30
0.0
  0
INSERT
  5
617
  8
LAYER_1
  2
46
 10
0.0
 20
0.0
 30
0.0
  0
INSERT
  5
6AC
  8
LAYER_1
  2
47
 10
0.0
 20
0.0
 30
0.0
  0
INSERT
  5
712
  8
LAYER_1
  2
48
 10
0.0
 20
0.0
 30
0.0
  0
INSERT
  5
7A7
  8
LAYER_1
  2
49
 10
0.0
 20
0.0
 30
0.0
  0
INSERT
  5
887
  8
LAYER_1
  2
50
 10
0.0
 20
0.0
 30
0.0
  0
INSERT
  5
B93
  8
LAYER_1
  2
51
 10
0.0
 20
0.0
 30
0.0
  0
ENDSEC
  0
EOF
