  0
SECTION
  2
HEADER
  9
$ACADVER
  1
AC1009
  9
$DWGCODEPAGE
  3
ansi_1252
  9
$INSBASE
 10
0.0
 20
0.0
 30
0.0
  9
$EXTMIN
 10
1.000000000000000E+20
 20
1.000000000000000E+20
 30
1.000000000000000E+20
  9
$EXTMAX
 10
-1.000000000000000E+20
 20
-1.000000000000000E+20
 30
-1.000000000000000E+20
  9
$LIMMIN
 10
0.0
 20
0.0
  9
$LIMMAX
 10
12.0
 20
9.0
  9
$ORTHOMODE
 70
     0
  9
$REGENMODE
 70
     1
  9
$FILLMODE
 70
     1
  9
$QTEXTMODE
 70
     0
  9
$MIRRTEXT
 70
     1
  9
$DRAGMODE
 70
     2
  9
$LTSCALE
 40
1.0
  9
$OSMODE
 70
    37
  9
$ATTMODE
 70
     1
  9
$TEXTSIZE
 40
0.2
  9
$TRACEWID
 40
0.05
  9
$TEXTSTYLE
  7
STANDARD
  9
$CLAYER
  8
0
  9
$CELTYPE
  6
BYLAYER
  9
$CECOLOR
 62
   256
  9
$DIMSCALE
 40
1.0
  9
$DIMASZ
 40
0.18
  9
$DIMEXO
 40
0.0625
  9
$DIMDLI
 40
0.38
  9
$DIMRND
 40
0.0
  9
$DIMDLE
 40
0.0
  9
$DIMEXE
 40
0.18
  9
$DIMTP
 40
0.0
  9
$DIMTM
 40
0.0
  9
$DIMTXT
 40
0.18
  9
$DIMCEN
 40
0.09
  9
$DIMTSZ
 40
0.0
  9
$DIMTOL
 70
     0
  9
$DIMLIM
 70
     0
  9
$DIMTIH
 70
     1
  9
$DIMTOH
 70
     1
  9
$DIMSE1
 70
     0
  9
$DIMSE2
 70
     0
  9
$DIMTAD
 70
     0
  9
$DIMZIN
 70
     0
  9
$DIMBLK
  1

  9
$DIMASO
 70
     1
  9
$DIMSHO
 70
     1
  9
$DIMPOST
  1

  9
$DIMAPOST
  1

  9
$DIMALT
 70
     0
  9
$DIMALTD
 70
     2
  9
$DIMALTF
 40
25.4
  9
$DIMLFAC
 40
1.0
  9
$DIMTOFL
 70
     0
  9
$DIMTVP
 40
0.0
  9
$DIMTIX
 70
     0
  9
$DIMSOXD
 70
     0
  9
$DIMSAH
 70
     0
  9
$DIMBLK1
  1

  9
$DIMBLK2
  1

  9
$DIMSTYLE
  2
STANDARD
  9
$DIMCLRD
 70
     0
  9
$DIMCLRE
 70
     0
  9
$DIMCLRT
 70
     0
  9
$DIMTFAC
 40
1.0
  9
$DIMGAP
 40
0.09
  9
$LUNITS
 70
     2
  9
$LUPREC
 70
     4
  9
$SKETCHINC
 40
0.1
  9
$FILLETRAD
 40
0.5
  9
$AUNITS
 70
     0
  9
$AUPREC
 70
     0
  9
$MENU
  1
.
  9
$ELEVATION
 40
0.0
  9
$PELEVATION
 40
0.0
  9
$THICKNESS
 40
0.0
  9
$LIMCHECK
 70
     0
  9
$CHAMFERA
 40
0.5
  9
$CHAMFERB
 40
0.5
  9
$SKPOLY
 70
     0
  9
$TDCREATE
 40
2456097.587694792
  9
$TDUPDATE
 40
2456097.587694792
  9
$TDINDWG
 40
0.0000000116
  9
$TDUSRTIMER
 40
0.0000000116
  9
$USRTIMER
 70
     1
  9
$ANGBASE
 50
0.0
  9
$ANGDIR
 70
     0
  9
$PDMODE
 70
     0
  9
$PDSIZE
 40
0.0
  9
$PLINEWID
 40
0.0
  9
$COORDS
 70
     1
  9
$SPLFRAME
 70
     0
  9
$SPLINETYPE
 70
     6
  9
$SPLINESEGS
 70
     8
  9
$ATTDIA
 70
     0
  9
$ATTREQ
 70
     1
  9
$HANDLING
 70
     1
  9
$HANDSEED
  5
C03
  9
$SURFTAB1
 70
     6
  9
$SURFTAB2
 70
     6
  9
$SURFTYPE
 70
     6
  9
$SURFU
 70
     6
  9
$SURFV
 70
     6
  9
$UCSNAME
  2

  9
$UCSORG
 10
0.0
 20
0.0
 30
0.0
  9
$UCSXDIR
 10
1.0
 20
0.0
 30
0.0
  9
$UCSYDIR
 10
0.0
 20
1.0
 30
0.0
  9
$PUCSNAME
  2

  9
$PUCSORG
 10
0.0
 20
0.0
 30
0.0
  9
$PUCSXDIR
 10
1.0
 20
0.0
 30
0.0
  9
$PUCSYDIR
 10
0.0
 20
1.0
 30
0.0
  9
$USERI1
 70
     0
  9
$USERI2
 70
     0
  9
$USERI3
 70
     0
  9
$USERI4
 70
     0
  9
$USERI5
 70
     0
  9
$USERR1
 40
0.0
  9
$USERR2
 40
0.0
  9
$USERR3
 40
0.0
  9
$USERR4
 40
0.0
  9
$USERR5
 40
0.0
  9
$WORLDVIEW
 70
     1
  9
$SHADEDGE
 70
     3
  9
$SHADEDIF
 70
    70
  9
$TILEMODE
 70
     1
  9
$MAXACTVP
 70
    64
  9
$PLIMCHECK
 70
     0
  9
$PEXTMIN
 10
1.000000000000000E+20
 20
1.000000000000000E+20
 30
1.000000000000000E+20
  9
$PEXTMAX
 10
-1.000000000000000E+20
 20
-1.000000000000000E+20
 30
-1.000000000000000E+20
  9
$PLIMMIN
 10
0.0
 20
0.0
  9
$PLIMMAX
 10
12.0
 20
9.0
  9
$UNITMODE
 70
     0
  9
$VISRETAIN
 70
     1
  9
$PLINEGEN
 70
     0
  9
$PSLTSCALE
 70
     1
  0
ENDSEC
  0
SECTION
  2
TABLES
  0
TABLE
  2
VPORT
 70
     1
  0
VPORT
  2
*ACTIVE
 70
     0
 10
0.0
 20
0.0
 11
1.0
 21
1.0
 12
0.0
 22
0.0
 13
0.0
 23
0.0
 14
0.5
 24
0.5
 15
0.5
 25
0.5
 16
368.2645874023438
 26
-343.4122924804688
 36
144.3872833251953
 17
85.89108276367188
 27
0.0
 37
-12.06138610839844
 40
239.8098725768452
 41
1.972972972850329
 42
50.0
 43
0.0
 44
0.0
 50
0.0
 51
0.0
 71
     0
 72
   100
 73
     1
 74
     3
 75
     0
 76
     0
 77
     0
 78
     0
  0
ENDTAB
  0
TABLE
  2
LTYPE
 70
     1
  0
LTYPE
  2
CONTINUOUS
 70
     0
  3
Solid line
 72
    65
 73
     0
 40
0.0
  0
ENDTAB
  0
TABLE
  2
LAYER
 70
     2
  0
LAYER
  2
0
 70
     0
 62
     7
  6
CONTINUOUS
  0
LAYER
  2
LAYER_1
 70
     0
 62
     7
  6
CONTINUOUS
  0
ENDTAB
  0
TABLE
  2
STYLE
 70
     1
  0
STYLE
  2
STANDARD
 70
     0
 40
0.0
 41
1.0
 50
0.0
 71
     0
 42
0.2
  3
txt
  4

  0
ENDTAB
  0
TABLE
  2
VIEW
 70
     0
  0
ENDTAB
  0
TABLE
  2
UCS
 70
     0
  0
ENDTAB
  0
TABLE
  2
APPID
 70
     1
  0
APPID
  2
ACAD
 70
     0
  0
ENDTAB
  0
TABLE
  2
DIMSTYLE
 70
     1
  0
DIMSTYLE
  2
STANDARD
 70
     0
  3

  4

  5

  6

  7

 40
1.0
 41
0.18
 42
0.0625
 43
0.38
 44
0.18
 45
0.0
 46
0.0
 47
0.0
 48
0.0
140
0.18
141
0.09
142
0.0
143
25.4
144
1.0
145
0.0
146
1.0
147
0.09
 71
     0
 72
     0
 73
     1
 74
     1
 75
     0
 76
     0
 77
     0
 78
     0
170
     0
171
     2
172
     0
173
     0
174
     0
175
     0
176
     0
177
     0
178
     0
  0
ENDTAB
  0
ENDSEC
  0
SECTION
  2
BLOCKS
  0
BLOCK
  8
0
  2
$MODEL_SPACE
 70
     0
 10
0.0
 20
0.0
 30
0.0
  3
$MODEL_SPACE
  1

  0
ENDBLK
  5
21
  8
0
  0
BLOCK
 67
     1
  8
0
  2
$PAPER_SPACE
 70
     0
 10
0.0
 20
0.0
 30
0.0
  3
$PAPER_SPACE
  1

  0
ENDBLK
  5
1D
 67
     1
  8
0
  0
BLOCK
  8
0
  2
38
 70
     0
 10
0.0
 20
0.0
 30
0.0
  3
38
  1

  0
POLYLINE
  5
3C
  8
0
 66
     1
 10
0.0
 20
0.0
 30
0.0
 70
    64
 71
   144
 72
   320
  0
VERTEX
  5
3D
  8
0
 10
50.0
 20
86.10358428955078
 30
51.2998046875
 70
   192
  0
VERTEX
  5
3E
  8
0
 10
63.29999923706055
 20
80.6414794921875
 30
68.6414794921875
 70
   192
  0
VERTEX
  5
3F
  8
0
 10
63.29999923706055
 20
85.90158081054688
 30
51.15425109863281
 70
   192
  0
VERTEX
  5
40
  8
0
 10
63.29999923706055
 20
89.864501953125
 30
33.35923004150391
 70
   192
  0
VERTEX
  5
41
  8
0
 10
50.0
 20
92.74459075927734
 30
15.39345645904541
 70
   192
  0
VERTEX
  5
42
  8
0
 10
50.0
 20
90.08102416992188
 30
33.46525955200195
 70
   192
  0
VERTEX
  5
43
  8
0
 10
50.0
 20
94.082275390625
 30
-21.15562629699707
 70
   192
  0
VERTEX
  5
44
  8
0
 10
63.29999923706055
 20
93.85066986083984
 30
-21.13591575622559
 70
   192
  0
VERTEX
  5
45
  8
0
 10
50.0
 20
92.74482727050781
 30
-39.39202117919922
 70
   192
  0
VERTEX
  5
46
  8
0
 10
63.29999923706055
 20
93.85073852539062
 30
-2.865581274032593
 70
   192
  0
VERTEX
  5
47
  8
0
 10
50.0
 20
94.08219909667969
 30
-2.842869997024536
 70
   192
  0
VERTEX
  5
48
  8
0
 10
63.29999923706055
 20
92.51823425292969
 30
15.328782081604
 70
   192
  0
VERTEX
  5
49
  8
0
 10
63.29999923706055
 20
89.86424255371094
 30
-57.36081695556641
 70
   192
  0
VERTEX
  5
4A
  8
0
 10
63.29999923706055
 20
85.90139770507812
 30
-75.15536499023438
 70
   192
  0
VERTEX
  5
4B
  8
0
 10
50.0
 20
90.08128356933594
 30
-57.46366500854492
 70
   192
  0
VERTEX
  5
4C
  8
0
 10
50.0
 20
86.10376739501953
 30
-75.29869079589844
 70
   192
  0
VERTEX
  5
4D
  8
0
 10
63.29999923706055
 20
80.6414794921875
 30
-92.6414794921875
 70
   192
  0
VERTEX
  5
4E
  8
0
 10
50.0
 20
80.82434844970703
 30
-92.82434844970703
 70
   192
  0
VERTEX
  5
4F
  8
0
 10
63.29999923706055
 20
92.51799774169922
 30
-39.3302116394043
 70
   192
  0
VERTEX
  5
50
  8
0
 10
50.0
 20
80.82434844970703
 30
68.82434844970703
 70
   192
  0
VERTEX
  5
51
  8
0
 10
50.0
 20
-63.2998046875
 30
74.10358428955078
 70
   192
  0
VERTEX
  5
52
  8
0
 10
63.29999923706055
 20
-80.6414794921875
 30
68.6414794921875
 70
   192
  0
VERTEX
  5
53
  8
0
 10
63.29999923706055
 20
-63.15425109863281
 30
73.90158081054688
 70
   192
  0
VERTEX
  5
54
  8
0
 10
63.29999923706055
 20
-45.35923004150391
 30
77.864501953125
 70
   192
  0
VERTEX
  5
55
  8
0
 10
50.0
 20
-27.39345741271973
 30
80.74459075927734
 70
   192
  0
VERTEX
  5
56
  8
0
 10
50.0
 20
-45.46525955200195
 30
78.08102416992188
 70
   192
  0
VERTEX
  5
57
  8
0
 10
50.0
 20
9.15562629699707
 30
82.082275390625
 70
   192
  0
VERTEX
  5
58
  8
0
 10
63.29999923706055
 20
9.13591480255127
 30
81.85066986083984
 70
   192
  0
VERTEX
  5
59
  8
0
 10
50.0
 20
27.39202117919922
 30
80.74482727050781
 70
   192
  0
VERTEX
  5
5A
  8
0
 10
63.29999923706055
 20
-9.134418487548828
 30
81.85073852539062
 70
   192
  0
VERTEX
  5
5B
  8
0
 10
50.0
 20
-9.157130241394043
 30
82.08219909667969
 70
   192
  0
VERTEX
  5
5C
  8
0
 10
63.29999923706055
 20
-27.32878112792969
 30
80.51823425292969
 70
   192
  0
VERTEX
  5
5D
  8
0
 10
63.29999923706055
 20
45.36081695556641
 30
77.86424255371094
 70
   192
  0
VERTEX
  5
5E
  8
0
 10
63.29999923706055
 20
63.15536117553711
 30
73.90139770507812
 70
   192
  0
VERTEX
  5
5F
  8
0
 10
50.0
 20
45.46366500854492
 30
78.08128356933594
 70
   192
  0
VERTEX
  5
60
  8
0
 10
50.0
 20
63.29868698120117
 30
74.10376739501953
 70
   192
  0
VERTEX
  5
61
  8
0
 10
63.29999923706055
 20
27.33020973205566
 30
80.51799774169922
 70
   192
  0
VERTEX
  5
62
  8
0
 10
50.0
 20
-80.82434844970703
 30
68.82434844970703
 70
   192
  0
VERTEX
  5
63
  8
0
 10
50.0
 20
-86.10358428955078
 30
-75.2998046875
 70
   192
  0
VERTEX
  5
64
  8
0
 10
63.29999923706055
 20
-80.6414794921875
 30
-92.6414794921875
 70
   192
  0
VERTEX
  5
65
  8
0
 10
63.29999923706055
 20
-85.90158081054688
 30
-75.15425109863281
 70
   192
  0
VERTEX
  5
66
  8
0
 10
63.29999923706055
 20
-89.864501953125
 30
-57.35923004150391
 70
   192
  0
VERTEX
  5
67
  8
0
 10
50.0
 20
-92.74459075927734
 30
-39.39345550537109
 70
   192
  0
VERTEX
  5
68
  8
0
 10
50.0
 20
-90.08102416992188
 30
-57.46525955200195
 70
   192
  0
VERTEX
  5
69
  8
0
 10
50.0
 20
-94.082275390625
 30
-2.844373941421509
 70
   192
  0
VERTEX
  5
6A
  8
0
 10
63.29999923706055
 20
-93.85066986083984
 30
-2.86408519744873
 70
   192
  0
VERTEX
  5
6B
  8
0
 10
50.0
 20
-92.74482727050781
 30
15.39202117919922
 70
   192
  0
VERTEX
  5
6C
  8
0
 10
63.29999923706055
 20
-93.85073852539062
 30
-21.13441848754883
 70
   192
  0
VERTEX
  5
6D
  8
0
 10
50.0
 20
-94.08219909667969
 30
-21.15712928771973
 70
   192
  0
VERTEX
  5
6E
  8
0
 10
63.29999923706055
 20
-92.51823425292969
 30
-39.32878112792969
 70
   192
  0
VERTEX
  5
6F
  8
0
 10
63.29999923706055
 20
-89.86424255371094
 30
33.36081695556641
 70
   192
  0
VERTEX
  5
70
  8
0
 10
63.29999923706055
 20
-85.90139770507812
 30
51.15536117553711
 70
   192
  0
VERTEX
  5
71
  8
0
 10
50.0
 20
-90.08128356933594
 30
33.46366500854492
 70
   192
  0
VERTEX
  5
72
  8
0
 10
50.0
 20
-86.10376739501953
 30
51.29868698120117
 70
   192
  0
VERTEX
  5
73
  8
0
 10
63.29999923706055
 20
-92.51799774169922
 30
15.33021068572998
 70
   192
  0
VERTEX
  5
74
  8
0
 10
50.0
 20
-80.82434844970703
 30
-92.82434844970703
 70
   192
  0
VERTEX
  5
75
  8
0
 10
50.0
 20
-43.68873596191406
 30
-102.4029922485352
 70
   192
  0
VERTEX
  5
76
  8
0
 10
50.0
 20
-62.53111267089844
 30
-98.30342102050781
 70
   192
  0
VERTEX
  5
77
  8
0
 10
50.0
 20
24.45520973205566
 30
-105.0510101318359
 70
   192
  0
VERTEX
  5
78
  8
0
 10
50.0
 20
5.0
 30
-106.1999969482422
 70
   192
  0
VERTEX
  5
79
  8
0
 10
50.0
 20
5.0
 30
-105.4763488769531
 70
   192
  0
VERTEX
  5
7A
  8
0
 10
50.0
 20
-24.45520973205566
 30
-105.0510101318359
 70
   192
  0
VERTEX
  5
7B
  8
0
 10
50.0
 20
-5.0
 30
-105.4763488769531
 70
   192
  0
VERTEX
  5
7C
  8
0
 10
50.0
 20
-5.0
 30
-106.1999969482422
 70
   192
  0
VERTEX
  5
7D
  8
0
 10
50.0
 20
62.53111267089844
 30
-98.30342102050781
 70
   192
  0
VERTEX
  5
7E
  8
0
 10
50.0
 20
43.68873596191406
 30
-102.4029922485352
 70
   192
  0
VERTEX
  5
7F
  8
0
 10
63.29999923706055
 20
63.15425109863281
 30
-97.90158081054688
 70
   192
  0
VERTEX
  5
80
  8
0
 10
63.29999923706055
 20
45.35923004150391
 30
-101.864501953125
 70
   192
  0
VERTEX
  5
81
  8
0
 10
63.29999923706055
 20
-9.13591480255127
 30
-105.8506698608398
 70
   192
  0
VERTEX
  5
82
  8
0
 10
51.08162689208984
 20
4.287625312805176
 30
-106.1943435668945
 70
   192
  0
VERTEX
  5
83
  8
0
 10
63.29999923706055
 20
9.134418487548828
 30
-105.8507385253906
 70
   192
  0
VERTEX
  5
84
  8
0
 10
51.5
 20
3.063508272171021
 30
-106.2050476074219
 70
   192
  0
VERTEX
  5
85
  8
0
 10
63.29999923706055
 20
-45.36081695556641
 30
-101.8642425537109
 70
   192
  0
VERTEX
  5
86
  8
0
 10
63.29999923706055
 20
-27.33020973205566
 30
-104.5179977416992
 70
   192
  0
VERTEX
  5
87
  8
0
 10
63.29999923706055
 20
-63.15536117553711
 30
-97.90139770507812
 70
   192
  0
VERTEX
  5
88
  8
0
 10
51.08066940307617
 20
-4.288858413696289
 30
-106.1943435668945
 70
   192
  0
VERTEX
  5
89
  8
0
 10
51.5
 20
-3.063508272171021
 30
-106.2050476074219
 70
   192
  0
VERTEX
  5
8A
  8
0
 10
63.29999923706055
 20
27.32878112792969
 30
-104.5182342529297
 70
   192
  0
VERTEX
  5
8B
  8
0
 10
51.5
 20
-3.063508272171021
 30
-105.5076751708984
 70
   192
  0
VERTEX
  5
8C
  8
0
 10
51.5
 20
3.063508272171021
 30
-105.5076751708984
 70
   192
  0
VERTEX
  5
8D
  8
0
 10
51.08190536499023
 20
-4.287263870239258
 30
-105.489631652832
 70
   192
  0
VERTEX
  5
8E
  8
0
 10
51.08113479614258
 20
4.288260459899902
 30
-105.4896087646484
 70
   192
  0
VERTEX
  5
8F
  8
0
 10
63.29999923706055
 20
45.64739990234375
 30
-101.8108139038086
 70
   192
  0
VERTEX
  5
90
  8
0
 10
63.29999923706055
 20
92.49563598632812
 30
-39.53429412841797
 70
   192
  0
VERTEX
  5
91
  8
0
 10
63.29999923706055
 20
27.53718185424805
 30
-104.4950332641602
 70
   192
  0
VERTEX
  5
92
  8
0
 10
63.29999923706055
 20
-63.39287185668945
 30
73.83875274658203
 70
   192
  0
VERTEX
  5
93
  8
0
 10
63.29999923706055
 20
-85.83988952636719
 30
51.39095687866211
 70
   192
  0
VERTEX
  5
94
  8
0
 10
63.29999923706055
 20
-89.8119888305664
 30
33.64438247680664
 70
   192
  0
VERTEX
  5
95
  8
0
 10
63.29999923706055
 20
-92.49563598632812
 30
15.53429508209229
 70
   192
  0
VERTEX
  5
96
  8
0
 10
63.29999923706055
 20
-45.64739990234375
 30
77.8108139038086
 70
   192
  0
VERTEX
  5
97
  8
0
 10
63.29999923706055
 20
-27.53718185424805
 30
80.49503326416016
 70
   192
  0
VERTEX
  5
98
  8
0
 10
63.29999923706055
 20
-9.204057693481445
 30
81.84818267822266
 70
   192
  0
VERTEX
  5
99
  8
0
 10
63.29999923706055
 20
-93.84823608398438
 30
-2.797259092330933
 70
   192
  0
VERTEX
  5
9A
  8
0
 10
63.29999923706055
 20
-93.84818267822266
 30
-21.20405769348145
 70
   192
  0
VERTEX
  5
9B
  8
0
 10
63.29999923706055
 20
-45.64438247680664
 30
-101.8119888305664
 70
   192
  0
VERTEX
  5
9C
  8
0
 10
63.29999923706055
 20
-27.5342960357666
 30
-104.4956359863281
 70
   192
  0
VERTEX
  5
9D
  8
0
 10
63.29999923706055
 20
-92.49503326416016
 30
-39.53718185424805
 70
   192
  0
VERTEX
  5
9E
  8
0
 10
63.29999923706055
 20
9.202740669250488
 30
81.84823608398438
 70
   192
  0
VERTEX
  5
9F
  8
0
 10
63.29999923706055
 20
-85.83875274658203
 30
-75.39286804199219
 70
   192
  0
VERTEX
  5
A0
  8
0
 10
63.29999923706055
 20
-89.8108139038086
 30
-57.64739990234375
 70
   192
  0
VERTEX
  5
A1
  8
0
 10
63.29999923706055
 20
-63.39095687866211
 30
-97.83988952636719
 70
   192
  0
VERTEX
  5
A2
  8
0
 10
63.29999923706055
 20
-9.202740669250488
 30
-105.8482360839844
 70
   192
  0
VERTEX
  5
A3
  8
0
 10
63.29999923706055
 20
93.84823608398438
 30
-21.2027416229248
 70
   192
  0
VERTEX
  5
A4
  8
0
 10
63.29999923706055
 20
93.84818267822266
 30
-2.795942544937134
 70
   192
  0
VERTEX
  5
A5
  8
0
 10
63.29999923706055
 20
9.204057693481445
 30
-105.8481826782227
 70
   192
  0
VERTEX
  5
A6
  8
0
 10
63.29999923706055
 20
89.8119888305664
 30
-57.64438247680664
 70
   192
  0
VERTEX
  5
A7
  8
0
 10
63.29999923706055
 20
63.39287185668945
 30
-97.83875274658203
 70
   192
  0
VERTEX
  5
A8
  8
0
 10
63.29999923706055
 20
85.83988952636719
 30
-75.39096069335938
 70
   192
  0
VERTEX
  5
A9
  8
0
 10
63.29999923706055
 20
27.5342960357666
 30
80.49563598632812
 70
   192
  0
VERTEX
  5
AA
  8
0
 10
63.29999923706055
 20
92.49503326416016
 30
15.53718185424805
 70
   192
  0
VERTEX
  5
AB
  8
0
 10
63.29999923706055
 20
45.64438247680664
 30
77.8119888305664
 70
   192
  0
VERTEX
  5
AC
  8
0
 10
63.29999923706055
 20
89.8108139038086
 30
33.64739990234375
 70
   192
  0
VERTEX
  5
AD
  8
0
 10
63.29999923706055
 20
85.83875274658203
 30
51.39287185668945
 70
   192
  0
VERTEX
  5
AE
  8
0
 10
63.29999923706055
 20
63.39095687866211
 30
73.83988952636719
 70
   192
  0
VERTEX
  5
AF
  8
0
 10
50.0
 20
43.43018341064453
 30
-102.4486694335938
 70
   192
  0
VERTEX
  5
B0
  8
0
 10
50.0
 20
62.29958343505859
 30
-98.36308288574219
 70
   192
  0
VERTEX
  5
B1
  8
0
 10
50.0
 20
-24.30178070068359
 30
-105.0660095214844
 70
   192
  0
VERTEX
  5
B2
  8
0
 10
50.0
 20
-43.43018341064453
 30
-102.4486694335938
 70
   192
  0
VERTEX
  5
B3
  8
0
 10
50.0
 20
-62.29958343505859
 30
-98.36308288574219
 70
   192
  0
VERTEX
  5
B4
  8
0
 10
50.0
 20
24.30178070068359
 30
-105.0660095214844
 70
   192
  0
VERTEX
  5
B5
  8
0
 10
50.0
 20
-90.02842712402344
 30
-57.75026321411133
 70
   192
  0
VERTEX
  5
B6
  8
0
 10
50.0
 20
-94.07975006103516
 30
-21.22429847717285
 70
   192
  0
VERTEX
  5
B7
  8
0
 10
50.0
 20
-94.07969665527344
 30
-2.774378776550293
 70
   192
  0
VERTEX
  5
B8
  8
0
 10
50.0
 20
9.225621223449707
 30
82.07969665527344
 70
   192
  0
VERTEX
  5
B9
  8
0
 10
50.0
 20
-86.04167175292969
 30
-75.53658294677734
 70
   192
  0
VERTEX
  5
BA
  8
0
 10
50.0
 20
-92.72208404541016
 30
-39.59858322143555
 70
   192
  0
VERTEX
  5
BB
  8
0
 10
50.0
 20
-9.224297523498535
 30
82.07975006103516
 70
   192
  0
VERTEX
  5
BC
  8
0
 10
50.0
 20
-90.0272445678711
 30
33.7532958984375
 70
   192
  0
VERTEX
  5
BD
  8
0
 10
50.0
 20
-27.59858322143555
 30
80.72208404541016
 70
   192
  0
VERTEX
  5
BE
  8
0
 10
50.0
 20
-92.72147369384766
 30
15.60148525238037
 70
   192
  0
VERTEX
  5
BF
  8
0
 10
50.0
 20
-86.04052734375
 30
51.53850173950195
 70
   192
  0
VERTEX
  5
C0
  8
0
 10
50.0
 20
-63.53657913208008
 30
74.04167175292969
 70
   192
  0
VERTEX
  5
C1
  8
0
 10
50.0
 20
-45.75026321411133
 30
78.02842712402344
 70
   192
  0
VERTEX
  5
C2
  8
0
 10
50.0
 20
27.60148429870605
 30
80.72147369384766
 70
   192
  0
VERTEX
  5
C3
  8
0
 10
50.0
 20
90.02842712402344
 30
33.75026321411133
 70
   192
  0
VERTEX
  5
C4
  8
0
 10
50.0
 20
92.72208404541016
 30
15.59858417510986
 70
   192
  0
VERTEX
  5
C5
  8
0
 10
50.0
 20
94.07975006103516
 30
-2.775702238082886
 70
   192
  0
VERTEX
  5
C6
  8
0
 10
50.0
 20
63.53850173950195
 30
74.04052734375
 70
   192
  0
VERTEX
  5
C7
  8
0
 10
50.0
 20
86.04167175292969
 30
51.53657913208008
 70
   192
  0
VERTEX
  5
C8
  8
0
 10
50.0
 20
45.7532958984375
 30
78.0272445678711
 70
   192
  0
VERTEX
  5
C9
  8
0
 10
50.0
 20
92.72147369384766
 30
-39.60148620605469
 70
   192
  0
VERTEX
  5
CA
  8
0
 10
50.0
 20
94.07969665527344
 30
-21.22562026977539
 70
   192
  0
VERTEX
  5
CB
  8
0
 10
50.0
 20
90.0272445678711
 30
-57.7532958984375
 70
   192
  0
VERTEX
  5
CC
  8
0
 10
50.0
 20
86.04052734375
 30
-75.53850555419922
 70
   192
  0
VERTEX
  5
CD
  8
0
 62
     9
 10
0.0
 20
0.0
 30
0.0
 70
   128
 71
     3
 72
     2
 73
     1
  0
VERTEX
  5
CE
  8
0
 62
     9
 10
0.0
 20
0.0
 30
0.0
 70
   128
 71
     6
 72
     5
 73
     4
  0
VERTEX
  5
CF
  8
0
 62
     9
 10
0.0
 20
0.0
 30
0.0
 70
   128
 71
     9
 72
     8
 73
     7
  0
VERTEX
  5
D0
  8
0
 62
     9
 10
0.0
 20
0.0
 30
0.0
 70
   128
 71
    12
 72
    11
 73
    10
  0
VERTEX
  5
D1
  8
0
 62
     9
 10
0.0
 20
0.0
 30
0.0
 70
   128
 71
    15
 72
    14
 73
    13
  0
VERTEX
  5
D2
  8
0
 62
     9
 10
0.0
 20
0.0
 30
0.0
 70
   128
 71
    13
 72
     9
 73
    15
  0
VERTEX
  5
D3
  8
0
 62
     9
 10
0.0
 20
0.0
 30
0.0
 70
   128
 71
    17
 72
    14
 73
    16
  0
VERTEX
  5
D4
  8
0
 62
     9
 10
0.0
 20
0.0
 30
0.0
 70
   128
 71
    15
 72
    16
 73
    14
  0
VERTEX
  5
D5
  8
0
 62
     9
 10
0.0
 20
0.0
 30
0.0
 70
   128
 71
    18
 72
    17
 73
    16
  0
VERTEX
  5
D6
  8
0
 62
     9
 10
0.0
 20
0.0
 30
0.0
 70
   128
 71
     8
 72
     9
 73
    19
  0
VERTEX
  5
D7
  8
0
 62
     9
 10
0.0
 20
0.0
 30
0.0
 70
   128
 71
     9
 72
    13
 73
    19
  0
VERTEX
  5
D8
  8
0
 62
     9
 10
0.0
 20
0.0
 30
0.0
 70
   128
 71
     7
 72
     8
 73
    10
  0
VERTEX
  5
D9
  8
0
 62
     9
 10
0.0
 20
0.0
 30
0.0
 70
   128
 71
     2
 72
    20
 73
     1
  0
VERTEX
  5
DA
  8
0
 62
     9
 10
0.0
 20
0.0
 30
0.0
 70
   128
 71
    11
 72
    12
 73
     5
  0
VERTEX
  5
DB
  8
0
 62
     9
 10
0.0
 20
0.0
 30
0.0
 70
   128
 71
    10
 72
    11
 73
     7
  0
VERTEX
  5
DC
  8
0
 62
     9
 10
0.0
 20
0.0
 30
0.0
 70
   128
 71
     3
 72
     1
 73
     6
  0
VERTEX
  5
DD
  8
0
 62
     9
 10
0.0
 20
0.0
 30
0.0
 70
   128
 71
     4
 72
     3
 73
     6
  0
VERTEX
  5
DE
  8
0
 62
     9
 10
0.0
 20
0.0
 30
0.0
 70
   128
 71
     4
 72
     5
 73
    12
  0
VERTEX
  5
DF
  8
0
 62
     9
 10
0.0
 20
0.0
 30
0.0
 70
   128
 71
    23
 72
    22
 73
    21
  0
VERTEX
  5
E0
  8
0
 62
     9
 10
0.0
 20
0.0
 30
0.0
 70
   128
 71
    26
 72
    25
 73
    24
  0
VERTEX
  5
E1
  8
0
 62
     9
 10
0.0
 20
0.0
 30
0.0
 70
   128
 71
    29
 72
    28
 73
    27
  0
VERTEX
  5
E2
  8
0
 62
     9
 10
0.0
 20
0.0
 30
0.0
 70
   128
 71
    32
 72
    31
 73
    30
  0
VERTEX
  5
E3
  8
0
 62
     9
 10
0.0
 20
0.0
 30
0.0
 70
   128
 71
    35
 72
    34
 73
    33
  0
VERTEX
  5
E4
  8
0
 62
     9
 10
0.0
 20
0.0
 30
0.0
 70
   128
 71
    33
 72
    29
 73
    35
  0
VERTEX
  5
E5
  8
0
 62
     9
 10
0.0
 20
0.0
 30
0.0
 70
   128
 71
     2
 72
    34
 73
    36
  0
VERTEX
  5
E6
  8
0
 62
     9
 10
0.0
 20
0.0
 30
0.0
 70
   128
 71
    35
 72
    36
 73
    34
  0
VERTEX
  5
E7
  8
0
 62
     9
 10
0.0
 20
0.0
 30
0.0
 70
   128
 71
    20
 72
     2
 73
    36
  0
VERTEX
  5
E8
  8
0
 62
     9
 10
0.0
 20
0.0
 30
0.0
 70
   128
 71
    28
 72
    29
 73
    37
  0
VERTEX
  5
E9
  8
0
 62
     9
 10
0.0
 20
0.0
 30
0.0
 70
   128
 71
    29
 72
    33
 73
    37
  0
VERTEX
  5
EA
  8
0
 62
     9
 10
0.0
 20
0.0
 30
0.0
 70
   128
 71
    27
 72
    28
 73
    30
  0
VERTEX
  5
EB
  8
0
 62
     9
 10
0.0
 20
0.0
 30
0.0
 70
   128
 71
    22
 72
    38
 73
    21
  0
VERTEX
  5
EC
  8
0
 62
     9
 10
0.0
 20
0.0
 30
0.0
 70
   128
 71
    31
 72
    32
 73
    25
  0
VERTEX
  5
ED
  8
0
 62
     9
 10
0.0
 20
0.0
 30
0.0
 70
   128
 71
    30
 72
    31
 73
    27
  0
VERTEX
  5
EE
  8
0
 62
     9
 10
0.0
 20
0.0
 30
0.0
 70
   128
 71
    23
 72
    21
 73
    26
  0
VERTEX
  5
EF
  8
0
 62
     9
 10
0.0
 20
0.0
 30
0.0
 70
   128
 71
    24
 72
    23
 73
    26
  0
VERTEX
  5
F0
  8
0
 62
     9
 10
0.0
 20
0.0
 30
0.0
 70
   128
 71
    24
 72
    25
 73
    32
  0
VERTEX
  5
F1
  8
0
 62
     9
 10
0.0
 20
0.0
 30
0.0
 70
   128
 71
    41
 72
    40
 73
    39
  0
VERTEX
  5
F2
  8
0
 62
     9
 10
0.0
 20
0.0
 30
0.0
 70
   128
 71
    44
 72
    43
 73
    42
  0
VERTEX
  5
F3
  8
0
 62
     9
 10
0.0
 20
0.0
 30
0.0
 70
   128
 71
    47
 72
    46
 73
    45
  0
VERTEX
  5
F4
  8
0
 62
     9
 10
0.0
 20
0.0
 30
0.0
 70
   128
 71
    50
 72
    49
 73
    48
  0
VERTEX
  5
F5
  8
0
 62
     9
 10
0.0
 20
0.0
 30
0.0
 70
   128
 71
    53
 72
    52
 73
    51
  0
VERTEX
  5
F6
  8
0
 62
     9
 10
0.0
 20
0.0
 30
0.0
 70
   128
 71
    51
 72
    47
 73
    53
  0
VERTEX
  5
F7
  8
0
 62
     9
 10
0.0
 20
0.0
 30
0.0
 70
   128
 71
    22
 72
    52
 73
    54
  0
VERTEX
  5
F8
  8
0
 62
     9
 10
0.0
 20
0.0
 30
0.0
 70
   128
 71
    53
 72
    54
 73
    52
  0
VERTEX
  5
F9
  8
0
 62
     9
 10
0.0
 20
0.0
 30
0.0
 70
   128
 71
    38
 72
    22
 73
    54
  0
VERTEX
  5
FA
  8
0
 62
     9
 10
0.0
 20
0.0
 30
0.0
 70
   128
 71
    46
 72
    47
 73
    55
  0
VERTEX
  5
FB
  8
0
 62
     9
 10
0.0
 20
0.0
 30
0.0
 70
   128
 71
    47
 72
    51
 73
    55
  0
VERTEX
  5
FC
  8
0
 62
     9
 10
0.0
 20
0.0
 30
0.0
 70
   128
 71
    45
 72
    46
 73
    48
  0
VERTEX
  5
FD
  8
0
 62
     9
 10
0.0
 20
0.0
 30
0.0
 70
   128
 71
    40
 72
    56
 73
    39
  0
VERTEX
  5
FE
  8
0
 62
     9
 10
0.0
 20
0.0
 30
0.0
 70
   128
 71
    49
 72
    50
 73
    43
  0
VERTEX
  5
FF
  8
0
 62
     9
 10
0.0
 20
0.0
 30
0.0
 70
   128
 71
    48
 72
    49
 73
    45
  0
VERTEX
  5
100
  8
0
 62
     9
 10
0.0
 20
0.0
 30
0.0
 70
   128
 71
    41
 72
    39
 73
    44
  0
VERTEX
  5
101
  8
0
 62
     9
 10
0.0
 20
0.0
 30
0.0
 70
   128
 71
    42
 72
    41
 73
    44
  0
VERTEX
  5
102
  8
0
 62
     9
 10
0.0
 20
0.0
 30
0.0
 70
   128
 71
    42
 72
    43
 73
    50
  0
VERTEX
  5
103
  8
0
 62
     9
 10
0.0
 20
0.0
 30
0.0
 70
   128
 71
    44
 72
    58
 73
    57
  0
VERTEX
  5
104
  8
0
 62
     9
 10
0.0
 20
0.0
 30
0.0
 70
   128
 71
    27
 72
    45
 73
    49
  0
VERTEX
  5
105
  8
0
 62
     9
 10
0.0
 20
0.0
 30
0.0
 70
   128
 71
    61
 72
    60
 73
    59
  0
VERTEX
  5
106
  8
0
 62
     9
 10
0.0
 20
0.0
 30
0.0
 70
   128
 71
    64
 72
    63
 73
    62
  0
VERTEX
  5
107
  8
0
 62
     9
 10
0.0
 20
0.0
 30
0.0
 70
   128
 71
    58
 72
    39
 73
    56
  0
VERTEX
  5
108
  8
0
 62
     9
 10
0.0
 20
0.0
 30
0.0
 70
   128
 71
    39
 72
    58
 73
    44
  0
VERTEX
  5
109
  8
0
 62
     9
 10
0.0
 20
0.0
 30
0.0
 70
   128
 71
    43
 72
    44
 73
    57
  0
VERTEX
  5
10A
  8
0
 62
     9
 10
0.0
 20
0.0
 30
0.0
 70
   128
 71
    62
 72
    63
 73
    43
  0
VERTEX
  5
10B
  8
0
 62
     9
 10
0.0
 20
0.0
 30
0.0
 70
   128
 71
    62
 72
    43
 73
    57
  0
VERTEX
  5
10C
  8
0
 62
     9
 10
0.0
 20
0.0
 30
0.0
 70
   128
 71
    45
 72
    27
 73
    31
  0
VERTEX
  5
10D
  8
0
 62
     9
 10
0.0
 20
0.0
 30
0.0
 70
   128
 71
    43
 72
    63
 73
    49
  0
VERTEX
  5
10E
  8
0
 62
     9
 10
0.0
 20
0.0
 30
0.0
 70
   128
 71
    47
 72
    25
 73
    53
  0
VERTEX
  5
10F
  8
0
 62
     9
 10
0.0
 20
0.0
 30
0.0
 70
   128
 71
    26
 72
    21
 73
    54
  0
VERTEX
  5
110
  8
0
 62
     9
 10
0.0
 20
0.0
 30
0.0
 70
   128
 71
    54
 72
    53
 73
    26
  0
VERTEX
  5
111
  8
0
 62
     9
 10
0.0
 20
0.0
 30
0.0
 70
   128
 71
    54
 72
    21
 73
    38
  0
VERTEX
  5
112
  8
0
 62
     9
 10
0.0
 20
0.0
 30
0.0
 70
   128
 71
    31
 72
    25
 73
    47
  0
VERTEX
  5
113
  8
0
 62
     9
 10
0.0
 20
0.0
 30
0.0
 70
   128
 71
    26
 72
    53
 73
    25
  0
VERTEX
  5
114
  8
0
 62
     9
 10
0.0
 20
0.0
 30
0.0
 70
   128
 71
    27
 72
    49
 73
    63
  0
VERTEX
  5
115
  8
0
 62
     9
 10
0.0
 20
0.0
 30
0.0
 70
   128
 71
    31
 72
    47
 73
    45
  0
VERTEX
  5
116
  8
0
 62
     9
 10
0.0
 20
0.0
 30
0.0
 70
   128
 71
     5
 72
     6
 73
    29
  0
VERTEX
  5
117
  8
0
 62
     9
 10
0.0
 20
0.0
 30
0.0
 70
   128
 71
    27
 72
    63
 73
    11
  0
VERTEX
  5
118
  8
0
 62
     9
 10
0.0
 20
0.0
 30
0.0
 70
   128
 71
     6
 72
     1
 73
    36
  0
VERTEX
  5
119
  8
0
 62
     9
 10
0.0
 20
0.0
 30
0.0
 70
   128
 71
    36
 72
    35
 73
     6
  0
VERTEX
  5
11A
  8
0
 62
     9
 10
0.0
 20
0.0
 30
0.0
 70
   128
 71
    36
 72
     1
 73
    20
  0
VERTEX
  5
11B
  8
0
 62
     9
 10
0.0
 20
0.0
 30
0.0
 70
   128
 71
    29
 72
    27
 73
     5
  0
VERTEX
  5
11C
  8
0
 62
     9
 10
0.0
 20
0.0
 30
0.0
 70
   128
 71
    29
 72
     6
 73
    35
  0
VERTEX
  5
11D
  8
0
 62
     9
 10
0.0
 20
0.0
 30
0.0
 70
   128
 71
    61
 72
    11
 73
    63
  0
VERTEX
  5
11E
  8
0
 62
     9
 10
0.0
 20
0.0
 30
0.0
 70
   128
 71
    27
 72
    11
 73
     5
  0
VERTEX
  5
11F
  8
0
 62
     9
 10
0.0
 20
0.0
 30
0.0
 70
   128
 71
     7
 72
    61
 73
     9
  0
VERTEX
  5
120
  8
0
 62
     9
 10
0.0
 20
0.0
 30
0.0
 70
   128
 71
     7
 72
    11
 73
    61
  0
VERTEX
  5
121
  8
0
 62
     9
 10
0.0
 20
0.0
 30
0.0
 70
   128
 71
    16
 72
    15
 73
    65
  0
VERTEX
  5
122
  8
0
 62
     9
 10
0.0
 20
0.0
 30
0.0
 70
   128
 71
    66
 72
    15
 73
     9
  0
VERTEX
  5
123
  8
0
 62
     9
 10
0.0
 20
0.0
 30
0.0
 70
   128
 71
    15
 72
    66
 73
    65
  0
VERTEX
  5
124
  8
0
 62
     9
 10
0.0
 20
0.0
 30
0.0
 70
   128
 71
    65
 72
    18
 73
    16
  0
VERTEX
  5
125
  8
0
 62
     9
 10
0.0
 20
0.0
 30
0.0
 70
   128
 71
    59
 72
     9
 73
    61
  0
VERTEX
  5
126
  8
0
 62
     9
 10
0.0
 20
0.0
 30
0.0
 70
   128
 71
    66
 72
     9
 73
    59
  0
VERTEX
  5
127
  8
0
 62
     9
 10
0.0
 20
0.0
 30
0.0
 70
   128
 71
    17
 72
    18
 73
    67
  0
VERTEX
  5
128
  8
0
 62
     9
 10
0.0
 20
0.0
 30
0.0
 70
   128
 71
    65
 72
    66
 73
    68
  0
VERTEX
  5
129
  8
0
 62
     9
 10
0.0
 20
0.0
 30
0.0
 70
   128
 71
    62
 72
    69
 73
    64
  0
VERTEX
  5
12A
  8
0
 62
     9
 10
0.0
 20
0.0
 30
0.0
 70
   128
 71
    72
 72
    71
 73
    70
  0
VERTEX
  5
12B
  8
0
 62
     9
 10
0.0
 20
0.0
 30
0.0
 70
   128
 71
    58
 72
    73
 73
    57
  0
VERTEX
  5
12C
  8
0
 62
     9
 10
0.0
 20
0.0
 30
0.0
 70
   128
 71
    74
 72
    57
 73
    73
  0
VERTEX
  5
12D
  8
0
 62
     9
 10
0.0
 20
0.0
 30
0.0
 70
   128
 71
    75
 72
    58
 73
    56
  0
VERTEX
  5
12E
  8
0
 62
     9
 10
0.0
 20
0.0
 30
0.0
 70
   128
 71
    58
 72
    75
 73
    73
  0
VERTEX
  5
12F
  8
0
 62
     9
 10
0.0
 20
0.0
 30
0.0
 70
   128
 71
    57
 72
    74
 73
    62
  0
VERTEX
  5
130
  8
0
 62
     9
 10
0.0
 20
0.0
 30
0.0
 70
   128
 71
    40
 72
    75
 73
    56
  0
VERTEX
  5
131
  8
0
 62
     9
 10
0.0
 20
0.0
 30
0.0
 70
   128
 71
    74
 72
    69
 73
    62
  0
VERTEX
  5
132
  8
0
 62
     9
 10
0.0
 20
0.0
 30
0.0
 70
   128
 71
    64
 72
    69
 73
    76
  0
VERTEX
  5
133
  8
0
 62
     9
 10
0.0
 20
0.0
 30
0.0
 70
   128
 71
    77
 72
    76
 73
    69
  0
VERTEX
  5
134
  8
0
 62
     9
 10
0.0
 20
0.0
 30
0.0
 70
   128
 71
    72
 72
    77
 73
    71
  0
VERTEX
  5
135
  8
0
 62
     9
 10
0.0
 20
0.0
 30
0.0
 70
   128
 71
    69
 72
    71
 73
    77
  0
VERTEX
  5
136
  8
0
 62
     9
 10
0.0
 20
0.0
 30
0.0
 70
   128
 71
    60
 72
    71
 73
    59
  0
VERTEX
  5
137
  8
0
 62
     9
 10
0.0
 20
0.0
 30
0.0
 70
   128
 71
    70
 72
    71
 73
    60
  0
VERTEX
  5
138
  8
0
 62
     9
 10
0.0
 20
0.0
 30
0.0
 70
   128
 71
    59
 72
    71
 73
    78
  0
VERTEX
  5
139
  8
0
 62
     9
 10
0.0
 20
0.0
 30
0.0
 70
   128
 71
    59
 72
    78
 73
    66
  0
VERTEX
  5
13A
  8
0
 62
     9
 10
0.0
 20
0.0
 30
0.0
 70
   128
 71
    18
 72
    65
 73
    67
  0
VERTEX
  5
13B
  8
0
 62
     9
 10
0.0
 20
0.0
 30
0.0
 70
   128
 71
    68
 72
    67
 73
    65
  0
VERTEX
  5
13C
  8
0
 62
     9
 10
0.0
 20
0.0
 30
0.0
 70
   128
 71
    68
 72
    66
 73
    78
  0
VERTEX
  5
13D
  8
0
 62
     9
 10
0.0
 20
0.0
 30
0.0
 70
   128
 71
    72
 72
    80
 73
    79
  0
VERTEX
  5
13E
  8
0
 62
     9
 10
0.0
 20
0.0
 30
0.0
 70
   128
 71
    77
 72
    72
 73
    79
  0
VERTEX
  5
13F
  8
0
 62
     9
 10
0.0
 20
0.0
 30
0.0
 70
   128
 71
    77
 72
    81
 73
    76
  0
VERTEX
  5
140
  8
0
 62
     9
 10
0.0
 20
0.0
 30
0.0
 70
   128
 71
    77
 72
    79
 73
    81
  0
VERTEX
  5
141
  8
0
 62
     9
 10
0.0
 20
0.0
 30
0.0
 70
   128
 71
    63
 72
    76
 73
    81
  0
VERTEX
  5
142
  8
0
 62
     9
 10
0.0
 20
0.0
 30
0.0
 70
   128
 71
    64
 72
    76
 73
    63
  0
VERTEX
  5
143
  8
0
 62
     9
 10
0.0
 20
0.0
 30
0.0
 70
   128
 71
    80
 72
    70
 73
    82
  0
VERTEX
  5
144
  8
0
 62
     9
 10
0.0
 20
0.0
 30
0.0
 70
   128
 71
    60
 72
    61
 73
    82
  0
VERTEX
  5
145
  8
0
 62
     9
 10
0.0
 20
0.0
 30
0.0
 70
   128
 71
    82
 72
    70
 73
    60
  0
VERTEX
  5
146
  8
0
 62
     9
 10
0.0
 20
0.0
 30
0.0
 70
   128
 71
    80
 72
    72
 73
    70
  0
VERTEX
  5
147
  8
0
 62
     9
 10
0.0
 20
0.0
 30
0.0
 70
   128
 71
    78
 72
    19
 73
    68
  0
VERTEX
  5
148
  8
0
 62
     9
 10
0.0
 20
0.0
 30
0.0
 70
   128
 71
    51
 72
    52
 73
    23
  0
VERTEX
  5
149
  8
0
 62
     9
 10
0.0
 20
0.0
 30
0.0
 70
   128
 71
    52
 72
    22
 73
    23
  0
VERTEX
  5
14A
  8
0
 62
     9
 10
0.0
 20
0.0
 30
0.0
 70
   128
 71
    51
 72
    24
 73
    55
  0
VERTEX
  5
14B
  8
0
 62
     9
 10
0.0
 20
0.0
 30
0.0
 70
   128
 71
    24
 72
    51
 73
    23
  0
VERTEX
  5
14C
  8
0
 62
     9
 10
0.0
 20
0.0
 30
0.0
 70
   128
 71
    55
 72
    24
 73
    32
  0
VERTEX
  5
14D
  8
0
 62
     9
 10
0.0
 20
0.0
 30
0.0
 70
   128
 71
    46
 72
    32
 73
    30
  0
VERTEX
  5
14E
  8
0
 62
     9
 10
0.0
 20
0.0
 30
0.0
 70
   128
 71
    32
 72
    46
 73
    55
  0
VERTEX
  5
14F
  8
0
 62
     9
 10
0.0
 20
0.0
 30
0.0
 70
   128
 71
    48
 72
    46
 73
    30
  0
VERTEX
  5
150
  8
0
 62
     9
 10
0.0
 20
0.0
 30
0.0
 70
   128
 71
    50
 72
    74
 73
    73
  0
VERTEX
  5
151
  8
0
 62
     9
 10
0.0
 20
0.0
 30
0.0
 70
   128
 71
    48
 72
    30
 73
    28
  0
VERTEX
  5
152
  8
0
 62
     9
 10
0.0
 20
0.0
 30
0.0
 70
   128
 71
    42
 72
    73
 73
    41
  0
VERTEX
  5
153
  8
0
 62
     9
 10
0.0
 20
0.0
 30
0.0
 70
   128
 71
    48
 72
    74
 73
    50
  0
VERTEX
  5
154
  8
0
 62
     9
 10
0.0
 20
0.0
 30
0.0
 70
   128
 71
    75
 72
    41
 73
    73
  0
VERTEX
  5
155
  8
0
 62
     9
 10
0.0
 20
0.0
 30
0.0
 70
   128
 71
    73
 72
    42
 73
    50
  0
VERTEX
  5
156
  8
0
 62
     9
 10
0.0
 20
0.0
 30
0.0
 70
   128
 71
    41
 72
    75
 73
    40
  0
VERTEX
  5
157
  8
0
 62
     9
 10
0.0
 20
0.0
 30
0.0
 70
   128
 71
    74
 72
    48
 73
    69
  0
VERTEX
  5
158
  8
0
 62
     9
 10
0.0
 20
0.0
 30
0.0
 70
   128
 71
    28
 72
    69
 73
    48
  0
VERTEX
  5
159
  8
0
 62
     9
 10
0.0
 20
0.0
 30
0.0
 70
   128
 71
    78
 72
     8
 73
    19
  0
VERTEX
  5
15A
  8
0
 62
     9
 10
0.0
 20
0.0
 30
0.0
 70
   128
 71
    71
 72
    10
 73
     8
  0
VERTEX
  5
15B
  8
0
 62
     9
 10
0.0
 20
0.0
 30
0.0
 70
   128
 71
    13
 72
    68
 73
    19
  0
VERTEX
  5
15C
  8
0
 62
     9
 10
0.0
 20
0.0
 30
0.0
 70
   128
 71
     8
 72
    78
 73
    71
  0
VERTEX
  5
15D
  8
0
 62
     9
 10
0.0
 20
0.0
 30
0.0
 70
   128
 71
    68
 72
    13
 73
    67
  0
VERTEX
  5
15E
  8
0
 62
     9
 10
0.0
 20
0.0
 30
0.0
 70
   128
 71
    71
 72
    69
 73
    10
  0
VERTEX
  5
15F
  8
0
 62
     9
 10
0.0
 20
0.0
 30
0.0
 70
   128
 71
    14
 72
    67
 73
    13
  0
VERTEX
  5
160
  8
0
 62
     9
 10
0.0
 20
0.0
 30
0.0
 70
   128
 71
    67
 72
    14
 73
    17
  0
VERTEX
  5
161
  8
0
 62
     9
 10
0.0
 20
0.0
 30
0.0
 70
   128
 71
    10
 72
    28
 73
    37
  0
VERTEX
  5
162
  8
0
 62
     9
 10
0.0
 20
0.0
 30
0.0
 70
   128
 71
    10
 72
    69
 73
    28
  0
VERTEX
  5
163
  8
0
 62
     9
 10
0.0
 20
0.0
 30
0.0
 70
   128
 71
    37
 72
    33
 73
    12
  0
VERTEX
  5
164
  8
0
 62
     9
 10
0.0
 20
0.0
 30
0.0
 70
   128
 71
    12
 72
    10
 73
    37
  0
VERTEX
  5
165
  8
0
 62
     9
 10
0.0
 20
0.0
 30
0.0
 70
   128
 71
    33
 72
     3
 73
     4
  0
VERTEX
  5
166
  8
0
 62
     9
 10
0.0
 20
0.0
 30
0.0
 70
   128
 71
    12
 72
    33
 73
     4
  0
VERTEX
  5
167
  8
0
 62
     9
 10
0.0
 20
0.0
 30
0.0
 70
   128
 71
     3
 72
    34
 73
     2
  0
VERTEX
  5
168
  8
0
 62
     9
 10
0.0
 20
0.0
 30
0.0
 70
   128
 71
    33
 72
    34
 73
     3
  0
VERTEX
  5
169
  8
0
 62
     9
 10
0.0
 20
0.0
 30
0.0
 70
   128
 71
    81
 72
    79
 73
    82
  0
VERTEX
  5
16A
  8
0
 62
     9
 10
0.0
 20
0.0
 30
0.0
 70
   128
 71
    81
 72
    82
 73
    61
  0
VERTEX
  5
16B
  8
0
 62
     9
 10
0.0
 20
0.0
 30
0.0
 70
   128
 71
    81
 72
    61
 73
    63
  0
VERTEX
  5
16C
  8
0
 62
     9
 10
0.0
 20
0.0
 30
0.0
 70
   128
 71
    79
 72
    80
 73
    82
  0
VERTEX
  5
16D
  8
0
 62
     9
 10
0.0
 20
0.0
 30
0.0
 70
   128
 71
    81
 72
    79
 73
    82
  0
VERTEX
  5
16E
  8
0
 62
     9
 10
0.0
 20
0.0
 30
0.0
 70
   128
 71
    81
 72
    82
 73
    61
  0
VERTEX
  5
16F
  8
0
 62
     9
 10
0.0
 20
0.0
 30
0.0
 70
   128
 71
    81
 72
    61
 73
    63
  0
VERTEX
  5
170
  8
0
 62
     9
 10
0.0
 20
0.0
 30
0.0
 70
   128
 71
    79
 72
    80
 73
    82
  0
VERTEX
  5
171
  8
0
 62
     9
 10
0.0
 20
0.0
 30
0.0
 70
   128
 71
    85
 72
    84
 73
    83
  0
VERTEX
  5
172
  8
0
 62
     9
 10
0.0
 20
0.0
 30
0.0
 70
   128
 71
    88
 72
    87
 73
    86
  0
VERTEX
  5
173
  8
0
 62
     9
 10
0.0
 20
0.0
 30
0.0
 70
   128
 71
    87
 72
    22
 73
    86
  0
VERTEX
  5
174
  8
0
 62
     9
 10
0.0
 20
0.0
 30
0.0
 70
   128
 71
    88
 72
    90
 73
    89
  0
VERTEX
  5
175
  8
0
 62
     9
 10
0.0
 20
0.0
 30
0.0
 70
   128
 71
    90
 72
    88
 73
    86
  0
VERTEX
  5
176
  8
0
 62
     9
 10
0.0
 20
0.0
 30
0.0
 70
   128
 71
    89
 72
    90
 73
    91
  0
VERTEX
  5
177
  8
0
 62
     9
 10
0.0
 20
0.0
 30
0.0
 70
   128
 71
    93
 72
    91
 73
    92
  0
VERTEX
  5
178
  8
0
 62
     9
 10
0.0
 20
0.0
 30
0.0
 70
   128
 71
    91
 72
    93
 73
    89
  0
VERTEX
  5
179
  8
0
 62
     9
 10
0.0
 20
0.0
 30
0.0
 70
   128
 71
    94
 72
    93
 73
    92
  0
VERTEX
  5
17A
  8
0
 62
     9
 10
0.0
 20
0.0
 30
0.0
 70
   128
 71
    97
 72
    96
 73
    95
  0
VERTEX
  5
17B
  8
0
 62
     9
 10
0.0
 20
0.0
 30
0.0
 70
   128
 71
    94
 72
    92
 73
    98
  0
VERTEX
  5
17C
  8
0
 62
     9
 10
0.0
 20
0.0
 30
0.0
 70
   128
 71
   100
 72
    95
 73
    99
  0
VERTEX
  5
17D
  8
0
 62
     9
 10
0.0
 20
0.0
 30
0.0
 70
   128
 71
    94
 72
    96
 73
    97
  0
VERTEX
  5
17E
  8
0
 62
     9
 10
0.0
 20
0.0
 30
0.0
 70
   128
 71
   101
 72
    99
 73
    95
  0
VERTEX
  5
17F
  8
0
 62
     9
 10
0.0
 20
0.0
 30
0.0
 70
   128
 71
    95
 72
   100
 73
    97
  0
VERTEX
  5
180
  8
0
 62
     9
 10
0.0
 20
0.0
 30
0.0
 70
   128
 71
    99
 72
   101
 73
    40
  0
VERTEX
  5
181
  8
0
 62
     9
 10
0.0
 20
0.0
 30
0.0
 70
   128
 71
    96
 72
    94
 73
   102
  0
VERTEX
  5
182
  8
0
 62
     9
 10
0.0
 20
0.0
 30
0.0
 70
   128
 71
    98
 72
   102
 73
    94
  0
VERTEX
  5
183
  8
0
 62
     9
 10
0.0
 20
0.0
 30
0.0
 70
   128
 71
    85
 72
   103
 73
    84
  0
VERTEX
  5
184
  8
0
 62
     9
 10
0.0
 20
0.0
 30
0.0
 70
   128
 71
   105
 72
   104
 73
   103
  0
VERTEX
  5
185
  8
0
 62
     9
 10
0.0
 20
0.0
 30
0.0
 70
   128
 71
   106
 72
    83
 73
    84
  0
VERTEX
  5
186
  8
0
 62
     9
 10
0.0
 20
0.0
 30
0.0
 70
   128
 71
   103
 72
    85
 73
   105
  0
VERTEX
  5
187
  8
0
 62
     9
 10
0.0
 20
0.0
 30
0.0
 70
   128
 71
    83
 72
   106
 73
   107
  0
VERTEX
  5
188
  8
0
 62
     9
 10
0.0
 20
0.0
 30
0.0
 70
   128
 71
   105
 72
   102
 73
   104
  0
VERTEX
  5
189
  8
0
 62
     9
 10
0.0
 20
0.0
 30
0.0
 70
   128
 71
   108
 72
   107
 73
   106
  0
VERTEX
  5
18A
  8
0
 62
     9
 10
0.0
 20
0.0
 30
0.0
 70
   128
 71
   107
 72
   108
 73
    17
  0
VERTEX
  5
18B
  8
0
 62
     9
 10
0.0
 20
0.0
 30
0.0
 70
   128
 71
   104
 72
    98
 73
   109
  0
VERTEX
  5
18C
  8
0
 62
     9
 10
0.0
 20
0.0
 30
0.0
 70
   128
 71
   104
 72
   102
 73
    98
  0
VERTEX
  5
18D
  8
0
 62
     9
 10
0.0
 20
0.0
 30
0.0
 70
   128
 71
   109
 72
   111
 73
   110
  0
VERTEX
  5
18E
  8
0
 62
     9
 10
0.0
 20
0.0
 30
0.0
 70
   128
 71
   110
 72
   104
 73
   109
  0
VERTEX
  5
18F
  8
0
 62
     9
 10
0.0
 20
0.0
 30
0.0
 70
   128
 71
   111
 72
   113
 73
   112
  0
VERTEX
  5
190
  8
0
 62
     9
 10
0.0
 20
0.0
 30
0.0
 70
   128
 71
   110
 72
   111
 73
   112
  0
VERTEX
  5
191
  8
0
 62
     9
 10
0.0
 20
0.0
 30
0.0
 70
   128
 71
   113
 72
   114
 73
     2
  0
VERTEX
  5
192
  8
0
 62
     9
 10
0.0
 20
0.0
 30
0.0
 70
   128
 71
   111
 72
   114
 73
   113
  0
VERTEX
  5
193
  8
0
 62
     9
 10
0.0
 20
0.0
 30
0.0
 70
   128
 71
    80
 72
    70
 73
    82
  0
VERTEX
  5
194
  8
0
 62
     9
 10
0.0
 20
0.0
 30
0.0
 70
   128
 71
    60
 72
    61
 73
    82
  0
VERTEX
  5
195
  8
0
 62
     9
 10
0.0
 20
0.0
 30
0.0
 70
   128
 71
    82
 72
    70
 73
    60
  0
VERTEX
  5
196
  8
0
 62
     9
 10
0.0
 20
0.0
 30
0.0
 70
   128
 71
    80
 72
    72
 73
    70
  0
VERTEX
  5
197
  8
0
 62
     9
 10
0.0
 20
0.0
 30
0.0
 70
   128
 71
    77
 72
    81
 73
    76
  0
VERTEX
  5
198
  8
0
 62
     9
 10
0.0
 20
0.0
 30
0.0
 70
   128
 71
    77
 72
    79
 73
    81
  0
VERTEX
  5
199
  8
0
 62
     9
 10
0.0
 20
0.0
 30
0.0
 70
   128
 71
    63
 72
    76
 73
    81
  0
VERTEX
  5
19A
  8
0
 62
     9
 10
0.0
 20
0.0
 30
0.0
 70
   128
 71
    64
 72
    76
 73
    63
  0
VERTEX
  5
19B
  8
0
 62
     9
 10
0.0
 20
0.0
 30
0.0
 70
   128
 71
    72
 72
    80
 73
    79
  0
VERTEX
  5
19C
  8
0
 62
     9
 10
0.0
 20
0.0
 30
0.0
 70
   128
 71
    77
 72
    72
 73
    79
  0
VERTEX
  5
19D
  8
0
 62
     9
 10
0.0
 20
0.0
 30
0.0
 70
   128
 71
    17
 72
    18
 73
   107
  0
VERTEX
  5
19E
  8
0
 62
     9
 10
0.0
 20
0.0
 30
0.0
 70
   128
 71
   116
 72
   115
 73
    83
  0
VERTEX
  5
19F
  8
0
 62
     9
 10
0.0
 20
0.0
 30
0.0
 70
   128
 71
   117
 72
   102
 73
    64
  0
VERTEX
  5
1A0
  8
0
 62
     9
 10
0.0
 20
0.0
 30
0.0
 70
   128
 71
    72
 72
   105
 73
    70
  0
VERTEX
  5
1A1
  8
0
 62
     9
 10
0.0
 20
0.0
 30
0.0
 70
   128
 71
   119
 72
    95
 73
   118
  0
VERTEX
  5
1A2
  8
0
 62
     9
 10
0.0
 20
0.0
 30
0.0
 70
   128
 71
    96
 72
   118
 73
    95
  0
VERTEX
  5
1A3
  8
0
 62
     9
 10
0.0
 20
0.0
 30
0.0
 70
   128
 71
   101
 72
   119
 73
    56
  0
VERTEX
  5
1A4
  8
0
 62
     9
 10
0.0
 20
0.0
 30
0.0
 70
   128
 71
   119
 72
   101
 73
    95
  0
VERTEX
  5
1A5
  8
0
 62
     9
 10
0.0
 20
0.0
 30
0.0
 70
   128
 71
   118
 72
    96
 73
   117
  0
VERTEX
  5
1A6
  8
0
 62
     9
 10
0.0
 20
0.0
 30
0.0
 70
   128
 71
    40
 72
   101
 73
    56
  0
VERTEX
  5
1A7
  8
0
 62
     9
 10
0.0
 20
0.0
 30
0.0
 70
   128
 71
    96
 72
   102
 73
   117
  0
VERTEX
  5
1A8
  8
0
 62
     9
 10
0.0
 20
0.0
 30
0.0
 70
   128
 71
    64
 72
   102
 73
    76
  0
VERTEX
  5
1A9
  8
0
 62
     9
 10
0.0
 20
0.0
 30
0.0
 70
   128
 71
    77
 72
    76
 73
   102
  0
VERTEX
  5
1AA
  8
0
 62
     9
 10
0.0
 20
0.0
 30
0.0
 70
   128
 71
    72
 72
    77
 73
   105
  0
VERTEX
  5
1AB
  8
0
 62
     9
 10
0.0
 20
0.0
 30
0.0
 70
   128
 71
   102
 72
   105
 73
    77
  0
VERTEX
  5
1AC
  8
0
 62
     9
 10
0.0
 20
0.0
 30
0.0
 70
   128
 71
    60
 72
   105
 73
   120
  0
VERTEX
  5
1AD
  8
0
 62
     9
 10
0.0
 20
0.0
 30
0.0
 70
   128
 71
    70
 72
   105
 73
    60
  0
VERTEX
  5
1AE
  8
0
 62
     9
 10
0.0
 20
0.0
 30
0.0
 70
   128
 71
   120
 72
   105
 73
    85
  0
VERTEX
  5
1AF
  8
0
 62
     9
 10
0.0
 20
0.0
 30
0.0
 70
   128
 71
   120
 72
    85
 73
   115
  0
VERTEX
  5
1B0
  8
0
 62
     9
 10
0.0
 20
0.0
 30
0.0
 70
   128
 71
    18
 72
   116
 73
   107
  0
VERTEX
  5
1B1
  8
0
 62
     9
 10
0.0
 20
0.0
 30
0.0
 70
   128
 71
    83
 72
   107
 73
   116
  0
VERTEX
  5
1B2
  8
0
 62
     9
 10
0.0
 20
0.0
 30
0.0
 70
   128
 71
    83
 72
   115
 73
    85
  0
VERTEX
  5
1B3
  8
0
 62
     9
 10
0.0
 20
0.0
 30
0.0
 70
   128
 71
   121
 72
   119
 73
   118
  0
VERTEX
  5
1B4
  8
0
 62
     9
 10
0.0
 20
0.0
 30
0.0
 70
   128
 71
   124
 72
   123
 73
   122
  0
VERTEX
  5
1B5
  8
0
 62
     9
 10
0.0
 20
0.0
 30
0.0
 70
   128
 71
    61
 72
    60
 73
   120
  0
VERTEX
  5
1B6
  8
0
 62
     9
 10
0.0
 20
0.0
 30
0.0
 70
   128
 71
    64
 72
    63
 73
   117
  0
VERTEX
  5
1B7
  8
0
 62
     9
 10
0.0
 20
0.0
 30
0.0
 70
   128
 71
   119
 72
   125
 73
    56
  0
VERTEX
  5
1B8
  8
0
 62
     9
 10
0.0
 20
0.0
 30
0.0
 70
   128
 71
   125
 72
   119
 73
   121
  0
VERTEX
  5
1B9
  8
0
 62
     9
 10
0.0
 20
0.0
 30
0.0
 70
   128
 71
   126
 72
   121
 73
   118
  0
VERTEX
  5
1BA
  8
0
 62
     9
 10
0.0
 20
0.0
 30
0.0
 70
   128
 71
   117
 72
    63
 73
   126
  0
VERTEX
  5
1BB
  8
0
 62
     9
 10
0.0
 20
0.0
 30
0.0
 70
   128
 71
   117
 72
   126
 73
   118
  0
VERTEX
  5
1BC
  8
0
 62
     9
 10
0.0
 20
0.0
 30
0.0
 70
   128
 71
   123
 72
   124
 73
   127
  0
VERTEX
  5
1BD
  8
0
 62
     9
 10
0.0
 20
0.0
 30
0.0
 70
   128
 71
   126
 72
    63
 73
   122
  0
VERTEX
  5
1BE
  8
0
 62
     9
 10
0.0
 20
0.0
 30
0.0
 70
   128
 71
   130
 72
   129
 73
   128
  0
VERTEX
  5
1BF
  8
0
 62
     9
 10
0.0
 20
0.0
 30
0.0
 70
   128
 71
   133
 72
   132
 73
   131
  0
VERTEX
  5
1C0
  8
0
 62
     9
 10
0.0
 20
0.0
 30
0.0
 70
   128
 71
   131
 72
   128
 73
   133
  0
VERTEX
  5
1C1
  8
0
 62
     9
 10
0.0
 20
0.0
 30
0.0
 70
   128
 71
   131
 72
   132
 73
    38
  0
VERTEX
  5
1C2
  8
0
 62
     9
 10
0.0
 20
0.0
 30
0.0
 70
   128
 71
   127
 72
   129
 73
   130
  0
VERTEX
  5
1C3
  8
0
 62
     9
 10
0.0
 20
0.0
 30
0.0
 70
   128
 71
   133
 72
   128
 73
   129
  0
VERTEX
  5
1C4
  8
0
 62
     9
 10
0.0
 20
0.0
 30
0.0
 70
   128
 71
   124
 72
   122
 73
    63
  0
VERTEX
  5
1C5
  8
0
 62
     9
 10
0.0
 20
0.0
 30
0.0
 70
   128
 71
   127
 72
   130
 73
   123
  0
VERTEX
  5
1C6
  8
0
 62
     9
 10
0.0
 20
0.0
 30
0.0
 70
   128
 71
   136
 72
   135
 73
   134
  0
VERTEX
  5
1C7
  8
0
 62
     9
 10
0.0
 20
0.0
 30
0.0
 70
   128
 71
   124
 72
    63
 73
   137
  0
VERTEX
  5
1C8
  8
0
 62
     9
 10
0.0
 20
0.0
 30
0.0
 70
   128
 71
   135
 72
   139
 73
   138
  0
VERTEX
  5
1C9
  8
0
 62
     9
 10
0.0
 20
0.0
 30
0.0
 70
   128
 71
   138
 72
   140
 73
   135
  0
VERTEX
  5
1CA
  8
0
 62
     9
 10
0.0
 20
0.0
 30
0.0
 70
   128
 71
   138
 72
   139
 73
    20
  0
VERTEX
  5
1CB
  8
0
 62
     9
 10
0.0
 20
0.0
 30
0.0
 70
   128
 71
   134
 72
   124
 73
   136
  0
VERTEX
  5
1CC
  8
0
 62
     9
 10
0.0
 20
0.0
 30
0.0
 70
   128
 71
   134
 72
   135
 73
   140
  0
VERTEX
  5
1CD
  8
0
 62
     9
 10
0.0
 20
0.0
 30
0.0
 70
   128
 71
    61
 72
   137
 73
    63
  0
VERTEX
  5
1CE
  8
0
 62
     9
 10
0.0
 20
0.0
 30
0.0
 70
   128
 71
   124
 72
   137
 73
   136
  0
VERTEX
  5
1CF
  8
0
 62
     9
 10
0.0
 20
0.0
 30
0.0
 70
   128
 71
   142
 72
    61
 73
   141
  0
VERTEX
  5
1D0
  8
0
 62
     9
 10
0.0
 20
0.0
 30
0.0
 70
   128
 71
   142
 72
   137
 73
    61
  0
VERTEX
  5
1D1
  8
0
 62
     9
 10
0.0
 20
0.0
 30
0.0
 70
   128
 71
   144
 72
   143
 73
   116
  0
VERTEX
  5
1D2
  8
0
 62
     9
 10
0.0
 20
0.0
 30
0.0
 70
   128
 71
   115
 72
   143
 73
   141
  0
VERTEX
  5
1D3
  8
0
 62
     9
 10
0.0
 20
0.0
 30
0.0
 70
   128
 71
   143
 72
   115
 73
   116
  0
VERTEX
  5
1D4
  8
0
 62
     9
 10
0.0
 20
0.0
 30
0.0
 70
   128
 71
   116
 72
    18
 73
   144
  0
VERTEX
  5
1D5
  8
0
 62
     9
 10
0.0
 20
0.0
 30
0.0
 70
   128
 71
   120
 72
   141
 73
    61
  0
VERTEX
  5
1D6
  8
0
 62
     9
 10
0.0
 20
0.0
 30
0.0
 70
   128
 71
   115
 72
   141
 73
   120
  0
VERTEX
  5
1D7
  8
0
 62
     9
 10
0.0
 20
0.0
 30
0.0
 70
   128
 71
    99
 72
    40
 73
   125
  0
VERTEX
  5
1D8
  8
0
 62
     9
 10
0.0
 20
0.0
 30
0.0
 70
   128
 71
   121
 72
   126
 73
   100
  0
VERTEX
  5
1D9
  8
0
 62
     9
 10
0.0
 20
0.0
 30
0.0
 70
   128
 71
   130
 72
    93
 73
   123
  0
VERTEX
  5
1DA
  8
0
 62
     9
 10
0.0
 20
0.0
 30
0.0
 70
   128
 71
    97
 72
   122
 73
    94
  0
VERTEX
  5
1DB
  8
0
 62
     9
 10
0.0
 20
0.0
 30
0.0
 70
   128
 71
   128
 72
    87
 73
    88
  0
VERTEX
  5
1DC
  8
0
 62
     9
 10
0.0
 20
0.0
 30
0.0
 70
   128
 71
    88
 72
   130
 73
   128
  0
VERTEX
  5
1DD
  8
0
 62
     9
 10
0.0
 20
0.0
 30
0.0
 70
   128
 71
    22
 72
    87
 73
   131
  0
VERTEX
  5
1DE
  8
0
 62
     9
 10
0.0
 20
0.0
 30
0.0
 70
   128
 71
   128
 72
   131
 73
    87
  0
VERTEX
  5
1DF
  8
0
 62
     9
 10
0.0
 20
0.0
 30
0.0
 70
   128
 71
    38
 72
    22
 73
   131
  0
VERTEX
  5
1E0
  8
0
 62
     9
 10
0.0
 20
0.0
 30
0.0
 70
   128
 71
    93
 72
   130
 73
    89
  0
VERTEX
  5
1E1
  8
0
 62
     9
 10
0.0
 20
0.0
 30
0.0
 70
   128
 71
   130
 72
    88
 73
    89
  0
VERTEX
  5
1E2
  8
0
 62
     9
 10
0.0
 20
0.0
 30
0.0
 70
   128
 71
   123
 72
    93
 73
    94
  0
VERTEX
  5
1E3
  8
0
 62
     9
 10
0.0
 20
0.0
 30
0.0
 70
   128
 71
    40
 72
    56
 73
   125
  0
VERTEX
  5
1E4
  8
0
 62
     9
 10
0.0
 20
0.0
 30
0.0
 70
   128
 71
   122
 72
    97
 73
   126
  0
VERTEX
  5
1E5
  8
0
 62
     9
 10
0.0
 20
0.0
 30
0.0
 70
   128
 71
    94
 72
   122
 73
   123
  0
VERTEX
  5
1E6
  8
0
 62
     9
 10
0.0
 20
0.0
 30
0.0
 70
   128
 71
    99
 72
   125
 73
   121
  0
VERTEX
  5
1E7
  8
0
 62
     9
 10
0.0
 20
0.0
 30
0.0
 70
   128
 71
   100
 72
    99
 73
   121
  0
VERTEX
  5
1E8
  8
0
 62
     9
 10
0.0
 20
0.0
 30
0.0
 70
   128
 71
   100
 72
   126
 73
    97
  0
VERTEX
  5
1E9
  8
0
 62
     9
 10
0.0
 20
0.0
 30
0.0
 70
   128
 71
    86
 72
    22
 73
   132
  0
VERTEX
  5
1EA
  8
0
 62
     9
 10
0.0
 20
0.0
 30
0.0
 70
   128
 71
   133
 72
   129
 73
    90
  0
VERTEX
  5
1EB
  8
0
 62
     9
 10
0.0
 20
0.0
 30
0.0
 70
   128
 71
   134
 72
    98
 73
   124
  0
VERTEX
  5
1EC
  8
0
 62
     9
 10
0.0
 20
0.0
 30
0.0
 70
   128
 71
    91
 72
   127
 73
    92
  0
VERTEX
  5
1ED
  8
0
 62
     9
 10
0.0
 20
0.0
 30
0.0
 70
   128
 71
   140
 72
   114
 73
   111
  0
VERTEX
  5
1EE
  8
0
 62
     9
 10
0.0
 20
0.0
 30
0.0
 70
   128
 71
   111
 72
   134
 73
   140
  0
VERTEX
  5
1EF
  8
0
 62
     9
 10
0.0
 20
0.0
 30
0.0
 70
   128
 71
     2
 72
   114
 73
   138
  0
VERTEX
  5
1F0
  8
0
 62
     9
 10
0.0
 20
0.0
 30
0.0
 70
   128
 71
   140
 72
   138
 73
   114
  0
VERTEX
  5
1F1
  8
0
 62
     9
 10
0.0
 20
0.0
 30
0.0
 70
   128
 71
    20
 72
     2
 73
   138
  0
VERTEX
  5
1F2
  8
0
 62
     9
 10
0.0
 20
0.0
 30
0.0
 70
   128
 71
    98
 72
   134
 73
   109
  0
VERTEX
  5
1F3
  8
0
 62
     9
 10
0.0
 20
0.0
 30
0.0
 70
   128
 71
   134
 72
   111
 73
   109
  0
VERTEX
  5
1F4
  8
0
 62
     9
 10
0.0
 20
0.0
 30
0.0
 70
   128
 71
   124
 72
    98
 73
    92
  0
VERTEX
  5
1F5
  8
0
 62
     9
 10
0.0
 20
0.0
 30
0.0
 70
   128
 71
    22
 72
    38
 73
   132
  0
VERTEX
  5
1F6
  8
0
 62
     9
 10
0.0
 20
0.0
 30
0.0
 70
   128
 71
   127
 72
    91
 73
   129
  0
VERTEX
  5
1F7
  8
0
 62
     9
 10
0.0
 20
0.0
 30
0.0
 70
   128
 71
    92
 72
   127
 73
   124
  0
VERTEX
  5
1F8
  8
0
 62
     9
 10
0.0
 20
0.0
 30
0.0
 70
   128
 71
    86
 72
   132
 73
   133
  0
VERTEX
  5
1F9
  8
0
 62
     9
 10
0.0
 20
0.0
 30
0.0
 70
   128
 71
    90
 72
    86
 73
   133
  0
VERTEX
  5
1FA
  8
0
 62
     9
 10
0.0
 20
0.0
 30
0.0
 70
   128
 71
    90
 72
   129
 73
    91
  0
VERTEX
  5
1FB
  8
0
 62
     9
 10
0.0
 20
0.0
 30
0.0
 70
   128
 71
   113
 72
     2
 73
   139
  0
VERTEX
  5
1FC
  8
0
 62
     9
 10
0.0
 20
0.0
 30
0.0
 70
   128
 71
   135
 72
   136
 73
   112
  0
VERTEX
  5
1FD
  8
0
 62
     9
 10
0.0
 20
0.0
 30
0.0
 70
   128
 71
   141
 72
   103
 73
   142
  0
VERTEX
  5
1FE
  8
0
 62
     9
 10
0.0
 20
0.0
 30
0.0
 70
   128
 71
   110
 72
   137
 73
   104
  0
VERTEX
  5
1FF
  8
0
 62
     9
 10
0.0
 20
0.0
 30
0.0
 70
   128
 71
   143
 72
   108
 73
   106
  0
VERTEX
  5
200
  8
0
 62
     9
 10
0.0
 20
0.0
 30
0.0
 70
   128
 71
   106
 72
   141
 73
   143
  0
VERTEX
  5
201
  8
0
 62
     9
 10
0.0
 20
0.0
 30
0.0
 70
   128
 71
    17
 72
   108
 73
   144
  0
VERTEX
  5
202
  8
0
 62
     9
 10
0.0
 20
0.0
 30
0.0
 70
   128
 71
   143
 72
   144
 73
   108
  0
VERTEX
  5
203
  8
0
 62
     9
 10
0.0
 20
0.0
 30
0.0
 70
   128
 71
    18
 72
    17
 73
   144
  0
VERTEX
  5
204
  8
0
 62
     9
 10
0.0
 20
0.0
 30
0.0
 70
   128
 71
   103
 72
   141
 73
    84
  0
VERTEX
  5
205
  8
0
 62
     9
 10
0.0
 20
0.0
 30
0.0
 70
   128
 71
   141
 72
   106
 73
    84
  0
VERTEX
  5
206
  8
0
 62
     9
 10
0.0
 20
0.0
 30
0.0
 70
   128
 71
   142
 72
   103
 73
   104
  0
VERTEX
  5
207
  8
0
 62
     9
 10
0.0
 20
0.0
 30
0.0
 70
   128
 71
     2
 72
    20
 73
   139
  0
VERTEX
  5
208
  8
0
 62
     9
 10
0.0
 20
0.0
 30
0.0
 70
   128
 71
   137
 72
   110
 73
   136
  0
VERTEX
  5
209
  8
0
 62
     9
 10
0.0
 20
0.0
 30
0.0
 70
   128
 71
   104
 72
   137
 73
   142
  0
VERTEX
  5
20A
  8
0
 62
     9
 10
0.0
 20
0.0
 30
0.0
 70
   128
 71
   113
 72
   139
 73
   135
  0
VERTEX
  5
20B
  8
0
 62
     9
 10
0.0
 20
0.0
 30
0.0
 70
   128
 71
   112
 72
   113
 73
   135
  0
VERTEX
  5
20C
  8
0
 62
     9
 10
0.0
 20
0.0
 30
0.0
 70
   128
 71
   112
 72
   136
 73
   110
  0
SEQEND
  5
20D
  8
0
  0
ENDBLK
  5
211
  8
0
  0
BLOCK
  8
0
  2
39
 70
     0
 10
0.0
 20
0.0
 30
0.0
  3
39
  1

  0
POLYLINE
  5
213
  8
0
 62
     9
 66
     1
 10
0.0
 20
0.0
 30
0.0
 70
    64
 71
    73
 72
   132
  0
VERTEX
  5
214
  8
0
 10
82.42276000976562
 20
16.76297950744629
 30
4.80168342590332
 70
   192
  0
VERTEX
  5
215
  8
0
 10
82.42276000976562
 20
21.92436981201172
 30
-2.901782274246216
 70
   192
  0
VERTEX
  5
216
  8
0
 10
91.24976348876953
 20
13.09202861785889
 30
1.213808655738831
 70
   192
  0
VERTEX
  5
217
  8
0
 10
91.24976348876953
 20
5.810380458831787
 30
5.666751384735107
 70
   192
  0
VERTEX
  5
218
  8
0
 10
99.57276153564453
 20
0.0017372701549903
 30
-12.0
 70
   192
  0
VERTEX
  5
219
  8
0
 10
97.49201202392578
 20
9.469234466552734
 30
-8.819920539855957
 70
   192
  0
VERTEX
  5
21A
  8
0
 10
97.45440673828125
 20
10.05306529998779
 30
-12.0
 70
   192
  0
VERTEX
  5
21B
  8
0
 10
97.49201202392578
 20
3.115972995758057
 30
-2.528179168701172
 70
   192
  0
VERTEX
  5
21C
  8
0
 10
97.49201202392578
 20
7.019942760467529
 30
-4.915572166442871
 70
   192
  0
VERTEX
  5
21D
  8
0
 10
91.24976348876953
 20
17.66042518615723
 30
-6.068544864654541
 70
   192
  0
VERTEX
  5
21E
  8
0
 10
82.42276000976562
 20
23.73731231689453
 30
-12.0
 70
   192
  0
VERTEX
  5
21F
  8
0
 10
82.42276000976562
 20
0.0017383766826242
 30
11.73215866088867
 70
   192
  0
VERTEX
  5
220
  8
0
 10
82.42276000976562
 20
9.072162628173828
 30
9.934049606323242
 70
   192
  0
VERTEX
  5
221
  8
0
 10
91.3005599975586
 20
0.0017372699221596
 30
6.56824254989624
 70
   192
  0
VERTEX
  5
222
  8
0
 10
91.19507598876953
 20
18.64725303649902
 30
-12.0
 70
   192
  0
VERTEX
  5
223
  8
0
 10
97.49464416503906
 20
0.0017372699221596
 30
-2.073083877563477
 70
   192
  0
VERTEX
  5
224
  8
0
 10
82.42276000976562
 20
-16.79775428771973
 30
4.765412330627441
 70
   192
  0
VERTEX
  5
225
  8
0
 10
82.42276000976562
 20
-9.107606887817383
 30
9.918230056762695
 70
   192
  0
VERTEX
  5
226
  8
0
 10
91.24976348876953
 20
-13.21207141876221
 30
1.090291380882263
 70
   192
  0
VERTEX
  5
227
  8
0
 10
91.24976348876953
 20
-17.66501426696777
 30
-6.191357135772705
 70
   192
  0
VERTEX
  5
228
  8
0
 10
97.49201202392578
 20
-3.178342580795288
 30
-2.5325026512146
 70
   192
  0
VERTEX
  5
229
  8
0
 10
97.49201202392578
 20
-9.470083236694336
 30
-8.885764122009277
 70
   192
  0
VERTEX
  5
22A
  8
0
 10
97.49201202392578
 20
-7.082690715789795
 30
-4.981794357299805
 70
   192
  0
VERTEX
  5
22B
  8
0
 10
91.24976348876953
 20
-5.929717540740967
 30
5.658687114715576
 70
   192
  0
VERTEX
  5
22C
  8
0
 10
82.42276000976562
 20
-23.72867965698242
 30
-12.00000286102295
 70
   192
  0
VERTEX
  5
22D
  8
0
 10
82.42276000976562
 20
-21.93609619140625
 30
-2.940258264541626
 70
   192
  0
VERTEX
  5
22E
  8
0
 10
91.3005599975586
 20
-18.56650543212891
 30
-12.0
 70
   192
  0
VERTEX
  5
22F
  8
0
 10
97.49464416503906
 20
-9.925178527832031
 30
-12.0
 70
   192
  0
VERTEX
  5
230
  8
0
 10
82.42276000976562
 20
-16.77511405944824
 30
-28.7890625
 70
   192
  0
VERTEX
  5
231
  8
0
 10
82.42276000976562
 20
-21.92104339599609
 30
-21.09774017333984
 70
   192
  0
VERTEX
  5
232
  8
0
 10
91.24976348876953
 20
-13.08855438232422
 30
-25.21380805969238
 70
   192
  0
VERTEX
  5
233
  8
0
 10
91.24976348876953
 20
-5.806905746459961
 30
-29.66675186157227
 70
   192
  0
VERTEX
  5
234
  8
0
 10
97.49201202392578
 20
-9.465760231018066
 30
-15.18007946014404
 70
   192
  0
VERTEX
  5
235
  8
0
 10
97.49201202392578
 20
-3.11249828338623
 30
-21.47182083129883
 70
   192
  0
VERTEX
  5
236
  8
0
 10
97.49201202392578
 20
-7.016468524932861
 30
-19.08442878723145
 70
   192
  0
VERTEX
  5
237
  8
0
 10
91.24976348876953
 20
-17.65694999694824
 30
-17.93145561218262
 70
   192
  0
VERTEX
  5
238
  8
0
 10
82.42276000976562
 20
0.0017378939082846
 30
-35.73233413696289
 70
   192
  0
VERTEX
  5
239
  8
0
 10
82.42276000976562
 20
-9.071484565734863
 30
-33.93234634399414
 70
   192
  0
VERTEX
  5
23A
  8
0
 10
91.3005599975586
 20
0.0017372700385749
 30
-30.5682430267334
 70
   192
  0
VERTEX
  5
23B
  8
0
 10
97.49464416503906
 20
0.0017372700385749
 30
-21.92691612243652
 70
   192
  0
VERTEX
  5
23C
  8
0
 10
82.42276000976562
 20
16.79306793212891
 30
-28.77239036560059
 70
   192
  0
VERTEX
  5
23D
  8
0
 10
82.42276000976562
 20
9.078707695007324
 30
-33.93121719360352
 70
   192
  0
VERTEX
  5
23E
  8
0
 10
91.24976348876953
 20
13.21554565429688
 30
-25.09029197692871
 70
   192
  0
VERTEX
  5
23F
  8
0
 10
91.24976348876953
 20
17.66848945617676
 30
-17.80864334106445
 70
   192
  0
VERTEX
  5
240
  8
0
 10
97.49201202392578
 20
3.181817054748535
 30
-21.46749687194824
 70
   192
  0
VERTEX
  5
241
  8
0
 10
97.49201202392578
 20
9.47355842590332
 30
-15.11423587799072
 70
   192
  0
VERTEX
  5
242
  8
0
 10
97.49201202392578
 20
7.086165428161621
 30
-19.0182056427002
 70
   192
  0
VERTEX
  5
243
  8
0
 10
91.24976348876953
 20
5.933192253112793
 30
-29.65868759155273
 70
   192
  0
VERTEX
  5
244
  8
0
 10
82.42276000976562
 20
21.93436050415039
 30
-21.07349586486816
 70
   192
  0
VERTEX
  5
245
  8
0
 10
82.42276000976562
 20
25.58105087280273
 30
-4.483608245849609
 70
   192
  0
VERTEX
  5
246
  8
0
 10
51.5
 20
25.82901382446289
 30
-19.69721221923828
 70
   192
  0
VERTEX
  5
247
  8
0
 10
82.42276000976562
 20
25.57807922363281
 30
-19.55163955688477
 70
   192
  0
VERTEX
  5
248
  8
0
 10
51.5
 20
25.83822059631348
 30
-4.356781959533691
 70
   192
  0
VERTEX
  5
249
  8
0
 10
82.42276000976562
 20
22.23367500305176
 30
10.23193740844727
 70
   192
  0
VERTEX
  5
24A
  8
0
 10
51.5
 20
22.44544219970703
 30
10.44370555877686
 70
   192
  0
VERTEX
  5
24B
  8
0
 10
82.42276000976562
 20
22.23367500305176
 30
-34.23193740844727
 70
   192
  0
VERTEX
  5
24C
  8
0
 10
51.5
 20
22.44544219970703
 30
-34.44370651245117
 70
   192
  0
VERTEX
  5
24D
  8
0
 10
82.42276000976562
 20
7.518128871917725
 30
-37.57931518554688
 70
   192
  0
VERTEX
  5
24E
  8
0
 10
51.5
 20
-7.695475101470947
 30
-37.82727432250977
 70
   192
  0
VERTEX
  5
24F
  8
0
 10
82.42276000976562
 20
-7.54990291595459
 30
-37.57633972167969
 70
   192
  0
VERTEX
  5
250
  8
0
 10
51.5
 20
7.644955635070801
 30
-37.83648300170898
 70
   192
  0
VERTEX
  5
251
  8
0
 10
82.42276000976562
 20
-22.23019981384277
 30
-34.23193740844727
 70
   192
  0
VERTEX
  5
252
  8
0
 10
51.5
 20
-22.44196891784668
 30
-34.44370651245117
 70
   192
  0
VERTEX
  5
253
  8
0
 10
82.42276000976562
 20
-25.57757759094238
 30
-19.51639175415039
 70
   192
  0
VERTEX
  5
254
  8
0
 10
51.5
 20
-25.82553863525391
 30
-4.302787303924561
 70
   192
  0
VERTEX
  5
255
  8
0
 10
82.42276000976562
 20
-25.57460403442383
 30
-4.448359966278076
 70
   192
  0
VERTEX
  5
256
  8
0
 10
51.5
 20
-25.83474540710449
 30
-19.64321899414062
 70
   192
  0
VERTEX
  5
257
  8
0
 10
82.42276000976562
 20
-22.23019981384277
 30
10.23193740844727
 70
   192
  0
VERTEX
  5
258
  8
0
 10
51.5
 20
-22.44196891784668
 30
10.44370555877686
 70
   192
  0
VERTEX
  5
259
  8
0
 10
82.42276000976562
 20
-7.514654159545898
 30
13.57931423187256
 70
   192
  0
VERTEX
  5
25A
  8
0
 10
51.5
 20
7.698949813842773
 30
13.8272762298584
 70
   192
  0
VERTEX
  5
25B
  8
0
 10
82.42276000976562
 20
7.553377628326416
 30
13.57634162902832
 70
   192
  0
VERTEX
  5
25C
  8
0
 10
51.5
 20
-7.641480922698975
 30
13.83648300170898
 70
   192
  0
VERTEX
  5
25D
  8
0
 62
     9
 10
0.0
 20
0.0
 30
0.0
 70
   128
 71
     3
 72
     2
 73
     1
  0
VERTEX
  5
25E
  8
0
 62
     9
 10
0.0
 20
0.0
 30
0.0
 70
   128
 71
     1
 72
     4
 73
     3
  0
VERTEX
  5
25F
  8
0
 62
     9
 10
0.0
 20
0.0
 30
0.0
 70
   128
 71
     7
 72
     6
 73
     5
  0
VERTEX
  5
260
  8
0
 62
     9
 10
0.0
 20
0.0
 30
0.0
 70
   128
 71
     9
 72
     8
 73
     5
  0
VERTEX
  5
261
  8
0
 62
     9
 10
0.0
 20
0.0
 30
0.0
 70
   128
 71
    11
 72
     2
 73
    10
  0
VERTEX
  5
262
  8
0
 62
     9
 10
0.0
 20
0.0
 30
0.0
 70
   128
 71
    14
 72
    13
 73
    12
  0
VERTEX
  5
263
  8
0
 62
     9
 10
0.0
 20
0.0
 30
0.0
 70
   128
 71
     1
 72
    13
 73
     4
  0
VERTEX
  5
264
  8
0
 62
     9
 10
0.0
 20
0.0
 30
0.0
 70
   128
 71
     6
 72
    15
 73
    10
  0
VERTEX
  5
265
  8
0
 62
     9
 10
0.0
 20
0.0
 30
0.0
 70
   128
 71
    13
 72
    14
 73
     4
  0
VERTEX
  5
266
  8
0
 62
     9
 10
0.0
 20
0.0
 30
0.0
 70
   128
 71
    16
 72
     4
 73
    14
  0
VERTEX
  5
267
  8
0
 62
     9
 10
0.0
 20
0.0
 30
0.0
 70
   128
 71
     8
 72
     4
 73
    16
  0
VERTEX
  5
268
  8
0
 62
     9
 10
0.0
 20
0.0
 30
0.0
 70
   128
 71
     9
 72
     3
 73
     8
  0
VERTEX
  5
269
  8
0
 62
     9
 10
0.0
 20
0.0
 30
0.0
 70
   128
 71
    10
 72
    15
 73
    11
  0
VERTEX
  5
26A
  8
0
 62
     9
 10
0.0
 20
0.0
 30
0.0
 70
   128
 71
     3
 72
    10
 73
     2
  0
VERTEX
  5
26B
  8
0
 62
     9
 10
0.0
 20
0.0
 30
0.0
 70
   128
 71
     8
 72
     3
 73
     4
  0
VERTEX
  5
26C
  8
0
 62
     9
 10
0.0
 20
0.0
 30
0.0
 70
   128
 71
     5
 72
     8
 73
    16
  0
VERTEX
  5
26D
  8
0
 62
     9
 10
0.0
 20
0.0
 30
0.0
 70
   128
 71
    10
 72
     9
 73
     6
  0
VERTEX
  5
26E
  8
0
 62
     9
 10
0.0
 20
0.0
 30
0.0
 70
   128
 71
     9
 72
    10
 73
     3
  0
VERTEX
  5
26F
  8
0
 62
     9
 10
0.0
 20
0.0
 30
0.0
 70
   128
 71
     6
 72
     9
 73
     5
  0
VERTEX
  5
270
  8
0
 62
     9
 10
0.0
 20
0.0
 30
0.0
 70
   128
 71
     6
 72
     7
 73
    15
  0
VERTEX
  5
271
  8
0
 62
     9
 10
0.0
 20
0.0
 30
0.0
 70
   128
 71
    19
 72
    18
 73
    17
  0
VERTEX
  5
272
  8
0
 62
     9
 10
0.0
 20
0.0
 30
0.0
 70
   128
 71
    17
 72
    20
 73
    19
  0
VERTEX
  5
273
  8
0
 62
     9
 10
0.0
 20
0.0
 30
0.0
 70
   128
 71
    16
 72
    21
 73
     5
  0
VERTEX
  5
274
  8
0
 62
     9
 10
0.0
 20
0.0
 30
0.0
 70
   128
 71
    23
 72
    22
 73
     5
  0
VERTEX
  5
275
  8
0
 62
     9
 10
0.0
 20
0.0
 30
0.0
 70
   128
 71
    12
 72
    18
 73
    24
  0
VERTEX
  5
276
  8
0
 62
     9
 10
0.0
 20
0.0
 30
0.0
 70
   128
 71
    27
 72
    26
 73
    25
  0
VERTEX
  5
277
  8
0
 62
     9
 10
0.0
 20
0.0
 30
0.0
 70
   128
 71
    17
 72
    26
 73
    20
  0
VERTEX
  5
278
  8
0
 62
     9
 10
0.0
 20
0.0
 30
0.0
 70
   128
 71
    21
 72
    14
 73
    24
  0
VERTEX
  5
279
  8
0
 62
     9
 10
0.0
 20
0.0
 30
0.0
 70
   128
 71
    26
 72
    27
 73
    20
  0
VERTEX
  5
27A
  8
0
 62
     9
 10
0.0
 20
0.0
 30
0.0
 70
   128
 71
    28
 72
    20
 73
    27
  0
VERTEX
  5
27B
  8
0
 62
     9
 10
0.0
 20
0.0
 30
0.0
 70
   128
 71
    22
 72
    20
 73
    28
  0
VERTEX
  5
27C
  8
0
 62
     9
 10
0.0
 20
0.0
 30
0.0
 70
   128
 71
    23
 72
    19
 73
    22
  0
VERTEX
  5
27D
  8
0
 62
     9
 10
0.0
 20
0.0
 30
0.0
 70
   128
 71
    24
 72
    14
 73
    12
  0
VERTEX
  5
27E
  8
0
 62
     9
 10
0.0
 20
0.0
 30
0.0
 70
   128
 71
    19
 72
    24
 73
    18
  0
VERTEX
  5
27F
  8
0
 62
     9
 10
0.0
 20
0.0
 30
0.0
 70
   128
 71
    22
 72
    19
 73
    20
  0
VERTEX
  5
280
  8
0
 62
     9
 10
0.0
 20
0.0
 30
0.0
 70
   128
 71
     5
 72
    22
 73
    28
  0
VERTEX
  5
281
  8
0
 62
     9
 10
0.0
 20
0.0
 30
0.0
 70
   128
 71
    24
 72
    23
 73
    21
  0
VERTEX
  5
282
  8
0
 62
     9
 10
0.0
 20
0.0
 30
0.0
 70
   128
 71
    23
 72
    24
 73
    19
  0
VERTEX
  5
283
  8
0
 62
     9
 10
0.0
 20
0.0
 30
0.0
 70
   128
 71
    21
 72
    23
 73
     5
  0
VERTEX
  5
284
  8
0
 62
     9
 10
0.0
 20
0.0
 30
0.0
 70
   128
 71
    21
 72
    16
 73
    14
  0
VERTEX
  5
285
  8
0
 62
     9
 10
0.0
 20
0.0
 30
0.0
 70
   128
 71
    31
 72
    30
 73
    29
  0
VERTEX
  5
286
  8
0
 62
     9
 10
0.0
 20
0.0
 30
0.0
 70
   128
 71
    29
 72
    32
 73
    31
  0
VERTEX
  5
287
  8
0
 62
     9
 10
0.0
 20
0.0
 30
0.0
 70
   128
 71
    28
 72
    33
 73
     5
  0
VERTEX
  5
288
  8
0
 62
     9
 10
0.0
 20
0.0
 30
0.0
 70
   128
 71
    35
 72
    34
 73
     5
  0
VERTEX
  5
289
  8
0
 62
     9
 10
0.0
 20
0.0
 30
0.0
 70
   128
 71
    25
 72
    30
 73
    36
  0
VERTEX
  5
28A
  8
0
 62
     9
 10
0.0
 20
0.0
 30
0.0
 70
   128
 71
    39
 72
    38
 73
    37
  0
VERTEX
  5
28B
  8
0
 62
     9
 10
0.0
 20
0.0
 30
0.0
 70
   128
 71
    29
 72
    38
 73
    32
  0
VERTEX
  5
28C
  8
0
 62
     9
 10
0.0
 20
0.0
 30
0.0
 70
   128
 71
    33
 72
    27
 73
    36
  0
VERTEX
  5
28D
  8
0
 62
     9
 10
0.0
 20
0.0
 30
0.0
 70
   128
 71
    38
 72
    39
 73
    32
  0
VERTEX
  5
28E
  8
0
 62
     9
 10
0.0
 20
0.0
 30
0.0
 70
   128
 71
    40
 72
    32
 73
    39
  0
VERTEX
  5
28F
  8
0
 62
     9
 10
0.0
 20
0.0
 30
0.0
 70
   128
 71
    34
 72
    32
 73
    40
  0
VERTEX
  5
290
  8
0
 62
     9
 10
0.0
 20
0.0
 30
0.0
 70
   128
 71
    35
 72
    31
 73
    34
  0
VERTEX
  5
291
  8
0
 62
     9
 10
0.0
 20
0.0
 30
0.0
 70
   128
 71
    36
 72
    27
 73
    25
  0
VERTEX
  5
292
  8
0
 62
     9
 10
0.0
 20
0.0
 30
0.0
 70
   128
 71
    31
 72
    36
 73
    30
  0
VERTEX
  5
293
  8
0
 62
     9
 10
0.0
 20
0.0
 30
0.0
 70
   128
 71
    34
 72
    31
 73
    32
  0
VERTEX
  5
294
  8
0
 62
     9
 10
0.0
 20
0.0
 30
0.0
 70
   128
 71
     5
 72
    34
 73
    40
  0
VERTEX
  5
295
  8
0
 62
     9
 10
0.0
 20
0.0
 30
0.0
 70
   128
 71
    36
 72
    35
 73
    33
  0
VERTEX
  5
296
  8
0
 62
     9
 10
0.0
 20
0.0
 30
0.0
 70
   128
 71
    35
 72
    36
 73
    31
  0
VERTEX
  5
297
  8
0
 62
     9
 10
0.0
 20
0.0
 30
0.0
 70
   128
 71
    33
 72
    35
 73
     5
  0
VERTEX
  5
298
  8
0
 62
     9
 10
0.0
 20
0.0
 30
0.0
 70
   128
 71
    33
 72
    28
 73
    27
  0
VERTEX
  5
299
  8
0
 62
     9
 10
0.0
 20
0.0
 30
0.0
 70
   128
 71
    43
 72
    42
 73
    41
  0
VERTEX
  5
29A
  8
0
 62
     9
 10
0.0
 20
0.0
 30
0.0
 70
   128
 71
    41
 72
    44
 73
    43
  0
VERTEX
  5
29B
  8
0
 62
     9
 10
0.0
 20
0.0
 30
0.0
 70
   128
 71
    40
 72
    45
 73
     5
  0
VERTEX
  5
29C
  8
0
 62
     9
 10
0.0
 20
0.0
 30
0.0
 70
   128
 71
    47
 72
    46
 73
     5
  0
VERTEX
  5
29D
  8
0
 62
     9
 10
0.0
 20
0.0
 30
0.0
 70
   128
 71
    37
 72
    42
 73
    48
  0
VERTEX
  5
29E
  8
0
 62
     9
 10
0.0
 20
0.0
 30
0.0
 70
   128
 71
    15
 72
    49
 73
    11
  0
VERTEX
  5
29F
  8
0
 62
     9
 10
0.0
 20
0.0
 30
0.0
 70
   128
 71
    41
 72
    49
 73
    44
  0
VERTEX
  5
2A0
  8
0
 62
     9
 10
0.0
 20
0.0
 30
0.0
 70
   128
 71
    45
 72
    39
 73
    48
  0
VERTEX
  5
2A1
  8
0
 62
     9
 10
0.0
 20
0.0
 30
0.0
 70
   128
 71
    49
 72
    15
 73
    44
  0
VERTEX
  5
2A2
  8
0
 62
     9
 10
0.0
 20
0.0
 30
0.0
 70
   128
 71
     7
 72
    44
 73
    15
  0
VERTEX
  5
2A3
  8
0
 62
     9
 10
0.0
 20
0.0
 30
0.0
 70
   128
 71
    46
 72
    44
 73
     7
  0
VERTEX
  5
2A4
  8
0
 62
     9
 10
0.0
 20
0.0
 30
0.0
 70
   128
 71
    47
 72
    43
 73
    46
  0
VERTEX
  5
2A5
  8
0
 62
     9
 10
0.0
 20
0.0
 30
0.0
 70
   128
 71
    48
 72
    39
 73
    37
  0
VERTEX
  5
2A6
  8
0
 62
     9
 10
0.0
 20
0.0
 30
0.0
 70
   128
 71
    43
 72
    48
 73
    42
  0
VERTEX
  5
2A7
  8
0
 62
     9
 10
0.0
 20
0.0
 30
0.0
 70
   128
 71
    46
 72
    43
 73
    44
  0
VERTEX
  5
2A8
  8
0
 62
     9
 10
0.0
 20
0.0
 30
0.0
 70
   128
 71
     5
 72
    46
 73
     7
  0
VERTEX
  5
2A9
  8
0
 62
     9
 10
0.0
 20
0.0
 30
0.0
 70
   128
 71
    48
 72
    47
 73
    45
  0
VERTEX
  5
2AA
  8
0
 62
     9
 10
0.0
 20
0.0
 30
0.0
 70
   128
 71
    47
 72
    48
 73
    43
  0
VERTEX
  5
2AB
  8
0
 62
     9
 10
0.0
 20
0.0
 30
0.0
 70
   128
 71
    45
 72
    47
 73
     5
  0
VERTEX
  5
2AC
  8
0
 62
     9
 10
0.0
 20
0.0
 30
0.0
 70
   128
 71
    45
 72
    40
 73
    39
  0
VERTEX
  5
2AD
  8
0
 62
     9
 10
0.0
 20
0.0
 30
0.0
 70
   128
 71
    52
 72
    51
 73
    50
  0
VERTEX
  5
2AE
  8
0
 62
     9
 10
0.0
 20
0.0
 30
0.0
 70
   128
 71
    55
 72
    54
 73
    53
  0
VERTEX
  5
2AF
  8
0
 62
     9
 10
0.0
 20
0.0
 30
0.0
 70
   128
 71
    54
 72
    50
 73
    53
  0
VERTEX
  5
2B0
  8
0
 62
     9
 10
0.0
 20
0.0
 30
0.0
 70
   128
 71
    53
 72
    50
 73
    51
  0
VERTEX
  5
2B1
  8
0
 62
     9
 10
0.0
 20
0.0
 30
0.0
 70
   128
 71
    51
 72
    52
 73
    56
  0
VERTEX
  5
2B2
  8
0
 62
     9
 10
0.0
 20
0.0
 30
0.0
 70
   128
 71
    57
 72
    51
 73
    56
  0
VERTEX
  5
2B3
  8
0
 62
     9
 10
0.0
 20
0.0
 30
0.0
 70
   128
 71
    60
 72
    59
 73
    58
  0
VERTEX
  5
2B4
  8
0
 62
     9
 10
0.0
 20
0.0
 30
0.0
 70
   128
 71
    57
 72
    56
 73
    61
  0
VERTEX
  5
2B5
  8
0
 62
     9
 10
0.0
 20
0.0
 30
0.0
 70
   128
 71
    56
 72
    58
 73
    61
  0
VERTEX
  5
2B6
  8
0
 62
     9
 10
0.0
 20
0.0
 30
0.0
 70
   128
 71
    61
 72
    58
 73
    59
  0
VERTEX
  5
2B7
  8
0
 62
     9
 10
0.0
 20
0.0
 30
0.0
 70
   128
 71
    59
 72
    60
 73
    62
  0
VERTEX
  5
2B8
  8
0
 62
     9
 10
0.0
 20
0.0
 30
0.0
 70
   128
 71
    63
 72
    59
 73
    62
  0
VERTEX
  5
2B9
  8
0
 62
     9
 10
0.0
 20
0.0
 30
0.0
 70
   128
 71
    66
 72
    65
 73
    64
  0
VERTEX
  5
2BA
  8
0
 62
     9
 10
0.0
 20
0.0
 30
0.0
 70
   128
 71
    63
 72
    62
 73
    67
  0
VERTEX
  5
2BB
  8
0
 62
     9
 10
0.0
 20
0.0
 30
0.0
 70
   128
 71
    62
 72
    64
 73
    67
  0
VERTEX
  5
2BC
  8
0
 62
     9
 10
0.0
 20
0.0
 30
0.0
 70
   128
 71
    67
 72
    64
 73
    65
  0
VERTEX
  5
2BD
  8
0
 62
     9
 10
0.0
 20
0.0
 30
0.0
 70
   128
 71
    65
 72
    66
 73
    68
  0
VERTEX
  5
2BE
  8
0
 62
     9
 10
0.0
 20
0.0
 30
0.0
 70
   128
 71
    69
 72
    65
 73
    68
  0
VERTEX
  5
2BF
  8
0
 62
     9
 10
0.0
 20
0.0
 30
0.0
 70
   128
 71
    72
 72
    71
 73
    70
  0
VERTEX
  5
2C0
  8
0
 62
     9
 10
0.0
 20
0.0
 30
0.0
 70
   128
 71
    69
 72
    68
 73
    73
  0
VERTEX
  5
2C1
  8
0
 62
     9
 10
0.0
 20
0.0
 30
0.0
 70
   128
 71
    68
 72
    70
 73
    73
  0
VERTEX
  5
2C2
  8
0
 62
     9
 10
0.0
 20
0.0
 30
0.0
 70
   128
 71
    73
 72
    70
 73
    71
  0
VERTEX
  5
2C3
  8
0
 62
     9
 10
0.0
 20
0.0
 30
0.0
 70
   128
 71
    71
 72
    72
 73
    54
  0
VERTEX
  5
2C4
  8
0
 62
     9
 10
0.0
 20
0.0
 30
0.0
 70
   128
 71
    55
 72
    71
 73
    54
  0
VERTEX
  5
2C5
  8
0
 62
     9
 10
0.0
 20
0.0
 30
0.0
 70
   128
 71
    30
 72
    64
 73
    62
  0
VERTEX
  5
2C6
  8
0
 62
     9
 10
0.0
 20
0.0
 30
0.0
 70
   128
 71
    60
 72
    58
 73
    37
  0
VERTEX
  5
2C7
  8
0
 62
     9
 10
0.0
 20
0.0
 30
0.0
 70
   128
 71
    13
 72
    54
 73
    72
  0
VERTEX
  5
2C8
  8
0
 62
     9
 10
0.0
 20
0.0
 30
0.0
 70
   128
 71
    26
 72
    68
 73
    66
  0
VERTEX
  5
2C9
  8
0
 62
     9
 10
0.0
 20
0.0
 30
0.0
 70
   128
 71
    66
 72
    64
 73
    25
  0
VERTEX
  5
2CA
  8
0
 62
     9
 10
0.0
 20
0.0
 30
0.0
 70
   128
 71
    62
 72
    60
 73
    38
  0
VERTEX
  5
2CB
  8
0
 62
     9
 10
0.0
 20
0.0
 30
0.0
 70
   128
 71
    70
 72
    68
 73
    18
  0
VERTEX
  5
2CC
  8
0
 62
     9
 10
0.0
 20
0.0
 30
0.0
 70
   128
 71
    56
 72
    42
 73
    58
  0
VERTEX
  5
2CD
  8
0
 62
     9
 10
0.0
 20
0.0
 30
0.0
 70
   128
 71
    49
 72
    56
 73
    52
  0
VERTEX
  5
2CE
  8
0
 62
     9
 10
0.0
 20
0.0
 30
0.0
 70
   128
 71
    50
 72
    11
 73
    52
  0
VERTEX
  5
2CF
  8
0
 62
     9
 10
0.0
 20
0.0
 30
0.0
 70
   128
 71
    11
 72
    49
 73
    52
  0
VERTEX
  5
2D0
  8
0
 62
     9
 10
0.0
 20
0.0
 30
0.0
 70
   128
 71
    41
 72
    42
 73
    56
  0
VERTEX
  5
2D1
  8
0
 62
     9
 10
0.0
 20
0.0
 30
0.0
 70
   128
 71
    49
 72
    41
 73
    56
  0
VERTEX
  5
2D2
  8
0
 62
     9
 10
0.0
 20
0.0
 30
0.0
 70
   128
 71
    42
 72
    37
 73
    58
  0
VERTEX
  5
2D3
  8
0
 62
     9
 10
0.0
 20
0.0
 30
0.0
 70
   128
 71
    37
 72
    38
 73
    60
  0
VERTEX
  5
2D4
  8
0
 62
     9
 10
0.0
 20
0.0
 30
0.0
 70
   128
 71
    29
 72
    30
 73
    62
  0
VERTEX
  5
2D5
  8
0
 62
     9
 10
0.0
 20
0.0
 30
0.0
 70
   128
 71
    38
 72
    29
 73
    62
  0
VERTEX
  5
2D6
  8
0
 62
     9
 10
0.0
 20
0.0
 30
0.0
 70
   128
 71
    30
 72
    25
 73
    64
  0
VERTEX
  5
2D7
  8
0
 62
     9
 10
0.0
 20
0.0
 30
0.0
 70
   128
 71
    25
 72
    26
 73
    66
  0
VERTEX
  5
2D8
  8
0
 62
     9
 10
0.0
 20
0.0
 30
0.0
 70
   128
 71
    17
 72
    18
 73
    68
  0
VERTEX
  5
2D9
  8
0
 62
     9
 10
0.0
 20
0.0
 30
0.0
 70
   128
 71
    26
 72
    17
 73
    68
  0
VERTEX
  5
2DA
  8
0
 62
     9
 10
0.0
 20
0.0
 30
0.0
 70
   128
 71
    18
 72
    12
 73
    70
  0
VERTEX
  5
2DB
  8
0
 62
     9
 10
0.0
 20
0.0
 30
0.0
 70
   128
 71
    12
 72
    72
 73
    70
  0
VERTEX
  5
2DC
  8
0
 62
     9
 10
0.0
 20
0.0
 30
0.0
 70
   128
 71
    50
 72
    54
 73
     2
  0
VERTEX
  5
2DD
  8
0
 62
     9
 10
0.0
 20
0.0
 30
0.0
 70
   128
 71
    12
 72
    13
 73
    72
  0
VERTEX
  5
2DE
  8
0
 62
     9
 10
0.0
 20
0.0
 30
0.0
 70
   128
 71
     1
 72
     2
 73
    54
  0
VERTEX
  5
2DF
  8
0
 62
     9
 10
0.0
 20
0.0
 30
0.0
 70
   128
 71
    13
 72
     1
 73
    54
  0
VERTEX
  5
2E0
  8
0
 62
     9
 10
0.0
 20
0.0
 30
0.0
 70
   128
 71
    50
 72
     2
 73
    11
  0
SEQEND
  5
2E1
  8
0
 62
     9
  0
ENDBLK
  5
2E4
  8
0
  0
BLOCK
  8
0
  2
40
 70
     0
 10
0.0
 20
0.0
 30
0.0
  3
40
  1

  0
POLYLINE
  5
2E6
  8
0
 62
     9
 66
     1
 10
0.0
 20
0.0
 30
0.0
 70
    64
 71
   260
 72
   465
  0
VERTEX
  5
2E7
  8
0
 10
119.6435317993164
 20
6.884096145629883
 30
-31.29641914367676
 70
   192
  0
VERTEX
  5
2E8
  8
0
 10
116.1236572265625
 20
8.597768783569336
 30
-31.08697319030762
 70
   192
  0
VERTEX
  5
2E9
  8
0
 10
116.1236572265625
 20
4.30466890335083
 30
-31.52344703674316
 70
   192
  0
VERTEX
  5
2EA
  8
0
 10
119.7188110351562
 20
3.454297304153442
 30
-31.57526779174805
 70
   192
  0
VERTEX
  5
2EB
  8
0
 10
116.1236572265625
 20
0.0017372701549903
 30
-31.66871452331543
 70
   192
  0
VERTEX
  5
2EC
  8
0
 10
119.7444381713867
 20
0.0017372701549903
 30
-31.66871452331543
 70
   192
  0
VERTEX
  5
2ED
  8
0
 10
119.5203704833984
 20
10.29134178161621
 30
-30.83349227905273
 70
   192
  0
VERTEX
  5
2EE
  8
0
 10
116.1236572265625
 20
12.85154438018799
 30
-30.36129379272461
 70
   192
  0
VERTEX
  5
2EF
  8
0
 10
119.3456115722656
 20
13.67586898803711
 30
-30.18607902526855
 70
   192
  0
VERTEX
  5
2F0
  8
0
 10
116.1236572265625
 20
17.03704071044922
 30
-29.35235977172852
 70
   192
  0
VERTEX
  5
2F1
  8
0
 10
119.1058578491211
 20
17.03704071044922
 30
-29.35235977172852
 70
   192
  0
VERTEX
  5
2F2
  8
0
 10
119.9465942382812
 20
-18.77737045288086
 30
-2.404531478881836
 70
   192
  0
VERTEX
  5
2F3
  8
0
 10
120.0428619384766
 20
-18.55989837646484
 30
-2.433858394622803
 70
   192
  0
VERTEX
  5
2F4
  8
0
 10
120.0681381225586
 20
-19.24053764343262
 30
-6.204214096069336
 70
   192
  0
VERTEX
  5
2F5
  8
0
 10
119.5124969482422
 20
-17.16970252990723
 30
-28.9796028137207
 70
   192
  0
VERTEX
  5
2F6
  8
0
 10
119.8605346679688
 20
-17.87595367431641
 30
-25.21604537963867
 70
   192
  0
VERTEX
  5
2F7
  8
0
 10
119.5992279052734
 20
-16.95775413513184
 30
-28.92821311950684
 70
   192
  0
VERTEX
  5
2F8
  8
0
 10
120.1666259765625
 20
-19.02802848815918
 30
-17.6705322265625
 70
   192
  0
VERTEX
  5
2F9
  8
0
 10
120.0443344116211
 20
-18.56587028503418
 30
-21.46523475646973
 70
   192
  0
VERTEX
  5
2FA
  8
0
 10
119.9479675292969
 20
-18.78353309631348
 30
-21.4929084777832
 70
   192
  0
VERTEX
  5
2FB
  8
0
 10
119.3354339599609
 20
-17.32250785827637
 30
-29.00696754455566
 70
   192
  0
VERTEX
  5
2FC
  8
0
 10
119.6012496948242
 20
-18.23517990112305
 30
-25.27025985717773
 70
   192
  0
VERTEX
  5
2FD
  8
0
 10
119.7656097412109
 20
-18.09560012817383
 30
-25.25018119812012
 70
   192
  0
VERTEX
  5
2FE
  8
0
 10
120.1309967041016
 20
-19.47439956665039
 30
-13.89473342895508
 70
   192
  0
VERTEX
  5
2FF
  8
0
 10
120.0690307617188
 20
-19.24312210083008
 30
-17.7080020904541
 70
   192
  0
VERTEX
  5
300
  8
0
 10
119.9049453735352
 20
-19.38064002990723
 30
-17.7164192199707
 70
   192
  0
VERTEX
  5
301
  8
0
 10
120.2289428710938
 20
-19.2591552734375
 30
-13.84011650085449
 70
   192
  0
VERTEX
  5
302
  8
0
 10
120.2281646728516
 20
-19.25645065307617
 30
-10.00742244720459
 70
   192
  0
VERTEX
  5
303
  8
0
 10
119.5149154663086
 20
-17.16522216796875
 30
5.0411376953125
 70
   192
  0
VERTEX
  5
304
  8
0
 10
119.7643966674805
 20
-18.0888786315918
 30
1.344280242919922
 70
   192
  0
VERTEX
  5
305
  8
0
 10
119.6000289916992
 20
-18.22846603393555
 30
1.364430785179138
 70
   192
  0
VERTEX
  5
306
  8
0
 10
119.7363967895508
 20
-19.66888999938965
 30
-13.90555477142334
 70
   192
  0
VERTEX
  5
307
  8
0
 10
119.9667434692383
 20
-19.61139297485352
 30
-10.04552555084229
 70
   192
  0
VERTEX
  5
308
  8
0
 10
119.9669723510742
 20
-19.61153030395508
 30
-13.89752197265625
 70
   192
  0
VERTEX
  5
309
  8
0
 10
119.5515899658203
 20
-18.98051834106445
 30
-2.425802707672119
 70
   192
  0
VERTEX
  5
30A
  8
0
 10
119.3672027587891
 20
-18.29407501220703
 30
1.341008067131042
 70
   192
  0
VERTEX
  5
30B
  8
0
 10
119.3320236206055
 20
-17.32421875
 30
5.06972599029541
 70
   192
  0
VERTEX
  5
30C
  8
0
 10
119.1058883666992
 20
-17.38190650939941
 30
5.066587448120117
 70
   192
  0
VERTEX
  5
30D
  8
0
 10
119.5991821289062
 20
-16.95776176452637
 30
4.990782737731934
 70
   192
  0
VERTEX
  5
30E
  8
0
 10
119.904052734375
 20
-19.37805366516113
 30
-6.195758819580078
 70
   192
  0
VERTEX
  5
30F
  8
0
 10
119.7823867797852
 20
-18.91568946838379
 30
-2.390188217163086
 70
   192
  0
VERTEX
  5
310
  8
0
 10
119.8597412109375
 20
-17.87170791625977
 30
1.297649383544922
 70
   192
  0
VERTEX
  5
311
  8
0
 10
119.6755523681641
 20
-19.44485473632812
 30
-6.289282321929932
 70
   192
  0
VERTEX
  5
312
  8
0
 10
120.1307678222656
 20
-19.47426223754883
 30
-10.04827976226807
 70
   192
  0
VERTEX
  5
313
  8
0
 10
120.1649551391602
 20
-19.02214622497559
 30
-6.202967643737793
 70
   192
  0
VERTEX
  5
314
  8
0
 10
119.5502471923828
 20
-18.97450065612793
 30
-21.54840850830078
 70
   192
  0
VERTEX
  5
315
  8
0
 10
119.7837677001953
 20
-18.92184638977051
 30
-21.50716781616211
 70
   192
  0
VERTEX
  5
316
  8
0
 10
119.1059341430664
 20
-17.38190650939941
 30
-29.00401878356934
 70
   192
  0
VERTEX
  5
317
  8
0
 10
119.7371215820312
 20
-19.67153739929199
 30
-10.12426948547363
 70
   192
  0
VERTEX
  5
318
  8
0
 10
119.6741714477539
 20
-19.439697265625
 30
-17.70773696899414
 70
   192
  0
VERTEX
  5
319
  8
0
 10
119.3657836914062
 20
-18.28717994689941
 30
-25.30881690979004
 70
   192
  0
VERTEX
  5
31A
  8
0
 10
119.5461502075195
 20
-16.99720001220703
 30
-29.08677864074707
 70
   192
  0
VERTEX
  5
31B
  8
0
 10
119.2746200561523
 20
-17.0389289855957
 30
-29.32024383544922
 70
   192
  0
VERTEX
  5
31C
  8
0
 10
119.1059341430664
 20
-17.03356552124023
 30
-29.35235977172852
 70
   192
  0
VERTEX
  5
31D
  8
0
 10
119.2808303833008
 20
-17.23493957519531
 30
-29.19570159912109
 70
   192
  0
VERTEX
  5
31E
  8
0
 10
119.4323348999023
 20
-17.02657318115234
 30
-29.22751998901367
 70
   192
  0
VERTEX
  5
31F
  8
0
 10
119.1059341430664
 20
-17.25171089172363
 30
-29.2259578704834
 70
   192
  0
VERTEX
  5
320
  8
0
 10
120.0428314208984
 20
9.536592483520508
 30
6.592918872833252
 70
   192
  0
VERTEX
  5
321
  8
0
 10
119.9465637207031
 20
9.565919876098633
 30
6.810391426086426
 70
   192
  0
VERTEX
  5
322
  8
0
 10
119.8597106933594
 20
13.26809978485107
 30
5.904727935791016
 70
   192
  0
VERTEX
  5
323
  8
0
 10
119.3671722412109
 20
13.3114595413208
 30
6.327096462249756
 70
   192
  0
VERTEX
  5
324
  8
0
 10
119.1058654785156
 20
17.03704071044922
 30
5.414928436279297
 70
   192
  0
VERTEX
  5
325
  8
0
 10
119.3320083618164
 20
17.04017639160156
 30
5.357240676879883
 70
   192
  0
VERTEX
  5
326
  8
0
 10
119.5999984741211
 20
13.33488273620605
 30
6.261487483978271
 70
   192
  0
VERTEX
  5
327
  8
0
 10
119.5515594482422
 20
9.544642448425293
 30
7.013540744781494
 70
   192
  0
VERTEX
  5
328
  8
0
 10
119.7363662719727
 20
-1.935082197189331
 30
7.701913356781006
 70
   192
  0
VERTEX
  5
329
  8
0
 10
119.7370910644531
 20
1.846174955368042
 30
7.704560279846191
 70
   192
  0
VERTEX
  5
32A
  8
0
 10
119.9667129516602
 20
1.924924612045288
 30
7.64441442489624
 70
   192
  0
VERTEX
  5
32B
  8
0
 10
120.1309661865234
 20
-1.924284338951111
 30
7.507421016693115
 70
   192
  0
VERTEX
  5
32C
  8
0
 10
120.0689926147461
 20
-5.737552642822266
 30
7.276144981384277
 70
   192
  0
VERTEX
  5
32D
  8
0
 10
119.9049072265625
 20
-5.745968818664551
 30
7.413661479949951
 70
   192
  0
VERTEX
  5
32E
  8
0
 10
120.228141784668
 20
1.963029384613037
 30
7.289472103118896
 70
   192
  0
VERTEX
  5
32F
  8
0
 10
120.1307373046875
 20
1.922170281410217
 30
7.507284641265869
 70
   192
  0
VERTEX
  5
330
  8
0
 10
119.328369140625
 20
-17.03678321838379
 30
5.358639240264893
 70
   192
  0
VERTEX
  5
331
  8
0
 10
119.601203918457
 20
-13.29980850219727
 30
6.268203735351562
 70
   192
  0
VERTEX
  5
332
  8
0
 10
119.7655563354492
 20
-13.27972984313965
 30
6.128625869750977
 70
   192
  0
VERTEX
  5
333
  8
0
 10
119.5130462646484
 20
-17.00888824462891
 30
5.201596736907959
 70
   192
  0
VERTEX
  5
334
  8
0
 10
119.1058883666992
 20
-17.03356552124023
 30
5.414928436279297
 70
   192
  0
VERTEX
  5
335
  8
0
 10
119.9479217529297
 20
-9.52245807647705
 30
6.816556930541992
 70
   192
  0
VERTEX
  5
336
  8
0
 10
120.0442886352539
 20
-9.494782447814941
 30
6.598897457122803
 70
   192
  0
VERTEX
  5
337
  8
0
 10
119.860481262207
 20
-13.24559307098389
 30
5.908981323242188
 70
   192
  0
VERTEX
  5
338
  8
0
 10
120.2289047241211
 20
-1.869663715362549
 30
7.292178630828857
 70
   192
  0
VERTEX
  5
339
  8
0
 10
119.7837219238281
 20
-9.536717414855957
 30
6.954868793487549
 70
   192
  0
VERTEX
  5
33A
  8
0
 10
119.5502090454102
 20
-9.577957153320312
 30
7.007522106170654
 70
   192
  0
VERTEX
  5
33B
  8
0
 10
119.9669342041016
 20
-1.927072405815125
 30
7.644552230834961
 70
   192
  0
VERTEX
  5
33C
  8
0
 10
119.782356262207
 20
9.580263137817383
 30
6.948710441589355
 70
   192
  0
VERTEX
  5
33D
  8
0
 10
119.7643661499023
 20
13.31473159790039
 30
6.121899127960205
 70
   192
  0
VERTEX
  5
33E
  8
0
 10
120.0681076049805
 20
5.766236782073975
 30
7.273558139801025
 70
   192
  0
VERTEX
  5
33F
  8
0
 10
120.164924621582
 20
5.767483234405518
 30
7.055167198181152
 70
   192
  0
VERTEX
  5
340
  8
0
 10
119.6755218505859
 20
5.681161403656006
 30
7.477877616882324
 70
   192
  0
VERTEX
  5
341
  8
0
 10
119.514892578125
 20
17.01158714294434
 30
5.1982421875
 70
   192
  0
VERTEX
  5
342
  8
0
 10
119.5991668701172
 20
16.96123123168945
 30
4.990782260894775
 70
   192
  0
VERTEX
  5
343
  8
0
 10
119.9040298461914
 20
5.774692058563232
 30
7.411075592041016
 70
   192
  0
VERTEX
  5
344
  8
0
 10
119.6741333007812
 20
-5.737257480621338
 30
7.472721099853516
 70
   192
  0
VERTEX
  5
345
  8
0
 10
120.1665802001953
 20
-5.70007848739624
 30
7.061052799224854
 70
   192
  0
VERTEX
  5
346
  8
0
 10
119.3657379150391
 20
-13.33836841583252
 30
6.320201396942139
 70
   192
  0
VERTEX
  5
347
  8
0
 10
119.9465713500977
 20
-9.56243896484375
 30
-30.74782562255859
 70
   192
  0
VERTEX
  5
348
  8
0
 10
120.042839050293
 20
-9.533111572265625
 30
-30.53035354614258
 70
   192
  0
VERTEX
  5
349
  8
0
 10
120.0680923461914
 20
-5.762758255004883
 30
-31.21099090576172
 70
   192
  0
VERTEX
  5
34A
  8
0
 10
119.860466003418
 20
13.24906921386719
 30
-29.84640693664551
 70
   192
  0
VERTEX
  5
34B
  8
0
 10
119.7655410766602
 20
13.283203125
 30
-30.06605339050293
 70
   192
  0
VERTEX
  5
34C
  8
0
 10
120.0442657470703
 20
9.498259544372559
 30
-30.53632545471191
 70
   192
  0
VERTEX
  5
34D
  8
0
 10
119.9478988647461
 20
9.525930404663086
 30
-30.75398635864258
 70
   192
  0
VERTEX
  5
34E
  8
0
 10
119.5991592407227
 20
16.96123695373535
 30
-28.92820739746094
 70
   192
  0
VERTEX
  5
34F
  8
0
 10
119.5124206542969
 20
17.01262664794922
 30
-29.14015579223633
 70
   192
  0
VERTEX
  5
350
  8
0
 10
120.2288665771484
 20
1.873141765594482
 30
-31.22961235046387
 70
   192
  0
VERTEX
  5
351
  8
0
 10
120.0689544677734
 20
5.741024971008301
 30
-31.21357727050781
 70
   192
  0
VERTEX
  5
352
  8
0
 10
120.1309204101562
 20
1.927756905555725
 30
-31.44485473632812
 70
   192
  0
VERTEX
  5
353
  8
0
 10
119.9048690795898
 20
5.749441146850586
 30
-31.35109329223633
 70
   192
  0
VERTEX
  5
354
  8
0
 10
119.9668960571289
 20
1.930544853210449
 30
-31.58198356628418
 70
   192
  0
VERTEX
  5
355
  8
0
 10
119.518440246582
 20
-10.3326473236084
 30
-30.82615280151367
 70
   192
  0
VERTEX
  5
356
  8
0
 10
119.3435134887695
 20
-13.70348930358887
 30
-30.17860412597656
 70
   192
  0
VERTEX
  5
357
  8
0
 10
119.6000366210938
 20
-13.33140277862549
 30
-30.19891929626465
 70
   192
  0
VERTEX
  5
358
  8
0
 10
119.9040069580078
 20
-5.771214485168457
 30
-31.34850692749023
 70
   192
  0
VERTEX
  5
359
  8
0
 10
119.9666748046875
 20
-1.921451210975647
 30
-31.58184623718262
 70
   192
  0
VERTEX
  5
35A
  8
0
 10
119.764404296875
 20
-13.31125068664551
 30
-30.0593318939209
 70
   192
  0
VERTEX
  5
35B
  8
0
 10
119.859748840332
 20
-13.26461982727051
 30
-29.84216117858887
 70
   192
  0
VERTEX
  5
35C
  8
0
 10
119.6439208984375
 20
-6.868310451507568
 30
-31.29769515991211
 70
   192
  0
VERTEX
  5
35D
  8
0
 10
119.7823638916016
 20
-9.576783180236816
 30
-30.88614273071289
 70
   192
  0
VERTEX
  5
35E
  8
0
 10
119.3353652954102
 20
17.03999137878418
 30
-29.29295921325684
 70
   192
  0
VERTEX
  5
35F
  8
0
 10
120.1307067871094
 20
-1.918696522712708
 30
-31.44471740722656
 70
   192
  0
VERTEX
  5
360
  8
0
 10
120.2281036376953
 20
-1.959550380706787
 30
-31.22690773010254
 70
   192
  0
VERTEX
  5
361
  8
0
 10
120.164909362793
 20
-5.764002799987793
 30
-30.99260330200195
 70
   192
  0
VERTEX
  5
362
  8
0
 10
120.1665496826172
 20
5.703555583953857
 30
-30.99848556518555
 70
   192
  0
VERTEX
  5
363
  8
0
 10
119.78369140625
 20
9.540189743041992
 30
-30.89229965209961
 70
   192
  0
VERTEX
  5
364
  8
0
 10
119.6011810302734
 20
13.30328273773193
 30
-30.20563316345215
 70
   192
  0
VERTEX
  5
365
  8
0
 10
119.7193069458008
 20
-3.415050029754639
 30
-31.57703399658203
 70
   192
  0
VERTEX
  5
366
  8
0
 10
119.28076171875
 20
17.23841667175293
 30
-29.19569969177246
 70
   192
  0
VERTEX
  5
367
  8
0
 10
119.514892578125
 20
17.16869735717773
 30
-28.97856330871582
 70
   192
  0
VERTEX
  5
368
  8
0
 10
119.4199981689453
 20
17.11342430114746
 30
-29.19569969177246
 70
   192
  0
VERTEX
  5
369
  8
0
 10
119.1058578491211
 20
17.25518417358398
 30
-29.2259578704834
 70
   192
  0
VERTEX
  5
36A
  8
0
 10
119.3320007324219
 20
17.32769393920898
 30
-29.00715446472168
 70
   192
  0
VERTEX
  5
36B
  8
0
 10
119.1058578491211
 20
17.3853816986084
 30
-29.00401878356934
 70
   192
  0
VERTEX
  5
36C
  8
0
 10
120.0427856445312
 20
18.56337738037109
 30
-21.50356674194336
 70
   192
  0
VERTEX
  5
36D
  8
0
 10
120.0680541992188
 20
19.2440128326416
 30
-17.73321151733398
 70
   192
  0
VERTEX
  5
36E
  8
0
 10
119.9465179443359
 20
18.78084754943848
 30
-21.53289413452148
 70
   192
  0
VERTEX
  5
36F
  8
0
 10
119.3671417236328
 20
18.29754829406738
 30
-25.2784366607666
 70
   192
  0
VERTEX
  5
370
  8
0
 10
119.599967956543
 20
18.23194122314453
 30
-25.30185699462891
 70
   192
  0
VERTEX
  5
371
  8
0
 10
119.551513671875
 20
18.98399353027344
 30
-21.51162147521973
 70
   192
  0
VERTEX
  5
372
  8
0
 10
119.7643356323242
 20
18.09235382080078
 30
-25.28170585632324
 70
   192
  0
VERTEX
  5
373
  8
0
 10
119.7823104858398
 20
18.91916465759277
 30
-21.54723739624023
 70
   192
  0
VERTEX
  5
374
  8
0
 10
119.9039688110352
 20
19.38152885437012
 30
-17.74166679382324
 70
   192
  0
VERTEX
  5
375
  8
0
 10
120.0689392089844
 20
19.24659729003906
 30
-6.229427814483643
 70
   192
  0
VERTEX
  5
376
  8
0
 10
119.7836837768555
 20
18.92532157897949
 30
-2.430263042449951
 70
   192
  0
VERTEX
  5
377
  8
0
 10
119.9048614501953
 20
19.38411331176758
 30
-6.221011638641357
 70
   192
  0
VERTEX
  5
378
  8
0
 10
120.2280807495117
 20
19.25992965698242
 30
-13.930006980896
 70
   192
  0
VERTEX
  5
379
  8
0
 10
120.1309051513672
 20
19.47787475585938
 30
-10.04269504547119
 70
   192
  0
VERTEX
  5
37A
  8
0
 10
120.1306762695312
 20
19.47773933410645
 30
-13.88914775848389
 70
   192
  0
VERTEX
  5
37B
  8
0
 10
119.7655334472656
 20
18.09907722473145
 30
1.312749266624451
 70
   192
  0
VERTEX
  5
37C
  8
0
 10
120.0442504882812
 20
18.56934928894043
 30
-2.472196817398071
 70
   192
  0
VERTEX
  5
37D
  8
0
 10
119.8604583740234
 20
17.87943077087402
 30
1.278613448143005
 70
   192
  0
VERTEX
  5
37E
  8
0
 10
119.5130233764648
 20
17.17204666137695
 30
5.041909217834473
 70
   192
  0
VERTEX
  5
37F
  8
0
 10
119.1058654785156
 20
17.3853816986084
 30
5.066587448120117
 70
   192
  0
VERTEX
  5
380
  8
0
 10
119.6011734008789
 20
18.23865509033203
 30
1.332828640937805
 70
   192
  0
VERTEX
  5
381
  8
0
 10
119.3283462524414
 20
17.32909202575684
 30
5.069804668426514
 70
   192
  0
VERTEX
  5
382
  8
0
 10
119.947883605957
 20
18.78700828552246
 30
-2.444523096084595
 70
   192
  0
VERTEX
  5
383
  8
0
 10
120.2288513183594
 20
19.26263427734375
 30
-10.09731483459473
 70
   192
  0
VERTEX
  5
384
  8
0
 10
120.1665344238281
 20
19.0315055847168
 30
-6.26690149307251
 70
   192
  0
VERTEX
  5
385
  8
0
 10
119.9668807983398
 20
19.61500549316406
 30
-10.03990745544434
 70
   192
  0
VERTEX
  5
386
  8
0
 10
119.7363128662109
 20
19.67236518859863
 30
-10.0318717956543
 70
   192
  0
VERTEX
  5
387
  8
0
 10
119.9666519165039
 20
19.6148681640625
 30
-13.89190196990967
 70
   192
  0
VERTEX
  5
388
  8
0
 10
119.6754608154297
 20
19.44833183288574
 30
-17.64812088012695
 70
   192
  0
VERTEX
  5
389
  8
0
 10
120.1648712158203
 20
19.02562522888184
 30
-17.73445892333984
 70
   192
  0
VERTEX
  5
38A
  8
0
 10
119.8596801757812
 20
17.87518501281738
 30
-25.23507499694824
 70
   192
  0
VERTEX
  5
38B
  8
0
 10
119.7370300292969
 20
19.67501258850098
 30
-13.81314086914062
 70
   192
  0
VERTEX
  5
38C
  8
0
 10
119.6740875244141
 20
19.44317054748535
 30
-6.229690074920654
 70
   192
  0
VERTEX
  5
38D
  8
0
 10
119.5501708984375
 20
18.97797393798828
 30
-2.389019250869751
 70
   192
  0
VERTEX
  5
38E
  8
0
 10
119.3657073974609
 20
18.2906551361084
 30
1.371387004852295
 70
   192
  0
VERTEX
  5
38F
  8
0
 10
116.1236572265625
 20
17.3853816986084
 30
5.066587448120117
 70
   192
  0
VERTEX
  5
390
  8
0
 10
116.1236572265625
 20
19.65361595153809
 30
-9.491127967834473
 70
   192
  0
VERTEX
  5
391
  8
0
 10
116.1236572265625
 20
18.50939559936523
 30
0.3083170652389526
 70
   192
  0
VERTEX
  5
392
  8
0
 10
116.1236572265625
 20
19.26992988586426
 30
-4.558266162872314
 70
   192
  0
VERTEX
  5
393
  8
0
 10
116.1236572265625
 20
19.26982307434082
 30
-19.37960815429688
 70
   192
  0
VERTEX
  5
394
  8
0
 10
116.1236572265625
 20
19.65359115600586
 30
-14.44653129577637
 70
   192
  0
VERTEX
  5
395
  8
0
 10
116.1236572265625
 20
18.50925827026367
 30
-24.2460994720459
 70
   192
  0
VERTEX
  5
396
  8
0
 10
116.1236572265625
 20
17.3853816986084
 30
-29.00401878356934
 70
   192
  0
VERTEX
  5
397
  8
0
 10
116.1236572265625
 20
-8.594294548034668
 30
-31.08697319030762
 70
   192
  0
VERTEX
  5
398
  8
0
 10
116.1236572265625
 20
-12.84807014465332
 30
-30.36129379272461
 70
   192
  0
VERTEX
  5
399
  8
0
 10
116.1236572265625
 20
-4.301194190979004
 30
-31.52344703674316
 70
   192
  0
VERTEX
  5
39A
  8
0
 10
116.1236572265625
 20
-17.03356552124023
 30
-29.35235977172852
 70
   192
  0
VERTEX
  5
39B
  8
0
 10
116.1236572265625
 20
-17.38190650939941
 30
-29.00401878356934
 70
   192
  0
VERTEX
  5
39C
  8
0
 10
116.1236572265625
 20
-19.6501407623291
 30
-14.44630241394043
 70
   192
  0
VERTEX
  5
39D
  8
0
 10
116.1236572265625
 20
-18.50592041015625
 30
-24.24574851989746
 70
   192
  0
VERTEX
  5
39E
  8
0
 10
116.1236572265625
 20
-19.26645469665527
 30
-19.37916564941406
 70
   192
  0
VERTEX
  5
39F
  8
0
 10
116.1236572265625
 20
-19.26634788513184
 30
-4.557822227478027
 70
   192
  0
VERTEX
  5
3A0
  8
0
 10
116.1236572265625
 20
-19.65011787414551
 30
-9.490900039672852
 70
   192
  0
VERTEX
  5
3A1
  8
0
 10
116.1236572265625
 20
-18.50578308105469
 30
0.308667927980423
 70
   192
  0
VERTEX
  5
3A2
  8
0
 10
116.1236572265625
 20
-17.38190650939941
 30
5.066587448120117
 70
   192
  0
VERTEX
  5
3A3
  8
0
 10
116.1236572265625
 20
-2.475849866867065
 30
7.683162212371826
 70
   192
  0
VERTEX
  5
3A4
  8
0
 10
116.1236572265625
 20
-7.408712387084961
 30
7.299477577209473
 70
   192
  0
VERTEX
  5
3A5
  8
0
 10
116.1236572265625
 20
-12.27529525756836
 30
6.538942337036133
 70
   192
  0
VERTEX
  5
3A6
  8
0
 10
116.1236572265625
 20
-17.03356552124023
 30
5.414928436279297
 70
   192
  0
VERTEX
  5
3A7
  8
0
 10
116.1236572265625
 20
2.479552984237671
 30
7.683138847351074
 70
   192
  0
VERTEX
  5
3A8
  8
0
 10
116.1236572265625
 20
7.412630558013916
 30
7.299369812011719
 70
   192
  0
VERTEX
  5
3A9
  8
0
 10
116.1236572265625
 20
12.27912044525146
 30
6.53880500793457
 70
   192
  0
VERTEX
  5
3AA
  8
0
 10
116.1236572265625
 20
17.03704071044922
 30
5.414928436279297
 70
   192
  0
VERTEX
  5
3AB
  8
0
 10
121.3101959228516
 20
10.9583854675293
 30
-9.823511123657227
 70
   192
  0
VERTEX
  5
3AC
  8
0
 10
120.7168655395508
 20
15.1816520690918
 30
-5.693759918212891
 70
   192
  0
VERTEX
  5
3AD
  8
0
 10
120.8348388671875
 20
15.30226993560791
 30
-9.875198364257812
 70
   192
  0
VERTEX
  5
3AE
  8
0
 10
120.1419525146484
 20
-14.57514381408691
 30
-26.54566192626953
 70
   192
  0
VERTEX
  5
3AF
  8
0
 10
121.7821273803711
 20
-2.195115089416504
 30
-14.16558456420898
 70
   192
  0
VERTEX
  5
3B0
  8
0
 10
121.7821273803711
 20
-2.195125818252563
 30
-9.77184772491455
 70
   192
  0
VERTEX
  5
3B1
  8
0
 10
121.7821197509766
 20
2.198610067367554
 30
-9.77183723449707
 70
   192
  0
VERTEX
  5
3B2
  8
0
 10
120.7169036865234
 20
-6.273226737976074
 30
3.211212396621704
 70
   192
  0
VERTEX
  5
3B3
  8
0
 10
120.1419372558594
 20
-14.57519340515137
 30
2.608190298080444
 70
   192
  0
VERTEX
  5
3B4
  8
0
 10
120.8348770141602
 20
-2.091780662536621
 30
3.331820726394653
 70
   192
  0
VERTEX
  5
3B5
  8
0
 10
120.4858856201172
 20
-14.93700122833252
 30
-1.528950929641724
 70
   192
  0
VERTEX
  5
3B6
  8
0
 10
120.4858932495117
 20
-10.43805694580078
 30
2.970001459121704
 70
   192
  0
VERTEX
  5
3B7
  8
0
 10
120.7168807983398
 20
-6.273178100585938
 30
-27.14866638183594
 70
   192
  0
VERTEX
  5
3B8
  8
0
 10
121.3102188110352
 20
-2.1434166431427
 30
-22.92536544799805
 70
   192
  0
VERTEX
  5
3B9
  8
0
 10
120.8348617553711
 20
-2.091732501983643
 30
-27.26925277709961
 70
   192
  0
VERTEX
  5
3BA
  8
0
 10
121.6236267089844
 20
6.586806297302246
 30
-9.789057731628418
 70
   192
  0
VERTEX
  5
3BB
  8
0
 10
121.4719467163086
 20
6.535106182098389
 30
-5.435322284698486
 70
   192
  0
VERTEX
  5
3BC
  8
0
 10
121.1717529296875
 20
10.87222671508789
 30
-5.538694381713867
 70
   192
  0
VERTEX
  5
3BD
  8
0
 10
121.310188293457
 20
10.95839691162109
 30
-14.11386585235596
 70
   192
  0
VERTEX
  5
3BE
  8
0
 10
121.4719467163086
 20
6.535137176513672
 30
-18.50206756591797
 70
   192
  0
VERTEX
  5
3BF
  8
0
 10
121.6236267089844
 20
6.586817264556885
 30
-14.1483325958252
 70
   192
  0
VERTEX
  5
3C0
  8
0
 10
121.6236419677734
 20
-2.177877902984619
 30
-18.55378341674805
 70
   192
  0
VERTEX
  5
3C1
  8
0
 10
121.6236343383789
 20
2.181399345397949
 30
-18.55376815795898
 70
   192
  0
VERTEX
  5
3C2
  8
0
 10
120.4858779907227
 20
-10.43800830841064
 30
-26.90746879577637
 70
   192
  0
VERTEX
  5
3C3
  8
0
 10
121.1717834472656
 20
-6.428238391876221
 30
-22.8392333984375
 70
   192
  0
VERTEX
  5
3C4
  8
0
 10
120.834831237793
 20
15.30228137969971
 30
-14.06217575073242
 70
   192
  0
VERTEX
  5
3C5
  8
0
 10
121.171745300293
 20
10.87225818634033
 30
-18.398681640625
 70
   192
  0
VERTEX
  5
3C6
  8
0
 10
120.7168350219727
 20
15.18168449401855
 30
-18.24361419677734
 70
   192
  0
VERTEX
  5
3C7
  8
0
 10
120.4858322143555
 20
14.94047737121582
 30
-22.4084358215332
 70
   192
  0
VERTEX
  5
3C8
  8
0
 10
120.1418991088867
 20
14.57865715026855
 30
-26.54556274414062
 70
   192
  0
VERTEX
  5
3C9
  8
0
 10
120.8982849121094
 20
10.69992256164551
 30
-1.270494222640991
 70
   192
  0
VERTEX
  5
3CA
  8
0
 10
120.4858551025391
 20
14.94043064117432
 30
-1.528937458992004
 70
   192
  0
VERTEX
  5
3CB
  8
0
 10
120.7168655395508
 20
6.276647090911865
 30
3.211222887039185
 70
   192
  0
VERTEX
  5
3CC
  8
0
 10
120.8348617553711
 20
2.095202922821045
 30
3.331825017929077
 70
   192
  0
VERTEX
  5
3CD
  8
0
 10
120.1419067382812
 20
14.57860565185547
 30
2.608191251754761
 70
   192
  0
VERTEX
  5
3CE
  8
0
 10
120.4858474731445
 20
10.44147396087646
 30
2.970012187957764
 70
   192
  0
VERTEX
  5
3CF
  8
0
 10
120.8982772827148
 20
10.6999683380127
 30
-22.6668815612793
 70
   192
  0
VERTEX
  5
3D0
  8
0
 10
120.4858627319336
 20
10.44152355194092
 30
-26.90738677978516
 70
   192
  0
VERTEX
  5
3D1
  8
0
 10
121.1717910766602
 20
-10.86877059936523
 30
-5.538723945617676
 70
   192
  0
VERTEX
  5
3D2
  8
0
 10
121.1717910766602
 20
-6.428282260894775
 30
-1.09821879863739
 70
   192
  0
VERTEX
  5
3D3
  8
0
 10
121.4719696044922
 20
-6.531647682189941
 30
-5.435343742370605
 70
   192
  0
VERTEX
  5
3D4
  8
0
 10
121.171760559082
 20
6.431719303131104
 30
-1.09820282459259
 70
   192
  0
VERTEX
  5
3D5
  8
0
 10
121.7821197509766
 20
2.198620796203613
 30
-14.16557312011719
 70
   192
  0
VERTEX
  5
3D6
  8
0
 10
121.171760559082
 20
6.431764125823975
 30
-22.83918762207031
 70
   192
  0
VERTEX
  5
3D7
  8
0
 10
120.7168807983398
 20
6.27669620513916
 30
-27.14861297607422
 70
   192
  0
VERTEX
  5
3D8
  8
0
 10
121.6236343383789
 20
2.181368827819824
 30
-5.383641242980957
 70
   192
  0
VERTEX
  5
3D9
  8
0
 10
121.3102111816406
 20
2.146899223327637
 30
-1.01206111907959
 70
   192
  0
VERTEX
  5
3DA
  8
0
 10
121.3102111816406
 20
2.146943330764771
 30
-22.92534828186035
 70
   192
  0
VERTEX
  5
3DB
  8
0
 10
120.8348617553711
 20
2.095251321792603
 30
-27.26923561096191
 70
   192
  0
VERTEX
  5
3DC
  8
0
 10
121.6236419677734
 20
-2.177908420562744
 30
-5.383648872375488
 70
   192
  0
VERTEX
  5
3DD
  8
0
 10
121.3102188110352
 20
-2.143460512161255
 30
-1.012067079544067
 70
   192
  0
VERTEX
  5
3DE
  8
0
 10
121.4719696044922
 20
-6.531617164611816
 30
-18.50210762023926
 70
   192
  0
VERTEX
  5
3DF
  8
0
 10
121.623649597168
 20
-6.58332347869873
 30
-9.789085388183594
 70
   192
  0
VERTEX
  5
3E0
  8
0
 10
121.623649597168
 20
-6.58331298828125
 30
-14.14836597442627
 70
   192
  0
VERTEX
  5
3E1
  8
0
 10
120.898323059082
 20
-10.69644355773926
 30
-22.66695213317871
 70
   192
  0
VERTEX
  5
3E2
  8
0
 10
121.1717987060547
 20
-10.86874008178711
 30
-18.39874267578125
 70
   192
  0
VERTEX
  5
3E3
  8
0
 10
120.8349075317383
 20
-15.29878330230713
 30
-14.06223011016846
 70
   192
  0
VERTEX
  5
3E4
  8
0
 10
120.8348922729492
 20
-15.29879474639893
 30
-9.875239372253418
 70
   192
  0
VERTEX
  5
3E5
  8
0
 10
120.8983154296875
 20
-10.69648838043213
 30
-1.270514011383057
 70
   192
  0
VERTEX
  5
3E6
  8
0
 10
121.3102340698242
 20
-10.95490550994873
 30
-9.8235502243042
 70
   192
  0
VERTEX
  5
3E7
  8
0
 10
121.3102416992188
 20
-10.95489501953125
 30
-14.11391544342041
 70
   192
  0
VERTEX
  5
3E8
  8
0
 10
120.7169036865234
 20
-15.17820072174072
 30
-5.69378662109375
 70
   192
  0
VERTEX
  5
3E9
  8
0
 10
120.716926574707
 20
-15.1781702041626
 30
-18.24368286132812
 70
   192
  0
VERTEX
  5
3EA
  8
0
 10
120.4859161376953
 20
-14.93695640563965
 30
-22.40851974487305
 70
   192
  0
VERTEX
  5
3EB
  8
0
 62
     9
 10
0.0
 20
0.0
 30
0.0
 70
   128
 71
     3
 72
     2
 73
     1
  0
VERTEX
  5
3EC
  8
0
 62
     9
 10
0.0
 20
0.0
 30
0.0
 70
   128
 71
     5
 72
     3
 73
     4
  0
VERTEX
  5
3ED
  8
0
 62
     9
 10
0.0
 20
0.0
 30
0.0
 70
   128
 71
     1
 72
     4
 73
     3
  0
VERTEX
  5
3EE
  8
0
 62
     9
 10
0.0
 20
0.0
 30
0.0
 70
   128
 71
     5
 72
     4
 73
     6
  0
VERTEX
  5
3EF
  8
0
 62
     9
 10
0.0
 20
0.0
 30
0.0
 70
   128
 71
     2
 72
     7
 73
     1
  0
VERTEX
  5
3F0
  8
0
 62
     9
 10
0.0
 20
0.0
 30
0.0
 70
   128
 71
     7
 72
     2
 73
     8
  0
VERTEX
  5
3F1
  8
0
 62
     9
 10
0.0
 20
0.0
 30
0.0
 70
   128
 71
     8
 72
    10
 73
     9
  0
VERTEX
  5
3F2
  8
0
 62
     9
 10
0.0
 20
0.0
 30
0.0
 70
   128
 71
     9
 72
     7
 73
     8
  0
VERTEX
  5
3F3
  8
0
 62
     9
 10
0.0
 20
0.0
 30
0.0
 70
   128
 71
    10
 72
    11
 73
     9
  0
VERTEX
  5
3F4
  8
0
 62
     9
 10
0.0
 20
0.0
 30
0.0
 70
   128
 71
    14
 72
    13
 73
    12
  0
VERTEX
  5
3F5
  8
0
 62
     9
 10
0.0
 20
0.0
 30
0.0
 70
   128
 71
    17
 72
    16
 73
    15
  0
VERTEX
  5
3F6
  8
0
 62
     9
 10
0.0
 20
0.0
 30
0.0
 70
   128
 71
    20
 72
    19
 73
    18
  0
VERTEX
  5
3F7
  8
0
 62
     9
 10
0.0
 20
0.0
 30
0.0
 70
   128
 71
    23
 72
    22
 73
    21
  0
VERTEX
  5
3F8
  8
0
 62
     9
 10
0.0
 20
0.0
 30
0.0
 70
   128
 71
    26
 72
    25
 73
    24
  0
VERTEX
  5
3F9
  8
0
 62
     9
 10
0.0
 20
0.0
 30
0.0
 70
   128
 71
    28
 72
    24
 73
    27
  0
VERTEX
  5
3FA
  8
0
 62
     9
 10
0.0
 20
0.0
 30
0.0
 70
   128
 71
    31
 72
    30
 73
    29
  0
VERTEX
  5
3FB
  8
0
 62
     9
 10
0.0
 20
0.0
 30
0.0
 70
   128
 71
    34
 72
    33
 73
    32
  0
VERTEX
  5
3FC
  8
0
 62
     9
 10
0.0
 20
0.0
 30
0.0
 70
   128
 71
    31
 72
    36
 73
    35
  0
VERTEX
  5
3FD
  8
0
 62
     9
 10
0.0
 20
0.0
 30
0.0
 70
   128
 71
    37
 72
    36
 73
    31
  0
VERTEX
  5
3FE
  8
0
 62
     9
 10
0.0
 20
0.0
 30
0.0
 70
   128
 71
    37
 72
    38
 73
    36
  0
VERTEX
  5
3FF
  8
0
 62
     9
 10
0.0
 20
0.0
 30
0.0
 70
   128
 71
    39
 72
    29
 73
    30
  0
VERTEX
  5
400
  8
0
 62
     9
 10
0.0
 20
0.0
 30
0.0
 70
   128
 71
    41
 72
    40
 73
    12
  0
VERTEX
  5
401
  8
0
 62
     9
 10
0.0
 20
0.0
 30
0.0
 70
   128
 71
    42
 72
    30
 73
    12
  0
VERTEX
  5
402
  8
0
 62
     9
 10
0.0
 20
0.0
 30
0.0
 70
   128
 71
    40
 72
    41
 73
    43
  0
VERTEX
  5
403
  8
0
 62
     9
 10
0.0
 20
0.0
 30
0.0
 70
   128
 71
    24
 72
    28
 73
    44
  0
VERTEX
  5
404
  8
0
 62
     9
 10
0.0
 20
0.0
 30
0.0
 70
   128
 71
    44
 72
    45
 73
    14
  0
VERTEX
  5
405
  8
0
 62
     9
 10
0.0
 20
0.0
 30
0.0
 70
   128
 71
    47
 72
    26
 73
    46
  0
VERTEX
  5
406
  8
0
 62
     9
 10
0.0
 20
0.0
 30
0.0
 70
   128
 71
    24
 72
    44
 73
    34
  0
VERTEX
  5
407
  8
0
 62
     9
 10
0.0
 20
0.0
 30
0.0
 70
   128
 71
    20
 72
    25
 73
    47
  0
VERTEX
  5
408
  8
0
 62
     9
 10
0.0
 20
0.0
 30
0.0
 70
   128
 71
    15
 72
    16
 73
    23
  0
VERTEX
  5
409
  8
0
 62
     9
 10
0.0
 20
0.0
 30
0.0
 70
   128
 71
    22
 72
    48
 73
    21
  0
VERTEX
  5
40A
  8
0
 62
     9
 10
0.0
 20
0.0
 30
0.0
 70
   128
 71
    31
 72
    41
 73
    30
  0
VERTEX
  5
40B
  8
0
 62
     9
 10
0.0
 20
0.0
 30
0.0
 70
   128
 71
    37
 72
    31
 73
    29
  0
VERTEX
  5
40C
  8
0
 62
     9
 10
0.0
 20
0.0
 30
0.0
 70
   128
 71
    41
 72
    31
 73
    35
  0
VERTEX
  5
40D
  8
0
 62
     9
 10
0.0
 20
0.0
 30
0.0
 70
   128
 71
    30
 72
    42
 73
    39
  0
VERTEX
  5
40E
  8
0
 62
     9
 10
0.0
 20
0.0
 30
0.0
 70
   128
 71
    43
 72
    41
 73
    35
  0
VERTEX
  5
40F
  8
0
 62
     9
 10
0.0
 20
0.0
 30
0.0
 70
   128
 71
    43
 72
    49
 73
    40
  0
VERTEX
  5
410
  8
0
 62
     9
 10
0.0
 20
0.0
 30
0.0
 70
   128
 71
    12
 72
    13
 73
    42
  0
VERTEX
  5
411
  8
0
 62
     9
 10
0.0
 20
0.0
 30
0.0
 70
   128
 71
    41
 72
    12
 73
    30
  0
VERTEX
  5
412
  8
0
 62
     9
 10
0.0
 20
0.0
 30
0.0
 70
   128
 71
    32
 72
    33
 73
    49
  0
VERTEX
  5
413
  8
0
 62
     9
 10
0.0
 20
0.0
 30
0.0
 70
   128
 71
    33
 72
    14
 73
    40
  0
VERTEX
  5
414
  8
0
 62
     9
 10
0.0
 20
0.0
 30
0.0
 70
   128
 71
    14
 72
    45
 73
    13
  0
VERTEX
  5
415
  8
0
 62
     9
 10
0.0
 20
0.0
 30
0.0
 70
   128
 71
    40
 72
    14
 73
    12
  0
VERTEX
  5
416
  8
0
 62
     9
 10
0.0
 20
0.0
 30
0.0
 70
   128
 71
    33
 72
    40
 73
    49
  0
VERTEX
  5
417
  8
0
 62
     9
 10
0.0
 20
0.0
 30
0.0
 70
   128
 71
    33
 72
    34
 73
    44
  0
VERTEX
  5
418
  8
0
 62
     9
 10
0.0
 20
0.0
 30
0.0
 70
   128
 71
    44
 72
    28
 73
    45
  0
VERTEX
  5
419
  8
0
 62
     9
 10
0.0
 20
0.0
 30
0.0
 70
   128
 71
    33
 72
    44
 73
    14
  0
VERTEX
  5
41A
  8
0
 62
     9
 10
0.0
 20
0.0
 30
0.0
 70
   128
 71
    50
 72
    34
 73
    32
  0
VERTEX
  5
41B
  8
0
 62
     9
 10
0.0
 20
0.0
 30
0.0
 70
   128
 71
    26
 72
    47
 73
    25
  0
VERTEX
  5
41C
  8
0
 62
     9
 10
0.0
 20
0.0
 30
0.0
 70
   128
 71
    50
 72
    26
 73
    34
  0
VERTEX
  5
41D
  8
0
 62
     9
 10
0.0
 20
0.0
 30
0.0
 70
   128
 71
    24
 72
    25
 73
    27
  0
VERTEX
  5
41E
  8
0
 62
     9
 10
0.0
 20
0.0
 30
0.0
 70
   128
 71
    26
 72
    24
 73
    34
  0
VERTEX
  5
41F
  8
0
 62
     9
 10
0.0
 20
0.0
 30
0.0
 70
   128
 71
    46
 72
    26
 73
    50
  0
VERTEX
  5
420
  8
0
 62
     9
 10
0.0
 20
0.0
 30
0.0
 70
   128
 71
    25
 72
    20
 73
    18
  0
VERTEX
  5
421
  8
0
 62
     9
 10
0.0
 20
0.0
 30
0.0
 70
   128
 71
    18
 72
    27
 73
    25
  0
VERTEX
  5
422
  8
0
 62
     9
 10
0.0
 20
0.0
 30
0.0
 70
   128
 71
    51
 72
    47
 73
    46
  0
VERTEX
  5
423
  8
0
 62
     9
 10
0.0
 20
0.0
 30
0.0
 70
   128
 71
    51
 72
    48
 73
    22
  0
VERTEX
  5
424
  8
0
 62
     9
 10
0.0
 20
0.0
 30
0.0
 70
   128
 71
    15
 72
    23
 73
    21
  0
VERTEX
  5
425
  8
0
 62
     9
 10
0.0
 20
0.0
 30
0.0
 70
   128
 71
    20
 72
    23
 73
    19
  0
VERTEX
  5
426
  8
0
 62
     9
 10
0.0
 20
0.0
 30
0.0
 70
   128
 71
    51
 72
    22
 73
    47
  0
VERTEX
  5
427
  8
0
 62
     9
 10
0.0
 20
0.0
 30
0.0
 70
   128
 71
    47
 72
    22
 73
    20
  0
VERTEX
  5
428
  8
0
 62
     9
 10
0.0
 20
0.0
 30
0.0
 70
   128
 71
    23
 72
    16
 73
    19
  0
VERTEX
  5
429
  8
0
 62
     9
 10
0.0
 20
0.0
 30
0.0
 70
   128
 71
    22
 72
    23
 73
    20
  0
VERTEX
  5
42A
  8
0
 62
     9
 10
0.0
 20
0.0
 30
0.0
 70
   128
 71
    52
 72
    17
 73
    15
  0
VERTEX
  5
42B
  8
0
 62
     9
 10
0.0
 20
0.0
 30
0.0
 70
   128
 71
    55
 72
    54
 73
    53
  0
VERTEX
  5
42C
  8
0
 62
     9
 10
0.0
 20
0.0
 30
0.0
 70
   128
 71
    21
 72
    55
 73
    56
  0
VERTEX
  5
42D
  8
0
 62
     9
 10
0.0
 20
0.0
 30
0.0
 70
   128
 71
    56
 72
    15
 73
    21
  0
VERTEX
  5
42E
  8
0
 62
     9
 10
0.0
 20
0.0
 30
0.0
 70
   128
 71
    15
 72
    56
 73
    52
  0
VERTEX
  5
42F
  8
0
 62
     9
 10
0.0
 20
0.0
 30
0.0
 70
   128
 71
    48
 72
    57
 73
    55
  0
VERTEX
  5
430
  8
0
 62
     9
 10
0.0
 20
0.0
 30
0.0
 70
   128
 71
    56
 72
    55
 73
    53
  0
VERTEX
  5
431
  8
0
 62
     9
 10
0.0
 20
0.0
 30
0.0
 70
   128
 71
    55
 72
    21
 73
    48
  0
VERTEX
  5
432
  8
0
 62
     9
 10
0.0
 20
0.0
 30
0.0
 70
   128
 71
    55
 72
    57
 73
    54
  0
VERTEX
  5
433
  8
0
 62
     9
 10
0.0
 20
0.0
 30
0.0
 70
   128
 71
    60
 72
    59
 73
    58
  0
VERTEX
  5
434
  8
0
 62
     9
 10
0.0
 20
0.0
 30
0.0
 70
   128
 71
    63
 72
    62
 73
    61
  0
VERTEX
  5
435
  8
0
 62
     9
 10
0.0
 20
0.0
 30
0.0
 70
   128
 71
    63
 72
    61
 73
    64
  0
VERTEX
  5
436
  8
0
 62
     9
 10
0.0
 20
0.0
 30
0.0
 70
   128
 71
    64
 72
    61
 73
    65
  0
VERTEX
  5
437
  8
0
 62
     9
 10
0.0
 20
0.0
 30
0.0
 70
   128
 71
    68
 72
    67
 73
    66
  0
VERTEX
  5
438
  8
0
 62
     9
 10
0.0
 20
0.0
 30
0.0
 70
   128
 71
    71
 72
    70
 73
    69
  0
VERTEX
  5
439
  8
0
 62
     9
 10
0.0
 20
0.0
 30
0.0
 70
   128
 71
    73
 72
    69
 73
    72
  0
VERTEX
  5
43A
  8
0
 62
     9
 10
0.0
 20
0.0
 30
0.0
 70
   128
 71
    76
 72
    75
 73
    74
  0
VERTEX
  5
43B
  8
0
 62
     9
 10
0.0
 20
0.0
 30
0.0
 70
   128
 71
    74
 72
    77
 73
    76
  0
VERTEX
  5
43C
  8
0
 62
     9
 10
0.0
 20
0.0
 30
0.0
 70
   128
 71
    74
 72
    75
 73
    78
  0
VERTEX
  5
43D
  8
0
 62
     9
 10
0.0
 20
0.0
 30
0.0
 70
   128
 71
    80
 72
    79
 73
    76
  0
VERTEX
  5
43E
  8
0
 62
     9
 10
0.0
 20
0.0
 30
0.0
 70
   128
 71
    76
 72
    77
 73
    81
  0
VERTEX
  5
43F
  8
0
 62
     9
 10
0.0
 20
0.0
 30
0.0
 70
   128
 71
    77
 72
    39
 73
    81
  0
VERTEX
  5
440
  8
0
 62
     9
 10
0.0
 20
0.0
 30
0.0
 70
   128
 71
    82
 72
    72
 73
    69
  0
VERTEX
  5
441
  8
0
 62
     9
 10
0.0
 20
0.0
 30
0.0
 70
   128
 71
    84
 72
    83
 73
    71
  0
VERTEX
  5
442
  8
0
 62
     9
 10
0.0
 20
0.0
 30
0.0
 70
   128
 71
    68
 72
    66
 73
    85
  0
VERTEX
  5
443
  8
0
 62
     9
 10
0.0
 20
0.0
 30
0.0
 70
   128
 71
    85
 72
    69
 73
    73
  0
VERTEX
  5
444
  8
0
 62
     9
 10
0.0
 20
0.0
 30
0.0
 70
   128
 71
    59
 72
    87
 73
    86
  0
VERTEX
  5
445
  8
0
 62
     9
 10
0.0
 20
0.0
 30
0.0
 70
   128
 71
    89
 72
    88
 73
    73
  0
VERTEX
  5
446
  8
0
 62
     9
 10
0.0
 20
0.0
 30
0.0
 70
   128
 71
    65
 72
    90
 73
    86
  0
VERTEX
  5
447
  8
0
 62
     9
 10
0.0
 20
0.0
 30
0.0
 70
   128
 71
    60
 72
    87
 73
    59
  0
VERTEX
  5
448
  8
0
 62
     9
 10
0.0
 20
0.0
 30
0.0
 70
   128
 71
    87
 72
    92
 73
    91
  0
VERTEX
  5
449
  8
0
 62
     9
 10
0.0
 20
0.0
 30
0.0
 70
   128
 71
    86
 72
    87
 73
    64
  0
VERTEX
  5
44A
  8
0
 62
     9
 10
0.0
 20
0.0
 30
0.0
 70
   128
 71
    64
 72
    91
 73
    63
  0
VERTEX
  5
44B
  8
0
 62
     9
 10
0.0
 20
0.0
 30
0.0
 70
   128
 71
    87
 72
    60
 73
    92
  0
VERTEX
  5
44C
  8
0
 62
     9
 10
0.0
 20
0.0
 30
0.0
 70
   128
 71
    64
 72
    87
 73
    91
  0
VERTEX
  5
44D
  8
0
 62
     9
 10
0.0
 20
0.0
 30
0.0
 70
   128
 71
    86
 72
    64
 73
    65
  0
VERTEX
  5
44E
  8
0
 62
     9
 10
0.0
 20
0.0
 30
0.0
 70
   128
 71
    93
 72
    90
 73
    67
  0
VERTEX
  5
44F
  8
0
 62
     9
 10
0.0
 20
0.0
 30
0.0
 70
   128
 71
    90
 72
    93
 73
    86
  0
VERTEX
  5
450
  8
0
 62
     9
 10
0.0
 20
0.0
 30
0.0
 70
   128
 71
    59
 72
    88
 73
    58
  0
VERTEX
  5
451
  8
0
 62
     9
 10
0.0
 20
0.0
 30
0.0
 70
   128
 71
    93
 72
    59
 73
    86
  0
VERTEX
  5
452
  8
0
 62
     9
 10
0.0
 20
0.0
 30
0.0
 70
   128
 71
    68
 72
    88
 73
    93
  0
VERTEX
  5
453
  8
0
 62
     9
 10
0.0
 20
0.0
 30
0.0
 70
   128
 71
    88
 72
    89
 73
    58
  0
VERTEX
  5
454
  8
0
 62
     9
 10
0.0
 20
0.0
 30
0.0
 70
   128
 71
    93
 72
    88
 73
    59
  0
VERTEX
  5
455
  8
0
 62
     9
 10
0.0
 20
0.0
 30
0.0
 70
   128
 71
    68
 72
    93
 73
    67
  0
VERTEX
  5
456
  8
0
 62
     9
 10
0.0
 20
0.0
 30
0.0
 70
   128
 71
    68
 72
    85
 73
    73
  0
VERTEX
  5
457
  8
0
 62
     9
 10
0.0
 20
0.0
 30
0.0
 70
   128
 71
    73
 72
    72
 73
    89
  0
VERTEX
  5
458
  8
0
 62
     9
 10
0.0
 20
0.0
 30
0.0
 70
   128
 71
    68
 72
    73
 73
    88
  0
VERTEX
  5
459
  8
0
 62
     9
 10
0.0
 20
0.0
 30
0.0
 70
   128
 71
    94
 72
    85
 73
    66
  0
VERTEX
  5
45A
  8
0
 62
     9
 10
0.0
 20
0.0
 30
0.0
 70
   128
 71
    71
 72
    83
 73
    70
  0
VERTEX
  5
45B
  8
0
 62
     9
 10
0.0
 20
0.0
 30
0.0
 70
   128
 71
    94
 72
    71
 73
    85
  0
VERTEX
  5
45C
  8
0
 62
     9
 10
0.0
 20
0.0
 30
0.0
 70
   128
 71
    69
 72
    70
 73
    82
  0
VERTEX
  5
45D
  8
0
 62
     9
 10
0.0
 20
0.0
 30
0.0
 70
   128
 71
    71
 72
    69
 73
    85
  0
VERTEX
  5
45E
  8
0
 62
     9
 10
0.0
 20
0.0
 30
0.0
 70
   128
 71
    84
 72
    71
 73
    94
  0
VERTEX
  5
45F
  8
0
 62
     9
 10
0.0
 20
0.0
 30
0.0
 70
   128
 71
    70
 72
    79
 73
    95
  0
VERTEX
  5
460
  8
0
 62
     9
 10
0.0
 20
0.0
 30
0.0
 70
   128
 71
    95
 72
    82
 73
    70
  0
VERTEX
  5
461
  8
0
 62
     9
 10
0.0
 20
0.0
 30
0.0
 70
   128
 71
    96
 72
    83
 73
    84
  0
VERTEX
  5
462
  8
0
 62
     9
 10
0.0
 20
0.0
 30
0.0
 70
   128
 71
    96
 72
    78
 73
    75
  0
VERTEX
  5
463
  8
0
 62
     9
 10
0.0
 20
0.0
 30
0.0
 70
   128
 71
    79
 72
    80
 73
    95
  0
VERTEX
  5
464
  8
0
 62
     9
 10
0.0
 20
0.0
 30
0.0
 70
   128
 71
    83
 72
    79
 73
    70
  0
VERTEX
  5
465
  8
0
 62
     9
 10
0.0
 20
0.0
 30
0.0
 70
   128
 71
    96
 72
    75
 73
    83
  0
VERTEX
  5
466
  8
0
 62
     9
 10
0.0
 20
0.0
 30
0.0
 70
   128
 71
    83
 72
    75
 73
    79
  0
VERTEX
  5
467
  8
0
 62
     9
 10
0.0
 20
0.0
 30
0.0
 70
   128
 71
    76
 72
    81
 73
    80
  0
VERTEX
  5
468
  8
0
 62
     9
 10
0.0
 20
0.0
 30
0.0
 70
   128
 71
    75
 72
    76
 73
    79
  0
VERTEX
  5
469
  8
0
 62
     9
 10
0.0
 20
0.0
 30
0.0
 70
   128
 71
    99
 72
    98
 73
    97
  0
VERTEX
  5
46A
  8
0
 62
     9
 10
0.0
 20
0.0
 30
0.0
 70
   128
 71
   102
 72
   101
 73
   100
  0
VERTEX
  5
46B
  8
0
 62
     9
 10
0.0
 20
0.0
 30
0.0
 70
   128
 71
   102
 72
   103
 73
   101
  0
VERTEX
  5
46C
  8
0
 62
     9
 10
0.0
 20
0.0
 30
0.0
 70
   128
 71
   100
 72
   105
 73
   104
  0
VERTEX
  5
46D
  8
0
 62
     9
 10
0.0
 20
0.0
 30
0.0
 70
   128
 71
   108
 72
   107
 73
   106
  0
VERTEX
  5
46E
  8
0
 62
     9
 10
0.0
 20
0.0
 30
0.0
 70
   128
 71
   110
 72
   109
 73
   108
  0
VERTEX
  5
46F
  8
0
 62
     9
 10
0.0
 20
0.0
 30
0.0
 70
   128
 71
   113
 72
   112
 73
   111
  0
VERTEX
  5
470
  8
0
 62
     9
 10
0.0
 20
0.0
 30
0.0
 70
   128
 71
   115
 72
    99
 73
   114
  0
VERTEX
  5
471
  8
0
 62
     9
 10
0.0
 20
0.0
 30
0.0
 70
   128
 71
   116
 72
    56
 73
   113
  0
VERTEX
  5
472
  8
0
 62
     9
 10
0.0
 20
0.0
 30
0.0
 70
   128
 71
    52
 72
    56
 73
   116
  0
VERTEX
  5
473
  8
0
 62
     9
 10
0.0
 20
0.0
 30
0.0
 70
   128
 71
    53
 72
   112
 73
   113
  0
VERTEX
  5
474
  8
0
 62
     9
 10
0.0
 20
0.0
 30
0.0
 70
   128
 71
   117
 72
    17
 73
    52
  0
VERTEX
  5
475
  8
0
 62
     9
 10
0.0
 20
0.0
 30
0.0
 70
   128
 71
    53
 72
   113
 73
    56
  0
VERTEX
  5
476
  8
0
 62
     9
 10
0.0
 20
0.0
 30
0.0
 70
   128
 71
   112
 72
    53
 73
    54
  0
VERTEX
  5
477
  8
0
 62
     9
 10
0.0
 20
0.0
 30
0.0
 70
   128
 71
   114
 72
   119
 73
   118
  0
VERTEX
  5
478
  8
0
 62
     9
 10
0.0
 20
0.0
 30
0.0
 70
   128
 71
   114
 72
    97
 73
   119
  0
VERTEX
  5
479
  8
0
 62
     9
 10
0.0
 20
0.0
 30
0.0
 70
   128
 71
     9
 72
    11
 73
   120
  0
VERTEX
  5
47A
  8
0
 62
     9
 10
0.0
 20
0.0
 30
0.0
 70
   128
 71
   108
 72
   122
 73
   121
  0
VERTEX
  5
47B
  8
0
 62
     9
 10
0.0
 20
0.0
 30
0.0
 70
   128
 71
   121
 72
   123
 73
    99
  0
VERTEX
  5
47C
  8
0
 62
     9
 10
0.0
 20
0.0
 30
0.0
 70
   128
 71
   121
 72
   115
 73
   110
  0
VERTEX
  5
47D
  8
0
 62
     9
 10
0.0
 20
0.0
 30
0.0
 70
   128
 71
   124
 72
   107
 73
   103
  0
VERTEX
  5
47E
  8
0
 62
     9
 10
0.0
 20
0.0
 30
0.0
 70
   128
 71
   109
 72
   125
 73
   107
  0
VERTEX
  5
47F
  8
0
 62
     9
 10
0.0
 20
0.0
 30
0.0
 70
   128
 71
     9
 72
   120
 73
   126
  0
VERTEX
  5
480
  8
0
 62
     9
 10
0.0
 20
0.0
 30
0.0
 70
   128
 71
   126
 72
   101
 73
   103
  0
VERTEX
  5
481
  8
0
 62
     9
 10
0.0
 20
0.0
 30
0.0
 70
   128
 71
   111
 72
   118
 73
   119
  0
VERTEX
  5
482
  8
0
 62
     9
 10
0.0
 20
0.0
 30
0.0
 70
   128
 71
   116
 72
   117
 73
    52
  0
VERTEX
  5
483
  8
0
 62
     9
 10
0.0
 20
0.0
 30
0.0
 70
   128
 71
   111
 72
   119
 73
   113
  0
VERTEX
  5
484
  8
0
 62
     9
 10
0.0
 20
0.0
 30
0.0
 70
   128
 71
   116
 72
    97
 73
   117
  0
VERTEX
  5
485
  8
0
 62
     9
 10
0.0
 20
0.0
 30
0.0
 70
   128
 71
   119
 72
   116
 73
   113
  0
VERTEX
  5
486
  8
0
 62
     9
 10
0.0
 20
0.0
 30
0.0
 70
   128
 71
   127
 72
   114
 73
   118
  0
VERTEX
  5
487
  8
0
 62
     9
 10
0.0
 20
0.0
 30
0.0
 70
   128
 71
    97
 72
    98
 73
   117
  0
VERTEX
  5
488
  8
0
 62
     9
 10
0.0
 20
0.0
 30
0.0
 70
   128
 71
   119
 72
    97
 73
   116
  0
VERTEX
  5
489
  8
0
 62
     9
 10
0.0
 20
0.0
 30
0.0
 70
   128
 71
     6
 72
   115
 73
   127
  0
VERTEX
  5
48A
  8
0
 62
     9
 10
0.0
 20
0.0
 30
0.0
 70
   128
 71
   114
 72
   127
 73
   115
  0
VERTEX
  5
48B
  8
0
 62
     9
 10
0.0
 20
0.0
 30
0.0
 70
   128
 71
    99
 72
   123
 73
    98
  0
VERTEX
  5
48C
  8
0
 62
     9
 10
0.0
 20
0.0
 30
0.0
 70
   128
 71
   114
 72
    99
 73
    97
  0
VERTEX
  5
48D
  8
0
 62
     9
 10
0.0
 20
0.0
 30
0.0
 70
   128
 71
     4
 72
   110
 73
     6
  0
VERTEX
  5
48E
  8
0
 62
     9
 10
0.0
 20
0.0
 30
0.0
 70
   128
 71
   115
 72
     6
 73
   110
  0
VERTEX
  5
48F
  8
0
 62
     9
 10
0.0
 20
0.0
 30
0.0
 70
   128
 71
   121
 72
   122
 73
   123
  0
VERTEX
  5
490
  8
0
 62
     9
 10
0.0
 20
0.0
 30
0.0
 70
   128
 71
   115
 72
   121
 73
    99
  0
VERTEX
  5
491
  8
0
 62
     9
 10
0.0
 20
0.0
 30
0.0
 70
   128
 71
     1
 72
   109
 73
     4
  0
VERTEX
  5
492
  8
0
 62
     9
 10
0.0
 20
0.0
 30
0.0
 70
   128
 71
   110
 72
     4
 73
   109
  0
VERTEX
  5
493
  8
0
 62
     9
 10
0.0
 20
0.0
 30
0.0
 70
   128
 71
   108
 72
   106
 73
   122
  0
VERTEX
  5
494
  8
0
 62
     9
 10
0.0
 20
0.0
 30
0.0
 70
   128
 71
   110
 72
   108
 73
   121
  0
VERTEX
  5
495
  8
0
 62
     9
 10
0.0
 20
0.0
 30
0.0
 70
   128
 71
     7
 72
   125
 73
     1
  0
VERTEX
  5
496
  8
0
 62
     9
 10
0.0
 20
0.0
 30
0.0
 70
   128
 71
   109
 72
     1
 73
   125
  0
VERTEX
  5
497
  8
0
 62
     9
 10
0.0
 20
0.0
 30
0.0
 70
   128
 71
   107
 72
   124
 73
   106
  0
VERTEX
  5
498
  8
0
 62
     9
 10
0.0
 20
0.0
 30
0.0
 70
   128
 71
   109
 72
   107
 73
   108
  0
VERTEX
  5
499
  8
0
 62
     9
 10
0.0
 20
0.0
 30
0.0
 70
   128
 71
     7
 72
     9
 73
   126
  0
VERTEX
  5
49A
  8
0
 62
     9
 10
0.0
 20
0.0
 30
0.0
 70
   128
 71
   120
 72
   105
 73
   101
  0
VERTEX
  5
49B
  8
0
 62
     9
 10
0.0
 20
0.0
 30
0.0
 70
   128
 71
   103
 72
   102
 73
   124
  0
VERTEX
  5
49C
  8
0
 62
     9
 10
0.0
 20
0.0
 30
0.0
 70
   128
 71
   125
 72
   103
 73
   107
  0
VERTEX
  5
49D
  8
0
 62
     9
 10
0.0
 20
0.0
 30
0.0
 70
   128
 71
   126
 72
   125
 73
     7
  0
VERTEX
  5
49E
  8
0
 62
     9
 10
0.0
 20
0.0
 30
0.0
 70
   128
 71
   125
 72
   126
 73
   103
  0
VERTEX
  5
49F
  8
0
 62
     9
 10
0.0
 20
0.0
 30
0.0
 70
   128
 71
   100
 72
   101
 73
   105
  0
VERTEX
  5
4A0
  8
0
 62
     9
 10
0.0
 20
0.0
 30
0.0
 70
   128
 71
   101
 72
   126
 73
   120
  0
VERTEX
  5
4A1
  8
0
 62
     9
 10
0.0
 20
0.0
 30
0.0
 70
   128
 71
   128
 72
   120
 73
    11
  0
VERTEX
  5
4A2
  8
0
 62
     9
 10
0.0
 20
0.0
 30
0.0
 70
   128
 71
   104
 72
   105
 73
   129
  0
VERTEX
  5
4A3
  8
0
 62
     9
 10
0.0
 20
0.0
 30
0.0
 70
   128
 71
   128
 72
   129
 73
   130
  0
VERTEX
  5
4A4
  8
0
 62
     9
 10
0.0
 20
0.0
 30
0.0
 70
   128
 71
   133
 72
   132
 73
   131
  0
VERTEX
  5
4A5
  8
0
 62
     9
 10
0.0
 20
0.0
 30
0.0
 70
   128
 71
   130
 72
   120
 73
   128
  0
VERTEX
  5
4A6
  8
0
 62
     9
 10
0.0
 20
0.0
 30
0.0
 70
   128
 71
   128
 72
    11
 73
   131
  0
VERTEX
  5
4A7
  8
0
 62
     9
 10
0.0
 20
0.0
 30
0.0
 70
   128
 71
   132
 72
   128
 73
   131
  0
VERTEX
  5
4A8
  8
0
 62
     9
 10
0.0
 20
0.0
 30
0.0
 70
   128
 71
   128
 72
   132
 73
   129
  0
VERTEX
  5
4A9
  8
0
 62
     9
 10
0.0
 20
0.0
 30
0.0
 70
   128
 71
   105
 72
   130
 73
   129
  0
VERTEX
  5
4AA
  8
0
 62
     9
 10
0.0
 20
0.0
 30
0.0
 70
   128
 71
   120
 72
   130
 73
   105
  0
VERTEX
  5
4AB
  8
0
 62
     9
 10
0.0
 20
0.0
 30
0.0
 70
   128
 71
   136
 72
   135
 73
   134
  0
VERTEX
  5
4AC
  8
0
 62
     9
 10
0.0
 20
0.0
 30
0.0
 70
   128
 71
   133
 72
   137
 73
   132
  0
VERTEX
  5
4AD
  8
0
 62
     9
 10
0.0
 20
0.0
 30
0.0
 70
   128
 71
   139
 72
   138
 73
   137
  0
VERTEX
  5
4AE
  8
0
 62
     9
 10
0.0
 20
0.0
 30
0.0
 70
   128
 71
   141
 72
   140
 73
   138
  0
VERTEX
  5
4AF
  8
0
 62
     9
 10
0.0
 20
0.0
 30
0.0
 70
   128
 71
   142
 72
   135
 73
   136
  0
VERTEX
  5
4B0
  8
0
 62
     9
 10
0.0
 20
0.0
 30
0.0
 70
   128
 71
   145
 72
   144
 73
   143
  0
VERTEX
  5
4B1
  8
0
 62
     9
 10
0.0
 20
0.0
 30
0.0
 70
   128
 71
   148
 72
   147
 73
   146
  0
VERTEX
  5
4B2
  8
0
 62
     9
 10
0.0
 20
0.0
 30
0.0
 70
   128
 71
   151
 72
   150
 73
   149
  0
VERTEX
  5
4B3
  8
0
 62
     9
 10
0.0
 20
0.0
 30
0.0
 70
   128
 71
   151
 72
   152
 73
    92
  0
VERTEX
  5
4B4
  8
0
 62
     9
 10
0.0
 20
0.0
 30
0.0
 70
   128
 71
   155
 72
   154
 73
   153
  0
VERTEX
  5
4B5
  8
0
 62
     9
 10
0.0
 20
0.0
 30
0.0
 70
   128
 71
   150
 72
   156
 73
   149
  0
VERTEX
  5
4B6
  8
0
 62
     9
 10
0.0
 20
0.0
 30
0.0
 70
   128
 71
   155
 72
   152
 73
   149
  0
VERTEX
  5
4B7
  8
0
 62
     9
 10
0.0
 20
0.0
 30
0.0
 70
   128
 71
   156
 72
   154
 73
   149
  0
VERTEX
  5
4B8
  8
0
 62
     9
 10
0.0
 20
0.0
 30
0.0
 70
   128
 71
   157
 72
   147
 73
   143
  0
VERTEX
  5
4B9
  8
0
 62
     9
 10
0.0
 20
0.0
 30
0.0
 70
   128
 71
   143
 72
   156
 73
   158
  0
VERTEX
  5
4BA
  8
0
 62
     9
 10
0.0
 20
0.0
 30
0.0
 70
   128
 71
   161
 72
   160
 73
   159
  0
VERTEX
  5
4BB
  8
0
 62
     9
 10
0.0
 20
0.0
 30
0.0
 70
   128
 71
   159
 72
   145
 73
   147
  0
VERTEX
  5
4BC
  8
0
 62
     9
 10
0.0
 20
0.0
 30
0.0
 70
   128
 71
   162
 72
   142
 73
   141
  0
VERTEX
  5
4BD
  8
0
 62
     9
 10
0.0
 20
0.0
 30
0.0
 70
   128
 71
   163
 72
   134
 73
   135
  0
VERTEX
  5
4BE
  8
0
 62
     9
 10
0.0
 20
0.0
 30
0.0
 70
   128
 71
   129
 72
   138
 73
   140
  0
VERTEX
  5
4BF
  8
0
 62
     9
 10
0.0
 20
0.0
 30
0.0
 70
   128
 71
   138
 72
   139
 73
   141
  0
VERTEX
  5
4C0
  8
0
 62
     9
 10
0.0
 20
0.0
 30
0.0
 70
   128
 71
   140
 72
   104
 73
   129
  0
VERTEX
  5
4C1
  8
0
 62
     9
 10
0.0
 20
0.0
 30
0.0
 70
   128
 71
   132
 72
   138
 73
   129
  0
VERTEX
  5
4C2
  8
0
 62
     9
 10
0.0
 20
0.0
 30
0.0
 70
   128
 71
   138
 72
   132
 73
   137
  0
VERTEX
  5
4C3
  8
0
 62
     9
 10
0.0
 20
0.0
 30
0.0
 70
   128
 71
   140
 72
   136
 73
   164
  0
VERTEX
  5
4C4
  8
0
 62
     9
 10
0.0
 20
0.0
 30
0.0
 70
   128
 71
   164
 72
   104
 73
   140
  0
VERTEX
  5
4C5
  8
0
 62
     9
 10
0.0
 20
0.0
 30
0.0
 70
   128
 71
   162
 72
   141
 73
   139
  0
VERTEX
  5
4C6
  8
0
 62
     9
 10
0.0
 20
0.0
 30
0.0
 70
   128
 71
   141
 72
   142
 73
   136
  0
VERTEX
  5
4C7
  8
0
 62
     9
 10
0.0
 20
0.0
 30
0.0
 70
   128
 71
   136
 72
   134
 73
   164
  0
VERTEX
  5
4C8
  8
0
 62
     9
 10
0.0
 20
0.0
 30
0.0
 70
   128
 71
   141
 72
   136
 73
   140
  0
VERTEX
  5
4C9
  8
0
 62
     9
 10
0.0
 20
0.0
 30
0.0
 70
   128
 71
   165
 72
   142
 73
   162
  0
VERTEX
  5
4CA
  8
0
 62
     9
 10
0.0
 20
0.0
 30
0.0
 70
   128
 71
   161
 72
   159
 73
   148
  0
VERTEX
  5
4CB
  8
0
 62
     9
 10
0.0
 20
0.0
 30
0.0
 70
   128
 71
   165
 72
   161
 73
   142
  0
VERTEX
  5
4CC
  8
0
 62
     9
 10
0.0
 20
0.0
 30
0.0
 70
   128
 71
   135
 72
   148
 73
   163
  0
VERTEX
  5
4CD
  8
0
 62
     9
 10
0.0
 20
0.0
 30
0.0
 70
   128
 71
   161
 72
   135
 73
   142
  0
VERTEX
  5
4CE
  8
0
 62
     9
 10
0.0
 20
0.0
 30
0.0
 70
   128
 71
   160
 72
   161
 73
   165
  0
VERTEX
  5
4CF
  8
0
 62
     9
 10
0.0
 20
0.0
 30
0.0
 70
   128
 71
   148
 72
   146
 73
   163
  0
VERTEX
  5
4D0
  8
0
 62
     9
 10
0.0
 20
0.0
 30
0.0
 70
   128
 71
   161
 72
   148
 73
   135
  0
VERTEX
  5
4D1
  8
0
 62
     9
 10
0.0
 20
0.0
 30
0.0
 70
   128
 71
   167
 72
   145
 73
   166
  0
VERTEX
  5
4D2
  8
0
 62
     9
 10
0.0
 20
0.0
 30
0.0
 70
   128
 71
   166
 72
   159
 73
   160
  0
VERTEX
  5
4D3
  8
0
 62
     9
 10
0.0
 20
0.0
 30
0.0
 70
   128
 71
   147
 72
   157
 73
   146
  0
VERTEX
  5
4D4
  8
0
 62
     9
 10
0.0
 20
0.0
 30
0.0
 70
   128
 71
   159
 72
   147
 73
   148
  0
VERTEX
  5
4D5
  8
0
 62
     9
 10
0.0
 20
0.0
 30
0.0
 70
   128
 71
   168
 72
   144
 73
   167
  0
VERTEX
  5
4D6
  8
0
 62
     9
 10
0.0
 20
0.0
 30
0.0
 70
   128
 71
   145
 72
   159
 73
   166
  0
VERTEX
  5
4D7
  8
0
 62
     9
 10
0.0
 20
0.0
 30
0.0
 70
   128
 71
   143
 72
   158
 73
   157
  0
VERTEX
  5
4D8
  8
0
 62
     9
 10
0.0
 20
0.0
 30
0.0
 70
   128
 71
   145
 72
   143
 73
   147
  0
VERTEX
  5
4D9
  8
0
 62
     9
 10
0.0
 20
0.0
 30
0.0
 70
   128
 71
   168
 72
   153
 73
   154
  0
VERTEX
  5
4DA
  8
0
 62
     9
 10
0.0
 20
0.0
 30
0.0
 70
   128
 71
   144
 72
   145
 73
   167
  0
VERTEX
  5
4DB
  8
0
 62
     9
 10
0.0
 20
0.0
 30
0.0
 70
   128
 71
   156
 72
   150
 73
   158
  0
VERTEX
  5
4DC
  8
0
 62
     9
 10
0.0
 20
0.0
 30
0.0
 70
   128
 71
   144
 72
   156
 73
   143
  0
VERTEX
  5
4DD
  8
0
 62
     9
 10
0.0
 20
0.0
 30
0.0
 70
   128
 71
   168
 72
   154
 73
   144
  0
VERTEX
  5
4DE
  8
0
 62
     9
 10
0.0
 20
0.0
 30
0.0
 70
   128
 71
   144
 72
   154
 73
   156
  0
VERTEX
  5
4DF
  8
0
 62
     9
 10
0.0
 20
0.0
 30
0.0
 70
   128
 71
   151
 72
   149
 73
   152
  0
VERTEX
  5
4E0
  8
0
 62
     9
 10
0.0
 20
0.0
 30
0.0
 70
   128
 71
   149
 72
   154
 73
   155
  0
VERTEX
  5
4E1
  8
0
 62
     9
 10
0.0
 20
0.0
 30
0.0
 70
   128
 71
   169
 72
   153
 73
   168
  0
VERTEX
  5
4E2
  8
0
 62
     9
 10
0.0
 20
0.0
 30
0.0
 70
   128
 71
   170
 72
   166
 73
   160
  0
VERTEX
  5
4E3
  8
0
 62
     9
 10
0.0
 20
0.0
 30
0.0
 70
   128
 71
   172
 72
   171
 73
   167
  0
VERTEX
  5
4E4
  8
0
 62
     9
 10
0.0
 20
0.0
 30
0.0
 70
   128
 71
   174
 72
   162
 73
   173
  0
VERTEX
  5
4E5
  8
0
 62
     9
 10
0.0
 20
0.0
 30
0.0
 70
   128
 71
   165
 72
   174
 73
   170
  0
VERTEX
  5
4E6
  8
0
 62
     9
 10
0.0
 20
0.0
 30
0.0
 70
   128
 71
   175
 72
   139
 73
   137
  0
VERTEX
  5
4E7
  8
0
 62
     9
 10
0.0
 20
0.0
 30
0.0
 70
   128
 71
   139
 72
   175
 73
   173
  0
VERTEX
  5
4E8
  8
0
 62
     9
 10
0.0
 20
0.0
 30
0.0
 70
   128
 71
   133
 72
   176
 73
   137
  0
VERTEX
  5
4E9
  8
0
 62
     9
 10
0.0
 20
0.0
 30
0.0
 70
   128
 71
   175
 72
   137
 73
   176
  0
VERTEX
  5
4EA
  8
0
 62
     9
 10
0.0
 20
0.0
 30
0.0
 70
   128
 71
   174
 72
   165
 73
   162
  0
VERTEX
  5
4EB
  8
0
 62
     9
 10
0.0
 20
0.0
 30
0.0
 70
   128
 71
   162
 72
   139
 73
   173
  0
VERTEX
  5
4EC
  8
0
 62
     9
 10
0.0
 20
0.0
 30
0.0
 70
   128
 71
   166
 72
   170
 73
   172
  0
VERTEX
  5
4ED
  8
0
 62
     9
 10
0.0
 20
0.0
 30
0.0
 70
   128
 71
   160
 72
   165
 73
   170
  0
VERTEX
  5
4EE
  8
0
 62
     9
 10
0.0
 20
0.0
 30
0.0
 70
   128
 71
   171
 72
   168
 73
   167
  0
VERTEX
  5
4EF
  8
0
 62
     9
 10
0.0
 20
0.0
 30
0.0
 70
   128
 71
   172
 72
   167
 73
   166
  0
VERTEX
  5
4F0
  8
0
 62
     9
 10
0.0
 20
0.0
 30
0.0
 70
   128
 71
   168
 72
   171
 73
   169
  0
VERTEX
  5
4F1
  8
0
 62
     9
 10
0.0
 20
0.0
 30
0.0
 70
   128
 71
     5
 72
     6
 73
   127
  0
VERTEX
  5
4F2
  8
0
 62
     9
 10
0.0
 20
0.0
 30
0.0
 70
   128
 71
   178
 72
   177
 73
   111
  0
VERTEX
  5
4F3
  8
0
 62
     9
 10
0.0
 20
0.0
 30
0.0
 70
   128
 71
   177
 72
   179
 73
   118
  0
VERTEX
  5
4F4
  8
0
 62
     9
 10
0.0
 20
0.0
 30
0.0
 70
   128
 71
    54
 72
   180
 73
   112
  0
VERTEX
  5
4F5
  8
0
 62
     9
 10
0.0
 20
0.0
 30
0.0
 70
   128
 71
   178
 72
   112
 73
   180
  0
VERTEX
  5
4F6
  8
0
 62
     9
 10
0.0
 20
0.0
 30
0.0
 70
   128
 71
   177
 72
   118
 73
   111
  0
VERTEX
  5
4F7
  8
0
 62
     9
 10
0.0
 20
0.0
 30
0.0
 70
   128
 71
   178
 72
   111
 73
   112
  0
VERTEX
  5
4F8
  8
0
 62
     9
 10
0.0
 20
0.0
 30
0.0
 70
   128
 71
   179
 72
     5
 73
   127
  0
VERTEX
  5
4F9
  8
0
 62
     9
 10
0.0
 20
0.0
 30
0.0
 70
   128
 71
   179
 72
   127
 73
   118
  0
VERTEX
  5
4FA
  8
0
 62
     9
 10
0.0
 20
0.0
 30
0.0
 70
   128
 71
   181
 72
    48
 73
    51
  0
VERTEX
  5
4FB
  8
0
 62
     9
 10
0.0
 20
0.0
 30
0.0
 70
   128
 71
   182
 72
    50
 73
    32
  0
VERTEX
  5
4FC
  8
0
 62
     9
 10
0.0
 20
0.0
 30
0.0
 70
   128
 71
   184
 72
   183
 73
    46
  0
VERTEX
  5
4FD
  8
0
 62
     9
 10
0.0
 20
0.0
 30
0.0
 70
   128
 71
   186
 72
    43
 73
   185
  0
VERTEX
  5
4FE
  8
0
 62
     9
 10
0.0
 20
0.0
 30
0.0
 70
   128
 71
    49
 72
   186
 73
   182
  0
VERTEX
  5
4FF
  8
0
 62
     9
 10
0.0
 20
0.0
 30
0.0
 70
   128
 71
   187
 72
    35
 73
    36
  0
VERTEX
  5
500
  8
0
 62
     9
 10
0.0
 20
0.0
 30
0.0
 70
   128
 71
    35
 72
   187
 73
   185
  0
VERTEX
  5
501
  8
0
 62
     9
 10
0.0
 20
0.0
 30
0.0
 70
   128
 71
    38
 72
   188
 73
    36
  0
VERTEX
  5
502
  8
0
 62
     9
 10
0.0
 20
0.0
 30
0.0
 70
   128
 71
   187
 72
    36
 73
   188
  0
VERTEX
  5
503
  8
0
 62
     9
 10
0.0
 20
0.0
 30
0.0
 70
   128
 71
   186
 72
    49
 73
    43
  0
VERTEX
  5
504
  8
0
 62
     9
 10
0.0
 20
0.0
 30
0.0
 70
   128
 71
    43
 72
    35
 73
   185
  0
VERTEX
  5
505
  8
0
 62
     9
 10
0.0
 20
0.0
 30
0.0
 70
   128
 71
    50
 72
   182
 73
   184
  0
VERTEX
  5
506
  8
0
 62
     9
 10
0.0
 20
0.0
 30
0.0
 70
   128
 71
    32
 72
    49
 73
   182
  0
VERTEX
  5
507
  8
0
 62
     9
 10
0.0
 20
0.0
 30
0.0
 70
   128
 71
   183
 72
    51
 73
    46
  0
VERTEX
  5
508
  8
0
 62
     9
 10
0.0
 20
0.0
 30
0.0
 70
   128
 71
   184
 72
    46
 73
    50
  0
VERTEX
  5
509
  8
0
 62
     9
 10
0.0
 20
0.0
 30
0.0
 70
   128
 71
    51
 72
   183
 73
   181
  0
VERTEX
  5
50A
  8
0
 62
     9
 10
0.0
 20
0.0
 30
0.0
 70
   128
 71
    94
 72
    66
 73
   189
  0
VERTEX
  5
50B
  8
0
 62
     9
 10
0.0
 20
0.0
 30
0.0
 70
   128
 71
   190
 72
    84
 73
    94
  0
VERTEX
  5
50C
  8
0
 62
     9
 10
0.0
 20
0.0
 30
0.0
 70
   128
 71
    94
 72
   189
 73
   190
  0
VERTEX
  5
50D
  8
0
 62
     9
 10
0.0
 20
0.0
 30
0.0
 70
   128
 71
    84
 72
   191
 73
    96
  0
VERTEX
  5
50E
  8
0
 62
     9
 10
0.0
 20
0.0
 30
0.0
 70
   128
 71
   191
 72
    84
 73
   190
  0
VERTEX
  5
50F
  8
0
 62
     9
 10
0.0
 20
0.0
 30
0.0
 70
   128
 71
    78
 72
    96
 73
   192
  0
VERTEX
  5
510
  8
0
 62
     9
 10
0.0
 20
0.0
 30
0.0
 70
   128
 71
   191
 72
   192
 73
    96
  0
VERTEX
  5
511
  8
0
 62
     9
 10
0.0
 20
0.0
 30
0.0
 70
   128
 71
    67
 72
   189
 73
    66
  0
VERTEX
  5
512
  8
0
 62
     9
 10
0.0
 20
0.0
 30
0.0
 70
   128
 71
   193
 72
    67
 73
    90
  0
VERTEX
  5
513
  8
0
 62
     9
 10
0.0
 20
0.0
 30
0.0
 70
   128
 71
    67
 72
   193
 73
   189
  0
VERTEX
  5
514
  8
0
 62
     9
 10
0.0
 20
0.0
 30
0.0
 70
   128
 71
    65
 72
   194
 73
    90
  0
VERTEX
  5
515
  8
0
 62
     9
 10
0.0
 20
0.0
 30
0.0
 70
   128
 71
   193
 72
    90
 73
   194
  0
VERTEX
  5
516
  8
0
 62
     9
 10
0.0
 20
0.0
 30
0.0
 70
   128
 71
    65
 72
    61
 73
   195
  0
VERTEX
  5
517
  8
0
 62
     9
 10
0.0
 20
0.0
 30
0.0
 70
   128
 71
   195
 72
   194
 73
    65
  0
VERTEX
  5
518
  8
0
 62
     9
 10
0.0
 20
0.0
 30
0.0
 70
   128
 71
    61
 72
   196
 73
   195
  0
VERTEX
  5
519
  8
0
 62
     9
 10
0.0
 20
0.0
 30
0.0
 70
   128
 71
    61
 72
    62
 73
   196
  0
VERTEX
  5
51A
  8
0
 62
     9
 10
0.0
 20
0.0
 30
0.0
 70
   128
 71
   199
 72
   198
 73
   197
  0
VERTEX
  5
51B
  8
0
 62
     9
 10
0.0
 20
0.0
 30
0.0
 70
   128
 71
   200
 72
    17
 73
   117
  0
VERTEX
  5
51C
  8
0
 62
     9
 10
0.0
 20
0.0
 30
0.0
 70
   128
 71
   203
 72
   202
 73
   201
  0
VERTEX
  5
51D
  8
0
 62
     9
 10
0.0
 20
0.0
 30
0.0
 70
   128
 71
    80
 72
   204
 73
    95
  0
VERTEX
  5
51E
  8
0
 62
     9
 10
0.0
 20
0.0
 30
0.0
 70
   128
 71
    42
 72
   205
 73
    39
  0
VERTEX
  5
51F
  8
0
 62
     9
 10
0.0
 20
0.0
 30
0.0
 70
   128
 71
    95
 72
   204
 73
   206
  0
VERTEX
  5
520
  8
0
 62
     9
 10
0.0
 20
0.0
 30
0.0
 70
   128
 71
    42
 72
   207
 73
   205
  0
VERTEX
  5
521
  8
0
 62
     9
 10
0.0
 20
0.0
 30
0.0
 70
   128
 71
   207
 72
   208
 73
   205
  0
VERTEX
  5
522
  8
0
 62
     9
 10
0.0
 20
0.0
 30
0.0
 70
   128
 71
   208
 72
   204
 73
    80
  0
VERTEX
  5
523
  8
0
 62
     9
 10
0.0
 20
0.0
 30
0.0
 70
   128
 71
   211
 72
   210
 73
   209
  0
VERTEX
  5
524
  8
0
 62
     9
 10
0.0
 20
0.0
 30
0.0
 70
   128
 71
   214
 72
   213
 73
   212
  0
VERTEX
  5
525
  8
0
 62
     9
 10
0.0
 20
0.0
 30
0.0
 70
   128
 71
   217
 72
   216
 73
   215
  0
VERTEX
  5
526
  8
0
 62
     9
 10
0.0
 20
0.0
 30
0.0
 70
   128
 71
   210
 72
   219
 73
   218
  0
VERTEX
  5
527
  8
0
 62
     9
 10
0.0
 20
0.0
 30
0.0
 70
   128
 71
    98
 72
   209
 73
   220
  0
VERTEX
  5
528
  8
0
 62
     9
 10
0.0
 20
0.0
 30
0.0
 70
   128
 71
   217
 72
   197
 73
   212
  0
VERTEX
  5
529
  8
0
 62
     9
 10
0.0
 20
0.0
 30
0.0
 70
   128
 71
   209
 72
   221
 73
   220
  0
VERTEX
  5
52A
  8
0
 62
     9
 10
0.0
 20
0.0
 30
0.0
 70
   128
 71
   215
 72
   223
 73
   222
  0
VERTEX
  5
52B
  8
0
 62
     9
 10
0.0
 20
0.0
 30
0.0
 70
   128
 71
   199
 72
   158
 73
   198
  0
VERTEX
  5
52C
  8
0
 62
     9
 10
0.0
 20
0.0
 30
0.0
 70
   128
 71
   224
 72
   146
 73
   222
  0
VERTEX
  5
52D
  8
0
 62
     9
 10
0.0
 20
0.0
 30
0.0
 70
   128
 71
   157
 72
   222
 73
   146
  0
VERTEX
  5
52E
  8
0
 62
     9
 10
0.0
 20
0.0
 30
0.0
 70
   128
 71
   163
 72
   224
 73
   134
  0
VERTEX
  5
52F
  8
0
 62
     9
 10
0.0
 20
0.0
 30
0.0
 70
   128
 71
   163
 72
   146
 73
   224
  0
VERTEX
  5
530
  8
0
 62
     9
 10
0.0
 20
0.0
 30
0.0
 70
   128
 71
   164
 72
   134
 73
   225
  0
VERTEX
  5
531
  8
0
 62
     9
 10
0.0
 20
0.0
 30
0.0
 70
   128
 71
   157
 72
   158
 73
   199
  0
VERTEX
  5
532
  8
0
 62
     9
 10
0.0
 20
0.0
 30
0.0
 70
   128
 71
   134
 72
   224
 73
   225
  0
VERTEX
  5
533
  8
0
 62
     9
 10
0.0
 20
0.0
 30
0.0
 70
   128
 71
   226
 72
   104
 73
   164
  0
VERTEX
  5
534
  8
0
 62
     9
 10
0.0
 20
0.0
 30
0.0
 70
   128
 71
   198
 72
   158
 73
   150
  0
VERTEX
  5
535
  8
0
 62
     9
 10
0.0
 20
0.0
 30
0.0
 70
   128
 71
   213
 72
   214
 73
   227
  0
VERTEX
  5
536
  8
0
 62
     9
 10
0.0
 20
0.0
 30
0.0
 70
   128
 71
   151
 72
   228
 73
   150
  0
VERTEX
  5
537
  8
0
 62
     9
 10
0.0
 20
0.0
 30
0.0
 70
   128
 71
   230
 72
   229
 73
    89
  0
VERTEX
  5
538
  8
0
 62
     9
 10
0.0
 20
0.0
 30
0.0
 70
   128
 71
   231
 72
   228
 73
   151
  0
VERTEX
  5
539
  8
0
 62
     9
 10
0.0
 20
0.0
 30
0.0
 70
   128
 71
   198
 72
   150
 73
   228
  0
VERTEX
  5
53A
  8
0
 62
     9
 10
0.0
 20
0.0
 30
0.0
 70
   128
 71
   231
 72
    92
 73
    60
  0
VERTEX
  5
53B
  8
0
 62
     9
 10
0.0
 20
0.0
 30
0.0
 70
   128
 71
   232
 72
    60
 73
    58
  0
VERTEX
  5
53C
  8
0
 62
     9
 10
0.0
 20
0.0
 30
0.0
 70
   128
 71
   151
 72
    92
 73
   231
  0
VERTEX
  5
53D
  8
0
 62
     9
 10
0.0
 20
0.0
 30
0.0
 70
   128
 71
   206
 72
    82
 73
    95
  0
VERTEX
  5
53E
  8
0
 62
     9
 10
0.0
 20
0.0
 30
0.0
 70
   128
 71
    60
 72
   232
 73
   231
  0
VERTEX
  5
53F
  8
0
 62
     9
 10
0.0
 20
0.0
 30
0.0
 70
   128
 71
    58
 72
   229
 73
   232
  0
VERTEX
  5
540
  8
0
 62
     9
 10
0.0
 20
0.0
 30
0.0
 70
   128
 71
   227
 72
   228
 73
   231
  0
VERTEX
  5
541
  8
0
 62
     9
 10
0.0
 20
0.0
 30
0.0
 70
   128
 71
   228
 72
   214
 73
   198
  0
VERTEX
  5
542
  8
0
 62
     9
 10
0.0
 20
0.0
 30
0.0
 70
   128
 71
   233
 72
   224
 73
   223
  0
VERTEX
  5
543
  8
0
 62
     9
 10
0.0
 20
0.0
 30
0.0
 70
   128
 71
   222
 72
   157
 73
   199
  0
VERTEX
  5
544
  8
0
 62
     9
 10
0.0
 20
0.0
 30
0.0
 70
   128
 71
   214
 72
   197
 73
   198
  0
VERTEX
  5
545
  8
0
 62
     9
 10
0.0
 20
0.0
 30
0.0
 70
   128
 71
   215
 72
   216
 73
   223
  0
VERTEX
  5
546
  8
0
 62
     9
 10
0.0
 20
0.0
 30
0.0
 70
   128
 71
   222
 72
   199
 73
   215
  0
VERTEX
  5
547
  8
0
 62
     9
 10
0.0
 20
0.0
 30
0.0
 70
   128
 71
   226
 72
   234
 73
   100
  0
VERTEX
  5
548
  8
0
 62
     9
 10
0.0
 20
0.0
 30
0.0
 70
   128
 71
   224
 72
   222
 73
   223
  0
VERTEX
  5
549
  8
0
 62
     9
 10
0.0
 20
0.0
 30
0.0
 70
   128
 71
   234
 72
   225
 73
   233
  0
VERTEX
  5
54A
  8
0
 62
     9
 10
0.0
 20
0.0
 30
0.0
 70
   128
 71
   226
 72
   100
 73
   104
  0
VERTEX
  5
54B
  8
0
 62
     9
 10
0.0
 20
0.0
 30
0.0
 70
   128
 71
   225
 72
   226
 73
   164
  0
VERTEX
  5
54C
  8
0
 62
     9
 10
0.0
 20
0.0
 30
0.0
 70
   128
 71
   227
 72
   231
 73
   232
  0
VERTEX
  5
54D
  8
0
 62
     9
 10
0.0
 20
0.0
 30
0.0
 70
   128
 71
   229
 72
    58
 73
    89
  0
VERTEX
  5
54E
  8
0
 62
     9
 10
0.0
 20
0.0
 30
0.0
 70
   128
 71
   237
 72
   236
 73
   235
  0
VERTEX
  5
54F
  8
0
 62
     9
 10
0.0
 20
0.0
 30
0.0
 70
   128
 71
   214
 72
   228
 73
   227
  0
VERTEX
  5
550
  8
0
 62
     9
 10
0.0
 20
0.0
 30
0.0
 70
   128
 71
   232
 72
   238
 73
   227
  0
VERTEX
  5
551
  8
0
 62
     9
 10
0.0
 20
0.0
 30
0.0
 70
   128
 71
   217
 72
   239
 73
   219
  0
VERTEX
  5
552
  8
0
 62
     9
 10
0.0
 20
0.0
 30
0.0
 70
   128
 71
   240
 72
   223
 73
   216
  0
VERTEX
  5
553
  8
0
 62
     9
 10
0.0
 20
0.0
 30
0.0
 70
   128
 71
   215
 72
   199
 73
   197
  0
VERTEX
  5
554
  8
0
 62
     9
 10
0.0
 20
0.0
 30
0.0
 70
   128
 71
   212
 72
   197
 73
   214
  0
VERTEX
  5
555
  8
0
 62
     9
 10
0.0
 20
0.0
 30
0.0
 70
   128
 71
   219
 72
   216
 73
   217
  0
VERTEX
  5
556
  8
0
 62
     9
 10
0.0
 20
0.0
 30
0.0
 70
   128
 71
   197
 72
   217
 73
   215
  0
VERTEX
  5
557
  8
0
 62
     9
 10
0.0
 20
0.0
 30
0.0
 70
   128
 71
   234
 72
   241
 73
   102
  0
VERTEX
  5
558
  8
0
 62
     9
 10
0.0
 20
0.0
 30
0.0
 70
   128
 71
   234
 72
   226
 73
   225
  0
VERTEX
  5
559
  8
0
 62
     9
 10
0.0
 20
0.0
 30
0.0
 70
   128
 71
   233
 72
   225
 73
   224
  0
VERTEX
  5
55A
  8
0
 62
     9
 10
0.0
 20
0.0
 30
0.0
 70
   128
 71
   240
 72
   241
 73
   233
  0
VERTEX
  5
55B
  8
0
 62
     9
 10
0.0
 20
0.0
 30
0.0
 70
   128
 71
   234
 72
   102
 73
   100
  0
VERTEX
  5
55C
  8
0
 62
     9
 10
0.0
 20
0.0
 30
0.0
 70
   128
 71
   238
 72
   232
 73
   229
  0
VERTEX
  5
55D
  8
0
 62
     9
 10
0.0
 20
0.0
 30
0.0
 70
   128
 71
   230
 72
    89
 73
    72
  0
VERTEX
  5
55E
  8
0
 62
     9
 10
0.0
 20
0.0
 30
0.0
 70
   128
 71
   203
 72
   213
 73
   242
  0
VERTEX
  5
55F
  8
0
 62
     9
 10
0.0
 20
0.0
 30
0.0
 70
   128
 71
   213
 72
   227
 73
   238
  0
VERTEX
  5
560
  8
0
 62
     9
 10
0.0
 20
0.0
 30
0.0
 70
   128
 71
   229
 72
   243
 73
   238
  0
VERTEX
  5
561
  8
0
 62
     9
 10
0.0
 20
0.0
 30
0.0
 70
   128
 71
   239
 72
   212
 73
   203
  0
VERTEX
  5
562
  8
0
 62
     9
 10
0.0
 20
0.0
 30
0.0
 70
   128
 71
   238
 72
   242
 73
   213
  0
VERTEX
  5
563
  8
0
 62
     9
 10
0.0
 20
0.0
 30
0.0
 70
   128
 71
   216
 72
   219
 73
   244
  0
VERTEX
  5
564
  8
0
 62
     9
 10
0.0
 20
0.0
 30
0.0
 70
   128
 71
   213
 72
   203
 73
   212
  0
VERTEX
  5
565
  8
0
 62
     9
 10
0.0
 20
0.0
 30
0.0
 70
   128
 71
   245
 72
   241
 73
   240
  0
VERTEX
  5
566
  8
0
 62
     9
 10
0.0
 20
0.0
 30
0.0
 70
   128
 71
   212
 72
   239
 73
   217
  0
VERTEX
  5
567
  8
0
 62
     9
 10
0.0
 20
0.0
 30
0.0
 70
   128
 71
   241
 72
   245
 73
   124
  0
VERTEX
  5
568
  8
0
 62
     9
 10
0.0
 20
0.0
 30
0.0
 70
   128
 71
   241
 72
   234
 73
   233
  0
VERTEX
  5
569
  8
0
 62
     9
 10
0.0
 20
0.0
 30
0.0
 70
   128
 71
   240
 72
   233
 73
   223
  0
VERTEX
  5
56A
  8
0
 62
     9
 10
0.0
 20
0.0
 30
0.0
 70
   128
 71
   244
 72
   245
 73
   240
  0
VERTEX
  5
56B
  8
0
 62
     9
 10
0.0
 20
0.0
 30
0.0
 70
   128
 71
   241
 72
   124
 73
   102
  0
VERTEX
  5
56C
  8
0
 62
     9
 10
0.0
 20
0.0
 30
0.0
 70
   128
 71
   243
 72
   229
 73
   230
  0
VERTEX
  5
56D
  8
0
 62
     9
 10
0.0
 20
0.0
 30
0.0
 70
   128
 71
   206
 72
    72
 73
    82
  0
VERTEX
  5
56E
  8
0
 62
     9
 10
0.0
 20
0.0
 30
0.0
 70
   128
 71
   246
 72
   202
 73
   242
  0
VERTEX
  5
56F
  8
0
 62
     9
 10
0.0
 20
0.0
 30
0.0
 70
   128
 71
   242
 72
   238
 73
   243
  0
VERTEX
  5
570
  8
0
 62
     9
 10
0.0
 20
0.0
 30
0.0
 70
   128
 71
   243
 72
   230
 73
   247
  0
VERTEX
  5
571
  8
0
 62
     9
 10
0.0
 20
0.0
 30
0.0
 70
   128
 71
   248
 72
   221
 73
   218
  0
VERTEX
  5
572
  8
0
 62
     9
 10
0.0
 20
0.0
 30
0.0
 70
   128
 71
   242
 72
   243
 73
   246
  0
VERTEX
  5
573
  8
0
 62
     9
 10
0.0
 20
0.0
 30
0.0
 70
   128
 71
   239
 72
   201
 73
   218
  0
VERTEX
  5
574
  8
0
 62
     9
 10
0.0
 20
0.0
 30
0.0
 70
   128
 71
   202
 72
   203
 73
   242
  0
VERTEX
  5
575
  8
0
 62
     9
 10
0.0
 20
0.0
 30
0.0
 70
   128
 71
   244
 72
   211
 73
   245
  0
VERTEX
  5
576
  8
0
 62
     9
 10
0.0
 20
0.0
 30
0.0
 70
   128
 71
   201
 72
   239
 73
   203
  0
VERTEX
  5
577
  8
0
 62
     9
 10
0.0
 20
0.0
 30
0.0
 70
   128
 71
   239
 72
   218
 73
   219
  0
VERTEX
  5
578
  8
0
 62
     9
 10
0.0
 20
0.0
 30
0.0
 70
   128
 71
   122
 72
   106
 73
   245
  0
VERTEX
  5
579
  8
0
 62
     9
 10
0.0
 20
0.0
 30
0.0
 70
   128
 71
   244
 72
   240
 73
   216
  0
VERTEX
  5
57A
  8
0
 62
     9
 10
0.0
 20
0.0
 30
0.0
 70
   128
 71
   210
 72
   211
 73
   244
  0
VERTEX
  5
57B
  8
0
 62
     9
 10
0.0
 20
0.0
 30
0.0
 70
   128
 71
   245
 72
   106
 73
   124
  0
VERTEX
  5
57C
  8
0
 62
     9
 10
0.0
 20
0.0
 30
0.0
 70
   128
 71
   206
 72
   247
 73
   230
  0
VERTEX
  5
57D
  8
0
 62
     9
 10
0.0
 20
0.0
 30
0.0
 70
   128
 71
   230
 72
    72
 73
   206
  0
VERTEX
  5
57E
  8
0
 62
     9
 10
0.0
 20
0.0
 30
0.0
 70
   128
 71
   237
 72
   249
 73
   246
  0
VERTEX
  5
57F
  8
0
 62
     9
 10
0.0
 20
0.0
 30
0.0
 70
   128
 71
   246
 72
   243
 73
   247
  0
VERTEX
  5
580
  8
0
 62
     9
 10
0.0
 20
0.0
 30
0.0
 70
   128
 71
   236
 72
   247
 73
   206
  0
VERTEX
  5
581
  8
0
 62
     9
 10
0.0
 20
0.0
 30
0.0
 70
   128
 71
   249
 72
   250
 73
   202
  0
VERTEX
  5
582
  8
0
 62
     9
 10
0.0
 20
0.0
 30
0.0
 70
   128
 71
   237
 72
   246
 73
   247
  0
VERTEX
  5
583
  8
0
 62
     9
 10
0.0
 20
0.0
 30
0.0
 70
   128
 71
   250
 72
   248
 73
   201
  0
VERTEX
  5
584
  8
0
 62
     9
 10
0.0
 20
0.0
 30
0.0
 70
   128
 71
   202
 72
   246
 73
   249
  0
VERTEX
  5
585
  8
0
 62
     9
 10
0.0
 20
0.0
 30
0.0
 70
   128
 71
   252
 72
   251
 73
   248
  0
VERTEX
  5
586
  8
0
 62
     9
 10
0.0
 20
0.0
 30
0.0
 70
   128
 71
   202
 72
   250
 73
   201
  0
VERTEX
  5
587
  8
0
 62
     9
 10
0.0
 20
0.0
 30
0.0
 70
   128
 71
   201
 72
   248
 73
   218
  0
VERTEX
  5
588
  8
0
 62
     9
 10
0.0
 20
0.0
 30
0.0
 70
   128
 71
   211
 72
   122
 73
   245
  0
VERTEX
  5
589
  8
0
 62
     9
 10
0.0
 20
0.0
 30
0.0
 70
   128
 71
   210
 72
   244
 73
   219
  0
VERTEX
  5
58A
  8
0
 62
     9
 10
0.0
 20
0.0
 30
0.0
 70
   128
 71
   221
 72
   209
 73
   210
  0
VERTEX
  5
58B
  8
0
 62
     9
 10
0.0
 20
0.0
 30
0.0
 70
   128
 71
   122
 72
   211
 73
   123
  0
VERTEX
  5
58C
  8
0
 62
     9
 10
0.0
 20
0.0
 30
0.0
 70
   128
 71
   236
 72
   206
 73
   204
  0
VERTEX
  5
58D
  8
0
 62
     9
 10
0.0
 20
0.0
 30
0.0
 70
   128
 71
    80
 72
    81
 73
   208
  0
VERTEX
  5
58E
  8
0
 62
     9
 10
0.0
 20
0.0
 30
0.0
 70
   128
 71
   254
 72
    27
 73
   253
  0
VERTEX
  5
58F
  8
0
 62
     9
 10
0.0
 20
0.0
 30
0.0
 70
   128
 71
   237
 72
   247
 73
   236
  0
VERTEX
  5
590
  8
0
 62
     9
 10
0.0
 20
0.0
 30
0.0
 70
   128
 71
   255
 72
   235
 73
   236
  0
VERTEX
  5
591
  8
0
 62
     9
 10
0.0
 20
0.0
 30
0.0
 70
   128
 71
   249
 72
   237
 73
   256
  0
VERTEX
  5
592
  8
0
 62
     9
 10
0.0
 20
0.0
 30
0.0
 70
   128
 71
   235
 72
   256
 73
   237
  0
VERTEX
  5
593
  8
0
 62
     9
 10
0.0
 20
0.0
 30
0.0
 70
   128
 71
   250
 72
   249
 73
   257
  0
VERTEX
  5
594
  8
0
 62
     9
 10
0.0
 20
0.0
 30
0.0
 70
   128
 71
   256
 72
   257
 73
   249
  0
VERTEX
  5
595
  8
0
 62
     9
 10
0.0
 20
0.0
 30
0.0
 70
   128
 71
   248
 72
   250
 73
   252
  0
VERTEX
  5
596
  8
0
 62
     9
 10
0.0
 20
0.0
 30
0.0
 70
   128
 71
   257
 72
   252
 73
   250
  0
VERTEX
  5
597
  8
0
 62
     9
 10
0.0
 20
0.0
 30
0.0
 70
   128
 71
   248
 72
   251
 73
   221
  0
VERTEX
  5
598
  8
0
 62
     9
 10
0.0
 20
0.0
 30
0.0
 70
   128
 71
   123
 72
   211
 73
   209
  0
VERTEX
  5
599
  8
0
 62
     9
 10
0.0
 20
0.0
 30
0.0
 70
   128
 71
   221
 72
   210
 73
   218
  0
VERTEX
  5
59A
  8
0
 62
     9
 10
0.0
 20
0.0
 30
0.0
 70
   128
 71
   251
 72
   220
 73
   221
  0
VERTEX
  5
59B
  8
0
 62
     9
 10
0.0
 20
0.0
 30
0.0
 70
   128
 71
   123
 72
   209
 73
    98
  0
VERTEX
  5
59C
  8
0
 62
     9
 10
0.0
 20
0.0
 30
0.0
 70
   128
 71
   255
 72
   204
 73
   208
  0
VERTEX
  5
59D
  8
0
 62
     9
 10
0.0
 20
0.0
 30
0.0
 70
   128
 71
    42
 72
    13
 73
   207
  0
VERTEX
  5
59E
  8
0
 62
     9
 10
0.0
 20
0.0
 30
0.0
 70
   128
 71
   235
 72
   255
 73
   258
  0
VERTEX
  5
59F
  8
0
 62
     9
 10
0.0
 20
0.0
 30
0.0
 70
   128
 71
   255
 72
   236
 73
   204
  0
VERTEX
  5
5A0
  8
0
 62
     9
 10
0.0
 20
0.0
 30
0.0
 70
   128
 71
   207
 72
   258
 73
   255
  0
VERTEX
  5
5A1
  8
0
 62
     9
 10
0.0
 20
0.0
 30
0.0
 70
   128
 71
   256
 72
   235
 73
   254
  0
VERTEX
  5
5A2
  8
0
 62
     9
 10
0.0
 20
0.0
 30
0.0
 70
   128
 71
   258
 72
   254
 73
   235
  0
VERTEX
  5
5A3
  8
0
 62
     9
 10
0.0
 20
0.0
 30
0.0
 70
   128
 71
   256
 72
   253
 73
   257
  0
VERTEX
  5
5A4
  8
0
 62
     9
 10
0.0
 20
0.0
 30
0.0
 70
   128
 71
   254
 72
   253
 73
   256
  0
VERTEX
  5
5A5
  8
0
 62
     9
 10
0.0
 20
0.0
 30
0.0
 70
   128
 71
   257
 72
   259
 73
   252
  0
VERTEX
  5
5A6
  8
0
 62
     9
 10
0.0
 20
0.0
 30
0.0
 70
   128
 71
   253
 72
   259
 73
   257
  0
VERTEX
  5
5A7
  8
0
 62
     9
 10
0.0
 20
0.0
 30
0.0
 70
   128
 71
   252
 72
   260
 73
   251
  0
VERTEX
  5
5A8
  8
0
 62
     9
 10
0.0
 20
0.0
 30
0.0
 70
   128
 71
   259
 72
   260
 73
   252
  0
VERTEX
  5
5A9
  8
0
 62
     9
 10
0.0
 20
0.0
 30
0.0
 70
   128
 71
   251
 72
   200
 73
   220
  0
VERTEX
  5
5AA
  8
0
 62
     9
 10
0.0
 20
0.0
 30
0.0
 70
   128
 71
   260
 72
   200
 73
   251
  0
VERTEX
  5
5AB
  8
0
 62
     9
 10
0.0
 20
0.0
 30
0.0
 70
   128
 71
    98
 72
   220
 73
   117
  0
VERTEX
  5
5AC
  8
0
 62
     9
 10
0.0
 20
0.0
 30
0.0
 70
   128
 71
    81
 72
   205
 73
   208
  0
VERTEX
  5
5AD
  8
0
 62
     9
 10
0.0
 20
0.0
 30
0.0
 70
   128
 71
   205
 72
    81
 73
    39
  0
VERTEX
  5
5AE
  8
0
 62
     9
 10
0.0
 20
0.0
 30
0.0
 70
   128
 71
    45
 72
   258
 73
    13
  0
VERTEX
  5
5AF
  8
0
 62
     9
 10
0.0
 20
0.0
 30
0.0
 70
   128
 71
   207
 72
   255
 73
   208
  0
VERTEX
  5
5B0
  8
0
 62
     9
 10
0.0
 20
0.0
 30
0.0
 70
   128
 71
   258
 72
   207
 73
    13
  0
VERTEX
  5
5B1
  8
0
 62
     9
 10
0.0
 20
0.0
 30
0.0
 70
   128
 71
   258
 72
    45
 73
    28
  0
VERTEX
  5
5B2
  8
0
 62
     9
 10
0.0
 20
0.0
 30
0.0
 70
   128
 71
    28
 72
   254
 73
   258
  0
VERTEX
  5
5B3
  8
0
 62
     9
 10
0.0
 20
0.0
 30
0.0
 70
   128
 71
   254
 72
    28
 73
    27
  0
VERTEX
  5
5B4
  8
0
 62
     9
 10
0.0
 20
0.0
 30
0.0
 70
   128
 71
    18
 72
   253
 73
    27
  0
VERTEX
  5
5B5
  8
0
 62
     9
 10
0.0
 20
0.0
 30
0.0
 70
   128
 71
    18
 72
   259
 73
   253
  0
VERTEX
  5
5B6
  8
0
 62
     9
 10
0.0
 20
0.0
 30
0.0
 70
   128
 71
    19
 72
   259
 73
    18
  0
VERTEX
  5
5B7
  8
0
 62
     9
 10
0.0
 20
0.0
 30
0.0
 70
   128
 71
    19
 72
   260
 73
   259
  0
VERTEX
  5
5B8
  8
0
 62
     9
 10
0.0
 20
0.0
 30
0.0
 70
   128
 71
    16
 72
   260
 73
    19
  0
VERTEX
  5
5B9
  8
0
 62
     9
 10
0.0
 20
0.0
 30
0.0
 70
   128
 71
   117
 72
   220
 73
   200
  0
VERTEX
  5
5BA
  8
0
 62
     9
 10
0.0
 20
0.0
 30
0.0
 70
   128
 71
    16
 72
   200
 73
   260
  0
VERTEX
  5
5BB
  8
0
 62
     9
 10
0.0
 20
0.0
 30
0.0
 70
   128
 71
   200
 72
    16
 73
    17
  0
SEQEND
  5
5BC
  8
0
 62
     9
  0
ENDBLK
  5
5BF
  8
0
  0
BLOCK
  8
0
  2
41
 70
     0
 10
0.0
 20
0.0
 30
0.0
  3
41
  1

  0
POLYLINE
  5
5C1
  8
0
 62
     9
 66
     1
 10
0.0
 20
0.0
 30
0.0
 70
    64
 71
   315
 72
   518
  0
VERTEX
  5
5C2
  8
0
 10
119.2431716918945
 20
-20.82951545715332
 30
-21.31175422668457
 70
   192
  0
VERTEX
  5
5C3
  8
0
 10
114.6236572265625
 20
-21.20110321044922
 30
-18.20537757873535
 70
   192
  0
VERTEX
  5
5C4
  8
0
 10
119.3554077148438
 20
-21.33004570007324
 30
-16.66357040405273
 70
   192
  0
VERTEX
  5
5C5
  8
0
 10
114.6236572265625
 20
-21.49826240539551
 30
-11.96871566772461
 70
   192
  0
VERTEX
  5
5C6
  8
0
 10
119.3943328857422
 20
-21.49826240539551
 30
-11.96871566772461
 70
   192
  0
VERTEX
  5
5C7
  8
0
 10
114.6236572265625
 20
-20.30966186523438
 30
-24.39983177185059
 70
   192
  0
VERTEX
  5
5C8
  8
0
 10
119.0567855834961
 20
-19.99897766113281
 30
-25.91354942321777
 70
   192
  0
VERTEX
  5
5C9
  8
0
 10
114.6236572265625
 20
-18.83592224121094
 30
-30.46766471862793
 70
   192
  0
VERTEX
  5
5CA
  8
0
 10
118.766357421875
 20
-18.83592224121094
 30
-30.46766471862793
 70
   192
  0
VERTEX
  5
5CB
  8
0
 10
116.1236572265625
 20
-19.20634078979492
 30
-3.29131293296814
 70
   192
  0
VERTEX
  5
5CC
  8
0
 10
119.4702911376953
 20
-19.53404426574707
 30
-6.160553455352783
 70
   192
  0
VERTEX
  5
5CD
  8
0
 10
119.2774658203125
 20
-18.75165748596191
 30
-0.4494898319244385
 70
   192
  0
VERTEX
  5
5CE
  8
0
 10
119.536750793457
 20
-19.79826354980469
 30
-11.96871566772461
 70
   192
  0
VERTEX
  5
5CF
  8
0
 10
116.1236572265625
 20
-19.64976692199707
 30
-7.614890098571777
 70
   192
  0
VERTEX
  5
5D0
  8
0
 10
116.1236572265625
 20
-19.79826354980469
 30
-11.96871566772461
 70
   192
  0
VERTEX
  5
5D1
  8
0
 10
116.1236572265625
 20
-18.4741039276123
 30
0.9724647998809814
 70
   192
  0
VERTEX
  5
5D2
  8
0
 10
118.941047668457
 20
-17.46302032470703
 30
5.148251056671143
 70
   192
  0
VERTEX
  5
5D3
  8
0
 10
116.1236572265625
 20
-17.46302032470703
 30
5.148251056671143
 70
   192
  0
VERTEX
  5
5D4
  8
0
 10
116.1236572265625
 20
19.53752136230469
 30
-6.16705322265625
 70
   192
  0
VERTEX
  5
5D5
  8
0
 10
115.7701034545898
 20
19.6552906036377
 30
-11.96871566772461
 70
   192
  0
VERTEX
  5
5D6
  8
0
 10
115.7701034545898
 20
19.39535331726074
 30
-6.217519760131836
 70
   192
  0
VERTEX
  5
5D7
  8
0
 10
115.6236572265625
 20
19.30173683166504
 30
-11.96871566772461
 70
   192
  0
VERTEX
  5
5D8
  8
0
 10
116.1236572265625
 20
19.80173683166504
 30
-11.96871566772461
 70
   192
  0
VERTEX
  5
5D9
  8
0
 10
116.1236572265625
 20
18.75263977050781
 30
-0.4390175938606262
 70
   192
  0
VERTEX
  5
5DA
  8
0
 10
115.6236572265625
 20
19.04303550720215
 30
-6.2475905418396
 70
   192
  0
VERTEX
  5
5DB
  8
0
 10
115.7701034545898
 20
18.61554336547852
 30
-0.5016238689422607
 70
   192
  0
VERTEX
  5
5DC
  8
0
 10
115.7701034545898
 20
17.32540130615234
 30
5.10902214050293
 70
   192
  0
VERTEX
  5
5DD
  8
0
 10
116.1236572265625
 20
17.46649551391602
 30
5.148251056671143
 70
   192
  0
VERTEX
  5
5DE
  8
0
 10
115.6236572265625
 20
18.26737785339355
 30
-0.5637997388839722
 70
   192
  0
VERTEX
  5
5DF
  8
0
 10
115.6236572265625
 20
16.98476791381836
 30
5.014315605163574
 70
   192
  0
VERTEX
  5
5E0
  8
0
 10
115.7701034545898
 20
7.431594848632812
 30
7.250419139862061
 70
   192
  0
VERTEX
  5
5E1
  8
0
 10
116.1236572265625
 20
2.493341207504272
 30
7.782543182373047
 70
   192
  0
VERTEX
  5
5E2
  8
0
 10
115.7701034545898
 20
2.485879421234131
 30
7.636422634124756
 70
   192
  0
VERTEX
  5
5E3
  8
0
 10
115.7701034545898
 20
-17.07600021362305
 30
5.354948043823242
 70
   192
  0
VERTEX
  5
5E4
  8
0
 10
115.6236572265625
 20
-16.98129272460938
 30
5.014315605163574
 70
   192
  0
VERTEX
  5
5E5
  8
0
 10
115.6236572265625
 20
-12.23918151855469
 30
6.138212203979492
 70
   192
  0
VERTEX
  5
5E6
  8
0
 10
115.7701034545898
 20
-12.30680656433105
 30
6.485383987426758
 70
   192
  0
VERTEX
  5
5E7
  8
0
 10
115.6236572265625
 20
-7.388179302215576
 30
6.898935317993164
 70
   192
  0
VERTEX
  5
5E8
  8
0
 10
115.7701034545898
 20
-7.428120136260986
 30
7.250419139862061
 70
   192
  0
VERTEX
  5
5E9
  8
0
 10
115.7701034545898
 20
-2.482404947280884
 30
7.636422634124756
 70
   192
  0
VERTEX
  5
5EA
  8
0
 10
115.6236572265625
 20
2.470170259475708
 30
7.283175468444824
 70
   192
  0
VERTEX
  5
5EB
  8
0
 10
115.6236572265625
 20
-2.470370531082153
 30
7.282924652099609
 70
   192
  0
VERTEX
  5
5EC
  8
0
 10
116.1236572265625
 20
17.11870384216309
 30
5.496042728424072
 70
   192
  0
VERTEX
  5
5ED
  8
0
 10
116.1236572265625
 20
12.33919334411621
 30
6.62880277633667
 70
   192
  0
VERTEX
  5
5EE
  8
0
 10
115.7701034545898
 20
17.07947540283203
 30
5.354948043823242
 70
   192
  0
VERTEX
  5
5EF
  8
0
 10
116.1236572265625
 20
7.449934005737305
 30
7.395525932312012
 70
   192
  0
VERTEX
  5
5F0
  8
0
 10
115.7701034545898
 20
12.31028079986572
 30
6.485383987426758
 70
   192
  0
VERTEX
  5
5F1
  8
0
 10
115.6236572265625
 20
7.388661861419678
 30
6.899555206298828
 70
   192
  0
VERTEX
  5
5F2
  8
0
 10
115.6236572265625
 20
12.24094390869141
 30
6.138817310333252
 70
   192
  0
VERTEX
  5
5F3
  8
0
 10
116.1236572265625
 20
-7.443443775177002
 30
7.3961501121521
 70
   192
  0
VERTEX
  5
5F4
  8
0
 10
116.1236572265625
 20
-17.1152286529541
 30
5.496042728424072
 70
   192
  0
VERTEX
  5
5F5
  8
0
 10
116.1236572265625
 20
-2.486162900924683
 30
7.782795906066895
 70
   192
  0
VERTEX
  5
5F6
  8
0
 10
116.1236572265625
 20
-12.33399295806885
 30
6.62941312789917
 70
   192
  0
VERTEX
  5
5F7
  8
0
 10
115.7701034545898
 20
17.32540130615234
 30
-29.04645347595215
 70
   192
  0
VERTEX
  5
5F8
  8
0
 10
115.7701034545898
 20
18.61554336547852
 30
-23.43580627441406
 70
   192
  0
VERTEX
  5
5F9
  8
0
 10
116.1236572265625
 20
18.75374794006348
 30
-23.49528121948242
 70
   192
  0
VERTEX
  5
5FA
  8
0
 10
115.6236572265625
 20
19.04325866699219
 30
-17.68655204772949
 70
   192
  0
VERTEX
  5
5FB
  8
0
 10
116.1236572265625
 20
19.5382022857666
 30
-17.76709365844727
 70
   192
  0
VERTEX
  5
5FC
  8
0
 10
115.6236572265625
 20
16.98476791381836
 30
-28.95174598693848
 70
   192
  0
VERTEX
  5
5FD
  8
0
 10
115.6236572265625
 20
18.26804351806641
 30
-23.37040328979492
 70
   192
  0
VERTEX
  5
5FE
  8
0
 10
115.7701034545898
 20
19.39535331726074
 30
-17.71991157531738
 70
   192
  0
VERTEX
  5
5FF
  8
0
 10
116.1236572265625
 20
17.46649551391602
 30
-29.0856819152832
 70
   192
  0
VERTEX
  5
600
  8
0
 10
115.6236572265625
 20
-18.86653327941895
 30
-4.581790924072266
 70
   192
  0
VERTEX
  5
601
  8
0
 10
115.7701034545898
 20
-19.21739768981934
 30
-4.538857936859131
 70
   192
  0
VERTEX
  5
602
  8
0
 10
115.6236572265625
 20
-18.10579490661621
 30
0.2704912126064301
 70
   192
  0
VERTEX
  5
603
  8
0
 10
115.7701034545898
 20
-17.32192611694336
 30
-29.04645347595215
 70
   192
  0
VERTEX
  5
604
  8
0
 10
115.6236572265625
 20
-18.10519027709961
 30
-24.20963478088379
 70
   192
  0
VERTEX
  5
605
  8
0
 10
115.6236572265625
 20
-16.98129272460938
 30
-28.95174598693848
 70
   192
  0
VERTEX
  5
606
  8
0
 10
115.7701034545898
 20
-18.45236206054688
 30
-24.27725982666016
 70
   192
  0
VERTEX
  5
607
  8
0
 10
115.7701034545898
 20
-19.21739768981934
 30
-19.39857292175293
 70
   192
  0
VERTEX
  5
608
  8
0
 10
115.6236572265625
 20
-18.86591339111328
 30
-19.3586311340332
 70
   192
  0
VERTEX
  5
609
  8
0
 10
115.7701034545898
 20
-19.60340118408203
 30
-14.45285797119141
 70
   192
  0
VERTEX
  5
60A
  8
0
 10
115.7701034545898
 20
-19.60340118408203
 30
-9.484573364257812
 70
   192
  0
VERTEX
  5
60B
  8
0
 10
115.6236572265625
 20
-19.25015258789062
 30
-9.500282287597656
 70
   192
  0
VERTEX
  5
60C
  8
0
 10
115.6236572265625
 20
-19.24990272521973
 30
-14.44082355499268
 70
   192
  0
VERTEX
  5
60D
  8
0
 10
115.7701034545898
 20
-17.32192611694336
 30
5.10902214050293
 70
   192
  0
VERTEX
  5
60E
  8
0
 10
115.7701034545898
 20
-18.45236206054688
 30
0.3398283720016479
 70
   192
  0
VERTEX
  5
60F
  8
0
 10
116.1236572265625
 20
-18.48015213012695
 30
-24.88061141967773
 70
   192
  0
VERTEX
  5
610
  8
0
 10
116.1236572265625
 20
-17.46302032470703
 30
-29.0856819152832
 70
   192
  0
VERTEX
  5
611
  8
0
 10
116.1236572265625
 20
-19.65180587768555
 30
-16.29257011413574
 70
   192
  0
VERTEX
  5
612
  8
0
 10
116.1236572265625
 20
-19.21176147460938
 30
-20.60647964477539
 70
   192
  0
VERTEX
  5
613
  8
0
 10
119.302619934082
 20
17.46307563781738
 30
5.492773532867432
 70
   192
  0
VERTEX
  5
614
  8
0
 10
119.3183746337891
 20
17.62568664550781
 30
5.222092628479004
 70
   192
  0
VERTEX
  5
615
  8
0
 10
118.9213485717773
 20
17.3382625579834
 30
5.367928028106689
 70
   192
  0
VERTEX
  5
616
  8
0
 10
119.4343490600586
 20
17.30800247192383
 30
6.037824630737305
 70
   192
  0
VERTEX
  5
617
  8
0
 10
119.414665222168
 20
17.74937438964844
 30
5.779155731201172
 70
   192
  0
VERTEX
  5
618
  8
0
 10
119.3183746337891
 20
17.19254112243652
 30
5.655237197875977
 70
   192
  0
VERTEX
  5
619
  8
0
 10
118.9410629272461
 20
17.11870384216309
 30
5.496042728424072
 70
   192
  0
VERTEX
  5
61A
  8
0
 10
119.4343566894531
 20
18.00827217102051
 30
5.337555885314941
 70
   192
  0
VERTEX
  5
61B
  8
0
 10
118.9410705566406
 20
17.46649551391602
 30
5.148251056671143
 70
   192
  0
VERTEX
  5
61C
  8
0
 10
119.302604675293
 20
-17.45975303649902
 30
5.492622375488281
 70
   192
  0
VERTEX
  5
61D
  8
0
 10
118.9213333129883
 20
-17.33490562438965
 30
5.367809772491455
 70
   192
  0
VERTEX
  5
61E
  8
0
 10
119.434326171875
 20
-18.00480651855469
 30
5.337550163269043
 70
   192
  0
VERTEX
  5
61F
  8
0
 10
119.4146499633789
 20
-17.74613571166992
 30
5.778922080993652
 70
   192
  0
VERTEX
  5
620
  8
0
 10
119.3183517456055
 20
-17.62221717834473
 30
5.222087860107422
 70
   192
  0
VERTEX
  5
621
  8
0
 10
119.318359375
 20
-17.18907165527344
 30
5.655233860015869
 70
   192
  0
VERTEX
  5
622
  8
0
 10
119.4343414306641
 20
-17.30453681945801
 30
6.037818431854248
 70
   192
  0
VERTEX
  5
623
  8
0
 10
118.9410552978516
 20
-17.1152286529541
 30
5.496042728424072
 70
   192
  0
VERTEX
  5
624
  8
0
 10
115.6236572265625
 20
-12.23746967315674
 30
-30.07624816894531
 70
   192
  0
VERTEX
  5
625
  8
0
 10
115.7701034545898
 20
-7.428120136260986
 30
-31.1878490447998
 70
   192
  0
VERTEX
  5
626
  8
0
 10
115.7701034545898
 20
-12.30680656433105
 30
-30.42281532287598
 70
   192
  0
VERTEX
  5
627
  8
0
 10
116.1236572265625
 20
-7.443443775177002
 30
-31.33358001708984
 70
   192
  0
VERTEX
  5
628
  8
0
 10
115.6236572265625
 20
-2.466695785522461
 30
-31.22060585021973
 70
   192
  0
VERTEX
  5
629
  8
0
 10
115.7701034545898
 20
-2.482404947280884
 30
-31.5738525390625
 70
   192
  0
VERTEX
  5
62A
  8
0
 10
115.6236572265625
 20
-7.38518762588501
 30
-30.83698654174805
 70
   192
  0
VERTEX
  5
62B
  8
0
 10
115.7701034545898
 20
-17.07600021362305
 30
-29.29237937927246
 70
   192
  0
VERTEX
  5
62C
  8
0
 10
116.1236572265625
 20
-12.33399295806885
 30
-30.56684303283691
 70
   192
  0
VERTEX
  5
62D
  8
0
 10
116.1236572265625
 20
-17.1152286529541
 30
-29.43347358703613
 70
   192
  0
VERTEX
  5
62E
  8
0
 10
115.7701034545898
 20
17.07947540283203
 30
-29.29237937927246
 70
   192
  0
VERTEX
  5
62F
  8
0
 10
115.6236572265625
 20
12.24265670776367
 30
-30.07564353942871
 70
   192
  0
VERTEX
  5
630
  8
0
 10
115.7701034545898
 20
7.431594848632812
 30
-31.1878490447998
 70
   192
  0
VERTEX
  5
631
  8
0
 10
115.7701034545898
 20
2.485879421234131
 30
-31.5738525390625
 70
   192
  0
VERTEX
  5
632
  8
0
 10
115.6236572265625
 20
2.4738450050354
 30
-31.22035598754883
 70
   192
  0
VERTEX
  5
633
  8
0
 10
116.1236572265625
 20
17.11870384216309
 30
-29.43347358703613
 70
   192
  0
VERTEX
  5
634
  8
0
 10
115.7701034545898
 20
12.31028079986572
 30
-30.42281532287598
 70
   192
  0
VERTEX
  5
635
  8
0
 10
116.1236572265625
 20
7.449934005737305
 30
-31.33295631408691
 70
   192
  0
VERTEX
  5
636
  8
0
 10
115.6236572265625
 20
7.391654014587402
 30
-30.83636665344238
 70
   192
  0
VERTEX
  5
637
  8
0
 10
116.1236572265625
 20
-2.486162900924683
 30
-31.7202262878418
 70
   192
  0
VERTEX
  5
638
  8
0
 10
116.1236572265625
 20
2.493341207504272
 30
-31.71997451782227
 70
   192
  0
VERTEX
  5
639
  8
0
 10
116.1236572265625
 20
12.33919334411621
 30
-30.56623458862305
 70
   192
  0
VERTEX
  5
63A
  8
0
 10
119.6632766723633
 20
18.93190765380859
 30
-0.425430029630661
 70
   192
  0
VERTEX
  5
63B
  8
0
 10
119.8560638427734
 20
19.71886253356934
 30
-6.154869079589844
 70
   192
  0
VERTEX
  5
63C
  8
0
 10
119.2790145874023
 20
18.75959777832031
 30
-0.4737561047077179
 70
   192
  0
VERTEX
  5
63D
  8
0
 10
119.3183135986328
 20
17.62569046020508
 30
-29.15952301025391
 70
   192
  0
VERTEX
  5
63E
  8
0
 10
119.2797012329102
 20
18.75969505310059
 30
-23.46438789367676
 70
   192
  0
VERTEX
  5
63F
  8
0
 10
119.6598663330078
 20
18.92745590209961
 30
-23.53697204589844
 70
   192
  0
VERTEX
  5
640
  8
0
 10
119.9230499267578
 20
19.98428726196289
 30
-11.96794319152832
 70
   192
  0
VERTEX
  5
641
  8
0
 10
120.0143737792969
 20
20.34668731689453
 30
-14.47348785400391
 70
   192
  0
VERTEX
  5
642
  8
0
 10
119.8556442260742
 20
19.71753311157227
 30
-17.80162811279297
 70
   192
  0
VERTEX
  5
643
  8
0
 10
119.7330627441406
 20
19.17455863952637
 30
-24.41207313537598
 70
   192
  0
VERTEX
  5
644
  8
0
 10
119.4342880249023
 20
18.00828170776367
 30
-29.27498626708984
 70
   192
  0
VERTEX
  5
645
  8
0
 10
120.0079803466797
 20
20.32063484191895
 30
-9.464746475219727
 70
   192
  0
VERTEX
  5
646
  8
0
 10
119.733512878418
 20
19.17415809631348
 30
0.4748091995716095
 70
   192
  0
VERTEX
  5
647
  8
0
 10
119.9200439453125
 20
19.95737648010254
 30
-4.469628810882568
 70
   192
  0
VERTEX
  5
648
  8
0
 10
119.9198684692383
 20
19.95697784423828
 30
-19.46714973449707
 70
   192
  0
VERTEX
  5
649
  8
0
 10
118.9410095214844
 20
17.46649551391602
 30
-29.0856819152832
 70
   192
  0
VERTEX
  5
64A
  8
0
 10
119.4692306518555
 20
19.53325080871582
 30
-6.196608543395996
 70
   192
  0
VERTEX
  5
64B
  8
0
 10
119.536750793457
 20
19.80172157287598
 30
-11.96873378753662
 70
   192
  0
VERTEX
  5
64C
  8
0
 10
119.4708709716797
 20
19.54055213928223
 30
-17.74188804626465
 70
   192
  0
VERTEX
  5
64D
  8
0
 10
119.6632690429688
 20
-11.54154777526855
 30
6.961455821990967
 70
   192
  0
VERTEX
  5
64E
  8
0
 10
119.8560333251953
 20
-5.812109470367432
 30
7.748411178588867
 70
   192
  0
VERTEX
  5
64F
  8
0
 10
119.2785263061523
 20
-11.49320888519287
 30
6.779238700866699
 70
   192
  0
VERTEX
  5
650
  8
0
 10
119.2781448364258
 20
11.49547576904297
 30
6.789182662963867
 70
   192
  0
VERTEX
  5
651
  8
0
 10
119.6598815917969
 20
11.56998443603516
 30
6.957003116607666
 70
   192
  0
VERTEX
  5
652
  8
0
 10
119.9230194091797
 20
0.0009597395546734
 30
8.013835906982422
 70
   192
  0
VERTEX
  5
653
  8
0
 10
120.0143432617188
 20
2.506504535675049
 30
8.376237869262695
 70
   192
  0
VERTEX
  5
654
  8
0
 10
119.8556289672852
 20
5.834640979766846
 30
7.747082710266113
 70
   192
  0
VERTEX
  5
655
  8
0
 10
119.7330856323242
 20
12.44508838653564
 30
7.204104423522949
 70
   192
  0
VERTEX
  5
656
  8
0
 10
120.0079498291016
 20
-2.502236843109131
 30
8.350186347961426
 70
   192
  0
VERTEX
  5
657
  8
0
 10
119.7335052490234
 20
-12.44179058074951
 30
7.203704833984375
 70
   192
  0
VERTEX
  5
658
  8
0
 10
119.9200134277344
 20
-7.497353076934814
 30
7.986926555633545
 70
   192
  0
VERTEX
  5
659
  8
0
 10
119.9198608398438
 20
7.500165939331055
 30
7.986526012420654
 70
   192
  0
VERTEX
  5
65A
  8
0
 10
119.4710235595703
 20
-5.771488666534424
 30
7.569827556610107
 70
   192
  0
VERTEX
  5
65B
  8
0
 10
119.536262512207
 20
0.0001297181879636
 30
7.83090353012085
 70
   192
  0
VERTEX
  5
65C
  8
0
 10
119.4710845947266
 20
5.77372407913208
 30
7.570353507995605
 70
   192
  0
VERTEX
  5
65D
  8
0
 10
119.2790145874023
 20
-18.75612258911133
 30
-23.46367645263672
 70
   192
  0
VERTEX
  5
65E
  8
0
 10
119.6632766723633
 20
-18.92843246459961
 30
-23.51200294494629
 70
   192
  0
VERTEX
  5
65F
  8
0
 10
119.8560638427734
 20
-19.71538734436035
 30
-17.78256416320801
 70
   192
  0
VERTEX
  5
660
  8
0
 10
118.9410629272461
 20
-17.46302032470703
 30
-29.0856819152832
 70
   192
  0
VERTEX
  5
661
  8
0
 10
119.8556442260742
 20
-19.71405982971191
 30
-6.135806560516357
 70
   192
  0
VERTEX
  5
662
  8
0
 10
120.0143737792969
 20
-20.34321212768555
 30
-9.463948249816895
 70
   192
  0
VERTEX
  5
663
  8
0
 10
119.9198684692383
 20
-19.95350456237793
 30
-4.47028636932373
 70
   192
  0
VERTEX
  5
664
  8
0
 10
119.9200439453125
 20
-19.95390129089355
 30
-19.46780586242676
 70
   192
  0
VERTEX
  5
665
  8
0
 10
119.6598739624023
 20
-18.92398071289062
 30
-0.4004630744457245
 70
   192
  0
VERTEX
  5
666
  8
0
 10
119.7330703735352
 20
-19.17108535766602
 30
0.4746354222297668
 70
   192
  0
VERTEX
  5
667
  8
0
 10
119.9230499267578
 20
-19.98081207275391
 30
-11.96949005126953
 70
   192
  0
VERTEX
  5
668
  8
0
 10
120.0079803466797
 20
-20.31715965270996
 30
-14.47268962860107
 70
   192
  0
VERTEX
  5
669
  8
0
 10
119.3183670043945
 20
-17.62221336364746
 30
-29.15952491760254
 70
   192
  0
VERTEX
  5
66A
  8
0
 10
119.4702835083008
 20
-19.53389739990234
 30
-17.74095726013184
 70
   192
  0
VERTEX
  5
66B
  8
0
 10
119.4343414306641
 20
-18.00479888916016
 30
-29.27498817443848
 70
   192
  0
VERTEX
  5
66C
  8
0
 10
119.733512878418
 20
-19.17068290710449
 30
-24.4122428894043
 70
   192
  0
VERTEX
  5
66D
  8
0
 10
119.4342956542969
 20
17.30801200866699
 30
-29.97525596618652
 70
   192
  0
VERTEX
  5
66E
  8
0
 10
119.3183212280273
 20
17.19254684448242
 30
-29.59266662597656
 70
   192
  0
VERTEX
  5
66F
  8
0
 10
119.3025665283203
 20
17.46322631835938
 30
-29.43005752563477
 70
   192
  0
VERTEX
  5
670
  8
0
 10
119.4146041870117
 20
17.74961280822754
 30
-29.71636009216309
 70
   192
  0
VERTEX
  5
671
  8
0
 10
118.9212875366211
 20
17.33838081359863
 30
-29.30524063110352
 70
   192
  0
VERTEX
  5
672
  8
0
 10
118.9410095214844
 20
17.11870384216309
 30
-29.43347358703613
 70
   192
  0
VERTEX
  5
673
  8
0
 10
119.318359375
 20
-17.18906784057617
 30
-29.5926685333252
 70
   192
  0
VERTEX
  5
674
  8
0
 10
119.3026123046875
 20
-17.45960235595703
 30
-29.43020439147949
 70
   192
  0
VERTEX
  5
675
  8
0
 10
118.9410552978516
 20
-17.1152286529541
 30
-29.43347358703613
 70
   192
  0
VERTEX
  5
676
  8
0
 10
119.4146499633789
 20
-17.74590301513672
 30
-29.71658897399902
 70
   192
  0
VERTEX
  5
677
  8
0
 10
119.4343338012695
 20
-17.30453109741211
 30
-29.97525787353516
 70
   192
  0
VERTEX
  5
678
  8
0
 10
118.9213333129883
 20
-17.33478736877441
 30
-29.30535888671875
 70
   192
  0
VERTEX
  5
679
  8
0
 10
119.6632461547852
 20
11.54502773284912
 30
-30.89888763427734
 70
   192
  0
VERTEX
  5
67A
  8
0
 10
119.8560562133789
 20
5.815587997436523
 30
-31.68584060668945
 70
   192
  0
VERTEX
  5
67B
  8
0
 10
119.2789840698242
 20
11.49669742584229
 30
-30.72657585144043
 70
   192
  0
VERTEX
  5
67C
  8
0
 10
119.2797393798828
 20
-11.49393463134766
 30
-30.7266731262207
 70
   192
  0
VERTEX
  5
67D
  8
0
 10
119.6599044799805
 20
-11.56651973724365
 30
-30.89443206787109
 70
   192
  0
VERTEX
  5
67E
  8
0
 10
119.9230651855469
 20
0.0025100132916123
 30
-31.95126342773438
 70
   192
  0
VERTEX
  5
67F
  8
0
 10
120.014404296875
 20
-2.50303053855896
 30
-32.31366348266602
 70
   192
  0
VERTEX
  5
680
  8
0
 10
119.8556747436523
 20
-5.831175804138184
 30
-31.68451118469238
 70
   192
  0
VERTEX
  5
681
  8
0
 10
119.7331008911133
 20
-12.44161605834961
 30
-31.14153480529785
 70
   192
  0
VERTEX
  5
682
  8
0
 10
120.0079879760742
 20
2.505711793899536
 30
-32.28761291503906
 70
   192
  0
VERTEX
  5
683
  8
0
 10
119.7334747314453
 20
12.44526672363281
 30
-31.14113998413086
 70
   192
  0
VERTEX
  5
684
  8
0
 10
119.9200210571289
 20
7.500828742980957
 30
-31.92435646057129
 70
   192
  0
VERTEX
  5
685
  8
0
 10
119.9199066162109
 20
-7.496693134307861
 30
-31.92395210266113
 70
   192
  0
VERTEX
  5
686
  8
0
 10
119.4692230224609
 20
5.773845672607422
 30
-31.50022888183594
 70
   192
  0
VERTEX
  5
687
  8
0
 10
119.5367660522461
 20
0.0017209555953741
 30
-31.76869964599609
 70
   192
  0
VERTEX
  5
688
  8
0
 10
119.4709091186523
 20
-5.771434307098389
 30
-31.50752830505371
 70
   192
  0
VERTEX
  5
689
  8
0
 10
119.8837280273438
 20
0.0290995873510838
 30
-33.07123565673828
 70
   192
  0
VERTEX
  5
68A
  8
0
 10
119.8453063964844
 20
-4.659939289093018
 30
-32.90244293212891
 70
   192
  0
VERTEX
  5
68B
  8
0
 10
119.7338714599609
 20
-9.297883987426758
 30
-32.39667892456055
 70
   192
  0
VERTEX
  5
68C
  8
0
 10
119.5487976074219
 20
-13.8815860748291
 30
-31.55756759643555
 70
   192
  0
VERTEX
  5
68D
  8
0
 10
119.5486679077148
 20
-19.58631896972656
 30
-25.85561943054199
 70
   192
  0
VERTEX
  5
68E
  8
0
 10
119.8452682495117
 20
20.93546867370605
 30
-16.63039588928223
 70
   192
  0
VERTEX
  5
68F
  8
0
 10
119.7338333129883
 20
20.4297046661377
 30
-21.26833915710449
 70
   192
  0
VERTEX
  5
690
  8
0
 10
119.5486145019531
 20
13.88864421844482
 30
-31.55677795410156
 70
   192
  0
VERTEX
  5
691
  8
0
 10
119.8837051391602
 20
21.10426139831543
 30
-11.94135761260986
 70
   192
  0
VERTEX
  5
692
  8
0
 10
119.2598190307617
 20
18.41642951965332
 30
-30.38340377807617
 70
   192
  0
VERTEX
  5
693
  8
0
 10
119.5487594604492
 20
19.5905933380127
 30
-25.85204124450684
 70
   192
  0
VERTEX
  5
694
  8
0
 10
119.8447875976562
 20
20.93306541442871
 30
-7.27407693862915
 70
   192
  0
VERTEX
  5
695
  8
0
 10
119.8836669921875
 20
-0.0256214663386345
 30
9.133811950683594
 70
   192
  0
VERTEX
  5
696
  8
0
 10
119.5486679077148
 20
19.58979415893555
 30
1.918187141418457
 70
   192
  0
VERTEX
  5
697
  8
0
 10
119.7338333129883
 20
9.301355361938477
 30
8.45925235748291
 70
   192
  0
VERTEX
  5
698
  8
0
 10
119.8452453613281
 20
4.663413524627686
 30
8.965018272399902
 70
   192
  0
VERTEX
  5
699
  8
0
 10
119.8447494506836
 20
-4.692901134490967
 30
8.962615966796875
 70
   192
  0
VERTEX
  5
69A
  8
0
 10
119.8447875976562
 20
4.696381092071533
 30
-32.90004348754883
 70
   192
  0
VERTEX
  5
69B
  8
0
 10
119.7334365844727
 20
-9.312426567077637
 30
8.457123756408691
 70
   192
  0
VERTEX
  5
69C
  8
0
 10
119.5486602783203
 20
-13.88516521453857
 30
7.619340896606445
 70
   192
  0
VERTEX
  5
69D
  8
0
 10
119.8452682495117
 20
-20.93199348449707
 30
-7.307042121887207
 70
   192
  0
VERTEX
  5
69E
  8
0
 10
119.7338333129883
 20
-20.42623138427734
 30
-2.669097185134888
 70
   192
  0
VERTEX
  5
69F
  8
0
 10
119.259880065918
 20
-18.41295433044434
 30
6.445964813232422
 70
   192
  0
VERTEX
  5
6A0
  8
0
 10
119.5487670898438
 20
-19.58712005615234
 30
1.914605259895325
 70
   192
  0
VERTEX
  5
6A1
  8
0
 10
119.8837051391602
 20
-21.10078620910645
 30
-11.99608039855957
 70
   192
  0
VERTEX
  5
6A2
  8
0
 10
119.8447875976562
 20
-20.92959022521973
 30
-16.66335868835449
 70
   192
  0
VERTEX
  5
6A3
  8
0
 10
119.7334594726562
 20
20.42757415771484
 30
-2.654550790786743
 70
   192
  0
VERTEX
  5
6A4
  8
0
 10
119.5487899780273
 20
13.8850564956665
 30
7.620138168334961
 70
   192
  0
VERTEX
  5
6A5
  8
0
 10
119.259895324707
 20
18.41641998291016
 30
6.445971965789795
 70
   192
  0
VERTEX
  5
6A6
  8
0
 10
119.7334289550781
 20
9.315906524658203
 30
-32.39455413818359
 70
   192
  0
VERTEX
  5
6A7
  8
0
 10
119.7334594726562
 20
-20.42409896850586
 30
-21.28288269042969
 70
   192
  0
VERTEX
  5
6A8
  8
0
 10
119.259880065918
 20
-18.4129467010498
 30
-30.3834056854248
 70
   192
  0
VERTEX
  5
6A9
  8
0
 10
119.28271484375
 20
8.015363693237305
 30
-32.97754669189453
 70
   192
  0
VERTEX
  5
6AA
  8
0
 10
119.4107055664062
 20
13.29021644592285
 30
-31.98916435241699
 70
   192
  0
VERTEX
  5
6AB
  8
0
 10
119.0887680053711
 20
13.29955768585205
 30
-32.10768890380859
 70
   192
  0
VERTEX
  5
6AC
  8
0
 10
119.093017578125
 20
18.4905948638916
 30
-30.68180084228516
 70
   192
  0
VERTEX
  5
6AD
  8
0
 10
119.3816375732422
 20
2.67700982093811
 30
-33.41424560546875
 70
   192
  0
VERTEX
  5
6AE
  8
0
 10
119.6963195800781
 20
2.711967945098877
 30
-33.30019760131836
 70
   192
  0
VERTEX
  5
6AF
  8
0
 10
119.5997695922852
 20
8.031214714050293
 30
-32.86084365844727
 70
   192
  0
VERTEX
  5
6B0
  8
0
 10
119.2836990356445
 20
-7.971982955932617
 30
-32.98214721679688
 70
   192
  0
VERTEX
  5
6B1
  8
0
 10
119.0872344970703
 20
-13.31707096099854
 30
-32.10319519042969
 70
   192
  0
VERTEX
  5
6B2
  8
0
 10
119.6002044677734
 20
-8.008328437805176
 30
-32.86351013183594
 70
   192
  0
VERTEX
  5
6B3
  8
0
 10
119.6972274780273
 20
-2.657598733901978
 30
-33.3022575378418
 70
   192
  0
VERTEX
  5
6B4
  8
0
 10
119.3823623657227
 20
-2.593542814254761
 30
-33.41728591918945
 70
   192
  0
VERTEX
  5
6B5
  8
0
 10
118.766357421875
 20
-18.49721145629883
 30
-30.80637359619141
 70
   192
  0
VERTEX
  5
6B6
  8
0
 10
119.0930786132812
 20
-18.48711395263672
 30
-30.68180084228516
 70
   192
  0
VERTEX
  5
6B7
  8
0
 10
119.4090805053711
 20
-13.28209114074707
 30
-31.98999786376953
 70
   192
  0
VERTEX
  5
6B8
  8
0
 10
118.7663040161133
 20
18.50068664550781
 30
-30.80637359619141
 70
   192
  0
VERTEX
  5
6B9
  8
0
 10
119.6963119506836
 20
-21.32974624633789
 30
-14.67894744873047
 70
   192
  0
VERTEX
  5
6BA
  8
0
 10
119.6001586914062
 20
-20.8930606842041
 30
-3.958653211593628
 70
   192
  0
VERTEX
  5
6BB
  8
0
 10
119.2426605224609
 20
-20.82760238647461
 30
-2.612390518188477
 70
   192
  0
VERTEX
  5
6BC
  8
0
 10
119.409049987793
 20
-20.0195484161377
 30
1.315110206604004
 70
   192
  0
VERTEX
  5
6BD
  8
0
 10
119.3563995361328
 20
-21.33409690856934
 30
-7.330648899078369
 70
   192
  0
VERTEX
  5
6BE
  8
0
 10
119.0930786132812
 20
-18.71134948730469
 30
6.520133972167969
 70
   192
  0
VERTEX
  5
6BF
  8
0
 10
119.0561141967773
 20
-19.99638938903809
 30
1.988013386726379
 70
   192
  0
VERTEX
  5
6C0
  8
0
 10
118.766357421875
 20
-18.83592224121094
 30
6.530233860015869
 70
   192
  0
VERTEX
  5
6C1
  8
0
 10
119.410758972168
 20
-20.01870918273926
 30
-25.25719451904297
 70
   192
  0
VERTEX
  5
6C2
  8
0
 10
119.5997924804688
 20
-20.89038848876953
 30
-19.99819183349609
 70
   192
  0
VERTEX
  5
6C3
  8
0
 10
119.6971893310547
 20
-21.33180809020996
 30
-9.309383392333984
 70
   192
  0
VERTEX
  5
6C4
  8
0
 10
119.0930786132812
 20
-18.71134567260742
 30
-30.45757102966309
 70
   192
  0
VERTEX
  5
6C5
  8
0
 10
119.2827377319336
 20
21.01056671142578
 30
-3.955065011978149
 70
   192
  0
VERTEX
  5
6C6
  8
0
 10
119.410758972168
 20
20.02218437194824
 30
1.319761157035828
 70
   192
  0
VERTEX
  5
6C7
  8
0
 10
119.0888214111328
 20
20.14071083068848
 30
1.329104781150818
 70
   192
  0
VERTEX
  5
6C8
  8
0
 10
119.0931015014648
 20
18.71482086181641
 30
6.520139217376709
 70
   192
  0
VERTEX
  5
6C9
  8
0
 10
119.3816223144531
 20
21.44726371765137
 30
-9.293384552001953
 70
   192
  0
VERTEX
  5
6CA
  8
0
 10
119.6963119506836
 20
21.33322143554688
 30
-9.258488655090332
 70
   192
  0
VERTEX
  5
6CB
  8
0
 10
119.5997924804688
 20
20.89386367797852
 30
-3.939242362976074
 70
   192
  0
VERTEX
  5
6CC
  8
0
 10
119.2836608886719
 20
21.01516723632812
 30
-19.94243812561035
 70
   192
  0
VERTEX
  5
6CD
  8
0
 10
119.0871963500977
 20
20.13621139526367
 30
-25.28754806518555
 70
   192
  0
VERTEX
  5
6CE
  8
0
 10
119.6001586914062
 20
20.89653396606445
 30
-19.97878265380859
 70
   192
  0
VERTEX
  5
6CF
  8
0
 10
119.6971969604492
 20
21.33528327941895
 30
-14.62805461883545
 70
   192
  0
VERTEX
  5
6D0
  8
0
 10
119.3823318481445
 20
21.45030975341797
 30
-14.56400012969971
 70
   192
  0
VERTEX
  5
6D1
  8
0
 10
118.7663040161133
 20
18.83939552307129
 30
-30.46766471862793
 70
   192
  0
VERTEX
  5
6D2
  8
0
 10
119.093017578125
 20
18.71482276916504
 30
-30.45756912231445
 70
   192
  0
VERTEX
  5
6D3
  8
0
 10
119.4090347290039
 20
20.02302169799805
 30
-25.25254440307617
 70
   192
  0
VERTEX
  5
6D4
  8
0
 10
118.7663803100586
 20
18.83939552307129
 30
6.530233860015869
 70
   192
  0
VERTEX
  5
6D5
  8
0
 10
119.28271484375
 20
-8.01192569732666
 30
9.04011344909668
 70
   192
  0
VERTEX
  5
6D6
  8
0
 10
119.4107513427734
 20
-13.28673934936523
 30
8.05173110961914
 70
   192
  0
VERTEX
  5
6D7
  8
0
 10
119.0888137817383
 20
-13.29609203338623
 30
8.170256614685059
 70
   192
  0
VERTEX
  5
6D8
  8
0
 10
119.6001510620117
 20
8.011800765991211
 30
8.926081657409668
 70
   192
  0
VERTEX
  5
6D9
  8
0
 10
119.2836532592773
 20
7.975476264953613
 30
9.044713020324707
 70
   192
  0
VERTEX
  5
6DA
  8
0
 10
119.0872192382812
 20
13.32057189941406
 30
8.16575813293457
 70
   192
  0
VERTEX
  5
6DB
  8
0
 10
119.6971588134766
 20
2.661074638366699
 30
9.36483097076416
 70
   192
  0
VERTEX
  5
6DC
  8
0
 10
118.7663803100586
 20
18.50068664550781
 30
6.868943214416504
 70
   192
  0
VERTEX
  5
6DD
  8
0
 10
119.409065246582
 20
13.28556251525879
 30
8.052568435668945
 70
   192
  0
VERTEX
  5
6DE
  8
0
 10
119.0930786132812
 20
-18.48711967468262
 30
6.744366645812988
 70
   192
  0
VERTEX
  5
6DF
  8
0
 10
119.3823013305664
 20
2.597050666809082
 30
9.47985553741455
 70
   192
  0
VERTEX
  5
6E0
  8
0
 10
119.6962738037109
 20
-2.708489418029785
 30
9.362770080566406
 70
   192
  0
VERTEX
  5
6E1
  8
0
 10
119.3815841674805
 20
-2.673639535903931
 30
9.476808547973633
 70
   192
  0
VERTEX
  5
6E2
  8
0
 10
118.766357421875
 20
-18.49721145629883
 30
6.868943214416504
 70
   192
  0
VERTEX
  5
6E3
  8
0
 10
119.5997619628906
 20
-8.027735710144043
 30
8.92341136932373
 70
   192
  0
VERTEX
  5
6E4
  8
0
 10
119.0930938720703
 20
18.49058723449707
 30
6.744369983673096
 70
   192
  0
VERTEX
  5
6E5
  8
0
 10
114.6236572265625
 20
18.83939552307129
 30
6.530233860015869
 70
   192
  0
VERTEX
  5
6E6
  8
0
 10
114.6236572265625
 20
21.50173759460449
 30
-11.96871566772461
 70
   192
  0
VERTEX
  5
6E7
  8
0
 10
114.6236572265625
 20
20.30506134033203
 30
0.5043261647224426
 70
   192
  0
VERTEX
  5
6E8
  8
0
 10
114.6236572265625
 20
21.20053100585938
 30
-5.689409255981445
 70
   192
  0
VERTEX
  5
6E9
  8
0
 10
114.6236572265625
 20
20.30487060546875
 30
-24.44221687316895
 70
   192
  0
VERTEX
  5
6EA
  8
0
 10
114.6236572265625
 20
21.20044136047363
 30
-18.24851989746094
 70
   192
  0
VERTEX
  5
6EB
  8
0
 10
114.6236572265625
 20
18.83939552307129
 30
-30.46766471862793
 70
   192
  0
VERTEX
  5
6EC
  8
0
 10
114.6236572265625
 20
18.50068664550781
 30
-30.80637359619141
 70
   192
  0
VERTEX
  5
6ED
  8
0
 10
114.6236572265625
 20
0.0017372701549903
 30
-33.46871566772461
 70
   192
  0
VERTEX
  5
6EE
  8
0
 10
114.6236572265625
 20
12.47477912902832
 30
-32.27204132080078
 70
   192
  0
VERTEX
  5
6EF
  8
0
 10
114.6236572265625
 20
6.281043529510498
 30
-33.16751098632812
 70
   192
  0
VERTEX
  5
6F0
  8
0
 10
114.6236572265625
 20
-12.47176456451416
 30
-32.27184677124023
 70
   192
  0
VERTEX
  5
6F1
  8
0
 10
114.6236572265625
 20
-6.278067588806152
 30
-33.16741943359375
 70
   192
  0
VERTEX
  5
6F2
  8
0
 10
114.6236572265625
 20
-18.49721145629883
 30
-30.80637359619141
 70
   192
  0
VERTEX
  5
6F3
  8
0
 10
114.6236572265625
 20
-20.30953788757324
 30
0.4628849625587463
 70
   192
  0
VERTEX
  5
6F4
  8
0
 10
114.6236572265625
 20
-18.83592224121094
 30
6.530233860015869
 70
   192
  0
VERTEX
  5
6F5
  8
0
 10
114.6236572265625
 20
-21.20108604431152
 30
-5.731552600860596
 70
   192
  0
VERTEX
  5
6F6
  8
0
 10
114.6236572265625
 20
-18.49721145629883
 30
6.868943214416504
 70
   192
  0
VERTEX
  5
6F7
  8
0
 10
114.6236572265625
 20
0.0017372701549903
 30
9.53128433227539
 70
   192
  0
VERTEX
  5
6F8
  8
0
 10
114.6236572265625
 20
-12.47130393981934
 30
8.334609985351562
 70
   192
  0
VERTEX
  5
6F9
  8
0
 10
114.6236572265625
 20
-6.277568817138672
 30
9.23007869720459
 70
   192
  0
VERTEX
  5
6FA
  8
0
 10
114.6236572265625
 20
12.47523975372314
 30
8.334418296813965
 70
   192
  0
VERTEX
  5
6FB
  8
0
 10
114.6236572265625
 20
6.28154182434082
 30
9.229988098144531
 70
   192
  0
VERTEX
  5
6FC
  8
0
 10
114.6236572265625
 20
18.50068664550781
 30
6.868943214416504
 70
   192
  0
VERTEX
  5
6FD
  8
0
 62
     9
 10
0.0
 20
0.0
 30
0.0
 70
   128
 71
     3
 72
     2
 73
     1
  0
VERTEX
  5
6FE
  8
0
 62
     9
 10
0.0
 20
0.0
 30
0.0
 70
   128
 71
     5
 72
     4
 73
     3
  0
VERTEX
  5
6FF
  8
0
 62
     9
 10
0.0
 20
0.0
 30
0.0
 70
   128
 71
     2
 72
     3
 73
     4
  0
VERTEX
  5
700
  8
0
 62
     9
 10
0.0
 20
0.0
 30
0.0
 70
   128
 71
     1
 72
     2
 73
     6
  0
VERTEX
  5
701
  8
0
 62
     9
 10
0.0
 20
0.0
 30
0.0
 70
   128
 71
     7
 72
     1
 73
     6
  0
VERTEX
  5
702
  8
0
 62
     9
 10
0.0
 20
0.0
 30
0.0
 70
   128
 71
     8
 72
     7
 73
     6
  0
VERTEX
  5
703
  8
0
 62
     9
 10
0.0
 20
0.0
 30
0.0
 70
   128
 71
     8
 72
     9
 73
     7
  0
VERTEX
  5
704
  8
0
 62
     9
 10
0.0
 20
0.0
 30
0.0
 70
   128
 71
    12
 72
    11
 73
    10
  0
VERTEX
  5
705
  8
0
 62
     9
 10
0.0
 20
0.0
 30
0.0
 70
   128
 71
    15
 72
    14
 73
    13
  0
VERTEX
  5
706
  8
0
 62
     9
 10
0.0
 20
0.0
 30
0.0
 70
   128
 71
    14
 72
    11
 73
    13
  0
VERTEX
  5
707
  8
0
 62
     9
 10
0.0
 20
0.0
 30
0.0
 70
   128
 71
    14
 72
    10
 73
    11
  0
VERTEX
  5
708
  8
0
 62
     9
 10
0.0
 20
0.0
 30
0.0
 70
   128
 71
    12
 72
    10
 73
    16
  0
VERTEX
  5
709
  8
0
 62
     9
 10
0.0
 20
0.0
 30
0.0
 70
   128
 71
    16
 72
    18
 73
    17
  0
VERTEX
  5
70A
  8
0
 62
     9
 10
0.0
 20
0.0
 30
0.0
 70
   128
 71
    17
 72
    12
 73
    16
  0
VERTEX
  5
70B
  8
0
 62
     9
 10
0.0
 20
0.0
 30
0.0
 70
   128
 71
    21
 72
    20
 73
    19
  0
VERTEX
  5
70C
  8
0
 62
     9
 10
0.0
 20
0.0
 30
0.0
 70
   128
 71
    20
 72
    21
 73
    22
  0
VERTEX
  5
70D
  8
0
 62
     9
 10
0.0
 20
0.0
 30
0.0
 70
   128
 71
    19
 72
    20
 73
    23
  0
VERTEX
  5
70E
  8
0
 62
     9
 10
0.0
 20
0.0
 30
0.0
 70
   128
 71
    21
 72
    19
 73
    24
  0
VERTEX
  5
70F
  8
0
 62
     9
 10
0.0
 20
0.0
 30
0.0
 70
   128
 71
    21
 72
    26
 73
    25
  0
VERTEX
  5
710
  8
0
 62
     9
 10
0.0
 20
0.0
 30
0.0
 70
   128
 71
    26
 72
    28
 73
    27
  0
VERTEX
  5
711
  8
0
 62
     9
 10
0.0
 20
0.0
 30
0.0
 70
   128
 71
    27
 72
    30
 73
    29
  0
VERTEX
  5
712
  8
0
 62
     9
 10
0.0
 20
0.0
 30
0.0
 70
   128
 71
    25
 72
    26
 73
    29
  0
VERTEX
  5
713
  8
0
 62
     9
 10
0.0
 20
0.0
 30
0.0
 70
   128
 71
    21
 72
    25
 73
    22
  0
VERTEX
  5
714
  8
0
 62
     9
 10
0.0
 20
0.0
 30
0.0
 70
   128
 71
    24
 72
    26
 73
    21
  0
VERTEX
  5
715
  8
0
 62
     9
 10
0.0
 20
0.0
 30
0.0
 70
   128
 71
    29
 72
    26
 73
    27
  0
VERTEX
  5
716
  8
0
 62
     9
 10
0.0
 20
0.0
 30
0.0
 70
   128
 71
    26
 72
    24
 73
    28
  0
VERTEX
  5
717
  8
0
 62
     9
 10
0.0
 20
0.0
 30
0.0
 70
   128
 71
    33
 72
    32
 73
    31
  0
VERTEX
  5
718
  8
0
 62
     9
 10
0.0
 20
0.0
 30
0.0
 70
   128
 71
    36
 72
    35
 73
    34
  0
VERTEX
  5
719
  8
0
 62
     9
 10
0.0
 20
0.0
 30
0.0
 70
   128
 71
    39
 72
    38
 73
    37
  0
VERTEX
  5
71A
  8
0
 62
     9
 10
0.0
 20
0.0
 30
0.0
 70
   128
 71
    33
 72
    41
 73
    40
  0
VERTEX
  5
71B
  8
0
 62
     9
 10
0.0
 20
0.0
 30
0.0
 70
   128
 71
    38
 72
    39
 73
    42
  0
VERTEX
  5
71C
  8
0
 62
     9
 10
0.0
 20
0.0
 30
0.0
 70
   128
 71
    45
 72
    44
 73
    43
  0
VERTEX
  5
71D
  8
0
 62
     9
 10
0.0
 20
0.0
 30
0.0
 70
   128
 71
    44
 72
    47
 73
    46
  0
VERTEX
  5
71E
  8
0
 62
     9
 10
0.0
 20
0.0
 30
0.0
 70
   128
 71
    47
 72
    31
 73
    46
  0
VERTEX
  5
71F
  8
0
 62
     9
 10
0.0
 20
0.0
 30
0.0
 70
   128
 71
    45
 72
    30
 73
    47
  0
VERTEX
  5
720
  8
0
 62
     9
 10
0.0
 20
0.0
 30
0.0
 70
   128
 71
    31
 72
    48
 73
    33
  0
VERTEX
  5
721
  8
0
 62
     9
 10
0.0
 20
0.0
 30
0.0
 70
   128
 71
    31
 72
    47
 73
    49
  0
VERTEX
  5
722
  8
0
 62
     9
 10
0.0
 20
0.0
 30
0.0
 70
   128
 71
    39
 72
    50
 73
    40
  0
VERTEX
  5
723
  8
0
 62
     9
 10
0.0
 20
0.0
 30
0.0
 70
   128
 71
    33
 72
    48
 73
    41
  0
VERTEX
  5
724
  8
0
 62
     9
 10
0.0
 20
0.0
 30
0.0
 70
   128
 71
    37
 72
    36
 73
    34
  0
VERTEX
  5
725
  8
0
 62
     9
 10
0.0
 20
0.0
 30
0.0
 70
   128
 71
    40
 72
    42
 73
    39
  0
VERTEX
  5
726
  8
0
 62
     9
 10
0.0
 20
0.0
 30
0.0
 70
   128
 71
    51
 72
    37
 73
    34
  0
VERTEX
  5
727
  8
0
 62
     9
 10
0.0
 20
0.0
 30
0.0
 70
   128
 71
    49
 72
    47
 73
    30
  0
VERTEX
  5
728
  8
0
 62
     9
 10
0.0
 20
0.0
 30
0.0
 70
   128
 71
    47
 72
    44
 73
    45
  0
VERTEX
  5
729
  8
0
 62
     9
 10
0.0
 20
0.0
 30
0.0
 70
   128
 71
    46
 72
    31
 73
    32
  0
VERTEX
  5
72A
  8
0
 62
     9
 10
0.0
 20
0.0
 30
0.0
 70
   128
 71
    48
 72
    31
 73
    49
  0
VERTEX
  5
72B
  8
0
 62
     9
 10
0.0
 20
0.0
 30
0.0
 70
   128
 71
    33
 72
    52
 73
    32
  0
VERTEX
  5
72C
  8
0
 62
     9
 10
0.0
 20
0.0
 30
0.0
 70
   128
 71
    42
 72
    40
 73
    41
  0
VERTEX
  5
72D
  8
0
 62
     9
 10
0.0
 20
0.0
 30
0.0
 70
   128
 71
    40
 72
    52
 73
    33
  0
VERTEX
  5
72E
  8
0
 62
     9
 10
0.0
 20
0.0
 30
0.0
 70
   128
 71
    52
 72
    40
 73
    50
  0
VERTEX
  5
72F
  8
0
 62
     9
 10
0.0
 20
0.0
 30
0.0
 70
   128
 71
    39
 72
    53
 73
    50
  0
VERTEX
  5
730
  8
0
 62
     9
 10
0.0
 20
0.0
 30
0.0
 70
   128
 71
    37
 72
    51
 73
    53
  0
VERTEX
  5
731
  8
0
 62
     9
 10
0.0
 20
0.0
 30
0.0
 70
   128
 71
    37
 72
    53
 73
    39
  0
VERTEX
  5
732
  8
0
 62
     9
 10
0.0
 20
0.0
 30
0.0
 70
   128
 71
    36
 72
    37
 73
    38
  0
VERTEX
  5
733
  8
0
 62
     9
 10
0.0
 20
0.0
 30
0.0
 70
   128
 71
    56
 72
    55
 73
    54
  0
VERTEX
  5
734
  8
0
 62
     9
 10
0.0
 20
0.0
 30
0.0
 70
   128
 71
    22
 72
    57
 73
    20
  0
VERTEX
  5
735
  8
0
 62
     9
 10
0.0
 20
0.0
 30
0.0
 70
   128
 71
    56
 72
    58
 73
    55
  0
VERTEX
  5
736
  8
0
 62
     9
 10
0.0
 20
0.0
 30
0.0
 70
   128
 71
    54
 72
    55
 73
    59
  0
VERTEX
  5
737
  8
0
 62
     9
 10
0.0
 20
0.0
 30
0.0
 70
   128
 71
    55
 72
    61
 73
    60
  0
VERTEX
  5
738
  8
0
 62
     9
 10
0.0
 20
0.0
 30
0.0
 70
   128
 71
    61
 72
    57
 73
    60
  0
VERTEX
  5
739
  8
0
 62
     9
 10
0.0
 20
0.0
 30
0.0
 70
   128
 71
    62
 72
    56
 73
    54
  0
VERTEX
  5
73A
  8
0
 62
     9
 10
0.0
 20
0.0
 30
0.0
 70
   128
 71
    61
 72
    23
 73
    20
  0
VERTEX
  5
73B
  8
0
 62
     9
 10
0.0
 20
0.0
 30
0.0
 70
   128
 71
    55
 72
    60
 73
    59
  0
VERTEX
  5
73C
  8
0
 62
     9
 10
0.0
 20
0.0
 30
0.0
 70
   128
 71
    58
 72
    61
 73
    55
  0
VERTEX
  5
73D
  8
0
 62
     9
 10
0.0
 20
0.0
 30
0.0
 70
   128
 71
    57
 72
    61
 73
    20
  0
VERTEX
  5
73E
  8
0
 62
     9
 10
0.0
 20
0.0
 30
0.0
 70
   128
 71
    61
 72
    58
 73
    23
  0
VERTEX
  5
73F
  8
0
 62
     9
 10
0.0
 20
0.0
 30
0.0
 70
   128
 71
    65
 72
    64
 73
    63
  0
VERTEX
  5
740
  8
0
 62
     9
 10
0.0
 20
0.0
 30
0.0
 70
   128
 71
    68
 72
    67
 73
    66
  0
VERTEX
  5
741
  8
0
 62
     9
 10
0.0
 20
0.0
 30
0.0
 70
   128
 71
    71
 72
    70
 73
    69
  0
VERTEX
  5
742
  8
0
 62
     9
 10
0.0
 20
0.0
 30
0.0
 70
   128
 71
    74
 72
    73
 73
    72
  0
VERTEX
  5
743
  8
0
 62
     9
 10
0.0
 20
0.0
 30
0.0
 70
   128
 71
    70
 72
    71
 73
    75
  0
VERTEX
  5
744
  8
0
 62
     9
 10
0.0
 20
0.0
 30
0.0
 70
   128
 71
    16
 72
    76
 73
    18
  0
VERTEX
  5
745
  8
0
 62
     9
 10
0.0
 20
0.0
 30
0.0
 70
   128
 71
    76
 72
    16
 73
    77
  0
VERTEX
  5
746
  8
0
 62
     9
 10
0.0
 20
0.0
 30
0.0
 70
   128
 71
    16
 72
    10
 73
    77
  0
VERTEX
  5
747
  8
0
 62
     9
 10
0.0
 20
0.0
 30
0.0
 70
   128
 71
    35
 72
    76
 73
    77
  0
VERTEX
  5
748
  8
0
 62
     9
 10
0.0
 20
0.0
 30
0.0
 70
   128
 71
    63
 72
    64
 73
    73
  0
VERTEX
  5
749
  8
0
 62
     9
 10
0.0
 20
0.0
 30
0.0
 70
   128
 71
    77
 72
    64
 73
    65
  0
VERTEX
  5
74A
  8
0
 62
     9
 10
0.0
 20
0.0
 30
0.0
 70
   128
 71
    74
 72
    72
 73
    75
  0
VERTEX
  5
74B
  8
0
 62
     9
 10
0.0
 20
0.0
 30
0.0
 70
   128
 71
    63
 72
    73
 73
    74
  0
VERTEX
  5
74C
  8
0
 62
     9
 10
0.0
 20
0.0
 30
0.0
 70
   128
 71
    78
 72
    66
 73
    69
  0
VERTEX
  5
74D
  8
0
 62
     9
 10
0.0
 20
0.0
 30
0.0
 70
   128
 71
    75
 72
    72
 73
    70
  0
VERTEX
  5
74E
  8
0
 62
     9
 10
0.0
 20
0.0
 30
0.0
 70
   128
 71
    66
 72
    78
 73
    79
  0
VERTEX
  5
74F
  8
0
 62
     9
 10
0.0
 20
0.0
 30
0.0
 70
   128
 71
    66
 72
    67
 73
    69
  0
VERTEX
  5
750
  8
0
 62
     9
 10
0.0
 20
0.0
 30
0.0
 70
   128
 71
    10
 72
    64
 73
    77
  0
VERTEX
  5
751
  8
0
 62
     9
 10
0.0
 20
0.0
 30
0.0
 70
   128
 71
    65
 72
    35
 73
    77
  0
VERTEX
  5
752
  8
0
 62
     9
 10
0.0
 20
0.0
 30
0.0
 70
   128
 71
    14
 72
    64
 73
    10
  0
VERTEX
  5
753
  8
0
 62
     9
 10
0.0
 20
0.0
 30
0.0
 70
   128
 71
    15
 72
    73
 73
    14
  0
VERTEX
  5
754
  8
0
 62
     9
 10
0.0
 20
0.0
 30
0.0
 70
   128
 71
    73
 72
    64
 73
    14
  0
VERTEX
  5
755
  8
0
 62
     9
 10
0.0
 20
0.0
 30
0.0
 70
   128
 71
    80
 72
    72
 73
    15
  0
VERTEX
  5
756
  8
0
 62
     9
 10
0.0
 20
0.0
 30
0.0
 70
   128
 71
    72
 72
    73
 73
    15
  0
VERTEX
  5
757
  8
0
 62
     9
 10
0.0
 20
0.0
 30
0.0
 70
   128
 71
    81
 72
    70
 73
    80
  0
VERTEX
  5
758
  8
0
 62
     9
 10
0.0
 20
0.0
 30
0.0
 70
   128
 71
    70
 72
    72
 73
    80
  0
VERTEX
  5
759
  8
0
 62
     9
 10
0.0
 20
0.0
 30
0.0
 70
   128
 71
    78
 72
    69
 73
    81
  0
VERTEX
  5
75A
  8
0
 62
     9
 10
0.0
 20
0.0
 30
0.0
 70
   128
 71
    69
 72
    70
 73
    81
  0
VERTEX
  5
75B
  8
0
 62
     9
 10
0.0
 20
0.0
 30
0.0
 70
   128
 71
    69
 72
    67
 73
    71
  0
VERTEX
  5
75C
  8
0
 62
     9
 10
0.0
 20
0.0
 30
0.0
 70
   128
 71
    84
 72
    83
 73
    82
  0
VERTEX
  5
75D
  8
0
 62
     9
 10
0.0
 20
0.0
 30
0.0
 70
   128
 71
    87
 72
    86
 73
    85
  0
VERTEX
  5
75E
  8
0
 62
     9
 10
0.0
 20
0.0
 30
0.0
 70
   128
 71
    88
 72
    84
 73
    82
  0
VERTEX
  5
75F
  8
0
 62
     9
 10
0.0
 20
0.0
 30
0.0
 70
   128
 71
    83
 72
    89
 73
    82
  0
VERTEX
  5
760
  8
0
 62
     9
 10
0.0
 20
0.0
 30
0.0
 70
   128
 71
    89
 72
    86
 73
    82
  0
VERTEX
  5
761
  8
0
 62
     9
 10
0.0
 20
0.0
 30
0.0
 70
   128
 71
    90
 72
    83
 73
    84
  0
VERTEX
  5
762
  8
0
 62
     9
 10
0.0
 20
0.0
 30
0.0
 70
   128
 71
    82
 72
    87
 73
    88
  0
VERTEX
  5
763
  8
0
 62
     9
 10
0.0
 20
0.0
 30
0.0
 70
   128
 71
    87
 72
    82
 73
    86
  0
VERTEX
  5
764
  8
0
 62
     9
 10
0.0
 20
0.0
 30
0.0
 70
   128
 71
    92
 72
    91
 73
    17
  0
VERTEX
  5
765
  8
0
 62
     9
 10
0.0
 20
0.0
 30
0.0
 70
   128
 71
    95
 72
    94
 73
    93
  0
VERTEX
  5
766
  8
0
 62
     9
 10
0.0
 20
0.0
 30
0.0
 70
   128
 71
    91
 72
    95
 73
    17
  0
VERTEX
  5
767
  8
0
 62
     9
 10
0.0
 20
0.0
 30
0.0
 70
   128
 71
    96
 72
    91
 73
    92
  0
VERTEX
  5
768
  8
0
 62
     9
 10
0.0
 20
0.0
 30
0.0
 70
   128
 71
    97
 72
    94
 73
    91
  0
VERTEX
  5
769
  8
0
 62
     9
 10
0.0
 20
0.0
 30
0.0
 70
   128
 71
    98
 72
    96
 73
    92
  0
VERTEX
  5
76A
  8
0
 62
     9
 10
0.0
 20
0.0
 30
0.0
 70
   128
 71
    95
 72
    91
 73
    94
  0
VERTEX
  5
76B
  8
0
 62
     9
 10
0.0
 20
0.0
 30
0.0
 70
   128
 71
    91
 72
    96
 73
    97
  0
VERTEX
  5
76C
  8
0
 62
     9
 10
0.0
 20
0.0
 30
0.0
 70
   128
 71
   101
 72
   100
 73
    99
  0
VERTEX
  5
76D
  8
0
 62
     9
 10
0.0
 20
0.0
 30
0.0
 70
   128
 71
   102
 72
   100
 73
   101
  0
VERTEX
  5
76E
  8
0
 62
     9
 10
0.0
 20
0.0
 30
0.0
 70
   128
 71
   105
 72
   104
 73
   103
  0
VERTEX
  5
76F
  8
0
 62
     9
 10
0.0
 20
0.0
 30
0.0
 70
   128
 71
   108
 72
   107
 73
   106
  0
VERTEX
  5
770
  8
0
 62
     9
 10
0.0
 20
0.0
 30
0.0
 70
   128
 71
    59
 72
   110
 73
   109
  0
VERTEX
  5
771
  8
0
 62
     9
 10
0.0
 20
0.0
 30
0.0
 70
   128
 71
   113
 72
   112
 73
   111
  0
VERTEX
  5
772
  8
0
 62
     9
 10
0.0
 20
0.0
 30
0.0
 70
   128
 71
   109
 72
   115
 73
   114
  0
VERTEX
  5
773
  8
0
 62
     9
 10
0.0
 20
0.0
 30
0.0
 70
   128
 71
   115
 72
   109
 73
   110
  0
VERTEX
  5
774
  8
0
 62
     9
 10
0.0
 20
0.0
 30
0.0
 70
   128
 71
   116
 72
   111
 73
   112
  0
VERTEX
  5
775
  8
0
 62
     9
 10
0.0
 20
0.0
 30
0.0
 70
   128
 71
   115
 72
   117
 73
   111
  0
VERTEX
  5
776
  8
0
 62
     9
 10
0.0
 20
0.0
 30
0.0
 70
   128
 71
   117
 72
   113
 73
   111
  0
VERTEX
  5
777
  8
0
 62
     9
 10
0.0
 20
0.0
 30
0.0
 70
   128
 71
   104
 72
   105
 73
   100
  0
VERTEX
  5
778
  8
0
 62
     9
 10
0.0
 20
0.0
 30
0.0
 70
   128
 71
   112
 72
   103
 73
   104
  0
VERTEX
  5
779
  8
0
 62
     9
 10
0.0
 20
0.0
 30
0.0
 70
   128
 71
   107
 72
   102
 73
   101
  0
VERTEX
  5
77A
  8
0
 62
     9
 10
0.0
 20
0.0
 30
0.0
 70
   128
 71
   104
 72
   100
 73
   118
  0
VERTEX
  5
77B
  8
0
 62
     9
 10
0.0
 20
0.0
 30
0.0
 70
   128
 71
   101
 72
    68
 73
   106
  0
VERTEX
  5
77C
  8
0
 62
     9
 10
0.0
 20
0.0
 30
0.0
 70
   128
 71
   101
 72
    99
 73
    68
  0
VERTEX
  5
77D
  8
0
 62
     9
 10
0.0
 20
0.0
 30
0.0
 70
   128
 71
   107
 72
   101
 73
   106
  0
VERTEX
  5
77E
  8
0
 62
     9
 10
0.0
 20
0.0
 30
0.0
 70
   128
 71
   100
 72
   102
 73
   118
  0
VERTEX
  5
77F
  8
0
 62
     9
 10
0.0
 20
0.0
 30
0.0
 70
   128
 71
   100
 72
   105
 73
    99
  0
VERTEX
  5
780
  8
0
 62
     9
 10
0.0
 20
0.0
 30
0.0
 70
   128
 71
   119
 72
   104
 73
   118
  0
VERTEX
  5
781
  8
0
 62
     9
 10
0.0
 20
0.0
 30
0.0
 70
   128
 71
   112
 72
   113
 73
   103
  0
VERTEX
  5
782
  8
0
 62
     9
 10
0.0
 20
0.0
 30
0.0
 70
   128
 71
   119
 72
   112
 73
   104
  0
VERTEX
  5
783
  8
0
 62
     9
 10
0.0
 20
0.0
 30
0.0
 70
   128
 71
   112
 72
   119
 73
   116
  0
VERTEX
  5
784
  8
0
 62
     9
 10
0.0
 20
0.0
 30
0.0
 70
   128
 71
   120
 72
   111
 73
   116
  0
VERTEX
  5
785
  8
0
 62
     9
 10
0.0
 20
0.0
 30
0.0
 70
   128
 71
   114
 72
   115
 73
   120
  0
VERTEX
  5
786
  8
0
 62
     9
 10
0.0
 20
0.0
 30
0.0
 70
   128
 71
   120
 72
   115
 73
   111
  0
VERTEX
  5
787
  8
0
 62
     9
 10
0.0
 20
0.0
 30
0.0
 70
   128
 71
   115
 72
   110
 73
   117
  0
VERTEX
  5
788
  8
0
 62
     9
 10
0.0
 20
0.0
 30
0.0
 70
   128
 71
   123
 72
   122
 73
   121
  0
VERTEX
  5
789
  8
0
 62
     9
 10
0.0
 20
0.0
 30
0.0
 70
   128
 71
   126
 72
   125
 73
   124
  0
VERTEX
  5
78A
  8
0
 62
     9
 10
0.0
 20
0.0
 30
0.0
 70
   128
 71
   129
 72
   128
 73
   127
  0
VERTEX
  5
78B
  8
0
 62
     9
 10
0.0
 20
0.0
 30
0.0
 70
   128
 71
   131
 72
   130
 73
   124
  0
VERTEX
  5
78C
  8
0
 62
     9
 10
0.0
 20
0.0
 30
0.0
 70
   128
 71
    90
 72
   123
 73
   121
  0
VERTEX
  5
78D
  8
0
 62
     9
 10
0.0
 20
0.0
 30
0.0
 70
   128
 71
   122
 72
   127
 73
   132
  0
VERTEX
  5
78E
  8
0
 62
     9
 10
0.0
 20
0.0
 30
0.0
 70
   128
 71
    83
 72
   133
 73
    89
  0
VERTEX
  5
78F
  8
0
 62
     9
 10
0.0
 20
0.0
 30
0.0
 70
   128
 71
    90
 72
   121
 73
    83
  0
VERTEX
  5
790
  8
0
 62
     9
 10
0.0
 20
0.0
 30
0.0
 70
   128
 71
   133
 72
    83
 73
   121
  0
VERTEX
  5
791
  8
0
 62
     9
 10
0.0
 20
0.0
 30
0.0
 70
   128
 71
   122
 72
   134
 73
   121
  0
VERTEX
  5
792
  8
0
 62
     9
 10
0.0
 20
0.0
 30
0.0
 70
   128
 71
   129
 72
   135
 73
   128
  0
VERTEX
  5
793
  8
0
 62
     9
 10
0.0
 20
0.0
 30
0.0
 70
   128
 71
   127
 72
   128
 73
   132
  0
VERTEX
  5
794
  8
0
 62
     9
 10
0.0
 20
0.0
 30
0.0
 70
   128
 71
   124
 72
   130
 73
   126
  0
VERTEX
  5
795
  8
0
 62
     9
 10
0.0
 20
0.0
 30
0.0
 70
   128
 71
   126
 72
   135
 73
   129
  0
VERTEX
  5
796
  8
0
 62
     9
 10
0.0
 20
0.0
 30
0.0
 70
   128
 71
   124
 72
   125
 73
   136
  0
VERTEX
  5
797
  8
0
 62
     9
 10
0.0
 20
0.0
 30
0.0
 70
   128
 71
   123
 72
   137
 73
   122
  0
VERTEX
  5
798
  8
0
 62
     9
 10
0.0
 20
0.0
 30
0.0
 70
   128
 71
   133
 72
   121
 73
   134
  0
VERTEX
  5
799
  8
0
 62
     9
 10
0.0
 20
0.0
 30
0.0
 70
   128
 71
   137
 72
   138
 73
   127
  0
VERTEX
  5
79A
  8
0
 62
     9
 10
0.0
 20
0.0
 30
0.0
 70
   128
 71
   134
 72
   122
 73
   132
  0
VERTEX
  5
79B
  8
0
 62
     9
 10
0.0
 20
0.0
 30
0.0
 70
   128
 71
   127
 72
   122
 73
   137
  0
VERTEX
  5
79C
  8
0
 62
     9
 10
0.0
 20
0.0
 30
0.0
 70
   128
 71
   138
 72
   139
 73
   129
  0
VERTEX
  5
79D
  8
0
 62
     9
 10
0.0
 20
0.0
 30
0.0
 70
   128
 71
   129
 72
   127
 73
   138
  0
VERTEX
  5
79E
  8
0
 62
     9
 10
0.0
 20
0.0
 30
0.0
 70
   128
 71
   139
 72
   125
 73
   126
  0
VERTEX
  5
79F
  8
0
 62
     9
 10
0.0
 20
0.0
 30
0.0
 70
   128
 71
   126
 72
   129
 73
   139
  0
VERTEX
  5
7A0
  8
0
 62
     9
 10
0.0
 20
0.0
 30
0.0
 70
   128
 71
   126
 72
   130
 73
   135
  0
VERTEX
  5
7A1
  8
0
 62
     9
 10
0.0
 20
0.0
 30
0.0
 70
   128
 71
   142
 72
   141
 73
   140
  0
VERTEX
  5
7A2
  8
0
 62
     9
 10
0.0
 20
0.0
 30
0.0
 70
   128
 71
   144
 72
   143
 73
    87
  0
VERTEX
  5
7A3
  8
0
 62
     9
 10
0.0
 20
0.0
 30
0.0
 70
   128
 71
   147
 72
   146
 73
   145
  0
VERTEX
  5
7A4
  8
0
 62
     9
 10
0.0
 20
0.0
 30
0.0
 70
   128
 71
    85
 72
   148
 73
    87
  0
VERTEX
  5
7A5
  8
0
 62
     9
 10
0.0
 20
0.0
 30
0.0
 70
   128
 71
    98
 72
   142
 73
   140
  0
VERTEX
  5
7A6
  8
0
 62
     9
 10
0.0
 20
0.0
 30
0.0
 70
   128
 71
   141
 72
   145
 73
   149
  0
VERTEX
  5
7A7
  8
0
 62
     9
 10
0.0
 20
0.0
 30
0.0
 70
   128
 71
    96
 72
   150
 73
    97
  0
VERTEX
  5
7A8
  8
0
 62
     9
 10
0.0
 20
0.0
 30
0.0
 70
   128
 71
    98
 72
   140
 73
    96
  0
VERTEX
  5
7A9
  8
0
 62
     9
 10
0.0
 20
0.0
 30
0.0
 70
   128
 71
   150
 72
    96
 73
   140
  0
VERTEX
  5
7AA
  8
0
 62
     9
 10
0.0
 20
0.0
 30
0.0
 70
   128
 71
   141
 72
   151
 73
   140
  0
VERTEX
  5
7AB
  8
0
 62
     9
 10
0.0
 20
0.0
 30
0.0
 70
   128
 71
   147
 72
   152
 73
   146
  0
VERTEX
  5
7AC
  8
0
 62
     9
 10
0.0
 20
0.0
 30
0.0
 70
   128
 71
   145
 72
   146
 73
   149
  0
VERTEX
  5
7AD
  8
0
 62
     9
 10
0.0
 20
0.0
 30
0.0
 70
   128
 71
    87
 72
   148
 73
   144
  0
VERTEX
  5
7AE
  8
0
 62
     9
 10
0.0
 20
0.0
 30
0.0
 70
   128
 71
   144
 72
   152
 73
   147
  0
VERTEX
  5
7AF
  8
0
 62
     9
 10
0.0
 20
0.0
 30
0.0
 70
   128
 71
    87
 72
   143
 73
    88
  0
VERTEX
  5
7B0
  8
0
 62
     9
 10
0.0
 20
0.0
 30
0.0
 70
   128
 71
   142
 72
   153
 73
   141
  0
VERTEX
  5
7B1
  8
0
 62
     9
 10
0.0
 20
0.0
 30
0.0
 70
   128
 71
   150
 72
   140
 73
   151
  0
VERTEX
  5
7B2
  8
0
 62
     9
 10
0.0
 20
0.0
 30
0.0
 70
   128
 71
   153
 72
   154
 73
   145
  0
VERTEX
  5
7B3
  8
0
 62
     9
 10
0.0
 20
0.0
 30
0.0
 70
   128
 71
   151
 72
   141
 73
   149
  0
VERTEX
  5
7B4
  8
0
 62
     9
 10
0.0
 20
0.0
 30
0.0
 70
   128
 71
   145
 72
   141
 73
   153
  0
VERTEX
  5
7B5
  8
0
 62
     9
 10
0.0
 20
0.0
 30
0.0
 70
   128
 71
   154
 72
   155
 73
   147
  0
VERTEX
  5
7B6
  8
0
 62
     9
 10
0.0
 20
0.0
 30
0.0
 70
   128
 71
   147
 72
   145
 73
   154
  0
VERTEX
  5
7B7
  8
0
 62
     9
 10
0.0
 20
0.0
 30
0.0
 70
   128
 71
   155
 72
   143
 73
   144
  0
VERTEX
  5
7B8
  8
0
 62
     9
 10
0.0
 20
0.0
 30
0.0
 70
   128
 71
   144
 72
   147
 73
   155
  0
VERTEX
  5
7B9
  8
0
 62
     9
 10
0.0
 20
0.0
 30
0.0
 70
   128
 71
   144
 72
   148
 73
   152
  0
VERTEX
  5
7BA
  8
0
 62
     9
 10
0.0
 20
0.0
 30
0.0
 70
   128
 71
   158
 72
   157
 73
   156
  0
VERTEX
  5
7BB
  8
0
 62
     9
 10
0.0
 20
0.0
 30
0.0
 70
   128
 71
   157
 72
   159
 73
   156
  0
VERTEX
  5
7BC
  8
0
 62
     9
 10
0.0
 20
0.0
 30
0.0
 70
   128
 71
   162
 72
   161
 73
   160
  0
VERTEX
  5
7BD
  8
0
 62
     9
 10
0.0
 20
0.0
 30
0.0
 70
   128
 71
   158
 72
   163
 73
   157
  0
VERTEX
  5
7BE
  8
0
 62
     9
 10
0.0
 20
0.0
 30
0.0
 70
   128
 71
   165
 72
   164
 73
    95
  0
VERTEX
  5
7BF
  8
0
 62
     9
 10
0.0
 20
0.0
 30
0.0
 70
   128
 71
   165
 72
    95
 73
    93
  0
VERTEX
  5
7C0
  8
0
 62
     9
 10
0.0
 20
0.0
 30
0.0
 70
   128
 71
    95
 72
    12
 73
    17
  0
VERTEX
  5
7C1
  8
0
 62
     9
 10
0.0
 20
0.0
 30
0.0
 70
   128
 71
   160
 72
   164
 73
   162
  0
VERTEX
  5
7C2
  8
0
 62
     9
 10
0.0
 20
0.0
 30
0.0
 70
   128
 71
   160
 72
   161
 73
   166
  0
VERTEX
  5
7C3
  8
0
 62
     9
 10
0.0
 20
0.0
 30
0.0
 70
   128
 71
   164
 72
    12
 73
    95
  0
VERTEX
  5
7C4
  8
0
 62
     9
 10
0.0
 20
0.0
 30
0.0
 70
   128
 71
   161
 72
   167
 73
   166
  0
VERTEX
  5
7C5
  8
0
 62
     9
 10
0.0
 20
0.0
 30
0.0
 70
   128
 71
   166
 72
   167
 73
   158
  0
VERTEX
  5
7C6
  8
0
 62
     9
 10
0.0
 20
0.0
 30
0.0
 70
   128
 71
   157
 72
   168
 73
   159
  0
VERTEX
  5
7C7
  8
0
 62
     9
 10
0.0
 20
0.0
 30
0.0
 70
   128
 71
   169
 72
   158
 73
   156
  0
VERTEX
  5
7C8
  8
0
 62
     9
 10
0.0
 20
0.0
 30
0.0
 70
   128
 71
   168
 72
   171
 73
   170
  0
VERTEX
  5
7C9
  8
0
 62
     9
 10
0.0
 20
0.0
 30
0.0
 70
   128
 71
   171
 72
   157
 73
   163
  0
VERTEX
  5
7CA
  8
0
 62
     9
 10
0.0
 20
0.0
 30
0.0
 70
   128
 71
   157
 72
   171
 73
   168
  0
VERTEX
  5
7CB
  8
0
 62
     9
 10
0.0
 20
0.0
 30
0.0
 70
   128
 71
   169
 72
    13
 73
   166
  0
VERTEX
  5
7CC
  8
0
 62
     9
 10
0.0
 20
0.0
 30
0.0
 70
   128
 71
   163
 72
   158
 73
   167
  0
VERTEX
  5
7CD
  8
0
 62
     9
 10
0.0
 20
0.0
 30
0.0
 70
   128
 71
   166
 72
   158
 73
   169
  0
VERTEX
  5
7CE
  8
0
 62
     9
 10
0.0
 20
0.0
 30
0.0
 70
   128
 71
    13
 72
    11
 73
   160
  0
VERTEX
  5
7CF
  8
0
 62
     9
 10
0.0
 20
0.0
 30
0.0
 70
   128
 71
   160
 72
   166
 73
    13
  0
VERTEX
  5
7D0
  8
0
 62
     9
 10
0.0
 20
0.0
 30
0.0
 70
   128
 71
    11
 72
    12
 73
   164
  0
VERTEX
  5
7D1
  8
0
 62
     9
 10
0.0
 20
0.0
 30
0.0
 70
   128
 71
   164
 72
   160
 73
    11
  0
VERTEX
  5
7D2
  8
0
 62
     9
 10
0.0
 20
0.0
 30
0.0
 70
   128
 71
   164
 72
   165
 73
   162
  0
VERTEX
  5
7D3
  8
0
 62
     9
 10
0.0
 20
0.0
 30
0.0
 70
   128
 71
   174
 72
   173
 73
   172
  0
VERTEX
  5
7D4
  8
0
 62
     9
 10
0.0
 20
0.0
 30
0.0
 70
   128
 71
   175
 72
   174
 73
   172
  0
VERTEX
  5
7D5
  8
0
 62
     9
 10
0.0
 20
0.0
 30
0.0
 70
   128
 71
   131
 72
   124
 73
   175
  0
VERTEX
  5
7D6
  8
0
 62
     9
 10
0.0
 20
0.0
 30
0.0
 70
   128
 71
   124
 72
   136
 73
   174
  0
VERTEX
  5
7D7
  8
0
 62
     9
 10
0.0
 20
0.0
 30
0.0
 70
   128
 71
   136
 72
   176
 73
   174
  0
VERTEX
  5
7D8
  8
0
 62
     9
 10
0.0
 20
0.0
 30
0.0
 70
   128
 71
   173
 72
   176
 73
   177
  0
VERTEX
  5
7D9
  8
0
 62
     9
 10
0.0
 20
0.0
 30
0.0
 70
   128
 71
   174
 72
   176
 73
   173
  0
VERTEX
  5
7DA
  8
0
 62
     9
 10
0.0
 20
0.0
 30
0.0
 70
   128
 71
   124
 72
   174
 73
   175
  0
VERTEX
  5
7DB
  8
0
 62
     9
 10
0.0
 20
0.0
 30
0.0
 70
   128
 71
   180
 72
   179
 73
   178
  0
VERTEX
  5
7DC
  8
0
 62
     9
 10
0.0
 20
0.0
 30
0.0
 70
   128
 71
   170
 72
   181
 73
   179
  0
VERTEX
  5
7DD
  8
0
 62
     9
 10
0.0
 20
0.0
 30
0.0
 70
   128
 71
   178
 72
   181
 73
   182
  0
VERTEX
  5
7DE
  8
0
 62
     9
 10
0.0
 20
0.0
 30
0.0
 70
   128
 71
   180
 72
   183
 73
   179
  0
VERTEX
  5
7DF
  8
0
 62
     9
 10
0.0
 20
0.0
 30
0.0
 70
   128
 71
   179
 72
   183
 73
   168
  0
VERTEX
  5
7E0
  8
0
 62
     9
 10
0.0
 20
0.0
 30
0.0
 70
   128
 71
   159
 72
   168
 73
   183
  0
VERTEX
  5
7E1
  8
0
 62
     9
 10
0.0
 20
0.0
 30
0.0
 70
   128
 71
   178
 72
   179
 73
   181
  0
VERTEX
  5
7E2
  8
0
 62
     9
 10
0.0
 20
0.0
 30
0.0
 70
   128
 71
   179
 72
   168
 73
   170
  0
VERTEX
  5
7E3
  8
0
 62
     9
 10
0.0
 20
0.0
 30
0.0
 70
   128
 71
   186
 72
   185
 73
   184
  0
VERTEX
  5
7E4
  8
0
 62
     9
 10
0.0
 20
0.0
 30
0.0
 70
   128
 71
   188
 72
   187
 73
   178
  0
VERTEX
  5
7E5
  8
0
 62
     9
 10
0.0
 20
0.0
 30
0.0
 70
   128
 71
   191
 72
   190
 73
   189
  0
VERTEX
  5
7E6
  8
0
 62
     9
 10
0.0
 20
0.0
 30
0.0
 70
   128
 71
   182
 72
   192
 73
   178
  0
VERTEX
  5
7E7
  8
0
 62
     9
 10
0.0
 20
0.0
 30
0.0
 70
   128
 71
   177
 72
   186
 73
   184
  0
VERTEX
  5
7E8
  8
0
 62
     9
 10
0.0
 20
0.0
 30
0.0
 70
   128
 71
   185
 72
   189
 73
   193
  0
VERTEX
  5
7E9
  8
0
 62
     9
 10
0.0
 20
0.0
 30
0.0
 70
   128
 71
   173
 72
   194
 73
   172
  0
VERTEX
  5
7EA
  8
0
 62
     9
 10
0.0
 20
0.0
 30
0.0
 70
   128
 71
   177
 72
   184
 73
   173
  0
VERTEX
  5
7EB
  8
0
 62
     9
 10
0.0
 20
0.0
 30
0.0
 70
   128
 71
   194
 72
   173
 73
   184
  0
VERTEX
  5
7EC
  8
0
 62
     9
 10
0.0
 20
0.0
 30
0.0
 70
   128
 71
   185
 72
   195
 73
   184
  0
VERTEX
  5
7ED
  8
0
 62
     9
 10
0.0
 20
0.0
 30
0.0
 70
   128
 71
   191
 72
   196
 73
   190
  0
VERTEX
  5
7EE
  8
0
 62
     9
 10
0.0
 20
0.0
 30
0.0
 70
   128
 71
   189
 72
   190
 73
   193
  0
VERTEX
  5
7EF
  8
0
 62
     9
 10
0.0
 20
0.0
 30
0.0
 70
   128
 71
   178
 72
   192
 73
   188
  0
VERTEX
  5
7F0
  8
0
 62
     9
 10
0.0
 20
0.0
 30
0.0
 70
   128
 71
   188
 72
   196
 73
   191
  0
VERTEX
  5
7F1
  8
0
 62
     9
 10
0.0
 20
0.0
 30
0.0
 70
   128
 71
   178
 72
   187
 73
   180
  0
VERTEX
  5
7F2
  8
0
 62
     9
 10
0.0
 20
0.0
 30
0.0
 70
   128
 71
   186
 72
   197
 73
   185
  0
VERTEX
  5
7F3
  8
0
 62
     9
 10
0.0
 20
0.0
 30
0.0
 70
   128
 71
   194
 72
   184
 73
   195
  0
VERTEX
  5
7F4
  8
0
 62
     9
 10
0.0
 20
0.0
 30
0.0
 70
   128
 71
   197
 72
   198
 73
   189
  0
VERTEX
  5
7F5
  8
0
 62
     9
 10
0.0
 20
0.0
 30
0.0
 70
   128
 71
   195
 72
   185
 73
   193
  0
VERTEX
  5
7F6
  8
0
 62
     9
 10
0.0
 20
0.0
 30
0.0
 70
   128
 71
   189
 72
   185
 73
   197
  0
VERTEX
  5
7F7
  8
0
 62
     9
 10
0.0
 20
0.0
 30
0.0
 70
   128
 71
   198
 72
   199
 73
   191
  0
VERTEX
  5
7F8
  8
0
 62
     9
 10
0.0
 20
0.0
 30
0.0
 70
   128
 71
   191
 72
   189
 73
   198
  0
VERTEX
  5
7F9
  8
0
 62
     9
 10
0.0
 20
0.0
 30
0.0
 70
   128
 71
   199
 72
   187
 73
   188
  0
VERTEX
  5
7FA
  8
0
 62
     9
 10
0.0
 20
0.0
 30
0.0
 70
   128
 71
   188
 72
   191
 73
   199
  0
VERTEX
  5
7FB
  8
0
 62
     9
 10
0.0
 20
0.0
 30
0.0
 70
   128
 71
   188
 72
   192
 73
   196
  0
VERTEX
  5
7FC
  8
0
 62
     9
 10
0.0
 20
0.0
 30
0.0
 70
   128
 71
   200
 72
   193
 73
   190
  0
VERTEX
  5
7FD
  8
0
 62
     9
 10
0.0
 20
0.0
 30
0.0
 70
   128
 71
   202
 72
   201
 73
   196
  0
VERTEX
  5
7FE
  8
0
 62
     9
 10
0.0
 20
0.0
 30
0.0
 70
   128
 71
   190
 72
   201
 73
   200
  0
VERTEX
  5
7FF
  8
0
 62
     9
 10
0.0
 20
0.0
 30
0.0
 70
   128
 71
   192
 72
   182
 73
   203
  0
VERTEX
  5
800
  8
0
 62
     9
 10
0.0
 20
0.0
 30
0.0
 70
   128
 71
   204
 72
   170
 73
   171
  0
VERTEX
  5
801
  8
0
 62
     9
 10
0.0
 20
0.0
 30
0.0
 70
   128
 71
   201
 72
   190
 73
   196
  0
VERTEX
  5
802
  8
0
 62
     9
 10
0.0
 20
0.0
 30
0.0
 70
   128
 71
   202
 72
   196
 73
   192
  0
VERTEX
  5
803
  8
0
 62
     9
 10
0.0
 20
0.0
 30
0.0
 70
   128
 71
   206
 72
   205
 73
   135
  0
VERTEX
  5
804
  8
0
 62
     9
 10
0.0
 20
0.0
 30
0.0
 70
   128
 71
   207
 72
   172
 73
   194
  0
VERTEX
  5
805
  8
0
 62
     9
 10
0.0
 20
0.0
 30
0.0
 70
   128
 71
   128
 72
   208
 73
   132
  0
VERTEX
  5
806
  8
0
 62
     9
 10
0.0
 20
0.0
 30
0.0
 70
   128
 71
   206
 72
   135
 73
   130
  0
VERTEX
  5
807
  8
0
 62
     9
 10
0.0
 20
0.0
 30
0.0
 70
   128
 71
   128
 72
   135
 73
   205
  0
VERTEX
  5
808
  8
0
 62
     9
 10
0.0
 20
0.0
 30
0.0
 70
   128
 71
   210
 72
   131
 73
   209
  0
VERTEX
  5
809
  8
0
 62
     9
 10
0.0
 20
0.0
 30
0.0
 70
   128
 71
   128
 72
   205
 73
   208
  0
VERTEX
  5
80A
  8
0
 62
     9
 10
0.0
 20
0.0
 30
0.0
 70
   128
 71
   132
 72
   211
 73
   134
  0
VERTEX
  5
80B
  8
0
 62
     9
 10
0.0
 20
0.0
 30
0.0
 70
   128
 71
   212
 72
   149
 73
   146
  0
VERTEX
  5
80C
  8
0
 62
     9
 10
0.0
 20
0.0
 30
0.0
 70
   128
 71
   133
 72
   213
 73
    89
  0
VERTEX
  5
80D
  8
0
 62
     9
 10
0.0
 20
0.0
 30
0.0
 70
   128
 71
   215
 72
   152
 73
   214
  0
VERTEX
  5
80E
  8
0
 62
     9
 10
0.0
 20
0.0
 30
0.0
 70
   128
 71
   148
 72
   214
 73
   152
  0
VERTEX
  5
80F
  8
0
 62
     9
 10
0.0
 20
0.0
 30
0.0
 70
   128
 71
   215
 72
   146
 73
   152
  0
VERTEX
  5
810
  8
0
 62
     9
 10
0.0
 20
0.0
 30
0.0
 70
   128
 71
   146
 72
   215
 73
   212
  0
VERTEX
  5
811
  8
0
 62
     9
 10
0.0
 20
0.0
 30
0.0
 70
   128
 71
   151
 72
   149
 73
   216
  0
VERTEX
  5
812
  8
0
 62
     9
 10
0.0
 20
0.0
 30
0.0
 70
   128
 71
   193
 72
   217
 73
   195
  0
VERTEX
  5
813
  8
0
 62
     9
 10
0.0
 20
0.0
 30
0.0
 70
   128
 71
   218
 72
   150
 73
   151
  0
VERTEX
  5
814
  8
0
 62
     9
 10
0.0
 20
0.0
 30
0.0
 70
   128
 71
   212
 72
   216
 73
   149
  0
VERTEX
  5
815
  8
0
 62
     9
 10
0.0
 20
0.0
 30
0.0
 70
   128
 71
   150
 72
   219
 73
    97
  0
VERTEX
  5
816
  8
0
 62
     9
 10
0.0
 20
0.0
 30
0.0
 70
   128
 71
   162
 72
   220
 73
   161
  0
VERTEX
  5
817
  8
0
 62
     9
 10
0.0
 20
0.0
 30
0.0
 70
   128
 71
   162
 72
   165
 73
   221
  0
VERTEX
  5
818
  8
0
 62
     9
 10
0.0
 20
0.0
 30
0.0
 70
   128
 71
   222
 72
    93
 73
    94
  0
VERTEX
  5
819
  8
0
 62
     9
 10
0.0
 20
0.0
 30
0.0
 70
   128
 71
   223
 72
    93
 73
   222
  0
VERTEX
  5
81A
  8
0
 62
     9
 10
0.0
 20
0.0
 30
0.0
 70
   128
 71
   165
 72
    93
 73
   223
  0
VERTEX
  5
81B
  8
0
 62
     9
 10
0.0
 20
0.0
 30
0.0
 70
   128
 71
   222
 72
    97
 73
   219
  0
VERTEX
  5
81C
  8
0
 62
     9
 10
0.0
 20
0.0
 30
0.0
 70
   128
 71
    94
 72
    97
 73
   222
  0
VERTEX
  5
81D
  8
0
 62
     9
 10
0.0
 20
0.0
 30
0.0
 70
   128
 71
   219
 72
   150
 73
   218
  0
VERTEX
  5
81E
  8
0
 62
     9
 10
0.0
 20
0.0
 30
0.0
 70
   128
 71
   167
 72
   161
 73
   224
  0
VERTEX
  5
81F
  8
0
 62
     9
 10
0.0
 20
0.0
 30
0.0
 70
   128
 71
   218
 72
   151
 73
   216
  0
VERTEX
  5
820
  8
0
 62
     9
 10
0.0
 20
0.0
 30
0.0
 70
   128
 71
   167
 72
   225
 73
   163
  0
VERTEX
  5
821
  8
0
 62
     9
 10
0.0
 20
0.0
 30
0.0
 70
   128
 71
   220
 72
   224
 73
   161
  0
VERTEX
  5
822
  8
0
 62
     9
 10
0.0
 20
0.0
 30
0.0
 70
   128
 71
   226
 72
   133
 73
   134
  0
VERTEX
  5
823
  8
0
 62
     9
 10
0.0
 20
0.0
 30
0.0
 70
   128
 71
   211
 72
   132
 73
   208
  0
VERTEX
  5
824
  8
0
 62
     9
 10
0.0
 20
0.0
 30
0.0
 70
   128
 71
   214
 72
   148
 73
   227
  0
VERTEX
  5
825
  8
0
 62
     9
 10
0.0
 20
0.0
 30
0.0
 70
   128
 71
   227
 72
    85
 73
   228
  0
VERTEX
  5
826
  8
0
 62
     9
 10
0.0
 20
0.0
 30
0.0
 70
   128
 71
    85
 72
   227
 73
   148
  0
VERTEX
  5
827
  8
0
 62
     9
 10
0.0
 20
0.0
 30
0.0
 70
   128
 71
   228
 72
    89
 73
   213
  0
VERTEX
  5
828
  8
0
 62
     9
 10
0.0
 20
0.0
 30
0.0
 70
   128
 71
    85
 72
    86
 73
   228
  0
VERTEX
  5
829
  8
0
 62
     9
 10
0.0
 20
0.0
 30
0.0
 70
   128
 71
    86
 72
    89
 73
   228
  0
VERTEX
  5
82A
  8
0
 62
     9
 10
0.0
 20
0.0
 30
0.0
 70
   128
 71
   213
 72
   133
 73
   226
  0
VERTEX
  5
82B
  8
0
 62
     9
 10
0.0
 20
0.0
 30
0.0
 70
   128
 71
   226
 72
   134
 73
   211
  0
VERTEX
  5
82C
  8
0
 62
     9
 10
0.0
 20
0.0
 30
0.0
 70
   128
 71
   229
 72
   194
 73
   195
  0
VERTEX
  5
82D
  8
0
 62
     9
 10
0.0
 20
0.0
 30
0.0
 70
   128
 71
   217
 72
   193
 73
   200
  0
VERTEX
  5
82E
  8
0
 62
     9
 10
0.0
 20
0.0
 30
0.0
 70
   128
 71
   206
 72
   130
 73
   210
  0
VERTEX
  5
82F
  8
0
 62
     9
 10
0.0
 20
0.0
 30
0.0
 70
   128
 71
   131
 72
   210
 73
   130
  0
VERTEX
  5
830
  8
0
 62
     9
 10
0.0
 20
0.0
 30
0.0
 70
   128
 71
   209
 72
   175
 73
   172
  0
VERTEX
  5
831
  8
0
 62
     9
 10
0.0
 20
0.0
 30
0.0
 70
   128
 71
   131
 72
   175
 73
   209
  0
VERTEX
  5
832
  8
0
 62
     9
 10
0.0
 20
0.0
 30
0.0
 70
   128
 71
   209
 72
   172
 73
   207
  0
VERTEX
  5
833
  8
0
 62
     9
 10
0.0
 20
0.0
 30
0.0
 70
   128
 71
   207
 72
   194
 73
   229
  0
VERTEX
  5
834
  8
0
 62
     9
 10
0.0
 20
0.0
 30
0.0
 70
   128
 71
   229
 72
   195
 73
   217
  0
VERTEX
  5
835
  8
0
 62
     9
 10
0.0
 20
0.0
 30
0.0
 70
   128
 71
   230
 72
   171
 73
   163
  0
VERTEX
  5
836
  8
0
 62
     9
 10
0.0
 20
0.0
 30
0.0
 70
   128
 71
   225
 72
   167
 73
   224
  0
VERTEX
  5
837
  8
0
 62
     9
 10
0.0
 20
0.0
 30
0.0
 70
   128
 71
   202
 72
   192
 73
   203
  0
VERTEX
  5
838
  8
0
 62
     9
 10
0.0
 20
0.0
 30
0.0
 70
   128
 71
   231
 72
   182
 73
   181
  0
VERTEX
  5
839
  8
0
 62
     9
 10
0.0
 20
0.0
 30
0.0
 70
   128
 71
   203
 72
   182
 73
   231
  0
VERTEX
  5
83A
  8
0
 62
     9
 10
0.0
 20
0.0
 30
0.0
 70
   128
 71
   231
 72
   170
 73
   204
  0
VERTEX
  5
83B
  8
0
 62
     9
 10
0.0
 20
0.0
 30
0.0
 70
   128
 71
   181
 72
   170
 73
   231
  0
VERTEX
  5
83C
  8
0
 62
     9
 10
0.0
 20
0.0
 30
0.0
 70
   128
 71
   204
 72
   171
 73
   230
  0
VERTEX
  5
83D
  8
0
 62
     9
 10
0.0
 20
0.0
 30
0.0
 70
   128
 71
   230
 72
   163
 73
   225
  0
VERTEX
  5
83E
  8
0
 62
     9
 10
0.0
 20
0.0
 30
0.0
 70
   128
 71
   220
 72
   162
 73
   221
  0
VERTEX
  5
83F
  8
0
 62
     9
 10
0.0
 20
0.0
 30
0.0
 70
   128
 71
   221
 72
   165
 73
   223
  0
VERTEX
  5
840
  8
0
 62
     9
 10
0.0
 20
0.0
 30
0.0
 70
   128
 71
   234
 72
   233
 73
   232
  0
VERTEX
  5
841
  8
0
 62
     9
 10
0.0
 20
0.0
 30
0.0
 70
   128
 71
   207
 72
   235
 73
   209
  0
VERTEX
  5
842
  8
0
 62
     9
 10
0.0
 20
0.0
 30
0.0
 70
   128
 71
   238
 72
   237
 73
   236
  0
VERTEX
  5
843
  8
0
 62
     9
 10
0.0
 20
0.0
 30
0.0
 70
   128
 71
   238
 72
   233
 73
   229
  0
VERTEX
  5
844
  8
0
 62
     9
 10
0.0
 20
0.0
 30
0.0
 70
   128
 71
   241
 72
   240
 73
   239
  0
VERTEX
  5
845
  8
0
 62
     9
 10
0.0
 20
0.0
 30
0.0
 70
   128
 71
   239
 72
   243
 73
   242
  0
VERTEX
  5
846
  8
0
 62
     9
 10
0.0
 20
0.0
 30
0.0
 70
   128
 71
   246
 72
   245
 73
   244
  0
VERTEX
  5
847
  8
0
 62
     9
 10
0.0
 20
0.0
 30
0.0
 70
   128
 71
   246
 72
   244
 73
   240
  0
VERTEX
  5
848
  8
0
 62
     9
 10
0.0
 20
0.0
 30
0.0
 70
   128
 71
   245
 72
   203
 73
   231
  0
VERTEX
  5
849
  8
0
 62
     9
 10
0.0
 20
0.0
 30
0.0
 70
   128
 71
   246
 72
   203
 73
   245
  0
VERTEX
  5
84A
  8
0
 62
     9
 10
0.0
 20
0.0
 30
0.0
 70
   128
 71
   237
 72
   242
 73
   243
  0
VERTEX
  5
84B
  8
0
 62
     9
 10
0.0
 20
0.0
 30
0.0
 70
   128
 71
   241
 72
   239
 73
   242
  0
VERTEX
  5
84C
  8
0
 62
     9
 10
0.0
 20
0.0
 30
0.0
 70
   128
 71
   238
 72
   236
 73
   232
  0
VERTEX
  5
84D
  8
0
 62
     9
 10
0.0
 20
0.0
 30
0.0
 70
   128
 71
   237
 72
   243
 73
   236
  0
VERTEX
  5
84E
  8
0
 62
     9
 10
0.0
 20
0.0
 30
0.0
 70
   128
 71
   235
 72
   207
 73
   233
  0
VERTEX
  5
84F
  8
0
 62
     9
 10
0.0
 20
0.0
 30
0.0
 70
   128
 71
   233
 72
   238
 73
   232
  0
VERTEX
  5
850
  8
0
 62
     9
 10
0.0
 20
0.0
 30
0.0
 70
   128
 71
   235
 72
   234
 73
   247
  0
VERTEX
  5
851
  8
0
 62
     9
 10
0.0
 20
0.0
 30
0.0
 70
   128
 71
   233
 72
   234
 73
   235
  0
VERTEX
  5
852
  8
0
 62
     9
 10
0.0
 20
0.0
 30
0.0
 70
   128
 71
   229
 72
   233
 73
   207
  0
VERTEX
  5
853
  8
0
 62
     9
 10
0.0
 20
0.0
 30
0.0
 70
   128
 71
   217
 72
   238
 73
   229
  0
VERTEX
  5
854
  8
0
 62
     9
 10
0.0
 20
0.0
 30
0.0
 70
   128
 71
   217
 72
   237
 73
   238
  0
VERTEX
  5
855
  8
0
 62
     9
 10
0.0
 20
0.0
 30
0.0
 70
   128
 71
   200
 72
   237
 73
   217
  0
VERTEX
  5
856
  8
0
 62
     9
 10
0.0
 20
0.0
 30
0.0
 70
   128
 71
   201
 72
   242
 73
   200
  0
VERTEX
  5
857
  8
0
 62
     9
 10
0.0
 20
0.0
 30
0.0
 70
   128
 71
   242
 72
   237
 73
   200
  0
VERTEX
  5
858
  8
0
 62
     9
 10
0.0
 20
0.0
 30
0.0
 70
   128
 71
   202
 72
   241
 73
   201
  0
VERTEX
  5
859
  8
0
 62
     9
 10
0.0
 20
0.0
 30
0.0
 70
   128
 71
   241
 72
   242
 73
   201
  0
VERTEX
  5
85A
  8
0
 62
     9
 10
0.0
 20
0.0
 30
0.0
 70
   128
 71
   203
 72
   246
 73
   202
  0
VERTEX
  5
85B
  8
0
 62
     9
 10
0.0
 20
0.0
 30
0.0
 70
   128
 71
   246
 72
   241
 73
   202
  0
VERTEX
  5
85C
  8
0
 62
     9
 10
0.0
 20
0.0
 30
0.0
 70
   128
 71
   241
 72
   246
 73
   240
  0
VERTEX
  5
85D
  8
0
 62
     9
 10
0.0
 20
0.0
 30
0.0
 70
   128
 71
   224
 72
   248
 73
   225
  0
VERTEX
  5
85E
  8
0
 62
     9
 10
0.0
 20
0.0
 30
0.0
 70
   128
 71
   251
 72
   250
 73
   249
  0
VERTEX
  5
85F
  8
0
 62
     9
 10
0.0
 20
0.0
 30
0.0
 70
   128
 71
   249
 72
   250
 73
   252
  0
VERTEX
  5
860
  8
0
 62
     9
 10
0.0
 20
0.0
 30
0.0
 70
   128
 71
   255
 72
   254
 73
   253
  0
VERTEX
  5
861
  8
0
 62
     9
 10
0.0
 20
0.0
 30
0.0
 70
   128
 71
   257
 72
   256
 73
   230
  0
VERTEX
  5
862
  8
0
 62
     9
 10
0.0
 20
0.0
 30
0.0
 70
   128
 71
   248
 72
   258
 73
     5
  0
VERTEX
  5
863
  8
0
 62
     9
 10
0.0
 20
0.0
 30
0.0
 70
   128
 71
   204
 72
   259
 73
   231
  0
VERTEX
  5
864
  8
0
 62
     9
 10
0.0
 20
0.0
 30
0.0
 70
   128
 71
   259
 72
     7
 73
     9
  0
VERTEX
  5
865
  8
0
 62
     9
 10
0.0
 20
0.0
 30
0.0
 70
   128
 71
   259
 72
   204
 73
   256
  0
VERTEX
  5
866
  8
0
 62
     9
 10
0.0
 20
0.0
 30
0.0
 70
   128
 71
   256
 72
   204
 73
   230
  0
VERTEX
  5
867
  8
0
 62
     9
 10
0.0
 20
0.0
 30
0.0
 70
   128
 71
   257
 72
     1
 73
   256
  0
VERTEX
  5
868
  8
0
 62
     9
 10
0.0
 20
0.0
 30
0.0
 70
   128
 71
     3
 72
   248
 73
     5
  0
VERTEX
  5
869
  8
0
 62
     9
 10
0.0
 20
0.0
 30
0.0
 70
   128
 71
   257
 72
   248
 73
     3
  0
VERTEX
  5
86A
  8
0
 62
     9
 10
0.0
 20
0.0
 30
0.0
 70
   128
 71
   252
 72
   258
 73
   249
  0
VERTEX
  5
86B
  8
0
 62
     9
 10
0.0
 20
0.0
 30
0.0
 70
   128
 71
     5
 72
   258
 73
   252
  0
VERTEX
  5
86C
  8
0
 62
     9
 10
0.0
 20
0.0
 30
0.0
 70
   128
 71
   253
 72
   254
 73
   251
  0
VERTEX
  5
86D
  8
0
 62
     9
 10
0.0
 20
0.0
 30
0.0
 70
   128
 71
   223
 72
   253
 73
   251
  0
VERTEX
  5
86E
  8
0
 62
     9
 10
0.0
 20
0.0
 30
0.0
 70
   128
 71
   253
 72
   223
 73
   222
  0
VERTEX
  5
86F
  8
0
 62
     9
 10
0.0
 20
0.0
 30
0.0
 70
   128
 71
     7
 72
   256
 73
     1
  0
VERTEX
  5
870
  8
0
 62
     9
 10
0.0
 20
0.0
 30
0.0
 70
   128
 71
   256
 72
     7
 73
   259
  0
VERTEX
  5
871
  8
0
 62
     9
 10
0.0
 20
0.0
 30
0.0
 70
   128
 71
   257
 72
   230
 73
   225
  0
VERTEX
  5
872
  8
0
 62
     9
 10
0.0
 20
0.0
 30
0.0
 70
   128
 71
     1
 72
   257
 73
     3
  0
VERTEX
  5
873
  8
0
 62
     9
 10
0.0
 20
0.0
 30
0.0
 70
   128
 71
   248
 72
   257
 73
   225
  0
VERTEX
  5
874
  8
0
 62
     9
 10
0.0
 20
0.0
 30
0.0
 70
   128
 71
   220
 72
   258
 73
   224
  0
VERTEX
  5
875
  8
0
 62
     9
 10
0.0
 20
0.0
 30
0.0
 70
   128
 71
   258
 72
   248
 73
   224
  0
VERTEX
  5
876
  8
0
 62
     9
 10
0.0
 20
0.0
 30
0.0
 70
   128
 71
   221
 72
   249
 73
   220
  0
VERTEX
  5
877
  8
0
 62
     9
 10
0.0
 20
0.0
 30
0.0
 70
   128
 71
   249
 72
   258
 73
   220
  0
VERTEX
  5
878
  8
0
 62
     9
 10
0.0
 20
0.0
 30
0.0
 70
   128
 71
   223
 72
   251
 73
   221
  0
VERTEX
  5
879
  8
0
 62
     9
 10
0.0
 20
0.0
 30
0.0
 70
   128
 71
   251
 72
   249
 73
   221
  0
VERTEX
  5
87A
  8
0
 62
     9
 10
0.0
 20
0.0
 30
0.0
 70
   128
 71
   251
 72
   254
 73
   250
  0
VERTEX
  5
87B
  8
0
 62
     9
 10
0.0
 20
0.0
 30
0.0
 70
   128
 71
   262
 72
   261
 73
   260
  0
VERTEX
  5
87C
  8
0
 62
     9
 10
0.0
 20
0.0
 30
0.0
 70
   128
 71
   213
 72
   263
 73
   228
  0
VERTEX
  5
87D
  8
0
 62
     9
 10
0.0
 20
0.0
 30
0.0
 70
   128
 71
   266
 72
   265
 73
   264
  0
VERTEX
  5
87E
  8
0
 62
     9
 10
0.0
 20
0.0
 30
0.0
 70
   128
 71
   266
 72
   261
 73
   226
  0
VERTEX
  5
87F
  8
0
 62
     9
 10
0.0
 20
0.0
 30
0.0
 70
   128
 71
   269
 72
   268
 73
   267
  0
VERTEX
  5
880
  8
0
 62
     9
 10
0.0
 20
0.0
 30
0.0
 70
   128
 71
   267
 72
   271
 73
   270
  0
VERTEX
  5
881
  8
0
 62
     9
 10
0.0
 20
0.0
 30
0.0
 70
   128
 71
   274
 72
   273
 73
   272
  0
VERTEX
  5
882
  8
0
 62
     9
 10
0.0
 20
0.0
 30
0.0
 70
   128
 71
   274
 72
   272
 73
   268
  0
VERTEX
  5
883
  8
0
 62
     9
 10
0.0
 20
0.0
 30
0.0
 70
   128
 71
   273
 72
   210
 73
   209
  0
VERTEX
  5
884
  8
0
 62
     9
 10
0.0
 20
0.0
 30
0.0
 70
   128
 71
   274
 72
   210
 73
   273
  0
VERTEX
  5
885
  8
0
 62
     9
 10
0.0
 20
0.0
 30
0.0
 70
   128
 71
   265
 72
   270
 73
   271
  0
VERTEX
  5
886
  8
0
 62
     9
 10
0.0
 20
0.0
 30
0.0
 70
   128
 71
   269
 72
   267
 73
   270
  0
VERTEX
  5
887
  8
0
 62
     9
 10
0.0
 20
0.0
 30
0.0
 70
   128
 71
   266
 72
   264
 73
   260
  0
VERTEX
  5
888
  8
0
 62
     9
 10
0.0
 20
0.0
 30
0.0
 70
   128
 71
   265
 72
   271
 73
   264
  0
VERTEX
  5
889
  8
0
 62
     9
 10
0.0
 20
0.0
 30
0.0
 70
   128
 71
   263
 72
   213
 73
   261
  0
VERTEX
  5
88A
  8
0
 62
     9
 10
0.0
 20
0.0
 30
0.0
 70
   128
 71
   261
 72
   266
 73
   260
  0
VERTEX
  5
88B
  8
0
 62
     9
 10
0.0
 20
0.0
 30
0.0
 70
   128
 71
   263
 72
   262
 73
   275
  0
VERTEX
  5
88C
  8
0
 62
     9
 10
0.0
 20
0.0
 30
0.0
 70
   128
 71
   261
 72
   262
 73
   263
  0
VERTEX
  5
88D
  8
0
 62
     9
 10
0.0
 20
0.0
 30
0.0
 70
   128
 71
   226
 72
   261
 73
   213
  0
VERTEX
  5
88E
  8
0
 62
     9
 10
0.0
 20
0.0
 30
0.0
 70
   128
 71
   211
 72
   266
 73
   226
  0
VERTEX
  5
88F
  8
0
 62
     9
 10
0.0
 20
0.0
 30
0.0
 70
   128
 71
   211
 72
   265
 73
   266
  0
VERTEX
  5
890
  8
0
 62
     9
 10
0.0
 20
0.0
 30
0.0
 70
   128
 71
   208
 72
   265
 73
   211
  0
VERTEX
  5
891
  8
0
 62
     9
 10
0.0
 20
0.0
 30
0.0
 70
   128
 71
   205
 72
   270
 73
   208
  0
VERTEX
  5
892
  8
0
 62
     9
 10
0.0
 20
0.0
 30
0.0
 70
   128
 71
   270
 72
   265
 73
   208
  0
VERTEX
  5
893
  8
0
 62
     9
 10
0.0
 20
0.0
 30
0.0
 70
   128
 71
   206
 72
   269
 73
   205
  0
VERTEX
  5
894
  8
0
 62
     9
 10
0.0
 20
0.0
 30
0.0
 70
   128
 71
   269
 72
   270
 73
   205
  0
VERTEX
  5
895
  8
0
 62
     9
 10
0.0
 20
0.0
 30
0.0
 70
   128
 71
   210
 72
   274
 73
   206
  0
VERTEX
  5
896
  8
0
 62
     9
 10
0.0
 20
0.0
 30
0.0
 70
   128
 71
   274
 72
   269
 73
   206
  0
VERTEX
  5
897
  8
0
 62
     9
 10
0.0
 20
0.0
 30
0.0
 70
   128
 71
   269
 72
   274
 73
   268
  0
VERTEX
  5
898
  8
0
 62
     9
 10
0.0
 20
0.0
 30
0.0
 70
   128
 71
   278
 72
   277
 73
   276
  0
VERTEX
  5
899
  8
0
 62
     9
 10
0.0
 20
0.0
 30
0.0
 70
   128
 71
   281
 72
   280
 73
   279
  0
VERTEX
  5
89A
  8
0
 62
     9
 10
0.0
 20
0.0
 30
0.0
 70
   128
 71
   280
 72
   282
 73
   279
  0
VERTEX
  5
89B
  8
0
 62
     9
 10
0.0
 20
0.0
 30
0.0
 70
   128
 71
   281
 72
   284
 73
   283
  0
VERTEX
  5
89C
  8
0
 62
     9
 10
0.0
 20
0.0
 30
0.0
 70
   128
 71
   277
 72
   285
 73
   219
  0
VERTEX
  5
89D
  8
0
 62
     9
 10
0.0
 20
0.0
 30
0.0
 70
   128
 71
   288
 72
   287
 73
   286
  0
VERTEX
  5
89E
  8
0
 62
     9
 10
0.0
 20
0.0
 30
0.0
 70
   128
 71
   285
 72
   278
 73
   289
  0
VERTEX
  5
89F
  8
0
 62
     9
 10
0.0
 20
0.0
 30
0.0
 70
   128
 71
   285
 72
   222
 73
   219
  0
VERTEX
  5
8A0
  8
0
 62
     9
 10
0.0
 20
0.0
 30
0.0
 70
   128
 71
   218
 72
   277
 73
   219
  0
VERTEX
  5
8A1
  8
0
 62
     9
 10
0.0
 20
0.0
 30
0.0
 70
   128
 71
   276
 72
   277
 73
   290
  0
VERTEX
  5
8A2
  8
0
 62
     9
 10
0.0
 20
0.0
 30
0.0
 70
   128
 71
   287
 72
   288
 73
   290
  0
VERTEX
  5
8A3
  8
0
 62
     9
 10
0.0
 20
0.0
 30
0.0
 70
   128
 71
   276
 72
   290
 73
   288
  0
VERTEX
  5
8A4
  8
0
 62
     9
 10
0.0
 20
0.0
 30
0.0
 70
   128
 71
   280
 72
   286
 73
   282
  0
VERTEX
  5
8A5
  8
0
 62
     9
 10
0.0
 20
0.0
 30
0.0
 70
   128
 71
   286
 72
   287
 73
   282
  0
VERTEX
  5
8A6
  8
0
 62
     9
 10
0.0
 20
0.0
 30
0.0
 70
   128
 71
   284
 72
   291
 73
   283
  0
VERTEX
  5
8A7
  8
0
 62
     9
 10
0.0
 20
0.0
 30
0.0
 70
   128
 71
   284
 72
   227
 73
   291
  0
VERTEX
  5
8A8
  8
0
 62
     9
 10
0.0
 20
0.0
 30
0.0
 70
   128
 71
   291
 72
   227
 73
   228
  0
VERTEX
  5
8A9
  8
0
 62
     9
 10
0.0
 20
0.0
 30
0.0
 70
   128
 71
   218
 72
   290
 73
   277
  0
VERTEX
  5
8AA
  8
0
 62
     9
 10
0.0
 20
0.0
 30
0.0
 70
   128
 71
   277
 72
   278
 73
   285
  0
VERTEX
  5
8AB
  8
0
 62
     9
 10
0.0
 20
0.0
 30
0.0
 70
   128
 71
   216
 72
   290
 73
   218
  0
VERTEX
  5
8AC
  8
0
 62
     9
 10
0.0
 20
0.0
 30
0.0
 70
   128
 71
   216
 72
   287
 73
   290
  0
VERTEX
  5
8AD
  8
0
 62
     9
 10
0.0
 20
0.0
 30
0.0
 70
   128
 71
   212
 72
   287
 73
   216
  0
VERTEX
  5
8AE
  8
0
 62
     9
 10
0.0
 20
0.0
 30
0.0
 70
   128
 71
   215
 72
   282
 73
   212
  0
VERTEX
  5
8AF
  8
0
 62
     9
 10
0.0
 20
0.0
 30
0.0
 70
   128
 71
   282
 72
   287
 73
   212
  0
VERTEX
  5
8B0
  8
0
 62
     9
 10
0.0
 20
0.0
 30
0.0
 70
   128
 71
   214
 72
   279
 73
   215
  0
VERTEX
  5
8B1
  8
0
 62
     9
 10
0.0
 20
0.0
 30
0.0
 70
   128
 71
   279
 72
   282
 73
   215
  0
VERTEX
  5
8B2
  8
0
 62
     9
 10
0.0
 20
0.0
 30
0.0
 70
   128
 71
   227
 72
   284
 73
   214
  0
VERTEX
  5
8B3
  8
0
 62
     9
 10
0.0
 20
0.0
 30
0.0
 70
   128
 71
   284
 72
   279
 73
   214
  0
VERTEX
  5
8B4
  8
0
 62
     9
 10
0.0
 20
0.0
 30
0.0
 70
   128
 71
   279
 72
   284
 73
   281
  0
VERTEX
  5
8B5
  8
0
 62
     9
 10
0.0
 20
0.0
 30
0.0
 70
   128
 71
   177
 72
   114
 73
   120
  0
VERTEX
  5
8B6
  8
0
 62
     9
 10
0.0
 20
0.0
 30
0.0
 70
   128
 71
   197
 72
   186
 73
   116
  0
VERTEX
  5
8B7
  8
0
 62
     9
 10
0.0
 20
0.0
 30
0.0
 70
   128
 71
   102
 72
   187
 73
   199
  0
VERTEX
  5
8B8
  8
0
 62
     9
 10
0.0
 20
0.0
 30
0.0
 70
   128
 71
   198
 72
   119
 73
   118
  0
VERTEX
  5
8B9
  8
0
 62
     9
 10
0.0
 20
0.0
 30
0.0
 70
   128
 71
   187
 72
   107
 73
   180
  0
VERTEX
  5
8BA
  8
0
 62
     9
 10
0.0
 20
0.0
 30
0.0
 70
   128
 71
   107
 72
   187
 73
   102
  0
VERTEX
  5
8BB
  8
0
 62
     9
 10
0.0
 20
0.0
 30
0.0
 70
   128
 71
   199
 72
   118
 73
   102
  0
VERTEX
  5
8BC
  8
0
 62
     9
 10
0.0
 20
0.0
 30
0.0
 70
   128
 71
   107
 72
   108
 73
   180
  0
VERTEX
  5
8BD
  8
0
 62
     9
 10
0.0
 20
0.0
 30
0.0
 70
   128
 71
   119
 72
   198
 73
   197
  0
VERTEX
  5
8BE
  8
0
 62
     9
 10
0.0
 20
0.0
 30
0.0
 70
   128
 71
   118
 72
   199
 73
   198
  0
VERTEX
  5
8BF
  8
0
 62
     9
 10
0.0
 20
0.0
 30
0.0
 70
   128
 71
   120
 72
   116
 73
   186
  0
VERTEX
  5
8C0
  8
0
 62
     9
 10
0.0
 20
0.0
 30
0.0
 70
   128
 71
   116
 72
   119
 73
   197
  0
VERTEX
  5
8C1
  8
0
 62
     9
 10
0.0
 20
0.0
 30
0.0
 70
   128
 71
   186
 72
   177
 73
   120
  0
VERTEX
  5
8C2
  8
0
 62
     9
 10
0.0
 20
0.0
 30
0.0
 70
   128
 71
   169
 72
    80
 73
    13
  0
VERTEX
  5
8C3
  8
0
 62
     9
 10
0.0
 20
0.0
 30
0.0
 70
   128
 71
    79
 72
    78
 73
   159
  0
VERTEX
  5
8C4
  8
0
 62
     9
 10
0.0
 20
0.0
 30
0.0
 70
   128
 71
    81
 72
   156
 73
    78
  0
VERTEX
  5
8C5
  8
0
 62
     9
 10
0.0
 20
0.0
 30
0.0
 70
   128
 71
   156
 72
   159
 73
    78
  0
VERTEX
  5
8C6
  8
0
 62
     9
 10
0.0
 20
0.0
 30
0.0
 70
   128
 71
   169
 72
    81
 73
    80
  0
VERTEX
  5
8C7
  8
0
 62
     9
 10
0.0
 20
0.0
 30
0.0
 70
   128
 71
    81
 72
   169
 73
   156
  0
VERTEX
  5
8C8
  8
0
 62
     9
 10
0.0
 20
0.0
 30
0.0
 70
   128
 71
    80
 72
    15
 73
    13
  0
VERTEX
  5
8C9
  8
0
 62
     9
 10
0.0
 20
0.0
 30
0.0
 70
   128
 71
   138
 72
    23
 73
   139
  0
VERTEX
  5
8CA
  8
0
 62
     9
 10
0.0
 20
0.0
 30
0.0
 70
   128
 71
    19
 72
   123
 73
    24
  0
VERTEX
  5
8CB
  8
0
 62
     9
 10
0.0
 20
0.0
 30
0.0
 70
   128
 71
   137
 72
    19
 73
    23
  0
VERTEX
  5
8CC
  8
0
 62
     9
 10
0.0
 20
0.0
 30
0.0
 70
   128
 71
    28
 72
    24
 73
    90
  0
VERTEX
  5
8CD
  8
0
 62
     9
 10
0.0
 20
0.0
 30
0.0
 70
   128
 71
   137
 72
   123
 73
    19
  0
VERTEX
  5
8CE
  8
0
 62
     9
 10
0.0
 20
0.0
 30
0.0
 70
   128
 71
    24
 72
   123
 73
    90
  0
VERTEX
  5
8CF
  8
0
 62
     9
 10
0.0
 20
0.0
 30
0.0
 70
   128
 71
    23
 72
    58
 73
   139
  0
VERTEX
  5
8D0
  8
0
 62
     9
 10
0.0
 20
0.0
 30
0.0
 70
   128
 71
   137
 72
    23
 73
   138
  0
VERTEX
  5
8D1
  8
0
 62
     9
 10
0.0
 20
0.0
 30
0.0
 70
   128
 71
   139
 72
    58
 73
   125
  0
VERTEX
  5
8D2
  8
0
 62
     9
 10
0.0
 20
0.0
 30
0.0
 70
   128
 71
   125
 72
    58
 73
    56
  0
VERTEX
  5
8D3
  8
0
 62
     9
 10
0.0
 20
0.0
 30
0.0
 70
   128
 71
    56
 72
    62
 73
   136
  0
VERTEX
  5
8D4
  8
0
 62
     9
 10
0.0
 20
0.0
 30
0.0
 70
   128
 71
   136
 72
   125
 73
    56
  0
VERTEX
  5
8D5
  8
0
 62
     9
 10
0.0
 20
0.0
 30
0.0
 70
   128
 71
   292
 72
   275
 73
   262
  0
VERTEX
  5
8D6
  8
0
 62
     9
 10
0.0
 20
0.0
 30
0.0
 70
   128
 71
   293
 72
   264
 73
   271
  0
VERTEX
  5
8D7
  8
0
 62
     9
 10
0.0
 20
0.0
 30
0.0
 70
   128
 71
   295
 72
   294
 73
   260
  0
VERTEX
  5
8D8
  8
0
 62
     9
 10
0.0
 20
0.0
 30
0.0
 70
   128
 71
   296
 72
   267
 73
   268
  0
VERTEX
  5
8D9
  8
0
 62
     9
 10
0.0
 20
0.0
 30
0.0
 70
   128
 71
   271
 72
   267
 73
   297
  0
VERTEX
  5
8DA
  8
0
 62
     9
 10
0.0
 20
0.0
 30
0.0
 70
   128
 71
   272
 72
   298
 73
   268
  0
VERTEX
  5
8DB
  8
0
 62
     9
 10
0.0
 20
0.0
 30
0.0
 70
   128
 71
   296
 72
   268
 73
   298
  0
VERTEX
  5
8DC
  8
0
 62
     9
 10
0.0
 20
0.0
 30
0.0
 70
   128
 71
   271
 72
   297
 73
   293
  0
VERTEX
  5
8DD
  8
0
 62
     9
 10
0.0
 20
0.0
 30
0.0
 70
   128
 71
   297
 72
   267
 73
   296
  0
VERTEX
  5
8DE
  8
0
 62
     9
 10
0.0
 20
0.0
 30
0.0
 70
   128
 71
   295
 72
   260
 73
   264
  0
VERTEX
  5
8DF
  8
0
 62
     9
 10
0.0
 20
0.0
 30
0.0
 70
   128
 71
   295
 72
   264
 73
   293
  0
VERTEX
  5
8E0
  8
0
 62
     9
 10
0.0
 20
0.0
 30
0.0
 70
   128
 71
   294
 72
   292
 73
   262
  0
VERTEX
  5
8E1
  8
0
 62
     9
 10
0.0
 20
0.0
 30
0.0
 70
   128
 71
   294
 72
   262
 73
   260
  0
VERTEX
  5
8E2
  8
0
 62
     9
 10
0.0
 20
0.0
 30
0.0
 70
   128
 71
   299
 72
   247
 73
   234
  0
VERTEX
  5
8E3
  8
0
 62
     9
 10
0.0
 20
0.0
 30
0.0
 70
   128
 71
   300
 72
   236
 73
   243
  0
VERTEX
  5
8E4
  8
0
 62
     9
 10
0.0
 20
0.0
 30
0.0
 70
   128
 71
   302
 72
   301
 73
   232
  0
VERTEX
  5
8E5
  8
0
 62
     9
 10
0.0
 20
0.0
 30
0.0
 70
   128
 71
   303
 72
   239
 73
   240
  0
VERTEX
  5
8E6
  8
0
 62
     9
 10
0.0
 20
0.0
 30
0.0
 70
   128
 71
   243
 72
   239
 73
   304
  0
VERTEX
  5
8E7
  8
0
 62
     9
 10
0.0
 20
0.0
 30
0.0
 70
   128
 71
   244
 72
   305
 73
   240
  0
VERTEX
  5
8E8
  8
0
 62
     9
 10
0.0
 20
0.0
 30
0.0
 70
   128
 71
   303
 72
   240
 73
   305
  0
VERTEX
  5
8E9
  8
0
 62
     9
 10
0.0
 20
0.0
 30
0.0
 70
   128
 71
   243
 72
   304
 73
   300
  0
VERTEX
  5
8EA
  8
0
 62
     9
 10
0.0
 20
0.0
 30
0.0
 70
   128
 71
   304
 72
   239
 73
   303
  0
VERTEX
  5
8EB
  8
0
 62
     9
 10
0.0
 20
0.0
 30
0.0
 70
   128
 71
   302
 72
   232
 73
   236
  0
VERTEX
  5
8EC
  8
0
 62
     9
 10
0.0
 20
0.0
 30
0.0
 70
   128
 71
   302
 72
   236
 73
   300
  0
VERTEX
  5
8ED
  8
0
 62
     9
 10
0.0
 20
0.0
 30
0.0
 70
   128
 71
   301
 72
   299
 73
   234
  0
VERTEX
  5
8EE
  8
0
 62
     9
 10
0.0
 20
0.0
 30
0.0
 70
   128
 71
   301
 72
   234
 73
   232
  0
VERTEX
  5
8EF
  8
0
 62
     9
 10
0.0
 20
0.0
 30
0.0
 70
   128
 71
     4
 72
     5
 73
   252
  0
VERTEX
  5
8F0
  8
0
 62
     9
 10
0.0
 20
0.0
 30
0.0
 70
   128
 71
   307
 72
   306
 73
   254
  0
VERTEX
  5
8F1
  8
0
 62
     9
 10
0.0
 20
0.0
 30
0.0
 70
   128
 71
   306
 72
   308
 73
   250
  0
VERTEX
  5
8F2
  8
0
 62
     9
 10
0.0
 20
0.0
 30
0.0
 70
   128
 71
   307
 72
   254
 73
   255
  0
VERTEX
  5
8F3
  8
0
 62
     9
 10
0.0
 20
0.0
 30
0.0
 70
   128
 71
   308
 72
   252
 73
   250
  0
VERTEX
  5
8F4
  8
0
 62
     9
 10
0.0
 20
0.0
 30
0.0
 70
   128
 71
   306
 72
   250
 73
   254
  0
VERTEX
  5
8F5
  8
0
 62
     9
 10
0.0
 20
0.0
 30
0.0
 70
   128
 71
   252
 72
   308
 73
     4
  0
VERTEX
  5
8F6
  8
0
 62
     9
 10
0.0
 20
0.0
 30
0.0
 70
   128
 71
   309
 72
   289
 73
   278
  0
VERTEX
  5
8F7
  8
0
 62
     9
 10
0.0
 20
0.0
 30
0.0
 70
   128
 71
   310
 72
   288
 73
   286
  0
VERTEX
  5
8F8
  8
0
 62
     9
 10
0.0
 20
0.0
 30
0.0
 70
   128
 71
   312
 72
   311
 73
   276
  0
VERTEX
  5
8F9
  8
0
 62
     9
 10
0.0
 20
0.0
 30
0.0
 70
   128
 71
   313
 72
   280
 73
   281
  0
VERTEX
  5
8FA
  8
0
 62
     9
 10
0.0
 20
0.0
 30
0.0
 70
   128
 71
   286
 72
   280
 73
   314
  0
VERTEX
  5
8FB
  8
0
 62
     9
 10
0.0
 20
0.0
 30
0.0
 70
   128
 71
   283
 72
   315
 73
   281
  0
VERTEX
  5
8FC
  8
0
 62
     9
 10
0.0
 20
0.0
 30
0.0
 70
   128
 71
   313
 72
   281
 73
   315
  0
VERTEX
  5
8FD
  8
0
 62
     9
 10
0.0
 20
0.0
 30
0.0
 70
   128
 71
   286
 72
   314
 73
   310
  0
VERTEX
  5
8FE
  8
0
 62
     9
 10
0.0
 20
0.0
 30
0.0
 70
   128
 71
   314
 72
   280
 73
   313
  0
VERTEX
  5
8FF
  8
0
 62
     9
 10
0.0
 20
0.0
 30
0.0
 70
   128
 71
   312
 72
   276
 73
   288
  0
VERTEX
  5
900
  8
0
 62
     9
 10
0.0
 20
0.0
 30
0.0
 70
   128
 71
   312
 72
   288
 73
   310
  0
VERTEX
  5
901
  8
0
 62
     9
 10
0.0
 20
0.0
 30
0.0
 70
   128
 71
   311
 72
   309
 73
   278
  0
VERTEX
  5
902
  8
0
 62
     9
 10
0.0
 20
0.0
 30
0.0
 70
   128
 71
   311
 72
   278
 73
   276
  0
SEQEND
  5
903
  8
0
 62
     9
  0
ENDBLK
  5
906
  8
0
  0
BLOCK
  8
0
  2
42
 70
     0
 10
0.0
 20
0.0
 30
0.0
  3
42
  1

  0
POLYLINE
  5
908
  8
0
 62
   252
 66
     1
 10
0.0
 20
0.0
 30
0.0
 70
    64
 71
    80
 72
   198
  0
VERTEX
  5
909
  8
0
 10
112.0221481323242
 20
0.0019445369252935
 30
-95.55196380615234
 70
   192
  0
VERTEX
  5
90A
  8
0
 10
111.8598327636719
 20
2.066402435302734
 30
-95.5518798828125
 70
   192
  0
VERTEX
  5
90B
  8
0
 10
111.8148345947266
 20
0.0017365128733218
 30
-95.46871948242188
 70
   192
  0
VERTEX
  5
90C
  8
0
 10
111.6549606323242
 20
2.034393072128296
 30
-95.46871948242188
 70
   192
  0
VERTEX
  5
90D
  8
0
 10
110.8897323608398
 20
4.35341739654541
 30
-95.46871948242188
 70
   192
  0
VERTEX
  5
90E
  8
0
 10
111.6549453735352
 20
-2.030945539474487
 30
-95.46871948242188
 70
   192
  0
VERTEX
  5
90F
  8
0
 10
111.8598327636719
 20
-2.062943458557129
 30
-95.5518798828125
 70
   192
  0
VERTEX
  5
910
  8
0
 10
111.1753387451172
 20
-4.06433629989624
 30
-95.46871948242188
 70
   192
  0
VERTEX
  5
911
  8
0
 10
108.856315612793
 20
-4.829562664031982
 30
-95.46871948242188
 70
   192
  0
VERTEX
  5
912
  8
0
 10
108.8883285522461
 20
-5.034432411193848
 30
-95.5518798828125
 70
   192
  0
VERTEX
  5
913
  8
0
 10
106.8238677978516
 20
-5.196749210357666
 30
-95.55196380615234
 70
   192
  0
VERTEX
  5
914
  8
0
 10
104.7909774780273
 20
-4.829549789428711
 30
-95.46871948242188
 70
   192
  0
VERTEX
  5
915
  8
0
 10
106.8236618041992
 20
-4.989436626434326
 30
-95.46871948242188
 70
   192
  0
VERTEX
  5
916
  8
0
 10
104.7589797973633
 20
-5.034430980682373
 30
-95.5518798828125
 70
   192
  0
VERTEX
  5
917
  8
0
 10
102.7575836181641
 20
-4.349941253662109
 30
-95.46871948242188
 70
   192
  0
VERTEX
  5
918
  8
0
 10
101.6251754760742
 20
0.0015314716147259
 30
-95.55196380615234
 70
   192
  0
VERTEX
  5
919
  8
0
 10
101.9923706054688
 20
2.034420967102051
 30
-95.46871948242188
 70
   192
  0
VERTEX
  5
91A
  8
0
 10
101.8324890136719
 20
0.0017394928727299
 30
-95.46871948242188
 70
   192
  0
VERTEX
  5
91B
  8
0
 10
101.9923629760742
 20
-2.030916452407837
 30
-95.46871948242188
 70
   192
  0
VERTEX
  5
91C
  8
0
 10
101.7874908447266
 20
-2.062925815582275
 30
-95.5518798828125
 70
   192
  0
VERTEX
  5
91D
  8
0
 10
101.7874908447266
 20
2.066418886184692
 30
-95.5518798828125
 70
   192
  0
VERTEX
  5
91E
  8
0
 10
102.4719848632812
 20
4.067811012268066
 30
-95.46871948242188
 70
   192
  0
VERTEX
  5
91F
  8
0
 10
106.8234558105469
 20
5.200225353240967
 30
-95.55196380615234
 70
   192
  0
VERTEX
  5
920
  8
0
 10
108.8563461303711
 20
4.833025932312012
 30
-95.46871948242188
 70
   192
  0
VERTEX
  5
921
  8
0
 10
106.8236618041992
 20
4.992913246154785
 30
-95.46871948242188
 70
   192
  0
VERTEX
  5
922
  8
0
 10
104.7910079956055
 20
4.833039283752441
 30
-95.46871948242188
 70
   192
  0
VERTEX
  5
923
  8
0
 10
104.7589950561523
 20
5.037909030914307
 30
-95.5518798828125
 70
   192
  0
VERTEX
  5
924
  8
0
 10
108.8883438110352
 20
5.037907123565674
 30
-95.5518798828125
 70
   192
  0
VERTEX
  5
925
  8
0
 10
112.0555725097656
 20
2.613773107528687
 30
-99.92271423339844
 70
   192
  0
VERTEX
  5
926
  8
0
 10
112.2755737304688
 20
0.8788376450538635
 30
-99.93778991699219
 70
   192
  0
VERTEX
  5
927
  8
0
 10
111.3883361816406
 20
4.270536422729492
 30
-100.1845245361328
 70
   192
  0
VERTEX
  5
928
  8
0
 10
112.2768478393555
 20
-0.8705317378044128
 30
-99.93303680419922
 70
   192
  0
VERTEX
  5
929
  8
0
 10
112.0555725097656
 20
-2.610279321670532
 30
-99.92271423339844
 70
   192
  0
VERTEX
  5
92A
  8
0
 10
111.0924606323242
 20
-4.562937259674072
 30
-100.1845245361328
 70
   192
  0
VERTEX
  5
92B
  8
0
 10
109.4356918334961
 20
-5.230170249938965
 30
-99.92271423339844
 70
   192
  0
VERTEX
  5
92C
  8
0
 10
105.9513931274414
 20
-5.451447010040283
 30
-99.93303680419922
 70
   192
  0
VERTEX
  5
92D
  8
0
 10
107.7007598876953
 20
-5.450170993804932
 30
-99.93778991699219
 70
   192
  0
VERTEX
  5
92E
  8
0
 10
102.2589797973633
 20
-4.267035961151123
 30
-100.1845245361328
 70
   192
  0
VERTEX
  5
92F
  8
0
 10
104.2116394042969
 20
-5.230173110961914
 30
-99.92271423339844
 70
   192
  0
VERTEX
  5
930
  8
0
 10
101.5917510986328
 20
-2.610279560089111
 30
-99.92271423339844
 70
   192
  0
VERTEX
  5
931
  8
0
 10
101.370475769043
 20
0.8740260601043701
 30
-99.93303680419922
 70
   192
  0
VERTEX
  5
932
  8
0
 10
101.3717498779297
 20
-0.8753431439399719
 30
-99.93778991699219
 70
   192
  0
VERTEX
  5
933
  8
0
 10
102.5548858642578
 20
4.566422462463379
 30
-100.1845245361328
 70
   192
  0
VERTEX
  5
934
  8
0
 10
101.5917510986328
 20
2.613772630691528
 30
-99.92271423339844
 70
   192
  0
VERTEX
  5
935
  8
0
 10
104.2116394042969
 20
5.233649730682373
 30
-99.92271423339844
 70
   192
  0
VERTEX
  5
936
  8
0
 10
107.6959457397461
 20
5.454922199249268
 30
-99.93303680419922
 70
   192
  0
VERTEX
  5
937
  8
0
 10
105.9465789794922
 20
5.453648567199707
 30
-99.93778991699219
 70
   192
  0
VERTEX
  5
938
  8
0
 10
109.4356994628906
 20
5.233646392822266
 30
-99.92271423339844
 70
   192
  0
VERTEX
  5
939
  8
0
 10
112.2320098876953
 20
-0.8719824552536011
 30
-100.1091690063477
 70
   192
  0
VERTEX
  5
93A
  8
0
 10
112.0074462890625
 20
-2.603346109390259
 30
-100.1008682250977
 70
   192
  0
VERTEX
  5
93B
  8
0
 10
112.231689453125
 20
0.8714534044265747
 30
-100.106086730957
 70
   192
  0
VERTEX
  5
93C
  8
0
 10
112.007438659668
 20
2.606840848922729
 30
-100.1008682250977
 70
   192
  0
VERTEX
  5
93D
  8
0
 10
104.2185745239258
 20
-5.182046890258789
 30
-100.1008682250977
 70
   192
  0
VERTEX
  5
93E
  8
0
 10
105.9499359130859
 20
-5.406612396240234
 30
-100.1091690063477
 70
   192
  0
VERTEX
  5
93F
  8
0
 10
107.6933746337891
 20
-5.406288623809814
 30
-100.106086730957
 70
   192
  0
VERTEX
  5
940
  8
0
 10
109.4287643432617
 20
-5.182043552398682
 30
-100.1008682250977
 70
   192
  0
VERTEX
  5
941
  8
0
 10
101.6398773193359
 20
-2.603346347808838
 30
-100.1008682250977
 70
   192
  0
VERTEX
  5
942
  8
0
 10
101.4153137207031
 20
-0.8719828128814697
 30
-100.1091690063477
 70
   192
  0
VERTEX
  5
943
  8
0
 10
101.6398773193359
 20
2.606840372085571
 30
-100.1008682250977
 70
   192
  0
VERTEX
  5
944
  8
0
 10
101.4156341552734
 20
0.8714529275894165
 30
-100.106086730957
 70
   192
  0
VERTEX
  5
945
  8
0
 10
104.2185745239258
 20
5.18552303314209
 30
-100.1008682250977
 70
   192
  0
VERTEX
  5
946
  8
0
 10
105.9499435424805
 20
5.410088539123535
 30
-100.1091690063477
 70
   192
  0
VERTEX
  5
947
  8
0
 10
109.4287643432617
 20
5.185519695281982
 30
-100.1008682250977
 70
   192
  0
VERTEX
  5
948
  8
0
 10
107.6933746337891
 20
5.409764766693115
 30
-100.106086730957
 70
   192
  0
VERTEX
  5
949
  8
0
 10
103.6228408813477
 20
1.020833015441895
 30
-100.8018646240234
 70
   192
  0
VERTEX
  5
94A
  8
0
 10
103.7663803100586
 20
-3.055544853210449
 30
-100.6462173461914
 70
   192
  0
VERTEX
  5
94B
  8
0
 10
103.7663803100586
 20
3.059021472930908
 30
-100.6462173461914
 70
   192
  0
VERTEX
  5
94C
  8
0
 10
105.8045654296875
 20
3.202555894851685
 30
-100.8018646240234
 70
   192
  0
VERTEX
  5
94D
  8
0
 10
105.756721496582
 20
1.068677425384521
 30
-101.0700836181641
 70
   192
  0
VERTEX
  5
94E
  8
0
 10
103.6228408813477
 20
-1.017355799674988
 30
-100.8018646240234
 70
   192
  0
VERTEX
  5
94F
  8
0
 10
107.8427581787109
 20
-3.199079275131226
 30
-100.8018646240234
 70
   192
  0
VERTEX
  5
950
  8
0
 10
105.8045654296875
 20
-3.199079275131226
 30
-100.8018646240234
 70
   192
  0
VERTEX
  5
951
  8
0
 10
107.8906021118164
 20
-1.065200924873352
 30
-101.0700836181641
 70
   192
  0
VERTEX
  5
952
  8
0
 10
110.0244750976562
 20
-1.017355799674988
 30
-100.8018646240234
 70
   192
  0
VERTEX
  5
953
  8
0
 10
110.0244750976562
 20
1.020833015441895
 30
-100.8018646240234
 70
   192
  0
VERTEX
  5
954
  8
0
 10
109.8809432983398
 20
-3.055544853210449
 30
-100.6462173461914
 70
   192
  0
VERTEX
  5
955
  8
0
 10
105.756721496582
 20
-1.065200924873352
 30
-101.0700836181641
 70
   192
  0
VERTEX
  5
956
  8
0
 10
107.8906021118164
 20
1.068677425384521
 30
-101.0700836181641
 70
   192
  0
VERTEX
  5
957
  8
0
 10
109.8809432983398
 20
3.059021472930908
 30
-100.6462173461914
 70
   192
  0
VERTEX
  5
958
  8
0
 10
107.8427581787109
 20
3.202555894851685
 30
-100.8018646240234
 70
   192
  0
VERTEX
  5
959
  8
0
 62
   252
 10
0.0
 20
0.0
 30
0.0
 70
   128
 71
     3
 72
     2
 73
     1
  0
VERTEX
  5
95A
  8
0
 62
   252
 10
0.0
 20
0.0
 30
0.0
 70
   128
 71
     2
 72
     5
 73
     4
  0
VERTEX
  5
95B
  8
0
 62
   252
 10
0.0
 20
0.0
 30
0.0
 70
   128
 71
     1
 72
     7
 73
     6
  0
VERTEX
  5
95C
  8
0
 62
   252
 10
0.0
 20
0.0
 30
0.0
 70
   128
 71
     2
 72
     4
 73
     1
  0
VERTEX
  5
95D
  8
0
 62
   252
 10
0.0
 20
0.0
 30
0.0
 70
   128
 71
     8
 72
     6
 73
     7
  0
VERTEX
  5
95E
  8
0
 62
   252
 10
0.0
 20
0.0
 30
0.0
 70
   128
 71
     3
 72
     4
 73
     2
  0
VERTEX
  5
95F
  8
0
 62
   252
 10
0.0
 20
0.0
 30
0.0
 70
   128
 71
     3
 72
     1
 73
     4
  0
VERTEX
  5
960
  8
0
 62
   252
 10
0.0
 20
0.0
 30
0.0
 70
   128
 71
     5
 72
     2
 73
     4
  0
VERTEX
  5
961
  8
0
 62
   252
 10
0.0
 20
0.0
 30
0.0
 70
   128
 71
     3
 72
     6
 73
     7
  0
VERTEX
  5
962
  8
0
 62
   252
 10
0.0
 20
0.0
 30
0.0
 70
   128
 71
     3
 72
     1
 73
     6
  0
VERTEX
  5
963
  8
0
 62
   252
 10
0.0
 20
0.0
 30
0.0
 70
   128
 71
     7
 72
     1
 73
     3
  0
VERTEX
  5
964
  8
0
 62
   252
 10
0.0
 20
0.0
 30
0.0
 70
   128
 71
     8
 72
     7
 73
     6
  0
VERTEX
  5
965
  8
0
 62
   252
 10
0.0
 20
0.0
 30
0.0
 70
   128
 71
    10
 72
     9
 73
     8
  0
VERTEX
  5
966
  8
0
 62
   252
 10
0.0
 20
0.0
 30
0.0
 70
   128
 71
    13
 72
    12
 73
    11
  0
VERTEX
  5
967
  8
0
 62
   252
 10
0.0
 20
0.0
 30
0.0
 70
   128
 71
    14
 72
    11
 73
    12
  0
VERTEX
  5
968
  8
0
 62
   252
 10
0.0
 20
0.0
 30
0.0
 70
   128
 71
    11
 72
    10
 73
    13
  0
VERTEX
  5
969
  8
0
 62
   252
 10
0.0
 20
0.0
 30
0.0
 70
   128
 71
    12
 72
    15
 73
    14
  0
VERTEX
  5
96A
  8
0
 62
   252
 10
0.0
 20
0.0
 30
0.0
 70
   128
 71
     9
 72
    11
 73
    13
  0
VERTEX
  5
96B
  8
0
 62
   252
 10
0.0
 20
0.0
 30
0.0
 70
   128
 71
    10
 72
     9
 73
    13
  0
VERTEX
  5
96C
  8
0
 62
   252
 10
0.0
 20
0.0
 30
0.0
 70
   128
 71
     9
 72
    10
 73
     8
  0
VERTEX
  5
96D
  8
0
 62
   252
 10
0.0
 20
0.0
 30
0.0
 70
   128
 71
    12
 72
    13
 73
    14
  0
VERTEX
  5
96E
  8
0
 62
   252
 10
0.0
 20
0.0
 30
0.0
 70
   128
 71
    10
 72
    11
 73
     9
  0
VERTEX
  5
96F
  8
0
 62
   252
 10
0.0
 20
0.0
 30
0.0
 70
   128
 71
    11
 72
    14
 73
    13
  0
VERTEX
  5
970
  8
0
 62
   252
 10
0.0
 20
0.0
 30
0.0
 70
   128
 71
    14
 72
    15
 73
    12
  0
VERTEX
  5
971
  8
0
 62
   252
 10
0.0
 20
0.0
 30
0.0
 70
   128
 71
    18
 72
    17
 73
    16
  0
VERTEX
  5
972
  8
0
 62
   252
 10
0.0
 20
0.0
 30
0.0
 70
   128
 71
    15
 72
    20
 73
    19
  0
VERTEX
  5
973
  8
0
 62
   252
 10
0.0
 20
0.0
 30
0.0
 70
   128
 71
    21
 72
    16
 73
    17
  0
VERTEX
  5
974
  8
0
 62
   252
 10
0.0
 20
0.0
 30
0.0
 70
   128
 71
    18
 72
    16
 73
    20
  0
VERTEX
  5
975
  8
0
 62
   252
 10
0.0
 20
0.0
 30
0.0
 70
   128
 71
    17
 72
    22
 73
    21
  0
VERTEX
  5
976
  8
0
 62
   252
 10
0.0
 20
0.0
 30
0.0
 70
   128
 71
    19
 72
    16
 73
    18
  0
VERTEX
  5
977
  8
0
 62
   252
 10
0.0
 20
0.0
 30
0.0
 70
   128
 71
    20
 72
    15
 73
    19
  0
VERTEX
  5
978
  8
0
 62
   252
 10
0.0
 20
0.0
 30
0.0
 70
   128
 71
    20
 72
    19
 73
    18
  0
VERTEX
  5
979
  8
0
 62
   252
 10
0.0
 20
0.0
 30
0.0
 70
   128
 71
    17
 72
    18
 73
    21
  0
VERTEX
  5
97A
  8
0
 62
   252
 10
0.0
 20
0.0
 30
0.0
 70
   128
 71
    20
 72
    16
 73
    19
  0
VERTEX
  5
97B
  8
0
 62
   252
 10
0.0
 20
0.0
 30
0.0
 70
   128
 71
    16
 72
    21
 73
    18
  0
VERTEX
  5
97C
  8
0
 62
   252
 10
0.0
 20
0.0
 30
0.0
 70
   128
 71
    21
 72
    22
 73
    17
  0
VERTEX
  5
97D
  8
0
 62
   252
 10
0.0
 20
0.0
 30
0.0
 70
   128
 71
    25
 72
    24
 73
    23
  0
VERTEX
  5
97E
  8
0
 62
   252
 10
0.0
 20
0.0
 30
0.0
 70
   128
 71
    22
 72
    27
 73
    26
  0
VERTEX
  5
97F
  8
0
 62
   252
 10
0.0
 20
0.0
 30
0.0
 70
   128
 71
    28
 72
    23
 73
    24
  0
VERTEX
  5
980
  8
0
 62
   252
 10
0.0
 20
0.0
 30
0.0
 70
   128
 71
    25
 72
    23
 73
    27
  0
VERTEX
  5
981
  8
0
 62
   252
 10
0.0
 20
0.0
 30
0.0
 70
   128
 71
    24
 72
     5
 73
    28
  0
VERTEX
  5
982
  8
0
 62
   252
 10
0.0
 20
0.0
 30
0.0
 70
   128
 71
    26
 72
    23
 73
    25
  0
VERTEX
  5
983
  8
0
 62
   252
 10
0.0
 20
0.0
 30
0.0
 70
   128
 71
    27
 72
    26
 73
    25
  0
VERTEX
  5
984
  8
0
 62
   252
 10
0.0
 20
0.0
 30
0.0
 70
   128
 71
    26
 72
    27
 73
    22
  0
VERTEX
  5
985
  8
0
 62
   252
 10
0.0
 20
0.0
 30
0.0
 70
   128
 71
    24
 72
    25
 73
    28
  0
VERTEX
  5
986
  8
0
 62
   252
 10
0.0
 20
0.0
 30
0.0
 70
   128
 71
    27
 72
    23
 73
    26
  0
VERTEX
  5
987
  8
0
 62
   252
 10
0.0
 20
0.0
 30
0.0
 70
   128
 71
    23
 72
    28
 73
    25
  0
VERTEX
  5
988
  8
0
 62
   252
 10
0.0
 20
0.0
 30
0.0
 70
   128
 71
    28
 72
     5
 73
    24
  0
VERTEX
  5
989
  8
0
 62
   252
 10
0.0
 20
0.0
 30
0.0
 70
   128
 71
    29
 72
     4
 73
     5
  0
VERTEX
  5
98A
  8
0
 62
   252
 10
0.0
 20
0.0
 30
0.0
 70
   128
 71
    30
 72
     3
 73
     4
  0
VERTEX
  5
98B
  8
0
 62
   252
 10
0.0
 20
0.0
 30
0.0
 70
   128
 71
    30
 72
     4
 73
    29
  0
VERTEX
  5
98C
  8
0
 62
   252
 10
0.0
 20
0.0
 30
0.0
 70
   128
 71
    29
 72
     5
 73
    31
  0
VERTEX
  5
98D
  8
0
 62
   252
 10
0.0
 20
0.0
 30
0.0
 70
   128
 71
    30
 72
    32
 73
     3
  0
VERTEX
  5
98E
  8
0
 62
   252
 10
0.0
 20
0.0
 30
0.0
 70
   128
 71
    33
 72
     6
 73
    32
  0
VERTEX
  5
98F
  8
0
 62
   252
 10
0.0
 20
0.0
 30
0.0
 70
   128
 71
     3
 72
    32
 73
     6
  0
VERTEX
  5
990
  8
0
 62
   252
 10
0.0
 20
0.0
 30
0.0
 70
   128
 71
    33
 72
     8
 73
     6
  0
VERTEX
  5
991
  8
0
 62
   252
 10
0.0
 20
0.0
 30
0.0
 70
   128
 71
    34
 72
     8
 73
    33
  0
VERTEX
  5
992
  8
0
 62
   252
 10
0.0
 20
0.0
 30
0.0
 70
   128
 71
    35
 72
     9
 73
     8
  0
VERTEX
  5
993
  8
0
 62
   252
 10
0.0
 20
0.0
 30
0.0
 70
   128
 71
    13
 72
    37
 73
    36
  0
VERTEX
  5
994
  8
0
 62
   252
 10
0.0
 20
0.0
 30
0.0
 70
   128
 71
    39
 72
    38
 73
    15
  0
VERTEX
  5
995
  8
0
 62
   252
 10
0.0
 20
0.0
 30
0.0
 70
   128
 71
    15
 72
    12
 73
    39
  0
VERTEX
  5
996
  8
0
 62
   252
 10
0.0
 20
0.0
 30
0.0
 70
   128
 71
    36
 72
    39
 73
    12
  0
VERTEX
  5
997
  8
0
 62
   252
 10
0.0
 20
0.0
 30
0.0
 70
   128
 71
    13
 72
     9
 73
    37
  0
VERTEX
  5
998
  8
0
 62
   252
 10
0.0
 20
0.0
 30
0.0
 70
   128
 71
    12
 72
    13
 73
    36
  0
VERTEX
  5
999
  8
0
 62
   252
 10
0.0
 20
0.0
 30
0.0
 70
   128
 71
    34
 72
    35
 73
     8
  0
VERTEX
  5
99A
  8
0
 62
   252
 10
0.0
 20
0.0
 30
0.0
 70
   128
 71
     9
 72
    35
 73
    37
  0
VERTEX
  5
99B
  8
0
 62
   252
 10
0.0
 20
0.0
 30
0.0
 70
   128
 71
    40
 72
    19
 73
    15
  0
VERTEX
  5
99C
  8
0
 62
   252
 10
0.0
 20
0.0
 30
0.0
 70
   128
 71
    18
 72
    42
 73
    41
  0
VERTEX
  5
99D
  8
0
 62
   252
 10
0.0
 20
0.0
 30
0.0
 70
   128
 71
    44
 72
    43
 73
    22
  0
VERTEX
  5
99E
  8
0
 62
   252
 10
0.0
 20
0.0
 30
0.0
 70
   128
 71
    22
 72
    17
 73
    44
  0
VERTEX
  5
99F
  8
0
 62
   252
 10
0.0
 20
0.0
 30
0.0
 70
   128
 71
    41
 72
    44
 73
    17
  0
VERTEX
  5
9A0
  8
0
 62
   252
 10
0.0
 20
0.0
 30
0.0
 70
   128
 71
    18
 72
    19
 73
    42
  0
VERTEX
  5
9A1
  8
0
 62
   252
 10
0.0
 20
0.0
 30
0.0
 70
   128
 71
    17
 72
    18
 73
    41
  0
VERTEX
  5
9A2
  8
0
 62
   252
 10
0.0
 20
0.0
 30
0.0
 70
   128
 71
    38
 72
    40
 73
    15
  0
VERTEX
  5
9A3
  8
0
 62
   252
 10
0.0
 20
0.0
 30
0.0
 70
   128
 71
    19
 72
    40
 73
    42
  0
VERTEX
  5
9A4
  8
0
 62
   252
 10
0.0
 20
0.0
 30
0.0
 70
   128
 71
    45
 72
    26
 73
    22
  0
VERTEX
  5
9A5
  8
0
 62
   252
 10
0.0
 20
0.0
 30
0.0
 70
   128
 71
    25
 72
    47
 73
    46
  0
VERTEX
  5
9A6
  8
0
 62
   252
 10
0.0
 20
0.0
 30
0.0
 70
   128
 71
    48
 72
    31
 73
     5
  0
VERTEX
  5
9A7
  8
0
 62
   252
 10
0.0
 20
0.0
 30
0.0
 70
   128
 71
     5
 72
    24
 73
    48
  0
VERTEX
  5
9A8
  8
0
 62
   252
 10
0.0
 20
0.0
 30
0.0
 70
   128
 71
    46
 72
    48
 73
    24
  0
VERTEX
  5
9A9
  8
0
 62
   252
 10
0.0
 20
0.0
 30
0.0
 70
   128
 71
    25
 72
    26
 73
    47
  0
VERTEX
  5
9AA
  8
0
 62
   252
 10
0.0
 20
0.0
 30
0.0
 70
   128
 71
    24
 72
    25
 73
    46
  0
VERTEX
  5
9AB
  8
0
 62
   252
 10
0.0
 20
0.0
 30
0.0
 70
   128
 71
    43
 72
    45
 73
    22
  0
VERTEX
  5
9AC
  8
0
 62
   252
 10
0.0
 20
0.0
 30
0.0
 70
   128
 71
    26
 72
    45
 73
    47
  0
VERTEX
  5
9AD
  8
0
 62
   252
 10
0.0
 20
0.0
 30
0.0
 70
   128
 71
    50
 72
    32
 73
    49
  0
VERTEX
  5
9AE
  8
0
 62
   252
 10
0.0
 20
0.0
 30
0.0
 70
   128
 71
    34
 72
    50
 73
    33
  0
VERTEX
  5
9AF
  8
0
 62
   252
 10
0.0
 20
0.0
 30
0.0
 70
   128
 71
    33
 72
    50
 73
    49
  0
VERTEX
  5
9B0
  8
0
 62
   252
 10
0.0
 20
0.0
 30
0.0
 70
   128
 71
    29
 72
    52
 73
    51
  0
VERTEX
  5
9B1
  8
0
 62
   252
 10
0.0
 20
0.0
 30
0.0
 70
   128
 71
    29
 72
    31
 73
    52
  0
VERTEX
  5
9B2
  8
0
 62
   252
 10
0.0
 20
0.0
 30
0.0
 70
   128
 71
    30
 72
    51
 73
    49
  0
VERTEX
  5
9B3
  8
0
 62
   252
 10
0.0
 20
0.0
 30
0.0
 70
   128
 71
    29
 72
    51
 73
    30
  0
VERTEX
  5
9B4
  8
0
 62
   252
 10
0.0
 20
0.0
 30
0.0
 70
   128
 71
    49
 72
    32
 73
    33
  0
VERTEX
  5
9B5
  8
0
 62
   252
 10
0.0
 20
0.0
 30
0.0
 70
   128
 71
    50
 72
    33
 73
    32
  0
VERTEX
  5
9B6
  8
0
 62
   252
 10
0.0
 20
0.0
 30
0.0
 70
   128
 71
    33
 72
    50
 73
    34
  0
VERTEX
  5
9B7
  8
0
 62
   252
 10
0.0
 20
0.0
 30
0.0
 70
   128
 71
    30
 72
    32
 73
    51
  0
VERTEX
  5
9B8
  8
0
 62
   252
 10
0.0
 20
0.0
 30
0.0
 70
   128
 71
    49
 72
    32
 73
    30
  0
VERTEX
  5
9B9
  8
0
 62
   252
 10
0.0
 20
0.0
 30
0.0
 70
   128
 71
    49
 72
    51
 73
    32
  0
VERTEX
  5
9BA
  8
0
 62
   252
 10
0.0
 20
0.0
 30
0.0
 70
   128
 71
    52
 72
    29
 73
    30
  0
VERTEX
  5
9BB
  8
0
 62
   252
 10
0.0
 20
0.0
 30
0.0
 70
   128
 71
    51
 72
    52
 73
    30
  0
VERTEX
  5
9BC
  8
0
 62
   252
 10
0.0
 20
0.0
 30
0.0
 70
   128
 71
    52
 72
    31
 73
    29
  0
VERTEX
  5
9BD
  8
0
 62
   252
 10
0.0
 20
0.0
 30
0.0
 70
   128
 71
    53
 72
    39
 73
    38
  0
VERTEX
  5
9BE
  8
0
 62
   252
 10
0.0
 20
0.0
 30
0.0
 70
   128
 71
    53
 72
    36
 73
    54
  0
VERTEX
  5
9BF
  8
0
 62
   252
 10
0.0
 20
0.0
 30
0.0
 70
   128
 71
    53
 72
    54
 73
    39
  0
VERTEX
  5
9C0
  8
0
 62
   252
 10
0.0
 20
0.0
 30
0.0
 70
   128
 71
    35
 72
    56
 73
    55
  0
VERTEX
  5
9C1
  8
0
 62
   252
 10
0.0
 20
0.0
 30
0.0
 70
   128
 71
    35
 72
    34
 73
    56
  0
VERTEX
  5
9C2
  8
0
 62
   252
 10
0.0
 20
0.0
 30
0.0
 70
   128
 71
    37
 72
    55
 73
    54
  0
VERTEX
  5
9C3
  8
0
 62
   252
 10
0.0
 20
0.0
 30
0.0
 70
   128
 71
    35
 72
    55
 73
    37
  0
VERTEX
  5
9C4
  8
0
 62
   252
 10
0.0
 20
0.0
 30
0.0
 70
   128
 71
    54
 72
    36
 73
    39
  0
VERTEX
  5
9C5
  8
0
 62
   252
 10
0.0
 20
0.0
 30
0.0
 70
   128
 71
    53
 72
    39
 73
    36
  0
VERTEX
  5
9C6
  8
0
 62
   252
 10
0.0
 20
0.0
 30
0.0
 70
   128
 71
    39
 72
    53
 73
    38
  0
VERTEX
  5
9C7
  8
0
 62
   252
 10
0.0
 20
0.0
 30
0.0
 70
   128
 71
    37
 72
    36
 73
    55
  0
VERTEX
  5
9C8
  8
0
 62
   252
 10
0.0
 20
0.0
 30
0.0
 70
   128
 71
    54
 72
    36
 73
    37
  0
VERTEX
  5
9C9
  8
0
 62
   252
 10
0.0
 20
0.0
 30
0.0
 70
   128
 71
    54
 72
    55
 73
    36
  0
VERTEX
  5
9CA
  8
0
 62
   252
 10
0.0
 20
0.0
 30
0.0
 70
   128
 71
    56
 72
    35
 73
    37
  0
VERTEX
  5
9CB
  8
0
 62
   252
 10
0.0
 20
0.0
 30
0.0
 70
   128
 71
    55
 72
    56
 73
    37
  0
VERTEX
  5
9CC
  8
0
 62
   252
 10
0.0
 20
0.0
 30
0.0
 70
   128
 71
    56
 72
    34
 73
    35
  0
VERTEX
  5
9CD
  8
0
 62
   252
 10
0.0
 20
0.0
 30
0.0
 70
   128
 71
    58
 72
    57
 73
    40
  0
VERTEX
  5
9CE
  8
0
 62
   252
 10
0.0
 20
0.0
 30
0.0
 70
   128
 71
    58
 72
    42
 73
    57
  0
VERTEX
  5
9CF
  8
0
 62
   252
 10
0.0
 20
0.0
 30
0.0
 70
   128
 71
    44
 72
    59
 73
    43
  0
VERTEX
  5
9D0
  8
0
 62
   252
 10
0.0
 20
0.0
 30
0.0
 70
   128
 71
    41
 72
    44
 73
    59
  0
VERTEX
  5
9D1
  8
0
 62
   252
 10
0.0
 20
0.0
 30
0.0
 70
   128
 71
    60
 72
    58
 73
    42
  0
VERTEX
  5
9D2
  8
0
 62
   252
 10
0.0
 20
0.0
 30
0.0
 70
   128
 71
    41
 72
    59
 73
    60
  0
VERTEX
  5
9D3
  8
0
 62
   252
 10
0.0
 20
0.0
 30
0.0
 70
   128
 71
    57
 72
    40
 73
    38
  0
VERTEX
  5
9D4
  8
0
 62
   252
 10
0.0
 20
0.0
 30
0.0
 70
   128
 71
    42
 72
    58
 73
    40
  0
VERTEX
  5
9D5
  8
0
 62
   252
 10
0.0
 20
0.0
 30
0.0
 70
   128
 71
    38
 72
    40
 73
    57
  0
VERTEX
  5
9D6
  8
0
 62
   252
 10
0.0
 20
0.0
 30
0.0
 70
   128
 71
    57
 72
    42
 73
    40
  0
VERTEX
  5
9D7
  8
0
 62
   252
 10
0.0
 20
0.0
 30
0.0
 70
   128
 71
    58
 72
    41
 73
    42
  0
VERTEX
  5
9D8
  8
0
 62
   252
 10
0.0
 20
0.0
 30
0.0
 70
   128
 71
    41
 72
    60
 73
    42
  0
VERTEX
  5
9D9
  8
0
 62
   252
 10
0.0
 20
0.0
 30
0.0
 70
   128
 71
    60
 72
    41
 73
    58
  0
VERTEX
  5
9DA
  8
0
 62
   252
 10
0.0
 20
0.0
 30
0.0
 70
   128
 71
    41
 72
    60
 73
    44
  0
VERTEX
  5
9DB
  8
0
 62
   252
 10
0.0
 20
0.0
 30
0.0
 70
   128
 71
    60
 72
    59
 73
    44
  0
VERTEX
  5
9DC
  8
0
 62
   252
 10
0.0
 20
0.0
 30
0.0
 70
   128
 71
    59
 72
    44
 73
    43
  0
VERTEX
  5
9DD
  8
0
 62
   252
 10
0.0
 20
0.0
 30
0.0
 70
   128
 71
    62
 72
    61
 73
    45
  0
VERTEX
  5
9DE
  8
0
 62
   252
 10
0.0
 20
0.0
 30
0.0
 70
   128
 71
    62
 72
    47
 73
    61
  0
VERTEX
  5
9DF
  8
0
 62
   252
 10
0.0
 20
0.0
 30
0.0
 70
   128
 71
    48
 72
    63
 73
    31
  0
VERTEX
  5
9E0
  8
0
 62
   252
 10
0.0
 20
0.0
 30
0.0
 70
   128
 71
    46
 72
    48
 73
    63
  0
VERTEX
  5
9E1
  8
0
 62
   252
 10
0.0
 20
0.0
 30
0.0
 70
   128
 71
    64
 72
    62
 73
    47
  0
VERTEX
  5
9E2
  8
0
 62
   252
 10
0.0
 20
0.0
 30
0.0
 70
   128
 71
    46
 72
    63
 73
    64
  0
VERTEX
  5
9E3
  8
0
 62
   252
 10
0.0
 20
0.0
 30
0.0
 70
   128
 71
    61
 72
    45
 73
    43
  0
VERTEX
  5
9E4
  8
0
 62
   252
 10
0.0
 20
0.0
 30
0.0
 70
   128
 71
    47
 72
    62
 73
    45
  0
VERTEX
  5
9E5
  8
0
 62
   252
 10
0.0
 20
0.0
 30
0.0
 70
   128
 71
    43
 72
    45
 73
    61
  0
VERTEX
  5
9E6
  8
0
 62
   252
 10
0.0
 20
0.0
 30
0.0
 70
   128
 71
    61
 72
    47
 73
    45
  0
VERTEX
  5
9E7
  8
0
 62
   252
 10
0.0
 20
0.0
 30
0.0
 70
   128
 71
    62
 72
    46
 73
    47
  0
VERTEX
  5
9E8
  8
0
 62
   252
 10
0.0
 20
0.0
 30
0.0
 70
   128
 71
    46
 72
    64
 73
    47
  0
VERTEX
  5
9E9
  8
0
 62
   252
 10
0.0
 20
0.0
 30
0.0
 70
   128
 71
    64
 72
    46
 73
    62
  0
VERTEX
  5
9EA
  8
0
 62
   252
 10
0.0
 20
0.0
 30
0.0
 70
   128
 71
    46
 72
    64
 73
    48
  0
VERTEX
  5
9EB
  8
0
 62
   252
 10
0.0
 20
0.0
 30
0.0
 70
   128
 71
    64
 72
    63
 73
    48
  0
VERTEX
  5
9EC
  8
0
 62
   252
 10
0.0
 20
0.0
 30
0.0
 70
   128
 71
    63
 72
    48
 73
    31
  0
VERTEX
  5
9ED
  8
0
 62
   252
 10
0.0
 20
0.0
 30
0.0
 70
   128
 71
    42
 72
    65
 73
    41
  0
VERTEX
  5
9EE
  8
0
 62
   252
 10
0.0
 20
0.0
 30
0.0
 70
   128
 71
    38
 72
    66
 73
    40
  0
VERTEX
  5
9EF
  8
0
 62
   252
 10
0.0
 20
0.0
 30
0.0
 70
   128
 71
    39
 72
    66
 73
    38
  0
VERTEX
  5
9F0
  8
0
 62
   252
 10
0.0
 20
0.0
 30
0.0
 70
   128
 71
    65
 72
    68
 73
    67
  0
VERTEX
  5
9F1
  8
0
 62
   252
 10
0.0
 20
0.0
 30
0.0
 70
   128
 71
    70
 72
    69
 73
    65
  0
VERTEX
  5
9F2
  8
0
 62
   252
 10
0.0
 20
0.0
 30
0.0
 70
   128
 71
    45
 72
    67
 73
    47
  0
VERTEX
  5
9F3
  8
0
 62
   252
 10
0.0
 20
0.0
 30
0.0
 70
   128
 71
    47
 72
    67
 73
    68
  0
VERTEX
  5
9F4
  8
0
 62
   252
 10
0.0
 20
0.0
 30
0.0
 70
   128
 71
    73
 72
    72
 73
    71
  0
VERTEX
  5
9F5
  8
0
 62
   252
 10
0.0
 20
0.0
 30
0.0
 70
   128
 71
    45
 72
    43
 73
    67
  0
VERTEX
  5
9F6
  8
0
 62
   252
 10
0.0
 20
0.0
 30
0.0
 70
   128
 71
    75
 72
    73
 73
    74
  0
VERTEX
  5
9F7
  8
0
 62
   252
 10
0.0
 20
0.0
 30
0.0
 70
   128
 71
    76
 72
    74
 73
    71
  0
VERTEX
  5
9F8
  8
0
 62
   252
 10
0.0
 20
0.0
 30
0.0
 70
   128
 71
    78
 72
    77
 73
    73
  0
VERTEX
  5
9F9
  8
0
 62
   252
 10
0.0
 20
0.0
 30
0.0
 70
   128
 71
    31
 72
    79
 73
    29
  0
VERTEX
  5
9FA
  8
0
 62
   252
 10
0.0
 20
0.0
 30
0.0
 70
   128
 71
    36
 72
    72
 73
    39
  0
VERTEX
  5
9FB
  8
0
 62
   252
 10
0.0
 20
0.0
 30
0.0
 70
   128
 71
    70
 72
    40
 73
    66
  0
VERTEX
  5
9FC
  8
0
 62
   252
 10
0.0
 20
0.0
 30
0.0
 70
   128
 71
    37
 72
    35
 73
    76
  0
VERTEX
  5
9FD
  8
0
 62
   252
 10
0.0
 20
0.0
 30
0.0
 70
   128
 71
    76
 72
    71
 73
    37
  0
VERTEX
  5
9FE
  8
0
 62
   252
 10
0.0
 20
0.0
 30
0.0
 70
   128
 71
    35
 72
    34
 73
    76
  0
VERTEX
  5
9FF
  8
0
 62
   252
 10
0.0
 20
0.0
 30
0.0
 70
   128
 71
    39
 72
    72
 73
    66
  0
VERTEX
  5
A00
  8
0
 62
   252
 10
0.0
 20
0.0
 30
0.0
 70
   128
 71
    40
 72
    70
 73
    42
  0
VERTEX
  5
A01
  8
0
 62
   252
 10
0.0
 20
0.0
 30
0.0
 70
   128
 71
    71
 72
    36
 73
    37
  0
VERTEX
  5
A02
  8
0
 62
   252
 10
0.0
 20
0.0
 30
0.0
 70
   128
 71
    36
 72
    71
 73
    72
  0
VERTEX
  5
A03
  8
0
 62
   252
 10
0.0
 20
0.0
 30
0.0
 70
   128
 71
    66
 72
    72
 73
    77
  0
VERTEX
  5
A04
  8
0
 62
   252
 10
0.0
 20
0.0
 30
0.0
 70
   128
 71
    76
 72
    33
 73
    32
  0
VERTEX
  5
A05
  8
0
 62
   252
 10
0.0
 20
0.0
 30
0.0
 70
   128
 71
    74
 72
    73
 73
    71
  0
VERTEX
  5
A06
  8
0
 62
   252
 10
0.0
 20
0.0
 30
0.0
 70
   128
 71
    33
 72
    76
 73
    34
  0
VERTEX
  5
A07
  8
0
 62
   252
 10
0.0
 20
0.0
 30
0.0
 70
   128
 71
    70
 72
    66
 73
    77
  0
VERTEX
  5
A08
  8
0
 62
   252
 10
0.0
 20
0.0
 30
0.0
 70
   128
 71
    46
 72
    68
 73
    80
  0
VERTEX
  5
A09
  8
0
 62
   252
 10
0.0
 20
0.0
 30
0.0
 70
   128
 71
    78
 72
    75
 73
    79
  0
VERTEX
  5
A0A
  8
0
 62
   252
 10
0.0
 20
0.0
 30
0.0
 70
   128
 71
    72
 72
    73
 73
    77
  0
VERTEX
  5
A0B
  8
0
 62
   252
 10
0.0
 20
0.0
 30
0.0
 70
   128
 71
    69
 72
    77
 73
    78
  0
VERTEX
  5
A0C
  8
0
 62
   252
 10
0.0
 20
0.0
 30
0.0
 70
   128
 71
    32
 72
    30
 73
    74
  0
VERTEX
  5
A0D
  8
0
 62
   252
 10
0.0
 20
0.0
 30
0.0
 70
   128
 71
    73
 72
    75
 73
    78
  0
VERTEX
  5
A0E
  8
0
 62
   252
 10
0.0
 20
0.0
 30
0.0
 70
   128
 71
    74
 72
    76
 73
    32
  0
VERTEX
  5
A0F
  8
0
 62
   252
 10
0.0
 20
0.0
 30
0.0
 70
   128
 71
    70
 72
    65
 73
    42
  0
VERTEX
  5
A10
  8
0
 62
   252
 10
0.0
 20
0.0
 30
0.0
 70
   128
 71
    67
 72
    44
 73
    41
  0
VERTEX
  5
A11
  8
0
 62
   252
 10
0.0
 20
0.0
 30
0.0
 70
   128
 71
    80
 72
    69
 73
    78
  0
VERTEX
  5
A12
  8
0
 62
   252
 10
0.0
 20
0.0
 30
0.0
 70
   128
 71
    77
 72
    69
 73
    70
  0
VERTEX
  5
A13
  8
0
 62
   252
 10
0.0
 20
0.0
 30
0.0
 70
   128
 71
    69
 72
    80
 73
    68
  0
VERTEX
  5
A14
  8
0
 62
   252
 10
0.0
 20
0.0
 30
0.0
 70
   128
 71
    74
 72
    30
 73
    75
  0
VERTEX
  5
A15
  8
0
 62
   252
 10
0.0
 20
0.0
 30
0.0
 70
   128
 71
    79
 72
    80
 73
    78
  0
VERTEX
  5
A16
  8
0
 62
   252
 10
0.0
 20
0.0
 30
0.0
 70
   128
 71
    75
 72
    30
 73
    29
  0
VERTEX
  5
A17
  8
0
 62
   252
 10
0.0
 20
0.0
 30
0.0
 70
   128
 71
    65
 72
    67
 73
    41
  0
VERTEX
  5
A18
  8
0
 62
   252
 10
0.0
 20
0.0
 30
0.0
 70
   128
 71
    44
 72
    67
 73
    43
  0
VERTEX
  5
A19
  8
0
 62
   252
 10
0.0
 20
0.0
 30
0.0
 70
   128
 71
    47
 72
    68
 73
    46
  0
VERTEX
  5
A1A
  8
0
 62
   252
 10
0.0
 20
0.0
 30
0.0
 70
   128
 71
    69
 72
    68
 73
    65
  0
VERTEX
  5
A1B
  8
0
 62
   252
 10
0.0
 20
0.0
 30
0.0
 70
   128
 71
    80
 72
    48
 73
    46
  0
VERTEX
  5
A1C
  8
0
 62
   252
 10
0.0
 20
0.0
 30
0.0
 70
   128
 71
    75
 72
    29
 73
    79
  0
VERTEX
  5
A1D
  8
0
 62
   252
 10
0.0
 20
0.0
 30
0.0
 70
   128
 71
    79
 72
    48
 73
    80
  0
VERTEX
  5
A1E
  8
0
 62
   252
 10
0.0
 20
0.0
 30
0.0
 70
   128
 71
    48
 72
    79
 73
    31
  0
SEQEND
  5
A1F
  8
0
 62
   252
  0
ENDBLK
  5
A22
  8
0
  0
BLOCK
  8
0
  2
43
 70
     0
 10
0.0
 20
0.0
 30
0.0
  3
43
  1

  0
POLYLINE
  5
A24
  8
0
 66
     1
 10
0.0
 20
0.0
 30
0.0
 70
    64
 71
   163
 72
   308
  0
VERTEX
  5
A25
  8
0
 10
119.1552963256836
 20
18.62504386901855
 30
6.925781726837158
 70
   192
  0
VERTEX
  5
A26
  8
0
 10
119.1613922119141
 20
18.84673881530762
 30
6.876286506652832
 70
   192
  0
VERTEX
  5
A27
  8
0
 10
114.1236572265625
 20
18.84235382080078
 30
6.871901035308838
 70
   192
  0
VERTEX
  5
A28
  8
0
 10
115.676643371582
 20
6.410868167877197
 30
9.317927360534668
 70
   192
  0
VERTEX
  5
A29
  8
0
 10
114.1236572265625
 20
9.522541046142578
 30
8.937760353088379
 70
   192
  0
VERTEX
  5
A2A
  8
0
 10
114.1236572265625
 20
0.0017372701549903
 30
9.631284713745117
 70
   192
  0
VERTEX
  5
A2B
  8
0
 10
119.1534576416016
 20
12.74680042266846
 30
8.383231163024902
 70
   192
  0
VERTEX
  5
A2C
  8
0
 10
115.9235229492188
 20
12.74289608001709
 30
8.384002685546875
 70
   192
  0
VERTEX
  5
A2D
  8
0
 10
115.6522979736328
 20
0.0017372701549903
 30
9.631284713745117
 70
   192
  0
VERTEX
  5
A2E
  8
0
 10
114.1236572265625
 20
21.28532600402832
 30
-5.554515838623047
 70
   192
  0
VERTEX
  5
A2F
  8
0
 10
114.1236572265625
 20
-6.378963470458984
 30
-33.25720977783203
 70
   192
  0
VERTEX
  5
A30
  8
0
 10
114.1236572265625
 20
-21.28185272216797
 30
-18.38291549682617
 70
   192
  0
VERTEX
  5
A31
  8
0
 10
114.1236572265625
 20
-9.519068717956543
 30
8.93777847290039
 70
   192
  0
VERTEX
  5
A32
  8
0
 10
114.1236572265625
 20
-21.28675842285156
 30
-5.588014602661133
 70
   192
  0
VERTEX
  5
A33
  8
0
 10
114.1236572265625
 20
21.29023361206055
 30
-18.34941673278809
 70
   192
  0
VERTEX
  5
A34
  8
0
 10
114.1236572265625
 20
-18.8388786315918
 30
-30.8093318939209
 70
   192
  0
VERTEX
  5
A35
  8
0
 10
114.1236572265625
 20
-18.8388786315918
 30
6.871901035308838
 70
   192
  0
VERTEX
  5
A36
  8
0
 10
114.1236572265625
 20
6.415936470031738
 30
-33.25230407714844
 70
   192
  0
VERTEX
  5
A37
  8
0
 10
114.1236572265625
 20
18.84235382080078
 30
-30.8093318939209
 70
   192
  0
VERTEX
  5
A38
  8
0
 10
119.1613082885742
 20
18.84674263000488
 30
-30.813720703125
 70
   192
  0
VERTEX
  5
A39
  8
0
 10
119.1552200317383
 20
18.62504577636719
 30
-30.86320877075195
 70
   192
  0
VERTEX
  5
A3A
  8
0
 10
119.1553039550781
 20
-18.62110328674316
 30
-30.86332130432129
 70
   192
  0
VERTEX
  5
A3B
  8
0
 10
115.9235229492188
 20
-12.73549461364746
 30
-32.32220840454102
 70
   192
  0
VERTEX
  5
A3C
  8
0
 10
119.1535949707031
 20
-12.73940086364746
 30
-32.32143783569336
 70
   192
  0
VERTEX
  5
A3D
  8
0
 10
119.1613693237305
 20
-18.843017578125
 30
-30.81346893310547
 70
   192
  0
VERTEX
  5
A3E
  8
0
 10
115.6766510009766
 20
-6.404659748077393
 30
-33.2556266784668
 70
   192
  0
VERTEX
  5
A3F
  8
0
 10
115.6768112182617
 20
6.410887718200684
 30
-33.25535583496094
 70
   192
  0
VERTEX
  5
A40
  8
0
 10
115.6522979736328
 20
0.0032279423903674
 30
-33.5687141418457
 70
   192
  0
VERTEX
  5
A41
  8
0
 10
115.9237060546875
 20
12.74519062042236
 30
-32.32098007202148
 70
   192
  0
VERTEX
  5
A42
  8
0
 10
119.1535110473633
 20
12.74581718444824
 30
-32.32085418701172
 70
   192
  0
VERTEX
  5
A43
  8
0
 10
119.1553115844727
 20
-18.89278030395508
 30
-30.59185409545898
 70
   192
  0
VERTEX
  5
A44
  8
0
 10
119.1553115844727
 20
-18.89278411865234
 30
6.6544189453125
 70
   192
  0
VERTEX
  5
A45
  8
0
 10
115.9235229492188
 20
-20.35308456420898
 30
0.7617946267127991
 70
   192
  0
VERTEX
  5
A46
  8
0
 10
119.1537933349609
 20
-20.3523120880127
 30
0.7657079696655273
 70
   192
  0
VERTEX
  5
A47
  8
0
 10
119.1613693237305
 20
-18.84301567077637
 30
6.876038074493408
 70
   192
  0
VERTEX
  5
A48
  8
0
 10
115.6767807006836
 20
-21.28540992736816
 30
-5.564734935760498
 70
   192
  0
VERTEX
  5
A49
  8
0
 10
115.6769485473633
 20
-21.28553199768066
 30
-18.37145805358887
 70
   192
  0
VERTEX
  5
A4A
  8
0
 10
115.6524124145508
 20
-21.59826278686523
 30
-11.96819972991943
 70
   192
  0
VERTEX
  5
A4B
  8
0
 10
115.9237060546875
 20
-20.35263061523438
 30
-24.70152473449707
 70
   192
  0
VERTEX
  5
A4C
  8
0
 10
119.1539306640625
 20
-20.35250663757324
 30
-24.70215034484863
 70
   192
  0
VERTEX
  5
A4D
  8
0
 10
115.6768264770508
 20
-6.40467643737793
 30
9.318193435668945
 70
   192
  0
VERTEX
  5
A4E
  8
0
 10
115.9237060546875
 20
-12.73778438568115
 30
8.384325981140137
 70
   192
  0
VERTEX
  5
A4F
  8
0
 10
119.1553115844727
 20
-18.6211051940918
 30
6.925887107849121
 70
   192
  0
VERTEX
  5
A50
  8
0
 10
119.1536865234375
 20
-12.73841667175293
 30
8.384201049804688
 70
   192
  0
VERTEX
  5
A51
  8
0
 10
119.1552963256836
 20
18.89631652832031
 30
6.654294490814209
 70
   192
  0
VERTEX
  5
A52
  8
0
 10
119.1552047729492
 20
18.89632034301758
 30
-30.59172630310059
 70
   192
  0
VERTEX
  5
A53
  8
0
 10
115.9235229492188
 20
20.35312843322754
 30
-24.71658897399902
 70
   192
  0
VERTEX
  5
A54
  8
0
 10
119.1531829833984
 20
20.35235595703125
 30
-24.72048568725586
 70
   192
  0
VERTEX
  5
A55
  8
0
 10
115.6765213012695
 20
21.28802108764648
 30
-18.38151168823242
 70
   192
  0
VERTEX
  5
A56
  8
0
 10
115.6766815185547
 20
21.28814125061035
 30
-5.557150840759277
 70
   192
  0
VERTEX
  5
A57
  8
0
 10
115.6521759033203
 20
21.60173797607422
 30
-11.96922492980957
 70
   192
  0
VERTEX
  5
A58
  8
0
 10
115.9237060546875
 20
20.35267639160156
 30
0.7814432978630066
 70
   192
  0
VERTEX
  5
A59
  8
0
 10
119.1533355712891
 20
20.35255241394043
 30
0.7820690870285034
 70
   192
  0
VERTEX
  5
A5A
  8
0
 10
111.3289337158203
 20
4.507017612457275
 30
-95.46871185302734
 70
   192
  0
VERTEX
  5
A5B
  8
0
 10
111.0239562988281
 20
0.0578263513743877
 30
-37.95474243164062
 70
   192
  0
VERTEX
  5
A5C
  8
0
 10
110.3414993286133
 20
3.910274505615234
 30
-37.80243301391602
 70
   192
  0
VERTEX
  5
A5D
  8
0
 10
111.3289337158203
 20
-4.503542900085449
 30
-95.46871185302734
 70
   192
  0
VERTEX
  5
A5E
  8
0
 10
110.724494934082
 20
-3.525017738342285
 30
-37.82295989990234
 70
   192
  0
VERTEX
  5
A5F
  8
0
 10
112.0736541748047
 20
0.0017372701549903
 30
-95.46871185302734
 70
   192
  0
VERTEX
  5
A60
  8
0
 10
106.79833984375
 20
4.230556488037109
 30
-37.95475006103516
 70
   192
  0
VERTEX
  5
A61
  8
0
 10
106.8236541748047
 20
5.251737117767334
 30
-95.46871185302734
 70
   192
  0
VERTEX
  5
A62
  8
0
 10
102.8739700317383
 20
3.528974771499634
 30
-37.82293701171875
 70
   192
  0
VERTEX
  5
A63
  8
0
 10
102.3183746337891
 20
4.507017612457275
 30
-95.46871185302734
 70
   192
  0
VERTEX
  5
A64
  8
0
 10
101.5736541748047
 20
0.0017372701549903
 30
-95.46871185302734
 70
   192
  0
VERTEX
  5
A65
  8
0
 10
102.6232147216797
 20
0.0017372701549903
 30
-37.95474243164062
 70
   192
  0
VERTEX
  5
A66
  8
0
 10
102.3183746337891
 20
-4.503542900085449
 30
-95.46871185302734
 70
   192
  0
VERTEX
  5
A67
  8
0
 10
103.256965637207
 20
-3.906317472457886
 30
-37.80245590209961
 70
   192
  0
VERTEX
  5
A68
  8
0
 10
106.8236541748047
 20
-5.248262882232666
 30
-95.46871185302734
 70
   192
  0
VERTEX
  5
A69
  8
0
 10
106.7983322143555
 20
-4.226609706878662
 30
-37.95475006103516
 70
   192
  0
VERTEX
  5
A6A
  8
0
 10
88.90553283691406
 20
19.95017051696777
 30
-7.166119575500488
 70
   192
  0
VERTEX
  5
A6B
  8
0
 10
84.42366027832031
 20
22.87871360778809
 30
-14.33861541748047
 70
   192
  0
VERTEX
  5
A6C
  8
0
 10
84.42366027832031
 20
25.90554428100586
 30
-14.33861541748047
 70
   192
  0
VERTEX
  5
A6D
  8
0
 10
92.46720886230469
 20
-14.00946140289307
 30
-1.466243386268616
 70
   192
  0
VERTEX
  5
A6E
  8
0
 10
94.62371063232422
 20
-5.224002838134766
 30
1.984881639480591
 70
   192
  0
VERTEX
  5
A6F
  8
0
 10
99.83386993408203
 20
-22.10300445556641
 30
10.32287693023682
 70
   192
  0
VERTEX
  5
A70
  8
0
 10
92.14432525634766
 20
25.22128868103027
 30
-1.982966899871826
 70
   192
  0
VERTEX
  5
A71
  8
0
 10
92.14435577392578
 20
-25.21733283996582
 30
-1.982918977737427
 70
   192
  0
VERTEX
  5
A72
  8
0
 10
99.71726989746094
 20
-22.28960800170898
 30
10.1362771987915
 70
   192
  0
VERTEX
  5
A73
  8
0
 10
92.46615600585938
 20
14.01629066467285
 30
-1.467923760414124
 70
   192
  0
VERTEX
  5
A74
  8
0
 10
99.71726989746094
 20
22.2935791015625
 30
10.13627624511719
 70
   192
  0
VERTEX
  5
A75
  8
0
 10
101.8625259399414
 20
7.489320278167725
 30
13.56941032409668
 70
   192
  0
VERTEX
  5
A76
  8
0
 10
94.56298065185547
 20
5.95393705368042
 30
1.8876953125
 70
   192
  0
VERTEX
  5
A77
  8
0
 10
84.42369079589844
 20
-25.90155601501465
 30
-14.33856010437012
 70
   192
  0
VERTEX
  5
A78
  8
0
 10
88.91134643554688
 20
-19.93994903564453
 30
-7.156812191009521
 70
   192
  0
VERTEX
  5
A79
  8
0
 10
84.42366027832031
 20
-22.87474060058594
 30
-14.33861541748047
 70
   192
  0
VERTEX
  5
A7A
  8
0
 10
101.8627090454102
 20
-7.478228092193604
 30
13.56970119476318
 70
   192
  0
VERTEX
  5
A7B
  8
0
 10
99.83386993408203
 20
22.10697937011719
 30
10.32287883758545
 70
   192
  0
VERTEX
  5
A7C
  8
0
 10
105.8495254516602
 20
-22.28960800170898
 30
10.1362771987915
 70
   192
  0
VERTEX
  5
A7D
  8
0
 10
111.9817810058594
 20
-22.28960800170898
 30
10.1362771987915
 70
   192
  0
VERTEX
  5
A7E
  8
0
 10
118.6778259277344
 20
-24.42040634155273
 30
1.287327647209167
 70
   192
  0
VERTEX
  5
A7F
  8
0
 10
118.6776428222656
 20
-24.42077255249023
 30
-25.22385406494141
 70
   192
  0
VERTEX
  5
A80
  8
0
 10
84.45027923583984
 20
-22.32338905334473
 30
-33.97481918334961
 70
   192
  0
VERTEX
  5
A81
  8
0
 10
84.42373657226562
 20
-24.844482421875
 30
-24.23548316955566
 70
   192
  0
VERTEX
  5
A82
  8
0
 10
90.21893310546875
 20
-22.28960609436035
 30
-34.07370758056641
 70
   192
  0
VERTEX
  5
A83
  8
0
 10
101.3769683837891
 20
-22.28960609436035
 30
-34.07370758056641
 70
   192
  0
VERTEX
  5
A84
  8
0
 10
95.7979507446289
 20
-22.28960609436035
 30
-34.07370758056641
 70
   192
  0
VERTEX
  5
A85
  8
0
 10
112.5350112915039
 20
-22.28960609436035
 30
-34.07370758056641
 70
   192
  0
VERTEX
  5
A86
  8
0
 10
106.9559860229492
 20
-22.28960609436035
 30
-34.07370758056641
 70
   192
  0
VERTEX
  5
A87
  8
0
 10
118.6309356689453
 20
-21.82593536376953
 30
-34.04872894287109
 70
   192
  0
VERTEX
  5
A88
  8
0
 10
118.6890182495117
 20
-25.58664703369141
 30
-16.4122371673584
 70
   192
  0
VERTEX
  5
A89
  8
0
 10
118.6887054443359
 20
-25.56690216064453
 30
-7.525242805480957
 70
   192
  0
VERTEX
  5
A8A
  8
0
 10
118.6309432983398
 20
-22.07803344726562
 30
9.859211921691895
 70
   192
  0
VERTEX
  5
A8B
  8
0
 10
105.9272537231445
 20
-22.10300445556641
 30
10.32287693023682
 70
   192
  0
VERTEX
  5
A8C
  8
0
 10
112.0206451416016
 20
-22.10300445556641
 30
10.32287693023682
 70
   192
  0
VERTEX
  5
A8D
  8
0
 10
105.9272613525391
 20
22.10697937011719
 30
10.32287883758545
 70
   192
  0
VERTEX
  5
A8E
  8
0
 10
112.0206527709961
 20
22.10697937011719
 30
10.32287883758545
 70
   192
  0
VERTEX
  5
A8F
  8
0
 10
118.6779098510742
 20
13.25803565979004
 30
12.45366859436035
 70
   192
  0
VERTEX
  5
A90
  8
0
 10
118.6776428222656
 20
-13.25315475463867
 30
12.45404148101807
 70
   192
  0
VERTEX
  5
A91
  8
0
 10
118.6889114379883
 20
-4.441534996032715
 30
13.61992263793945
 70
   192
  0
VERTEX
  5
A92
  8
0
 10
118.6886444091797
 20
4.445463180541992
 30
13.60017681121826
 70
   192
  0
VERTEX
  5
A93
  8
0
 10
118.6309814453125
 20
21.82992362976074
 30
10.11129951477051
 70
   192
  0
VERTEX
  5
A94
  8
0
 10
119.5446548461914
 20
-9.455124855041504
 30
-33.32989883422852
 70
   192
  0
VERTEX
  5
A95
  8
0
 10
119.6569290161133
 20
0.0019802844617516
 30
-34.10742568969727
 70
   192
  0
VERTEX
  5
A96
  8
0
 10
118.6888122558594
 20
-4.441490173339844
 30
-37.53759765625
 70
   192
  0
VERTEX
  5
A97
  8
0
 10
119.656852722168
 20
0.0019935918971896
 30
10.16999816894531
 70
   192
  0
VERTEX
  5
A98
  8
0
 10
119.5446090698242
 20
9.459105491638184
 30
9.392470359802246
 70
   192
  0
VERTEX
  5
A99
  8
0
 10
119.5447235107422
 20
-21.35914993286133
 30
-21.42581176757812
 70
   192
  0
VERTEX
  5
A9A
  8
0
 10
119.6568984985352
 20
-22.1367244720459
 30
-11.96870803833008
 70
   192
  0
VERTEX
  5
A9B
  8
0
 10
119.5446090698242
 20
-21.35920143127441
 30
-2.511604785919189
 70
   192
  0
VERTEX
  5
A9C
  8
0
 10
118.6890029907227
 20
4.445501327514648
 30
-37.55735015869141
 70
   192
  0
VERTEX
  5
A9D
  8
0
 10
118.6779251098633
 20
-13.25405693054199
 30
-36.3911018371582
 70
   192
  0
VERTEX
  5
A9E
  8
0
 10
119.5447006225586
 20
-9.455118179321289
 30
9.39242172241211
 70
   192
  0
VERTEX
  5
A9F
  8
0
 10
118.6776428222656
 20
24.42474365234375
 30
1.286433935165405
 70
   192
  0
VERTEX
  5
AA0
  8
0
 10
119.5447235107422
 20
21.36312484741211
 30
-2.511621236801147
 70
   192
  0
VERTEX
  5
AA1
  8
0
 10
118.6774978637695
 20
13.25711536407471
 30
-36.39148330688477
 70
   192
  0
VERTEX
  5
AA2
  8
0
 10
119.5446853637695
 20
9.459083557128906
 30
-33.32985687255859
 70
   192
  0
VERTEX
  5
AA3
  8
0
 10
118.6309127807617
 20
22.08198738098145
 30
-33.79662322998047
 70
   192
  0
VERTEX
  5
AA4
  8
0
 10
119.5446014404297
 20
21.36317443847656
 30
-21.42582893371582
 70
   192
  0
VERTEX
  5
AA5
  8
0
 10
118.6887054443359
 20
25.57087707519531
 30
-16.41217613220215
 70
   192
  0
VERTEX
  5
AA6
  8
0
 10
118.6778259277344
 20
24.42437934875488
 30
-25.22474479675293
 70
   192
  0
VERTEX
  5
AA7
  8
0
 10
119.6568984985352
 20
22.14069747924805
 30
-11.96872520446777
 70
   192
  0
VERTEX
  5
AA8
  8
0
 10
118.6890182495117
 20
25.59062004089355
 30
-7.525181770324707
 70
   192
  0
VERTEX
  5
AA9
  8
0
 10
119.3303298950195
 20
-4.272964477539062
 30
-33.51272583007812
 70
   192
  0
VERTEX
  5
AAA
  8
0
 10
119.3407897949219
 20
4.282020092010498
 30
-33.58237075805664
 70
   192
  0
VERTEX
  5
AAB
  8
0
 10
119.3302230834961
 20
21.54556274414062
 30
-16.24836730957031
 70
   192
  0
VERTEX
  5
AAC
  8
0
 10
119.3407745361328
 20
21.61555290222168
 30
-7.687480926513672
 70
   192
  0
VERTEX
  5
AAD
  8
0
 10
119.3302230834961
 20
4.280441761016846
 30
9.575039863586426
 70
   192
  0
VERTEX
  5
AAE
  8
0
 10
119.3407821655273
 20
-4.274537563323975
 30
9.645200729370117
 70
   192
  0
VERTEX
  5
AAF
  8
0
 10
119.3303146362305
 20
-21.54221153259277
 30
-7.694962978363037
 70
   192
  0
VERTEX
  5
AB0
  8
0
 10
119.3408432006836
 20
-21.61201667785645
 30
-16.24403381347656
 70
   192
  0
VERTEX
  5
AB1
  8
0
 10
105.8495254516602
 20
22.2935791015625
 30
10.13627624511719
 70
   192
  0
VERTEX
  5
AB2
  8
0
 10
111.9817886352539
 20
22.2935791015625
 30
10.13627624511719
 70
   192
  0
VERTEX
  5
AB3
  8
0
 10
115.9237289428711
 20
6.411443710327148
 30
-33.38565826416016
 70
   192
  0
VERTEX
  5
AB4
  8
0
 10
115.9236679077148
 20
0.002915526740253
 30
-33.74064636230469
 70
   192
  0
VERTEX
  5
AB5
  8
0
 10
115.923583984375
 20
-6.405622482299805
 30
-33.38590240478516
 70
   192
  0
VERTEX
  5
AB6
  8
0
 10
115.923583984375
 20
21.41848754882812
 30
-18.38249206542969
 70
   192
  0
VERTEX
  5
AB7
  8
0
 10
115.9237289428711
 20
21.41863250732422
 30
-5.556585788726807
 70
   192
  0
VERTEX
  5
AB8
  8
0
 10
115.9236679077148
 20
21.77391815185547
 30
-11.96954441070557
 70
   192
  0
VERTEX
  5
AB9
  8
0
 10
115.923583984375
 20
6.413090229034424
 30
9.448081970214844
 70
   192
  0
VERTEX
  5
ABA
  8
0
 10
115.9237289428711
 20
-6.403972625732422
 30
9.448616027832031
 70
   192
  0
VERTEX
  5
ABB
  8
0
 10
115.9236679077148
 20
0.0045754350721836
 30
9.803216934204102
 70
   192
  0
VERTEX
  5
ABC
  8
0
 10
115.923583984375
 20
-21.41549682617188
 30
-5.563783168792725
 70
   192
  0
VERTEX
  5
ABD
  8
0
 10
115.9237289428711
 20
-21.41564178466797
 30
-18.37199783325195
 70
   192
  0
VERTEX
  5
ABE
  8
0
 10
115.9236679077148
 20
-21.76994514465332
 30
-11.96788501739502
 70
   192
  0
VERTEX
  5
ABF
  8
0
 10
90.21892547607422
 20
22.10697746276855
 30
-34.26030731201172
 70
   192
  0
VERTEX
  5
AC0
  8
0
 10
84.4490737915039
 20
22.00894927978516
 30
-34.29380035400391
 70
   192
  0
VERTEX
  5
AC1
  8
0
 10
95.79794311523438
 20
22.10697746276855
 30
-34.26030731201172
 70
   192
  0
VERTEX
  5
AC2
  8
0
 10
101.3769607543945
 20
22.10697746276855
 30
-34.26030731201172
 70
   192
  0
VERTEX
  5
AC3
  8
0
 10
112.5349884033203
 20
22.10697746276855
 30
-34.26030731201172
 70
   192
  0
VERTEX
  5
AC4
  8
0
 10
106.9559783935547
 20
22.10697746276855
 30
-34.26030731201172
 70
   192
  0
VERTEX
  5
AC5
  8
0
 10
84.42373657226562
 20
7.418336868286133
 30
-37.51406097412109
 70
   192
  0
VERTEX
  5
AC6
  8
0
 10
84.42355346679688
 20
-7.418314456939697
 30
-37.51410675048828
 70
   192
  0
VERTEX
  5
AC7
  8
0
 10
84.42350006103516
 20
24.84850311279297
 30
-24.23553276062012
 70
   192
  0
VERTEX
  5
AC8
  8
0
 62
     9
 10
0.0
 20
0.0
 30
0.0
 70
   128
 71
     3
 72
     2
 73
     1
  0
VERTEX
  5
AC9
  8
0
 62
     9
 10
0.0
 20
0.0
 30
0.0
 70
   128
 71
     6
 72
     5
 73
     4
  0
VERTEX
  5
ACA
  8
0
 62
     9
 10
0.0
 20
0.0
 30
0.0
 70
   128
 71
     8
 72
     1
 73
     7
  0
VERTEX
  5
ACB
  8
0
 62
     9
 10
0.0
 20
0.0
 30
0.0
 70
   128
 71
     6
 72
     4
 73
     9
  0
VERTEX
  5
ACC
  8
0
 62
     9
 10
0.0
 20
0.0
 30
0.0
 70
   128
 71
     4
 72
     5
 73
     8
  0
VERTEX
  5
ACD
  8
0
 62
     9
 10
0.0
 20
0.0
 30
0.0
 70
   128
 71
     3
 72
     1
 73
     8
  0
VERTEX
  5
ACE
  8
0
 62
     9
 10
0.0
 20
0.0
 30
0.0
 70
   128
 71
     3
 72
     8
 73
     5
  0
VERTEX
  5
ACF
  8
0
 62
     9
 10
0.0
 20
0.0
 30
0.0
 70
   128
 71
    10
 72
     5
 73
     6
  0
VERTEX
  5
AD0
  8
0
 62
     9
 10
0.0
 20
0.0
 30
0.0
 70
   128
 71
    12
 72
    11
 73
     6
  0
VERTEX
  5
AD1
  8
0
 62
     9
 10
0.0
 20
0.0
 30
0.0
 70
   128
 71
     5
 72
    10
 73
     3
  0
VERTEX
  5
AD2
  8
0
 62
     9
 10
0.0
 20
0.0
 30
0.0
 70
   128
 71
    14
 72
     6
 73
    13
  0
VERTEX
  5
AD3
  8
0
 62
     9
 10
0.0
 20
0.0
 30
0.0
 70
   128
 71
     6
 72
    15
 73
    10
  0
VERTEX
  5
AD4
  8
0
 62
     9
 10
0.0
 20
0.0
 30
0.0
 70
   128
 71
     6
 72
    14
 73
    12
  0
VERTEX
  5
AD5
  8
0
 62
     9
 10
0.0
 20
0.0
 30
0.0
 70
   128
 71
    12
 72
    16
 73
    11
  0
VERTEX
  5
AD6
  8
0
 62
     9
 10
0.0
 20
0.0
 30
0.0
 70
   128
 71
    17
 72
    14
 73
    13
  0
VERTEX
  5
AD7
  8
0
 62
     9
 10
0.0
 20
0.0
 30
0.0
 70
   128
 71
    18
 72
     6
 73
    11
  0
VERTEX
  5
AD8
  8
0
 62
     9
 10
0.0
 20
0.0
 30
0.0
 70
   128
 71
    15
 72
    18
 73
    19
  0
VERTEX
  5
AD9
  8
0
 62
     9
 10
0.0
 20
0.0
 30
0.0
 70
   128
 71
    15
 72
     6
 73
    18
  0
VERTEX
  5
ADA
  8
0
 62
     9
 10
0.0
 20
0.0
 30
0.0
 70
   128
 71
    21
 72
    20
 73
    19
  0
VERTEX
  5
ADB
  8
0
 62
     9
 10
0.0
 20
0.0
 30
0.0
 70
   128
 71
    23
 72
    16
 73
    22
  0
VERTEX
  5
ADC
  8
0
 62
     9
 10
0.0
 20
0.0
 30
0.0
 70
   128
 71
    23
 72
    22
 73
    24
  0
VERTEX
  5
ADD
  8
0
 62
     9
 10
0.0
 20
0.0
 30
0.0
 70
   128
 71
    22
 72
    16
 73
    25
  0
VERTEX
  5
ADE
  8
0
 62
     9
 10
0.0
 20
0.0
 30
0.0
 70
   128
 71
    11
 72
    23
 73
    26
  0
VERTEX
  5
ADF
  8
0
 62
     9
 10
0.0
 20
0.0
 30
0.0
 70
   128
 71
    18
 72
    28
 73
    27
  0
VERTEX
  5
AE0
  8
0
 62
     9
 10
0.0
 20
0.0
 30
0.0
 70
   128
 71
    16
 72
    23
 73
    11
  0
VERTEX
  5
AE1
  8
0
 62
     9
 10
0.0
 20
0.0
 30
0.0
 70
   128
 71
    11
 72
    28
 73
    18
  0
VERTEX
  5
AE2
  8
0
 62
     9
 10
0.0
 20
0.0
 30
0.0
 70
   128
 71
    26
 72
    28
 73
    11
  0
VERTEX
  5
AE3
  8
0
 62
     9
 10
0.0
 20
0.0
 30
0.0
 70
   128
 71
    29
 72
    18
 73
    27
  0
VERTEX
  5
AE4
  8
0
 62
     9
 10
0.0
 20
0.0
 30
0.0
 70
   128
 71
    30
 72
    21
 73
    29
  0
VERTEX
  5
AE5
  8
0
 62
     9
 10
0.0
 20
0.0
 30
0.0
 70
   128
 71
    19
 72
    18
 73
    29
  0
VERTEX
  5
AE6
  8
0
 62
     9
 10
0.0
 20
0.0
 30
0.0
 70
   128
 71
    21
 72
    19
 73
    29
  0
VERTEX
  5
AE7
  8
0
 62
     9
 10
0.0
 20
0.0
 30
0.0
 70
   128
 71
    31
 72
    25
 73
    16
  0
VERTEX
  5
AE8
  8
0
 62
     9
 10
0.0
 20
0.0
 30
0.0
 70
   128
 71
    33
 72
    17
 73
    32
  0
VERTEX
  5
AE9
  8
0
 62
     9
 10
0.0
 20
0.0
 30
0.0
 70
   128
 71
    33
 72
    32
 73
    34
  0
VERTEX
  5
AEA
  8
0
 62
     9
 10
0.0
 20
0.0
 30
0.0
 70
   128
 71
    32
 72
    17
 73
    35
  0
VERTEX
  5
AEB
  8
0
 62
     9
 10
0.0
 20
0.0
 30
0.0
 70
   128
 71
    14
 72
    33
 73
    36
  0
VERTEX
  5
AEC
  8
0
 62
     9
 10
0.0
 20
0.0
 30
0.0
 70
   128
 71
    12
 72
    38
 73
    37
  0
VERTEX
  5
AED
  8
0
 62
     9
 10
0.0
 20
0.0
 30
0.0
 70
   128
 71
    17
 72
    33
 73
    14
  0
VERTEX
  5
AEE
  8
0
 62
     9
 10
0.0
 20
0.0
 30
0.0
 70
   128
 71
    14
 72
    38
 73
    12
  0
VERTEX
  5
AEF
  8
0
 62
     9
 10
0.0
 20
0.0
 30
0.0
 70
   128
 71
    36
 72
    38
 73
    14
  0
VERTEX
  5
AF0
  8
0
 62
     9
 10
0.0
 20
0.0
 30
0.0
 70
   128
 71
    39
 72
    12
 73
    37
  0
VERTEX
  5
AF1
  8
0
 62
     9
 10
0.0
 20
0.0
 30
0.0
 70
   128
 71
    40
 72
    31
 73
    39
  0
VERTEX
  5
AF2
  8
0
 62
     9
 10
0.0
 20
0.0
 30
0.0
 70
   128
 71
    16
 72
    12
 73
    39
  0
VERTEX
  5
AF3
  8
0
 62
     9
 10
0.0
 20
0.0
 30
0.0
 70
   128
 71
    31
 72
    16
 73
    39
  0
VERTEX
  5
AF4
  8
0
 62
     9
 10
0.0
 20
0.0
 30
0.0
 70
   128
 71
     9
 72
    41
 73
     6
  0
VERTEX
  5
AF5
  8
0
 62
     9
 10
0.0
 20
0.0
 30
0.0
 70
   128
 71
    13
 72
    42
 73
    17
  0
VERTEX
  5
AF6
  8
0
 62
     9
 10
0.0
 20
0.0
 30
0.0
 70
   128
 71
    44
 72
    43
 73
    42
  0
VERTEX
  5
AF7
  8
0
 62
     9
 10
0.0
 20
0.0
 30
0.0
 70
   128
 71
    41
 72
    42
 73
    13
  0
VERTEX
  5
AF8
  8
0
 62
     9
 10
0.0
 20
0.0
 30
0.0
 70
   128
 71
    17
 72
    43
 73
    35
  0
VERTEX
  5
AF9
  8
0
 62
     9
 10
0.0
 20
0.0
 30
0.0
 70
   128
 71
    17
 72
    42
 73
    43
  0
VERTEX
  5
AFA
  8
0
 62
     9
 10
0.0
 20
0.0
 30
0.0
 70
   128
 71
    41
 72
    13
 73
     6
  0
VERTEX
  5
AFB
  8
0
 62
     9
 10
0.0
 20
0.0
 30
0.0
 70
   128
 71
    45
 72
     2
 73
     3
  0
VERTEX
  5
AFC
  8
0
 62
     9
 10
0.0
 20
0.0
 30
0.0
 70
   128
 71
    47
 72
    19
 73
    46
  0
VERTEX
  5
AFD
  8
0
 62
     9
 10
0.0
 20
0.0
 30
0.0
 70
   128
 71
    47
 72
    46
 73
    48
  0
VERTEX
  5
AFE
  8
0
 62
     9
 10
0.0
 20
0.0
 30
0.0
 70
   128
 71
    46
 72
    19
 73
    20
  0
VERTEX
  5
AFF
  8
0
 62
     9
 10
0.0
 20
0.0
 30
0.0
 70
   128
 71
    15
 72
    47
 73
    49
  0
VERTEX
  5
B00
  8
0
 62
     9
 10
0.0
 20
0.0
 30
0.0
 70
   128
 71
    10
 72
    51
 73
    50
  0
VERTEX
  5
B01
  8
0
 62
     9
 10
0.0
 20
0.0
 30
0.0
 70
   128
 71
    19
 72
    47
 73
    15
  0
VERTEX
  5
B02
  8
0
 62
     9
 10
0.0
 20
0.0
 30
0.0
 70
   128
 71
    15
 72
    51
 73
    10
  0
VERTEX
  5
B03
  8
0
 62
     9
 10
0.0
 20
0.0
 30
0.0
 70
   128
 71
    49
 72
    51
 73
    15
  0
VERTEX
  5
B04
  8
0
 62
     9
 10
0.0
 20
0.0
 30
0.0
 70
   128
 71
    52
 72
    10
 73
    50
  0
VERTEX
  5
B05
  8
0
 62
     9
 10
0.0
 20
0.0
 30
0.0
 70
   128
 71
    53
 72
    45
 73
    52
  0
VERTEX
  5
B06
  8
0
 62
     9
 10
0.0
 20
0.0
 30
0.0
 70
   128
 71
     3
 72
    10
 73
    52
  0
VERTEX
  5
B07
  8
0
 62
     9
 10
0.0
 20
0.0
 30
0.0
 70
   128
 71
    45
 72
     3
 73
    52
  0
VERTEX
  5
B08
  8
0
 62
     9
 10
0.0
 20
0.0
 30
0.0
 70
   128
 71
    56
 72
    55
 73
    54
  0
VERTEX
  5
B09
  8
0
 62
     9
 10
0.0
 20
0.0
 30
0.0
 70
   128
 71
    59
 72
    58
 73
    57
  0
VERTEX
  5
B0A
  8
0
 62
     9
 10
0.0
 20
0.0
 30
0.0
 70
   128
 71
    59
 72
    55
 73
    58
  0
VERTEX
  5
B0B
  8
0
 62
     9
 10
0.0
 20
0.0
 30
0.0
 70
   128
 71
    55
 72
    59
 73
    54
  0
VERTEX
  5
B0C
  8
0
 62
     9
 10
0.0
 20
0.0
 30
0.0
 70
   128
 71
    56
 72
    61
 73
    60
  0
VERTEX
  5
B0D
  8
0
 62
     9
 10
0.0
 20
0.0
 30
0.0
 70
   128
 71
    60
 72
    63
 73
    62
  0
VERTEX
  5
B0E
  8
0
 62
     9
 10
0.0
 20
0.0
 30
0.0
 70
   128
 71
    56
 72
    54
 73
    61
  0
VERTEX
  5
B0F
  8
0
 62
     9
 10
0.0
 20
0.0
 30
0.0
 70
   128
 71
    63
 72
    60
 73
    61
  0
VERTEX
  5
B10
  8
0
 62
     9
 10
0.0
 20
0.0
 30
0.0
 70
   128
 71
    65
 72
    63
 73
    64
  0
VERTEX
  5
B11
  8
0
 62
     9
 10
0.0
 20
0.0
 30
0.0
 70
   128
 71
    67
 72
    64
 73
    66
  0
VERTEX
  5
B12
  8
0
 62
     9
 10
0.0
 20
0.0
 30
0.0
 70
   128
 71
    65
 72
    62
 73
    63
  0
VERTEX
  5
B13
  8
0
 62
     9
 10
0.0
 20
0.0
 30
0.0
 70
   128
 71
    64
 72
    67
 73
    65
  0
VERTEX
  5
B14
  8
0
 62
     9
 10
0.0
 20
0.0
 30
0.0
 70
   128
 71
    69
 72
    68
 73
    58
  0
VERTEX
  5
B15
  8
0
 62
     9
 10
0.0
 20
0.0
 30
0.0
 70
   128
 71
    66
 72
    69
 73
    67
  0
VERTEX
  5
B16
  8
0
 62
     9
 10
0.0
 20
0.0
 30
0.0
 70
   128
 71
    66
 72
    68
 73
    69
  0
VERTEX
  5
B17
  8
0
 62
     9
 10
0.0
 20
0.0
 30
0.0
 70
   128
 71
    68
 72
    57
 73
    58
  0
VERTEX
  5
B18
  8
0
 62
     9
 10
0.0
 20
0.0
 30
0.0
 70
   128
 71
    68
 72
    66
 73
    64
  0
VERTEX
  5
B19
  8
0
 62
     9
 10
0.0
 20
0.0
 30
0.0
 70
   128
 71
    61
 72
    54
 73
    59
  0
VERTEX
  5
B1A
  8
0
 62
     9
 10
0.0
 20
0.0
 30
0.0
 70
   128
 71
    64
 72
    61
 73
    59
  0
VERTEX
  5
B1B
  8
0
 62
     9
 10
0.0
 20
0.0
 30
0.0
 70
   128
 71
    59
 72
    68
 73
    64
  0
VERTEX
  5
B1C
  8
0
 62
     9
 10
0.0
 20
0.0
 30
0.0
 70
   128
 71
    63
 72
    61
 73
    64
  0
VERTEX
  5
B1D
  8
0
 62
     9
 10
0.0
 20
0.0
 30
0.0
 70
   128
 71
    59
 72
    57
 73
    68
  0
VERTEX
  5
B1E
  8
0
 62
     9
 10
0.0
 20
0.0
 30
0.0
 70
   128
 71
    72
 72
    71
 73
    70
  0
VERTEX
  5
B1F
  8
0
 62
     9
 10
0.0
 20
0.0
 30
0.0
 70
   128
 71
    75
 72
    74
 73
    73
  0
VERTEX
  5
B20
  8
0
 62
     9
 10
0.0
 20
0.0
 30
0.0
 70
   128
 71
    72
 72
    70
 73
    76
  0
VERTEX
  5
B21
  8
0
 62
     9
 10
0.0
 20
0.0
 30
0.0
 70
   128
 71
    78
 72
    73
 73
    77
  0
VERTEX
  5
B22
  8
0
 62
     9
 10
0.0
 20
0.0
 30
0.0
 70
   128
 71
    79
 72
    76
 73
    70
  0
VERTEX
  5
B23
  8
0
 62
     9
 10
0.0
 20
0.0
 30
0.0
 70
   128
 71
    79
 72
    80
 73
    76
  0
VERTEX
  5
B24
  8
0
 62
     9
 10
0.0
 20
0.0
 30
0.0
 70
   128
 71
    78
 72
    75
 73
    73
  0
VERTEX
  5
B25
  8
0
 62
     9
 10
0.0
 20
0.0
 30
0.0
 70
   128
 71
    82
 72
    81
 73
    79
  0
VERTEX
  5
B26
  8
0
 62
     9
 10
0.0
 20
0.0
 30
0.0
 70
   128
 71
    84
 72
    83
 73
    77
  0
VERTEX
  5
B27
  8
0
 62
     9
 10
0.0
 20
0.0
 30
0.0
 70
   128
 71
    77
 72
    73
 73
    84
  0
VERTEX
  5
B28
  8
0
 62
     9
 10
0.0
 20
0.0
 30
0.0
 70
   128
 71
    84
 72
    85
 73
    83
  0
VERTEX
  5
B29
  8
0
 62
     9
 10
0.0
 20
0.0
 30
0.0
 70
   128
 71
    75
 72
    86
 73
    74
  0
VERTEX
  5
B2A
  8
0
 62
     9
 10
0.0
 20
0.0
 30
0.0
 70
   128
 71
    86
 72
    81
 73
    82
  0
VERTEX
  5
B2B
  8
0
 62
     9
 10
0.0
 20
0.0
 30
0.0
 70
   128
 71
    82
 72
    74
 73
    86
  0
VERTEX
  5
B2C
  8
0
 62
     9
 10
0.0
 20
0.0
 30
0.0
 70
   128
 71
    79
 72
    81
 73
    87
  0
VERTEX
  5
B2D
  8
0
 62
     9
 10
0.0
 20
0.0
 30
0.0
 70
   128
 71
    87
 72
    80
 73
    79
  0
VERTEX
  5
B2E
  8
0
 62
   252
 10
0.0
 20
0.0
 30
0.0
 70
   128
 71
    90
 72
    89
 73
    88
  0
VERTEX
  5
B2F
  8
0
 62
   252
 10
0.0
 20
0.0
 30
0.0
 70
   128
 71
    77
 72
    90
 73
    78
  0
VERTEX
  5
B30
  8
0
 62
   252
 10
0.0
 20
0.0
 30
0.0
 70
   128
 71
    88
 72
    78
 73
    90
  0
VERTEX
  5
B31
  8
0
 62
   252
 10
0.0
 20
0.0
 30
0.0
 70
   128
 71
    93
 72
    92
 73
    91
  0
VERTEX
  5
B32
  8
0
 62
   252
 10
0.0
 20
0.0
 30
0.0
 70
   128
 71
    94
 72
    91
 73
    92
  0
VERTEX
  5
B33
  8
0
 62
   252
 10
0.0
 20
0.0
 30
0.0
 70
   128
 71
    91
 72
    96
 73
    95
  0
VERTEX
  5
B34
  8
0
 62
   252
 10
0.0
 20
0.0
 30
0.0
 70
   128
 71
    91
 72
    94
 73
    96
  0
VERTEX
  5
B35
  8
0
 62
   252
 10
0.0
 20
0.0
 30
0.0
 70
   128
 71
    99
 72
    98
 73
    97
  0
VERTEX
  5
B36
  8
0
 62
   252
 10
0.0
 20
0.0
 30
0.0
 70
   128
 71
    98
 72
    99
 73
    95
  0
VERTEX
  5
B37
  8
0
 62
   252
 10
0.0
 20
0.0
 30
0.0
 70
   128
 71
    91
 72
   100
 73
    93
  0
VERTEX
  5
B38
  8
0
 62
   252
 10
0.0
 20
0.0
 30
0.0
 70
   128
 71
    91
 72
    95
 73
    99
  0
VERTEX
  5
B39
  8
0
 62
   252
 10
0.0
 20
0.0
 30
0.0
 70
   128
 71
   101
 72
    83
 73
   100
  0
VERTEX
  5
B3A
  8
0
 62
   252
 10
0.0
 20
0.0
 30
0.0
 70
   128
 71
    93
 72
   100
 73
    83
  0
VERTEX
  5
B3B
  8
0
 62
   252
 10
0.0
 20
0.0
 30
0.0
 70
   128
 71
   101
 72
    90
 73
    77
  0
VERTEX
  5
B3C
  8
0
 62
   252
 10
0.0
 20
0.0
 30
0.0
 70
   128
 71
    77
 72
    83
 73
   101
  0
VERTEX
  5
B3D
  8
0
 62
   252
 10
0.0
 20
0.0
 30
0.0
 70
   128
 71
   102
 72
    89
 73
    90
  0
VERTEX
  5
B3E
  8
0
 62
   252
 10
0.0
 20
0.0
 30
0.0
 70
   128
 71
    88
 72
   103
 73
    75
  0
VERTEX
  5
B3F
  8
0
 62
   252
 10
0.0
 20
0.0
 30
0.0
 70
   128
 71
    89
 72
   103
 73
    88
  0
VERTEX
  5
B40
  8
0
 62
   252
 10
0.0
 20
0.0
 30
0.0
 70
   128
 71
    88
 72
    75
 73
    78
  0
VERTEX
  5
B41
  8
0
 62
   252
 10
0.0
 20
0.0
 30
0.0
 70
   128
 71
   104
 72
   103
 73
    89
  0
VERTEX
  5
B42
  8
0
 62
   252
 10
0.0
 20
0.0
 30
0.0
 70
   128
 71
   102
 72
   104
 73
    89
  0
VERTEX
  5
B43
  8
0
 62
   252
 10
0.0
 20
0.0
 30
0.0
 70
   128
 71
   107
 72
   106
 73
   105
  0
VERTEX
  5
B44
  8
0
 62
   252
 10
0.0
 20
0.0
 30
0.0
 70
   128
 71
    81
 72
   107
 73
    87
  0
VERTEX
  5
B45
  8
0
 62
   252
 10
0.0
 20
0.0
 30
0.0
 70
   128
 71
   105
 72
    87
 73
   107
  0
VERTEX
  5
B46
  8
0
 62
   252
 10
0.0
 20
0.0
 30
0.0
 70
   128
 71
   103
 72
   108
 73
    75
  0
VERTEX
  5
B47
  8
0
 62
   252
 10
0.0
 20
0.0
 30
0.0
 70
   128
 71
    86
 72
    75
 73
   108
  0
VERTEX
  5
B48
  8
0
 62
   252
 10
0.0
 20
0.0
 30
0.0
 70
   128
 71
   108
 72
   104
 73
   102
  0
VERTEX
  5
B49
  8
0
 62
   252
 10
0.0
 20
0.0
 30
0.0
 70
   128
 71
   104
 72
   108
 73
   103
  0
VERTEX
  5
B4A
  8
0
 62
   252
 10
0.0
 20
0.0
 30
0.0
 70
   128
 71
   109
 72
    81
 73
    86
  0
VERTEX
  5
B4B
  8
0
 62
   252
 10
0.0
 20
0.0
 30
0.0
 70
   128
 71
   108
 72
   109
 73
    86
  0
VERTEX
  5
B4C
  8
0
 62
   252
 10
0.0
 20
0.0
 30
0.0
 70
   128
 71
   110
 72
   107
 73
    81
  0
VERTEX
  5
B4D
  8
0
 62
   252
 10
0.0
 20
0.0
 30
0.0
 70
   128
 71
   110
 72
    81
 73
   109
  0
VERTEX
  5
B4E
  8
0
 62
   252
 10
0.0
 20
0.0
 30
0.0
 70
   128
 71
   111
 72
   106
 73
   107
  0
VERTEX
  5
B4F
  8
0
 62
   252
 10
0.0
 20
0.0
 30
0.0
 70
   128
 71
   114
 72
   113
 73
   112
  0
VERTEX
  5
B50
  8
0
 62
   252
 10
0.0
 20
0.0
 30
0.0
 70
   128
 71
   116
 72
   110
 73
   115
  0
VERTEX
  5
B51
  8
0
 62
   252
 10
0.0
 20
0.0
 30
0.0
 70
   128
 71
   118
 72
   100
 73
   117
  0
VERTEX
  5
B52
  8
0
 62
   252
 10
0.0
 20
0.0
 30
0.0
 70
   128
 71
   107
 72
   110
 73
   116
  0
VERTEX
  5
B53
  8
0
 62
   252
 10
0.0
 20
0.0
 30
0.0
 70
   128
 71
   116
 72
     1
 73
   107
  0
VERTEX
  5
B54
  8
0
 62
   252
 10
0.0
 20
0.0
 30
0.0
 70
   128
 71
   101
 72
   118
 73
   119
  0
VERTEX
  5
B55
  8
0
 62
   252
 10
0.0
 20
0.0
 30
0.0
 70
   128
 71
   118
 72
   101
 73
   100
  0
VERTEX
  5
B56
  8
0
 62
   252
 10
0.0
 20
0.0
 30
0.0
 70
   128
 71
   119
 72
    32
 73
    90
  0
VERTEX
  5
B57
  8
0
 62
   252
 10
0.0
 20
0.0
 30
0.0
 70
   128
 71
   101
 72
   119
 73
    90
  0
VERTEX
  5
B58
  8
0
 62
   252
 10
0.0
 20
0.0
 30
0.0
 70
   128
 71
   114
 72
   120
 73
   113
  0
VERTEX
  5
B59
  8
0
 62
   252
 10
0.0
 20
0.0
 30
0.0
 70
   128
 71
   121
 72
   114
 73
   112
  0
VERTEX
  5
B5A
  8
0
 62
   252
 10
0.0
 20
0.0
 30
0.0
 70
   128
 71
   122
 72
   115
 73
   109
  0
VERTEX
  5
B5B
  8
0
 62
   252
 10
0.0
 20
0.0
 30
0.0
 70
   128
 71
    45
 72
   124
 73
   123
  0
VERTEX
  5
B5C
  8
0
 62
   252
 10
0.0
 20
0.0
 30
0.0
 70
   128
 71
    22
 72
    99
 73
   121
  0
VERTEX
  5
B5D
  8
0
 62
   252
 10
0.0
 20
0.0
 30
0.0
 70
   128
 71
   126
 72
   125
 73
    21
  0
VERTEX
  5
B5E
  8
0
 62
   252
 10
0.0
 20
0.0
 30
0.0
 70
   128
 71
   120
 72
   126
 73
   113
  0
VERTEX
  5
B5F
  8
0
 62
   252
 10
0.0
 20
0.0
 30
0.0
 70
   128
 71
    21
 72
   125
 73
   127
  0
VERTEX
  5
B60
  8
0
 62
   252
 10
0.0
 20
0.0
 30
0.0
 70
   128
 71
   125
 72
   126
 73
   120
  0
VERTEX
  5
B61
  8
0
 62
   252
 10
0.0
 20
0.0
 30
0.0
 70
   128
 71
    20
 72
   127
 73
    46
  0
VERTEX
  5
B62
  8
0
 62
   252
 10
0.0
 20
0.0
 30
0.0
 70
   128
 71
   130
 72
   129
 73
   128
  0
VERTEX
  5
B63
  8
0
 62
   252
 10
0.0
 20
0.0
 30
0.0
 70
   128
 71
   131
 72
   128
 73
   129
  0
VERTEX
  5
B64
  8
0
 62
   252
 10
0.0
 20
0.0
 30
0.0
 70
   128
 71
   131
 72
   132
 73
   124
  0
VERTEX
  5
B65
  8
0
 62
   252
 10
0.0
 20
0.0
 30
0.0
 70
   128
 71
   131
 72
   129
 73
   132
  0
VERTEX
  5
B66
  8
0
 62
   252
 10
0.0
 20
0.0
 30
0.0
 70
   128
 71
    91
 72
    31
 73
   117
  0
VERTEX
  5
B67
  8
0
 62
   252
 10
0.0
 20
0.0
 30
0.0
 70
   128
 71
   100
 72
    91
 73
   117
  0
VERTEX
  5
B68
  8
0
 62
   252
 10
0.0
 20
0.0
 30
0.0
 70
   128
 71
    22
 72
   121
 73
   112
  0
VERTEX
  5
B69
  8
0
 62
   252
 10
0.0
 20
0.0
 30
0.0
 70
   128
 71
    99
 72
    22
 73
    25
  0
VERTEX
  5
B6A
  8
0
 62
   252
 10
0.0
 20
0.0
 30
0.0
 70
   128
 71
    99
 72
    25
 73
    31
  0
VERTEX
  5
B6B
  8
0
 62
   252
 10
0.0
 20
0.0
 30
0.0
 70
   128
 71
    99
 72
    31
 73
    91
  0
VERTEX
  5
B6C
  8
0
 62
   252
 10
0.0
 20
0.0
 30
0.0
 70
   128
 71
   108
 72
    43
 73
   122
  0
VERTEX
  5
B6D
  8
0
 62
   252
 10
0.0
 20
0.0
 30
0.0
 70
   128
 71
   109
 72
   115
 73
   110
  0
VERTEX
  5
B6E
  8
0
 62
   252
 10
0.0
 20
0.0
 30
0.0
 70
   128
 71
   109
 72
   108
 73
   122
  0
VERTEX
  5
B6F
  8
0
 62
   252
 10
0.0
 20
0.0
 30
0.0
 70
   128
 71
    90
 72
    32
 73
   102
  0
VERTEX
  5
B70
  8
0
 62
   252
 10
0.0
 20
0.0
 30
0.0
 70
   128
 71
    32
 72
    35
 73
   102
  0
VERTEX
  5
B71
  8
0
 62
   252
 10
0.0
 20
0.0
 30
0.0
 70
   128
 71
   102
 72
    43
 73
   108
  0
VERTEX
  5
B72
  8
0
 62
   252
 10
0.0
 20
0.0
 30
0.0
 70
   128
 71
    35
 72
    43
 73
   102
  0
VERTEX
  5
B73
  8
0
 62
   252
 10
0.0
 20
0.0
 30
0.0
 70
   128
 71
   132
 72
   123
 73
   124
  0
VERTEX
  5
B74
  8
0
 62
   252
 10
0.0
 20
0.0
 30
0.0
 70
   128
 71
   107
 72
     1
 73
   111
  0
VERTEX
  5
B75
  8
0
 62
   252
 10
0.0
 20
0.0
 30
0.0
 70
   128
 71
     1
 72
     2
 73
   111
  0
VERTEX
  5
B76
  8
0
 62
   252
 10
0.0
 20
0.0
 30
0.0
 70
   128
 71
   111
 72
    45
 73
   123
  0
VERTEX
  5
B77
  8
0
 62
   252
 10
0.0
 20
0.0
 30
0.0
 70
   128
 71
     2
 72
    45
 73
   111
  0
VERTEX
  5
B78
  8
0
 62
   252
 10
0.0
 20
0.0
 30
0.0
 70
   128
 71
   127
 72
    20
 73
    21
  0
VERTEX
  5
B79
  8
0
 62
   252
 10
0.0
 20
0.0
 30
0.0
 70
   128
 71
   130
 72
    46
 73
   127
  0
VERTEX
  5
B7A
  8
0
 62
   252
 10
0.0
 20
0.0
 30
0.0
 70
   128
 71
    46
 72
   130
 73
   128
  0
VERTEX
  5
B7B
  8
0
 62
   252
 10
0.0
 20
0.0
 30
0.0
 70
   128
 71
   112
 72
   113
 73
   133
  0
VERTEX
  5
B7C
  8
0
 62
   252
 10
0.0
 20
0.0
 30
0.0
 70
   128
 71
   112
 72
   133
 73
    24
  0
VERTEX
  5
B7D
  8
0
 62
   252
 10
0.0
 20
0.0
 30
0.0
 70
   128
 71
    22
 72
   112
 73
    24
  0
VERTEX
  5
B7E
  8
0
 62
   252
 10
0.0
 20
0.0
 30
0.0
 70
   128
 71
   113
 72
   134
 73
   133
  0
VERTEX
  5
B7F
  8
0
 62
   252
 10
0.0
 20
0.0
 30
0.0
 70
   128
 71
   134
 72
   126
 73
    30
  0
VERTEX
  5
B80
  8
0
 62
   252
 10
0.0
 20
0.0
 30
0.0
 70
   128
 71
   126
 72
   134
 73
   113
  0
VERTEX
  5
B81
  8
0
 62
   252
 10
0.0
 20
0.0
 30
0.0
 70
   128
 71
    21
 72
    30
 73
   126
  0
VERTEX
  5
B82
  8
0
 62
   252
 10
0.0
 20
0.0
 30
0.0
 70
   128
 71
   128
 72
   131
 73
   135
  0
VERTEX
  5
B83
  8
0
 62
   252
 10
0.0
 20
0.0
 30
0.0
 70
   128
 71
   128
 72
   135
 73
    48
  0
VERTEX
  5
B84
  8
0
 62
   252
 10
0.0
 20
0.0
 30
0.0
 70
   128
 71
    46
 72
   128
 73
    48
  0
VERTEX
  5
B85
  8
0
 62
   252
 10
0.0
 20
0.0
 30
0.0
 70
   128
 71
   131
 72
   136
 73
   135
  0
VERTEX
  5
B86
  8
0
 62
   252
 10
0.0
 20
0.0
 30
0.0
 70
   128
 71
   136
 72
   124
 73
    53
  0
VERTEX
  5
B87
  8
0
 62
   252
 10
0.0
 20
0.0
 30
0.0
 70
   128
 71
   124
 72
   136
 73
   131
  0
VERTEX
  5
B88
  8
0
 62
   252
 10
0.0
 20
0.0
 30
0.0
 70
   128
 71
    45
 72
    53
 73
   124
  0
VERTEX
  5
B89
  8
0
 62
   252
 10
0.0
 20
0.0
 30
0.0
 70
   128
 71
   116
 72
   115
 73
   137
  0
VERTEX
  5
B8A
  8
0
 62
   252
 10
0.0
 20
0.0
 30
0.0
 70
   128
 71
   116
 72
   137
 73
     7
  0
VERTEX
  5
B8B
  8
0
 62
   252
 10
0.0
 20
0.0
 30
0.0
 70
   128
 71
     1
 72
   116
 73
     7
  0
VERTEX
  5
B8C
  8
0
 62
   252
 10
0.0
 20
0.0
 30
0.0
 70
   128
 71
   115
 72
   138
 73
   137
  0
VERTEX
  5
B8D
  8
0
 62
   252
 10
0.0
 20
0.0
 30
0.0
 70
   128
 71
   138
 72
   122
 73
    44
  0
VERTEX
  5
B8E
  8
0
 62
   252
 10
0.0
 20
0.0
 30
0.0
 70
   128
 71
   122
 72
   138
 73
   115
  0
VERTEX
  5
B8F
  8
0
 62
   252
 10
0.0
 20
0.0
 30
0.0
 70
   128
 71
    43
 72
    44
 73
   122
  0
VERTEX
  5
B90
  8
0
 62
   252
 10
0.0
 20
0.0
 30
0.0
 70
   128
 71
   119
 72
   118
 73
   139
  0
VERTEX
  5
B91
  8
0
 62
   252
 10
0.0
 20
0.0
 30
0.0
 70
   128
 71
   119
 72
   139
 73
    34
  0
VERTEX
  5
B92
  8
0
 62
   252
 10
0.0
 20
0.0
 30
0.0
 70
   128
 71
    32
 72
   119
 73
    34
  0
VERTEX
  5
B93
  8
0
 62
   252
 10
0.0
 20
0.0
 30
0.0
 70
   128
 71
   118
 72
   140
 73
   139
  0
VERTEX
  5
B94
  8
0
 62
   252
 10
0.0
 20
0.0
 30
0.0
 70
   128
 71
   140
 72
   117
 73
    40
  0
VERTEX
  5
B95
  8
0
 62
   252
 10
0.0
 20
0.0
 30
0.0
 70
   128
 71
   117
 72
   140
 73
   118
  0
VERTEX
  5
B96
  8
0
 62
   252
 10
0.0
 20
0.0
 30
0.0
 70
   128
 71
    31
 72
    40
 73
   117
  0
VERTEX
  5
B97
  8
0
 62
   252
 10
0.0
 20
0.0
 30
0.0
 70
   128
 71
    87
 72
   105
 73
   141
  0
VERTEX
  5
B98
  8
0
 62
   252
 10
0.0
 20
0.0
 30
0.0
 70
   128
 71
   142
 72
   106
 73
   111
  0
VERTEX
  5
B99
  8
0
 62
   252
 10
0.0
 20
0.0
 30
0.0
 70
   128
 71
   105
 72
   142
 73
   141
  0
VERTEX
  5
B9A
  8
0
 62
   252
 10
0.0
 20
0.0
 30
0.0
 70
   128
 71
   142
 72
   105
 73
   106
  0
VERTEX
  5
B9B
  8
0
 62
   252
 10
0.0
 20
0.0
 30
0.0
 70
   128
 71
   141
 72
    80
 73
    87
  0
VERTEX
  5
B9C
  8
0
 62
   252
 10
0.0
 20
0.0
 30
0.0
 70
   128
 71
    29
 72
   143
 73
    30
  0
VERTEX
  5
B9D
  8
0
 62
   252
 10
0.0
 20
0.0
 30
0.0
 70
   128
 71
   143
 72
   144
 73
   134
  0
VERTEX
  5
B9E
  8
0
 62
   252
 10
0.0
 20
0.0
 30
0.0
 70
   128
 71
   134
 72
    30
 73
   143
  0
VERTEX
  5
B9F
  8
0
 62
   252
 10
0.0
 20
0.0
 30
0.0
 70
   128
 71
   144
 72
   145
 73
   133
  0
VERTEX
  5
BA0
  8
0
 62
   252
 10
0.0
 20
0.0
 30
0.0
 70
   128
 71
   133
 72
   134
 73
   144
  0
VERTEX
  5
BA1
  8
0
 62
   252
 10
0.0
 20
0.0
 30
0.0
 70
   128
 71
   145
 72
    24
 73
   133
  0
VERTEX
  5
BA2
  8
0
 62
   252
 10
0.0
 20
0.0
 30
0.0
 70
   128
 71
   145
 72
    23
 73
    24
  0
VERTEX
  5
BA3
  8
0
 62
   252
 10
0.0
 20
0.0
 30
0.0
 70
   128
 71
    48
 72
   135
 73
   146
  0
VERTEX
  5
BA4
  8
0
 62
   252
 10
0.0
 20
0.0
 30
0.0
 70
   128
 71
   147
 72
   136
 73
    53
  0
VERTEX
  5
BA5
  8
0
 62
   252
 10
0.0
 20
0.0
 30
0.0
 70
   128
 71
    52
 72
   147
 73
    53
  0
VERTEX
  5
BA6
  8
0
 62
   252
 10
0.0
 20
0.0
 30
0.0
 70
   128
 71
   147
 72
   148
 73
   136
  0
VERTEX
  5
BA7
  8
0
 62
   252
 10
0.0
 20
0.0
 30
0.0
 70
   128
 71
   148
 72
   135
 73
   136
  0
VERTEX
  5
BA8
  8
0
 62
   252
 10
0.0
 20
0.0
 30
0.0
 70
   128
 71
   146
 72
    47
 73
    48
  0
VERTEX
  5
BA9
  8
0
 62
   252
 10
0.0
 20
0.0
 30
0.0
 70
   128
 71
   148
 72
   146
 73
   135
  0
VERTEX
  5
BAA
  8
0
 62
   252
 10
0.0
 20
0.0
 30
0.0
 70
   128
 71
     7
 72
   137
 73
   149
  0
VERTEX
  5
BAB
  8
0
 62
   252
 10
0.0
 20
0.0
 30
0.0
 70
   128
 71
   150
 72
   138
 73
    44
  0
VERTEX
  5
BAC
  8
0
 62
   252
 10
0.0
 20
0.0
 30
0.0
 70
   128
 71
    42
 72
   150
 73
    44
  0
VERTEX
  5
BAD
  8
0
 62
   252
 10
0.0
 20
0.0
 30
0.0
 70
   128
 71
   151
 72
   138
 73
   150
  0
VERTEX
  5
BAE
  8
0
 62
   252
 10
0.0
 20
0.0
 30
0.0
 70
   128
 71
   137
 72
   138
 73
   151
  0
VERTEX
  5
BAF
  8
0
 62
   252
 10
0.0
 20
0.0
 30
0.0
 70
   128
 71
   151
 72
   149
 73
   137
  0
VERTEX
  5
BB0
  8
0
 62
   252
 10
0.0
 20
0.0
 30
0.0
 70
   128
 71
   149
 72
     8
 73
     7
  0
VERTEX
  5
BB1
  8
0
 62
   252
 10
0.0
 20
0.0
 30
0.0
 70
   128
 71
    34
 72
   139
 73
   152
  0
VERTEX
  5
BB2
  8
0
 62
   252
 10
0.0
 20
0.0
 30
0.0
 70
   128
 71
   153
 72
   140
 73
    40
  0
VERTEX
  5
BB3
  8
0
 62
   252
 10
0.0
 20
0.0
 30
0.0
 70
   128
 71
    39
 72
   153
 73
    40
  0
VERTEX
  5
BB4
  8
0
 62
   252
 10
0.0
 20
0.0
 30
0.0
 70
   128
 71
   154
 72
   140
 73
   153
  0
VERTEX
  5
BB5
  8
0
 62
   252
 10
0.0
 20
0.0
 30
0.0
 70
   128
 71
    34
 72
   152
 73
    33
  0
VERTEX
  5
BB6
  8
0
 62
   252
 10
0.0
 20
0.0
 30
0.0
 70
   128
 71
   154
 72
   152
 73
   139
  0
VERTEX
  5
BB7
  8
0
 62
   252
 10
0.0
 20
0.0
 30
0.0
 70
   128
 71
   154
 72
   139
 73
   140
  0
VERTEX
  5
BB8
  8
0
 62
   252
 10
0.0
 20
0.0
 30
0.0
 70
   128
 71
   156
 72
   155
 73
   125
  0
VERTEX
  5
BB9
  8
0
 62
   252
 10
0.0
 20
0.0
 30
0.0
 70
   128
 71
   121
 72
    99
 73
    97
  0
VERTEX
  5
BBA
  8
0
 62
   252
 10
0.0
 20
0.0
 30
0.0
 70
   128
 71
   157
 72
   125
 73
   155
  0
VERTEX
  5
BBB
  8
0
 62
   252
 10
0.0
 20
0.0
 30
0.0
 70
   128
 71
   158
 72
   127
 73
   125
  0
VERTEX
  5
BBC
  8
0
 62
   252
 10
0.0
 20
0.0
 30
0.0
 70
   128
 71
   127
 72
   160
 73
   159
  0
VERTEX
  5
BBD
  8
0
 62
   252
 10
0.0
 20
0.0
 30
0.0
 70
   128
 71
   158
 72
   160
 73
   127
  0
VERTEX
  5
BBE
  8
0
 62
   252
 10
0.0
 20
0.0
 30
0.0
 70
   128
 71
   125
 72
   161
 73
   156
  0
VERTEX
  5
BBF
  8
0
 62
   252
 10
0.0
 20
0.0
 30
0.0
 70
   128
 71
   158
 72
   125
 73
   157
  0
VERTEX
  5
BC0
  8
0
 62
   252
 10
0.0
 20
0.0
 30
0.0
 70
   128
 71
    55
 72
   114
 73
    58
  0
VERTEX
  5
BC1
  8
0
 62
   252
 10
0.0
 20
0.0
 30
0.0
 70
   128
 71
   161
 72
   125
 73
   120
  0
VERTEX
  5
BC2
  8
0
 62
   252
 10
0.0
 20
0.0
 30
0.0
 70
   128
 71
   114
 72
   121
 73
   162
  0
VERTEX
  5
BC3
  8
0
 62
   252
 10
0.0
 20
0.0
 30
0.0
 70
   128
 71
    65
 72
   162
 73
   161
  0
VERTEX
  5
BC4
  8
0
 62
   252
 10
0.0
 20
0.0
 30
0.0
 70
   128
 71
   121
 72
    92
 73
   162
  0
VERTEX
  5
BC5
  8
0
 62
   252
 10
0.0
 20
0.0
 30
0.0
 70
   128
 71
    98
 72
    95
 73
   121
  0
VERTEX
  5
BC6
  8
0
 62
   252
 10
0.0
 20
0.0
 30
0.0
 70
   128
 71
    98
 72
   121
 73
    97
  0
VERTEX
  5
BC7
  8
0
 62
   252
 10
0.0
 20
0.0
 30
0.0
 70
   128
 71
    92
 72
    95
 73
    96
  0
VERTEX
  5
BC8
  8
0
 62
   252
 10
0.0
 20
0.0
 30
0.0
 70
   128
 71
    95
 72
    92
 73
   121
  0
VERTEX
  5
BC9
  8
0
 62
   252
 10
0.0
 20
0.0
 30
0.0
 70
   128
 71
    96
 72
    94
 73
    92
  0
VERTEX
  5
BCA
  8
0
 62
   252
 10
0.0
 20
0.0
 30
0.0
 70
   128
 71
    55
 72
    56
 73
   120
  0
VERTEX
  5
BCB
  8
0
 62
   252
 10
0.0
 20
0.0
 30
0.0
 70
   128
 71
   120
 72
    60
 73
   161
  0
VERTEX
  5
BCC
  8
0
 62
   252
 10
0.0
 20
0.0
 30
0.0
 70
   128
 71
    56
 72
    60
 73
   120
  0
VERTEX
  5
BCD
  8
0
 62
   252
 10
0.0
 20
0.0
 30
0.0
 70
   128
 71
    62
 72
    65
 73
   161
  0
VERTEX
  5
BCE
  8
0
 62
   252
 10
0.0
 20
0.0
 30
0.0
 70
   128
 71
    60
 72
    62
 73
   161
  0
VERTEX
  5
BCF
  8
0
 62
   252
 10
0.0
 20
0.0
 30
0.0
 70
   128
 71
    65
 72
    67
 73
   162
  0
VERTEX
  5
BD0
  8
0
 62
   252
 10
0.0
 20
0.0
 30
0.0
 70
   128
 71
    69
 72
    58
 73
   114
  0
VERTEX
  5
BD1
  8
0
 62
   252
 10
0.0
 20
0.0
 30
0.0
 70
   128
 71
   162
 72
    69
 73
   114
  0
VERTEX
  5
BD2
  8
0
 62
   252
 10
0.0
 20
0.0
 30
0.0
 70
   128
 71
    67
 72
    69
 73
   162
  0
VERTEX
  5
BD3
  8
0
 62
   252
 10
0.0
 20
0.0
 30
0.0
 70
   128
 71
   114
 72
    55
 73
   120
  0
VERTEX
  5
BD4
  8
0
 62
   252
 10
0.0
 20
0.0
 30
0.0
 70
   128
 71
   142
 72
   111
 73
   141
  0
VERTEX
  5
BD5
  8
0
 62
   252
 10
0.0
 20
0.0
 30
0.0
 70
   128
 71
   127
 72
   159
 73
   130
  0
VERTEX
  5
BD6
  8
0
 62
   252
 10
0.0
 20
0.0
 30
0.0
 70
   128
 71
   111
 72
    80
 73
   141
  0
VERTEX
  5
BD7
  8
0
 62
   252
 10
0.0
 20
0.0
 30
0.0
 70
   128
 71
    76
 72
    80
 73
   123
  0
VERTEX
  5
BD8
  8
0
 62
   252
 10
0.0
 20
0.0
 30
0.0
 70
   128
 71
    80
 72
   111
 73
   123
  0
VERTEX
  5
BD9
  8
0
 62
   252
 10
0.0
 20
0.0
 30
0.0
 70
   128
 71
   132
 72
    72
 73
    76
  0
VERTEX
  5
BDA
  8
0
 62
   252
 10
0.0
 20
0.0
 30
0.0
 70
   128
 71
    76
 72
   123
 73
   132
  0
VERTEX
  5
BDB
  8
0
 62
   252
 10
0.0
 20
0.0
 30
0.0
 70
   128
 71
   130
 72
   163
 73
   129
  0
VERTEX
  5
BDC
  8
0
 62
   252
 10
0.0
 20
0.0
 30
0.0
 70
   128
 71
   129
 72
    72
 73
   132
  0
VERTEX
  5
BDD
  8
0
 62
   252
 10
0.0
 20
0.0
 30
0.0
 70
   128
 71
   160
 72
   130
 73
   159
  0
VERTEX
  5
BDE
  8
0
 62
   252
 10
0.0
 20
0.0
 30
0.0
 70
   128
 71
   156
 72
   158
 73
   157
  0
VERTEX
  5
BDF
  8
0
 62
   252
 10
0.0
 20
0.0
 30
0.0
 70
   128
 71
   130
 72
   160
 73
   158
  0
VERTEX
  5
BE0
  8
0
 62
   252
 10
0.0
 20
0.0
 30
0.0
 70
   128
 71
   158
 72
   156
 73
   130
  0
VERTEX
  5
BE1
  8
0
 62
   252
 10
0.0
 20
0.0
 30
0.0
 70
   128
 71
   157
 72
   155
 73
   156
  0
VERTEX
  5
BE2
  8
0
 62
   252
 10
0.0
 20
0.0
 30
0.0
 70
   128
 71
   130
 72
   156
 73
   163
  0
VERTEX
  5
BE3
  8
0
 62
   252
 10
0.0
 20
0.0
 30
0.0
 70
   128
 71
    72
 72
   129
 73
   163
  0
VERTEX
  5
BE4
  8
0
 62
   252
 10
0.0
 20
0.0
 30
0.0
 70
   128
 71
    26
 72
    23
 73
   145
  0
VERTEX
  5
BE5
  8
0
 62
   252
 10
0.0
 20
0.0
 30
0.0
 70
   128
 71
   143
 72
    29
 73
    27
  0
VERTEX
  5
BE6
  8
0
 62
   252
 10
0.0
 20
0.0
 30
0.0
 70
   128
 71
    28
 72
   145
 73
   144
  0
VERTEX
  5
BE7
  8
0
 62
   252
 10
0.0
 20
0.0
 30
0.0
 70
   128
 71
   143
 72
    27
 73
   144
  0
VERTEX
  5
BE8
  8
0
 62
   252
 10
0.0
 20
0.0
 30
0.0
 70
   128
 71
    28
 72
   144
 73
    27
  0
VERTEX
  5
BE9
  8
0
 62
   252
 10
0.0
 20
0.0
 30
0.0
 70
   128
 71
    26
 72
   145
 73
    28
  0
VERTEX
  5
BEA
  8
0
 62
   252
 10
0.0
 20
0.0
 30
0.0
 70
   128
 71
    49
 72
    47
 73
   146
  0
VERTEX
  5
BEB
  8
0
 62
   252
 10
0.0
 20
0.0
 30
0.0
 70
   128
 71
   147
 72
    50
 73
   148
  0
VERTEX
  5
BEC
  8
0
 62
   252
 10
0.0
 20
0.0
 30
0.0
 70
   128
 71
    50
 72
    51
 73
   148
  0
VERTEX
  5
BED
  8
0
 62
   252
 10
0.0
 20
0.0
 30
0.0
 70
   128
 71
    52
 72
    50
 73
   147
  0
VERTEX
  5
BEE
  8
0
 62
   252
 10
0.0
 20
0.0
 30
0.0
 70
   128
 71
    51
 72
    49
 73
   146
  0
VERTEX
  5
BEF
  8
0
 62
   252
 10
0.0
 20
0.0
 30
0.0
 70
   128
 71
   148
 72
    51
 73
   146
  0
VERTEX
  5
BF0
  8
0
 62
   252
 10
0.0
 20
0.0
 30
0.0
 70
   128
 71
     4
 72
     8
 73
   149
  0
VERTEX
  5
BF1
  8
0
 62
   252
 10
0.0
 20
0.0
 30
0.0
 70
   128
 71
   150
 72
    41
 73
   151
  0
VERTEX
  5
BF2
  8
0
 62
   252
 10
0.0
 20
0.0
 30
0.0
 70
   128
 71
     9
 72
   149
 73
   151
  0
VERTEX
  5
BF3
  8
0
 62
   252
 10
0.0
 20
0.0
 30
0.0
 70
   128
 71
    42
 72
    41
 73
   150
  0
VERTEX
  5
BF4
  8
0
 62
   252
 10
0.0
 20
0.0
 30
0.0
 70
   128
 71
   151
 72
    41
 73
     9
  0
VERTEX
  5
BF5
  8
0
 62
   252
 10
0.0
 20
0.0
 30
0.0
 70
   128
 71
     4
 72
   149
 73
     9
  0
VERTEX
  5
BF6
  8
0
 62
   252
 10
0.0
 20
0.0
 30
0.0
 70
   128
 71
    36
 72
    33
 73
   152
  0
VERTEX
  5
BF7
  8
0
 62
   252
 10
0.0
 20
0.0
 30
0.0
 70
   128
 71
   154
 72
   153
 73
    37
  0
VERTEX
  5
BF8
  8
0
 62
   252
 10
0.0
 20
0.0
 30
0.0
 70
   128
 71
    38
 72
   152
 73
   154
  0
VERTEX
  5
BF9
  8
0
 62
   252
 10
0.0
 20
0.0
 30
0.0
 70
   128
 71
    37
 72
   153
 73
    39
  0
VERTEX
  5
BFA
  8
0
 62
   252
 10
0.0
 20
0.0
 30
0.0
 70
   128
 71
   154
 72
    37
 73
    38
  0
VERTEX
  5
BFB
  8
0
 62
   252
 10
0.0
 20
0.0
 30
0.0
 70
   128
 71
    36
 72
   152
 73
    38
  0
SEQEND
  5
BFC
  8
0
  0
ENDBLK
  5
BFF
  8
0
  0
ENDSEC
  0
SECTION
  2
ENTITIES
  0
INSERT
  5
20E
  8
LAYER_1
  2
38
 10
0.0
 20
0.0
 30
0.0
  0
INSERT
  5
2E2
  8
LAYER_1
  2
39
 10
0.0
 20
0.0
 30
0.0
  0
INSERT
  5
5BD
  8
LAYER_1
  2
40
 10
0.0
 20
0.0
 30
0.0
  0
INSERT
  5
904
  8
LAYER_1
  2
41
 10
0.0
 20
0.0
 30
0.0
  0
INSERT
  5
A20
  8
LAYER_1
  2
42
 10
0.0
 20
0.0
 30
0.0
  0
INSERT
  5
BFD
  8
LAYER_1
  2
43
 10
0.0
 20
0.0
 30
0.0
  0
ENDSEC
  0
EOF
