  0
SECTION
  2
HEADER
  9
$ACADVER
  1
AC1015
  9
$ACADMAINTVER
 70
     6
  9
$DWGCODEPAGE
  3
ANSI_1252
  9
$INSBASE
 10
0.0
 20
0.0
 30
0.0
  9
$EXTMIN
 10
0.0
 20
0.0
 30
0.0
  9
$EXTMAX
 10
3000.0
 20
4500.0
 30
0.0
  9
$LIMMIN
 10
0.0
 20
0.0
  9
$LIMMAX
 10
3000.0
 20
4500.0
  9
$ORTHOMODE
 70
     0
  9
$REGENMODE
 70
     1
  9
$FILLMODE
 70
     1
  9
$QTEXTMODE
 70
     0
  9
$MIRRTEXT
 70
     1
  9
$LTSCALE
 40
1.0
  9
$ATTMODE
 70
     1
  9
$TEXTSIZE
 40
2.5
  9
$TRACEWID
 40
1.0
  9
$TEXTSTYLE
  7
Standard
  9
$CLAYER
  8
0
  9
$CELTYPE
  6
ByLayer
  9
$CECOLOR
 62
   256
  9
$CELTSCALE
 40
1.0
  9
$DISPSILH
 70
     0
  9
$DIMSCALE
 40
1.0
  9
$DIMASZ
 40
2.5
  9
$DIMEXO
 40
0.625
  9
$DIMDLI
 40
3.75
  9
$DIMRND
 40
0.0
  9
$DIMDLE
 40
0.0
  9
$DIMEXE
 40
1.25
  9
$DIMTP
 40
0.0
  9
$DIMTM
 40
0.0
  9
$DIMTXT
 40
2.5
  9
$DIMCEN
 40
2.5
  9
$DIMTSZ
 40
0.0
  9
$DIMTOL
 70
     0
  9
$DIMLIM
 70
     0
  9
$DIMTIH
 70
     0
  9
$DIMTOH
 70
     0
  9
$DIMSE1
 70
     0
  9
$DIMSE2
 70
     0
  9
$DIMTAD
 70
     1
  9
$DIMZIN
 70
     8
  9
$DIMBLK
  1

  9
$DIMASO
 70
     1
  9
$DIMSHO
 70
     1
  9
$DIMPOST
  1

  9
$DIMAPOST
  1

  9
$DIMALT
 70
     0
  9
$DIMALTD
 70
     3
  9
$DIMALTF
 40
0.0393700787
  9
$DIMLFAC
 40
1.0
  9
$DIMTOFL
 70
     1
  9
$DIMTVP
 40
0.0
  9
$DIMTIX
 70
     0
  9
$DIMSOXD
 70
     0
  9
$DIMSAH
 70
     0
  9
$DIMBLK1
  1

  9
$DIMBLK2
  1

  9
$DIMSTYLE
  2
ISO-25
  9
$DIMCLRD
 70
     0
  9
$DIMCLRE
 70
     0
  9
$DIMCLRT
 70
     0
  9
$DIMTFAC
 40
1.0
  9
$DIMGAP
 40
0.625
  9
$DIMJUST
 70
     0
  9
$DIMSD1
 70
     0
  9
$DIMSD2
 70
     0
  9
$DIMTOLJ
 70
     0
  9
$DIMTZIN
 70
     8
  9
$DIMALTZ
 70
     0
  9
$DIMALTTZ
 70
     0
  9
$DIMUPT
 70
     0
  9
$DIMDEC
 70
     2
  9
$DIMTDEC
 70
     2
  9
$DIMALTU
 70
     2
  9
$DIMALTTD
 70
     3
  9
$DIMTXSTY
  7
Standard
  9
$DIMAUNIT
 70
     0
  9
$DIMADEC
 70
     0
  9
$DIMALTRND
 40
0.0
  9
$DIMAZIN
 70
     0
  9
$DIMDSEP
 70
    44
  9
$DIMATFIT
 70
     3
  9
$DIMFRAC
 70
     0
  9
$DIMLDRBLK
  1

  9
$DIMLUNIT
 70
     2
  9
$DIMLWD
 70
    -2
  9
$DIMLWE
 70
    -2
  9
$DIMTMOVE
 70
     0
  9
$LUNITS
 70
     2
  9
$LUPREC
 70
     4
  9
$SKETCHINC
 40
1.0
  9
$FILLETRAD
 40
10.0
  9
$AUNITS
 70
     0
  9
$AUPREC
 70
     0
  9
$MENU
  1
.
  9
$ELEVATION
 40
0.0
  9
$PELEVATION
 40
0.0
  9
$THICKNESS
 40
0.0
  9
$LIMCHECK
 70
     0
  9
$CHAMFERA
 40
10.0
  9
$CHAMFERB
 40
10.0
  9
$CHAMFERC
 40
20.0
  9
$CHAMFERD
 40
0.0
  9
$SKPOLY
 70
     0
  9
$TDCREATE
 40
2456030.345013472
  9
$TDUCREATE
 40
2456030.261680139
  9
$TDUPDATE
 40
2456030.345013484
  9
$TDUUPDATE
 40
2456030.26168015
  9
$TDINDWG
 40
0.0000000116
  9
$TDUSRTIMER
 40
0.0000000116
  9
$USRTIMER
 70
     1
  9
$ANGBASE
 50
0.0
  9
$ANGDIR
 70
     0
  9
$PDMODE
 70
     0
  9
$PDSIZE
 40
0.0
  9
$PLINEWID
 40
0.0
  9
$SPLFRAME
 70
     0
  9
$SPLINETYPE
 70
     6
  9
$SPLINESEGS
 70
     8
  9
$HANDSEED
  5
129
  9
$SURFTAB1
 70
     6
  9
$SURFTAB2
 70
     6
  9
$SURFTYPE
 70
     6
  9
$SURFU
 70
     6
  9
$SURFV
 70
     6
  9
$UCSBASE
  2

  9
$UCSNAME
  2

  9
$UCSORG
 10
0.0
 20
0.0
 30
0.0
  9
$UCSXDIR
 10
1.0
 20
0.0
 30
0.0
  9
$UCSYDIR
 10
0.0
 20
1.0
 30
0.0
  9
$UCSORTHOREF
  2

  9
$UCSORTHOVIEW
 70
     0
  9
$UCSORGTOP
 10
0.0
 20
0.0
 30
0.0
  9
$UCSORGBOTTOM
 10
0.0
 20
0.0
 30
0.0
  9
$UCSORGLEFT
 10
0.0
 20
0.0
 30
0.0
  9
$UCSORGRIGHT
 10
0.0
 20
0.0
 30
0.0
  9
$UCSORGFRONT
 10
0.0
 20
0.0
 30
0.0
  9
$UCSORGBACK
 10
0.0
 20
0.0
 30
0.0
  9
$PUCSBASE
  2

  9
$PUCSNAME
  2

  9
$PUCSORG
 10
0.0
 20
0.0
 30
0.0
  9
$PUCSXDIR
 10
1.0
 20
0.0
 30
0.0
  9
$PUCSYDIR
 10
0.0
 20
1.0
 30
0.0
  9
$PUCSORTHOREF
  2

  9
$PUCSORTHOVIEW
 70
     0
  9
$PUCSORGTOP
 10
0.0
 20
0.0
 30
0.0
  9
$PUCSORGBOTTOM
 10
0.0
 20
0.0
 30
0.0
  9
$PUCSORGLEFT
 10
0.0
 20
0.0
 30
0.0
  9
$PUCSORGRIGHT
 10
0.0
 20
0.0
 30
0.0
  9
$PUCSORGFRONT
 10
0.0
 20
0.0
 30
0.0
  9
$PUCSORGBACK
 10
0.0
 20
0.0
 30
0.0
  9
$USERI1
 70
     0
  9
$USERI2
 70
     0
  9
$USERI3
 70
     0
  9
$USERI4
 70
     0
  9
$USERI5
 70
     0
  9
$USERR1
 40
0.0
  9
$USERR2
 40
0.0
  9
$USERR3
 40
0.0
  9
$USERR4
 40
0.0
  9
$USERR5
 40
0.0
  9
$WORLDVIEW
 70
     1
  9
$SHADEDGE
 70
     3
  9
$SHADEDIF
 70
    70
  9
$TILEMODE
 70
     1
  9
$MAXACTVP
 70
    64
  9
$PINSBASE
 10
0.0
 20
0.0
 30
0.0
  9
$PLIMCHECK
 70
     0
  9
$PEXTMIN
 10
0.0
 20
0.0
 30
0.0
  9
$PEXTMAX
 10
3000.0
 20
4500.0
 30
0.0
  9
$PLIMMIN
 10
0.0
 20
0.0
  9
$PLIMMAX
 10
3000.0
 20
4500.0
  9
$UNITMODE
 70
     0
  9
$VISRETAIN
 70
     1
  9
$PLINEGEN
 70
     0
  9
$PSLTSCALE
 70
     1
  9
$TREEDEPTH
 70
  3020
  9
$CMLSTYLE
  2
Standard
  9
$CMLJUST
 70
     0
  9
$CMLSCALE
 40
20.0
  9
$PROXYGRAPHICS
 70
     1
  9
$MEASUREMENT
 70
     1
  9
$CELWEIGHT
370
    -1
  9
$ENDCAPS
280
     0
  9
$JOINSTYLE
280
     0
  9
$LWDISPLAY
290
     0
  9
$INSUNITS
 70
     4
  9
$HYPERLINKBASE
  1

  9
$STYLESHEET
  1

  9
$XEDIT
290
     1
  9
$CEPSNTYPE
380
     0
  9
$PSTYLEMODE
290
     1
  9
$FINGERPRINTGUID
  2
{20E16A19-5864-4912-A459-5714F42F71F1}
  9
$VERSIONGUID
  2
{FAEB1C32-E019-11D5-929B-00C0DF256EC4}
  9
$EXTNAMES
290
     1
  9
$PSVPSCALE
 40
0.0
  9
$OLESTARTUP
290
     0
  0
ENDSEC
  0
SECTION
  2
CLASSES
  0
CLASS
  1
ACDBDICTIONARYWDFLT
  2
AcDbDictionaryWithDefault
  3
ObjectDBX Classes
 90
        0
280
     0
281
     0
  0
CLASS
  1
VISUALSTYLE
  2
AcDbVisualStyle
  3
ObjectDBX Classes
 90
     4095
280
     0
281
     0
  0
CLASS
  1
SCALE
  2
AcDbScale
  3
ObjectDBX Classes
 90
     1153
280
     0
281
     0
  0
CLASS
  1
DICTIONARYVAR
  2
AcDbDictionaryVar
  3
ObjectDBX Classes
 90
        0
280
     0
281
     0
  0
CLASS
  1
ACDBPLACEHOLDER
  2
AcDbPlaceHolder
  3
ObjectDBX Classes
 90
        0
280
     0
281
     0
  0
CLASS
  1
LAYOUT
  2
AcDbLayout
  3
ObjectDBX Classes
 90
        0
280
     0
281
     0
  0
ENDSEC
  0
SECTION
  2
TABLES
  0
TABLE
  2
VPORT
  5
8
330
0
100
AcDbSymbolTable
 70
     1
  0
VPORT
  5
29
330
8
100
AcDbSymbolTableRecord
100
AcDbViewportTableRecord
  2
*Active
 70
     0
 10
0.0
 20
0.0
 11
1.0
 21
1.0
 12
344.1869158879
 22
148.5
 13
0.0
 23
0.0
 14
10.0
 24
10.0
 15
10.0
 25
10.0
 16
0.0
 26
0.0
 36
1.0
 17
0.0
 27
0.0
 37
0.0
 40
297.0
 41
1.9729729729
 42
50.0
 43
0.0
 44
0.0
 50
0.0
 51
0.0
 71
     0
 72
   100
 73
     1
 74
     3
 75
     0
 76
     0
 77
     0
 78
     0
281
     0
 65
     1
110
0.0
120
0.0
130
0.0
111
1.0
121
0.0
131
0.0
112
0.0
122
1.0
132
0.0
 79
     0
146
0.0
  0
ENDTAB
  0
TABLE
  2
LTYPE
  5
5
330
0
100
AcDbSymbolTable
 70
     2
  0
LTYPE
  5
14
330
5
100
AcDbSymbolTableRecord
100
AcDbLinetypeTableRecord
  2
ByBlock
 70
     0
  3

 72
    65
 73
     0
 40
0.0
  0
LTYPE
  5
15
330
5
100
AcDbSymbolTableRecord
100
AcDbLinetypeTableRecord
  2
ByLayer
 70
     0
  3

 72
    65
 73
     0
 40
0.0
  0
LTYPE
  5
16
330
5
100
AcDbSymbolTableRecord
100
AcDbLinetypeTableRecord
  2
Continuous
 70
     0
  3
Solid line
 72
    65
 73
     0
 40
0.0
  0
LTYPE
  5
60
330
5
100
AcDbSymbolTableRecord
100
AcDbLinetypeTableRecord
  2
CENTER2
 70
     0
  3
Center (.5x) ___ _ ___ _ ___ _ ___ _ ___ _ ___
 72
    65
 73
     4
 40
28.575
 49
19.05
 74
     4
 75
     0
340
0
 46
0.0
 50
0.0
 44
0.0
 45
0.0
 49
-3.175
 74
     4
 75
     0
340
0
 46
0.0
 50
0.0
 44
0.0
 45
0.0
 49
3.175
 74
     4
 75
     0
340
0
 46
0.0
 50
0.0
 44
0.0
 45
0.0
 49
-3.175
 74
     4
 75
     0
340
0
 46
0.0
 50
0.0
 44
0.0
 45
0.0
  0
ENDTAB
  0
TABLE
  2
LAYER
  5
2
330
0
100
AcDbSymbolTable
 70
     5
  0
LAYER
  5
10
330
2
100
AcDbSymbolTableRecord
100
AcDbLayerTableRecord
  2
0
 70
     0
 62
     7
  6
Continuous
370
    -3
390
F
  0
LAYER
  5
5D
330
2
100
AcDbSymbolTableRecord
100
AcDbLayerTableRecord
  2
Default
 70
     0
 62
     7
  6
Continuous
370
    -3
390
F
  0
LAYER
  5
77
330
2
100
AcDbSymbolTableRecord
100
AcDbLayerTableRecord
  2
$DDT_AUDIT_GENERATED_(77)
 70
     0
 62
     7
  6
Continuous
370
    -3
390
F
  0
LAYER
  5
82
330
2
100
AcDbSymbolTableRecord
100
AcDbLayerTableRecord
  2
$DDT_AUDIT_GENERATED_(82)
 70
     0
 62
     7
  6
Continuous
370
    -3
390
F
  0
LAYER
  5
D5
330
2
100
AcDbSymbolTableRecord
100
AcDbLayerTableRecord
  2
DV3_Default
 70
     0
 62
     7
  6
Continuous
370
    -3
390
F
  0
ENDTAB
  0
TABLE
  2
STYLE
  5
3
330
0
100
AcDbSymbolTable
 70
     2
  0
STYLE
  5
11
330
3
100
AcDbSymbolTableRecord
100
AcDbTextStyleTableRecord
  2
Standard
 70
     0
 40
0.0
 41
1.0
 50
0.0
 71
     0
 42
2.5
  3
txt
  4

  0
STYLE
  5
118
330
3
100
AcDbSymbolTableRecord
100
AcDbTextStyleTableRecord
  2
SEACAD_seiso_ttf
 70
     0
 40
0.0
 41
1.0
 50
0.0
 71
     0
 42
0.2
  3
seiso.ttf
  4

  0
ENDTAB
  0
TABLE
  2
VIEW
  5
6
330
0
100
AcDbSymbolTable
 70
     0
  0
ENDTAB
  0
TABLE
  2
UCS
  5
7
330
0
100
AcDbSymbolTable
 70
     0
  0
ENDTAB
  0
TABLE
  2
APPID
  5
9
330
0
100
AcDbSymbolTable
 70
     1
  0
APPID
  5
12
330
9
100
AcDbSymbolTableRecord
100
AcDbRegAppTableRecord
  2
ACAD
 70
     0
  0
ENDTAB
  0
TABLE
  2
DIMSTYLE
  5
A
330
0
100
AcDbSymbolTable
 70
     1
100
AcDbDimStyleTable
  0
DIMSTYLE
105
27
330
A
100
AcDbSymbolTableRecord
100
AcDbDimStyleTableRecord
  2
ISO-25
 70
     0
 41
2.5
 42
0.625
 43
3.75
 44
1.25
 73
     0
 74
     0
 77
     1
 78
     8
140
2.5
141
2.5
143
0.0393700787
147
0.625
171
     3
172
     1
271
     2
272
     2
274
     3
278
    44
283
     0
284
     8
340
11
  0
ENDTAB
  0
TABLE
  2
BLOCK_RECORD
  5
1
330
0
100
AcDbSymbolTable
 70
     7
  0
BLOCK_RECORD
  5
1F
330
1
100
AcDbSymbolTableRecord
100
AcDbBlockTableRecord
  2
*Model_Space
340
22
  0
BLOCK_RECORD
  5
1B
330
1
100
AcDbSymbolTableRecord
100
AcDbBlockTableRecord
  2
*Paper_Space
340
1E
  0
BLOCK_RECORD
  5
5E
330
1
100
AcDbSymbolTableRecord
100
AcDbBlockTableRecord
  2
SEANNOT_GROUP
340
0
102
{BLKREFS
331
5F
102
}
  0
BLOCK_RECORD
  5
65
330
1
100
AcDbSymbolTableRecord
100
AcDbBlockTableRecord
  2
SEANNOT_GROUP1
340
0
102
{BLKREFS
331
66
102
}
  0
BLOCK_RECORD
  5
6B
330
1
100
AcDbSymbolTableRecord
100
AcDbBlockTableRecord
  2
SEANNOT_GROUP2
340
0
102
{BLKREFS
331
6C
102
}
  0
BLOCK_RECORD
  5
75
330
1
100
AcDbSymbolTableRecord
100
AcDbBlockTableRecord
  2
SE
340
0
102
{BLKREFS
331
76
102
}
  0
BLOCK_RECORD
  5
98
330
1
100
AcDbSymbolTableRecord
100
AcDbBlockTableRecord
  2
SE1
340
0
102
{BLKREFS
331
99
102
}
  0
BLOCK_RECORD
  5
D3
330
1
100
AcDbSymbolTableRecord
100
AcDbBlockTableRecord
  2
SE2
340
0
102
{BLKREFS
331
D4
102
}
  0
ENDTAB
  0
ENDSEC
  0
SECTION
  2
BLOCKS
  0
BLOCK
  5
20
330
1F
100
AcDbEntity
  8
0
100
AcDbBlockBegin
  2
*Model_Space
 70
     0
 10
0.0
 20
0.0
 30
0.0
  3
*Model_Space
  1

  0
ENDBLK
  5
21
330
1F
100
AcDbEntity
  8
0
100
AcDbBlockEnd
  0
BLOCK
  5
1C
330
1B
100
AcDbEntity
 67
     1
  8
0
100
AcDbBlockBegin
  2
*Paper_Space
 70
     0
 10
0.0
 20
0.0
 30
0.0
  3
*Paper_Space
  1

  0
ENDBLK
  5
1D
330
1B
100
AcDbEntity
 67
     1
  8
0
100
AcDbBlockEnd
  0
BLOCK
  5
63
330
5E
100
AcDbEntity
  8
0
100
AcDbBlockBegin
  2
SEANNOT_GROUP
 70
     0
 10
0.0
 20
0.0
 30
0.0
  3
SEANNOT_GROUP
  1

  0
LINE
  5
61
330
5E
100
AcDbEntity
  8
Default
  6
CENTER2
 62
     7
100
AcDbLine
 10
115.2278193674
 20
141.5978889429
 30
0.0
 11
75.2278202614
 21
141.5978889429
 31
0.0
  0
LINE
  5
62
330
5E
100
AcDbEntity
  8
Default
  6
CENTER2
 62
     7
100
AcDbLine
 10
95.2278198144
 20
161.5978884958
 30
0.0
 11
95.2278198144
 21
121.5978893899
 31
0.0
  0
ENDBLK
  5
64
330
5E
100
AcDbEntity
  8
0
100
AcDbBlockEnd
  0
BLOCK
  5
69
330
65
100
AcDbEntity
  8
0
100
AcDbBlockBegin
  2
SEANNOT_GROUP1
 70
     0
 10
0.0
 20
0.0
 30
0.0
  3
SEANNOT_GROUP1
  1

  0
LINE
  5
67
330
65
100
AcDbEntity
  8
Default
  6
CENTER2
 62
     7
100
AcDbLine
 10
220.5150683571
 20
248.4258782395
 30
0.0
 11
180.5150692512
 21
248.4258782395
 31
0.0
  0
LINE
  5
68
330
65
100
AcDbEntity
  8
Default
  6
CENTER2
 62
     7
100
AcDbLine
 10
200.5150688042
 20
268.4258777925
 30
0.0
 11
200.5150688042
 21
228.4258786866
 31
0.0
  0
ENDBLK
  5
6A
330
65
100
AcDbEntity
  8
0
100
AcDbBlockEnd
  0
BLOCK
  5
73
330
6B
100
AcDbEntity
  8
0
100
AcDbBlockBegin
  2
SEANNOT_GROUP2
 70
     0
 10
0.0
 20
0.0
 30
0.0
  3
SEANNOT_GROUP2
  1

  0
LINE
  5
6D
330
6B
100
AcDbEntity
  8
Default
  6
CENTER2
 62
     7
100
AcDbLine
 10
115.2278193689
 20
248.4258782395
 30
0.0
 11
75.2278202629
 21
248.4258782395
 31
0.0
  0
LINE
  5
6E
330
6B
100
AcDbEntity
  8
Default
  6
CENTER2
 62
     7
100
AcDbLine
 10
95.2278198159
 20
268.4258777925
 30
0.0
 11
95.2278198159
 21
228.4258786866
 31
0.0
  0
LINE
  5
6F
330
6B
100
AcDbEntity
  8
Default
  6
CENTER2
 62
     7
100
AcDbLine
 10
120.2278192571
 20
248.4258782395
 30
0.0
 11
139.9183683748
 21
248.4258782395
 31
0.0
  0
LINE
  5
70
330
6B
100
AcDbEntity
  8
Default
  6
CENTER2
 62
     7
100
AcDbLine
 10
95.2278198159
 20
273.4258776807
 30
0.0
 11
95.2278198159
 21
293.1164267985
 31
0.0
  0
LINE
  5
71
330
6B
100
AcDbEntity
  8
Default
  6
CENTER2
 62
     7
100
AcDbLine
 10
70.2278203747
 20
248.4258782395
 30
0.0
 11
50.537271257
 21
248.4258782395
 31
0.0
  0
LINE
  5
72
330
6B
100
AcDbEntity
  8
Default
  6
CENTER2
 62
     7
100
AcDbLine
 10
95.2278198159
 20
223.4258787983
 30
0.0
 11
95.2278198159
 21
203.7353296806
 31
0.0
  0
ENDBLK
  5
74
330
6B
100
AcDbEntity
  8
0
100
AcDbBlockEnd
  0
BLOCK
  5
96
330
75
100
AcDbEntity
  8
0
100
AcDbBlockBegin
  2
SE
 70
     0
 10
0.0
 20
0.0
 30
0.0
  3
SE
  1

  0
LINE
  5
78
330
75
100
AcDbEntity
  8
$DDT_AUDIT_GENERATED_(77)
  6
Continuous
 62
     7
100
AcDbLine
 10
210.515068804
 20
310.4257849255
 30
0.0
 11
210.515068804
 21
186.4259715536
 31
0.0
  0
LINE
  5
79
330
75
100
AcDbEntity
  8
$DDT_AUDIT_GENERATED_(77)
  6
Continuous
 62
     7
100
AcDbLine
 10
210.5150688038
 20
185.5917962416
 30
0.0
 11
210.5150688038
 21
186.4259715536
 31
0.0
  0
LINE
  5
7A
330
75
100
AcDbEntity
  8
$DDT_AUDIT_GENERATED_(77)
  6
Continuous
 62
     7
100
AcDbLine
 10
210.5150688038
 20
310.4257849255
 30
0.0
 11
210.5150688038
 21
311.2599602328
 31
0.0
  0
ARC
  5
7B
330
75
100
AcDbEntity
  8
$DDT_AUDIT_GENERATED_(77)
  6
Continuous
 62
     7
100
AcDbCircle
 10
210.0150688042
 20
311.2599789587
 30
0.0
 40
0.5000000000000132
100
AcDbArc
 50
359.9978541722
 51
88.9999999861
  0
ARC
  5
7C
330
75
100
AcDbEntity
  8
$DDT_AUDIT_GENERATED_(77)
  6
Continuous
 62
     7
100
AcDbCircle
 10
210.0150688042
 20
185.5917775204
 30
0.0
 40
0.4999999999999997
100
AcDbArc
 50
271.0000855065
 51
0.0007150765
  0
LINE
  5
7D
330
75
100
AcDbEntity
  8
$DDT_AUDIT_GENERATED_(77)
  6
Continuous
 62
     7
100
AcDbLine
 10
200.5150688042
 20
311.9258782395
 30
0.0
 11
210.0237950075
 21
311.7599028063
 31
0.0
  0
LINE
  5
7E
330
75
100
AcDbEntity
  8
$DDT_AUDIT_GENERATED_(77)
  6
Continuous
 62
     7
100
AcDbLine
 10
200.5150688042
 20
311.9258782395
 30
0.0
 11
200.5150688042
 21
310.4258782395
 31
0.0
  0
LINE
  5
7F
330
75
100
AcDbEntity
  8
$DDT_AUDIT_GENERATED_(77)
  6
Continuous
 62
     7
100
AcDbLine
 10
200.5150688042
 20
310.4258782395
 30
0.0
 11
200.5150688042
 21
186.4258782395
 31
0.0
  0
LINE
  5
80
330
75
100
AcDbEntity
  8
$DDT_AUDIT_GENERATED_(77)
  6
Continuous
 62
     7
100
AcDbLine
 10
200.5150688042
 20
186.4258782395
 30
0.0
 11
200.5150688042
 21
184.9258782395
 31
0.0
  0
LINE
  5
81
330
75
100
AcDbEntity
  8
$DDT_AUDIT_GENERATED_(77)
  6
Continuous
 62
     7
100
AcDbLine
 10
210.0237957534
 20
185.0918536858
 30
0.0
 11
200.5150688042
 21
184.9258782395
 31
0.0
  0
SPLINE
  5
83
330
75
100
AcDbEntity
  8
$DDT_AUDIT_GENERATED_(82)
  6
Continuous
 62
     7
100
AcDbSpline
210
0.0
220
0.0
230
1.0
 70
    11
 71
     3
 72
    62
 73
    58
 74
     0
 42
0.0000000066249821
 43
0.0000000001
 40
0.0
 40
0.0
 40
0.0
 40
0.0
 40
0.0537012117493045
 40
0.0537012117493045
 40
0.0537012117493045
 40
0.1074024973611818
 40
0.1074024973611818
 40
0.1074024973611818
 40
0.1611028168011115
 40
0.1611028168011115
 40
0.1611028168011115
 40
0.2148035421007292
 40
0.2148035421007292
 40
0.2148035421007292
 40
0.2685063021981802
 40
0.2685063021981802
 40
0.2685063021981802
 40
0.3222118343429254
 40
0.3222118343429254
 40
0.3222118343429254
 40
0.37591966101549
 40
0.37591966101549
 40
0.37591966101549
 40
0.4296282990345802
 40
0.4296282990345802
 40
0.4296282990345802
 40
0.483335909509666
 40
0.483335909509666
 40
0.483335909509666
 40
0.5370411039267872
 40
0.5370411039267872
 40
0.5370411039267872
 40
0.5907435528161558
 40
0.5907435528161558
 40
0.5907435528161558
 40
0.6444441299932828
 40
0.6444441299932828
 40
0.6444441299932828
 40
0.6981445293592156
 40
0.6981445293592156
 40
0.6981445293592156
 40
0.751846522577263
 40
0.751846522577263
 40
0.751846522577263
 40
0.8055511829223777
 40
0.8055511829223777
 40
0.8055511829223777
 40
0.8592584150339869
 40
0.8592584150339869
 40
0.8592584150339869
 40
0.9129669964732128
 40
0.9129669964732128
 40
0.9129669964732128
 40
0.9666751132068915
 40
0.9666751132068915
 40
0.9666751132068915
 40
1.0
 40
1.0
 40
1.0
 40
1.0
 10
216.2037388736675
 20
248.2186126788571
 30
0.0
 10
216.2035019613395
 20
248.2535888825643
 30
0.0
 10
216.2033234503852
 20
248.2930525045349
 30
0.0
 10
216.2032181262807
 20
248.3337357018581
 30
0.0
 10
216.2031128020843
 20
248.3744189347017
 30
0.0
 10
216.2030777601453
 20
248.4174438373085
 30
0.0
 10
216.203115903118
 20
248.4592473831397
 30
0.0
 10
216.2031540454304
 20
248.5010502052682
 30
0.0
 10
216.2032664219547
 20
248.5427846666681
 30
0.0
 10
216.2034437247274
 20
248.5809948247063
 30
0.0
 10
216.2036210289323
 20
248.619205291397
 30
0.0
 10
216.2038681501211
 20
248.6549452441655
 30
0.0
 10
216.2041646220171
 20
248.6852554545173
 30
0.0
 10
216.2044611051185
 20
248.7155668104623
 30
0.0
 10
216.2048151191851
 20
248.7412839985795
 30
0.0
 10
216.2051973482144
 20
248.76027785809
 30
0.0
 10
216.2055795967179
 20
248.7792726853159
 30
0.0
 10
216.2060006052424
 20
248.7920673836045
 30
0.0
 10
216.2064255116517
 20
248.7976026981476
 30
0.0
 10
216.2068504358113
 20
248.8031382439254
 30
0.0
 10
216.2072909779118
 20
248.8015664688467
 30
0.0
 10
216.2077106575169
 20
248.7930175029332
 30
0.0
 10
216.2081303431204
 20
248.7844684148315
 30
0.0
 10
216.2085407413972
 20
248.7687061119709
 30
0.0
 10
216.2089078654338
 20
248.7470357058473
 30
0.0
 10
216.2092749823286
 20
248.72536572128
 30
0.0
 10
216.2096089527255
 20
248.6971901132474
 30
0.0
 10
216.2098821164575
 20
248.6648420613468
 30
0.0
 10
216.2101552679865
 20
248.6324954545355
 30
0.0
 10
216.2103751525076
 20
248.5950845387358
 30
0.0
 10
216.2105235575325
 20
248.5557074872148
 30
0.0
 10
216.2106719550907
 20
248.5163324168837
 30
0.0
 10
216.2107529734641
 20
248.4739053438058
 30
0.0
 10
216.2107599020828
 20
248.4319398836252
 30
0.0
 10
216.2107668304665
 20
248.389975846177
 30
0.0
 10
216.2106998653388
 20
248.3473159700093
 30
0.0
 10
216.2105645529306
 20
248.3074929347155
 30
0.0
 10
216.2104292408789
 20
248.267670004353
 30
0.0
 10
216.2102218502399
 20
248.229585574192
 30
0.0
 10
216.2099595559643
 20
248.1963931010409
 30
0.0
 10
216.209697253876
 20
248.163199639228
 30
0.0
 10
216.209372810975
 20
248.1339829539522
 30
0.0
 10
216.2090130933843
 20
248.111161991575
 30
0.0
 10
216.2086533581121
 20
248.0883399074656
 30
0.0
 10
216.2082484234529
 20
248.0712847369544
 30
0.0
 10
216.2078318194527
 20
248.0614084571945
 30
0.0
 10
216.2074151958793
 20
248.0515317134207
 30
0.0
 10
216.2069754112155
 20
248.0485621293257
 30
0.0
 10
216.2065488824101
 20
248.0527455572455
 30
0.0
 10
216.206122343273
 20
248.0569290864991
 30
0.0
 10
216.2056972960005
 20
248.0683813815072
 30
0.0
 10
216.2053089406078
 20
248.0861542288111
 30
0.0
 10
216.2049205887705
 20
248.1039269134042
 30
0.0
 10
216.2045582164839
 20
248.1285102820642
 30
0.0
 10
216.204251837101
 20
248.1578686888067
 30
0.0
 10
216.2040600649168
 20
248.1762450094681
 30
0.0
 10
216.2038871830601
 20
248.1967172394411
 30
0.0
 10
216.2037388736675
 20
248.2186126788571
 30
0.0
  0
SPLINE
  5
84
330
75
100
AcDbEntity
  8
$DDT_AUDIT_GENERATED_(82)
  6
Continuous
 62
     7
100
AcDbSpline
210
0.0
220
0.0
230
1.0
 70
    11
 71
     3
 72
    62
 73
    58
 74
     0
 42
0.000000006641921
 43
0.0000000001
 40
0.0
 40
0.0
 40
0.0
 40
0.0
 40
0.0537084870597576
 40
0.0537084870597576
 40
0.0537084870597576
 40
0.1074169867116669
 40
0.1074169867116669
 40
0.1074169867116669
 40
0.1611251747658818
 40
0.1611251747658818
 40
0.1611251747658818
 40
0.2148313628654627
 40
0.2148313628654627
 40
0.2148313628654627
 40
0.2685347829067982
 40
0.2685347829067982
 40
0.2685347829067982
 40
0.3222358801187485
 40
0.3222358801187485
 40
0.3222358801187485
 40
0.3759361177339826
 40
0.3759361177339826
 40
0.3759361177339826
 40
0.4296373355487785
 40
0.4296373355487785
 40
0.4296373355487785
 40
0.4833409437224483
 40
0.4833409437224483
 40
0.4833409437224483
 40
0.5370473049327095
 40
0.5370473049327095
 40
0.5370473049327095
 40
0.5907555753763509
 40
0.5907555753763509
 40
0.5907555753763509
 40
0.6444640744000991
 40
0.6444640744000991
 40
0.6444640744000991
 40
0.6981710210803169
 40
0.6981710210803169
 40
0.6981710210803169
 40
0.7518753149346896
 40
0.7518753149346896
 40
0.7518753149346896
 40
0.8055770182743349
 40
0.8055770182743349
 40
0.8055770182743349
 40
0.8592773286722509
 40
0.8592773286722509
 40
0.8592773286722509
 40
0.9129780539342482
 40
0.9129780539342482
 40
0.9129780539342482
 40
0.9666808199669628
 40
0.9666808199669628
 40
0.9666808199669628
 40
1.0
 40
1.0
 40
1.0
 40
1.0
 10
216.207905757002
 20
249.4609056505428
 30
0.0
 10
216.2074912151592
 20
249.4907141187158
 30
0.0
 10
216.2070521150831
 20
249.5260357369046
 30
0.0
 10
216.2066248108939
 20
249.5639454705699
 30
0.0
 10
216.2061975066758
 20
249.6018552067981
 30
0.0
 10
216.2057702165594
 20
249.6433986866801
 30
0.0
 10
216.2053783259994
 20
249.6851356728896
 30
0.0
 10
216.2049864379317
 20
249.726872393684
 30
0.0
 10
216.2046191397904
 20
249.7699538337472
 30
0.0
 10
216.204306852692
 20
249.8108121097175
 30
0.0
 10
216.203994577198
 20
249.8516688674292
 30
0.0
 10
216.2037286953493
 20
249.8914295798216
 30
0.0
 10
216.2035312308557
 20
249.9268011752911
 30
0.0
 10
216.2033337764099
 20
249.9621709709206
 30
0.0
 10
216.2031992861861
 20
249.9941276863623
 30
0.0
 10
216.2031389008538
 20
250.0200246111625
 30
0.0
 10
216.203078518076
 20
250.045920440388
 30
0.0
 10
216.203090568423
 20
250.0664712472715
 30
0.0
 10
216.2031740537232
 20
250.0799751784023
 30
0.0
 10
216.2032575377557
 20
250.0934789044882
 30
0.0
 10
216.2034147568501
 20
250.1003084293051
 30
0.0
 10
216.2036326892623
 20
250.0998984523701
 30
0.0
 10
216.2038506257261
 20
250.0994884678134
 30
0.0
 10
216.2041352880266
 20
250.0918274365036
 30
0.0
 10
216.2044631016325
 20
250.077550059239
 30
0.0
 10
216.2047909297332
 20
250.0632720506782
 30
0.0
 10
216.205170954012
 20
250.0419833578658
 30
0.0
 10
216.2055717052668
 20
250.0154469981852
 30
0.0
 10
216.2059724767452
 20
249.9889092993674
 30
0.0
 10
216.2064050304931
 20
249.9563915022337
 30
0.0
 10
216.2068335483791
 20
249.9205863241988
 30
0.0
 10
216.2072620810906
 20
249.8847799074204
 30
0.0
 10
216.207698397102
 20
249.8446982927431
 30
0.0
 10
216.2081063652077
 20
249.8036606005286
 30
0.0
 10
216.2085143347688
 20
249.7626227619188
 30
0.0
 10
216.2089052089526
 20
249.7194969100335
 30
0.0
 10
216.2092466167471
 20
249.6778545159044
 30
0.0
 10
216.209588014632
 20
249.6362133304786
 30
0.0
 10
216.2098893656775
 20
249.5949069257187
 30
0.0
 10
216.2101257106885
 20
249.5573563431955
 30
0.0
 10
216.2103620441429
 20
249.5198075967967
 30
0.0
 10
216.2105398965726
 20
249.4849786067038
 30
0.0
 10
216.2106445367803
 20
249.455754003839
 30
0.0
 10
216.2107491720344
 20
249.4265307843998
 30
0.0
 10
216.210783488062
 20
249.4021053845666
 30
0.0
 10
216.210744642581
 20
249.3845006264856
 30
0.0
 10
216.2107057980724
 20
249.366896309083
 30
0.0
 10
216.2105927245301
 20
249.3556267338716
 30
0.0
 10
216.210414786734
 20
249.3516249524937
 30
0.0
 10
216.2102368474713
 20
249.3476231381302
 30
0.0
 10
216.2099891356185
 20
249.3507788384808
 30
0.0
 10
216.20969216465
 20
249.3608304198701
 30
0.0
 10
216.2093951824252
 20
249.3708823822522
 30
0.0
 10
216.2090407469685
 20
249.3881079459898
 30
0.0
 10
216.2086582074098
 20
249.4110804897097
 30
0.0
 10
216.2084187815373
 20
249.4254586662904
 30
0.0
 10
216.2081651855094
 20
249.4422509199295
 30
0.0
 10
216.207905757002
 20
249.4609056505428
 30
0.0
  0
SPLINE
  5
85
330
75
100
AcDbEntity
  8
$DDT_AUDIT_GENERATED_(82)
  6
Continuous
 62
     7
100
AcDbSpline
210
0.0
220
0.0
230
1.0
 70
    11
 71
     3
 72
    62
 73
    58
 74
     0
 42
0.0000000066372664
 43
0.0000000001
 40
0.0
 40
0.0
 40
0.0
 40
0.0
 40
0.0537104000476624
 40
0.0537104000476624
 40
0.0537104000476624
 40
0.107421176682886
 40
0.107421176682886
 40
0.107421176682886
 40
0.1611263109377568
 40
0.1611263109377568
 40
0.1611263109377568
 40
0.2148234352395393
 40
0.2148234352395393
 40
0.2148234352395393
 40
0.2685157604670093
 40
0.2685157604670093
 40
0.2685157604670093
 40
0.3222085996306513
 40
0.3222085996306513
 40
0.3222085996306513
 40
0.3759070393407575
 40
0.3759070393407575
 40
0.3759070393407575
 40
0.4296137124540305
 40
0.4296137124540305
 40
0.4296137124540305
 40
0.4833276447408058
 40
0.4833276447408058
 40
0.4833276447408058
 40
0.537044680198354
 40
0.537044680198354
 40
0.537044680198354
 40
0.5907593013808179
 40
0.5907593013808179
 40
0.5907593013808179
 40
0.644467048841017
 40
0.644467048841017
 40
0.644467048841017
 40
0.6981664772138375
 40
0.6981664772138375
 40
0.6981664772138375
 40
0.7518597878512605
 40
0.7518597878512605
 40
0.7518597878512605
 40
0.8055518618118933
 40
0.8055518618118933
 40
0.8055518618118933
 40
0.8592481204796258
 40
0.8592481204796258
 40
0.8592481204796258
 40
0.9129521519114859
 40
0.9129521519114859
 40
0.9129521519114859
 40
0.966664139782532
 40
0.966664139782532
 40
0.966664139782532
 40
1.0
 40
1.0
 40
1.0
 40
1.0
 10
216.1898540443065
 20
249.4613844631852
 30
0.0
 10
216.1891379765171
 20
249.4912457026927
 30
0.0
 10
216.1884459606904
 20
249.5266120284022
 30
0.0
 10
216.187835306976
 20
249.5645554219692
 30
0.0
 10
216.1872246507695
 20
249.602498970393
 30
0.0
 10
216.1866785145448
 20
249.6440662870981
 30
0.0
 10
216.1862421496917
 20
249.6858147144778
 30
0.0
 10
216.1858058305989
 20
249.7275587638334
 30
0.0
 10
216.1854672247537
 20
249.7706354591808
 30
0.0
 10
216.1852543960794
 20
249.8114765017638
 30
0.0
 10
216.1850415985944
 20
249.8523115592486
 30
0.0
 10
216.1849486718486
 20
249.8920380245837
 30
0.0
 10
216.1849833176354
 20
249.9273654728261
 30
0.0
 10
216.1850179604225
 20
249.9626898623573
 30
0.0
 10
216.1851811082706
 20
249.9945902875351
 30
0.0
 10
216.1854592423788
 20
250.0204254326581
 30
0.0
 10
216.1857373796382
 20
250.0462608704975
 30
0.0
 10
216.1861381744272
 20
250.0667434245105
 30
0.0
 10
216.1866284270405
 20
250.0801781237018
 30
0.0
 10
216.1871187307688
 20
250.0936142236314
 30
0.0
 10
216.1877120299509
 20
250.1003715894487
 30
0.0
 10
216.1883591939138
 20
250.0998918395152
 30
0.0
 10
216.1890064559218
 20
250.0994120168999
 30
0.0
 10
216.1897254475337
 20
250.091679706415
 30
0.0
 10
216.1904566386438
 20
250.0773357195829
 30
0.0
 10
216.1911879265298
 20
250.0629898342699
 30
0.0
 10
216.1919515855698
 20
250.0416348647806
 30
0.0
 10
216.1926843835103
 20
250.0150390487603
 30
0.0
 10
216.193417221909
 20
249.9884417643644
 30
0.0
 10
216.1941394097346
 20
249.9558693646006
 30
0.0
 10
216.1947911344049
 20
249.920019016566
 30
0.0
 10
216.195442829008
 20
249.8841703224736
 30
0.0
 10
216.196042044113
 20
249.8440550014716
 30
0.0
 10
216.1965391369591
 20
249.802995495857
 30
0.0
 10
216.197036166543
 20
249.7619412156449
 30
0.0
 10
216.1974448105286
 20
249.7188104058382
 30
0.0
 10
216.1977312066799
 20
249.6771758010387
 30
0.0
 10
216.1980175591252
 20
249.6355475499657
 30
0.0
 10
216.1981895997248
 20
249.5942667223155
 30
0.0
 10
216.1982330717486
 20
249.5567526885626
 30
0.0
 10
216.1982765389445
 20
249.5192428209492
 30
0.0
 10
216.198192665553
 20
249.4844643088182
 30
0.0
 10
216.1979884009071
 20
249.455297144687
 30
0.0
 10
216.1977841405179
 20
249.4261305883671
 30
0.0
 10
216.1974538620723
 20
249.4017707348011
 30
0.0
 10
216.1970249227344
 20
249.3842338224296
 30
0.0
 10
216.1965959497267
 20
249.3666955334921
 30
0.0
 10
216.1960564723727
 20
249.3554975426133
 30
0.0
 10
216.1954511626494
 20
249.3515658640219
 30
0.0
 10
216.1948457661062
 20
249.3476336215074
 30
0.0
 10
216.1941578246381
 20
249.3508612739902
 30
0.0
 10
216.193444294653
 20
249.3609807860647
 30
0.0
 10
216.1927306608282
 20
249.3711017708253
 30
0.0
 10
216.1919717502728
 20
249.3883957283413
 30
0.0
 10
216.191230398232
 20
249.4114305580791
 30
0.0
 10
216.1907662463958
 20
249.425852395384
 30
0.0
 10
216.1903023795084
 20
249.4426881259878
 30
0.0
 10
216.1898540443065
 20
249.4613844631852
 30
0.0
  0
LINE
  5
86
330
75
100
AcDbEntity
  8
$DDT_AUDIT_GENERATED_(82)
  6
Continuous
 62
     7
100
AcDbLine
 10
216.214590099
 20
248.8008782395
 30
0.0
 11
216.214590099
 21
248.0508782395
 31
0.0
  0
SPLINE
  5
87
330
75
100
AcDbEntity
  8
$DDT_AUDIT_GENERATED_(82)
  6
Continuous
 62
     7
100
AcDbSpline
210
0.0
220
0.0
230
1.0
 70
    11
 71
     3
 72
    62
 73
    58
 74
     0
 42
0.000000006623504
 43
0.0000000001
 40
0.0
 40
0.0
 40
0.0
 40
0.0
 40
0.0537193298292296
 40
0.0537193298292296
 40
0.0537193298292296
 40
0.1074389207373463
 40
0.1074389207373463
 40
0.1074389207373463
 40
0.1611542552357199
 40
0.1611542552357199
 40
0.1611542552357199
 40
0.2148591955401614
 40
0.2148591955401614
 40
0.2148591955401614
 40
0.2685535229119265
 40
0.2685535229119265
 40
0.2685535229119265
 40
0.3222416710861722
 40
0.3222416710861722
 40
0.3222416710861722
 40
0.3759307794622967
 40
0.3759307794622967
 40
0.3759307794622967
 40
0.4296275646586823
 40
0.4296275646586823
 40
0.4296275646586823
 40
0.4833353803586863
 40
0.4833353803586863
 40
0.4833353803586863
 40
0.5370527483197699
 40
0.5370527483197699
 40
0.5370527483197699
 40
0.5907740031382295
 40
0.5907740031382295
 40
0.5907740031382295
 40
0.6444917733144967
 40
0.6444917733144967
 40
0.6444917733144967
 40
0.698200214446603
 40
0.698200214446603
 40
0.698200214446603
 40
0.7518975735756163
 40
0.7518975735756163
 40
0.7518975735756163
 40
0.8055869558931149
 40
0.8055869558931149
 40
0.8055869558931149
 40
0.859274959895669
 40
0.859274959895669
 40
0.859274959895669
 40
0.9129687852925942
 40
0.9129687852925942
 40
0.9129687852925942
 40
0.9666730817892327
 40
0.9666730817892327
 40
0.9666730817892327
 40
1.0
 40
1.0
 40
1.0
 40
1.0
 10
216.1843540000197
 20
250.8202146843223
 30
0.0
 10
216.1834973471152
 20
250.8553168869593
 30
0.0
 10
216.1826204032942
 20
250.8948785427916
 30
0.0
 10
216.1817957866824
 20
250.9356238176474
 30
0.0
 10
216.1809711678841
 20
250.976369200544
 30
0.0
 10
216.1801761304296
 20
251.0194221766671
 30
0.0
 10
216.1794765355731
 20
251.0612169911185
 30
0.0
 10
216.1787769971609
 20
251.10300843351
 30
0.0
 10
216.1781535885501
 20
251.1446948646955
 30
0.0
 10
216.1776579787272
 20
251.1828225065792
 30
0.0
 10
216.1771624639256
 20
251.2209428383951
 30
0.0
 10
216.176781030023
 20
251.2565573944888
 30
0.0
 10
216.1765452992733
 20
251.2867151482997
 30
0.0
 10
216.17630961428
 20
251.3168670483603
 30
0.0
 10
216.1762130748585
 20
251.3423960005439
 30
0.0
 10
216.1762636843062
 20
251.3611872308287
 30
0.0
 10
216.176314288117
 20
251.3799763681804
 30
0.0
 10
216.1765134023153
 20
251.3925475496402
 30
0.0
 10
216.1768445248834
 20
251.397860396834
 30
0.0
 10
216.1771756541256
 20
251.4031733511146
 30
0.0
 10
216.1776479257482
 20
251.4013743031773
 30
0.0
 10
216.1782222166281
 20
251.3926134729514
 30
0.0
 10
216.1787965895354
 20
251.3838513913929
 30
0.0
 10
216.17948884626
 20
251.36788405495
 30
0.0
 10
216.180241663034
 20
251.3460344696986
 30
0.0
 10
216.180994632563
 20
251.32418045092
 30
0.0
 10
216.1818289488265
 20
251.2958392354133
 30
0.0
 10
216.1826755375686
 20
251.2633576184148
 30
0.0
 10
216.1835222736913
 20
251.2308703467663
 30
0.0
 10
216.1844046386128
 20
251.1933452598682
 30
0.0
 10
216.18524957302
 20
251.153889406624
 30
0.0
 10
216.1860945657124
 20
251.1144308316387
 30
0.0
 10
216.1869254308595
 20
251.0719527631872
 30
0.0
 10
216.1876733506847
 20
251.0299731580182
 30
0.0
 10
216.1884212208721
 20
250.9879963389506
 30
0.0
 10
216.1891067879492
 20
250.9453598556781
 30
0.0
 10
216.1896732456289
 20
250.9055959088959
 30
0.0
 10
216.1902396055168
 20
250.8658388268611
 30
0.0
 10
216.1907025209889
 20
250.8278564643521
 30
0.0
 10
216.1910236233899
 20
250.7947960421344
 30
0.0
 10
216.1913446605351
 20
250.7617423386126
 30
0.0
 10
216.1915327978928
 20
250.7326967624778
 30
0.0
 10
216.1915724409807
 20
250.71006571635
 30
0.0
 10
216.1916120783313
 20
250.6874379454705
 30
0.0
 10
216.1915043585302
 20
250.6705986989778
 30
0.0
 10
216.1912582083448
 20
250.6609421798751
 30
0.0
 10
216.1910120637731
 20
250.6512858810023
 30
0.0
 10
216.1906207092623
 20
250.6485455887996
 30
0.0
 10
216.1901165635335
 20
250.6529470499675
 30
0.0
 10
216.1896123628128
 20
250.657348991245
 30
0.0
 10
216.1889814454962
 20
250.6690154975245
 30
0.0
 10
216.1882760543517
 20
250.6869794700737
 30
0.0
 10
216.1875705269504
 20
250.7049469126345
 30
0.0
 10
216.1867710436454
 20
250.7297096078007
 30
0.0
 10
216.185943791128
 20
250.7592168428591
 30
0.0
 10
216.1854259228941
 20
250.7776886629932
 30
0.0
 10
216.1848901262925
 20
250.7982463784062
 30
0.0
 10
216.1843540000197
 20
250.8202146843223
 30
0.0
  0
SPLINE
  5
88
330
75
100
AcDbEntity
  8
$DDT_AUDIT_GENERATED_(82)
  6
Continuous
 62
     7
100
AcDbSpline
210
0.0
220
0.0
230
1.0
 70
    11
 71
     3
 72
    62
 73
    58
 74
     0
 42
0.0000000066390527
 43
0.0000000001
 40
0.0
 40
0.0
 40
0.0
 40
0.0
 40
0.053726949072891
 40
0.053726949072891
 40
0.053726949072891
 40
0.107453375544324
 40
0.107453375544324
 40
0.107453375544324
 40
0.1611866511063096
 40
0.1611866511063096
 40
0.1611866511063096
 40
0.214917175095992
 40
0.214917175095992
 40
0.214917175095992
 40
0.2686334909243445
 40
0.2686334909243445
 40
0.2686334909243445
 40
0.3223303755118648
 40
0.3223303755118648
 40
0.3223303755118648
 40
0.3760111304053943
 40
0.3760111304053943
 40
0.3760111304053943
 40
0.4296861239113318
 40
0.4296861239113318
 40
0.4296861239113318
 40
0.4833682403903221
 40
0.4833682403903221
 40
0.4833682403903221
 40
0.5370672411048497
 40
0.5370672411048497
 40
0.5370672411048497
 40
0.590785495481134
 40
0.590785495481134
 40
0.590785495481134
 40
0.6445169388389326
 40
0.6445169388389326
 40
0.6445169388389326
 40
0.698249719760088
 40
0.698249719760088
 40
0.698249719760088
 40
0.7519713940777758
 40
0.7519713940777758
 40
0.7519713940777758
 40
0.8056743896291443
 40
0.8056743896291443
 40
0.8056743896291443
 40
0.8593593293311329
 40
0.8593593293311329
 40
0.8593593293311329
 40
0.9130347483950078
 40
0.9130347483950078
 40
0.9130347483950078
 40
0.9667133443911741
 40
0.9667133443911741
 40
0.9667133443911741
 40
1.0
 40
1.0
 40
1.0
 40
1.0
 10
216.1665398611385
 20
252.0616570550522
 30
0.0
 10
216.1655953185114
 20
252.0915575289638
 30
0.0
 10
216.1645299965969
 20
252.1269597244344
 30
0.0
 10
216.1634302248173
 20
252.1649294626929
 30
0.0
 10
216.1623304612827
 20
252.2028989162928
 30
0.0
 10
216.1611669142709
 20
252.2444836886321
 30
0.0
 10
216.1600359144308
 20
252.2862408405593
 30
0.0
 10
216.1589047758038
 20
252.3280031165784
 30
0.0
 10
216.1577749905177
 20
252.3710898247541
 30
0.0
 10
216.1567401394197
 20
252.411932422914
 30
0.0
 10
216.1557053451171
 20
252.4527727795199
 30
0.0
 10
216.154736925296
 20
252.4924960836515
 30
0.0
 10
216.1539151591688
 20
252.5278101586786
 30
0.0
 10
216.1530936098189
 20
252.5631149180517
 30
0.0
 10
216.1523959702316
 20
252.5949869002336
 30
0.0
 10
216.1518801116192
 20
252.6207832689651
 30
0.0
 10
216.1513644372005
 20
252.6465704267817
 30
0.0
 10
216.1510161882223
 20
252.6669977485479
 30
0.0
 10
216.1508642603974
 20
252.680371404052
 30
0.0
 10
216.1507123771977
 20
252.6937411313696
 30
0.0
 10
216.1507525093292
 20
252.7004301675075
 30
0.0
 10
216.1509813277298
 20
252.6998846524012
 30
0.0
 10
216.1512101228806
 20
252.6993391927235
 30
0.0
 10
216.1516338706309
 20
252.6915457742973
 30
0.0
 10
216.1522174434039
 20
252.6771512455554
 30
0.0
 10
216.1528010949481
 20
252.6627547738243
 30
0.0
 10
216.153560699928
 20
252.6413587210449
 30
0.0
 10
216.1544333381579
 20
252.6147359148275
 30
0.0
 10
216.1553062489674
 20
252.5881047926423
 30
0.0
 10
216.1563163244257
 20
252.5555096300565
 30
0.0
 10
216.1573799440686
 20
252.5196491518364
 30
0.0
 10
216.1584439390618
 20
252.4837760184896
 30
0.0
 10
216.1595908522559
 20
252.4436461843321
 30
0.0
 10
216.1607257450553
 20
252.4025815887225
 30
0.0
 10
216.1618609089291
 20
252.3615071846438
 30
0.0
 10
216.1630153557412
 20
252.318364678566
 30
0.0
 10
216.1640934869415
 20
252.2767265875366
 30
0.0
 10
216.1651716398437
 20
252.2350876583668
 30
0.0
 10
216.1662032185697
 20
252.1938044222498
 30
0.0
 10
216.1671027404753
 20
252.1562976224937
 30
0.0
 10
216.1680020757569
 20
252.1187986042793
 30
0.0
 10
216.168794222593
 20
252.0840397798423
 30
0.0
 10
216.1694134945549
 20
252.0549030129104
 30
0.0
 10
216.1700325534073
 20
252.0257762727911
 30
0.0
 10
216.1704959354637
 20
252.0014641113025
 30
0.0
 10
216.1707652023061
 20
251.9839826520153
 30
0.0
 10
216.1710343803224
 20
251.9665069595351
 30
0.0
 10
216.1711169969347
 20
251.9553753658904
 30
0.0
 10
216.1710061997841
 20
251.9515103296843
 30
0.0
 10
216.1708954215819
 20
251.9476459544728
 30
0.0
 10
216.1705882441211
 20
251.9509389501765
 30
0.0
 10
216.1701101310618
 20
251.9611154014083
 30
0.0
 10
216.1696319880105
 20
251.97129249101
 30
0.0
 10
216.1689697102523
 20
251.988634281096
 30
0.0
 10
216.1681781569403
 20
252.0117033507899
 30
0.0
 10
216.1676829953876
 20
252.0261343640841
 30
0.0
 10
216.1671302024154
 20
252.0429691912693
 30
0.0
 10
216.1665398611385
 20
252.0616570550522
 30
0.0
  0
SPLINE
  5
89
330
75
100
AcDbEntity
  8
$DDT_AUDIT_GENERATED_(82)
  6
Continuous
 62
     7
100
AcDbSpline
210
0.0
220
0.0
230
1.0
 70
    11
 71
     3
 72
    62
 73
    58
 74
     0
 42
0.0000000066348735
 43
0.0000000001
 40
0.0
 40
0.0
 40
0.0
 40
0.0
 40
0.0537409188157389
 40
0.0537409188157389
 40
0.0537409188157389
 40
0.1074819589239247
 40
0.1074819589239247
 40
0.1074819589239247
 40
0.161220071477924
 40
0.161220071477924
 40
0.161220071477924
 40
0.2149400260524829
 40
0.2149400260524829
 40
0.2149400260524829
 40
0.2686350104503952
 40
0.2686350104503952
 40
0.2686350104503952
 40
0.3223091702621959
 40
0.3223091702621959
 40
0.3223091702621959
 40
0.3759757739021948
 40
0.3759757739021948
 40
0.3759757739021948
 40
0.4296513864708849
 40
0.4296513864708849
 40
0.4296513864708849
 40
0.4833486224773762
 40
0.4833486224773762
 40
0.4833486224773762
 40
0.5370706328996356
 40
0.5370706328996356
 40
0.5370706328996356
 40
0.5908097179799839
 40
0.5908097179799839
 40
0.5908097179799839
 40
0.6445506840242364
 40
0.6445506840242364
 40
0.6445506840242364
 40
0.6982775017933743
 40
0.6982775017933743
 40
0.6982775017933743
 40
0.7519803496605928
 40
0.7519803496605928
 40
0.7519803496605928
 40
0.8056599259455272
 40
0.8056599259455272
 40
0.8056599259455272
 40
0.8593271270054914
 40
0.8593271270054914
 40
0.8593271270054914
 40
0.912998256200027
 40
0.912998256200027
 40
0.912998256200027
 40
0.9666878881282093
 40
0.9666878881282093
 40
0.9666878881282093
 40
1.0
 40
1.0
 40
1.0
 40
1.0
 10
216.1484777167248
 20
252.0618748315712
 30
0.0
 10
216.147231492658
 20
252.0918030381437
 30
0.0
 10
216.1459133945658
 20
252.1272310170601
 30
0.0
 10
216.1446303336051
 20
252.1652233771952
 30
0.0
 10
216.1433472736802
 20
252.2032157066596
 30
0.0
 10
216.1420650231166
 20
252.2448212362716
 30
0.0
 10
216.1408897957535
 20
252.2865945452592
 30
0.0
 10
216.1397146382963
 20
252.3283653694478
 30
0.0
 10
216.1386140669493
 20
252.3714566336368
 30
0.0
 10
216.1376793412539
 20
252.4122972839282
 30
0.0
 10
216.1367449306837
 20
252.4531241655629
 30
0.0
 10
216.1359504711267
 20
252.4928286701042
 30
0.0
 10
216.1353618961663
 20
252.5281186092371
 30
0.0
 10
216.1347735912725
 20
252.5633923556416
 30
0.0
 10
216.1343747517173
 20
252.5952289043937
 30
0.0
 10
216.1341984889666
 20
252.6209886296863
 30
0.0
 10
216.1340222930683
 20
252.6467385849175
 30
0.0
 10
216.134063643458
 20
252.667126688765
 30
0.0
 10
216.1343191083869
 20
252.6804643411055
 30
0.0
 10
216.1345745392372
 20
252.6938002142229
 30
0.0
 10
216.1350510642893
 20
252.7004554373543
 30
0.0
 10
216.1357091694196
 20
252.6998812058198
 30
0.0
 10
216.136367386983
 20
252.6993068761815
 30
0.0
 10
216.13722538294
 20
252.6914850719621
 30
0.0
 10
216.1382120821143
 20
252.6770660954154
 30
0.0
 10
216.1391991760959
 20
252.6626413494124
 30
0.0
 10
216.1403422794903
 20
252.6412167663531
 30
0.0
 10
216.1415467673374
 20
252.6145673251454
 30
0.0
 10
216.1427518021925
 20
252.5879057813172
 30
0.0
 10
216.1440514988449
 20
252.5552796379807
 30
0.0
 10
216.145338284495
 20
252.5193898110699
 30
0.0
 10
216.1466254680937
 20
252.4834888849442
 30
0.0
 10
216.1479352344663
 20
252.4433320200806
 30
0.0
 10
216.1491591242061
 20
252.4022441396592
 30
0.0
 10
216.1503830492393
 20
252.3611550743825
 30
0.0
 10
216.1515548612088
 20
252.3180011557211
 30
0.0
 10
216.1525774383356
 20
252.2763578155137
 30
0.0
 10
216.1535997451822
 20
252.2347254821704
 30
0.0
 10
216.1545011053715
 20
252.1934539752071
 30
0.0
 10
216.1552067469395
 20
252.1559649904563
 30
0.0
 10
216.1559120768923
 20
252.11849256104
 30
0.0
 10
216.1564413217972
 20
252.0837652597428
 30
0.0
 10
216.1567505576547
 20
252.0546627020718
 30
0.0
 10
216.1570596620215
 20
252.0255725191473
 30
0.0
 10
216.1571574720541
 20
252.00129973603
 30
0.0
 10
216.1570358713622
 20
251.9838556537124
 30
0.0
 10
216.1569142977131
 20
251.9664154508045
 30
0.0
 10
216.1565700631819
 20
251.9553198055094
 30
0.0
 10
216.1560317124583
 20
251.9514858453173
 30
0.0
 10
216.1554933198548
 20
251.9476515868701
 30
0.0
 10
216.1547459460116
 20
251.950974171634
 30
0.0
 10
216.1538515055441
 20
251.9611756798403
 30
0.0
 10
216.1529567575799
 20
251.9713806951888
 30
0.0
 10
216.1518901848035
 20
251.9887503980129
 30
0.0
 10
216.150740076473
 20
252.0118449336108
 30
0.0
 10
216.1500202233043
 20
252.0262998107638
 30
0.0
 10
216.1492569970838
 20
252.043160328955
 30
0.0
 10
216.1484777167248
 20
252.0618748315712
 30
0.0
  0
LINE
  5
8A
330
75
100
AcDbEntity
  8
$DDT_AUDIT_GENERATED_(82)
  6
Continuous
 62
     7
100
AcDbLine
 10
216.1982148859
 20
250.6509027266
 30
0.0
 11
216.1849371405
 21
251.4008776849
 31
0.0
  0
SPLINE
  5
8B
330
75
100
AcDbEntity
  8
$DDT_AUDIT_GENERATED_(82)
  6
Continuous
 62
     7
100
AcDbSpline
210
0.0
220
0.0
230
1.0
 70
    11
 71
     3
 72
    62
 73
    58
 74
     0
 42
0.0000000066356669
 43
0.0000000001
 40
0.0
 40
0.0
 40
0.0
 40
0.0
 40
0.0537513774142208
 40
0.0537513774142208
 40
0.0537513774142208
 40
0.1075020713623091
 40
0.1075020713623091
 40
0.1075020713623091
 40
0.1612611707955717
 40
0.1612611707955717
 40
0.1612611707955717
 40
0.2150087973015583
 40
0.2150087973015583
 40
0.2150087973015583
 40
0.2687259769177291
 40
0.2687259769177291
 40
0.2687259769177291
 40
0.32240710963738
 40
0.32240710963738
 40
0.32240710963738
 40
0.3760624149963166
 40
0.3760624149963166
 40
0.3760624149963166
 40
0.4297134123967133
 40
0.4297134123967133
 40
0.4297134123967133
 40
0.4833834809343622
 40
0.4833834809343622
 40
0.4833834809343622
 40
0.5370876485638604
 40
0.5370876485638604
 40
0.5370876485638604
 40
0.5908260286686824
 40
0.5908260286686824
 40
0.5908260286686824
 40
0.6445837446919758
 40
0.6445837446919758
 40
0.6445837446919758
 40
0.6983374172822658
 40
0.6983374172822658
 40
0.6983374172822658
 40
0.7520654237803766
 40
0.7520654237803766
 40
0.7520654237803766
 40
0.8057574137226027
 40
0.8057574137226027
 40
0.8057574137226027
 40
0.8594188476432693
 40
0.8594188476432693
 40
0.8594188476432693
 40
0.9130685639423088
 40
0.9130685639423088
 40
0.9130685639423088
 40
0.9667305018369301
 40
0.9667305018369301
 40
0.9667305018369301
 40
1.0
 40
1.0
 40
1.0
 40
1.0
 10
216.1214556076142
 20
253.3624173726895
 30
0.0
 10
216.1200952734922
 20
253.3923055064595
 30
0.0
 10
216.1185884897063
 20
253.4277006058784
 30
0.0
 10
216.1170600436494
 20
253.4656695154192
 30
0.0
 10
216.1155316103983
 20
253.5036381068415
 30
0.0
 10
216.1139393718852
 20
253.5452277733357
 30
0.0
 10
216.1124151454124
 20
253.5869954399759
 30
0.0
 10
216.1108906939961
 20
253.6287692706386
 30
0.0
 10
216.1093922143257
 20
253.6718737932403
 30
0.0
 10
216.108043897558
 20
253.7127376763435
 30
0.0
 10
216.1066958750813
 20
253.7535926402717
 30
0.0
 10
216.1054607476031
 20
253.7933355917943
 30
0.0
 10
216.1044410307177
 20
253.8286698646402
 30
0.0
 10
216.1034218880117
 20
253.8639842415634
 30
0.0
 10
216.1025897885023
 20
253.8958696260011
 30
0.0
 10
216.1020138703792
 20
253.9216792952722
 30
0.0
 10
216.1014383328714
 20
253.9474719073393
 30
0.0
 10
216.1011027592369
 20
253.9679085644786
 30
0.0
 10
216.1010350378507
 20
253.9812936520657
 30
0.0
 10
216.1009673482035
 20
253.994672466469
 30
0.0
 10
216.1011653876755
 20
254.0013754761449
 30
0.0
 10
216.1016127098499
 20
254.0008486615232
 30
0.0
 10
216.1020600002596
 20
254.0003218843111
 30
0.0
 10
216.1027688555874
 20
253.9925521363782
 30
0.0
 10
216.1036804873494
 20
253.9781859817716
 30
0.0
 10
216.1045924450344
 20
253.9638146910332
 30
0.0
 10
216.1057324420379
 20
253.9424466324972
 30
0.0
 10
216.1070060640672
 20
253.9158530632852
 30
0.0
 10
216.108280487566
 20
253.8892427591756
 30
0.0
 10
216.1097238177845
 20
253.8566672719523
 30
0.0
 10
216.1112166172305
 20
253.8208231374897
 30
0.0
 10
216.1127103504665
 20
253.7849565814689
 30
0.0
 10
216.1142947946049
 20
253.7448285103991
 30
0.0
 10
216.1158388248463
 20
253.7037600169989
 30
0.0
 10
216.117383392199
 20
253.6626772373793
 30
0.0
 10
216.1189301247819
 20
253.6195200432812
 30
0.0
 10
216.1203508998531
 20
253.577862880818
 30
0.0
 10
216.1217715579144
 20
253.5362091490889
 30
0.0
 10
216.1231054847071
 20
253.4949055904547
 30
0.0
 10
216.1242420353953
 20
253.4573771366043
 30
0.0
 10
216.1253780443381
 20
253.4198665709709
 30
0.0
 10
216.1263482179095
 20
253.3850921347728
 30
0.0
 10
216.1270719894568
 20
253.3559400013486
 30
0.0
 10
216.1277952819221
 20
253.3268071644267
 30
0.0
 10
216.1282924564265
 20
253.3024852147022
 30
0.0
 10
216.128522207165
 20
253.284992759754
 30
0.0
 10
216.1287518299845
 20
253.2675100441384
 30
0.0
 10
216.1287206637767
 20
253.2563668550374
 30
0.0
 10
216.1284312966517
 20
253.2524861558851
 30
0.0
 10
216.1281419895852
 20
253.2486062621776
 30
0.0
 10
216.1275866227256
 20
253.2518785761805
 30
0.0
 10
216.1268112603413
 20
253.2620292374383
 30
0.0
 10
216.1260357177838
 20
253.2721822574348
 30
0.0
 10
216.1250187169899
 20
253.2894962309648
 30
0.0
 10
216.1238444956907
 20
253.3125348835921
 30
0.0
 10
216.1231101050142
 20
253.3269438980607
 30
0.0
 10
216.1223050068356
 20
253.3437550770497
 30
0.0
 10
216.1214556076142
 20
253.3624173726895
 30
0.0
  0
SPLINE
  5
8C
330
75
100
AcDbEntity
  8
$DDT_AUDIT_GENERATED_(82)
  6
Continuous
 62
     7
100
AcDbSpline
210
0.0
220
0.0
230
1.0
 70
    11
 71
     3
 72
    62
 73
    58
 74
     0
 42
0.0000000066283403
 43
0.0000000001
 40
0.0
 40
0.0
 40
0.0
 40
0.0
 40
0.0537317703848617
 40
0.0537317703848617
 40
0.0537317703848617
 40
0.1074611715113526
 40
0.1074611715113526
 40
0.1074611715113526
 40
0.1612240509931901
 40
0.1612240509931901
 40
0.1612240509931901
 40
0.2150081646732451
 40
0.2150081646732451
 40
0.2150081646732451
 40
0.2687785199934217
 40
0.2687785199934217
 40
0.2687785199934217
 40
0.3225061333136265
 40
0.3225061333136265
 40
0.3225061333136265
 40
0.3761808134920433
 40
0.3761808134920433
 40
0.3761808134920433
 40
0.4298156193625086
 40
0.4298156193625086
 40
0.4298156193625086
 40
0.4834410495320959
 40
0.4834410495320959
 40
0.4834410495320959
 40
0.5370916477455532
 40
0.5370916477455532
 40
0.5370916477455532
 40
0.5907909356524409
 40
0.5907909356524409
 40
0.5907909356524409
 40
0.6445411606846047
 40
0.6445411606846047
 40
0.6445411606846047
 40
0.6983222631400458
 40
0.6983222631400458
 40
0.6983222631400458
 40
0.7521005920968565
 40
0.7521005920968565
 40
0.7521005920968565
 40
0.805843671494454
 40
0.805843671494454
 40
0.805843671494454
 40
0.8595345181655977
 40
0.8595345181655977
 40
0.8595345181655977
 40
0.91317910185471
 40
0.91317910185471
 40
0.91317910185471
 40
0.9668036477060797
 40
0.9668036477060797
 40
0.9668036477060797
 40
1.0
 40
1.0
 40
1.0
 40
1.0
 10
216.0815482304901
 20
254.6134491588733
 30
0.0
 10
216.0803341934363
 20
254.6368366364113
 30
0.0
 10
216.0788574186053
 20
254.6665681820379
 30
0.0
 10
216.0772403966454
 20
254.7001756957383
 30
0.0
 10
216.0756234179631
 20
254.7337823099734
 30
0.0
 10
216.073821644259
 20
254.7721909595292
 30
0.0
 10
216.0719841563594
 20
254.8122228788172
 30
0.0
 10
216.0701455431409
 20
254.8522793145521
 30
0.0
 10
216.0682204790919
 20
254.8950654005176
 30
0.0
 10
216.0663682626599
 20
254.9370405510207
 30
0.0
 10
216.0645153452516
 20
254.9790315871343
 30
0.0
 10
216.062684205804
 20
255.0213697218707
 30
0.0
 10
216.0610266324351
 20
255.06054615473
 30
0.0
 10
216.0593694964862
 20
255.0997122492499
 30
0.0
 10
216.0578400898982
 20
255.1367995808187
 30
0.0
 10
216.0565654613376
 20
255.1687286401155
 30
0.0
 10
216.0552918409785
 20
255.200632444271
 30
0.0
 10
216.0542374381191
 20
255.2282669310152
 30
0.0
 10
216.0534899860814
 20
255.2493344481584
 30
0.0
 10
216.0527432598161
 20
255.2703815088396
 30
0.0
 10
216.0522822828333
 20
255.2854552182502
 30
0.0
 10
216.0521454278794
 20
255.2933025786035
 30
0.0
 10
216.0520086720966
 20
255.3011442524123
 30
0.0
 10
216.0521917888661
 20
255.3019865308861
 30
0.0
 10
216.0526795497024
 20
255.2957609229739
 30
0.0
 10
216.0531672322272
 20
255.2895363146019
 30
0.0
 10
216.0539728807901
 20
255.2760750134939
 30
0.0
 10
216.0550296236383
 20
255.256495537085
 30
0.0
 10
216.056086866721
 20
255.2369067922624
 30
0.0
 10
216.0574245420007
 20
255.2106550133113
 30
0.0
 10
216.0589318441899
 20
255.1799155128619
 30
0.0
 10
216.0604405023926
 20
255.1491483582531
 30
0.0
 10
216.0621606376537
 20
255.1130381971051
 30
0.0
 10
216.0639499481688
 20
255.0745727168504
 30
0.0
 10
216.0657409266158
 20
255.03607138044
 30
0.0
 10
216.067650569104
 20
254.9941492276942
 30
0.0
 10
216.0695208959395
 20
254.9522744673288
 30
0.0
 10
216.0713922640225
 20
254.9103763944681
 30
0.0
 10
216.0732758945291
 20
254.8673699721696
 30
0.0
 10
216.0750157600012
 20
254.8268174064029
 30
0.0
 10
216.0767555160667
 20
254.7862673906722
 30
0.0
 10
216.0783995473817
 20
254.747051572104
 30
0.0
 10
216.079811404198
 20
254.7124243108019
 30
0.0
 10
216.081222335757
 20
254.6778197423958
 30
0.0
 10
216.0824403489655
 20
254.6468423152201
 30
0.0
 10
216.0833641725911
 20
254.6220668700769
 30
0.0
 10
216.0842871089855
 20
254.5973152190275
 30
0.0
 10
216.0849418931939
 20
254.5780704502704
 30
0.0
 10
216.0852740410179
 20
254.5659327813126
 30
0.0
 10
216.0856059085668
 20
254.5538053544383
 30
0.0
 10
216.0856248436393
 20
254.5484383575063
 30
0.0
 10
216.0853292715557
 20
254.550276671685
 30
0.0
 10
216.085033805057
 20
254.5521143291768
 30
0.0
 10
216.0844159281135
 20
254.5612024057578
 30
0.0
 10
216.0835269390353
 20
254.5767847582808
 30
0.0
 10
216.0829717636618
 20
254.5865159671263
 30
0.0
 10
216.0823049081165
 20
254.5988723542076
 30
0.0
 10
216.0815482304901
 20
254.6134491588733
 30
0.0
  0
SPLINE
  5
8D
330
75
100
AcDbEntity
  8
$DDT_AUDIT_GENERATED_(82)
  6
Continuous
 62
     7
100
AcDbSpline
210
0.0
220
0.0
230
1.0
 70
    11
 71
     3
 72
    62
 73
    58
 74
     0
 42
0.0000000066252532
 43
0.0000000001
 40
0.0
 40
0.0
 40
0.0
 40
0.0
 40
0.0537654133164969
 40
0.0537654133164969
 40
0.0537654133164969
 40
0.1075289787359884
 40
0.1075289787359884
 40
0.1075289787359884
 40
0.1613173983656602
 40
0.1613173983656602
 40
0.1613173983656602
 40
0.2151044752948397
 40
0.2151044752948397
 40
0.2151044752948397
 40
0.2688538802217416
 40
0.2688538802217416
 40
0.2688538802217416
 40
0.3225458398749466
 40
0.3225458398749466
 40
0.3225458398749466
 40
0.376185840790535
 40
0.376185840790535
 40
0.376185840790535
 40
0.4298021355483175
 40
0.4298021355483175
 40
0.4298021355483175
 40
0.4834332838645329
 40
0.4834332838645329
 40
0.4834332838645329
 40
0.5371113070766576
 40
0.5371113070766576
 40
0.5371113070766576
 40
0.5908477506879384
 40
0.5908477506879384
 40
0.5908477506879384
 40
0.6446286107945852
 40
0.6446286107945852
 40
0.6446286107945852
 40
0.698420370558635
 40
0.698420370558635
 40
0.698420370558635
 40
0.7521846623512637
 40
0.7521846623512637
 40
0.7521846623512637
 40
0.8058951749070575
 40
0.8058951749070575
 40
0.8058951749070575
 40
0.8595492509240209
 40
0.8595492509240209
 40
0.8595492509240209
 40
0.9131689844990456
 40
0.9131689844990456
 40
0.9131689844990456
 40
0.9667914393921593
 40
0.9667914393921593
 40
0.9667914393921593
 40
1.0
 40
1.0
 40
1.0
 40
1.0
 10
216.0640930815376
 20
254.613248651916
 30
0.0
 10
216.0625228385393
 20
254.6366118614509
 30
0.0
 10
216.0607262938433
 20
254.6663272698955
 30
0.0
 10
216.0588515574262
 20
254.6999281264745
 30
0.0
 10
216.0569768623947
 20
254.7335282413006
 30
0.0
 10
216.0549727133641
 20
254.7719404072956
 30
0.0
 10
216.0530049369528
 20
254.8119855448115
 30
0.0
 10
216.0510362786957
 20
254.8520486282886
 30
0.0
 10
216.0490497164167
 20
254.8948514416411
 30
0.0
 10
216.0472098099291
 20
254.9368494648355
 30
0.0
 10
216.045369973229
 20
254.9788458950477
 30
0.0
 10
216.0436259946063
 20
255.0211970868187
 30
0.0
 10
216.0421226742805
 20
255.0603895849601
 30
0.0
 10
216.0406204075764
 20
255.099554614524
 30
0.0
 10
216.0393169860922
 20
255.1366469768621
 30
0.0
 10
216.0383208603427
 20
255.1685847158445
 30
0.0
 10
216.0373257870006
 20
255.2004887125898
 30
0.0
 10
216.0366098961418
 20
255.2281298093365
 30
0.0
 10
216.0362328127483
 20
255.2492109107928
 30
0.0
 10
216.0358560868796
 20
255.270272024588
 30
0.0
 10
216.0358071291733
 20
255.2853668027956
 30
0.0
 10
216.036090015022
 20
255.2932438778428
 30
0.0
 10
216.0363727810227
 20
255.3011176156709
 30
0.0
 10
216.0369948843628
 20
255.3019972600401
 30
0.0
 10
216.0379046338216
 20
255.2958143730796
 30
0.0
 10
216.0388146434878
 20
255.2896297176845
 30
0.0
 10
216.0400375038556
 20
255.2762087655911
 30
0.0
 10
216.0414718419198
 20
255.2566677641346
 30
0.0
 10
216.0429074276004
 20
255.2371097655172
 30
0.0
 10
216.0445943756727
 20
255.2108829497262
 30
0.0
 10
216.0463930948426
 20
255.1801599396987
 30
0.0
 10
216.0481937436901
 20
255.1494039698294
 30
0.0
 10
216.0501560084728
 20
255.1132949571641
 30
0.0
 10
216.0521176027827
 20
255.0748202711985
 30
0.0
 10
216.0540807790217
 20
255.0363145572971
 30
0.0
 10
216.0560974205193
 20
254.9943774521923
 30
0.0
 10
216.058000582985
 20
254.9524802772002
 30
0.0
 10
216.0599041009201
 20
254.9105752767253
 30
0.0
 10
216.061746633777
 20
254.8675534872162
 30
0.0
 10
216.0633753425055
 20
254.8269818941949
 30
0.0
 10
216.065003211952
 20
254.7864312079217
 30
0.0
 10
216.0664624231568
 20
254.7472083459801
 30
0.0
 10
216.0676316720181
 20
254.7125710246483
 30
0.0
 10
216.0687997614035
 20
254.6779680511255
 30
0.0
 10
216.0697107088125
 20
254.646986053478
 30
0.0
 10
216.0702886864591
 20
254.6222001513759
 30
0.0
 10
216.070866067278
 20
254.5974398435349
 30
0.0
 10
216.0711270991272
 20
254.5781794541195
 30
0.0
 10
216.0710500556729
 20
254.5660175970708
 30
0.0
 10
216.070973060018
 20
254.553863285521
 30
0.0
 10
216.0705563001836
 20
254.5484632128214
 30
0.0
 10
216.0698344127121
 20
254.5502615066887
 30
0.0
 10
216.069112479547
 20
254.5520599143832
 30
0.0
 10
216.0680655152539
 20
254.5611065398257
 30
0.0
 10
216.0667803394044
 20
254.5766468789341
 30
0.0
 10
216.0659774280078
 20
254.5863556790038
 30
0.0
 10
216.0650715213062
 20
254.5986907182994
 30
0.0
 10
216.0640930815376
 20
254.613248651916
 30
0.0
  0
LINE
  5
8E
330
75
100
AcDbEntity
  8
$DDT_AUDIT_GENERATED_(82)
  6
Continuous
 62
     7
100
AcDbLine
 10
216.1357971035
 20
253.2508863187
 30
0.0
 11
216.1092298263
 21
254.0008413052
 31
0.0
  0
ARC
  5
8F
330
75
100
AcDbEntity
  8
$DDT_AUDIT_GENERATED_(82)
  6
Continuous
 62
     7
100
AcDbCircle
 10
69.3341965775
 20
248.4258782395
 30
0.0
 40
146.880872226493
100
AcDbArc
 50
2.1731371511
 51
15.5482962311
  0
ARC
  5
90
330
75
100
AcDbEntity
  8
$DDT_AUDIT_GENERATED_(82)
  6
Continuous
 62
     7
100
AcDbCircle
 10
69.3341965775
 20
248.4258782395
 30
0.0
 40
146.880872226493
100
AcDbArc
 50
1.160367241
 51
1.883422151
  0
ARC
  5
91
330
75
100
AcDbEntity
  8
$DDT_AUDIT_GENERATED_(82)
  6
Continuous
 62
     7
100
AcDbCircle
 10
69.3341965775
 20
248.4258782395
 30
0.0
 40
146.880872226493
100
AcDbArc
 50
0.1462814071
 51
0.8696949227
  0
ARC
  5
92
330
75
100
AcDbEntity
  8
$DDT_AUDIT_GENERATED_(82)
  6
Continuous
 62
     7
100
AcDbCircle
 10
69.3341965775
 20
248.4258782395
 30
0.0
 40
146.880872226493
100
AcDbArc
 50
344.4517037689
 51
359.8537185929
  0
ARC
  5
93
330
75
100
AcDbEntity
  8
$DDT_AUDIT_GENERATED_(82)
  6
Continuous
 62
     7
100
AcDbCircle
 10
209.8765361278
 20
209.3224298585
 30
0.0
 40
1.0
100
AcDbArc
 50
309.6824916848
 51
344.4517037689
  0
ARC
  5
94
330
75
100
AcDbEntity
  8
$DDT_AUDIT_GENERATED_(82)
  6
Continuous
 62
     7
100
AcDbCircle
 10
209.8765361278
 20
287.5293266205
 30
0.0
 40
0.9999999999999842
100
AcDbArc
 50
15.5482962311
 51
50.3175083151
  0
LINE
  5
95
330
75
100
AcDbEntity
  8
$DDT_AUDIT_GENERATED_(82)
  6
Continuous
 62
     7
100
AcDbLine
 10
216.1094147448
 20
254.0008782395
 30
0.0
 11
216.1092285176
 21
254.0008782395
 31
0.0
  0
ENDBLK
  5
97
330
75
100
AcDbEntity
  8
0
100
AcDbBlockEnd
  0
BLOCK
  5
D1
330
98
100
AcDbEntity
  8
0
100
AcDbBlockBegin
  2
SE1
 70
     0
 10
0.0
 20
0.0
 30
0.0
  3
SE1
  1

  0
LINE
  5
9A
330
98
100
AcDbEntity
  8
$DDT_AUDIT_GENERATED_(77)
  6
Continuous
 62
     7
100
AcDbLine
 10
157.227788711
 20
131.5978889432
 30
0.0
 11
158.0619018092
 21
131.5978889432
 31
0.0
  0
LINE
  5
9B
330
98
100
AcDbEntity
  8
$DDT_AUDIT_GENERATED_(77)
  6
Continuous
 62
     7
100
AcDbLine
 10
157.2277887105
 20
131.597888943
 30
0.0
 11
33.2279131299
 21
131.597888943
 31
0.0
  0
LINE
  5
9C
330
98
100
AcDbEntity
  8
$DDT_AUDIT_GENERATED_(77)
  6
Continuous
 62
     7
100
AcDbLine
 10
32.3937378226
 20
131.5978889432
 30
0.0
 11
33.2279131299
 21
131.5978889432
 31
0.0
  0
ARC
  5
9D
330
98
100
AcDbEntity
  8
$DDT_AUDIT_GENERATED_(77)
  6
Continuous
 62
     7
100
AcDbCircle
 10
32.3937190967
 20
132.0978889429
 30
0.0
 40
0.499999999999995
100
AcDbArc
 50
181.0000000139
 51
270.0021458278
  0
ARC
  5
9E
330
98
100
AcDbEntity
  8
$DDT_AUDIT_GENERATED_(77)
  6
Continuous
 62
     7
100
AcDbCircle
 10
158.0619205351
 20
132.0978889429
 30
0.0
 40
0.5000000000000132
100
AcDbArc
 50
269.9978541722
 51
358.9999999861
  0
LINE
  5
9F
330
98
100
AcDbEntity
  8
$DDT_AUDIT_GENERATED_(77)
  6
Continuous
 62
     7
100
AcDbLine
 10
157.2278198159
 20
141.5978889429
 30
0.0
 11
33.2278198129
 21
141.5978889429
 31
0.0
  0
LINE
  5
A0
330
98
100
AcDbEntity
  8
$DDT_AUDIT_GENERATED_(77)
  6
Continuous
 62
     7
100
AcDbLine
 10
33.2278198129
 20
141.5978889429
 30
0.0
 11
31.7278198159
 21
141.5978889429
 31
0.0
  0
LINE
  5
A1
330
98
100
AcDbEntity
  8
$DDT_AUDIT_GENERATED_(77)
  6
Continuous
 62
     7
100
AcDbLine
 10
31.8937952492
 20
132.0891627395
 30
0.0
 11
31.7278198159
 21
141.5978889429
 31
0.0
  0
LINE
  5
A2
330
98
100
AcDbEntity
  8
$DDT_AUDIT_GENERATED_(77)
  6
Continuous
 62
     7
100
AcDbLine
 10
158.7278198159
 20
141.5978889429
 30
0.0
 11
158.5618443826
 21
132.0891627395
 31
0.0
  0
LINE
  5
A3
330
98
100
AcDbEntity
  8
$DDT_AUDIT_GENERATED_(77)
  6
Continuous
 62
     7
100
AcDbLine
 10
158.7278198159
 20
141.5978889429
 30
0.0
 11
157.2278198159
 21
141.5978889429
 31
0.0
  0
LINE
  5
A4
330
98
100
AcDbEntity
  8
$DDT_AUDIT_GENERATED_(82)
  6
Continuous
 62
     7
100
AcDbLine
 10
94.1028185842
 20
125.9021973571
 30
0.0
 11
93.3528425163
 21
125.9098568054
 31
0.0
  0
SPLINE
  5
A5
330
98
100
AcDbEntity
  8
$DDT_AUDIT_GENERATED_(82)
  6
Continuous
 62
     7
100
AcDbSpline
210
0.0
220
0.0
230
1.0
 70
    11
 71
     3
 72
    62
 73
    58
 74
     0
 42
0.000000006624671
 43
0.0000000001
 40
0.0
 40
0.0
 40
0.0
 40
0.0
 40
0.0537084870597576
 40
0.0537084870597576
 40
0.0537084870597576
 40
0.1074169867116669
 40
0.1074169867116669
 40
0.1074169867116669
 40
0.1611251747658818
 40
0.1611251747658818
 40
0.1611251747658818
 40
0.2148313628654627
 40
0.2148313628654627
 40
0.2148313628654627
 40
0.2685347829067982
 40
0.2685347829067982
 40
0.2685347829067982
 40
0.3222358801187485
 40
0.3222358801187485
 40
0.3222358801187485
 40
0.3759361177339826
 40
0.3759361177339826
 40
0.3759361177339826
 40
0.4296373355487785
 40
0.4296373355487785
 40
0.4296373355487785
 40
0.4833409437224483
 40
0.4833409437224483
 40
0.4833409437224483
 40
0.5370473049327095
 40
0.5370473049327095
 40
0.5370473049327095
 40
0.5907555753763509
 40
0.5907555753763509
 40
0.5907555753763509
 40
0.6444640744000991
 40
0.6444640744000991
 40
0.6444640744000991
 40
0.6981710210803169
 40
0.6981710210803169
 40
0.6981710210803169
 40
0.7518753149346896
 40
0.7518753149346896
 40
0.7518753149346896
 40
0.8055770182743349
 40
0.8055770182743349
 40
0.8055770182743349
 40
0.8592773286722509
 40
0.8592773286722509
 40
0.8592773286722509
 40
0.9129780539342482
 40
0.9129780539342482
 40
0.9129780539342482
 40
0.9666808199669628
 40
0.9666808199669628
 40
0.9666808199669628
 40
1.0
 40
1.0
 40
1.0
 40
1.0
 10
94.2115054224777
 20
125.905051990015
 30
0.0
 10
94.18195480642608
 20
125.9054665318578
 30
0.0
 10
94.15714353585992
 20
125.9059056319339
 30
0.0
 10
94.13912618218757
 20
125.9063329361231
 30
0.0
 10
94.12110882729709
 20
125.9067602403412
 30
0.0
 10
94.10938844707377
 20
125.9071875304576
 30
0.0
 10
94.1049357882081
 20
125.9075794210175
 30
0.0
 10
94.10048315765792
 20
125.9079713090853
 30
0.0
 10
94.10317537051517
 20
125.9083386072266
 30
0.0
 10
94.11278979297563
 20
125.908650894325
 30
0.0
 10
94.12240385817239
 20
125.908963169819
 30
0.0
 10
94.13920483377589
 20
125.9092290516677
 30
0.0
 10
94.16180159588963
 20
125.9094265161613
 30
0.0
 10
94.18439720819511
 20
125.9096239706071
 30
0.0
 10
94.2134112811095
 20
125.9097584608309
 30
0.0
 10
94.246441097429
 20
125.9098188461632
 30
0.0
 10
94.27946951641528
 20
125.909879228941
 30
0.0
 10
94.31742431727005
 20
125.909867178594
 30
0.0
 10
94.35716234631407
 20
125.9097836932938
 30
0.0
 10
94.39689977197193
 20
125.9097002092613
 30
0.0
 10
94.43951633975257
 20
125.9095429901669
 30
0.0
 10
94.48148305287233
 20
125.9093250577547
 30
0.0
 10
94.52345054618462
 20
125.9091071212909
 30
0.0
 10
94.56592560287544
 20
125.9088224589904
 30
0.0
 10
94.60539122228322
 20
125.9084946453845
 30
0.0
 10
94.64485858672411
 20
125.9081668172838
 30
0.0
 10
94.68240473894427
 20
125.907786793005
 30
0.0
 10
94.71492093289392
 20
125.9073860417502
 30
0.0
 10
94.74743876774859
 20
125.9069852702718
 30
0.0
 10
94.77582298318575
 20
125.9065527165239
 30
0.0
 10
94.79772333154528
 20
125.9061241986379
 30
0.0
 10
94.8196244375862
 20
125.9056956659264
 30
0.0
 10
94.83564527639258
 20
125.905259349915
 30
0.0
 10
94.8444590694665
 20
125.9048513818093
 30
0.0
 10
94.85327289398217
 20
125.9044434122482
 30
0.0
 10
94.85512270126557
 20
125.9040525380644
 30
0.0
 10
94.84985500808682
 20
125.9037111302699
 30
0.0
 10
94.844587467807
 20
125.903369732385
 30
0.0
 10
94.83205751412724
 20
125.9030683813395
 30
0.0
 10
94.81330252145905
 20
125.9028320363285
 30
0.0
 10
94.7945484458605
 20
125.9025957028741
 30
0.0
 10
94.76905262699286
 20
125.9024178504444
 30
0.0
 10
94.7389263726786
 20
125.9023132102368
 30
0.0
 10
94.70880154447195
 20
125.9022085749826
 30
0.0
 10
94.67321581115633
 20
125.902174258955
 30
0.0
 10
94.63511615549707
 20
125.902213104436
 30
0.0
 10
94.59701745353979
 20
125.9022519489446
 30
0.0
 10
94.55535416887781
 20
125.9023650224869
 30
0.0
 10
94.5135764394651
 20
125.9025429602829
 30
0.0
 10
94.47179836569005
 20
125.9027208995457
 30
0.0
 10
94.42875362081642
 20
125.9029686113985
 30
0.0
 10
94.3880064595809
 20
125.903265582367
 30
0.0
 10
94.34725775387432
 20
125.9035625645918
 30
0.0
 10
94.3076829796647
 20
125.9039170000485
 30
0.0
 10
94.27255887026026
 20
125.9042995396072
 30
0.0
 10
94.25057520778863
 20
125.9045389654796
 30
0.0
 10
94.22999878411903
 20
125.9047925615076
 30
0.0
 10
94.2115054224777
 20
125.905051990015
 30
0.0
  0
SPLINE
  5
A6
330
98
100
AcDbEntity
  8
$DDT_AUDIT_GENERATED_(82)
  6
Continuous
 62
     7
100
AcDbSpline
210
0.0
220
0.0
230
1.0
 70
    11
 71
     3
 72
    62
 73
    58
 74
     0
 42
0.0000000066240956
 43
0.0000000001
 40
0.0
 40
0.0
 40
0.0
 40
0.0
 40
0.0537104000476624
 40
0.0537104000476624
 40
0.0537104000476624
 40
0.107421176682886
 40
0.107421176682886
 40
0.107421176682886
 40
0.1611263109377568
 40
0.1611263109377568
 40
0.1611263109377568
 40
0.2148234352395393
 40
0.2148234352395393
 40
0.2148234352395393
 40
0.2685157604670093
 40
0.2685157604670093
 40
0.2685157604670093
 40
0.3222085996306513
 40
0.3222085996306513
 40
0.3222085996306513
 40
0.3759070393407575
 40
0.3759070393407575
 40
0.3759070393407575
 40
0.4296137124540305
 40
0.4296137124540305
 40
0.4296137124540305
 40
0.4833276447408058
 40
0.4833276447408058
 40
0.4833276447408058
 40
0.537044680198354
 40
0.537044680198354
 40
0.537044680198354
 40
0.5907593013808179
 40
0.5907593013808179
 40
0.5907593013808179
 40
0.644467048841017
 40
0.644467048841017
 40
0.644467048841017
 40
0.6981664772138375
 40
0.6981664772138375
 40
0.6981664772138375
 40
0.7518597878512605
 40
0.7518597878512605
 40
0.7518597878512605
 40
0.8055518618118933
 40
0.8055518618118933
 40
0.8055518618118933
 40
0.8592481204796258
 40
0.8592481204796258
 40
0.8592481204796258
 40
0.9129521519114859
 40
0.9129521519114859
 40
0.9129521519114859
 40
0.966664139782532
 40
0.966664139782532
 40
0.966664139782532
 40
1.0
 40
1.0
 40
1.0
 40
1.0
 10
92.7110316093428
 20
125.9231037027105
 30
0.0
 10
92.68153484579287
 20
125.9238197704999
 30
0.0
 10
92.65678665487816
 20
125.9245117863266
 30
0.0
 10
92.63883696338813
 20
125.925122440041
 30
0.0
 10
92.62088719864077
 20
125.9257330962476
 30
0.0
 10
92.60924098103555
 20
125.9262792324722
 30
0.0
 10
92.60486397069567
 20
125.9267155973253
 30
0.0
 10
92.60048741935886
 20
125.9271519164181
 30
0.0
 10
92.60325790172402
 20
125.9274905222633
 30
0.0
 10
92.61294677045287
 20
125.9277033509376
 30
0.0
 10
92.62263421931512
 20
125.9279161484226
 30
0.0
 10
92.63950526264125
 20
125.9280090751684
 30
0.0
 10
92.66216280152702
 20
125.9279744293816
 30
0.0
 10
92.68481837868411
 20
125.9279397865945
 30
0.0
 10
92.71388426251747
 20
125.9277766387464
 30
0.0
 10
92.74695323271742
 20
125.9274985046383
 30
0.0
 10
92.78002257759431
 20
125.9272203673788
 30
0.0
 10
92.81800699950765
 20
125.9268195725898
 30
0.0
 10
92.85776121047067
 20
125.9263293199765
 30
0.0
 10
92.89751956631589
 20
125.9258390162482
 30
0.0
 10
92.94014440234976
 20
125.9252457170661
 30
0.0
 10
92.98210685053127
 20
125.9245985531032
 30
0.0
 10
93.02407565600632
 20
125.9239512910952
 30
0.0
 10
93.06653921650704
 20
125.9232322994833
 30
0.0
 10
93.10598215265752
 20
125.9225011083732
 30
0.0
 10
93.14543030922935
 20
125.9217698204872
 30
0.0
 10
93.18294499385222
 20
125.9210061614472
 30
0.0
 10
93.21541993560258
 20
125.9202733635068
 30
0.0
 10
93.2478966703195
 20
125.919540525108
 30
0.0
 10
93.27622887905937
 20
125.9188183372824
 30
0.0
 10
93.29806963655484
 20
125.9181666126121
 30
0.0
 10
93.3199093864353
 20
125.9175149180089
 30
0.0
 10
93.33586068190922
 20
125.916915702904
 30
0.0
 10
93.3446012852189
 20
125.9164186100579
 30
0.0
 10
93.35334077616324
 20
125.915921580474
 30
0.0
 10
93.35511242800409
 20
125.9155129364884
 30
0.0
 10
93.34976852263966
 20
125.9152265403371
 30
0.0
 10
93.34442543279185
 20
125.9149401878918
 30
0.0
 10
93.33182153347485
 20
125.9147681472922
 30
0.0
 10
93.31300034126998
 20
125.9147246752684
 30
0.0
 10
93.2941812392619
 20
125.9146812080725
 30
0.0
 10
93.26862718708247
 20
125.914765081464
 30
0.0
 10
93.23845459238697
 20
125.9149693461099
 30
0.0
 10
93.20828262645485
 20
125.9151736064991
 30
0.0
 10
93.17266028332897
 20
125.9155038849447
 30
0.0
 10
93.13453745586835
 20
125.9159328242826
 30
0.0
 10
93.09641163594338
 20
125.9163617972903
 30
0.0
 10
93.05473363543142
 20
125.9169012746443
 30
0.0
 10
93.01295410401661
 20
125.9175065843676
 30
0.0
 10
92.97116858013798
 20
125.9181119809108
 30
0.0
 10
92.92812923715495
 20
125.9187999223789
 30
0.0
 10
92.88739908380005
 20
125.919513452364
 30
0.0
 10
92.84666300301177
 20
125.9202270861888
 30
0.0
 10
92.80711335232509
 20
125.9209859967442
 30
0.0
 10
92.77202462336763
 20
125.921727348785
 30
0.0
 10
92.75005598083708
 20
125.9221915006212
 30
0.0
 10
92.72949974551724
 20
125.9226553675086
 30
0.0
 10
92.7110316093428
 20
125.9231037027105
 30
0.0
  0
LINE
  5
A7
330
98
100
AcDbEntity
  8
$DDT_AUDIT_GENERATED_(82)
  6
Continuous
 62
     7
100
AcDbLine
 10
95.6028198159
 20
125.898367648
 30
0.0
 11
94.8528198159
 21
125.898367648
 31
0.0
  0
SPLINE
  5
A8
330
98
100
AcDbEntity
  8
$DDT_AUDIT_GENERATED_(82)
  6
Continuous
 62
     7
100
AcDbSpline
210
0.0
220
0.0
230
1.0
 70
    11
 71
     3
 72
    62
 73
    58
 74
     0
 42
0.0000000066358164
 43
0.0000000001
 40
0.0
 40
0.0
 40
0.0
 40
0.0
 40
0.0537193298292296
 40
0.0537193298292296
 40
0.0537193298292296
 40
0.1074389207373463
 40
0.1074389207373463
 40
0.1074389207373463
 40
0.1611542552357199
 40
0.1611542552357199
 40
0.1611542552357199
 40
0.2148591955401614
 40
0.2148591955401614
 40
0.2148591955401614
 40
0.2685535229119265
 40
0.2685535229119265
 40
0.2685535229119265
 40
0.3222416710861722
 40
0.3222416710861722
 40
0.3222416710861722
 40
0.3759307794622967
 40
0.3759307794622967
 40
0.3759307794622967
 40
0.4296275646586823
 40
0.4296275646586823
 40
0.4296275646586823
 40
0.4833353803586863
 40
0.4833353803586863
 40
0.4833353803586863
 40
0.5370527483197699
 40
0.5370527483197699
 40
0.5370527483197699
 40
0.5907740031382295
 40
0.5907740031382295
 40
0.5907740031382295
 40
0.6444917733144967
 40
0.6444917733144967
 40
0.6444917733144967
 40
0.698200214446603
 40
0.698200214446603
 40
0.698200214446603
 40
0.7518975735756163
 40
0.7518975735756163
 40
0.7518975735756163
 40
0.8055869558931149
 40
0.8055869558931149
 40
0.8055869558931149
 40
0.859274959895669
 40
0.859274959895669
 40
0.859274959895669
 40
0.9129687852925942
 40
0.9129687852925942
 40
0.9129687852925942
 40
0.9666730817892327
 40
0.9666730817892327
 40
0.9666730817892327
 40
1.0
 40
1.0
 40
1.0
 40
1.0
 10
93.41424765185056
 20
125.9286037469974
 30
0.0
 10
93.39122506050657
 20
125.9294603999018
 30
0.0
 10
93.37394648028872
 20
125.9303373437228
 30
0.0
 10
93.3638429768996
 20
125.9311619603346
 30
0.0
 10
93.35373944671987
 20
125.931986579133
 30
0.0
 10
93.35053242230924
 20
125.9327816165874
 30
0.0
 10
93.3544886323197
 20
125.9334812114439
 30
0.0
 10
93.35844452313798
 20
125.9341807498561
 30
0.0
 10
93.36967176406192
 20
125.9348041584669
 30
0.0
 10
93.38724163539338
 20
125.9352997682898
 30
0.0
 10
93.4048081381202
 20
125.9357952830914
 30
0.0
 10
93.42919955679841
 20
125.936176716994
 30
0.0
 10
93.45839615877213
 20
125.9364124477437
 30
0.0
 10
93.4875870935592
 20
125.936648132737
 30
0.0
 10
93.52238659634521
 20
125.9367446721585
 30
0.0
 10
93.5599124594464
 20
125.9366940627109
 30
0.0
 10
93.59743414298528
 20
125.9366434589
 30
0.0
 10
93.63871640206403
 20
125.9364443447017
 30
0.0
 10
93.68034061366376
 20
125.9361132221336
 30
0.0
 10
93.72196566424873
 20
125.9357820928914
 30
0.0
 10
93.76508049677723
 20
125.9353098212688
 30
0.0
 10
93.80611584750928
 20
125.9347355303889
 30
0.0
 10
93.84715705942969
 20
125.9341611574816
 30
0.0
 10
93.8872498649444
 20
125.933468900757
 30
0.0
 10
93.9230760277953
 20
125.932716083983
 30
0.0
 10
93.95890946017862
 20
125.931963114454
 30
0.0
 10
93.99146264998747
 20
125.9311287981905
 30
0.0
 10
94.01804135990574
 20
125.9302822094484
 30
0.0
 10
94.04462469685049
 20
125.9294354733257
 30
0.0
 10
94.06596460259723
 20
125.9285531084042
 30
0.0
 10
94.08029412858231
 20
125.927708173997
 30
0.0
 10
94.09462464304578
 20
125.9268631813046
 30
0.0
 10
94.10233902192986
 20
125.9260323161575
 30
0.0
 10
94.10279745742687
 20
125.9252843963323
 30
0.0
 10
94.10325586249844
 20
125.9245365261449
 30
0.0
 10
94.09647180867171
 20
125.9238509590678
 30
0.0
 10
94.08300590929372
 20
125.9232845013881
 30
0.0
 10
94.0695423346346
 20
125.9227181415002
 30
0.0
 10
94.04902767326024
 20
125.9222552260281
 30
0.0
 10
94.02316032793675
 20
125.9219341236271
 30
0.0
 10
93.99729823949791
 20
125.9216130864819
 30
0.0
 10
93.96537216369934
 20
125.9214249491241
 30
0.0
 10
93.93002627031187
 20
125.9213853060363
 30
0.0
 10
93.8946854923123
 20
125.9213456686857
 30
0.0
 10
93.85495114820525
 20
125.9214533884868
 30
0.0
 10
93.8141139197903
 20
125.9216995386722
 30
0.0
 10
93.7732776227234
 20
125.9219456832439
 30
0.0
 10
93.73021238464278
 20
125.9223370377547
 30
0.0
 10
93.68848372746481
 20
125.9228411834835
 30
0.0
 10
93.6467505185422
 20
125.9233453842042
 30
0.0
 10
93.60520343108465
 20
125.9239763015209
 30
0.0
 10
93.56728127204883
 20
125.9246816926652
 30
0.0
 10
93.52935178777734
 20
125.9253872200666
 30
0.0
 10
93.49400272975963
 20
125.9261867033716
 30
0.0
 10
93.46415961881806
 20
125.927013955889
 30
0.0
 10
93.44547753706888
 20
125.9275318241229
 30
0.0
 10
93.42865607330653
 20
125.9280676207245
 30
0.0
 10
93.41424765185056
 20
125.9286037469974
 30
0.0
  0
SPLINE
  5
A9
330
98
100
AcDbEntity
  8
$DDT_AUDIT_GENERATED_(82)
  6
Continuous
 62
     7
100
AcDbSpline
210
0.0
220
0.0
230
1.0
 70
    11
 71
     3
 72
    62
 73
    58
 74
     0
 42
0.0000000066176241
 43
0.0000000001
 40
0.0
 40
0.0
 40
0.0
 40
0.0
 40
0.053726949072891
 40
0.053726949072891
 40
0.053726949072891
 40
0.107453375544324
 40
0.107453375544324
 40
0.107453375544324
 40
0.1611866511063096
 40
0.1611866511063096
 40
0.1611866511063096
 40
0.214917175095992
 40
0.214917175095992
 40
0.214917175095992
 40
0.2686334909243445
 40
0.2686334909243445
 40
0.2686334909243445
 40
0.3223303755118648
 40
0.3223303755118648
 40
0.3223303755118648
 40
0.3760111304053943
 40
0.3760111304053943
 40
0.3760111304053943
 40
0.4296861239113318
 40
0.4296861239113318
 40
0.4296861239113318
 40
0.4833682403903221
 40
0.4833682403903221
 40
0.4833682403903221
 40
0.5370672411048497
 40
0.5370672411048497
 40
0.5370672411048497
 40
0.590785495481134
 40
0.590785495481134
 40
0.590785495481134
 40
0.6445169388389326
 40
0.6445169388389326
 40
0.6445169388389326
 40
0.698249719760088
 40
0.698249719760088
 40
0.698249719760088
 40
0.7519713940777758
 40
0.7519713940777758
 40
0.7519713940777758
 40
0.8056743896291443
 40
0.8056743896291443
 40
0.8056743896291443
 40
0.8593593293311329
 40
0.8593593293311329
 40
0.8593593293311329
 40
0.9130347483950078
 40
0.9130347483950078
 40
0.9130347483950078
 40
0.9667133443911741
 40
0.9667133443911741
 40
0.9667133443911741
 40
1.0
 40
1.0
 40
1.0
 40
1.0
 10
94.2107612043922
 20
125.9464178858785
 30
0.0
 10
94.18128611091875
 20
125.9473624285056
 30
0.0
 10
94.15657119188798
 20
125.9484277504201
 30
0.0
 10
94.13866027022546
 20
125.9495275221997
 30
0.0
 10
94.12074948284086
 20
125.9506272857343
 30
0.0
 10
94.10914923966023
 20
125.9517908327461
 30
0.0
 10
94.1048195406481
 20
125.9529218325862
 30
0.0
 10
94.10048931033113
 20
125.9540529712132
 30
0.0
 10
94.10331206306381
 20
125.9551827564993
 30
0.0
 10
94.11305523124643
 20
125.9562176075973
 30
0.0
 10
94.12279786469719
 20
125.9572524018999
 30
0.0
 10
94.13972917658347
 20
125.958220821721
 30
0.0
 10
94.1624484467944
 20
125.9590425878482
 30
0.0
 10
94.18516172378989
 20
125.9598641371981
 30
0.0
 10
94.21428685188295
 20
125.9605617767854
 30
0.0
 10
94.24741199610546
 20
125.9610776353978
 30
0.0
 10
94.2805253125824
 20
125.9615933098165
 30
0.0
 10
94.31854952501222
 20
125.9619415587947
 30
0.0
 10
94.35833466561591
 20
125.9620934866196
 30
0.0
 10
94.39810812030052
 20
125.9622453698193
 30
0.0
 10
94.44073859052475
 20
125.9622052376878
 30
0.0
 10
94.48269512076747
 20
125.9619764192872
 30
0.0
 10
94.52464738789129
 20
125.9617476241364
 30
0.0
 10
94.56708270716102
 20
125.9613238763861
 30
0.0
 10
94.60648828513452
 20
125.9607403036132
 30
0.0
 10
94.64589918211593
 20
125.9601566520689
 30
0.0
 10
94.68336611025775
 20
125.959397047089
 30
0.0
 10
94.71578959773109
 20
125.9585244088591
 30
0.0
 10
94.74822321308774
 20
125.9576514980496
 30
0.0
 10
94.77650447192255
 20
125.9566414225913
 30
0.0
 10
94.79829467298418
 20
125.9555778029484
 30
0.0
 10
94.8200925637858
 20
125.9545138079552
 30
0.0
 10
94.83599588872754
 20
125.9533668947611
 30
0.0
 10
94.84468915224691
 20
125.9522320019617
 30
0.0
 10
94.8533844921926
 20
125.9510968380879
 30
0.0
 10
94.85510606996198
 20
125.9499423912758
 30
0.0
 10
94.84971058919031
 20
125.9488642600755
 30
0.0
 10
94.84431499981207
 20
125.9477861071733
 30
0.0
 10
94.83165301070065
 20
125.9467545284473
 30
0.0
 10
94.81277164281524
 20
125.9458550065417
 30
0.0
 10
94.79389419225024
 20
125.9449556712601
 30
0.0
 10
94.76827883207035
 20
125.944163524424
 30
0.0
 10
94.73804625649662
 20
125.9435442524621
 30
0.0
 10
94.70782408483518
 20
125.9429251936097
 30
0.0
 10
94.67215383187433
 20
125.9424618115533
 30
0.0
 10
94.63399028958156
 20
125.9421925447109
 30
0.0
 10
94.5958393367287
 20
125.9419233666946
 30
0.0
 10
94.55414425379928
 20
125.9418407500823
 30
0.0
 10
94.51235888905079
 20
125.9419515472329
 30
0.0
 10
94.47058067039232
 20
125.9420623254351
 30
0.0
 10
94.42756004433201
 20
125.9423695028959
 30
0.0
 10
94.38685898205978
 20
125.9428476159551
 30
0.0
 10
94.3461553666055
 20
125.9433257590065
 30
0.0
 10
94.30664933688514
 20
125.9439880367647
 30
0.0
 10
94.2716096800461
 20
125.9447795900767
 30
0.0
 10
94.24969038462677
 20
125.9452747516294
 30
0.0
 10
94.22918320443966
 20
125.9458275446015
 30
0.0
 10
94.2107612043922
 20
125.9464178858785
 30
0.0
  0
SPLINE
  5
AA
330
98
100
AcDbEntity
  8
$DDT_AUDIT_GENERATED_(82)
  6
Continuous
 62
     7
100
AcDbSpline
210
0.0
220
0.0
230
1.0
 70
    11
 71
     3
 72
    62
 73
    58
 74
     0
 42
0.0000000066169636
 43
0.0000000001
 40
0.0
 40
0.0
 40
0.0
 40
0.0
 40
0.0537409188157389
 40
0.0537409188157389
 40
0.0537409188157389
 40
0.1074819589239247
 40
0.1074819589239247
 40
0.1074819589239247
 40
0.161220071477924
 40
0.161220071477924
 40
0.161220071477924
 40
0.2149400260524829
 40
0.2149400260524829
 40
0.2149400260524829
 40
0.2686350104503952
 40
0.2686350104503952
 40
0.2686350104503952
 40
0.3223091702621959
 40
0.3223091702621959
 40
0.3223091702621959
 40
0.3759757739021948
 40
0.3759757739021948
 40
0.3759757739021948
 40
0.4296513864708849
 40
0.4296513864708849
 40
0.4296513864708849
 40
0.4833486224773762
 40
0.4833486224773762
 40
0.4833486224773762
 40
0.5370706328996356
 40
0.5370706328996356
 40
0.5370706328996356
 40
0.5908097179799839
 40
0.5908097179799839
 40
0.5908097179799839
 40
0.6445506840242364
 40
0.6445506840242364
 40
0.6445506840242364
 40
0.6982775017933743
 40
0.6982775017933743
 40
0.6982775017933743
 40
0.7519803496605928
 40
0.7519803496605928
 40
0.7519803496605928
 40
0.8056599259455272
 40
0.8056599259455272
 40
0.8056599259455272
 40
0.8593271270054914
 40
0.8593271270054914
 40
0.8593271270054914
 40
0.912998256200027
 40
0.912998256200027
 40
0.912998256200027
 40
0.9666878881282093
 40
0.9666878881282093
 40
0.9666878881282093
 40
1.0
 40
1.0
 40
1.0
 40
1.0
 10
92.71054647528213
 20
125.9644800302922
 30
0.0
 10
92.68109213187907
 20
125.965726254359
 30
0.0
 10
92.65640314900558
 20
125.9670443524512
 30
0.0
 10
92.63852178176728
 20
125.9683274134119
 30
0.0
 10
92.62064042896428
 20
125.9696104733368
 30
0.0
 10
92.60907437730816
 20
125.9708927239004
 30
0.0
 10
92.60478303534543
 20
125.9720679512635
 30
0.0
 10
92.60049194864433
 20
125.9732431087207
 30
0.0
 10
92.60335656802184
 20
125.9743436800677
 30
0.0
 10
92.61314246323712
 20
125.9752784057631
 30
0.0
 10
92.62292505932199
 20
125.9762128163333
 30
0.0
 10
92.63989451158398
 20
125.9770072758903
 30
0.0
 10
92.66264710152002
 20
125.9775958508507
 30
0.0
 10
92.68538925146902
 20
125.9781841557445
 30
0.0
 10
92.71453693011696
 20
125.9785829952997
 30
0.0
 10
92.74767594272538
 20
125.9787592580504
 30
0.0
 10
92.7808023864815
 20
125.9789354539487
 30
0.0
 10
92.81883092316937
 20
125.978894103559
 30
0.0
 10
92.85861149987515
 20
125.9786386386301
 30
0.0
 10
92.89838676991067
 20
125.9783832077798
 30
0.0
 10
92.9410103058879
 20
125.9779066827277
 30
0.0
 10
92.9829533627496
 20
125.9772485775975
 30
0.0
 10
93.0249035853231
 20
125.976590360034
 30
0.0
 10
93.06732947608819
 20
125.975732364077
 30
0.0
 10
93.10672114803728
 20
125.9747456649027
 30
0.0
 10
93.14612858175217
 20
125.9737585709211
 30
0.0
 10
93.18358566893436
 20
125.9726154675267
 30
0.0
 10
93.21599477222516
 20
125.9714109796796
 30
0.0
 10
93.24841859383857
 20
125.9702059448245
 30
0.0
 10
93.27668381801794
 20
125.9689062481721
 30
0.0
 10
93.29845211476612
 20
125.9676194625221
 30
0.0
 10
93.32022714353344
 20
125.9663322789233
 30
0.0
 10
93.33610170946412
 20
125.9650225125507
 30
0.0
 10
93.34476042718079
 20
125.9637986228109
 30
0.0
 10
93.35341939458976
 20
125.9625746977777
 30
0.0
 10
93.35510077418886
 20
125.9614028858082
 30
0.0
 10
93.34966261762786
 20
125.9603803086814
 30
0.0
 10
93.34422589844075
 20
125.9593580018348
 30
0.0
 10
93.33152308356038
 20
125.9584566416455
 30
0.0
 10
93.31260398477784
 20
125.9577510000776
 30
0.0
 10
93.29369324076971
 20
125.9570456701246
 30
0.0
 10
93.26804964732979
 20
125.9565164252198
 30
0.0
 10
93.23779667713126
 20
125.9562071893623
 30
0.0
 10
93.20755657084793
 20
125.9558980849955
 30
0.0
 10
93.17187669879142
 20
125.9558002749629
 30
0.0
 10
93.13371274300208
 20
125.9559218756549
 30
0.0
 10
93.09555727453912
 20
125.9560434493039
 30
0.0
 10
93.05386666498818
 20
125.9563876838351
 30
0.0
 10
93.01209315473356
 20
125.9569260345587
 30
0.0
 10
92.97031639479358
 20
125.9574644271622
 30
0.0
 10
92.92730506679304
 20
125.9582118010054
 30
0.0
 10
92.88661823499103
 20
125.9591062414729
 30
0.0
 10
92.84591741559977
 20
125.960000989437
 30
0.0
 10
92.80642077036515
 20
125.9610675622135
 30
0.0
 10
92.77139479018405
 20
125.962217670544
 30
0.0
 10
92.74947201808357
 20
125.9629375237127
 30
0.0
 10
92.72896466500352
 20
125.9637007499332
 30
0.0
 10
92.71054647528213
 20
125.9644800302922
 30
0.0
  0
SPLINE
  5
AB
330
98
100
AcDbEntity
  8
$DDT_AUDIT_GENERATED_(82)
  6
Continuous
 62
     7
100
AcDbSpline
210
0.0
220
0.0
230
1.0
 70
    11
 71
     3
 72
    62
 73
    58
 74
     0
 42
0.0000000066220683
 43
0.0000000001
 40
0.0
 40
0.0
 40
0.0
 40
0.0
 40
0.0537106126668536
 40
0.0537106126668536
 40
0.0537106126668536
 40
0.1074208870708473
 40
0.1074208870708473
 40
0.1074208870708473
 40
0.1611358622308146
 40
0.1611358622308146
 40
0.1611358622308146
 40
0.2148528461308759
 40
0.2148528461308759
 40
0.2148528461308759
 40
0.2685663321498736
 40
0.2685663321498736
 40
0.2685663321498736
 40
0.3222723465269937
 40
0.3222723465269937
 40
0.3222723465269937
 40
0.3759701917740378
 40
0.3759701917740378
 40
0.3759701917740378
 40
0.4296627515966394
 40
0.4296627515966394
 40
0.4296627515966394
 40
0.4833552249576678
 40
0.4833552249576678
 40
0.4833552249576678
 40
0.5370528474032052
 40
0.5370528474032052
 40
0.5370528474032052
 40
0.5907585983935217
 40
0.5907585983935217
 40
0.5907585983935217
 40
0.6444718963321852
 40
0.6444718963321852
 40
0.6444718963321852
 40
0.6981888519399136
 40
0.6981888519399136
 40
0.6981888519399136
 40
0.7519039714738233
 40
0.7519039714738233
 40
0.7519039714738233
 40
0.8056125655609354
 40
0.8056125655609354
 40
0.8056125655609354
 40
0.8593128061923869
 40
0.8593128061923869
 40
0.8593128061923869
 40
0.9130065273532654
 40
0.9130065273532654
 40
0.9130065273532654
 40
0.9666984189923996
 40
0.9666984189923996
 40
0.9666984189923996
 40
1.0
 40
1.0
 40
1.0
 40
1.0
 10
94.96131173036002
 20
125.9167107972924
 30
0.0
 10
94.931781208186
 20
125.9172389329865
 30
0.0
 10
94.90699537176792
 20
125.9178646108707
 30
0.0
 10
94.88900606489241
 20
125.9185360093886
 30
0.0
 10
94.8710168274149
 20
125.9192074053165
 30
0.0
 10
94.85932781744819
 20
125.9199430372374
 30
0.0
 10
94.85490630663989
 20
125.9206819963219
 30
0.0
 10
94.85048441705523
 20
125.9214210187106
 30
0.0
 10
94.85320932000913
 20
125.922183751557
 30
0.0
 10
94.86285551388994
 20
125.9229070362637
 30
0.0
 10
94.87250204572001
 20
125.9236303463103
 30
0.0
 10
94.88933651530985
 20
125.9243341568909
 30
0.0
 10
94.9119653674865
 20
125.9249601698981
 30
0.0
 10
94.9345927275888
 20
125.925586141628
 30
0.0
 10
94.96363799935403
 20
125.9261515934989
 30
0.0
 10
94.9966960450727
 20
125.9266096717189
 30
0.0
 10
95.02974952813672
 20
125.9270676867152
 30
0.0
 10
95.06772656763086
 20
125.9274309917738
 30
0.0
 10
95.1074817512331
 20
125.9276694762341
 30
0.0
 10
95.14723098753238
 20
125.9279079250176
 30
0.0
 10
95.18985431385417
 20
125.9280281676581
 30
0.0
 10
95.23182146229387
 20
125.9280202382853
 30
0.0
 10
95.27378459900274
 20
125.9280123096705
 30
0.0
 10
95.3162490671698
 20
125.9278760156022
 30
0.0
 10
95.35569845204901
 20
125.9276226500761
 30
0.0
 10
95.39514784914188
 20
125.9273692844717
 30
0.0
 10
95.43267009901798
 20
125.9269918616963
 30
0.0
 10
95.46515903134929
 20
125.9265216466098
 30
0.0
 10
95.49765108463164
 20
125.9260513863534
 30
0.0
 10
95.52600489303839
 20
125.9254753497285
 30
0.0
 10
95.5478739695408
 20
125.9248412392047
 30
0.0
 10
95.56974632007736
 20
125.9242070337478
 30
0.0
 10
95.58573519941648
 20
125.9234972487806
 30
0.0
 10
95.59451760615678
 20
125.922770652488
 30
0.0
 10
95.603301222761
 20
125.9220439560995
 30
0.0
 10
95.60511862308581
 20
125.9212804022788
 30
0.0
 10
95.5998194160552
 20
125.9205432135237
 30
0.0
 10
95.59451986222204
 20
125.9198059765239
 30
0.0
 10
95.58195653335753
 20
125.9190747730326
 30
0.0
 10
95.56316931518458
 20
125.9184101604645
 30
0.0
 10
95.54438276504412
 20
125.9177455715285
 30
0.0
 10
95.51885443862288
 20
125.9171292360131
 30
0.0
 10
95.48869804729569
 20
125.9166122134986
 30
0.0
 10
95.45854530430901
 20
125.9160952535337
 30
0.0
 10
95.42293372927722
 20
125.9156633220332
 30
0.0
 10
95.38481267815305
 20
125.9153522103944
 30
0.0
 10
95.34669747372534
 20
125.9150411464713
 30
0.0
 10
95.30502211420568
 20
125.9148422849907
 30
0.0
 10
95.26323842539894
 20
125.914772105397
 30
0.0
 10
95.22145968931804
 20
125.9147019341218
 30
0.0
 10
95.17842030239206
 20
125.9147584783262
 30
0.0
 10
95.13768457329138
 20
125.9149370529142
 30
0.0
 10
95.09695013750604
 20
125.9151156218326
 30
0.0
 10
95.05739580712373
 20
125.9154211367942
 30
0.0
 10
95.02229631326284
 20
125.9158282909336
 30
0.0
 10
95.00033513446157
 20
125.9160830406144
 30
0.0
 10
94.97978215283777
 20
125.916380464854
 30
0.0
 10
94.96131173036002
 20
125.9167107972924
 30
0.0
  0
SPLINE
  5
AC
330
98
100
AcDbEntity
  8
$DDT_AUDIT_GENERATED_(82)
  6
Continuous
 62
     7
100
AcDbSpline
210
0.0
220
0.0
230
1.0
 70
    11
 71
     3
 72
    62
 73
    58
 74
     0
 42
0.0000000066112051
 43
0.0000000001
 40
0.0
 40
0.0
 40
0.0
 40
0.0
 40
0.0537513774142208
 40
0.0537513774142208
 40
0.0537513774142208
 40
0.1075020713623091
 40
0.1075020713623091
 40
0.1075020713623091
 40
0.1612611707955717
 40
0.1612611707955717
 40
0.1612611707955717
 40
0.2150087973015583
 40
0.2150087973015583
 40
0.2150087973015583
 40
0.2687259769177291
 40
0.2687259769177291
 40
0.2687259769177291
 40
0.32240710963738
 40
0.32240710963738
 40
0.32240710963738
 40
0.3760624149963166
 40
0.3760624149963166
 40
0.3760624149963166
 40
0.4297134123967133
 40
0.4297134123967133
 40
0.4297134123967133
 40
0.4833834809343622
 40
0.4833834809343622
 40
0.4833834809343622
 40
0.5370876485638604
 40
0.5370876485638604
 40
0.5370876485638604
 40
0.5908260286686824
 40
0.5908260286686824
 40
0.5908260286686824
 40
0.6445837446919758
 40
0.6445837446919758
 40
0.6445837446919758
 40
0.6983374172822658
 40
0.6983374172822658
 40
0.6983374172822658
 40
0.7520654237803766
 40
0.7520654237803766
 40
0.7520654237803766
 40
0.8057574137226027
 40
0.8057574137226027
 40
0.8057574137226027
 40
0.8594188476432693
 40
0.8594188476432693
 40
0.8594188476432693
 40
0.9130685639423088
 40
0.9130685639423088
 40
0.9130685639423088
 40
0.9667305018369301
 40
0.9667305018369301
 40
0.9667305018369301
 40
1.0
 40
1.0
 40
1.0
 40
1.0
 10
93.46096145395069
 20
125.9915021394028
 30
0.0
 10
93.43145383959829
 20
125.9928624735248
 30
0.0
 10
93.40670591130252
 20
125.9943692573107
 30
0.0
 10
93.38876500511354
 20
125.9958977033676
 30
0.0
 10
93.37082424924054
 20
125.9974261366187
 30
0.0
 10
93.35919534601447
 20
125.9990183751318
 30
0.0
 10
93.35484109278491
 20
126.0005426016046
 30
0.0
 10
93.35048619695985
 20
126.0020670530209
 30
0.0
 10
93.35328819764058
 20
126.0035655326913
 30
0.0
 10
93.36301789946657
 20
126.004913849459
 30
0.0
 10
93.37274547763452
 20
126.0062618719357
 30
0.0
 10
93.38966664592213
 20
126.0074969994139
 30
0.0
 10
93.41238272743082
 20
126.0085167162993
 30
0.0
 10
93.43508601803245
 20
126.0095358590053
 30
0.0
 10
93.46420475028368
 20
126.0103679585147
 30
0.0
 10
93.497327439847
 20
126.0109438766378
 30
0.0
 10
93.53042823914637
 20
126.0115194141456
 30
0.0
 10
93.5684413191658
 20
126.0118549877801
 30
0.0
 10
93.60821678696979
 20
126.0119227091663
 30
0.0
 10
93.64797361322088
 20
126.0119903988135
 30
0.0
 10
93.69058773718648
 20
126.0117923593415
 30
0.0
 10
93.73252965964494
 20
126.0113450371671
 30
0.0
 10
93.77446860377533
 20
126.0108977467574
 30
0.0
 10
93.81689155605302
 20
126.0101888914296
 30
0.0
 10
93.8562887022322
 20
126.0092772596677
 30
0.0
 10
93.8956999335262
 20
126.0083653019826
 30
0.0
 10
93.93316937464583
 20
126.0072253049791
 30
0.0
 10
93.96560039035477
 20
126.0059516829498
 30
0.0
 10
93.998051814371
 20
126.004677259451
 30
0.0
 10
94.02635293202754
 20
126.0032339292325
 30
0.0
 10
94.04816570203013
 20
126.0017411297865
 30
0.0
 10
94.06999211656064
 20
126.0002473965505
 30
0.0
 10
94.08592382660572
 20
125.9986629524121
 30
0.0
 10
94.09464324582274
 20
125.9971189221707
 30
0.0
 10
94.10336569820524
 20
125.995574354818
 30
0.0
 10
94.10511123693468
 20
125.9940276222351
 30
0.0
 10
94.09973314630174
 20
125.9926068471639
 30
0.0
 10
94.09435549858902
 20
125.9911861891026
 30
0.0
 10
94.08170658335685
 20
125.9898522623099
 30
0.0
 10
94.062830828131
 20
125.9887157116217
 30
0.0
 10
94.04396407017441
 20
125.9875797026789
 30
0.0
 10
94.01835521050822
 20
125.9866095291075
 30
0.0
 10
93.98812415234255
 20
125.9858857575602
 30
0.0
 10
93.95791310484559
 20
125.9851624650949
 30
0.0
 10
93.92225194143592
 20
125.9846652905905
 30
0.0
 10
93.88409550076784
 20
125.984435539852
 30
0.0
 10
93.84596030458847
 20
125.9842059170325
 30
0.0
 10
93.80428055261682
 20
125.9842370832403
 30
0.0
 10
93.76250917844345
 20
125.9845264503653
 30
0.0
 10
93.72074647398212
 20
125.9848157574318
 30
0.0
 10
93.67774076452011
 20
125.9853711242914
 30
0.0
 10
93.63705140907072
 20
125.9861464866757
 30
0.0
 10
93.59635259851687
 20
125.9869220292332
 30
0.0
 10
93.55684951444215
 20
125.9879390300271
 30
0.0
 10
93.52180782282676
 20
125.9891132513263
 30
0.0
 10
93.49989177375663
 20
125.9898476420028
 30
0.0
 10
93.47938615142121
 20
125.9906527401814
 30
0.0
 10
93.46096145395069
 20
125.9915021394028
 30
0.0
  0
SPLINE
  5
AD
330
98
100
AcDbEntity
  8
$DDT_AUDIT_GENERATED_(82)
  6
Continuous
 62
     7
100
AcDbSpline
210
0.0
220
0.0
230
1.0
 70
    11
 71
     3
 72
    62
 73
    58
 74
     0
 42
0.0000000066126959
 43
0.0000000001
 40
0.0
 40
0.0
 40
0.0
 40
0.0
 40
0.0537317703848617
 40
0.0537317703848617
 40
0.0537317703848617
 40
0.1074611715113526
 40
0.1074611715113526
 40
0.1074611715113526
 40
0.1612240509931901
 40
0.1612240509931901
 40
0.1612240509931901
 40
0.2150081646732451
 40
0.2150081646732451
 40
0.2150081646732451
 40
0.2687785199934217
 40
0.2687785199934217
 40
0.2687785199934217
 40
0.3225061333136265
 40
0.3225061333136265
 40
0.3225061333136265
 40
0.3761808134920433
 40
0.3761808134920433
 40
0.3761808134920433
 40
0.4298156193625086
 40
0.4298156193625086
 40
0.4298156193625086
 40
0.4834410495320959
 40
0.4834410495320959
 40
0.4834410495320959
 40
0.5370916477455532
 40
0.5370916477455532
 40
0.5370916477455532
 40
0.5907909356524409
 40
0.5907909356524409
 40
0.5907909356524409
 40
0.6445411606846047
 40
0.6445411606846047
 40
0.6445411606846047
 40
0.6983222631400458
 40
0.6983222631400458
 40
0.6983222631400458
 40
0.7521005920968565
 40
0.7521005920968565
 40
0.7521005920968565
 40
0.805843671494454
 40
0.805843671494454
 40
0.805843671494454
 40
0.8595345181655977
 40
0.8595345181655977
 40
0.8595345181655977
 40
0.91317910185471
 40
0.91317910185471
 40
0.91317910185471
 40
0.9668036477060797
 40
0.9668036477060797
 40
0.9668036477060797
 40
1.0
 40
1.0
 40
1.0
 40
1.0
 10
94.26898206791627
 20
126.0314095165269
 30
0.0
 10
94.23410124826393
 20
126.0326235535807
 30
0.0
 10
94.20278576092107
 20
126.0341003284117
 30
0.0
 10
94.17762547805226
 20
126.0357173503716
 30
0.0
 10
94.15246586856868
 20
126.0373343290539
 30
0.0
 10
94.13276676882428
 20
126.039136102758
 30
0.0
 10
94.120153515235
 20
126.0409735906576
 30
0.0
 10
94.1075325370058
 20
126.0428122038761
 30
0.0
 10
94.10165804481352
 20
126.0447372679251
 30
0.0
 10
94.10301586230452
 20
126.0465894843571
 30
0.0
 10
94.10437419366525
 20
126.0484424017654
 30
0.0
 10
94.11300818771561
 20
126.050273541213
 30
0.0
 10
94.1282063797086
 20
126.0519311145819
 30
0.0
 10
94.14340056102336
 20
126.0535882505308
 30
0.0
 10
94.16557558138062
 20
126.0551176571188
 30
0.0
 10
94.19289778297168
 20
126.0563922856794
 30
0.0
 10
94.22019837333862
 20
126.0576659060385
 30
0.0
 10
94.25339241012124
 20
126.0587203088979
 30
0.0
 10
94.28972969262382
 20
126.0594677609356
 30
0.0
 10
94.32603169179261
 20
126.0602144872009
 30
0.0
 10
94.3664731778749
 20
126.0606754641837
 30
0.0
 10
94.40770146565511
 20
126.0608123191376
 30
0.0
 10
94.44889987759312
 20
126.0609490749204
 30
0.0
 10
94.49202040938948
 20
126.0607659581509
 30
0.0
 10
94.53349116525396
 20
126.0602781973146
 30
0.0
 10
94.57495526286263
 20
126.0597905147898
 30
0.0
 10
94.61591300166356
 20
126.0589848662269
 30
0.0
 10
94.65297757197318
 20
126.0579281233787
 30
0.0
 10
94.69005968768408
 20
126.056870880296
 30
0.0
 10
94.7242666896521
 20
126.0555332050163
 30
0.0
 10
94.75277512953389
 20
126.054025902827
 30
0.0
 10
94.78130921644731
 20
126.0525172446244
 30
0.0
 10
94.80492080210388
 20
126.0507971093633
 30
0.0
 10
94.82166276032065
 20
126.0490077988482
 30
0.0
 10
94.83842032479679
 20
126.0472168204012
 30
0.0
 10
94.84875739331491
 20
126.045307177913
 30
0.0
 10
94.8518205286751
 20
126.0434368510775
 30
0.0
 10
94.85488536934247
 20
126.0415654829945
 30
0.0
 10
94.85075242589475
 20
126.0396818524879
 30
0.0
 10
94.83976124515142
 20
126.0379419870158
 30
0.0
 10
94.82877075555811
 20
126.0362022309503
 30
0.0
 10
94.81061893029354
 20
126.0345581996353
 30
0.0
 10
94.78680547142108
 20
126.033146342819
 30
0.0
 10
94.76300761864415
 20
126.0317354112599
 30
0.0
 10
94.73289781393089
 20
126.0305173980515
 30
0.0
 10
94.69896952857644
 20
126.0295935744259
 30
0.0
 10
94.66507382761327
 20
126.0286706380315
 30
0.0
 10
94.62643081627245
 20
126.0280158538231
 30
0.0
 10
94.58624398689838
 20
126.0276837059991
 30
0.0
 10
94.5460910682254
 20
126.0273518384502
 30
0.0
 10
94.50328899164616
 20
126.0273329033777
 30
0.0
 10
94.46138463942896
 20
126.0276284754613
 30
0.0
 10
94.41949525638212
 20
126.02792394196
 30
0.0
 10
94.37734810521503
 20
126.0285418189035
 30
0.0
 10
94.33843043974264
 20
126.0294308079817
 30
0.0
 10
94.31412628349076
 20
126.0299859833552
 30
0.0
 10
94.29072237290752
 20
126.0306528389005
 30
0.0
 10
94.26898206791627
 20
126.0314095165269
 30
0.0
  0
SPLINE
  5
AE
330
98
100
AcDbEntity
  8
$DDT_AUDIT_GENERATED_(82)
  6
Continuous
 62
     7
100
AcDbSpline
210
0.0
220
0.0
230
1.0
 70
    11
 71
     3
 72
    62
 73
    58
 74
     0
 42
0.0000000066120148
 43
0.0000000001
 40
0.0
 40
0.0
 40
0.0
 40
0.0
 40
0.0537654133164969
 40
0.0537654133164969
 40
0.0537654133164969
 40
0.1075289787359884
 40
0.1075289787359884
 40
0.1075289787359884
 40
0.1613173983656602
 40
0.1613173983656602
 40
0.1613173983656602
 40
0.2151044752948397
 40
0.2151044752948397
 40
0.2151044752948397
 40
0.2688538802217416
 40
0.2688538802217416
 40
0.2688538802217416
 40
0.3225458398749466
 40
0.3225458398749466
 40
0.3225458398749466
 40
0.376185840790535
 40
0.376185840790535
 40
0.376185840790535
 40
0.4298021355483175
 40
0.4298021355483175
 40
0.4298021355483175
 40
0.4834332838645329
 40
0.4834332838645329
 40
0.4834332838645329
 40
0.5371113070766576
 40
0.5371113070766576
 40
0.5371113070766576
 40
0.5908477506879384
 40
0.5908477506879384
 40
0.5908477506879384
 40
0.6446286107945852
 40
0.6446286107945852
 40
0.6446286107945852
 40
0.698420370558635
 40
0.698420370558635
 40
0.698420370558635
 40
0.7521846623512637
 40
0.7521846623512637
 40
0.7521846623512637
 40
0.8058951749070575
 40
0.8058951749070575
 40
0.8058951749070575
 40
0.8595492509240209
 40
0.8595492509240209
 40
0.8595492509240209
 40
0.9131689844990456
 40
0.9131689844990456
 40
0.9131689844990456
 40
0.9667914393921593
 40
0.9667914393921593
 40
0.9667914393921593
 40
1.0
 40
1.0
 40
1.0
 40
1.0
 10
92.76928065374008
 20
126.0488646654794
 30
0.0
 10
92.734363674368
 20
126.0504349084777
 30
0.0
 10
92.70300956106219
 20
126.0522314531737
 30
0.0
 10
92.67781098031175
 20
126.0541061895908
 30
0.0
 10
92.65261295583053
 20
126.0559808846223
 30
0.0
 10
92.63287501899717
 20
126.0579850336529
 30
0.0
 10
92.62022838099085
 20
126.0599528100642
 30
0.0
 10
92.60757607547812
 20
126.0619214683213
 30
0.0
 10
92.60167260612279
 20
126.0639080306003
 30
0.0
 10
92.60300972978524
 20
126.0657479370879
 30
0.0
 10
92.60434680273067
 20
126.067587773788
 30
0.0
 10
92.61296144374259
 20
126.0693317524107
 30
0.0
 10
92.62814568001404
 20
126.0708350727365
 30
0.0
 10
92.64331927421392
 20
126.0723373394406
 30
0.0
 10
92.66547298678867
 20
126.0736407609248
 30
0.0
 10
92.69277468763536
 20
126.0746368866743
 30
0.0
 10
92.72004754422161
 20
126.0756319600164
 30
0.0
 10
92.75321100738863
 20
126.0763478508752
 30
0.0
 10
92.7895167762851
 20
126.0767249342687
 30
0.0
 10
92.8257881225305
 20
126.0771016601374
 30
0.0
 10
92.86619674215683
 20
126.0771506178437
 30
0.0
 10
92.9073937646151
 20
126.076867731995
 30
0.0
 10
92.94857333345101
 20
126.0765849659943
 30
0.0
 10
92.9916758115616
 20
126.0759628626542
 30
0.0
 10
93.03313394536265
 20
126.0750531131954
 30
0.0
 10
93.07460393705458
 20
126.0741431035292
 30
0.0
 10
93.1155711002662
 20
126.0729202431614
 30
0.0
 10
93.15265115187441
 20
126.0714859050972
 30
0.0
 10
93.18976345646614
 20
126.0700503194166
 30
0.0
 10
93.2240042286421
 20
126.0683633713443
 30
0.0
 10
93.25254824084203
 20
126.0665646521744
 30
0.0
 10
93.28112287524105
 20
126.0647640033269
 30
0.0
 10
93.30477597879616
 20
126.0628017385442
 30
0.0
 10
93.32155490717476
 20
126.0608401442342
 30
0.0
 10
93.33834736693122
 20
126.0588769679953
 30
0.0
 10
93.34871746129522
 20
126.0568603264977
 30
0.0
 10
93.3518054167664
 20
126.054957164032
 30
0.0
 10
93.35489394900061
 20
126.0530536460969
 30
0.0
 10
93.35078233588098
 20
126.05121111324
 30
0.0
 10
93.33980578704806
 20
126.0495824045115
 30
0.0
 10
93.32883489448656
 20
126.047954535065
 30
0.0
 10
93.31070248061985
 20
126.0464953238602
 30
0.0
 10
93.28690631647912
 20
126.0453260749989
 30
0.0
 10
93.26313374960488
 20
126.0441579856135
 30
0.0
 10
93.2330516399932
 20
126.0432470382045
 30
0.0
 10
93.19915193285512
 20
126.0426690605579
 30
0.0
 10
93.16528723101767
 20
126.042091679739
 30
0.0
 10
93.12667795867381
 20
126.0418306478898
 30
0.0
 10
93.08652440913008
 20
126.0419076913442
 30
0.0
 10
93.04639577178202
 20
126.041984686999
 30
0.0
 10
93.00361824126068
 20
126.0424014468334
 30
0.0
 10
92.96173404650132
 20
126.043123334305
 30
0.0
 10
92.91984720058646
 20
126.04384526747
 30
0.0
 10
92.87769970227855
 20
126.044892231763
 30
0.0
 10
92.83877529474474
 20
126.0461774076126
 30
0.0
 10
92.81445733823544
 20
126.0469803190092
 30
0.0
 10
92.79103789848125
 20
126.0478862257108
 30
0.0
 10
92.76928065374008
 20
126.0488646654794
 30
0.0
  0
SPLINE
  5
AF
330
98
100
AcDbEntity
  8
$DDT_AUDIT_GENERATED_(82)
  6
Continuous
 62
     7
100
AcDbSpline
210
0.0
220
0.0
230
1.0
 70
    11
 71
     3
 72
    62
 73
    58
 74
     0
 42
0.0000000066212617
 43
0.0000000001
 40
0.0
 40
0.0
 40
0.0
 40
0.0
 40
0.0537110623448292
 40
0.0537110623448292
 40
0.0537110623448292
 40
0.107420506281943
 40
0.107420506281943
 40
0.107420506281943
 40
0.1611531859803292
 40
0.1611531859803292
 40
0.1611531859803292
 40
0.2149057986900161
 40
0.2149057986900161
 40
0.2149057986900161
 40
0.2686572021927798
 40
0.2686572021927798
 40
0.2686572021927798
 40
0.3223867647363316
 40
0.3223867647363316
 40
0.3223867647363316
 40
0.3760834410687803
 40
0.3760834410687803
 40
0.3760834410687803
 40
0.4297506261061869
 40
0.4297506261061869
 40
0.4297506261061869
 40
0.4834046378628208
 40
0.4834046378628208
 40
0.4834046378628208
 40
0.5370675411173639
 40
0.5370675411173639
 40
0.5370675411173639
 40
0.5907574948535302
 40
0.5907574948535302
 40
0.5907574948535302
 40
0.6444808246360778
 40
0.6444808246360778
 40
0.6444808246360778
 40
0.6982292453120955
 40
0.6982292453120955
 40
0.6982292453120955
 40
0.7519834597231854
 40
0.7519834597231854
 40
0.7519834597231854
 40
0.8057216084047186
 40
0.8057216084047186
 40
0.8057216084047186
 40
0.8594288800135439
 40
0.8594288800135439
 40
0.8594288800135439
 40
0.9131040228561141
 40
0.9131040228561141
 40
0.9131040228561141
 40
0.966759870332627
 40
0.966759870332627
 40
0.966759870332627
 40
1.0
 40
1.0
 40
1.0
 40
1.0
 10
95.01838317309188
 20
125.9794250856912
 30
0.0
 10
94.98355933426767
 20
125.9802556202976
 30
0.0
 10
94.95230795283935
 20
125.9813105536733
 30
0.0
 10
94.92721486061345
 20
125.9825023999848
 30
0.0
 10
94.90212222190948
 20
125.9836942247554
 30
0.0
 10
94.88249529787495
 20
125.9850558119394
 30
0.0
 10
94.86995492791772
 20
125.9864744581909
 30
0.0
 10
94.85740920193687
 20
125.9878937103499
 30
0.0
 10
94.85161006810996
 20
125.9894091985859
 30
0.0
 10
94.85303628974667
 20
125.9908955107789
 30
0.0
 10
94.85446302442303
 20
125.9923823576274
 30
0.0
 10
94.86315984886073
 20
125.9938810195526
 30
0.0
 10
94.87840816823507
 20
125.9952673654685
 30
0.0
 10
94.89365603348575
 20
125.9966536700964
 30
0.0
 10
94.91587613516218
 20
125.9979659194053
 30
0.0
 10
94.94323012222583
 20
125.9990952766791
 30
0.0
 10
94.97057299126976
 20
126.0002241749261
 30
0.0
 10
95.0038006431755
 20
126.0012014838242
 30
0.0
 10
95.04016081256542
 20
126.0019460480017
 30
0.0
 10
95.07649898567271
 20
126.0026901617511
 30
0.0
 10
95.11696898419626
 20
126.0032223437527
 30
0.0
 10
95.15821684956157
 20
126.0034983768247
 30
0.0
 10
95.19944252340416
 20
126.0037742613897
 30
0.0
 10
95.24258261126242
 20
126.0038018846126
 30
0.0
 10
95.28406304513015
 20
126.0035789521057
 30
0.0
 10
95.32553372803345
 20
126.0033560720045
 30
0.0
 10
95.36648907264716
 20
126.0028766173582
 30
0.0
 10
95.40353957305118
 20
126.0021803696173
 30
0.0
 10
95.44059639917232
 20
126.0014840030045
 30
0.0
 10
95.47476855675552
 20
126.0005515885761
 30
0.0
 10
95.50323162887518
 20
125.9994603876068
 30
0.0
 10
95.53170897630925
 20
125.9983686393586
 30
0.0
 10
95.55525652207086
 20
125.9970878676106
 30
0.0
 10
95.57192994477201
 20
125.995724088796
 30
0.0
 10
95.58861358263641
 20
125.9943594744467
 30
0.0
 10
95.59887467631539
 20
125.992874138899
 30
0.0
 10
95.60186617867888
 20
125.9913909943058
 30
0.0
 10
95.60485904379264
 20
125.9899071740803
 30
0.0
 10
95.6006581240385
 20
125.9883846251056
 30
0.0
 10
95.58961041337227
 20
125.986949408483
 30
0.0
 10
95.5785616110675
 20
125.9855140500449
 30
0.0
 10
95.5603594864119
 20
125.9841264368592
 30
0.0
 10
95.53650934039445
 20
125.9829015895926
 30
0.0
 10
95.51266638261741
 20
125.981677111485
 30
0.0
 10
95.48252034464456
 20
125.9805815082779
 30
0.0
 10
95.44856744730453
 20
125.9797057063595
 30
0.0
 10
95.41463388687563
 20
125.9788304032293
 30
0.0
 10
95.37596094923721
 20
125.9781504970444
 30
0.0
 10
95.33575340836687
 20
125.9777224563898
 30
0.0
 10
95.29556950158292
 20
125.9772946673386
 30
0.0
 10
95.25274395240004
 20
125.977106645138
 30
0.0
 10
95.2108254583751
 20
125.977174004532
 30
0.0
 10
95.16892156420133
 20
125.9772413404653
 30
0.0
 10
95.12676843874691
 20
125.9775657305266
 30
0.0
 10
95.08785604981719
 20
125.9781202581178
 30
0.0
 10
95.06353745621429
 20
125.9784668143561
 30
0.0
 10
95.04012452377114
 20
125.9789065631865
 30
0.0
 10
95.01838317309188
 20
125.9794250856912
 30
0.0
  0
LINE
  5
B0
330
98
100
AcDbEntity
  8
$DDT_AUDIT_GENERATED_(82)
  6
Continuous
 62
     7
100
AcDbLine
 10
96.3528408699
 20
125.9021975596
 30
0.0
 11
97.102817779
 21
125.9098570164
 31
0.0
  0
SPLINE
  5
B1
330
98
100
AcDbEntity
  8
$DDT_AUDIT_GENERATED_(82)
  6
Continuous
 62
     7
100
AcDbSpline
210
0.0
220
0.0
230
1.0
 70
    11
 71
     3
 72
    62
 73
    58
 74
     0
 42
0.0000000066237373
 43
0.0000000001
 40
0.0
 40
0.0
 40
0.0
 40
0.0
 40
0.0536922904802114
 40
0.0536922904802114
 40
0.0536922904802114
 40
0.1073845483559406
 40
0.1073845483559406
 40
0.1073845483559406
 40
0.1610776656885367
 40
0.1610776656885367
 40
0.1610776656885367
 40
0.2147767071168139
 40
0.2147767071168139
 40
0.2147767071168139
 40
0.2684840403836596
 40
0.2684840403836596
 40
0.2684840403836596
 40
0.3221984010549255
 40
0.3221984010549255
 40
0.3221984010549255
 40
0.375915444294458
 40
0.375915444294458
 40
0.375915444294458
 40
0.4296296475357244
 40
0.4296296475357244
 40
0.4296296475357244
 40
0.4833367323291244
 40
0.4833367323291244
 40
0.4833367323291244
 40
0.5370355415796031
 40
0.5370355415796031
 40
0.5370355415796031
 40
0.590728546258893
 40
0.590728546258893
 40
0.590728546258893
 40
0.6444207603330758
 40
0.6444207603330758
 40
0.6444207603330758
 40
0.6981175428199181
 40
0.6981175428199181
 40
0.6981175428199181
 40
0.7518222508917162
 40
0.7518222508917162
 40
0.7518222508917162
 40
0.8055347696517491
 40
0.8055347696517491
 40
0.8055347696517491
 40
0.85925156118525
 40
0.85925156118525
 40
0.85925156118525
 40
0.9129672135823957
 40
0.9129672135823957
 40
0.9129672135823957
 40
0.9666768136124523
 40
0.9666768136124523
 40
0.9666768136124523
 40
1.0
 40
1.0
 40
1.0
 40
1.0
 10
97.21315387663736
 20
125.9149425802525
 30
0.0
 10
97.18342450126627
 20
125.9147490916366
 30
0.0
 10
97.15839752044367
 20
125.9146766546108
 30
0.0
 10
97.14014559852511
 20
125.9147312733143
 30
0.0
 10
97.12189367959154
 20
125.914785892009
 30
0.0
 10
97.10991342619647
 20
125.9149690710758
 30
0.0
 10
97.10519641189184
 20
125.9152656347618
 30
0.0
 10
97.10047931412561
 20
125.9155622036951
 30
0.0
 10
97.10289554015762
 20
125.9159803383239
 30
0.0
 10
97.11224407253458
 20
125.9164854086046
 30
0.0
 10
97.12159363450066
 20
125.9169905345107
 30
0.0
 10
97.13813476110775
 20
125.9175965432222
 30
0.0
 10
97.16049714526554
 20
125.9182532578824
 30
0.0
 10
97.18286293901845
 20
125.9189100726719
 30
0.0
 10
97.21166849381316
 20
125.9196357212021
 30
0.0
 10
97.24452854663396
 20
125.9203701256451
 30
0.0
 10
97.27739280585368
 20
125.9211046240988
 30
0.0
 10
97.31521899418982
 20
125.9218681379954
 30
0.0
 10
97.3548750136211
 20
125.922597446013
 30
0.0
 10
97.39453291486082
 20
125.9233267886385
 30
0.0
 10
97.43711474948587
 20
125.9240420397298
 30
0.0
 10
97.47909401440722
 20
125.9246839561974
 30
0.0
 10
97.52107101589174
 20
125.9253258380542
 30
0.0
 10
97.56360350870872
 20
125.925912099484
 30
0.0
 10
97.60316823914549
 20
125.9263941643682
 30
0.0
 10
97.64272775999254
 20
125.9268761657776
 30
0.0
 10
97.6804116041374
 20
125.9272672938886
 30
0.0
 10
97.71309775060205
 20
125.9275351327041
 30
0.0
 10
97.74577893832773
 20
125.9278029308862
 30
0.0
 10
97.77436544058887
 20
125.9279548638587
 30
0.0
 10
97.7964891938999
 20
125.9279783390981
 30
0.0
 10
97.81861061907082
 20
125.9280018118671
 30
0.0
 10
97.83488082542507
 20
125.9278975019434
 30
0.0
 10
97.84395270939021
 20
125.9276740532493
 30
0.0
 10
97.85302447874376
 20
125.9274506073781
 30
0.0
 10
97.85514836583951
 20
125.9271018650697
 30
0.0
 10
97.85014938535679
 20
125.9266567166023
 30
0.0
 10
97.84514997751677
 20
125.9262115300795
 30
0.0
 10
97.83288871546566
 20
125.9256576461095
 30
0.0
 10
97.8143816791443
 20
125.9250409342325
 30
0.0
 10
97.79587193821767
 20
125.9244241322296
 30
0.0
 10
97.77060423350919
 20
125.923727475883
 30
0.0
 10
97.74067104327574
 20
125.9230086469952
 30
0.0
 10
97.7107335799545
 20
125.9222897154917
 30
0.0
 10
97.67530367343186
 20
125.9215287781561
 30
0.0
 10
97.63731495187167
 20
125.9207888398214
 30
0.0
 10
97.59932331214009
 20
125.9200488446471
 30
0.0
 10
97.55772454186277
 20
125.9193094409315
 30
0.0
 10
97.51596348972225
 20
125.9186318630671
 30
0.0
 10
97.47420338930046
 20
125.9179543006444
 30
0.0
 10
97.43112902153669
 20
125.9173198707416
 30
0.0
 10
97.3903082763959
 20
125.9167811299595
 30
0.0
 10
97.34949212007221
 20
125.9162424497393
 30
0.0
 10
97.3098030989713
 20
125.9157845774128
 30
0.0
 10
97.27452928949448
 20
125.9154454530532
 30
0.0
 10
97.2524520139635
 20
125.9152332009025
 30
0.0
 10
97.231766872553
 20
125.9150637197911
 30
0.0
 10
97.21315387663736
 20
125.9149425802525
 30
0.0
  0
SPLINE
  5
B2
330
98
100
AcDbEntity
  8
$DDT_AUDIT_GENERATED_(82)
  6
Continuous
 62
     7
100
AcDbSpline
210
0.0
220
0.0
230
1.0
 70
    11
 71
     3
 72
    62
 73
    58
 74
     0
 42
0.000000006624515
 43
0.0000000001
 40
0.0
 40
0.0
 40
0.0
 40
0.0
 40
0.0537024163716069
 40
0.0537024163716069
 40
0.0537024163716069
 40
0.1074047078430125
 40
0.1074047078430125
 40
0.1074047078430125
 40
0.1611088718608732
 40
0.1611088718608732
 40
0.1611088718608732
 40
0.2148157127321361
 40
0.2148157127321361
 40
0.2148157127321361
 40
0.2685241760029609
 40
0.2685241760029609
 40
0.2685241760029609
 40
0.3222324959937629
 40
0.3222324959937629
 40
0.3222324959937629
 40
0.3759389696205416
 40
0.3759389696205416
 40
0.3759389696205416
 40
0.4296427030671034
 40
0.4296427030671034
 40
0.4296427030671034
 40
0.483344003638804
 40
0.483344003638804
 40
0.483344003638804
 40
0.5370442449022005
 40
0.5370442449022005
 40
0.5370442449022005
 40
0.5907452645183807
 40
0.5907452645183807
 40
0.5907452645183807
 40
0.644448558950367
 40
0.644448558950367
 40
0.644448558950367
 40
0.6981546278064499
 40
0.6981546278064499
 40
0.6981546278064499
 40
0.7518627548585279
 40
0.7518627548585279
 40
0.7518627548585279
 40
0.8055713217589471
 40
0.8055713217589471
 40
0.8055713217589471
 40
0.8592785172835403
 40
0.8592785172835403
 40
0.8592785172835403
 40
0.912983131316183
 40
0.912983131316183
 40
0.912983131316183
 40
0.9666850852812467
 40
0.9666850852812467
 40
0.9666850852812467
 40
1.0
 40
1.0
 40
1.0
 40
1.0
 10
95.71234076869604
 20
125.9023290218563
 30
0.0
 10
95.6826981199246
 20
125.9024404509228
 30
0.0
 10
95.65777674849211
 20
125.9026248704507
 30
0.0
 10
95.63964022667714
 20
125.9028670154699
 30
0.0
 10
95.62150372951734
 20
125.90310916016
 30
0.0
 10
95.60965181787189
 20
125.9034157035906
 30
0.0
 10
95.60506554292706
 20
125.9037612608888
 30
0.0
 10
95.60047910831359
 20
125.9041068302173
 30
0.0
 10
95.60303229646809
 20
125.9045009466427
 30
0.0
 10
95.61251341379223
 20
125.9049109758428
 30
0.0
 10
95.62199499552197
 20
125.9053210251269
 30
0.0
 10
95.63866668398228
 20
125.9057582979871
 30
0.0
 10
95.66114788640363
 20
125.9061865858627
 30
0.0
 10
95.68362974698688
 20
125.906614886277
 30
0.0
 10
95.71254155705913
 20
125.9070460143163
 30
0.0
 10
95.74548920505036
 20
125.9074442671037
 30
0.0
 10
95.77843674558122
 20
125.9078425185922
 30
0.0
 10
95.816328895452
 20
125.9082188797242
 30
0.0
 10
95.85602772002778
 20
125.9085421791867
 30
0.0
 10
95.89572518005457
 20
125.9088654675366
 30
0.0
 10
95.93832418303992
 20
125.9091446149438
 30
0.0
 10
95.98029678514429
 20
125.9093564990936
 30
0.0
 10
96.02226727100826
 20
125.9095683725603
 30
0.0
 10
96.06476908680716
 20
125.9097188334409
 30
0.0
 10
96.10428228832325
 20
125.9097954181293
 30
0.0
 10
96.14379373675665
 20
125.9098719994199
 30
0.0
 10
96.18140663688105
 20
125.9098768233368
 30
0.0
 10
96.21400613103856
 20
125.9098094902953
 30
0.0
 10
96.24660501010804
 20
125.9097421585244
 30
0.0
 10
96.27508978169949
 20
125.9096008156982
 30
0.0
 10
96.29710184568269
 20
125.9093971687521
 30
0.0
 10
96.3191142376341
 20
125.9091935187718
 30
0.0
 10
96.3352608476515
 20
125.9089219465544
 30
0.0
 10
96.3442050016282
 20
125.9086049428518
 30
0.0
 10
96.35314953247196
 20
125.908287925792
 30
0.0
 10
96.35513771056381
 20
125.9079167305471
 30
0.0
 10
96.35000523275085
 20
125.9075220954289
 30
0.0
 10
96.34487249366724
 20
125.9071274402216
 30
0.0
 10
96.33247682478019
 20
125.9066984582983
 30
0.0
 10
96.31384479324247
 20
125.9062706719989
 30
0.0
 10
96.29521206548814
 20
125.9058428697146
 30
0.0
 10
96.26982859064307
 20
125.9054044639133
 30
0.0
 10
96.23979629738712
 20
125.9049917585733
 30
0.0
 10
96.20976378032498
 20
125.9045790501577
 30
0.0
 10
96.17425399134505
 20
125.904180659187
 30
0.0
 10
96.13620751145022
 20
125.9038295788313
 30
0.0
 10
96.09816201043624
 20
125.9034785075084
 30
0.0
 10
96.05653052283421
 20
125.9031650608716
 30
0.0
 10
96.01476080824135
 20
125.9029151997003
 30
0.0
 10
95.97299308326278
 20
125.9026653504305
 30
0.0
 10
95.92993505955025
 20
125.9024721891029
 30
0.0
 10
95.88915275692494
 20
125.902351714888
 30
0.0
 10
95.84837243877563
 20
125.9022312465354
 30
0.0
 10
95.80874280815635
 20
125.9021801354513
 30
0.0
 10
95.77354582677958
 20
125.9022026150196
 30
0.0
 10
95.75151898451911
 20
125.9022166830983
 30
0.0
 10
95.73089145530243
 20
125.9022592883549
 30
0.0
 10
95.71234076869604
 20
125.9023290218563
 30
0.0
  0
LINE
  5
B3
330
98
100
AcDbEntity
  8
$DDT_AUDIT_GENERATED_(82)
  6
Continuous
 62
     7
100
AcDbLine
 10
97.8528505837
 20
125.9213479538
 30
0.0
 11
98.6027891716
 21
125.9366684818
 31
0.0
  0
SPLINE
  5
B4
330
98
100
AcDbEntity
  8
$DDT_AUDIT_GENERATED_(82)
  6
Continuous
 62
     7
100
AcDbSpline
210
0.0
220
0.0
230
1.0
 70
    11
 71
     3
 72
    62
 73
    58
 74
     0
 42
0.0000000066354123
 43
0.0000000001
 40
0.0
 40
0.0
 40
0.0
 40
0.0
 40
0.0537024563071461
 40
0.0537024563071461
 40
0.0537024563071461
 40
0.1074043605601778
 40
0.1074043605601778
 40
0.1074043605601778
 40
0.1611143209871334
 40
0.1611143209871334
 40
0.1611143209871334
 40
0.2148329870414564
 40
0.2148329870414564
 40
0.2148329870414564
 40
0.2685541161150999
 40
0.2685541161150999
 40
0.2685541161150999
 40
0.3222703829737465
 40
0.3222703829737465
 40
0.3222703829737465
 40
0.3759765931104367
 40
0.3759765931104367
 40
0.3759765931104367
 40
0.4296719626198997
 40
0.4296719626198997
 40
0.4296719626198997
 40
0.4833604601895171
 40
0.4833604601895171
 40
0.4833604601895171
 40
0.5370490640401488
 40
0.5370490640401488
 40
0.5370490640401488
 40
0.590744703554862
 40
0.590744703554862
 40
0.590744703554862
 40
0.6444512258159101
 40
0.6444512258159101
 40
0.6444512258159101
 40
0.69816771089188
 40
0.69816771089188
 40
0.69816771089188
 40
0.751888872167945
 40
0.751888872167945
 40
0.751888872167945
 40
0.8056073709792112
 40
0.8056073709792112
 40
0.8056073709792112
 40
0.8593170349949568
 40
0.8593170349949568
 40
0.8593170349949568
 40
0.9130155665612615
 40
0.9130155665612615
 40
0.9130155665612615
 40
0.966705548691007
 40
0.966705548691007
 40
0.966705548691007
 40
1.0
 40
1.0
 40
1.0
 40
1.0
 10
96.41506233753529
 20
125.922184352386
 30
0.0
 10
96.39190467458802
 20
125.9225675754624
 30
0.0
 10
96.37447235069678
 20
125.9230885916158
 30
0.0
 10
96.36420785699892
 20
125.9237042376703
 30
0.0
 10
96.35394342591154
 20
125.9243198799695
 30
0.0
 10
96.35056348764888
 20
125.9250471240678
 30
0.0
 10
96.35434653025165
 20
125.9258257528057
 30
0.0
 10
96.35813013560879
 20
125.9266044973702
 30
0.0
 10
96.36918311511296
 20
125.9274561160846
 30
0.0
 10
96.38658976079255
 20
125.9283101061716
 30
0.0
 10
96.40399916123269
 20
125.9291642314103
 30
0.0
 10
96.42824441644643
 20
125.9300442855822
 30
0.0
 10
96.457318096847
 20
125.9308773959593
 30
0.0
 10
96.48639302003265
 20
125.9317105419486
 30
0.0
 10
96.52109888734815
 20
125.9325197219594
 30
0.0
 10
96.55856176474124
 20
125.9332379035528
 30
0.0
 10
96.59602121321055
 20
125.9339560194121
 30
0.0
 10
96.63727067563133
 20
125.9346029637116
 30
0.0
 10
96.67889340147067
 20
125.9351251192019
 30
0.0
 10
96.72050839770601
 20
125.9356471777246
 30
0.0
 10
96.76364463929055
 20
125.9360588950099
 30
0.0
 10
96.8047285329691
 20
125.9363261387813
 30
0.0
 10
96.84580427281675
 20
125.9365933295133
 30
0.0
 10
96.88596157890534
 20
125.9367234741325
 30
0.0
 10
96.92187404324032
 20
125.936705783216
 30
0.0
 10
96.95778204681642
 20
125.9366880944968
 30
0.0
 10
96.99043666092733
 20
125.9365221202783
 30
0.0
 10
97.01713412820048
 20
125.9362216166441
 30
0.0
 10
97.04383171511049
 20
125.9359211116633
 30
0.0
 10
97.06530840049855
 20
125.9354777916766
 30
0.0
 10
97.0797872386838
 20
125.9349283833589
 30
0.0
 10
97.09426797629065
 20
125.9343789029665
 30
0.0
 10
97.10214842864939
 20
125.9337081574269
 30
0.0
 10
97.10277765478902
 20
125.932971691311
 30
0.0
 10
97.10340700702136
 20
125.9322350776122
 30
0.0
 10
97.09679965610364
 20
125.9314124062682
 30
0.0
 10
97.08350350738833
 20
125.9305717879389
 30
0.0
 10
97.07020494142472
 20
125.9297310167846
 30
0.0
 10
97.04984838942916
 20
125.9288491051015
 30
0.0
 10
97.02411939427827
 20
125.9279990728661
 30
0.0
 10
96.9983882495068
 20
125.9271489696117
 30
0.0
 10
96.96657394284537
 20
125.9263073024391
 30
0.0
 10
96.93131076815082
 20
125.9255437806953
 30
0.0
 10
96.89604940350667
 20
125.9247802981427
 30
0.0
 10
96.8563666756674
 20
125.9240738912319
 30
0.0
 10
96.81554928439081
 20
125.9234830904673
 30
0.0
 10
96.7747385757758
 20
125.9228923864292
 30
0.0
 10
96.73166761828708
 20
125.9224009551671
 30
0.0
 10
96.68990451079353
 20
125.922049527928
 30
0.0
 10
96.64814993718652
 20
125.9216981724997
 30
0.0
 10
96.6065508010137
 20
125.9214770718507
 30
0.0
 10
96.56855318883994
 20
125.9214045529149
 30
0.0
 10
96.53056148074569
 20
125.9213320452471
 30
0.0
 10
96.49512226252061
 20
125.9214060724941
 30
0.0
 10
96.46517034252379
 20
125.9216204997718
 30
0.0
 10
96.44643319065175
 20
125.9217546399695
 30
0.0
 10
96.42954584824545
 20
125.9219446729527
 30
0.0
 10
96.41506233753529
 20
125.922184352386
 30
0.0
  0
SPLINE
  5
B5
330
98
100
AcDbEntity
  8
$DDT_AUDIT_GENERATED_(82)
  6
Continuous
 62
     7
100
AcDbSpline
210
0.0
220
0.0
230
1.0
 70
    11
 71
     3
 72
    62
 73
    58
 74
     0
 42
0.0000000066167448
 43
0.0000000001
 40
0.0
 40
0.0
 40
0.0
 40
0.0
 40
0.0536863142887813
 40
0.0536863142887813
 40
0.0536863142887813
 40
0.1073715024479414
 40
0.1073715024479414
 40
0.1073715024479414
 40
0.1610735726703955
 40
0.1610735726703955
 40
0.1610735726703955
 40
0.2147997407995473
 40
0.2147997407995473
 40
0.2147997407995473
 40
0.2685404836671783
 40
0.2685404836671783
 40
0.2685404836671783
 40
0.3222798770048416
 40
0.3222798770048416
 40
0.3222798770048416
 40
0.3760025757317027
 40
0.3760025757317027
 40
0.3760025757317027
 40
0.4297005598473311
 40
0.4297005598473311
 40
0.4297005598473311
 40
0.4833766561322886
 40
0.4833766561322886
 40
0.4833766561322886
 40
0.5370432826468712
 40
0.5370432826468712
 40
0.5370432826468712
 40
0.5907169928407386
 40
0.5907169928407386
 40
0.5907169928407386
 40
0.6444112310013485
 40
0.6444112310013485
 40
0.6444112310013485
 40
0.698130457036225
 40
0.698130457036225
 40
0.698130457036225
 40
0.751868188485901
 40
0.751868188485901
 40
0.751868188485901
 40
0.8056098235903699
 40
0.8056098235903699
 40
0.8056098235903699
 40
0.8593390372669413
 40
0.8593390372669413
 40
0.8593390372669413
 40
0.9130449529572595
 40
0.9130449529572595
 40
0.9130449529572595
 40
0.9667269200005485
 40
0.9667269200005485
 40
0.9667269200005485
 40
1.0
 40
1.0
 40
1.0
 40
1.0
 10
97.21204040591311
 20
125.9562699101776
 30
0.0
 10
97.18243497425024
 20
125.9566060790379
 30
0.0
 10
97.15755726323587
 20
125.9571611224425
 30
0.0
 10
97.13946562181863
 20
125.9578893078032
 30
0.0
 10
97.12137420502705
 20
125.9586174841227
 30
0.0
 10
97.10956963203604
 20
125.9595387097818
 30
0.0
 10
97.10502574708278
 20
125.9605766846379
 30
0.0
 10
97.10048043554758
 20
125.9616149853728
 30
0.0
 10
97.10307482353079
 20
125.9627987261495
 30
0.0
 10
97.11259170805045
 20
125.9640299388372
 30
0.0
 10
97.12211278914938
 20
125.9652616944422
 30
0.0
 10
97.13882494299448
 20
125.9665749253279
 30
0.0
 10
97.16134420735845
 20
125.967860937326
 30
0.0
 10
97.18386939167644
 20
125.969147287396
 30
0.0
 10
97.21282617511626
 20
125.9704418857099
 30
0.0
 10
97.245817426635
 20
125.9716375060223
 30
0.0
 10
97.27880767353908
 20
125.972833089927
 30
0.0
 10
97.31674263238443
 20
125.9739626892987
 30
0.0
 10
97.35648026198602
 20
125.9749326491627
 30
0.0
 10
97.39620554935085
 20
125.9759023077637
 30
0.0
 10
97.43882884982246
 20
125.976739181648
 30
0.0
 10
97.48081778101151
 20
125.9773738228586
 30
0.0
 10
97.52278762430913
 20
125.9780081755656
 30
0.0
 10
97.56528188330529
 20
125.9784579805597
 30
0.0
 10
97.60477843524022
 20
125.9786858954374
 30
0.0
 10
97.64425922114165
 20
125.9789137193371
 30
0.0
 10
97.68183385629546
 20
125.9789261157182
 30
0.0
 10
97.71438972809418
 20
125.978722055706
 30
0.0
 10
97.74694010752633
 20
125.97851803012
 30
0.0
 10
97.77537112348371
 20
125.9780920010854
 30
0.0
 10
97.79733053045966
 20
125.9774792997258
 30
0.0
 10
97.81929291548785
 20
125.976866515274
 30
0.0
 10
97.83538759259169
 20
125.9760501236405
 30
0.0
 10
97.84428566064852
 20
125.9750977612361
 30
0.0
 10
97.85318711358127
 20
125.9741450365475
 30
0.0
 10
97.85513207605996
 20
125.9730299824914
 30
0.0
 10
97.84996252810798
 20
125.9718449076488
 30
0.0
 10
97.84479060967661
 20
125.970659289394
 30
0.0
 10
97.83235517169177
 20
125.9693709015033
 30
0.0
 10
97.81368667936981
 20
125.9680863788018
 30
0.0
 10
97.79501191690458
 20
125.9668014246706
 30
0.0
 10
97.76958479552694
 20
125.9654848998435
 30
0.0
 10
97.73951015214146
 20
125.9642458139125
 30
0.0
 10
97.70943352355116
 20
125.9630066461904
 30
0.0
 10
97.67387875339763
 20
125.9618107395798
 30
0.0
 10
97.63579015243201
 20
125.9607572014507
 30
0.0
 10
97.5977104211284
 20
125.9597039086582
 30
0.0
 10
97.55604699171099
 20
125.9587638537753
 30
0.0
 10
97.51425218466085
 20
125.9580150115671
 30
0.0
 10
97.47247533646615
 20
125.9572664911296
 30
0.0
 10
97.42941425070859
 20
125.9566883662365
 30
0.0
 10
97.38863813527901
 20
125.9563286163888
 30
0.0
 10
97.34787988203279
 20
125.9559690241314
 30
0.0
 10
97.30828007112632
 20
125.9558176952598
 30
0.0
 10
97.27311990343749
 20
125.9558871878696
 30
0.0
 10
97.25113524232327
 20
125.9559306396385
 30
0.0
 10
97.2305503073693
 20
125.9560597307569
 30
0.0
 10
97.21204040591311
 20
125.9562699101776
 30
0.0
  0
SPLINE
  5
B6
330
98
100
AcDbEntity
  8
$DDT_AUDIT_GENERATED_(82)
  6
Continuous
 62
     7
100
AcDbSpline
210
0.0
220
0.0
230
1.0
 70
    11
 71
     3
 72
    62
 73
    58
 74
     0
 42
0.0000000066175257
 43
0.0000000001
 40
0.0
 40
0.0
 40
0.0
 40
0.0
 40
0.053708721178949
 40
0.053708721178949
 40
0.053708721178949
 40
0.1074165017121367
 40
0.1074165017121367
 40
0.1074165017121367
 40
0.1611377662388045
 40
0.1611377662388045
 40
0.1611377662388045
 40
0.2148704037007954
 40
0.2148704037007954
 40
0.2148704037007954
 40
0.268602035334623
 40
0.268602035334623
 40
0.268602035334623
 40
0.3223207164779635
 40
0.3223207164779635
 40
0.3223207164779635
 40
0.376020183179842
 40
0.376020183179842
 40
0.376020183179842
 40
0.4297026017872285
 40
0.4297026017872285
 40
0.4297026017872285
 40
0.4833776095639872
 40
0.4833776095639872
 40
0.4833776095639872
 40
0.5370580827576132
 40
0.5370580827576132
 40
0.5370580827576132
 40
0.5907544994130802
 40
0.5907544994130802
 40
0.5907544994130802
 40
0.6444703574129137
 40
0.6444703574129137
 40
0.6444703574129137
 40
0.6982006395520914
 40
0.6982006395520914
 40
0.6982006395520914
 40
0.7519340016690202
 40
0.7519340016690202
 40
0.7519340016690202
 40
0.8056577423343915
 40
0.8056577423343915
 40
0.8056577423343915
 40
0.8593633797316124
 40
0.8593633797316124
 40
0.8593633797316124
 40
0.9130503752173433
 40
0.9130503752173433
 40
0.9130503752173433
 40
0.9667263610399931
 40
0.9667263610399931
 40
0.9667263610399931
 40
1.0
 40
1.0
 40
1.0
 40
1.0
 10
95.71133949981787
 20
125.9436776411642
 30
0.0
 10
95.68180472852302
 20
125.9443188785407
 30
0.0
 10
95.6570165935487
 20
125.9451291373153
 30
0.0
 10
95.63902380041498
 20
125.9460441789955
 30
0.0
 10
95.62103123274646
 20
125.9469592092095
 30
0.0
 10
95.60933861216459
 20
125.948002730121
 30
0.0
 10
95.60491180984452
 20
125.9490883514614
 30
0.0
 10
95.60048391060928
 20
125.9501742418074
 30
0.0
 10
95.6032032581174
 20
125.9513321965714
 30
0.0
 10
95.61284412856511
 20
125.9524663630775
 30
0.0
 10
95.6224869770197
 20
125.9536007622794
 30
0.0
 10
95.63932027063186
 20
125.9547426531492
 30
0.0
 10
95.66195089316939
 20
125.9557974614038
 30
0.0
 10
95.68458099784537
 20
125.956852245521
 30
0.0
 10
95.71363272555605
 20
125.9578490512855
 30
0.0
 10
95.74670074368245
 20
125.9587052552131
 30
0.0
 10
95.7797607928855
 20
125.9595612528076
 30
0.0
 10
95.81774761810868
 20
125.960300333491
 30
0.0
 10
95.85751443507098
 20
125.9608611927181
 30
0.0
 10
95.89726719594367
 20
125.9614218537024
 30
0.0
 10
95.939895625177
 20
125.9618198862683
 30
0.0
 10
95.98186771075402
 20
125.9620222640894
 30
0.0
 10
96.02382674654709
 20
125.9622245789881
 30
0.0
 10
96.06628731831404
 20
125.9622369421172
 30
0.0
 10
96.10573234361193
 20
125.9620583278591
 30
0.0
 10
96.1451721606567
 20
125.961879737185
 30
0.0
 10
96.18268489504182
 20
125.9615052987259
 30
0.0
 10
96.21516553429495
 20
125.9609660556369
 30
0.0
 10
96.24764957288346
 20
125.9604267561122
 30
0.0
 10
96.27599616958983
 20
125.9597077546769
 30
0.0
 10
96.2978611559393
 20
125.9588686140602
 30
0.0
 10
96.31973260175997
 20
125.9580292255402
 30
0.0
 10
96.33572171119951
 20
125.9570464907393
 30
0.0
 10
96.34450746271541
 20
125.9560017709123
 30
0.0
 10
96.3532963486227
 20
125.9549566783726
 30
0.0
 10
96.35511913709387
 20
125.9538207427934
 30
0.0
 10
96.34982607318835
 20
125.9526879926156
 30
0.0
 10
96.34453162343496
 20
125.9515549458572
 30
0.0
 10
96.33197150897394
 20
125.950393836847
 30
0.0
 10
96.31318524403527
 20
125.9493008086847
 30
0.0
 10
96.29439799932126
 20
125.9482077235168
 30
0.0
 10
96.26886547475897
 20
125.9471525706429
 30
0.0
 10
96.23870126258797
 20
125.9462227775816
 30
0.0
 10
96.2085424927906
 20
125.945293152278
 30
0.0
 10
96.17292134233456
 20
125.9444631922778
 30
0.0
 10
96.13478819765369
 20
125.9438017141974
 30
0.0
 10
96.09666778674942
 20
125.9431404570039
 30
0.0
 10
96.05498508979063
 20
125.9426293255871
 30
0.0
 10
96.01319371133042
 20
125.9423107183484
 30
0.0
 10
95.97141658378348
 20
125.9419922197553
 30
0.0
 10
95.92837828295393
 20
125.9418573278163
 30
0.0
 10
95.88764425866479
 20
125.9419172311942
 30
0.0
 10
95.84691832300997
 20
125.9419771226769
 30
0.0
 10
95.80737252368189
 20
125.9422333808827
 30
0.0
 10
95.77228099923151
 20
125.9426647611849
 30
0.0
 10
95.7503366180821
 20
125.9429345235826
 30
0.0
 10
95.72979783944754
 20
125.9432768871797
 30
0.0
 10
95.71133949981787
 20
125.9436776411642
 30
0.0
  0
SPLINE
  5
B7
330
98
100
AcDbEntity
  8
$DDT_AUDIT_GENERATED_(82)
  6
Continuous
 62
     7
100
AcDbSpline
210
0.0
220
0.0
230
1.0
 70
    11
 71
     3
 72
    62
 73
    58
 74
     0
 42
0.0000000066204763
 43
0.0000000001
 40
0.0
 40
0.0
 40
0.0
 40
0.0
 40
0.0536780716672291
 40
0.0536780716672291
 40
0.0536780716672291
 40
0.1073557126364596
 40
0.1073557126364596
 40
0.1073557126364596
 40
0.161040427205651
 40
0.161040427205651
 40
0.161040427205651
 40
0.2147430916107659
 40
0.2147430916107659
 40
0.2147430916107659
 40
0.2684644852962991
 40
0.2684644852962991
 40
0.2684644852962991
 40
0.3221971826660592
 40
0.3221971826660592
 40
0.3221971826660592
 40
0.375928794924375
 40
0.375928794924375
 40
0.375928794924375
 40
0.4296474012990927
 40
0.4296474012990927
 40
0.4296474012990927
 40
0.4833467860726546
 40
0.4833467860726546
 40
0.4833467860726546
 40
0.5370291669325024
 40
0.5370291669325024
 40
0.5370291669325024
 40
0.5907042130443305
 40
0.5907042130443305
 40
0.5907042130443305
 40
0.6443847992107703
 40
0.6443847992107703
 40
0.6443847992107703
 40
0.6980813693916512
 40
0.6980813693916512
 40
0.6980813693916512
 40
0.7517973696412444
 40
0.7517973696412444
 40
0.7517973696412444
 40
0.8055277358103256
 40
0.8055277358103256
 40
0.8055277358103256
 40
0.8592611022577856
 40
0.8592611022577856
 40
0.8592611022577856
 40
0.9129847810437229
 40
0.9129847810437229
 40
0.9129847810437229
 40
0.9666903329271181
 40
0.9666903329271181
 40
0.9666903329271181
 40
1.0
 40
1.0
 40
1.0
 40
1.0
 10
97.96282330481938
 20
125.9419158174575
 30
0.0
 10
97.93313504402796
 20
125.9418342702648
 30
0.0
 10
97.9081563613464
 20
125.9419449823352
 30
0.0
 10
97.88995252118384
 20
125.942242431083
 30
0.0
 10
97.87174880635558
 20
125.9425398777829
 30
0.0
 10
97.859819307663
 20
125.9430303493816
 30
0.0
 10
97.8551498124486
 20
125.9436731995922
 30
0.0
 10
97.8504796895182
 20
125.9443161362205
 30
0.0
 10
97.85294253830554
 20
125.9451292124413
 30
0.0
 10
97.86233206736793
 20
125.9460451004482
 30
0.0
 10
97.87172470838263
 20
125.9469612920059
 30
0.0
 10
97.88830740196786
 20
125.9480056189759
 30
0.0
 10
97.91070603648201
 20
125.9490916406044
 30
0.0
 10
97.93311234721838
 20
125.9501780344226
 30
0.0
 10
97.96195638616054
 20
125.951336107487
 30
0.0
 10
97.99485006303925
 20
125.9524699971229
 30
0.0
 10
98.02775044654528
 20
125.9536041179453
 30
0.0
 10
98.06560967186626
 20
125.9547453275417
 30
0.0
 10
98.10529290413572
 20
125.9557991076452
 30
0.0
 10
98.14497517067949
 20
125.9568528621041
 30
0.0
 10
98.18757629688864
 20
125.9578482632183
 30
0.0
 10
98.22956708351987
 20
125.9587028035519
 30
0.0
 10
98.27154770882665
 20
125.9595571370959
 30
0.0
 10
98.31407674300101
 20
125.9602942492722
 30
0.0
 10
98.35362941110797
 20
125.9608529986428
 30
0.0
 10
98.39316809431753
 20
125.9614115504528
 30
0.0
 10
98.43082346052441
 20
125.9618072744345
 30
0.0
 10
98.4634745527951
 20
125.9620073358205
 30
0.0
 10
98.49611552029457
 20
125.9622073351694
 30
0.0
 10
98.52465575136843
 20
125.9622173107174
 30
0.0
 10
98.54673119055606
 20
125.962036434918
 30
0.0
 10
98.56880374591319
 20
125.9618555827473
 30
0.0
 10
98.58502201136609
 20
125.9614789459231
 30
0.0
 10
98.59404465275654
 20
125.9609377497031
 30
0.0
 10
98.60306825074538
 20
125.9603964961045
 30
0.0
 10
98.60514368729918
 20
125.959675731568
 30
0.0
 10
98.60010160825163
 20
125.9588351646032
 30
0.0
 10
98.59505803597187
 20
125.957994348701
 30
0.0
 10
98.58275388107029
 20
125.9570104839185
 30
0.0
 10
98.56420948637322
 20
125.9559650248629
 30
0.0
 10
98.54565847999812
 20
125.9549191930673
 30
0.0
 10
98.52035137275897
 20
125.9537828888498
 30
0.0
 10
98.49038367155448
 20
125.9526501712262
 30
0.0
 10
98.46040815652879
 20
125.9515171582561
 30
0.0
 10
98.4249428483526
 20
125.9503564852978
 30
0.0
 10
98.38692407724469
 20
125.9492642596589
 30
0.0
 10
98.34890337898246
 20
125.9481719786554
 30
0.0
 10
98.30727993654034
 20
125.9471180184037
 30
0.0
 10
98.26550138194678
 20
125.946189707978
 30
0.0
 10
98.2237304155804
 20
125.945261566161
 30
0.0
 10
98.1806517285113
 20
125.9444334201836
 30
0.0
 10
98.1398352646259
 20
125.9437739364735
 30
0.0
 10
98.0990324475696
 20
125.9431146732593
 30
0.0
 10
98.05936445850384
 20
125.9426057709366
 30
0.0
 10
98.02411922534185
 20
125.9422894430296
 30
0.0
 10
98.00206702726598
 20
125.9420915233384
 30
0.0
 10
97.98140788647211
 20
125.9419668652596
 30
0.0
 10
97.96282330481938
 20
125.9419158174575
 30
0.0
  0
SPLINE
  5
B8
330
98
100
AcDbEntity
  8
$DDT_AUDIT_GENERATED_(82)
  6
Continuous
 62
     7
100
AcDbSpline
210
0.0
220
0.0
230
1.0
 70
    11
 71
     3
 72
    62
 73
    58
 74
     0
 42
0.0000000066111547
 43
0.0000000001
 40
0.0
 40
0.0
 40
0.0
 40
0.0
 40
0.0537027542463578
 40
0.0537027542463578
 40
0.0537027542463578
 40
0.1074037145583176
 40
0.1074037145583176
 40
0.1074037145583176
 40
0.1611307164395017
 40
0.1611307164395017
 40
0.1611307164395017
 40
0.2148838797199305
 40
0.2148838797199305
 40
0.2148838797199305
 40
0.2686418291106273
 40
0.2686418291106273
 40
0.2686418291106273
 40
0.3223810626518138
 40
0.3223810626518138
 40
0.3223810626518138
 40
0.3760862871157617
 40
0.3760862871157617
 40
0.3760862871157617
 40
0.4297571478472115
 40
0.4297571478472115
 40
0.4297571478472115
 40
0.4834083592021122
 40
0.4834083592021122
 40
0.4834083592021122
 40
0.537063218934095
 40
0.537063218934095
 40
0.537063218934095
 40
0.5907434061485769
 40
0.5907434061485769
 40
0.5907434061485769
 40
0.6444595189019676
 40
0.6444595189019676
 40
0.6444595189019676
 40
0.6982064365595049
 40
0.6982064365595049
 40
0.6982064365595049
 40
0.7519655286254573
 40
0.7519655286254573
 40
0.7519655286254573
 40
0.8057127988707852
 40
0.8057127988707852
 40
0.8057127988707852
 40
0.8594294297985674
 40
0.8594294297985674
 40
0.8594294297985674
 40
0.9131100627196301
 40
0.9131100627196301
 40
0.9131100627196301
 40
0.9667651311405588
 40
0.9667651311405588
 40
0.9667651311405588
 40
1.0
 40
1.0
 40
1.0
 40
1.0
 10
96.46164896863502
 20
125.9860307334563
 30
0.0
 10
96.43207938897004
 20
125.9867840442333
 30
0.0
 10
96.40725014562474
 20
125.9877810480092
 30
0.0
 10
96.38921428138097
 20
125.9889391750138
 30
0.0
 10
96.37117877758536
 20
125.9900972788732
 30
0.0
 10
96.35943861855968
 20
125.9914483456895
 30
0.0
 10
96.35496108241583
 20
125.9928805317029
 30
0.0
 10
96.35048139641005
 20
125.9943134053718
 30
0.0
 10
96.35314761209843
 20
125.9958669724318
 30
0.0
 10
96.362737188578
 20
125.9974126912488
 30
0.0
 10
96.3723313151936
 20
125.9989591434905
 30
0.0
 10
96.389120103076
 20
126.0005403904344
 30
0.0
 10
96.41171445784171
 20
126.0020254989531
 30
0.0
 10
96.43431061200748
 20
126.0035107257448
 30
0.0
 10
96.46333710727602
 20
126.0049407808044
 30
0.0
 10
96.49639122440722
 20
126.0061970862655
 30
0.0
 10
96.52943376033839
 20
126.0074529515537
 30
0.0
 10
96.56741351443472
 20
126.0085698488216
 30
0.0
 10
96.60718358961431
 20
126.0094550364993
 30
0.0
 10
96.64692873271073
 20
126.0103396692479
 30
0.0
 10
96.6895592149875
 20
126.0110172938897
 30
0.0
 10
96.73154092028498
 20
126.011431597429
 30
0.0
 10
96.77349624615117
 20
126.0118456406384
 30
0.0
 10
96.81596132125492
 20
126.0120081167357
 30
0.0
 10
96.85541699004858
 20
126.0119055248084
 30
0.0
 10
96.89485868715118
 20
126.0118029692101
 30
0.0
 10
96.93238087475653
 20
126.0114327132265
 30
0.0
 10
96.96487789090261
 20
126.0108254929931
 30
0.0
 10
96.99737735197971
 20
126.0102182270751
 30
0.0
 10
97.02574688882093
 20
126.0093572371419
 30
0.0
 10
97.0476426298395
 20
126.0083138946773
 30
0.0
 10
97.06954869168374
 20
126.0072700604205
 30
0.0
 10
97.0855788173036
 20
126.0060149491769
 30
0.0
 10
97.09441146244262
 20
126.0046524720713
 30
0.0
 10
97.10324994561545
 20
126.0032890944215
 30
0.0
 10
97.10512523128483
 20
126.00178063815
 30
0.0
 10
97.09988498663417
 20
126.0002519199424
 30
0.0
 10
97.09464180116898
 20
125.9987223438213
 30
0.0
 10
97.08213047210343
 20
125.997130306354
 30
0.0
 10
97.06338652373539
 20
125.995607590215
 30
0.0
 10
97.04463853387445
 20
125.9940845457542
 30
0.0
 10
97.01913769919872
 20
125.992588831959
 30
0.0
 10
96.98899433796615
 20
125.9912443979921
 30
0.0
 10
96.95885774802635
 20
125.9899002660339
 30
0.0
 10
96.92324855107998
 20
125.9886702498929
 30
0.0
 10
96.88511637637713
 20
125.9876564194141
 30
0.0
 10
96.84700580503626
 20
125.9866431633097
 30
0.0
 10
96.80532286760949
 20
125.9858178844915
 30
0.0
 10
96.76352284188818
 20
125.9852491337902
 30
0.0
 10
96.7217504004942
 20
125.9846807584141
 30
0.0
 10
96.6787081647624
 20
125.9843528905366
 30
0.0
 10
96.63796388351601
 20
125.9842927683249
 30
0.0
 10
96.59723849909213
 20
125.9842326739973
 30
0.0
 10
96.55768559311143
 20
125.984438414202
 30
0.0
 10
96.52258044042644
 20
125.9848929094398
 30
0.0
 10
96.50064428886154
 20
125.9851769098118
 30
0.0
 10
96.48010989657826
 20
125.9855604252501
 30
0.0
 10
96.46164896863502
 20
125.9860307334563
 30
0.0
  0
SPLINE
  5
B9
330
98
100
AcDbEntity
  8
$DDT_AUDIT_GENERATED_(82)
  6
Continuous
 62
     7
100
AcDbSpline
210
0.0
220
0.0
230
1.0
 70
    11
 71
     3
 72
    62
 73
    58
 74
     0
 42
0.0000000066121024
 43
0.0000000001
 40
0.0
 40
0.0
 40
0.0
 40
0.0
 40
0.0536608220061342
 40
0.0536608220061342
 40
0.0536608220061342
 40
0.107319038476242
 40
0.107319038476242
 40
0.107319038476242
 40
0.1610163747858604
 40
0.1610163747858604
 40
0.1610163747858604
 40
0.214770253891043
 40
0.214770253891043
 40
0.214770253891043
 40
0.2685590497912006
 40
0.2685590497912006
 40
0.2685590497912006
 40
0.3223457634872613
 40
0.3223457634872613
 40
0.3223457634872613
 40
0.3760942428364776
 40
0.3760942428364776
 40
0.3760942428364776
 40
0.4297851376966493
 40
0.4297851376966493
 40
0.4297851376966493
 40
0.4834244180698105
 40
0.4834244180698105
 40
0.4834244180698105
 40
0.5370406669872334
 40
0.5370406669872334
 40
0.5370406669872334
 40
0.5906724786666837
 40
0.5906724786666837
 40
0.5906724786666837
 40
0.6443516000911299
 40
0.6443516000911299
 40
0.6443516000911299
 40
0.6980891128764652
 40
0.6980891128764652
 40
0.6980891128764652
 40
0.7518705604501933
 40
0.7518705604501933
 40
0.7518705604501933
 40
0.805662182765758
 40
0.805662182765758
 40
0.805662182765758
 40
0.8594256875452585
 40
0.8594256875452585
 40
0.8594256875452585
 40
0.9131351256078022
 40
0.9131351256078022
 40
0.9131351256078022
 40
0.9667883277105379
 40
0.9667883277105379
 40
0.9667883277105379
 40
1.0
 40
1.0
 40
1.0
 40
1.0
 10
97.26957765608955
 20
126.0424647823612
 30
0.0
 10
97.23468396283103
 20
126.0429616864949
 30
0.0
 10
97.2033341823145
 20
126.0437935674074
 30
0.0
 10
97.17812155080563
 20
126.0448917457499
 30
0.0
 10
97.15290963926208
 20
126.0459898927331
 30
0.0
 10
97.1331390677797
 20
126.0473843133451
 30
0.0
 10
97.12043799663573
 20
126.0489594737006
 30
0.0
 10
97.10772767751615
 20
126.0505357809709
 30
0.0
 10
97.10174647700498
 20
126.0523364952661
 30
0.0
 10
97.10298269449379
 20
126.0542126936855
 30
0.0
 10
97.10422019149476
 20
126.0560908340114
 30
0.0
 10
97.11272404275634
 20
126.0580963723941
 30
0.0
 10
97.12778895509189
 20
126.060063427117
 30
0.0
 10
97.14286335667197
 20
126.0620317208688
 30
0.0
 10
97.16492321140923
 20
126.064015777475
 30
0.0
 10
97.19214401649295
 20
126.0658512383033
 30
0.0
 10
97.2193634201971
 20
126.0676866046386
 30
0.0
 10
97.25249523952421
 20
126.0694240541232
 30
0.0
 10
97.28879606985628
 20
126.0709193222167
 30
0.0
 10
97.32507108780509
 20
126.0724135270718
 30
0.0
 10
97.36551293890493
 20
126.0737071480255
 30
0.0
 10
97.40676806157786
 20
126.0746925466602
 30
0.0
 10
97.44797949887881
 20
126.0756769018487
 30
0.0
 10
97.49114068234321
 20
126.0763808553641
 30
0.0
 10
97.5326708189079
 20
126.0767457762048
 30
0.0
 10
97.5741618473657
 20
126.0771103534068
 30
0.0
 10
97.61516986524927
 20
126.0771465982583
 30
0.0
 10
97.65229620124914
 20
126.0768514936972
 30
0.0
 10
97.6894072709707
 20
126.0765565104825
 30
0.0
 10
97.72366313215637
 20
126.0759223390108
 30
0.0
 10
97.75223153511794
 20
126.075001671051
 30
0.0
 10
97.78080848064131
 20
126.0740807277919
 30
0.0
 10
97.80448223417334
 20
126.0728477757188
 30
0.0
 10
97.82130186937984
 20
126.0714050201782
 30
0.0
 10
97.83813626669482
 20
126.0699609983727
 30
0.0
 10
97.84856865618234
 20
126.0682670553639
 30
0.0
 10
97.85174359687618
 20
126.0664633579852
 30
0.0
 10
97.85492194137404
 20
126.0646577268908
 30
0.0
 10
97.85091508385564
 20
126.0626923629343
 30
0.0
 10
97.84005774588518
 20
126.060729809593
 30
0.0
 10
97.82919174953473
 20
126.0587656911781
 30
0.0
 10
97.81116451555796
 20
126.0567502240659
 30
0.0
 10
97.78746710389252
 20
126.0548502603815
 30
0.0
 10
97.76376558182183
 20
126.0529499671413
 30
0.0
 10
97.73373722703593
 20
126.0511127694195
 30
0.0
 10
97.69986729015223
 20
126.0494910701451
 30
0.0
 10
97.66601520727991
 20
126.0478702257243
 30
0.0
 10
97.6273901896002
 20
126.0464199009342
 30
0.0
 10
97.58719388111682
 20
126.0452606653785
 30
0.0
 10
97.54703763927445
 20
126.0441025853187
 30
0.0
 10
97.50420396266358
 20
126.043203045445
 30
0.0
 10
97.4622464688122
 20
126.0426369248858
 30
0.0
 10
97.4203321404427
 20
126.0420713867461
 30
0.0
 10
97.3781352273383
 20
126.0418229755467
 30
0.0
 10
97.33915463240056
 20
126.0419123668388
 30
0.0
 10
97.31481259084057
 20
126.0419681886278
 30
0.0
 10
97.29136434990514
 20
126.042154528639
 30
0.0
 10
97.26957765608955
 20
126.0424647823612
 30
0.0
  0
SPLINE
  5
BA
330
98
100
AcDbEntity
  8
$DDT_AUDIT_GENERATED_(82)
  6
Continuous
 62
     7
100
AcDbSpline
210
0.0
220
0.0
230
1.0
 70
    11
 71
     3
 72
    62
 73
    58
 74
     0
 42
0.0000000066127337
 43
0.0000000001
 40
0.0
 40
0.0
 40
0.0
 40
0.0
 40
0.0536968633778372
 40
0.0536968633778372
 40
0.0536968633778372
 40
0.1073911020579874
 40
0.1073911020579874
 40
0.1073911020579874
 40
0.1611236149376691
 40
0.1611236149376691
 40
0.1611236149376691
 40
0.2148967203296144
 40
0.2148967203296144
 40
0.2148967203296144
 40
0.2686803067341194
 40
0.2686803067341194
 40
0.2686803067341194
 40
0.3224396046843712
 40
0.3224396046843712
 40
0.3224396046843712
 40
0.3761504941167103
 40
0.3761504941167103
 40
0.3761504941167103
 40
0.4298101416036962
 40
0.4298101416036962
 40
0.4298101416036962
 40
0.4834381975041039
 40
0.4834381975041039
 40
0.4834381975041039
 40
0.5370681009741155
 40
0.5370681009741155
 40
0.5370681009741155
 40
0.5907324328660786
 40
0.5907324328660786
 40
0.5907324328660786
 40
0.6444487199718901
 40
0.6444487199718901
 40
0.6444487199718901
 40
0.6982117794631174
 40
0.6982117794631174
 40
0.6982117794631174
 40
0.7519959186471251
 40
0.7519959186471251
 40
0.7519959186471251
 40
0.8057661405936405
 40
0.8057661405936405
 40
0.8057661405936405
 40
0.8594935328637402
 40
0.8594935328637402
 40
0.8594935328637402
 40
0.9131680159661925
 40
0.9131680159661925
 40
0.9131680159661925
 40
0.9668027407250344
 40
0.9668027407250344
 40
0.9668027407250344
 40
1.0
 40
1.0
 40
1.0
 40
1.0
 10
95.7691891776351
 20
126.0292697660878
 30
0.0
 10
95.73430798629914
 20
126.0301257723257
 30
0.0
 10
95.70298363562588
 20
126.0312808226302
 30
0.0
 10
95.677806981802
 20
126.0326390105805
 30
0.0
 10
95.65263105871549
 20
126.0339971591103
 30
0.0
 10
95.63290772383999
 20
126.0355958467151
 30
0.0
 10
95.62026239233676
 20
126.0373027362767
 30
0.0
 10
95.60760812625112
 20
126.0390108318443
 30
0.0
 10
95.6016928217539
 20
126.0408743473903
 30
0.0
 10
95.60300237715798
 20
126.0427391615671
 30
0.0
 10
95.60431289804788
 20
126.044605350601
 30
0.0
 10
95.61289523081007
 20
126.0465243028227
 30
0.0
 10
95.62804002631448
 20
126.0483371543211
 30
0.0
 10
95.6431875539907
 20
126.0501503328639
 30
0.0
 10
95.6653184405263
 20
126.0519074109185
 30
0.0
 10
95.69260264350983
 20
126.0534626410195
 30
0.0
 10
95.71987440394402
 20
126.0550171618814
 30
0.0
 10
95.7530483857793
 20
126.0564129334035
 30
0.0
 10
95.78937681244786
 20
126.0575339369239
 30
0.0
 10
95.8256728031556
 20
126.0586539395525
 30
0.0
 10
95.86612022148276
 20
126.0595305787599
 30
0.0
 10
95.90736523784523
 20
126.0600908914493
 30
0.0
 10
95.948571578241
 20
126.0606506787266
 30
0.0
 10
95.99171141410396
 20
126.0609101786896
 30
0.0
 10
96.03320834658079
 20
126.060847793474
 30
0.0
 10
96.07468158817981
 20
126.0607854438745
 30
0.0
 10
96.11565758422134
 20
126.0603998698828
 30
0.0
 10
96.15274434019949
 20
126.0597231197057
 30
0.0
 10
96.1898328012895
 20
126.059046338414
 30
0.0
 10
96.22405390378515
 20
126.0580597287264
 30
0.0
 10
96.25258111392819
 20
126.0568451274727
 30
0.0
 10
96.28112664327236
 20
126.0556297462436
 30
0.0
 10
96.3047576468351
 20
126.0541526241936
 30
0.0
 10
96.32152654490463
 20
126.0525360532959
 30
0.0
 10
96.33831149025312
 20
126.0509179353935
 30
0.0
 10
96.34868391964292
 20
126.0491155322589
 30
0.0
 10
96.35179064048405
 20
126.0472779290156
 30
0.0
 10
96.35490001146579
 20
126.0454387582329
 30
0.0
 10
96.3508169606658
 20
126.0435136244612
 30
0.0
 10
96.33987963274504
 20
126.0416618342586
 30
0.0
 10
96.3289381967254
 20
126.0398093485172
 30
0.0
 10
96.3108350396275
 20
126.0379791479017
 30
0.0
 10
96.287066491673
 20
126.0363229233249
 30
0.0
 10
96.26330428496351
 20
126.0346671406147
 30
0.0
 10
96.23322308013685
 20
126.0331395319213
 30
0.0
 10
96.19931322510159
 20
126.0318669636926
 30
0.0
 10
96.16543024542118
 20
126.0305954040416
 30
0.0
 10
96.12678857112616
 20
126.0295433783495
 30
0.0
 10
96.08659160268051
 20
126.0287983903015
 30
0.0
 10
96.04643364635703
 20
126.0280541252823
 30
0.0
 10
96.00361466753421
 20
126.0275957631974
 30
0.0
 10
95.96168520608825
 20
126.0274614427832
 30
0.0
 10
95.91978603852773
 20
126.027327219415
 30
0.0
 10
95.87761927990067
 20
126.0275128593141
 30
0.0
 10
95.8386775046751
 20
126.0280029310085
 30
0.0
 10
95.81436202448009
 20
126.0283089347413
 30
0.0
 10
95.79094428609913
 20
126.028735882128
 30
0.0
 10
95.7691891776351
 20
126.0292697660878
 30
0.0
  0
SPLINE
  5
BB
330
98
100
AcDbEntity
  8
$DDT_AUDIT_GENERATED_(82)
  6
Continuous
 62
     7
100
AcDbSpline
210
0.0
220
0.0
230
1.0
 70
    11
 71
     3
 72
    62
 73
    58
 74
     0
 42
0.0000000066201062
 43
0.0000000001
 40
0.0
 40
0.0
 40
0.0
 40
0.0
 40
0.0536528891434417
 40
0.0536528891434417
 40
0.0536528891434417
 40
0.1073042952944932
 40
0.1073042952944932
 40
0.1073042952944932
 40
0.160978805912914
 40
0.160978805912914
 40
0.160978805912914
 40
0.2146974974519196
 40
0.2146974974519196
 40
0.2146974974519196
 40
0.268454155202791
 40
0.268454155202791
 40
0.268454155202791
 40
0.3222259141772084
 40
0.3222259141772084
 40
0.3222259141772084
 40
0.3759832371387515
 40
0.3759832371387515
 40
0.3759832371387515
 40
0.4297029014856104
 40
0.4297029014856104
 40
0.4297029014856104
 40
0.4833782349505344
 40
0.4833782349505344
 40
0.4833782349505344
 40
0.5370220255075433
 40
0.5370220255075433
 40
0.5370220255075433
 40
0.5906608549620352
 40
0.5906608549620352
 40
0.5906608549620352
 40
0.6443234367413176
 40
0.6443234367413176
 40
0.6443234367413176
 40
0.6980280861931224
 40
0.6980280861931224
 40
0.6980280861931224
 40
0.7517747274672332
 40
0.7517747274672332
 40
0.7517747274672332
 40
0.8055448868960503
 40
0.8055448868960503
 40
0.8055448868960503
 40
0.8593097398157159
 40
0.8593097398157159
 40
0.8593097398157159
 40
0.9130427640215821
 40
0.9130427640215821
 40
0.9130427640215821
 40
0.9667314228949649
 40
0.9667314228949649
 40
0.9667314228949649
 40
1.0
 40
1.0
 40
1.0
 40
1.0
 10
98.01967410052264
 20
126.0057979866471
 30
0.0
 10
97.98478045951552
 20
126.0059096912041
 30
0.0
 10
97.95342486473601
 20
126.0063176198669
 30
0.0
 10
97.92820183072466
 20
126.0069893710557
 30
0.0
 10
97.90297921687038
 20
126.0076611110547
 30
0.0
 10
97.88319377443948
 20
126.0086143900251
 30
0.0
 10
97.8704778880709
 20
126.0097701731112
 30
0.0
 10
97.85775648271795
 20
126.0109264578333
 30
0.0
 10
97.85175976883096
 20
126.012317264737
 30
0.0
 10
97.85297807232168
 20
126.0138274843963
 30
0.0
 10
97.85419736624507
 20
126.0153389318047
 30
0.0
 10
97.86267674623974
 20
126.0170116301126
 30
0.0
 10
97.87771161731239
 20
126.0187072165677
 30
0.0
 10
97.89275688747387
 20
126.0204039758
 30
0.0
 10
97.91478160766232
 20
126.0221704389508
 30
0.0
 10
97.9419629504782
 20
126.0238603989105
 30
0.0
 10
97.96915156391164
 20
126.0255508109101
 30
0.0
 10
98.00225005272489
 20
126.0272113197184
 30
0.0
 10
98.03851829670334
 20
126.0287042778938
 30
0.0
 10
98.07477659096293
 20
126.0301968264956
 30
0.0
 10
98.11520420567508
 20
126.0315631131647
 30
0.0
 10
98.1564505575566
 20
126.0326896757392
 30
0.0
 10
98.19766819240306
 20
126.0338154539647
 30
0.0
 10
98.24084162487507
 20
126.0347329134313
 30
0.0
 10
98.28238993426237
 20
126.0353657652077
 30
0.0
 10
98.32390447965432
 20
126.0359981027008
 30
0.0
 10
98.36494241565792
 20
126.036363742272
 30
0.0
 10
98.40210081591671
 20
126.0364322726553
 30
0.0
 10
98.43923794905469
 20
126.0365007638162
 30
0.0
 10
98.47352441860171
 20
126.0362743820292
 30
0.0
 10
98.50212143622132
 20
126.0357719390265
 30
0.0
 10
98.5307161333563
 20
126.0352695367943
 30
0.0
 10
98.5544107697383
 20
126.0344772877153
 30
0.0
 10
98.5712487852667
 20
126.0334609164564
 30
0.0
 10
98.58809429749397
 20
126.0324440926841
 30
0.0
 10
98.59854164732741
 20
126.0311749497872
 30
0.0
 10
98.60173254356842
 20
126.0297585972866
 30
0.0
 10
98.6049259171248
 20
126.0283411451727
 30
0.0
 10
98.60093989702487
 20
126.0267372096077
 30
0.0
 10
98.5901083542855
 20
126.0250794946165
 30
0.0
 10
98.57926849637765
 20
126.0234205070293
 30
0.0
 10
98.5612738329243
 20
126.0216619263503
 30
0.0
 10
98.53761423859756
 20
126.019949267876
 30
0.0
 10
98.513944638675
 20
126.0182358851217
 30
0.0
 10
98.48395211812016
 20
126.0165211974379
 30
0.0
 10
98.45011904601562
 20
126.0149472526764
 30
0.0
 10
98.41628960708074
 20
126.0133734769333
 30
0.0
 10
98.37768629380092
 20
126.0118969771193
 30
0.0
 10
98.33750736339235
 20
126.0106402742537
 30
0.0
 10
98.29735217377254
 20
126.0093843139445
 30
0.0
 10
98.2545142915577
 20
126.008313222765
 30
0.0
 10
98.21254625628097
 20
126.0075160082102
 30
0.0
 10
98.17061243351205
 20
126.0067194435479
 30
0.0
 10
98.12838939371072
 20
126.0061743273129
 30
0.0
 10
98.08937907834853
 20
126.0059259833522
 30
0.0
 10
98.06499314909951
 20
126.005770739843
 30
0.0
 10
98.04150079001688
 20
126.0057281131513
 30
0.0
 10
98.01967410052264
 20
126.0057979866471
 30
0.0
  0
LINE
  5
BC
330
98
100
AcDbEntity
  8
$DDT_AUDIT_GENERATED_(82)
  6
Continuous
 62
     7
100
AcDbLine
 10
99.3528399971
 20
125.9558242032
 30
0.0
 11
100.1028172846
 21
125.9788121784
 31
0.0
  0
SPLINE
  5
BD
330
98
100
AcDbEntity
  8
$DDT_AUDIT_GENERATED_(82)
  6
Continuous
 62
     7
100
AcDbSpline
210
0.0
220
0.0
230
1.0
 70
    11
 71
     3
 72
    62
 73
    58
 74
     0
 42
0.0000000066344946
 43
0.0000000001
 40
0.0
 40
0.0
 40
0.0
 40
0.0
 40
0.0536525893304208
 40
0.0536525893304208
 40
0.0536525893304208
 40
0.1073053404177939
 40
0.1073053404177939
 40
0.1073053404177939
 40
0.1609574032237688
 40
0.1609574032237688
 40
0.1609574032237688
 40
0.2146304701454184
 40
0.2146304701454184
 40
0.2146304701454184
 40
0.2683382974254299
 40
0.2683382974254299
 40
0.2683382974254299
 40
0.3220794423685813
 40
0.3220794423685813
 40
0.3220794423685813
 40
0.375837861734101
 40
0.375837861734101
 40
0.375837861734101
 40
0.4295899071278442
 40
0.4295899071278442
 40
0.4295899071278442
 40
0.4833147055609383
 40
0.4833147055609383
 40
0.4833147055609383
 40
0.5370033497659655
 40
0.5370033497659655
 40
0.5370033497659655
 40
0.5906628054284603
 40
0.5906628054284603
 40
0.5906628054284603
 40
0.6443128193380435
 40
0.6443128193380435
 40
0.6443128193380435
 40
0.6979772452374293
 40
0.6979772452374293
 40
0.6979772452374293
 40
0.7516736187433957
 40
0.7516736187433957
 40
0.7516736187433957
 40
0.8054055028953394
 40
0.8054055028953394
 40
0.8054055028953394
 40
0.8591609102787584
 40
0.8591609102787584
 40
0.8591609102787584
 40
0.9129175197776824
 40
0.9129175197776824
 40
0.9129175197776824
 40
0.9666524611170297
 40
0.9666524611170297
 40
0.9666524611170297
 40
1.0
 40
1.0
 40
1.0
 40
1.0
 10
100.1663662585422
 20
125.9849844196726
 30
0.0
 10
100.1430063624484
 20
125.9844572327779
 30
0.0
 10
100.1253328113105
 20
125.9841733595715
 30
0.0
 10
100.1148105722723
 20
125.9841563612153
 30
0.0
 10
100.104288305334
 20
125.984139362814
 30
0.0
 10
100.1006272592013
 20
125.9843887724461
 30
0.0
 10
100.104129180029
 20
125.9848838883337
 30
0.0
 10
100.1076310840832
 20
125.9853790018499
 30
0.0
 10
100.1183920656619
 20
125.9861334550928
 30
0.0
 10
100.1355179936538
 20
125.9870847069612
 30
0.0
 10
100.1526506474813
 20
125.988036332413
 30
0.0
 10
100.1766249944099
 20
125.9892111232665
 30
0.0
 10
100.2054544594586
 20
125.9905118183101
 30
0.0
 10
100.2343024008774
 20
125.9918133469496
 30
0.0
 10
100.2688064917389
 20
125.9932768043116
 30
0.0
 10
100.3061109041616
 20
125.9947811085872
 30
0.0
 10
100.343438018626
 20
125.996286328325
 30
0.0
 10
100.3845979779312
 20
125.9978739442306
 30
0.0
 10
100.4261841831084
 20
125.9994125645128
 30
0.0
 10
100.4677832698408
 20
126.000951661391
 30
0.0
 10
100.5109565022798
 20
126.0024841905962
 30
0.0
 10
100.5521276408702
 20
126.0038831781192
 30
0.0
 10
100.5932936322822
 20
126.0052819907421
 30
0.0
 10
100.6335941945491
 20
126.0065858976906
 30
0.0
 10
100.6696870242264
 20
126.007686707717
 30
0.0
 10
100.7057616171087
 20
126.008786961532
 30
0.0
 10
100.7386284445283
 20
126.009714687933
 30
0.0
 10
100.7655593178011
 20
126.0103928165122
 30
0.0
 10
100.7924723102226
 20
126.0110704948454
 30
0.0
 10
100.8141999108025
 20
126.0115176046452
 30
0.0
 10
100.8289387975034
 20
126.0116969869451
 30
0.0
 10
100.8436698541434
 20
126.0118762739479
 30
0.0
 10
100.8518260747664
 20
126.0117930665753
 30
0.0
 10
100.8527323020326
 20
126.0114542764059
 30
0.0
 10
100.853638379241
 20
126.0111155423352
 30
0.0
 10
100.8473221574193
 20
126.0105119828196
 30
0.0
 10
100.8343095919235
 20
126.0096936693197
 30
0.0
 10
100.8212934814608
 20
126.0088751328896
 30
0.0
 10
100.8012190685144
 20
126.007819181518
 30
0.0
 10
100.7757507854068
 20
126.0066132922836
 30
0.0
 10
100.7502674531605
 20
126.0054066904926
 30
0.0
 10
100.7186819027372
 20
126.004016732004
 30
0.0
 10
100.6836090092249
 20
126.0025584502342
 30
0.0
 10
100.6485132967861
 20
126.0010992196854
 30
0.0
 10
100.608958317373
 20
125.9995313537411
 30
0.0
 10
100.5682175079345
 20
125.9979845928598
 30
0.0
 10
100.5274593643923
 20
125.9964371738739
 30
0.0
 10
100.4843901551621
 20
125.9948681972215
 30
0.0
 10
100.4425763236308
 20
125.9934075951399
 30
0.0
 10
100.400761913705
 20
125.9919469728544
 30
0.0
 10
100.3590489670892
 20
125.9905544223487
 30
0.0
 10
100.3208956306445
 20
125.9893454166133
 30
0.0
 10
100.2827577107531
 20
125.9881368993987
 30
0.0
 10
100.2471238419701
 20
125.9870784245027
 30
0.0
 10
100.2169513126362
 20
125.9862578731141
 30
0.0
 10
100.1980618650476
 20
125.9857441686687
 30
0.0
 10
100.181012716412
 20
125.9853149614101
 30
0.0
 10
100.1663662585422
 20
125.9849844196726
 30
0.0
  0
SPLINE
  5
BE
330
98
100
AcDbEntity
  8
$DDT_AUDIT_GENERATED_(82)
  6
Continuous
 62
     7
100
AcDbSpline
210
0.0
220
0.0
230
1.0
 70
    11
 71
     3
 72
    62
 73
    58
 74
     0
 42
0.0000000066223406
 43
0.0000000001
 40
0.0
 40
0.0
 40
0.0
 40
0.0
 40
0.0536782124910413
 40
0.0536782124910413
 40
0.0536782124910413
 40
0.1073567158758175
 40
0.1073567158758175
 40
0.1073567158758175
 40
0.1610318474840058
 40
0.1610318474840058
 40
0.1610318474840058
 40
0.2147146563796297
 40
0.2147146563796297
 40
0.2147146563796297
 40
0.2684146240694349
 40
0.2684146240694349
 40
0.2684146240694349
 40
0.322133722625376
 40
0.322133722625376
 40
0.322133722625376
 40
0.3758655446047432
 40
0.3758655446047432
 40
0.3758655446047432
 40
0.4295980982895005
 40
0.4295980982895005
 40
0.4295980982895005
 40
0.4833190625170718
 40
0.4833190625170718
 40
0.4833190625170718
 40
0.5370211987372581
 40
0.5370211987372581
 40
0.5370211987372581
 40
0.5907055297094583
 40
0.5907055297094583
 40
0.5907055297094583
 40
0.644380882618434
 40
0.644380882618434
 40
0.644380882618434
 40
0.6980600108409
 40
0.6980600108409
 40
0.6980600108409
 40
0.7517540088174339
 40
0.7517540088174339
 40
0.7517540088174339
 40
0.8054674605040975
 40
0.8054674605040975
 40
0.8054674605040975
 40
0.8591964304189177
 40
0.8591964304189177
 40
0.8591964304189177
 40
0.9129301779062
 40
0.9129301779062
 40
0.9129301779062
 40
0.9666558604438811
 40
0.9666558604438811
 40
0.9666558604438811
 40
1.0
 40
1.0
 40
1.0
 40
1.0
 10
98.71368782070505
 20
125.9428933390471
 30
0.0
 10
98.68390524395913
 20
125.9423941693517
 30
0.0
 10
98.658812118416
 20
125.9420621358928
 30
0.0
 10
98.6404847129721
 20
125.9419279977461
 30
0.0
 10
98.62215728150815
 20
125.9417938594089
 30
0.0
 10
98.61009162024015
 20
125.9418522333987
 30
0.0
 10
98.60528676063993
 20
125.9420982791643
 30
0.0
 10
98.60048218048505
 20
125.94234431062
 30
0.0
 10
98.60280491897147
 20
125.9427847722981
 30
0.0
 10
98.61206095372224
 20
125.9433831614405
 30
0.0
 10
98.62131833158794
 20
125.9439816374133
 30
0.0
 10
98.63776601787825
 20
125.9447545811417
 30
0.0
 10
98.66004056980299
 20
125.9456379824519
 30
0.0
 10
98.68232218898397
 20
125.9465216640471
 30
0.0
 10
98.71104847974053
 20
125.9475402318626
 30
0.0
 10
98.74384069669605
 20
125.9486093746489
 30
0.0
 10
98.77664440743135
 20
125.9496788921733
 30
0.0
 10
98.81442135267783
 20
125.9508285094664
 30
0.0
 10
98.85404422044057
 20
125.951963067678
 30
0.0
 10
98.89367621004108
 20
125.9530978870836
 30
0.0
 10
98.93624811225101
 20
125.9542489405141
 30
0.0
 10
98.97823468765722
 20
125.9553209036565
 30
0.0
 10
99.02022164120967
 20
125.9563928764533
 30
0.0
 10
99.06278168025655
 20
125.9574153314089
 30
0.0
 10
99.10238847185232
 20
125.9583035282038
 30
0.0
 10
99.14198669849348
 20
125.9591915329263
 30
0.0
 10
99.17972558681116
 20
125.9599698378944
 30
0.0
 10
99.2124765773911
 20
125.9605738900847
 30
0.0
 10
99.24521621190432
 20
125.9611777328261
 30
0.0
 10
99.27387472090321
 20
125.9616241022622
 30
0.0
 10
99.29607602829444
 20
125.9618759619442
 30
0.0
 10
99.31827011673745
 20
125.9621277397318
 30
0.0
 10
99.33462346500333
 20
125.9621920797781
 30
0.0
 10
99.34378116811276
 20
125.9620636442943
 30
0.0
 10
99.35293739691413
 20
125.9619352294874
 30
0.0
 10
99.35515293728757
 20
125.9616105635082
 30
0.0
 10
99.3502456744359
 20
125.9611165657127
 30
0.0
 10
99.34533804993855
 20
125.9606225315115
 30
0.0
 10
99.3331714803378
 20
125.9599455253517
 30
0.0
 10
99.31475517005683
 20
125.9591416366537
 30
0.0
 10
99.29633377655186
 20
125.9583375260684
 30
0.0
 10
99.27115153969577
 20
125.9573842997117
 30
0.0
 10
99.2412942139817
 20
125.956360880514
 30
0.0
 10
99.21142621738173
 20
125.9553370955505
 30
0.0
 10
99.17605637527032
 20
125.9542148424301
 30
0.0
 10
99.13811278964434
 20
125.9530870164647
 30
0.0
 10
99.10015849527366
 20
125.9519588721952
 30
0.0
 10
99.05858225709895
 20
125.9507940391978
 30
0.0
 10
99.01682640261637
 20
125.9496889624435
 30
0.0
 10
98.97506706585617
 20
125.9485837935302
 30
0.0
 10
98.9319760225925
 20
125.9475079027165
 30
0.0
 10
98.89112290188076
 20
125.9465504271269
 30
0.0
 10
98.85027599226123
 20
125.9455930971068
 30
0.0
 10
98.81053925073127
 20
125.9447277327684
 30
0.0
 10
98.77520639929322
 20
125.9440260803105
 30
0.0
 10
98.75308496854277
 20
125.9435867849911
 30
0.0
 10
98.73235046160079
 20
125.943206133499
 30
0.0
 10
98.71368782070505
 20
125.9428933390471
 30
0.0
  0
LINE
  5
BF
330
98
100
AcDbEntity
  8
$DDT_AUDIT_GENERATED_(82)
  6
Continuous
 62
     7
100
AcDbLine
 10
100.8528404546
 20
126.0056377668
 30
0.0
 11
101.6028175402
 21
126.0362995971
 31
0.0
  0
SPLINE
  5
C0
330
98
100
AcDbEntity
  8
$DDT_AUDIT_GENERATED_(82)
  6
Continuous
 62
     7
100
AcDbSpline
210
0.0
220
0.0
230
1.0
 70
    11
 71
     3
 72
    62
 73
    58
 74
     0
 42
0.0000000066321709
 43
0.0000000001
 40
0.0
 40
0.0
 40
0.0
 40
0.0
 40
0.0536595300824741
 40
0.0536595300824741
 40
0.0536595300824741
 40
0.1073183006452331
 40
0.1073183006452331
 40
0.1073183006452331
 40
0.1609894926449773
 40
0.1609894926449773
 40
0.1609894926449773
 40
0.214691627063985
 40
0.214691627063985
 40
0.214691627063985
 40
0.2684257312299219
 40
0.2684257312299219
 40
0.2684257312299219
 40
0.3221788298267547
 40
0.3221788298267547
 40
0.3221788298267547
 40
0.37592959598343
 40
0.37592959598343
 40
0.37592959598343
 40
0.4296577044064031
 40
0.4296577044064031
 40
0.4296577044064031
 40
0.4833527758835506
 40
0.4833527758835506
 40
0.4833527758835506
 40
0.5370189367306186
 40
0.5370189367306186
 40
0.5370189367306186
 40
0.5906729800296631
 40
0.5906729800296631
 40
0.5906729800296631
 40
0.6443369828333994
 40
0.6443369828333994
 40
0.6443369828333994
 40
0.698028650056497
 40
0.698028650056497
 40
0.698028650056497
 40
0.7517535849149386
 40
0.7517535849149386
 40
0.7517535849149386
 40
0.8055028260372998
 40
0.8055028260372998
 40
0.8055028260372998
 40
0.8592567425969666
 40
0.8592567425969666
 40
0.8592567425969666
 40
0.9129936324537782
 40
0.9129936324537782
 40
0.9129936324537782
 40
0.9666992644757988
 40
0.9666992644757988
 40
0.9666992644757988
 40
1.0
 40
1.0
 40
1.0
 40
1.0
 10
99.41591372414113
 20
125.9770932624219
 30
0.0
 10
99.39262535143672
 20
125.9769973535898
 30
0.0
 10
99.37503666461132
 20
125.9771558682773
 30
0.0
 10
99.3646035926636
 20
125.977555649344
 30
0.0
 10
99.35417060102913
 20
125.9779554273333
 30
0.0
 10
99.35060519329099
 20
125.9786074810998
 30
0.0
 10
99.3541992021044
 20
125.97945774382
 30
0.0
 10
99.35779405885334
 20
125.9803082071429
 30
0.0
 10
99.3686503815963
 20
125.9813804003207
 30
0.0
 10
99.38586607398489
 20
125.9825855408067
 30
0.0
 10
99.40309160260735
 20
125.9837913698531
 30
0.0
 10
99.42715823857961
 20
125.9851635244753
 30
0.0
 10
99.45607254902193
 20
125.986588465003
 30
0.0
 10
99.48500377093735
 20
125.9880142389535
 30
0.0
 10
99.51958590375646
 20
125.9895321673848
 30
0.0
 10
99.55695650997781
 20
125.9910166327149
 30
0.0
 10
99.59433990976706
 20
125.9925016062415
 30
0.0
 10
99.63554497267158
 20
125.9939940552223
 30
0.0
 10
99.67715962134464
 20
125.9953703557005
 30
0.0
 10
99.71877217405621
 20
125.9967465868601
 30
0.0
 10
99.76194275348467
 20
125.9980446577027
 30
0.0
 10
99.80309318294833
 20
125.9991569002716
 30
0.0
 10
99.8442262773039
 20
126.0002686742951
 30
0.0
 10
99.88447632309895
 20
126.0012254579144
 30
0.0
 10
99.92050461066022
 20
126.0019477966793
 30
0.0
 10
99.95651101160888
 20
126.002669696635
 30
0.0
 10
99.98929448868049
 20
126.0031773547747
 30
0.0
 10
100.0161356422476
 20
126.0034285914438
 30
0.0
 10
100.0429626468442
 20
126.0036796956768
 30
0.0
 10
100.0645937360772
 20
126.003681577347
 30
0.0
 10
100.079236878502
 20
126.0034340801692
 30
0.0
 10
100.0938768639978
 20
126.0031866363496
 30
0.0
 10
100.1019358276353
 20
126.0026831077728
 30
0.0
 10
100.1027492733082
 20
126.0019652705665
 30
0.0
 10
100.1035628737643
 20
126.0012472967694
 30
0.0
 10
100.0971509957676
 20
126.0002951567925
 30
0.0
 10
100.0840481591766
 20
125.9991877413445
 30
0.0
 10
100.0709386061279
 20
125.9980797582402
 30
0.0
 10
100.0507702683066
 20
125.9967858149507
 30
0.0
 10
100.0252146400757
 20
125.9954130144929
 30
0.0
 10
99.99964341278157
 20
125.9940393760825
 30
0.0
 10
99.96797354869472
 20
125.9925489220126
 30
0.0
 10
99.93282660777406
 20
125.9910649890813
 30
0.0
 10
99.89766416912529
 20
125.989580401823
 30
0.0
 10
99.85805176653771
 20
125.9880613974429
 30
0.0
 10
99.81726888387463
 20
125.9866337494543
 30
0.0
 10
99.77648280951773
 20
125.9852059897372
 30
0.0
 10
99.73340052675735
 20
125.9838302053216
 30
0.0
 10
99.69159180095131
 20
125.9826204435397
 30
0.0
 10
99.64979640745514
 20
125.9814110675366
 30
0.0
 10
99.6081200817152
 20
125.9803342321204
 30
0.0
 10
99.5700191963995
 20
125.9794793105476
 30
0.0
 10
99.53194026789123
 20
125.9786248816498
 30
0.0
 10
99.49638166920126
 20
125.9779685331454
 30
0.0
 10
99.46629331676719
 20
125.9775647778133
 30
0.0
 10
99.4474725650771
 20
125.9773122223148
 30
0.0
 10
99.43049323119558
 20
125.9771533054105
 30
0.0
 10
99.41591372414113
 20
125.9770932624219
 30
0.0
  0
SPLINE
  5
C1
330
98
100
AcDbEntity
  8
$DDT_AUDIT_GENERATED_(82)
  6
Continuous
 62
     7
100
AcDbSpline
210
0.0
220
0.0
230
1.0
 70
    11
 71
     3
 72
    62
 73
    58
 74
     0
 42
0.0000000066253083
 43
0.0000000001
 40
0.0
 40
0.0
 40
0.0
 40
0.0
 40
0.05364197220918
 40
0.05364197220918
 40
0.05364197220918
 40
0.1072822406095154
 40
0.1072822406095154
 40
0.1072822406095154
 40
0.1609491541755664
 40
0.1609491541755664
 40
0.1609491541755664
 40
0.214668284462728
 40
0.214668284462728
 40
0.214668284462728
 40
0.2684332395437179
 40
0.2684332395437179
 40
0.2684332395437179
 40
0.3222175324591439
 40
0.3222175324591439
 40
0.3222175324591439
 40
0.3759861256628543
 40
0.3759861256628543
 40
0.3759861256628543
 40
0.4297108415262605
 40
0.4297108415262605
 40
0.4297108415262605
 40
0.4833827952083994
 40
0.4833827952083994
 40
0.4833827952083994
 40
0.5370162728886959
 40
0.5370162728886959
 40
0.5370162728886959
 40
0.5906423833616561
 40
0.5906423833616561
 40
0.5906423833616561
 40
0.6442954023750161
 40
0.6442954023750161
 40
0.6442954023750161
 40
0.697997825815163
 40
0.697997825815163
 40
0.697997825815163
 40
0.7517505621300408
 40
0.7517505621300408
 40
0.7517505621300408
 40
0.8055324812546306
 40
0.8055324812546306
 40
0.8055324812546306
 40
0.8593096025708241
 40
0.8593096025708241
 40
0.8593096025708241
 40
0.9130500117452355
 40
0.9130500117452355
 40
0.9130500117452355
 40
0.9667379321829505
 40
0.9667379321829505
 40
0.9667379321829505
 40
1.0
 40
1.0
 40
1.0
 40
1.0
 10
100.1657517452591
 20
126.0273286242979
 30
0.0
 10
100.1424936874071
 20
126.0274239544441
 30
0.0
 10
100.1249389196579
 20
126.0278417021756
 30
0.0
 10
100.1145372624478
 20
126.028549020905
 30
0.0
 10
100.104135805024
 20
126.0292563260489
 30
0.0
 10
100.1006008152181
 20
126.0302716856013
 30
0.0
 10
100.1042187028528
 20
126.0315108915339
 30
0.0
 10
100.1078384034026
 20
126.0327507184298
 30
0.0
 10
100.1187172297244
 20
126.0342487483262
 30
0.0
 10
100.1359496795036
 20
126.0358810019842
 30
0.0
 10
100.1531986949693
 20
126.0375148247401
 30
0.0
 10
100.1772884646205
 20
126.0393281347217
 30
0.0
 10
100.206223896975
 20
126.0411709681534
 30
0.0
 10
100.2351834970789
 20
126.0430153407753
 30
0.0
 10
100.2697953000873
 20
126.0449401354406
 30
0.0
 10
100.3071949593049
 20
126.0467860643545
 30
0.0
 10
100.3446074648587
 20
126.048632627323
 30
0.0
 10
100.3858423062866
 20
126.0504512218246
 30
0.0
 10
100.427483912733
 20
126.052091081778
 30
0.0
 10
100.4691130538901
 20
126.0537304508442
 30
0.0
 10
100.5122983230591
 20
126.055236447569
 30
0.0
 10
100.5534574151888
 20
126.0564839538933
 30
0.0
 10
100.5945831092007
 20
126.0577304479416
 30
0.0
 10
100.6348216368839
 20
126.0587532792199
 30
0.0
 10
100.6708321486789
 20
126.0594673364957
 30
0.0
 10
100.7068078221344
 20
126.0601807029574
 30
0.0
 10
100.739556731431
 20
126.0606055774016
 30
0.0
 10
100.7663612821955
 20
126.0607065931433
 30
0.0
 10
100.7931471057734
 20
126.0608075383096
 30
0.0
 10
100.8147358897011
 20
126.0605878700457
 30
0.0
 10
100.8293407943092
 20
126.0600658548597
 30
0.0
 10
100.8439438942358
 20
126.0595439041775
 30
0.0
 10
100.8519677778068
 20
126.0587053180701
 30
0.0
 10
100.8527538702576
 20
126.0576196936485
 30
0.0
 10
100.8535403597943
 20
126.0565335208358
 30
0.0
 10
100.8471040011034
 20
126.0551701631245
 30
0.0
 10
100.833983467176
 20
126.0536425417763
 30
0.0
 10
100.8208509634397
 20
126.0521135267855
 30
0.0
 10
100.8006607342807
 20
126.0503778412263
 30
0.0
 10
100.7750863000237
 20
126.0485790681136
 30
0.0
 10
100.7494883319548
 20
126.0467786397545
 30
0.0
 10
100.7177907602466
 20
126.0448653848504
 30
0.0
 10
100.6826167558055
 20
126.042997588674
 30
0.0
 10
100.6474242727188
 20
126.0411288112518
 30
0.0
 10
100.6077806842821
 20
126.0392539875455
 30
0.0
 10
100.566968459611
 20
126.0375284311993
 30
0.0
 10
100.5261603143538
 20
126.0358030473323
 30
0.0
 10
100.4830569693665
 20
126.0341792744264
 30
0.0
 10
100.4412323615756
 20
126.0327918960781
 30
0.0
 10
100.3994362722884
 20
126.0314054637268
 30
0.0
 10
100.3577628790249
 20
126.0302168283537
 30
0.0
 10
100.3196716054468
 20
126.0293248258443
 30
0.0
 10
100.2816170776293
 20
126.0284336838288
 30
0.0
 10
100.2460871292079
 20
126.0278140081045
 30
0.0
 10
100.2160311734801
 20
126.0275173615241
 30
0.0
 10
100.1972460876266
 20
126.027331956291
 30
0.0
 10
100.1803002485427
 20
126.027268992881
 30
0.0
 10
100.1657517452591
 20
126.0273286242979
 30
0.0
  0
SPLINE
  5
C2
330
98
100
AcDbEntity
  8
$DDT_AUDIT_GENERATED_(82)
  6
Continuous
 62
     7
100
AcDbSpline
210
0.0
220
0.0
230
1.0
 70
    11
 71
     3
 72
    62
 73
    58
 74
     0
 42
0.0000000066153244
 43
0.0000000001
 40
0.0
 40
0.0
 40
0.0
 40
0.0
 40
0.0536598515106709
 40
0.0536598515106709
 40
0.0536598515106709
 40
0.107318624491465
 40
0.107318624491465
 40
0.107318624491465
 40
0.1609944266197646
 40
0.1609944266197646
 40
0.1609944266197646
 40
0.2147055490224769
 40
0.2147055490224769
 40
0.2147055490224769
 40
0.268449083777954
 40
0.268449083777954
 40
0.268449083777954
 40
0.3222079165215532
 40
0.3222079165215532
 40
0.3222079165215532
 40
0.3759581929589675
 40
0.3759581929589675
 40
0.3759581929589675
 40
0.4296797944345824
 40
0.4296797944345824
 40
0.4296797944345824
 40
0.4833651965412376
 40
0.4833651965412376
 40
0.4833651965412376
 40
0.537022765157033
 40
0.537022765157033
 40
0.537022765157033
 40
0.5906730497758369
 40
0.5906730497758369
 40
0.5906730497758369
 40
0.6443397620130338
 40
0.6443397620130338
 40
0.6443397620130338
 40
0.6980394157920257
 40
0.6980394157920257
 40
0.6980394157920257
 40
0.751774117558256
 40
0.751774117558256
 40
0.751774117558256
 40
0.8055306225953157
 40
0.8055306225953157
 40
0.8055306225953157
 40
0.8592861042093763
 40
0.8592861042093763
 40
0.8592861042093763
 40
0.9130181646403321
 40
0.9130181646403321
 40
0.9130181646403321
 40
0.9667146904899139
 40
0.9667146904899139
 40
0.9667146904899139
 40
1.0
 40
1.0
 40
1.0
 40
1.0
 10
98.7126138723935
 20
125.9842057338117
 30
0.0
 10
98.68295457926908
 20
125.9842360894858
 30
0.0
 10
98.65800643271105
 20
125.9845336094485
 30
0.0
 10
98.63983443690162
 20
125.9850735945927
 30
0.0
 10
98.6216626454903
 20
125.9856135736631
 30
0.0
 10
98.60976551349071
 20
125.9864108864764
 30
0.0
 10
98.60512374621001
 20
125.987399434008
 30
0.0
 10
98.60048048957576
 20
125.9883882987242
 30
0.0
 10
98.6029688640416
 20
125.9895957595452
 30
0.0
 10
98.61237852878835
 20
125.9909218597203
 30
0.0
 10
98.62179431594404
 20
125.9922488227241
 30
0.0
 10
98.63839965271411
 20
125.9937311451086
 30
0.0
 10
98.66081818388572
 20
125.9952461860088
 30
0.0
 10
98.68324997431255
 20
125.9967621229673
 30
0.0
 10
98.71212033063901
 20
125.9983526145058
 30
0.0
 10
98.74503951941469
 20
125.9998860214077
 30
0.0
 10
98.77796770316313
 20
126.0014198473038
 30
0.0
 10
98.81585554275212
 20
126.0029388721922
 30
0.0
 10
98.85556569478454
 20
126.004317224734
 30
0.0
 10
98.89526929665067
 20
126.0056953499174
 30
0.0
 10
98.93789065691858
 20
126.0069708815462
 30
0.0
 10
98.97989719448357
 20
126.00803796892
 30
0.0
 10
99.02188142236068
 20
126.0091044895633
 30
0.0
 10
99.06441053029339
 20
126.0099922202818
 30
0.0
 10
99.10395722482232
 20
126.0106274075545
 30
0.0
 10
99.14347764786599
 20
126.0112621728623
 30
0.0
 10
99.18111032710908
 20
126.0116622437003
 30
0.0
 10
99.21373465842865
 20
126.0117943707541
 30
0.0
 10
99.24634248203164
 20
126.0119264309524
 30
0.0
 10
99.27484657659376
 20
126.0117944651111
 30
0.0
 10
99.29688653181861
 20
126.0114094339219
 30
0.0
 10
99.31892371405375
 20
126.011024451176
 30
0.0
 10
99.33510619115923
 20
126.0103758654563
 30
0.0
 10
99.34409792627662
 20
126.009517476525
 30
0.0
 10
99.35309244219538
 20
126.0086588221266
 30
0.0
 10
99.35514003103329
 20
126.0075665855264
 30
0.0
 10
99.35007593679506
 20
126.0063312392108
 30
0.0
 10
99.34500876011718
 20
126.005095140958
 30
0.0
 10
99.33268191108125
 20
126.0036817031594
 30
0.0
 10
99.31411847454147
 20
126.0022078964001
 30
0.0
 10
99.29554312798518
 20
126.000733144069
 30
0.0
 10
99.27021118884261
 20
125.9991572919551
 30
0.0
 10
99.24021981009464
 20
125.9976107459726
 30
0.0
 10
99.21021662778631
 20
125.9960635913235
 30
0.0
 10
99.17472261170737
 20
125.9945030902228
 30
0.0
 10
99.13667623888978
 20
125.9930584865864
 30
0.0
 10
99.09863089329814
 20
125.9916139219532
 30
0.0
 10
99.05698315829214
 20
125.9902453846863
 30
0.0
 10
99.0151838965462
 20
125.9890663709773
 30
0.0
 10
98.97340285602709
 20
125.9878878712266
 30
0.0
 10
98.93031694588521
 20
125.9868662042422
 30
0.0
 10
98.88949914137719
 20
125.9860862029977
 30
0.0
 10
98.84870801980117
 20
125.9853067116464
 30
0.0
 10
98.80905612857856
 20
125.9847470608156
 30
0.0
 10
98.77383208445472
 20
125.9844537464858
 30
0.0
 10
98.75180526743438
 20
125.9842703268577
 30
0.0
 10
98.73117324042533
 20
125.9841867386818
 30
0.0
 10
98.7126138723935
 20
125.9842057338117
 30
0.0
  0
SPLINE
  5
C3
330
98
100
AcDbEntity
  8
$DDT_AUDIT_GENERATED_(82)
  6
Continuous
 62
     7
100
AcDbSpline
210
0.0
220
0.0
230
1.0
 70
    11
 71
     3
 72
    62
 73
    58
 74
     0
 42
0.0000000066297311
 43
0.0000000001
 40
0.0
 40
0.0
 40
0.0
 40
0.0
 40
0.0536284850345851
 40
0.0536284850345851
 40
0.0536284850345851
 40
0.1072563322776291
 40
0.1072563322776291
 40
0.1072563322776291
 40
0.1608958217062736
 40
0.1608958217062736
 40
0.1608958217062736
 40
0.2145784619772919
 40
0.2145784619772919
 40
0.2145784619772919
 40
0.2683138363924867
 40
0.2683138363924867
 40
0.2683138363924867
 40
0.3220884665830495
 40
0.3220884665830495
 40
0.3220884665830495
 40
0.3758716253482269
 40
0.3758716253482269
 40
0.3758716253482269
 40
0.4296287777997583
 40
0.4296287777997583
 40
0.4296287777997583
 40
0.483336796722684
 40
0.483336796722684
 40
0.483336796722684
 40
0.5369941597316228
 40
0.5369941597316228
 40
0.5369941597316228
 40
0.5906215663855018
 40
0.5906215663855018
 40
0.5906215663855018
 40
0.6442527858234842
 40
0.6442527858234842
 40
0.6442527858234842
 40
0.6979198713560724
 40
0.6979198713560724
 40
0.6979198713560724
 40
0.7516391961601435
 40
0.7516391961601435
 40
0.7516391961601435
 40
0.8054042972377496
 40
0.8054042972377496
 40
0.8054042972377496
 40
0.8591886334765991
 40
0.8591886334765991
 40
0.8591886334765991
 40
0.9129571680585586
 40
0.9129571680585586
 40
0.9129571680585586
 40
0.9666817795137331
 40
0.9666817795137331
 40
0.9666817795137331
 40
1.0
 40
1.0
 40
1.0
 40
1.0
 10
100.9159697429938
 20
126.0275595299385
 30
0.0
 10
100.8926817625266
 20
126.027225194387
 30
0.0
 10
100.875086355314
 20
126.0272033334873
 30
0.0
 10
100.8646409039072
 20
126.0274957642276
 30
0.0
 10
100.8541955134825
 20
126.0277881932605
 30
0.0
 10
100.8506117915792
 20
126.028402960351
 30
0.0
 10
100.8541822953865
 20
126.0292890194526
 30
0.0
 10
100.8577536076013
 20
126.0301752791692
 30
0.0
 10
100.8685801666752
 20
126.0313573471311
 30
0.0
 10
100.8857605578994
 20
126.0327372823506
 30
0.0
 10
100.9029546970957
 20
126.0341183218122
 30
0.0
 10
100.926985968272
 20
126.0357355701749
 30
0.0
 10
100.9558631041538
 20
126.0374552305158
 30
0.0
 10
100.9847681930555
 20
126.039176555485
 30
0.0
 10
101.0193248532438
 20
126.0410479186182
 30
0.0
 10
101.0566736383811
 20
126.0429145461775
 30
0.0
 10
101.0940490293444
 20
126.0447825034499
 30
0.0
 10
101.135251319245
 20
126.0466972323068
 30
0.0
 10
101.1768698312682
 20
126.0485002042944
 30
0.0
 10
101.2184943581411
 20
126.0503034368537
 30
0.0
 10
101.2616841949648
 20
126.0520446458045
 30
0.0
 10
101.3028590076622
 20
126.0535793828358
 30
0.0
 10
101.3440137553985
 20
126.055113371972
 30
0.0
 10
101.3842918865452
 20
126.0564834382237
 30
0.0
 10
101.4203493969311
 20
126.0575756886209
 30
0.0
 10
101.4563742475459
 20
126.0586669496916
 30
0.0
 10
101.4891807759547
 20
126.059511018164
 30
0.0
 10
101.5160437617352
 20
126.0600376396015
 30
0.0
 10
101.5428818569711
 20
126.0605637730852
 30
0.0
 10
101.5645281049085
 20
126.060787565185
 30
0.0
 10
101.5791867204997
 20
126.0606903908339
 30
0.0
 10
101.5938374112175
 20
126.0605932690181
 30
0.0
 10
101.6019123225572
 20
126.0601728631214
 30
0.0
 10
101.6027457237682
 20
126.059464112832
 30
0.0
 10
101.6035791933828
 20
126.0587553043699
 30
0.0
 10
101.5971934878052
 20
126.0577385970654
 30
0.0
 10
101.5841226659654
 20
126.0564983142568
 30
0.0
 10
101.5710431091613
 20
126.0552572025924
 30
0.0
 10
101.5509097729649
 20
126.0537580510332
 30
0.0
 10
101.5253924961118
 20
126.0521249652353
 30
0.0
 10
101.4998506794247
 20
126.0504903089071
 30
0.0
 10
101.4682111455819
 20
126.0486764336899
 30
0.0
 10
101.4330925102669
 20
126.046833371982
 30
0.0
 10
101.3979445750163
 20
126.0449887725836
 30
0.0
 10
101.3583426844994
 20
126.0430640828867
 30
0.0
 10
101.3175641441843
 20
126.0412185827422
 30
0.0
 10
101.276771674081
 20
126.0393724521821
 30
0.0
 10
101.2336760042271
 20
126.0375546250948
 30
0.0
 10
101.1918478627414
 20
126.0359157830264
 30
0.0
 10
101.1500323200415
 20
126.0342774345831
 30
0.0
 10
101.1083289243598
 20
126.0327727348694
 30
0.0
 10
101.0701985733477
 20
126.0315266605638
 30
0.0
 10
101.0320991939299
 20
126.0302815983891
 30
0.0
 10
100.9965150282973
 20
126.0292603712304
 30
0.0
 10
100.9664019797298
 20
126.0285479253577
 30
0.0
 10
100.9475624716935
 20
126.0281022006509
 30
0.0
 10
100.9305649206219
 20
126.0277690666465
 30
0.0
 10
100.9159697429938
 20
126.0275595299385
 30
0.0
  0
SPLINE
  5
C4
330
98
100
AcDbEntity
  8
$DDT_AUDIT_GENERATED_(82)
  6
Continuous
 62
     7
100
AcDbSpline
210
0.0
220
0.0
230
1.0
 70
    11
 71
     3
 72
    62
 73
    58
 74
     0
 42
0.0000000066083642
 43
0.0000000001
 40
0.0
 40
0.0
 40
0.0
 40
0.0
 40
0.0536375389868093
 40
0.0536375389868093
 40
0.0536375389868093
 40
0.1072731023532746
 40
0.1072731023532746
 40
0.1072731023532746
 40
0.1609393866488088
 40
0.1609393866488088
 40
0.1609393866488088
 40
0.2146637388173776
 40
0.2146637388173776
 40
0.2146637388173776
 40
0.2684374920067163
 40
0.2684374920067163
 40
0.2684374920067163
 40
0.3222303073024743
 40
0.3222303073024743
 40
0.3222303073024743
 40
0.3760033995887135
 40
0.3760033995887135
 40
0.3760033995887135
 40
0.4297266100322951
 40
0.4297266100322951
 40
0.4297266100322951
 40
0.483391721508788
 40
0.483391721508788
 40
0.483391721508788
 40
0.5370160313974777
 40
0.5370160313974777
 40
0.5370160313974777
 40
0.5906346640788065
 40
0.5906346640788065
 40
0.5906346640788065
 40
0.6442851595659492
 40
0.6442851595659492
 40
0.6442851595659492
 40
0.6979911166353067
 40
0.6979911166353067
 40
0.6979911166353067
 40
0.7517519063326242
 40
0.7517519063326242
 40
0.7517519063326242
 40
0.8055428762474502
 40
0.8055428762474502
 40
0.8055428762474502
 40
0.8593260701309893
 40
0.8593260701309893
 40
0.8593260701309893
 40
0.9130669007686784
 40
0.9130669007686784
 40
0.9130669007686784
 40
0.9667494109154096
 40
0.9667494109154096
 40
0.9667494109154096
 40
1.0
 40
1.0
 40
1.0
 40
1.0
 10
99.46259758644231
 20
126.0419080469311
 30
0.0
 10
99.43294630577253
 20
126.0420499489202
 30
0.0
 10
99.40800543163004
 20
126.0425318675572
 30
0.0
 10
99.38983797204337
 20
126.043314114926
 30
0.0
 10
99.37167089619801
 20
126.0440963457719
 30
0.0
 10
99.35977576147117
 20
126.0452002243613
 30
0.0
 10
99.35512988624761
 20
126.0465341972858
 30
0.0
 10
99.35048133027139
 20
126.0478689399364
 30
0.0
 10
99.3529616786349
 20
126.0494707816906
 30
0.0
 10
99.3623587883548
 20
126.0512071710923
 30
0.0
 10
99.3717659386412
 20
126.0529454157807
 30
0.0
 10
99.3883634519446
 20
126.0548663735785
 30
0.0
 10
99.41077523751439
 20
126.0568111995319
 30
0.0
 10
99.43320718646687
 20
126.0587577752019
 30
0.0
 10
99.46208239673902
 20
126.0607819300043
 30
0.0
 10
99.49501144620531
 20
126.0627161496787
 30
0.0
 10
99.52795159244992
 20
126.0646510211669
 30
0.0
 10
99.56585767086578
 20
126.0665492898794
 30
0.0
 10
99.6055905562101
 20
126.0682535434851
 30
0.0
 10
99.64530857760217
 20
126.0699571595347
 30
0.0
 10
99.68794917955208
 20
126.0715139394002
 30
0.0
 10
99.72997587313077
 20
126.0727944845532
 30
0.0
 10
99.77196382981349
 20
126.0740738494004
 30
0.0
 10
99.8144988018902
 20
126.0751128066464
 30
0.0
 10
99.85404978646322
 20
126.075824853859
 30
0.0
 10
99.89355865860371
 20
126.0765361429099
 30
0.0
 10
99.93118060491452
 20
126.0769408458715
 30
0.0
 10
99.96379414585266
 20
126.0770052580611
 30
0.0
 10
99.99638354617636
 20
126.0770696225727
 30
0.0
 10
100.0248710122802
 20
126.076795986312
 30
0.0
 10
100.0468986351646
 20
126.0762071106118
 30
0.0
 10
100.0689242493717
 20
126.0756182886106
 30
0.0
 10
100.0850986366287
 20
126.0746980846613
 30
0.0
 10
100.0940896280778
 20
126.0735228752056
 30
0.0
 10
100.1030859882131
 20
126.0723469640107
 30
0.0
 10
100.1051387793644
 20
126.0708833819312
 30
0.0
 10
100.1000857865835
 20
126.0692533382195
 30
0.0
 10
100.0950276215822
 20
126.0676216260025
 30
0.0
 10
100.0827102464153
 20
126.0657781810543
 30
0.0
 10
100.0641569859066
 20
126.0638754770351
 30
0.0
 10
100.0455851309753
 20
126.0619708660906
 30
0.0
 10
100.02025305468
 20
126.059954383503
 30
0.0
 10
99.990257337741
 20
126.0579928469284
 30
0.0
 10
99.96024535710961
 20
126.0560302468077
 30
0.0
 10
99.92473641366001
 20
126.0540685072123
 30
0.0
 10
99.88666998408553
 20
126.0522701696066
 30
0.0
 10
99.84860948328341
 20
126.0504721120885
 30
0.0
 10
99.80694106481985
 20
126.0487877675571
 30
0.0
 10
99.76511899990247
 20
126.0473570029047
 30
0.0
 10
99.7233298034903
 20
126.0459273627089
 30
0.0
 10
99.68023280782666
 20
126.0447114323215
 30
0.0
 10
99.63940508156924
 20
126.0438103711574
 30
0.0
 10
99.59862109301139
 20
126.042910275277
 30
0.0
 10
99.55897536710484
 20
126.04229953171
 30
0.0
 10
99.52375846756063
 20
126.0420289864418
 30
0.0
 10
99.50175304146472
 20
126.0418599351062
 30
0.0
 10
99.48114044609385
 20
126.0418193064581
 30
0.0
 10
99.46259758644231
 20
126.0419080469311
 30
0.0
  0
SPLINE
  5
C5
330
98
100
AcDbEntity
  8
$DDT_AUDIT_GENERATED_(82)
  6
Continuous
 62
     7
100
AcDbSpline
210
0.0
220
0.0
230
1.0
 70
    11
 71
     3
 72
    62
 73
    58
 74
     0
 42
0.0000000065997298
 43
0.0000000001
 40
0.0
 40
0.0
 40
0.0
 40
0.0
 40
0.0536109957169126
 40
0.0536109957169126
 40
0.0536109957169126
 40
0.1072188775098142
 40
0.1072188775098142
 40
0.1072188775098142
 40
0.1608747970715122
 40
0.1608747970715122
 40
0.1608747970715122
 40
0.2146168700198791
 40
0.2146168700198791
 40
0.2146168700198791
 40
0.2684287423423256
 40
0.2684287423423256
 40
0.2684287423423256
 40
0.3222634002460225
 40
0.3222634002460225
 40
0.3222634002460225
 40
0.3760636486708623
 40
0.3760636486708623
 40
0.3760636486708623
 40
0.4297873620665433
 40
0.4297873620665433
 40
0.4297873620665433
 40
0.4834261411867312
 40
0.4834261411867312
 40
0.4834261411867312
 40
0.5370089005060068
 40
0.5370089005060068
 40
0.5370089005060068
 40
0.5905889670014216
 40
0.5905889670014216
 40
0.5905889670014216
 40
0.6442207027520177
 40
0.6442207027520177
 40
0.6442207027520177
 40
0.6979358992664142
 40
0.6979358992664142
 40
0.6979358992664142
 40
0.7517299408478874
 40
0.7517299408478874
 40
0.7517299408478874
 40
0.8055636507505429
 40
0.8055636507505429
 40
0.8055636507505429
 40
0.859380291686216
 40
0.859380291686216
 40
0.859380291686216
 40
0.9131305410295502
 40
0.9131305410295502
 40
0.9131305410295502
 40
0.9667943263424247
 40
0.9667943263424247
 40
0.9667943263424247
 40
1.0
 40
1.0
 40
1.0
 40
1.0
 10
100.2128639121351
 20
126.114923542574
 30
0.0
 10
100.1831900306588
 20
126.1151741803019
 30
0.0
 10
100.1582199208301
 20
126.1158376009859
 30
0.0
 10
100.140017242272
 20
126.1168593649908
 30
0.0
 10
100.1218151765478
 20
126.1178810945956
 30
0.0
 10
100.1098779439607
 20
126.1192888087419
 30
0.0
 10
100.1051823226045
 20
126.1209656959358
 30
0.0
 10
100.1004824703575
 20
126.1226440940536
 30
0.0
 10
100.102906922545
 20
126.1246383076963
 30
0.0
 10
100.1122451522246
 20
126.1267834009355
 30
0.0
 10
100.121598176462
 20
126.128931892646
 30
0.0
 10
100.138143993807
 20
126.1312908889497
 30
0.0
 10
100.1605103725535
 20
126.1336654510488
 30
0.0
 10
100.1829051398061
 20
126.1360430270587
 30
0.0
 10
100.2117528052914
 20
126.1385017563038
 30
0.0
 10
100.2446671167162
 20
126.140838176887
 30
0.0
 10
100.2775945474758
 20
126.1431755287454
 30
0.0
 10
100.3155014200688
 20
126.1454549960505
 30
0.0
 10
100.3552481617968
 20
126.1474873725124
 30
0.0
 10
100.3949691333703
 20
126.1495184312649
 30
0.0
 10
100.4376256828544
 20
126.1513588211931
 30
0.0
 10
100.4796770992299
 20
126.1528552577255
 30
0.0
 10
100.521669139768
 20
126.1543495813166
 30
0.0
 10
100.5642184443483
 20
126.1555421903255
 30
0.0
 10
100.6037888875188
 20
126.1563335249764
 30
0.0
 10
100.6432977898395
 20
126.1571236289257
 30
0.0
 10
100.6809281781862
 20
126.1575355134927
 30
0.0
 10
100.7135558471437
 20
126.1575347880438
 30
0.0
 10
100.746150401642
 20
126.1575340633312
 30
0.0
 10
100.7746515906838
 20
126.1571215690943
 30
0.0
 10
100.7967019287282
 20
126.1563316783861
 30
0.0
 10
100.8187516056578
 20
126.1555418113606
 30
0.0
 10
100.8349588488562
 20
126.1543528637136
 30
0.0
 10
100.8439928069718
 20
126.1528635853992
 30
0.0
 10
100.8530354975221
 20
126.1513728675137
 30
0.0
 10
100.8551408231966
 20
126.1495402549947
 30
0.0
 10
100.8501458762675
 20
126.1475174786744
 30
0.0
 10
100.8451432393601
 20
126.1454915881856
 30
0.0
 10
100.8328813543451
 20
126.143219201061
 30
0.0
 10
100.8143801616197
 20
126.140888144186
 30
0.0
 10
100.7958523360684
 20
126.1385537317094
 30
0.0
 10
100.7705566789137
 20
126.1360961533073
 30
0.0
 10
100.740586008407
 20
126.1337186483974
 30
0.0
 10
100.7105940668129
 20
126.1313394561007
 30
0.0
 10
100.6750923720792
 20
126.1289747965983
 30
0.0
 10
100.6370195414329
 20
126.126820708091
 30
0.0
 10
100.5989593493785
 20
126.1246673346512
 30
0.0
 10
100.5572777002111
 20
126.1226649163198
 30
0.0
 10
100.5154321089183
 20
126.1209800098287
 30
0.0
 10
100.4736379513385
 20
126.1192971743084
 30
0.0
 10
100.4305248659628
 20
126.1178845872073
 30
0.0
 10
100.3896751639469
 20
126.1168600567241
 30
0.0
 10
100.3488902755127
 20
126.1158371517971
 30
0.0
 10
100.3092349028723
 20
126.1151728335902
 30
0.0
 10
100.2740033190255
 20
126.11492255063
 30
0.0
 10
100.2520104016258
 20
126.1147663143253
 30
0.0
 10
100.231405218368
 20
126.1147669351254
 30
0.0
 10
100.2128639121351
 20
126.114923542574
 30
0.0
  0
SPLINE
  5
C6
330
98
100
AcDbEntity
  8
$DDT_AUDIT_GENERATED_(82)
  6
Continuous
 62
     7
100
AcDbSpline
210
0.0
220
0.0
230
1.0
 70
    11
 71
     3
 72
    62
 73
    58
 74
     0
 42
0.0000000066107758
 43
0.0000000001
 40
0.0
 40
0.0
 40
0.0
 40
0.0
 40
0.0536238343477251
 40
0.0536238343477251
 40
0.0536238343477251
 40
0.1072453559594358
 40
0.1072453559594358
 40
0.1072453559594358
 40
0.1609029088465371
 40
0.1609029088465371
 40
0.1609029088465371
 40
0.2146294651637281
 40
0.2146294651637281
 40
0.2146294651637281
 40
0.2684154175001099
 40
0.2684154175001099
 40
0.2684154175001099
 40
0.3222251006430289
 40
0.3222251006430289
 40
0.3222251006430289
 40
0.3760123191295086
 40
0.3760123191295086
 40
0.3760123191295086
 40
0.4297406948316726
 40
0.4297406948316726
 40
0.4297406948316726
 40
0.4833997507158393
 40
0.4833997507158393
 40
0.4833997507158393
 40
0.5370094660610255
 40
0.5370094660610255
 40
0.5370094660610255
 40
0.5906113686097528
 40
0.5906113686097528
 40
0.5906113686097528
 40
0.6442503055583227
 40
0.6442503055583227
 40
0.6442503055583227
 40
0.6979549231374607
 40
0.6979549231374607
 40
0.6979549231374607
 40
0.751725195220518
 40
0.751725195220518
 40
0.751725195220518
 40
0.8055323362939809
 40
0.8055323362939809
 40
0.8055323362939809
 40
0.85933129396939
 40
0.85933129396939
 40
0.85933129396939
 40
0.9130805432111827
 40
0.9130805432111827
 40
0.9130805432111827
 40
0.9667604320074039
 40
0.9667604320074039
 40
0.9667604320074039
 40
1.0
 40
1.0
 40
1.0
 40
1.0
 10
98.76982057517775
 20
126.0710061541391
 30
0.0
 10
98.73492658625268
 20
126.0711446448765
 30
0.0
 10
98.70356622059683
 20
126.0716529932784
 30
0.0
 10
98.67833311600478
 20
126.0724913753098
 30
0.0
 10
98.65310067009868
 20
126.073329735456
 30
0.0
 10
98.63330004801749
 20
126.07451988678
 30
0.0
 10
98.62056149901355
 20
126.0759630846063
 30
0.0
 10
98.60781432271318
 20
126.0774072598513
 30
0.0
 10
98.6017870032585
 20
126.0791445597432
 30
0.0
 10
98.60296887615003
 20
126.0810312363075
 30
0.0
 10
98.60415225019906
 20
126.0829203092367
 30
0.0
 10
98.61259531781198
 20
126.0850111558882
 30
0.0
 10
98.62759511484231
 20
126.087130929722
 30
0.0
 10
98.64261114101731
 20
126.0892529970613
 30
0.0
 10
98.66461212612813
 20
126.0914625546157
 30
0.0
 10
98.69177779116929
 20
126.0935767745033
 30
0.0
 10
98.71895487095583
 20
126.0956918827652
 30
0.0
 10
98.75205148202093
 20
126.0977699443204
 30
0.0
 10
98.7883281114724
 20
126.0996386050257
 30
0.0
 10
98.82458926143843
 20
126.1015064683608
 30
0.0
 10
98.86502980782176
 20
126.1032166873185
 30
0.0
 10
98.90629655585997
 20
126.1046270191648
 30
0.0
 10
98.94751843437204
 20
126.1060358175506
 30
0.0
 10
98.9907038086783
 20
126.1071842789654
 30
0.0
 10
99.03226754953128
 20
126.1079766899817
 30
0.0
 10
99.07377848281513
 20
126.1087680942239
 30
0.0
 10
99.11481815565298
 20
126.1092261935137
 30
0.0
 10
99.15198092199684
 20
126.1093127952459
 30
0.0
 10
99.18911040704025
 20
126.1093993194216
 30
0.0
 10
99.22339423104044
 20
126.1091174116032
 30
0.0
 10
99.25199408653458
 20
126.1084905416887
 30
0.0
 10
99.28059028101045
 20
126.1078637520187
 30
0.0
 10
99.30429235449218
 20
126.1068748523282
 30
0.0
 10
99.32114626598305
 20
126.1056059598933
 30
0.0
 10
99.33801188572801
 20
126.1043361859706
 30
0.0
 10
99.34848491340111
 20
126.1027511014138
 30
0.0
 10
99.35170878364231
 20
126.1009819844726
 30
0.0
 10
99.3549365635322
 20
126.0992107220898
 30
0.0
 10
99.35098701521999
 20
126.0972062242988
 30
0.0
 10
99.34019313454114
 20
126.0951342489393
 30
0.0
 10
99.3293862977788
 20
126.0930597865516
 30
0.0
 10
99.31142094870128
 20
126.0908605188383
 30
0.0
 10
99.2877843949917
 20
126.0887183447426
 30
0.0
 10
99.26413217663169
 20
126.0865747509641
 30
0.0
 10
99.23414831588936
 20
126.0844291865665
 30
0.0
 10
99.20031371151497
 20
126.0824594335858
 30
0.0
 10
99.1664847143623
 20
126.0804900070412
 30
0.0
 10
99.1278715005532
 20
126.0786419557834
 30
0.0
 10
99.08767397837568
 20
126.0770688142829
 30
0.0
 10
99.0475135283792
 20
126.0754971236127
 30
0.0
 10
99.00466181383781
 20
126.0741564336963
 30
0.0
 10
98.96267540039679
 20
126.0731583796811
 30
0.0
 10
98.92074248197221
 20
126.0721615972895
 30
0.0
 10
98.87851444083303
 20
126.0714790632609
 30
0.0
 10
98.8394967002514
 20
126.0711676592565
 30
0.0
 10
98.81512307789957
 20
126.070973131242
 30
0.0
 10
98.79164034883557
 20
126.070919553649
 30
0.0
 10
98.76982057517775
 20
126.0710061541391
 30
0.0
  0
SPLINE
  5
C7
330
98
100
AcDbEntity
  8
$DDT_AUDIT_GENERATED_(82)
  6
Continuous
 62
     7
100
AcDbSpline
210
0.0
220
0.0
230
1.0
 70
    11
 71
     3
 72
    62
 73
    58
 74
     0
 42
0.0000000066059991
 43
0.0000000001
 40
0.0
 40
0.0
 40
0.0
 40
0.0
 40
0.0535990560918668
 40
0.0535990560918668
 40
0.0535990560918668
 40
0.107196386234189
 40
0.107196386234189
 40
0.107196386234189
 40
0.1608220288442484
 40
0.1608220288442484
 40
0.1608220288442484
 40
0.2145194623693296
 40
0.2145194623693296
 40
0.2145194623693296
 40
0.268291848485278
 40
0.268291848485278
 40
0.268291848485278
 40
0.3221095482283745
 40
0.3221095482283745
 40
0.3221095482283745
 40
0.3759229214329819
 40
0.3759229214329819
 40
0.3759229214329819
 40
0.4296841134652025
 40
0.4296841134652025
 40
0.4296841134652025
 40
0.483368225462526
 40
0.483368225462526
 40
0.483368225462526
 40
0.5369842846798468
 40
0.5369842846798468
 40
0.5369842846798468
 40
0.590571122052107
 40
0.590571122052107
 40
0.590571122052107
 40
0.644180227076918
 40
0.644180227076918
 40
0.644180227076918
 40
0.6978532891718784
 40
0.6978532891718784
 40
0.6978532891718784
 40
0.751604094189173
 40
0.751604094189173
 40
0.751604094189173
 40
0.8054124460471136
 40
0.8054124460471136
 40
0.8054124460471136
 40
0.8592328367011737
 40
0.8592328367011737
 40
0.8592328367011737
 40
0.91301435313326
 40
0.91301435313326
 40
0.91301435313326
 40
0.9667231601033169
 40
0.9667231601033169
 40
0.9667231601033169
 40
1.0
 40
1.0
 40
1.0
 40
1.0
 10
100.9625811179513
 20
126.0928729102779
 30
0.0
 10
100.932947405273
 20
126.0927118768474
 30
0.0
 10
100.9080172784558
 20
126.0929389314264
 30
0.0
 10
100.8898542969362
 20
126.0935351748518
 30
0.0
 10
100.8716916326591
 20
126.094131407863
 30
0.0
 10
100.859794778883
 20
126.0951132110738
 30
0.0
 10
100.8551405268539
 20
126.0963990207155
 30
0.0
 10
100.8504837670436
 20
126.0976855231709
 30
0.0
 10
100.8529482737962
 20
126.099311738251
 30
0.0
 10
100.8623206132847
 20
126.1011430003282
 30
0.0
 10
100.8717053901002
 20
126.1029766925356
 30
0.0
 10
100.8882740702858
 20
126.1050664368619
 30
0.0
 10
100.9106510251872
 20
126.1072394833505
 30
0.0
 10
100.933058673772
 20
126.1094155105306
 30
0.0
 10
100.9619077978631
 20
126.1117350206112
 30
0.0
 10
100.9948113731503
 20
126.1140062309658
 30
0.0
 10
101.0277418167627
 20
126.1162792959401
 30
0.0
 10
101.0656420751724
 20
126.118566689274
 30
0.0
 10
101.1053748365662
 20
126.1206788877696
 30
0.0
 10
101.1451037432557
 20
126.1227908813487
 30
0.0
 10
101.1877624004362
 20
126.1247860310663
 30
0.0
 10
101.2298126842312
 20
126.1264985150453
 30
0.0
 10
101.2718222034344
 20
126.1282093388997
 30
0.0
 10
101.314385514806
 20
126.1296852942972
 30
0.0
 10
101.3539661793722
 20
126.1308033716104
 30
0.0
 10
101.3934907702691
 20
126.1319198649508
 30
0.0
 10
101.431132974494
 20
126.1327103153582
 30
0.0
 10
101.463764811102
 20
126.1331087636479
 30
0.0
 10
101.496356141072
 20
126.1335067173347
 30
0.0
 10
101.5248490674561
 20
126.1335246279532
 30
0.0
 10
101.5468815955066
 20
126.1331610021742
 30
0.0
 10
101.5689026439851
 20
126.1327975658547
 30
0.0
 10
101.585077491928
 20
126.1320430060488
 30
0.0
 10
101.594073528681
 20
126.1309600786765
 30
0.0
 10
101.603073404176
 20
126.129876689203
 30
0.0
 10
101.6051369940059
 20
126.1284348639375
 30
0.0
 10
101.6001034454938
 20
126.1267541486462
 30
0.0
 10
101.5950639243333
 20
126.1250714390716
 30
0.0
 10
101.5827724422159
 20
126.1231029817307
 30
0.0
 10
101.5642525778192
 20
126.1210116046665
 30
0.0
 10
101.5457062817676
 20
126.1189172427771
 30
0.0
 10
101.5204032782266
 20
126.1166419330636
 30
0.0
 10
101.4904381836577
 20
126.1143737725801
 30
0.0
 10
101.4604418108923
 20
126.1121032445429
 30
0.0
 10
101.4249462457136
 20
126.1097772681347
 30
0.0
 10
101.3868886155151
 20
126.1075883955327
 30
0.0
 10
101.3488232562778
 20
126.1053990783974
 30
0.0
 10
101.3071434370781
 20
126.1032864806288
 30
0.0
 10
101.265303795145
 20
126.1014259707222
 30
0.0
 10
101.2234945988027
 20
126.099566814659
 30
0.0
 10
101.1803703723426
 20
126.0979080303237
 30
0.0
 10
101.1395126085859
 20
126.0965877099931
 30
0.0
 10
101.0987095789205
 20
126.0952691583969
 30
0.0
 10
101.0590395788945
 20
126.0942517559045
 30
0.0
 10
101.0237997431816
 20
126.093620344387
 30
0.0
 10
101.0017732974785
 20
126.0932256844454
 30
0.0
 10
100.9811406280292
 20
126.0929737650581
 30
0.0
 10
100.9625811179513
 20
126.0928729102779
 30
0.0
  0
ARC
  5
C8
330
98
100
AcDbEntity
  8
$DDT_AUDIT_GENERATED_(82)
  6
Continuous
 62
     7
100
AcDbCircle
 10
95.2278198159
 20
272.7787611695
 30
0.0
 40
146.880872226493
100
AcDbArc
 50
272.4870056297
 51
285.5482962311
  0
ARC
  5
C9
330
98
100
AcDbEntity
  8
$DDT_AUDIT_GENERATED_(82)
  6
Continuous
 62
     7
100
AcDbCircle
 10
95.2278198159
 20
272.7787611695
 30
0.0
 40
146.880872226493
100
AcDbArc
 50
271.9014146435
 51
272.1962508181
  0
ARC
  5
CA
330
98
100
AcDbEntity
  8
$DDT_AUDIT_GENERATED_(82)
  6
Continuous
 62
     7
100
AcDbCircle
 10
95.2278198159
 20
272.7787611695
 30
0.0
 40
146.880872226493
100
AcDbArc
 50
271.3148068725
 51
271.610824048
  0
ARC
  5
CB
330
98
100
AcDbEntity
  8
$DDT_AUDIT_GENERATED_(82)
  6
Continuous
 62
     7
100
AcDbCircle
 10
95.2278198159
 20
272.7787611695
 30
0.0
 40
146.880872226493
100
AcDbArc
 50
270.7309770859
 51
271.0259492199
  0
ARC
  5
CC
330
98
100
AcDbEntity
  8
$DDT_AUDIT_GENERATED_(82)
  6
Continuous
 62
     7
100
AcDbCircle
 10
95.2278198159
 20
272.7787611695
 30
0.0
 40
146.880872226493
100
AcDbArc
 50
270.1462814071
 51
270.4404284258
  0
ARC
  5
CD
330
98
100
AcDbEntity
  8
$DDT_AUDIT_GENERATED_(82)
  6
Continuous
 62
     7
100
AcDbCircle
 10
95.2278198159
 20
272.7787611695
 30
0.0
 40
146.880872226493
100
AcDbArc
 50
269.5607193475
 51
269.8537185929
  0
ARC
  5
CE
330
98
100
AcDbEntity
  8
$DDT_AUDIT_GENERATED_(82)
  6
Continuous
 62
     7
100
AcDbCircle
 10
95.2278198159
 20
272.7787611695
 30
0.0
 40
146.880872226493
100
AcDbArc
 50
254.4517037689
 51
269.2701475827
  0
ARC
  5
CF
330
98
100
AcDbEntity
  8
$DDT_AUDIT_GENERATED_(82)
  6
Continuous
 62
     7
100
AcDbCircle
 10
56.1243714349
 20
132.2364216192
 30
0.0
 40
1.0
100
AcDbArc
 50
219.6824916846
 51
254.4517037689
  0
ARC
  5
D0
330
98
100
AcDbEntity
  8
$DDT_AUDIT_GENERATED_(82)
  6
Continuous
 62
     7
100
AcDbCircle
 10
134.3312681969
 20
132.2364216192
 30
0.0
 40
0.9999999999999807
100
AcDbArc
 50
285.5482962311
 51
320.317508315
  0
ENDBLK
  5
D2
330
98
100
AcDbEntity
  8
0
100
AcDbBlockEnd
  0
BLOCK
  5
116
330
D3
100
AcDbEntity
  8
0
100
AcDbBlockBegin
  2
SE2
 70
     0
 10
0.0
 20
0.0
 30
0.0
  3
SE2
  1

  0
ARC
  5
D6
330
D3
100
AcDbEntity
  8
DV3_Default
  6
Continuous
 62
     7
100
AcDbCircle
 10
92.4591451569
 20
248.7902081772
 30
0.0
 40
1.000000005947633
100
AcDbArc
 50
208.0069665592
 51
244.6471977583
  0
ARC
  5
D7
330
D3
100
AcDbEntity
  8
DV3_Default
  6
Continuous
 62
     7
100
AcDbCircle
 10
91.7491255398
 20
252.217433315
 30
0.0
 40
1.000000002436945
100
AcDbArc
 50
181.2779281573
 51
225.2455142009
  0
ARC
  5
D8
330
D3
100
AcDbEntity
  8
DV3_Default
  6
Continuous
 62
     7
100
AcDbCircle
 10
95.2621059003
 20
247.583709961
 30
0.0
 40
1.000000001481901
100
AcDbArc
 50
257.7685714355
 51
281.7006530508
  0
ARC
  5
D9
330
D3
100
AcDbEntity
  8
DV3_Default
  6
Continuous
 62
     7
100
AcDbCircle
 10
95.2621059003
 20
247.583709961
 30
0.0
 40
1.000000001481901
100
AcDbArc
 50
131.9116674288
 51
169.0220507687
  0
ARC
  5
DA
330
D3
100
AcDbEntity
  8
DV3_Default
  6
Continuous
 62
     7
100
AcDbCircle
 10
94.5521515908
 20
251.0109486278
 30
0.0
 40
1.000000003352344
100
AcDbArc
 50
106.2433133275
 51
147.3370012896
  0
ARC
  5
DB
330
D3
100
AcDbEntity
  8
DV3_Default
  6
Continuous
 62
     7
100
AcDbCircle
 10
98.0652359026
 20
246.3772468081
 30
0.0
 40
1.000000014907072
100
AcDbArc
 50
228.6782417549
 51
268.6846207208
  0
ARC
  5
DC
330
D3
100
AcDbEntity
  8
DV3_Default
  6
Continuous
 62
     7
100
AcDbCircle
 10
98.0652359026
 20
246.3772468081
 30
0.0
 40
1.000000014907072
100
AcDbArc
 50
149.0497233873
 51
183.1720729474
  0
ARC
  5
DD
330
D3
100
AcDbEntity
  8
DV3_Default
  6
Continuous
 62
     7
100
AcDbCircle
 10
97.355139485
 20
249.804456036
 30
0.0
 40
1.000000001511623
100
AcDbArc
 50
215.5176784536
 51
247.8069805433
  0
ARC
  5
DE
330
D3
100
AcDbEntity
  8
DV3_Default
  6
Continuous
 62
     7
100
AcDbCircle
 10
100.158178113
 20
248.5979739542
 30
0.0
 40
1.000000003191778
100
AcDbArc
 50
195.5899785277
 51
230.0378367671
  0
ARC
  5
DF
330
D3
100
AcDbEntity
  8
DV3_Default
  6
Continuous
 62
     7
100
AcDbCircle
 10
99.4481731528
 20
252.0252021282
 30
0.0
 40
1.000000001546373
100
AcDbArc
 50
168.2602498375
 51
209.9539086743
  0
ARC
  5
E0
330
D3
100
AcDbEntity
  8
DV3_Default
  6
Continuous
 62
     7
100
AcDbCircle
 10
97.3561142938
 20
249.8031614687
 30
0.0
 40
0.9985348851136874
100
AcDbArc
 50
316.6073182827
 51
335.7630875268
  0
ARC
  5
E1
330
D3
100
AcDbEntity
  8
DV3_Default
  6
Continuous
 62
     7
100
AcDbCircle
 10
97.3550823111
 20
249.804442211
 30
0.0
 40
1.000001939739282
100
AcDbArc
 50
46.1707337059
 51
88.3817152582
  0
ARC
  5
E2
330
D3
100
AcDbEntity
  8
DV3_Default
  6
Continuous
 62
     7
100
AcDbCircle
 10
97.3550823111
 20
249.804442211
 30
0.0
 40
1.000001939739282
100
AcDbArc
 50
335.7204473667
 51
349.412552559
  0
ARC
  5
E3
330
D3
100
AcDbEntity
  8
DV3_Default
  6
Continuous
 62
     7
100
AcDbCircle
 10
95.9720060862
 20
244.1564535624
 30
0.0
 40
1.000006384449043
100
AcDbArc
 50
65.6100235925
 51
95.6681283489
  0
ARC
  5
E4
330
D3
100
AcDbEntity
  8
DV3_Default
  6
Continuous
 62
     7
100
AcDbCircle
 10
95.2627430862
 20
247.582976134
 30
0.0
 40
0.9991523156906742
100
AcDbArc
 50
281.6734072113
 51
301.8049715841
  0
ARC
  5
E5
330
D3
100
AcDbEntity
  8
DV3_Default
  6
Continuous
 62
     7
100
AcDbCircle
 10
95.26203988
 20
247.583686774
 30
0.0
 40
1.000009312641686
100
AcDbArc
 50
1.2075696826
 51
44.2141776652
  0
ARC
  5
E6
330
D3
100
AcDbEntity
  8
DV3_Default
  6
Continuous
 62
     7
100
AcDbCircle
 10
94.5521551994
 20
251.0109890297
 30
0.0
 40
0.9999611744290842
100
AcDbArc
 50
28.8861936743
 51
60.130377666
  0
ARC
  5
E7
330
D3
100
AcDbEntity
  8
DV3_Default
  6
Continuous
 62
     7
100
AcDbCircle
 10
91.7489886153
 20
252.2174049499
 30
0.0
 40
1.000000002451211
100
AcDbArc
 50
313.2788598642
 51
350.9205656321
  0
ARC
  5
E8
330
D3
100
AcDbEntity
  8
DV3_Default
  6
Continuous
 62
     7
100
AcDbCircle
 10
92.4588942387
 20
248.7901561973
 30
0.0
 40
1.000000010830784
100
AcDbArc
 50
290.9131742074
 51
330.4687673043
  0
LINE
  5
E9
330
D3
100
AcDbEntity
  8
DV3_Default
  6
Continuous
 62
     7
100
AcDbLine
 10
157.2278198159
 20
311.9258782395
 30
0.0
 11
33.2278198129
 21
311.9258782395
 31
0.0
  0
ARC
  5
EA
330
D3
100
AcDbEntity
  8
DV3_Default
  6
Continuous
 62
     7
100
AcDbCircle
 10
33.2278198159
 20
310.4258782395
 30
0.0
 40
1.499999999999994
100
AcDbArc
 50
90.0000001157
 51
180.0
  0
LINE
  5
EB
330
D3
100
AcDbEntity
  8
DV3_Default
  6
Continuous
 62
     7
100
AcDbLine
 10
31.7278198159
 20
310.4258782395
 30
0.0
 11
31.7278198159
 21
186.4258782395
 31
0.0
  0
ARC
  5
EC
330
D3
100
AcDbEntity
  8
DV3_Default
  6
Continuous
 62
     7
100
AcDbCircle
 10
33.2278198159
 20
186.4258782395
 30
0.0
 40
1.500000000000001
100
AcDbArc
 50
180.0
 51
270.0
  0
LINE
  5
ED
330
D3
100
AcDbEntity
  8
DV3_Default
  6
Continuous
 62
     7
100
AcDbLine
 10
33.2278198159
 20
184.9258782395
 30
0.0
 11
157.2278198189
 21
184.9258782395
 31
0.0
  0
ARC
  5
EE
330
D3
100
AcDbEntity
  8
DV3_Default
  6
Continuous
 62
     7
100
AcDbCircle
 10
157.2278198159
 20
186.4258782395
 30
0.0
 40
1.500000000000008
100
AcDbArc
 50
270.0000001157
 51
0.0
  0
LINE
  5
EF
330
D3
100
AcDbEntity
  8
DV3_Default
  6
Continuous
 62
     7
100
AcDbLine
 10
158.7278198159
 20
186.4258782395
 30
0.0
 11
158.7278198159
 21
310.4258782426
 31
0.0
  0
ARC
  5
F0
330
D3
100
AcDbEntity
  8
DV3_Default
  6
Continuous
 62
     7
100
AcDbCircle
 10
157.2278198159
 20
310.4258782395
 30
0.0
 40
1.500000000000001
100
AcDbArc
 50
0.0000001157
 51
90.0
  0
CIRCLE
  5
F1
330
D3
100
AcDbEntity
  8
DV3_Default
  6
Continuous
 62
     7
100
AcDbCircle
 10
95.2278198159
 20
248.4258782395
 30
0.0
 40
41.19054855893
  0
CIRCLE
  5
F2
330
D3
100
AcDbEntity
  8
DV3_Default
  6
Continuous
 62
     7
100
AcDbCircle
 10
91.6690195387
 20
245.3629529527
 30
0.0
 40
0.3750000000000001
  0
CIRCLE
  5
F3
330
D3
100
AcDbEntity
  8
DV3_Default
  6
Continuous
 62
     7
100
AcDbCircle
 10
92.4190195382
 20
246.6619910579
 30
0.0
 40
0.3750000003564545
  0
CIRCLE
  5
F4
330
D3
100
AcDbEntity
  8
DV3_Default
  6
Continuous
 62
     7
100
AcDbCircle
 10
90.9190195387
 20
246.6619910584
 30
0.0
 40
0.3750000000000052
  0
CIRCLE
  5
F5
330
D3
100
AcDbEntity
  8
DV3_Default
  6
Continuous
 62
     7
100
AcDbCircle
 10
93.1690195387
 20
245.3629529527
 30
0.0
 40
0.375
  0
CIRCLE
  5
F6
330
D3
100
AcDbEntity
  8
DV3_Default
  6
Continuous
 62
     7
100
AcDbCircle
 10
91.6690195387
 20
247.9629529527
 30
0.0
 40
0.3750000000009648
  0
CIRCLE
  5
F7
330
D3
100
AcDbEntity
  8
DV3_Default
  6
Continuous
 62
     7
100
AcDbCircle
 10
92.4190194117
 20
249.2619909348
 30
0.0
 40
0.3750000885951555
  0
CIRCLE
  5
F8
330
D3
100
AcDbEntity
  8
DV3_Default
  6
Continuous
 62
     7
100
AcDbCircle
 10
90.9190193913
 20
249.2619909152
 30
0.0
 40
0.3750001027375586
  0
CIRCLE
  5
F9
330
D3
100
AcDbEntity
  8
DV3_Default
  6
Continuous
 62
     7
100
AcDbCircle
 10
93.1690195386
 20
247.9629529526
 30
0.0
 40
0.3750000001037189
  0
CIRCLE
  5
FA
330
D3
100
AcDbEntity
  8
DV3_Default
  6
Continuous
 62
     7
100
AcDbCircle
 10
91.6690195364
 20
250.5629529505
 30
0.0
 40
0.3750000016057267
  0
CIRCLE
  5
FB
330
D3
100
AcDbEntity
  8
DV3_Default
  6
Continuous
 62
     7
100
AcDbCircle
 10
92.419019537
 20
251.8619910558
 30
0.0
 40
0.3750000015408606
  0
CIRCLE
  5
FC
330
D3
100
AcDbEntity
  8
DV3_Default
  6
Continuous
 62
     7
100
AcDbCircle
 10
90.9190194948
 20
251.8619909938
 30
0.0
 40
0.3750000390568876
  0
CIRCLE
  5
FD
330
D3
100
AcDbEntity
  8
DV3_Default
  6
Continuous
 62
     7
100
AcDbCircle
 10
93.1690195387
 20
250.5629529527
 30
0.0
 40
0.3750000000015997
  0
CIRCLE
  5
FE
330
D3
100
AcDbEntity
  8
DV3_Default
  6
Continuous
 62
     7
100
AcDbCircle
 10
94.6690195375
 20
245.3629529519
 30
0.0
 40
0.3750000007082531
  0
CIRCLE
  5
FF
330
D3
100
AcDbEntity
  8
DV3_Default
  6
Continuous
 62
     7
100
AcDbCircle
 10
95.4190195385
 20
246.6619910582
 30
0.0
 40
0.3750000001189723
  0
CIRCLE
  5
100
330
D3
100
AcDbEntity
  8
DV3_Default
  6
Continuous
 62
     7
100
AcDbCircle
 10
93.9190195381
 20
246.6619910578
 30
0.0
 40
0.375000000418427
  0
CIRCLE
  5
101
330
D3
100
AcDbEntity
  8
DV3_Default
  6
Continuous
 62
     7
100
AcDbCircle
 10
96.1690195386
 20
245.3629529527
 30
0.0
 40
0.3750000000433269
  0
CIRCLE
  5
102
330
D3
100
AcDbEntity
  8
DV3_Default
  6
Continuous
 62
     7
100
AcDbCircle
 10
94.6690195382
 20
247.9629529524
 30
0.0
 40
0.3750000002758653
  0
CIRCLE
  5
103
330
D3
100
AcDbEntity
  8
DV3_Default
  6
Continuous
 62
     7
100
AcDbCircle
 10
95.4190195184
 20
249.2619910385
 30
0.0
 40
0.375000014212985
  0
CIRCLE
  5
104
330
D3
100
AcDbEntity
  8
DV3_Default
  6
Continuous
 62
     7
100
AcDbCircle
 10
93.9190193444
 20
249.2619908685
 30
0.0
 40
0.375000135874478
  0
CIRCLE
  5
105
330
D3
100
AcDbEntity
  8
DV3_Default
  6
Continuous
 62
     7
100
AcDbCircle
 10
96.1690192944
 20
247.9629527111
 30
0.0
 40
0.3750001717991397
  0
CIRCLE
  5
106
330
D3
100
AcDbEntity
  8
DV3_Default
  6
Continuous
 62
     7
100
AcDbCircle
 10
94.6690195293
 20
250.5629529435
 30
0.0
 40
0.3750000065820913
  0
CIRCLE
  5
107
330
D3
100
AcDbEntity
  8
DV3_Default
  6
Continuous
 62
     7
100
AcDbCircle
 10
95.4190195137
 20
251.8619910214
 30
0.0
 40
0.3750000223545549
  0
CIRCLE
  5
108
330
D3
100
AcDbEntity
  8
DV3_Default
  6
Continuous
 62
     7
100
AcDbCircle
 10
93.9190195383
 20
251.8619910578
 30
0.0
 40
0.3750000003680499
  0
CIRCLE
  5
109
330
D3
100
AcDbEntity
  8
DV3_Default
  6
Continuous
 62
     7
100
AcDbCircle
 10
96.1690194596
 20
250.5629528358
 30
0.0
 40
0.3750000705908698
  0
CIRCLE
  5
10A
330
D3
100
AcDbEntity
  8
DV3_Default
  6
Continuous
 62
     7
100
AcDbCircle
 10
97.6690195387
 20
245.3629529527
 30
0.0
 40
0.3750000000309651
  0
CIRCLE
  5
10B
330
D3
100
AcDbEntity
  8
DV3_Default
  6
Continuous
 62
     7
100
AcDbCircle
 10
98.4190195387
 20
246.6619910584
 30
0.0
 40
0.3750000000008678
  0
CIRCLE
  5
10C
330
D3
100
AcDbEntity
  8
DV3_Default
  6
Continuous
 62
     7
100
AcDbCircle
 10
96.9190193236
 20
246.6619908443
 30
0.0
 40
0.3750001517214981
  0
CIRCLE
  5
10D
330
D3
100
AcDbEntity
  8
DV3_Default
  6
Continuous
 62
     7
100
AcDbCircle
 10
99.1690194457
 20
245.362952891
 30
0.0
 40
0.3750000557889527
  0
CIRCLE
  5
10E
330
D3
100
AcDbEntity
  8
DV3_Default
  6
Continuous
 62
     7
100
AcDbCircle
 10
97.6690195387
 20
247.9629529527
 30
0.0
 40
0.3750000000019716
  0
CIRCLE
  5
10F
330
D3
100
AcDbEntity
  8
DV3_Default
  6
Continuous
 62
     7
100
AcDbCircle
 10
98.4190193891
 20
249.26199096
 30
0.0
 40
0.3750000895536798
  0
CIRCLE
  5
110
330
D3
100
AcDbEntity
  8
DV3_Default
  6
Continuous
 62
     7
100
AcDbCircle
 10
96.9190195387
 20
249.2619910584
 30
0.0
 40
0.3750000000319102
  0
CIRCLE
  5
111
330
D3
100
AcDbEntity
  8
DV3_Default
  6
Continuous
 62
     7
100
AcDbCircle
 10
99.1690195387
 20
247.9629529527
 30
0.0
 40
0.3750000000023339
  0
CIRCLE
  5
112
330
D3
100
AcDbEntity
  8
DV3_Default
  6
Continuous
 62
     7
100
AcDbCircle
 10
97.6690195126
 20
250.562952927
 30
0.0
 40
0.3750000183332647
  0
CIRCLE
  5
113
330
D3
100
AcDbEntity
  8
DV3_Default
  6
Continuous
 62
     7
100
AcDbCircle
 10
98.4190194817
 20
251.861991002
 30
0.0
 40
0.375000040100327
  0
CIRCLE
  5
114
330
D3
100
AcDbEntity
  8
DV3_Default
  6
Continuous
 62
     7
100
AcDbCircle
 10
96.9190194055
 20
251.861990861
 30
0.0
 40
0.3750001191060831
  0
CIRCLE
  5
115
330
D3
100
AcDbEntity
  8
DV3_Default
  6
Continuous
 62
     7
100
AcDbCircle
 10
99.1690195382
 20
250.5629529522
 30
0.0
 40
0.3750000003830305
  0
ENDBLK
  5
117
330
D3
100
AcDbEntity
  8
0
100
AcDbBlockEnd
  0
ENDSEC
  0
SECTION
  2
ENTITIES
  0
INSERT
  5
5F
330
1F
100
AcDbEntity
  8
Default
100
AcDbBlockReference
  2
SEANNOT_GROUP
 10
0.0
 20
0.0
 30
0.0
  0
INSERT
  5
66
330
1F
100
AcDbEntity
  8
Default
100
AcDbBlockReference
  2
SEANNOT_GROUP1
 10
0.0
 20
0.0
 30
0.0
  0
INSERT
  5
6C
330
1F
100
AcDbEntity
  8
Default
100
AcDbBlockReference
  2
SEANNOT_GROUP2
 10
0.0
 20
0.0
 30
0.0
  0
INSERT
  5
76
330
1F
100
AcDbEntity
  8
Default
100
AcDbBlockReference
  2
SE
 10
0.0
 20
0.0
 30
0.0
  0
INSERT
  5
99
330
1F
100
AcDbEntity
  8
Default
100
AcDbBlockReference
  2
SE1
 10
0.0
 20
0.0
 30
0.0
  0
INSERT
  5
D4
330
1F
100
AcDbEntity
  8
Default
100
AcDbBlockReference
  2
SE2
 10
0.0
 20
0.0
 30
0.0
  0
TEXT
  5
119
330
1F
100
AcDbEntity
  8
Default
  6
Continuous
 62
     7
100
AcDbText
 10
5.9362635081
 20
53.4225120485
 30
0.0
 40
10.0
  1
Grohe AG^J
  7
SEACAD_seiso_ttf
 11
5.9362635081
 21
63.4225120485
 31
0.0
100
AcDbText
 73
     3
  0
TEXT
  5
11A
330
1F
100
AcDbEntity
  8
Default
  6
Continuous
 62
     7
100
AcDbText
 10
5.9362635081
 20
37.0588756849
 30
0.0
 40
10.0
  1
 
  7
SEACAD_seiso_ttf
 11
5.9362635081
 21
47.0588756849
 31
0.0
100
AcDbText
 73
     3
  0
TEXT
  5
11B
330
1F
100
AcDbEntity
  8
Default
  6
Continuous
 62
     7
100
AcDbText
 10
5.9362635081
 20
20.6952393213
 30
0.0
 40
10.0
  1
ecn:
  7
SEACAD_seiso_ttf
 11
5.9362635081
 21
30.6952393213
 31
0.0
100
AcDbText
 73
     3
  0
TEXT
  5
11C
330
1F
100
AcDbEntity
  8
Default
  6
Continuous
 62
     7
100
AcDbText
 10
5.9362635081
 20
4.3316029576
 30
0.0
 40
10.0
  1
unit: mm
  7
SEACAD_seiso_ttf
 11
5.9362635081
 21
14.3316029576
 31
0.0
100
AcDbText
 73
     3
  0
LINE
  5
11D
330
1F
100
AcDbEntity
  8
Default
  6
Continuous
 62
     7
100
AcDbLine
 10
0.0
 20
0.0
 30
0.0
 11
100.0
 21
0.0
 31
0.0
  0
LINE
  5
11E
330
1F
100
AcDbEntity
  8
Default
  6
Continuous
 62
     7
100
AcDbLine
 10
0.0
 20
0.0
 30
0.0
 11
0.0
 21
100.0
 31
0.0
  0
TEXT
  5
11F
330
1F
100
AcDbEntity
  8
Default
  6
Continuous
 62
     7
100
AcDbText
 10
24.3923665681
 20
-18.2375342018
 30
0.0
 40
10.0
  1
100 mm
  7
SEACAD_seiso_ttf
 11
24.3923665681
 21
-8.2375342018
 31
0.0
100
AcDbText
 73
     3
  0
TEXT
  5
120
330
1F
100
AcDbEntity
  8
Default
  6
Continuous
 62
     7
100
AcDbText
 10
-7.6150308803
 20
24.6231930421
 30
0.0
 40
10.0
  1
100 mm
 50
90.0
  7
SEACAD_seiso_ttf
 11
-17.6150308803
 21
24.6231930421
 31
0.0
100
AcDbText
 73
     3
  0
TEXT
  5
121
330
1F
100
AcDbEntity
  8
Default
  6
Continuous
 62
     7
100
AcDbText
 10
28.4878128572
 20
20.0907663715
 30
0.0
 40
10.0
  1
223218
  7
SEACAD_seiso_ttf
 11
28.4878128572
 21
30.0907663715
 31
0.0
100
AcDbText
 73
     3
  0
TEXT
  5
122
330
1F
100
AcDbEntity
  8
Default
  6
Continuous
 62
     7
100
AcDbText
 10
5.9012241913
 20
36.7242780188
 30
0.0
 40
10.0
  1
36360000
  7
SEACAD_seiso_ttf
 11
5.9012241913
 21
46.7242780188
 31
0.0
100
AcDbText
 73
     3
  0
ENDSEC
  0
SECTION
  2
OBJECTS
  0
DICTIONARY
  5
C
330
0
100
AcDbDictionary
281
     1
  3
ACAD_GROUP
350
D
  3
ACAD_LAYOUT
350
1A
  3
ACAD_MLEADERSTYLE
350
126
  3
ACAD_MLINESTYLE
350
17
  3
ACAD_PLOTSETTINGS
350
19
  3
ACAD_PLOTSTYLENAME
350
E
  3
ACAD_SCALELIST
350
3B
  3
ACAD_TABLESTYLE
350
125
  3
ACAD_VISUALSTYLE
350
2A
  3
AcDbVariableDictionary
350
123
  0
DICTIONARY
  5
D
102
{ACAD_REACTORS
330
C
102
}
330
C
100
AcDbDictionary
281
     1
  0
DICTIONARY
  5
1A
102
{ACAD_REACTORS
330
C
102
}
330
C
100
AcDbDictionary
281
     1
  3
Layout1
350
1E
  3
Model
350
22
  0
DICTIONARY
  5
126
102
{ACAD_REACTORS
330
C
102
}
330
C
100
AcDbDictionary
281
     1
  0
DICTIONARY
  5
17
102
{ACAD_REACTORS
330
C
102
}
330
C
100
AcDbDictionary
281
     1
  3
Standard
350
18
  0
DICTIONARY
  5
19
102
{ACAD_REACTORS
330
C
102
}
330
C
100
AcDbDictionary
281
     1
  0
ACDBDICTIONARYWDFLT
  5
E
102
{ACAD_REACTORS
330
C
102
}
330
C
100
AcDbDictionary
281
     1
  3
Normal
350
F
100
AcDbDictionaryWithDefault
340
F
  0
DICTIONARY
  5
3B
102
{ACAD_REACTORS
330
C
102
}
330
C
100
AcDbDictionary
281
     1
  3
A0
350
3C
  3
A1
350
3D
  3
A2
350
3E
  3
A3
350
3F
  3
A4
350
40
  3
A5
350
41
  3
A6
350
42
  3
A7
350
43
  3
A8
350
44
  3
A9
350
45
  3
B0
350
46
  3
B1
350
47
  3
B2
350
48
  3
B3
350
49
  3
B4
350
4A
  3
B5
350
4B
  3
B6
350
4C
  3
B7
350
4D
  3
B8
350
4E
  3
B9
350
4F
  3
C0
350
50
  3
C1
350
51
  3
C2
350
52
  3
C3
350
53
  3
C4
350
54
  3
C5
350
55
  3
C6
350
56
  3
C7
350
57
  3
C8
350
58
  3
C9
350
59
  3
D0
350
5A
  3
D1
350
5B
  3
D2
350
5C
  0
DICTIONARY
  5
125
102
{ACAD_REACTORS
330
C
102
}
330
C
100
AcDbDictionary
281
     1
  0
DICTIONARY
  5
2A
102
{ACAD_REACTORS
330
C
102
}
330
C
100
AcDbDictionary
281
     1
  3
2dWireframe
350
2F
  3
3D Hidden
350
31
  3
3dWireframe
350
30
  3
Basic
350
32
  3
Brighten
350
36
  3
ColorChange
350
3A
  3
Conceptual
350
34
  3
Dim
350
35
  3
Facepattern
350
39
  3
Flat
350
2B
  3
FlatWithEdges
350
2C
  3
Gouraud
350
2D
  3
GouraudWithEdges
350
2E
  3
Linepattern
350
38
  3
Realistic
350
33
  3
Thicken
350
37
  0
DICTIONARY
  5
123
102
{ACAD_REACTORS
330
C
102
}
330
C
100
AcDbDictionary
281
     1
  3
CANNOSCALE
350
124
  3
PSOLHEIGHT
350
128
  3
PSOLWIDTH
350
127
  0
LAYOUT
  5
1E
102
{ACAD_REACTORS
330
1A
102
}
330
1A
100
AcDbPlotSettings
  1

  2
none_device
  4

  6

 40
0.0
 41
0.0
 42
0.0
 43
0.0
 44
0.0
 45
0.0
 46
0.0
 47
0.0
 48
0.0
 49
0.0
140
0.0
141
0.0
142
1.0
143
1.0
 70
   688
 72
     0
 73
     0
 74
     5
  7

 75
    16
147
1.0
148
0.0
149
0.0
100
AcDbLayout
  1
Layout1
 70
     1
 71
     1
 10
0.0
 20
0.0
 11
3000.0
 21
4500.0
 12
0.0
 22
0.0
 32
0.0
 14
0.0
 24
0.0
 34
0.0
 15
3000.0
 25
4500.0
 35
0.0
146
0.0
 13
0.0
 23
0.0
 33
0.0
 16
1.0
 26
0.0
 36
0.0
 17
0.0
 27
1.0
 37
0.0
 76
     0
330
1B
  0
LAYOUT
  5
22
102
{ACAD_REACTORS
330
1A
102
}
330
1A
100
AcDbPlotSettings
  1

  2
none_device
  4

  6

 40
0.0
 41
0.0
 42
0.0
 43
0.0
 44
0.0
 45
0.0
 46
0.0
 47
0.0
 48
0.0
 49
0.0
140
0.0
141
0.0
142
1.0
143
1.0
 70
  1712
 72
     0
 73
     0
 74
     0
  7

 75
     0
147
1.0
148
0.0
149
0.0
100
AcDbLayout
  1
Model
 70
     1
 71
     0
 10
0.0
 20
0.0
 11
3000.0
 21
4500.0
 12
0.0
 22
0.0
 32
0.0
 14
0.0
 24
0.0
 34
0.0
 15
3000.0
 25
4500.0
 35
0.0
146
0.0
 13
0.0
 23
0.0
 33
0.0
 16
1.0
 26
0.0
 36
0.0
 17
0.0
 27
1.0
 37
0.0
 76
     0
330
1F
331
29
  0
MLINESTYLE
  5
18
102
{ACAD_REACTORS
330
17
102
}
330
17
100
AcDbMlineStyle
  2
Standard
 70
     0
  3

 62
   256
 51
90.0
 52
90.0
 71
     2
 49
0.5
 62
   256
  6
BYLAYER
 49
-0.5
 62
   256
  6
BYLAYER
  0
ACDBPLACEHOLDER
  5
F
102
{ACAD_REACTORS
330
E
102
}
330
E
  0
SCALE
  5
3C
102
{ACAD_REACTORS
330
3B
102
}
330
3B
100
AcDbScale
 70
     0
300
1:1
140
1.0
141
1.0
290
     1
  0
SCALE
  5
3D
102
{ACAD_REACTORS
330
3B
102
}
330
3B
100
AcDbScale
 70
     0
300
1:2
140
1.0
141
2.0
290
     0
  0
SCALE
  5
3E
102
{ACAD_REACTORS
330
3B
102
}
330
3B
100
AcDbScale
 70
     0
300
1:4
140
1.0
141
4.0
290
     0
  0
SCALE
  5
3F
102
{ACAD_REACTORS
330
3B
102
}
330
3B
100
AcDbScale
 70
     0
300
1:5
140
1.0
141
5.0
290
     0
  0
SCALE
  5
40
102
{ACAD_REACTORS
330
3B
102
}
330
3B
100
AcDbScale
 70
     0
300
1:8
140
1.0
141
8.0
290
     0
  0
SCALE
  5
41
102
{ACAD_REACTORS
330
3B
102
}
330
3B
100
AcDbScale
 70
     0
300
1:10
140
1.0
141
10.0
290
     0
  0
SCALE
  5
42
102
{ACAD_REACTORS
330
3B
102
}
330
3B
100
AcDbScale
 70
     0
300
1:16
140
1.0
141
16.0
290
     0
  0
SCALE
  5
43
102
{ACAD_REACTORS
330
3B
102
}
330
3B
100
AcDbScale
 70
     0
300
1:20
140
1.0
141
20.0
290
     0
  0
SCALE
  5
44
102
{ACAD_REACTORS
330
3B
102
}
330
3B
100
AcDbScale
 70
     0
300
1:30
140
1.0
141
30.0
290
     0
  0
SCALE
  5
45
102
{ACAD_REACTORS
330
3B
102
}
330
3B
100
AcDbScale
 70
     0
300
1:40
140
1.0
141
40.0
290
     0
  0
SCALE
  5
46
102
{ACAD_REACTORS
330
3B
102
}
330
3B
100
AcDbScale
 70
     0
300
1:50
140
1.0
141
50.0
290
     0
  0
SCALE
  5
47
102
{ACAD_REACTORS
330
3B
102
}
330
3B
100
AcDbScale
 70
     0
300
1:100
140
1.0
141
100.0
290
     0
  0
SCALE
  5
48
102
{ACAD_REACTORS
330
3B
102
}
330
3B
100
AcDbScale
 70
     0
300
2:1
140
2.0
141
1.0
290
     0
  0
SCALE
  5
49
102
{ACAD_REACTORS
330
3B
102
}
330
3B
100
AcDbScale
 70
     0
300
4:1
140
4.0
141
1.0
290
     0
  0
SCALE
  5
4A
102
{ACAD_REACTORS
330
3B
102
}
330
3B
100
AcDbScale
 70
     0
300
8:1
140
8.0
141
1.0
290
     0
  0
SCALE
  5
4B
102
{ACAD_REACTORS
330
3B
102
}
330
3B
100
AcDbScale
 70
     0
300
10:1
140
10.0
141
1.0
290
     0
  0
SCALE
  5
4C
102
{ACAD_REACTORS
330
3B
102
}
330
3B
100
AcDbScale
 70
     0
300
100:1
140
100.0
141
1.0
290
     0
  0
SCALE
  5
4D
102
{ACAD_REACTORS
330
3B
102
}
330
3B
100
AcDbScale
 70
     0
300
1/128" = 1'-0"
140
0.0078125
141
12.0
290
     0
  0
SCALE
  5
4E
102
{ACAD_REACTORS
330
3B
102
}
330
3B
100
AcDbScale
 70
     0
300
1/64" = 1'-0"
140
0.015625
141
12.0
290
     0
  0
SCALE
  5
4F
102
{ACAD_REACTORS
330
3B
102
}
330
3B
100
AcDbScale
 70
     0
300
1/32" = 1'-0"
140
0.03125
141
12.0
290
     0
  0
SCALE
  5
50
102
{ACAD_REACTORS
330
3B
102
}
330
3B
100
AcDbScale
 70
     0
300
1/16" = 1'-0"
140
0.0625
141
12.0
290
     0
  0
SCALE
  5
51
102
{ACAD_REACTORS
330
3B
102
}
330
3B
100
AcDbScale
 70
     0
300
3/32" = 1'-0"
140
0.09375
141
12.0
290
     0
  0
SCALE
  5
52
102
{ACAD_REACTORS
330
3B
102
}
330
3B
100
AcDbScale
 70
     0
300
1/8" = 1'-0"
140
0.125
141
12.0
290
     0
  0
SCALE
  5
53
102
{ACAD_REACTORS
330
3B
102
}
330
3B
100
AcDbScale
 70
     0
300
3/16" = 1'-0"
140
0.1875
141
12.0
290
     0
  0
SCALE
  5
54
102
{ACAD_REACTORS
330
3B
102
}
330
3B
100
AcDbScale
 70
     0
300
1/4" = 1'-0"
140
0.25
141
12.0
290
     0
  0
SCALE
  5
55
102
{ACAD_REACTORS
330
3B
102
}
330
3B
100
AcDbScale
 70
     0
300
3/8" = 1'-0"
140
0.375
141
12.0
290
     0
  0
SCALE
  5
56
102
{ACAD_REACTORS
330
3B
102
}
330
3B
100
AcDbScale
 70
     0
300
1/2" = 1'-0"
140
0.5
141
12.0
290
     0
  0
SCALE
  5
57
102
{ACAD_REACTORS
330
3B
102
}
330
3B
100
AcDbScale
 70
     0
300
3/4" = 1'-0"
140
0.75
141
12.0
290
     0
  0
SCALE
  5
58
102
{ACAD_REACTORS
330
3B
102
}
330
3B
100
AcDbScale
 70
     0
300
1" = 1'-0"
140
1.0
141
12.0
290
     0
  0
SCALE
  5
59
102
{ACAD_REACTORS
330
3B
102
}
330
3B
100
AcDbScale
 70
     0
300
1-1/2" = 1'-0"
140
1.5
141
12.0
290
     0
  0
SCALE
  5
5A
102
{ACAD_REACTORS
330
3B
102
}
330
3B
100
AcDbScale
 70
     0
300
3" = 1'-0"
140
3.0
141
12.0
290
     0
  0
SCALE
  5
5B
102
{ACAD_REACTORS
330
3B
102
}
330
3B
100
AcDbScale
 70
     0
300
6" = 1'-0"
140
6.0
141
12.0
290
     0
  0
SCALE
  5
5C
102
{ACAD_REACTORS
330
3B
102
}
330
3B
100
AcDbScale
 70
     0
300
1'-0" = 1'-0"
140
12.0
141
12.0
290
     0
  0
VISUALSTYLE
  5
2F
102
{ACAD_REACTORS
330
2A
102
}
330
2A
100
AcDbVisualStyle
  2
2dWireframe
 70
     4
 71
     0
 72
     2
 73
     0
 90
        0
 40
-0.6
 41
-30.0
 62
     5
 63
     7
 74
     1
 91
        4
 64
     7
 65
   257
 75
     1
175
     1
 42
1.0
 92
        0
 66
   257
 43
1.0
 76
     1
 77
     6
 78
     2
 67
     7
 79
     5
170
     0
171
     0
290
     0
174
     0
 93
        1
 44
0.0
173
     0
291
     0
 45
0.0
1001
ACAD
1000
AcDbSavedByObjectVersion
1070
     0
  0
VISUALSTYLE
  5
31
102
{ACAD_REACTORS
330
2A
102
}
330
2A
100
AcDbVisualStyle
  2
3D Hidden
 70
     6
 71
     1
 72
     2
 73
     2
 90
        0
 40
-0.6
 41
-30.0
 62
     5
 63
     7
 74
     2
 91
        2
 64
     7
 65
   257
 75
     2
175
     1
 42
40.0
 92
        0
 66
   257
 43
1.0
 76
     1
 77
     6
 78
     2
 67
     7
 79
     3
170
     0
171
     0
290
     0
174
     0
 93
        1
 44
0.0
173
     0
291
     0
 45
0.0
1001
ACAD
1000
AcDbSavedByObjectVersion
1070
     0
  0
VISUALSTYLE
  5
30
102
{ACAD_REACTORS
330
2A
102
}
330
2A
100
AcDbVisualStyle
  2
3dWireframe
 70
     5
 71
     0
 72
     2
 73
     0
 90
        0
 40
-0.6
 41
-30.0
 62
     5
 63
     7
 74
     1
 91
        4
 64
     7
 65
   257
 75
     1
175
     1
 42
1.0
 92
        0
 66
   257
 43
1.0
 76
     1
 77
     6
 78
     2
 67
     7
 79
     5
170
     0
171
     0
290
     0
174
     0
 93
        1
 44
0.0
173
     0
291
     0
 45
0.0
1001
ACAD
1000
AcDbSavedByObjectVersion
1070
     0
  0
VISUALSTYLE
  5
32
102
{ACAD_REACTORS
330
2A
102
}
330
2A
100
AcDbVisualStyle
  2
Basic
 70
     7
 71
     1
 72
     0
 73
     1
 90
        0
 40
-0.6
 41
-30.0
 62
     5
 63
     7
 74
     0
 91
        4
 64
     7
 65
   257
 75
     1
175
     1
 42
1.0
 92
        8
 66
     7
 43
1.0
 76
     1
 77
     6
 78
     2
 67
     7
 79
     5
170
     0
171
     0
290
     0
174
     0
 93
        1
 44
0.0
173
     0
291
     1
 45
0.0
1001
ACAD
1000
AcDbSavedByObjectVersion
1070
     0
  0
VISUALSTYLE
  5
36
102
{ACAD_REACTORS
330
2A
102
}
330
2A
100
AcDbVisualStyle
  2
Brighten
 70
    12
 71
     2
 72
     2
 73
     0
 90
        0
 40
-0.6
 41
-30.0
 62
     5
 63
     7
 74
     1
 91
        4
 64
     7
 65
   257
 75
     1
175
     1
 42
1.0
 92
        8
 66
     7
 43
1.0
 76
     1
 77
     6
 78
     2
 67
     7
 79
     5
170
     0
171
     0
290
     0
174
     0
 93
        1
 44
50.0
173
     0
291
     1
 45
0.0
1001
ACAD
1000
AcDbSavedByObjectVersion
1070
     0
  0
VISUALSTYLE
  5
3A
102
{ACAD_REACTORS
330
2A
102
}
330
2A
100
AcDbVisualStyle
  2
ColorChange
 70
    16
 71
     2
 72
     2
 73
     3
 90
        0
 40
-0.6
 41
-30.0
 62
     5
 63
     8
 74
     1
 91
        4
 64
     7
 65
   257
 75
     1
175
     1
 42
1.0
 92
        8
 66
     8
 43
1.0
 76
     1
 77
     6
 78
     2
 67
     7
 79
     5
170
     0
171
     0
290
     0
174
     0
 93
        1
 44
0.0
173
     0
291
     1
 45
0.0
1001
ACAD
1000
AcDbSavedByObjectVersion
1070
     0
  0
VISUALSTYLE
  5
34
102
{ACAD_REACTORS
330
2A
102
}
330
2A
100
AcDbVisualStyle
  2
Conceptual
 70
     9
 71
     3
 72
     2
 73
     0
 90
        0
 40
-0.6
 41
-30.0
 62
     5
 63
     7
 74
     2
 91
        2
 64
     7
 65
   257
 75
     1
175
     1
 42
40.0
 92
        8
 66
     7
 43
1.0
 76
     1
 77
     6
 78
     2
 67
     7
 79
     3
170
     0
171
     0
290
     0
174
     0
 93
        1
 44
0.0
173
     0
291
     0
 45
0.0
1001
ACAD
1000
AcDbSavedByObjectVersion
1070
     0
  0
VISUALSTYLE
  5
35
102
{ACAD_REACTORS
330
2A
102
}
330
2A
100
AcDbVisualStyle
  2
Dim
 70
    11
 71
     2
 72
     2
 73
     0
 90
        0
 40
-0.6
 41
-30.0
 62
     5
 63
     7
 74
     1
 91
        4
 64
     7
 65
   257
 75
     1
175
     1
 42
1.0
 92
        8
 66
     7
 43
1.0
 76
     1
 77
     6
 78
     2
 67
     7
 79
     5
170
     0
171
     0
290
     0
174
     0
 93
        1
 44
-50.0
173
     0
291
     1
 45
0.0
1001
ACAD
1000
AcDbSavedByObjectVersion
1070
     0
  0
VISUALSTYLE
  5
39
102
{ACAD_REACTORS
330
2A
102
}
330
2A
100
AcDbVisualStyle
  2
Facepattern
 70
    15
 71
     2
 72
     2
 73
     0
 90
        0
 40
-0.6
 41
-30.0
 62
     5
 63
     7
 74
     1
 91
        4
 64
     7
 65
   257
 75
     1
175
     1
 42
1.0
 92
        8
 66
     7
 43
1.0
 76
     1
 77
     6
 78
     2
 67
     7
 79
     5
170
     0
171
     0
290
     0
174
     0
 93
        1
 44
0.0
173
     0
291
     1
 45
0.0
1001
ACAD
1000
AcDbSavedByObjectVersion
1070
     0
  0
VISUALSTYLE
  5
2B
102
{ACAD_REACTORS
330
2A
102
}
330
2A
100
AcDbVisualStyle
  2
Flat
 70
     0
 71
     2
 72
     1
 73
     1
 90
        2
 40
-0.6
 41
30.0
 62
     5
 63
     7
 74
     0
 91
        4
 64
     7
 65
   257
 75
     1
175
     1
 42
1.0
 92
        8
 66
     7
 43
1.0
 76
     1
 77
     6
 78
     2
 67
     7
 79
     5
170
     0
171
     0
290
     0
174
     0
 93
       13
 44
0.0
173
     0
291
     1
 45
0.0
1001
ACAD
1000
AcDbSavedByObjectVersion
1070
     0
  0
VISUALSTYLE
  5
2C
102
{ACAD_REACTORS
330
2A
102
}
330
2A
100
AcDbVisualStyle
  2
FlatWithEdges
 70
     1
 71
     2
 72
     1
 73
     1
 90
        2
 40
-0.6
 41
30.0
 62
     5
 63
     7
 74
     1
 91
        4
 64
     7
 65
   257
 75
     1
175
     1
 42
1.0
 92
        0
 66
   257
 43
1.0
 76
     1
 77
     6
 78
     2
 67
     7
 79
     5
170
     0
171
     0
290
     0
174
     0
 93
       13
 44
0.0
173
     0
291
     1
 45
0.0
1001
ACAD
1000
AcDbSavedByObjectVersion
1070
     0
  0
VISUALSTYLE
  5
2D
102
{ACAD_REACTORS
330
2A
102
}
330
2A
100
AcDbVisualStyle
  2
Gouraud
 70
     2
 71
     2
 72
     2
 73
     1
 90
        2
 40
-0.6
 41
30.0
 62
     5
 63
     7
 74
     0
 91
        4
 64
     7
 65
   257
 75
     1
175
     1
 42
1.0
 92
        0
 66
     7
 43
1.0
 76
     1
 77
     6
 78
     2
 67
     7
 79
     5
170
     0
171
     0
290
     0
174
     0
 93
       13
 44
0.0
173
     0
291
     1
 45
0.0
1001
ACAD
1000
AcDbSavedByObjectVersion
1070
     0
  0
VISUALSTYLE
  5
2E
102
{ACAD_REACTORS
330
2A
102
}
330
2A
100
AcDbVisualStyle
  2
GouraudWithEdges
 70
     3
 71
     2
 72
     2
 73
     1
 90
        2
 40
-0.6
 41
30.0
 62
     5
 63
     7
 74
     1
 91
        4
 64
     7
 65
   257
 75
     1
175
     1
 42
1.0
 92
        0
 66
   257
 43
1.0
 76
     1
 77
     6
 78
     2
 67
     7
 79
     5
170
     0
171
     0
290
     0
174
     0
 93
       13
 44
0.0
173
     0
291
     1
 45
0.0
1001
ACAD
1000
AcDbSavedByObjectVersion
1070
     0
  0
VISUALSTYLE
  5
38
102
{ACAD_REACTORS
330
2A
102
}
330
2A
100
AcDbVisualStyle
  2
Linepattern
 70
    14
 71
     2
 72
     2
 73
     0
 90
        0
 40
-0.6
 41
-30.0
 62
     5
 63
     7
 74
     1
 91
        4
 64
     7
 65
   257
 75
     7
175
     7
 42
1.0
 92
        8
 66
     7
 43
1.0
 76
     1
 77
     6
 78
     2
 67
     7
 79
     5
170
     0
171
     0
290
     0
174
     0
 93
        1
 44
0.0
173
     0
291
     1
 45
0.0
1001
ACAD
1000
AcDbSavedByObjectVersion
1070
     0
  0
VISUALSTYLE
  5
33
102
{ACAD_REACTORS
330
2A
102
}
330
2A
100
AcDbVisualStyle
  2
Realistic
 70
     8
 71
     2
 72
     2
 73
     0
 90
        0
 40
-0.6
 41
-30.0
 62
     5
 63
     7
 74
     1
 91
        0
 64
     7
 65
   257
 75
     1
175
     1
 42
1.0
 92
        8
 66
     8
 43
1.0
 76
     1
 77
     6
 78
     2
 67
     7
 79
     5
170
     0
171
     0
290
     0
174
     0
 93
       13
 44
0.0
173
     0
291
     0
 45
0.0
1001
ACAD
1000
AcDbSavedByObjectVersion
1070
     0
  0
VISUALSTYLE
  5
37
102
{ACAD_REACTORS
330
2A
102
}
330
2A
100
AcDbVisualStyle
  2
Thicken
 70
    13
 71
     2
 72
     2
 73
     0
 90
        0
 40
-0.6
 41
-30.0
 62
     5
 63
     7
 74
     1
 91
        4
 64
     7
 65
   257
 75
     1
175
     1
 42
1.0
 92
       12
 66
     7
 43
1.0
 76
     1
 77
     6
 78
     2
 67
     7
 79
     5
170
     0
171
     0
290
     0
174
     0
 93
        1
 44
0.0
173
     0
291
     1
 45
0.0
1001
ACAD
1000
AcDbSavedByObjectVersion
1070
     0
  0
DICTIONARYVAR
  5
124
102
{ACAD_REACTORS
330
123
102
}
330
123
100
DictionaryVariables
280
     0
  1
1:1
  0
DICTIONARYVAR
  5
128
102
{ACAD_REACTORS
330
123
102
}
330
123
100
DictionaryVariables
280
     0
  1
80.000000
  0
DICTIONARYVAR
  5
127
102
{ACAD_REACTORS
330
123
102
}
330
123
100
DictionaryVariables
280
     0
  1
5.000000
  0
ENDSEC
  0
EOF
