  0
SECTION
  2
HEADER
  9
$ACADVER
  1
AC1015
  9
$ACADMAINTVER
 70
     6
  9
$DWGCODEPAGE
  3
ANSI_1252
  9
$INSBASE
 10
0.0
 20
0.0
 30
0.0
  9
$EXTMIN
 10
0.0
 20
0.0
 30
0.0
  9
$EXTMAX
 10
3000.0
 20
4500.0
 30
0.0
  9
$LIMMIN
 10
0.0
 20
0.0
  9
$LIMMAX
 10
3000.0
 20
4500.0
  9
$ORTHOMODE
 70
     0
  9
$REGENMODE
 70
     1
  9
$FILLMODE
 70
     1
  9
$QTEXTMODE
 70
     0
  9
$MIRRTEXT
 70
     1
  9
$LTSCALE
 40
1.0
  9
$ATTMODE
 70
     1
  9
$TEXTSIZE
 40
2.5
  9
$TRACEWID
 40
1.0
  9
$TEXTSTYLE
  7
Standard
  9
$CLAYER
  8
0
  9
$CELTYPE
  6
ByLayer
  9
$CECOLOR
 62
   256
  9
$CELTSCALE
 40
1.0
  9
$DISPSILH
 70
     0
  9
$DIMSCALE
 40
1.0
  9
$DIMASZ
 40
2.5
  9
$DIMEXO
 40
0.625
  9
$DIMDLI
 40
3.75
  9
$DIMRND
 40
0.0
  9
$DIMDLE
 40
0.0
  9
$DIMEXE
 40
1.25
  9
$DIMTP
 40
0.0
  9
$DIMTM
 40
0.0
  9
$DIMTXT
 40
2.5
  9
$DIMCEN
 40
2.5
  9
$DIMTSZ
 40
0.0
  9
$DIMTOL
 70
     0
  9
$DIMLIM
 70
     0
  9
$DIMTIH
 70
     0
  9
$DIMTOH
 70
     0
  9
$DIMSE1
 70
     0
  9
$DIMSE2
 70
     0
  9
$DIMTAD
 70
     1
  9
$DIMZIN
 70
     8
  9
$DIMBLK
  1

  9
$DIMASO
 70
     1
  9
$DIMSHO
 70
     1
  9
$DIMPOST
  1

  9
$DIMAPOST
  1

  9
$DIMALT
 70
     0
  9
$DIMALTD
 70
     3
  9
$DIMALTF
 40
0.0393700787
  9
$DIMLFAC
 40
1.0
  9
$DIMTOFL
 70
     1
  9
$DIMTVP
 40
0.0
  9
$DIMTIX
 70
     0
  9
$DIMSOXD
 70
     0
  9
$DIMSAH
 70
     0
  9
$DIMBLK1
  1

  9
$DIMBLK2
  1

  9
$DIMSTYLE
  2
ISO-25
  9
$DIMCLRD
 70
     0
  9
$DIMCLRE
 70
     0
  9
$DIMCLRT
 70
     0
  9
$DIMTFAC
 40
1.0
  9
$DIMGAP
 40
0.625
  9
$DIMJUST
 70
     0
  9
$DIMSD1
 70
     0
  9
$DIMSD2
 70
     0
  9
$DIMTOLJ
 70
     0
  9
$DIMTZIN
 70
     8
  9
$DIMALTZ
 70
     0
  9
$DIMALTTZ
 70
     0
  9
$DIMUPT
 70
     0
  9
$DIMDEC
 70
     2
  9
$DIMTDEC
 70
     2
  9
$DIMALTU
 70
     2
  9
$DIMALTTD
 70
     3
  9
$DIMTXSTY
  7
Standard
  9
$DIMAUNIT
 70
     0
  9
$DIMADEC
 70
     0
  9
$DIMALTRND
 40
0.0
  9
$DIMAZIN
 70
     0
  9
$DIMDSEP
 70
    44
  9
$DIMATFIT
 70
     3
  9
$DIMFRAC
 70
     0
  9
$DIMLDRBLK
  1

  9
$DIMLUNIT
 70
     2
  9
$DIMLWD
 70
    -2
  9
$DIMLWE
 70
    -2
  9
$DIMTMOVE
 70
     0
  9
$LUNITS
 70
     2
  9
$LUPREC
 70
     4
  9
$SKETCHINC
 40
1.0
  9
$FILLETRAD
 40
10.0
  9
$AUNITS
 70
     0
  9
$AUPREC
 70
     0
  9
$MENU
  1
.
  9
$ELEVATION
 40
0.0
  9
$PELEVATION
 40
0.0
  9
$THICKNESS
 40
0.0
  9
$LIMCHECK
 70
     0
  9
$CHAMFERA
 40
10.0
  9
$CHAMFERB
 40
10.0
  9
$CHAMFERC
 40
20.0
  9
$CHAMFERD
 40
0.0
  9
$SKPOLY
 70
     0
  9
$TDCREATE
 40
2456028.563928241
  9
$TDUCREATE
 40
2456028.480594907
  9
$TDUPDATE
 40
2456028.563928252
  9
$TDUUPDATE
 40
2456028.480594919
  9
$TDINDWG
 40
0.0000000116
  9
$TDUSRTIMER
 40
0.0000000116
  9
$USRTIMER
 70
     1
  9
$ANGBASE
 50
0.0
  9
$ANGDIR
 70
     0
  9
$PDMODE
 70
     0
  9
$PDSIZE
 40
0.0
  9
$PLINEWID
 40
0.0
  9
$SPLFRAME
 70
     0
  9
$SPLINETYPE
 70
     6
  9
$SPLINESEGS
 70
     8
  9
$HANDSEED
  5
32F
  9
$SURFTAB1
 70
     6
  9
$SURFTAB2
 70
     6
  9
$SURFTYPE
 70
     6
  9
$SURFU
 70
     6
  9
$SURFV
 70
     6
  9
$UCSBASE
  2

  9
$UCSNAME
  2

  9
$UCSORG
 10
0.0
 20
0.0
 30
0.0
  9
$UCSXDIR
 10
1.0
 20
0.0
 30
0.0
  9
$UCSYDIR
 10
0.0
 20
1.0
 30
0.0
  9
$UCSORTHOREF
  2

  9
$UCSORTHOVIEW
 70
     0
  9
$UCSORGTOP
 10
0.0
 20
0.0
 30
0.0
  9
$UCSORGBOTTOM
 10
0.0
 20
0.0
 30
0.0
  9
$UCSORGLEFT
 10
0.0
 20
0.0
 30
0.0
  9
$UCSORGRIGHT
 10
0.0
 20
0.0
 30
0.0
  9
$UCSORGFRONT
 10
0.0
 20
0.0
 30
0.0
  9
$UCSORGBACK
 10
0.0
 20
0.0
 30
0.0
  9
$PUCSBASE
  2

  9
$PUCSNAME
  2

  9
$PUCSORG
 10
0.0
 20
0.0
 30
0.0
  9
$PUCSXDIR
 10
1.0
 20
0.0
 30
0.0
  9
$PUCSYDIR
 10
0.0
 20
1.0
 30
0.0
  9
$PUCSORTHOREF
  2

  9
$PUCSORTHOVIEW
 70
     0
  9
$PUCSORGTOP
 10
0.0
 20
0.0
 30
0.0
  9
$PUCSORGBOTTOM
 10
0.0
 20
0.0
 30
0.0
  9
$PUCSORGLEFT
 10
0.0
 20
0.0
 30
0.0
  9
$PUCSORGRIGHT
 10
0.0
 20
0.0
 30
0.0
  9
$PUCSORGFRONT
 10
0.0
 20
0.0
 30
0.0
  9
$PUCSORGBACK
 10
0.0
 20
0.0
 30
0.0
  9
$USERI1
 70
     0
  9
$USERI2
 70
     0
  9
$USERI3
 70
     0
  9
$USERI4
 70
     0
  9
$USERI5
 70
     0
  9
$USERR1
 40
0.0
  9
$USERR2
 40
0.0
  9
$USERR3
 40
0.0
  9
$USERR4
 40
0.0
  9
$USERR5
 40
0.0
  9
$WORLDVIEW
 70
     1
  9
$SHADEDGE
 70
     3
  9
$SHADEDIF
 70
    70
  9
$TILEMODE
 70
     1
  9
$MAXACTVP
 70
    64
  9
$PINSBASE
 10
0.0
 20
0.0
 30
0.0
  9
$PLIMCHECK
 70
     0
  9
$PEXTMIN
 10
0.0
 20
0.0
 30
0.0
  9
$PEXTMAX
 10
3000.0
 20
4500.0
 30
0.0
  9
$PLIMMIN
 10
0.0
 20
0.0
  9
$PLIMMAX
 10
3000.0
 20
4500.0
  9
$UNITMODE
 70
     0
  9
$VISRETAIN
 70
     1
  9
$PLINEGEN
 70
     0
  9
$PSLTSCALE
 70
     1
  9
$TREEDEPTH
 70
  3020
  9
$CMLSTYLE
  2
Standard
  9
$CMLJUST
 70
     0
  9
$CMLSCALE
 40
20.0
  9
$PROXYGRAPHICS
 70
     1
  9
$MEASUREMENT
 70
     1
  9
$CELWEIGHT
370
    -1
  9
$ENDCAPS
280
     0
  9
$JOINSTYLE
280
     0
  9
$LWDISPLAY
290
     0
  9
$INSUNITS
 70
     4
  9
$HYPERLINKBASE
  1

  9
$STYLESHEET
  1

  9
$XEDIT
290
     1
  9
$CEPSNTYPE
380
     0
  9
$PSTYLEMODE
290
     1
  9
$FINGERPRINTGUID
  2
{9191B8E5-95D6-4482-9E00-F6F0448ADC2E}
  9
$VERSIONGUID
  2
{FAEB1C32-E019-11D5-929B-00C0DF256EC4}
  9
$EXTNAMES
290
     1
  9
$PSVPSCALE
 40
0.0
  9
$OLESTARTUP
290
     0
  0
ENDSEC
  0
SECTION
  2
CLASSES
  0
CLASS
  1
ACDBDICTIONARYWDFLT
  2
AcDbDictionaryWithDefault
  3
ObjectDBX Classes
 90
        0
280
     0
281
     0
  0
CLASS
  1
VISUALSTYLE
  2
AcDbVisualStyle
  3
ObjectDBX Classes
 90
     4095
280
     0
281
     0
  0
CLASS
  1
SCALE
  2
AcDbScale
  3
ObjectDBX Classes
 90
     1153
280
     0
281
     0
  0
CLASS
  1
DICTIONARYVAR
  2
AcDbDictionaryVar
  3
ObjectDBX Classes
 90
        0
280
     0
281
     0
  0
CLASS
  1
ACDBPLACEHOLDER
  2
AcDbPlaceHolder
  3
ObjectDBX Classes
 90
        0
280
     0
281
     0
  0
CLASS
  1
LAYOUT
  2
AcDbLayout
  3
ObjectDBX Classes
 90
        0
280
     0
281
     0
  0
ENDSEC
  0
SECTION
  2
TABLES
  0
TABLE
  2
VPORT
  5
8
330
0
100
AcDbSymbolTable
 70
     1
  0
VPORT
  5
29
330
8
100
AcDbSymbolTableRecord
100
AcDbViewportTableRecord
  2
*Active
 70
     0
 10
0.0
 20
0.0
 11
1.0
 21
1.0
 12
344.1869158879
 22
148.5
 13
0.0
 23
0.0
 14
10.0
 24
10.0
 15
10.0
 25
10.0
 16
0.0
 26
0.0
 36
1.0
 17
0.0
 27
0.0
 37
0.0
 40
297.0
 41
1.9729729729
 42
50.0
 43
0.0
 44
0.0
 50
0.0
 51
0.0
 71
     0
 72
   100
 73
     1
 74
     3
 75
     0
 76
     0
 77
     0
 78
     0
281
     0
 65
     1
110
0.0
120
0.0
130
0.0
111
1.0
121
0.0
131
0.0
112
0.0
122
1.0
132
0.0
 79
     0
146
0.0
  0
ENDTAB
  0
TABLE
  2
LTYPE
  5
5
330
0
100
AcDbSymbolTable
 70
     2
  0
LTYPE
  5
14
330
5
100
AcDbSymbolTableRecord
100
AcDbLinetypeTableRecord
  2
ByBlock
 70
     0
  3

 72
    65
 73
     0
 40
0.0
  0
LTYPE
  5
15
330
5
100
AcDbSymbolTableRecord
100
AcDbLinetypeTableRecord
  2
ByLayer
 70
     0
  3

 72
    65
 73
     0
 40
0.0
  0
LTYPE
  5
16
330
5
100
AcDbSymbolTableRecord
100
AcDbLinetypeTableRecord
  2
Continuous
 70
     0
  3
Solid line
 72
    65
 73
     0
 40
0.0
  0
LTYPE
  5
60
330
5
100
AcDbSymbolTableRecord
100
AcDbLinetypeTableRecord
  2
CENTER2
 70
     0
  3
Center (.5x) ___ _ ___ _ ___ _ ___ _ ___ _ ___
 72
    65
 73
     4
 40
28.575
 49
19.05
 74
     4
 75
     0
340
0
 46
0.0
 50
0.0
 44
0.0
 45
0.0
 49
-3.175
 74
     4
 75
     0
340
0
 46
0.0
 50
0.0
 44
0.0
 45
0.0
 49
3.175
 74
     4
 75
     0
340
0
 46
0.0
 50
0.0
 44
0.0
 45
0.0
 49
-3.175
 74
     4
 75
     0
340
0
 46
0.0
 50
0.0
 44
0.0
 45
0.0
  0
ENDTAB
  0
TABLE
  2
LAYER
  5
2
330
0
100
AcDbSymbolTable
 70
     5
  0
LAYER
  5
10
330
2
100
AcDbSymbolTableRecord
100
AcDbLayerTableRecord
  2
0
 70
     0
 62
     7
  6
Continuous
370
    -3
390
F
  0
LAYER
  5
5D
330
2
100
AcDbSymbolTableRecord
100
AcDbLayerTableRecord
  2
Default
 70
     0
 62
     7
  6
Continuous
370
    -3
390
F
  0
LAYER
  5
A5
330
2
100
AcDbSymbolTableRecord
100
AcDbLayerTableRecord
  2
$DDT_AUDIT_GENERATED_(A5)
 70
     0
 62
     7
  6
Continuous
370
    -3
390
F
  0
LAYER
  5
BE
330
2
100
AcDbSymbolTableRecord
100
AcDbLayerTableRecord
  2
$DDT_AUDIT_GENERATED_(BE)
 70
     0
 62
     7
  6
Continuous
370
    -3
390
F
  0
LAYER
  5
D0
330
2
100
AcDbSymbolTableRecord
100
AcDbLayerTableRecord
  2
$DDT_AUDIT_GENERATED_(D0)
 70
     0
 62
     7
  6
Continuous
370
    -3
390
F
  0
ENDTAB
  0
TABLE
  2
STYLE
  5
3
330
0
100
AcDbSymbolTable
 70
     2
  0
STYLE
  5
11
330
3
100
AcDbSymbolTableRecord
100
AcDbTextStyleTableRecord
  2
Standard
 70
     0
 40
0.0
 41
1.0
 50
0.0
 71
     0
 42
2.5
  3
txt
  4

  0
STYLE
  5
31E
330
3
100
AcDbSymbolTableRecord
100
AcDbTextStyleTableRecord
  2
SEACAD_seiso_ttf
 70
     0
 40
0.0
 41
1.0
 50
0.0
 71
     0
 42
0.2
  3
seiso.ttf
  4

  0
ENDTAB
  0
TABLE
  2
VIEW
  5
6
330
0
100
AcDbSymbolTable
 70
     0
  0
ENDTAB
  0
TABLE
  2
UCS
  5
7
330
0
100
AcDbSymbolTable
 70
     0
  0
ENDTAB
  0
TABLE
  2
APPID
  5
9
330
0
100
AcDbSymbolTable
 70
     1
  0
APPID
  5
12
330
9
100
AcDbSymbolTableRecord
100
AcDbRegAppTableRecord
  2
ACAD
 70
     0
  0
ENDTAB
  0
TABLE
  2
DIMSTYLE
  5
A
330
0
100
AcDbSymbolTable
 70
     1
100
AcDbDimStyleTable
  0
DIMSTYLE
105
27
330
A
100
AcDbSymbolTableRecord
100
AcDbDimStyleTableRecord
  2
ISO-25
 70
     0
 41
2.5
 42
0.625
 43
3.75
 44
1.25
 73
     0
 74
     0
 77
     1
 78
     8
140
2.5
141
2.5
143
0.0393700787
147
0.625
171
     3
172
     1
271
     2
272
     2
274
     3
278
    44
283
     0
284
     8
340
11
  0
ENDTAB
  0
TABLE
  2
BLOCK_RECORD
  5
1
330
0
100
AcDbSymbolTable
 70
    12
  0
BLOCK_RECORD
  5
1F
330
1
100
AcDbSymbolTableRecord
100
AcDbBlockTableRecord
  2
*Model_Space
340
22
  0
BLOCK_RECORD
  5
1B
330
1
100
AcDbSymbolTableRecord
100
AcDbBlockTableRecord
  2
*Paper_Space
340
1E
  0
BLOCK_RECORD
  5
5E
330
1
100
AcDbSymbolTableRecord
100
AcDbBlockTableRecord
  2
SEANNOT_GROUP
340
0
102
{BLKREFS
331
5F
102
}
  0
BLOCK_RECORD
  5
69
330
1
100
AcDbSymbolTableRecord
100
AcDbBlockTableRecord
  2
SEANNOT_GROUP1
340
0
102
{BLKREFS
331
6A
102
}
  0
BLOCK_RECORD
  5
73
330
1
100
AcDbSymbolTableRecord
100
AcDbBlockTableRecord
  2
SEANNOT_GROUP2
340
0
102
{BLKREFS
331
74
102
}
  0
BLOCK_RECORD
  5
7D
330
1
100
AcDbSymbolTableRecord
100
AcDbBlockTableRecord
  2
SEANNOT_GROUP3
340
0
102
{BLKREFS
331
7E
102
}
  0
BLOCK_RECORD
  5
8B
330
1
100
AcDbSymbolTableRecord
100
AcDbBlockTableRecord
  2
SEANNOT_GROUP4
340
0
102
{BLKREFS
331
8C
102
}
  0
BLOCK_RECORD
  5
91
330
1
100
AcDbSymbolTableRecord
100
AcDbBlockTableRecord
  2
SEANNOT_GROUP5
340
0
102
{BLKREFS
331
92
102
}
  0
BLOCK_RECORD
  5
97
330
1
100
AcDbSymbolTableRecord
100
AcDbBlockTableRecord
  2
SEANNOT_GROUP6
340
0
102
{BLKREFS
331
98
102
}
  0
BLOCK_RECORD
  5
9D
330
1
100
AcDbSymbolTableRecord
100
AcDbBlockTableRecord
  2
SEANNOT_GROUP7
340
0
102
{BLKREFS
331
9E
102
}
  0
BLOCK_RECORD
  5
A3
330
1
100
AcDbSymbolTableRecord
100
AcDbBlockTableRecord
  2
SE
340
0
102
{BLKREFS
331
A4
102
}
  0
BLOCK_RECORD
  5
209
330
1
100
AcDbSymbolTableRecord
100
AcDbBlockTableRecord
  2
SE1
340
0
102
{BLKREFS
331
20A
102
}
  0
BLOCK_RECORD
  5
2B7
330
1
100
AcDbSymbolTableRecord
100
AcDbBlockTableRecord
  2
SE2
340
0
102
{BLKREFS
331
2B8
102
}
  0
ENDTAB
  0
ENDSEC
  0
SECTION
  2
BLOCKS
  0
BLOCK
  5
20
330
1F
100
AcDbEntity
  8
0
100
AcDbBlockBegin
  2
*Model_Space
 70
     0
 10
0.0
 20
0.0
 30
0.0
  3
*Model_Space
  1

  0
ENDBLK
  5
21
330
1F
100
AcDbEntity
  8
0
100
AcDbBlockEnd
  0
BLOCK
  5
1C
330
1B
100
AcDbEntity
 67
     1
  8
0
100
AcDbBlockBegin
  2
*Paper_Space
 70
     0
 10
0.0
 20
0.0
 30
0.0
  3
*Paper_Space
  1

  0
ENDBLK
  5
1D
330
1B
100
AcDbEntity
 67
     1
  8
0
100
AcDbBlockEnd
  0
BLOCK
  5
67
330
5E
100
AcDbEntity
  8
0
100
AcDbBlockBegin
  2
SEANNOT_GROUP
 70
     0
 10
0.0
 20
0.0
 30
0.0
  3
SEANNOT_GROUP
  1

  0
LINE
  5
61
330
5E
100
AcDbEntity
  8
Default
  6
CENTER2
 62
     7
100
AcDbLine
 10
133.3321966904
 20
408.4676435014
 30
0.0
 11
93.3321975845
 21
408.4676435014
 31
0.0
  0
LINE
  5
62
330
5E
100
AcDbEntity
  8
Default
  6
CENTER2
 62
     7
100
AcDbLine
 10
113.3321971374
 20
428.4676430544
 30
0.0
 11
113.3321971374
 21
388.4676439484
 31
0.0
  0
LINE
  5
63
330
5E
100
AcDbEntity
  8
Default
  6
CENTER2
 62
     7
100
AcDbLine
 10
138.3321965786
 20
408.4676435014
 30
0.0
 11
119.8321971374
 21
408.4676435014
 31
0.0
  0
LINE
  5
64
330
5E
100
AcDbEntity
  8
Default
  6
CENTER2
 62
     7
100
AcDbLine
 10
113.3321971374
 20
433.4676429426
 30
0.0
 11
113.3321971374
 21
414.9676435014
 31
0.0
  0
LINE
  5
65
330
5E
100
AcDbEntity
  8
Default
  6
CENTER2
 62
     7
100
AcDbLine
 10
88.3321976962
 20
408.4676435014
 30
0.0
 11
106.8321971374
 21
408.4676435014
 31
0.0
  0
LINE
  5
66
330
5E
100
AcDbEntity
  8
Default
  6
CENTER2
 62
     7
100
AcDbLine
 10
113.3321971374
 20
383.4676440602
 30
0.0
 11
113.3321971374
 21
401.9676435014
 31
0.0
  0
ENDBLK
  5
68
330
5E
100
AcDbEntity
  8
0
100
AcDbBlockEnd
  0
BLOCK
  5
71
330
69
100
AcDbEntity
  8
0
100
AcDbBlockBegin
  2
SEANNOT_GROUP1
 70
     0
 10
0.0
 20
0.0
 30
0.0
  3
SEANNOT_GROUP1
  1

  0
LINE
  5
6B
330
69
100
AcDbEntity
  8
Default
  6
CENTER2
 62
     7
100
AcDbLine
 10
173.3321966904
 20
408.4676435014
 30
0.0
 11
133.3321975845
 21
408.4676435014
 31
0.0
  0
LINE
  5
6C
330
69
100
AcDbEntity
  8
Default
  6
CENTER2
 62
     7
100
AcDbLine
 10
153.3321971374
 20
428.4676430544
 30
0.0
 11
153.3321971374
 21
388.4676439484
 31
0.0
  0
LINE
  5
6D
330
69
100
AcDbEntity
  8
Default
  6
CENTER2
 62
     7
100
AcDbLine
 10
178.3321965786
 20
408.4676435014
 30
0.0
 11
159.8321971374
 21
408.4676435014
 31
0.0
  0
LINE
  5
6E
330
69
100
AcDbEntity
  8
Default
  6
CENTER2
 62
     7
100
AcDbLine
 10
153.3321971374
 20
433.4676429426
 30
0.0
 11
153.3321971374
 21
414.9676435014
 31
0.0
  0
LINE
  5
6F
330
69
100
AcDbEntity
  8
Default
  6
CENTER2
 62
     7
100
AcDbLine
 10
128.3321976962
 20
408.4676435014
 30
0.0
 11
146.8321971374
 21
408.4676435014
 31
0.0
  0
LINE
  5
70
330
69
100
AcDbEntity
  8
Default
  6
CENTER2
 62
     7
100
AcDbLine
 10
153.3321971374
 20
383.4676440602
 30
0.0
 11
153.3321971374
 21
401.9676435014
 31
0.0
  0
ENDBLK
  5
72
330
69
100
AcDbEntity
  8
0
100
AcDbBlockEnd
  0
BLOCK
  5
7B
330
73
100
AcDbEntity
  8
0
100
AcDbBlockBegin
  2
SEANNOT_GROUP2
 70
     0
 10
0.0
 20
0.0
 30
0.0
  3
SEANNOT_GROUP2
  1

  0
LINE
  5
75
330
73
100
AcDbEntity
  8
Default
  6
CENTER2
 62
     7
100
AcDbLine
 10
133.3321966904
 20
285.4676435014
 30
0.0
 11
93.3321975845
 21
285.4676435014
 31
0.0
  0
LINE
  5
76
330
73
100
AcDbEntity
  8
Default
  6
CENTER2
 62
     7
100
AcDbLine
 10
113.3321971374
 20
305.4676430544
 30
0.0
 11
113.3321971374
 21
265.4676439484
 31
0.0
  0
LINE
  5
77
330
73
100
AcDbEntity
  8
Default
  6
CENTER2
 62
     7
100
AcDbLine
 10
138.3321965786
 20
285.4676435014
 30
0.0
 11
119.8321971374
 21
285.4676435014
 31
0.0
  0
LINE
  5
78
330
73
100
AcDbEntity
  8
Default
  6
CENTER2
 62
     7
100
AcDbLine
 10
113.3321971374
 20
310.4676429426
 30
0.0
 11
113.3321971374
 21
291.9676435014
 31
0.0
  0
LINE
  5
79
330
73
100
AcDbEntity
  8
Default
  6
CENTER2
 62
     7
100
AcDbLine
 10
88.3321976962
 20
285.4676435014
 30
0.0
 11
106.8321971374
 21
285.4676435014
 31
0.0
  0
LINE
  5
7A
330
73
100
AcDbEntity
  8
Default
  6
CENTER2
 62
     7
100
AcDbLine
 10
113.3321971374
 20
260.4676440602
 30
0.0
 11
113.3321971374
 21
278.9676435014
 31
0.0
  0
ENDBLK
  5
7C
330
73
100
AcDbEntity
  8
0
100
AcDbBlockEnd
  0
BLOCK
  5
85
330
7D
100
AcDbEntity
  8
0
100
AcDbBlockBegin
  2
SEANNOT_GROUP3
 70
     0
 10
0.0
 20
0.0
 30
0.0
  3
SEANNOT_GROUP3
  1

  0
LINE
  5
7F
330
7D
100
AcDbEntity
  8
Default
  6
CENTER2
 62
     7
100
AcDbLine
 10
173.3321966904
 20
285.4676435014
 30
0.0
 11
133.3321975845
 21
285.4676435014
 31
0.0
  0
LINE
  5
80
330
7D
100
AcDbEntity
  8
Default
  6
CENTER2
 62
     7
100
AcDbLine
 10
153.3321971374
 20
305.4676430544
 30
0.0
 11
153.3321971374
 21
265.4676439484
 31
0.0
  0
LINE
  5
81
330
7D
100
AcDbEntity
  8
Default
  6
CENTER2
 62
     7
100
AcDbLine
 10
178.3321965786
 20
285.4676435014
 30
0.0
 11
159.8321971374
 21
285.4676435014
 31
0.0
  0
LINE
  5
82
330
7D
100
AcDbEntity
  8
Default
  6
CENTER2
 62
     7
100
AcDbLine
 10
153.3321971374
 20
310.4676429426
 30
0.0
 11
153.3321971374
 21
291.9676435014
 31
0.0
  0
LINE
  5
83
330
7D
100
AcDbEntity
  8
Default
  6
CENTER2
 62
     7
100
AcDbLine
 10
128.3321976962
 20
285.4676435014
 30
0.0
 11
146.8321971374
 21
285.4676435014
 31
0.0
  0
LINE
  5
84
330
7D
100
AcDbEntity
  8
Default
  6
CENTER2
 62
     7
100
AcDbLine
 10
153.3321971374
 20
260.4676440602
 30
0.0
 11
153.3321971374
 21
278.9676435014
 31
0.0
  0
ENDBLK
  5
86
330
7D
100
AcDbEntity
  8
0
100
AcDbBlockEnd
  0
BLOCK
  5
8F
330
8B
100
AcDbEntity
  8
0
100
AcDbBlockBegin
  2
SEANNOT_GROUP4
 70
     0
 10
0.0
 20
0.0
 30
0.0
  3
SEANNOT_GROUP4
  1

  0
LINE
  5
8D
330
8B
100
AcDbEntity
  8
Default
  6
CENTER2
 62
     7
100
AcDbLine
 10
328.4529730472
 20
408.4676435014
 30
0.0
 11
288.4529739413
 21
408.4676435014
 31
0.0
  0
LINE
  5
8E
330
8B
100
AcDbEntity
  8
Default
  6
CENTER2
 62
     7
100
AcDbLine
 10
308.4529734942
 20
428.4676430544
 30
0.0
 11
308.4529734942
 21
388.4676439484
 31
0.0
  0
ENDBLK
  5
90
330
8B
100
AcDbEntity
  8
0
100
AcDbBlockEnd
  0
BLOCK
  5
95
330
91
100
AcDbEntity
  8
0
100
AcDbBlockBegin
  2
SEANNOT_GROUP5
 70
     0
 10
0.0
 20
0.0
 30
0.0
  3
SEANNOT_GROUP5
  1

  0
LINE
  5
93
330
91
100
AcDbEntity
  8
Default
  6
CENTER2
 62
     7
100
AcDbLine
 10
328.4529730472
 20
285.4676435014
 30
0.0
 11
288.4529739413
 21
285.4676435014
 31
0.0
  0
LINE
  5
94
330
91
100
AcDbEntity
  8
Default
  6
CENTER2
 62
     7
100
AcDbLine
 10
308.4529734942
 20
305.4676430544
 30
0.0
 11
308.4529734942
 21
265.4676439484
 31
0.0
  0
ENDBLK
  5
96
330
91
100
AcDbEntity
  8
0
100
AcDbBlockEnd
  0
BLOCK
  5
9B
330
97
100
AcDbEntity
  8
0
100
AcDbBlockBegin
  2
SEANNOT_GROUP6
 70
     0
 10
0.0
 20
0.0
 30
0.0
  3
SEANNOT_GROUP6
  1

  0
LINE
  5
99
330
97
100
AcDbEntity
  8
Default
  6
CENTER2
 62
     7
100
AcDbLine
 10
133.3321966904
 20
119.85
 30
0.0
 11
93.3321975845
 21
119.85
 31
0.0
  0
LINE
  5
9A
330
97
100
AcDbEntity
  8
Default
  6
CENTER2
 62
     7
100
AcDbLine
 10
113.3321971374
 20
139.849999553
 30
0.0
 11
113.3321971374
 21
99.850000447
 31
0.0
  0
ENDBLK
  5
9C
330
97
100
AcDbEntity
  8
0
100
AcDbBlockEnd
  0
BLOCK
  5
A1
330
9D
100
AcDbEntity
  8
0
100
AcDbBlockBegin
  2
SEANNOT_GROUP7
 70
     0
 10
0.0
 20
0.0
 30
0.0
  3
SEANNOT_GROUP7
  1

  0
LINE
  5
9F
330
9D
100
AcDbEntity
  8
Default
  6
CENTER2
 62
     7
100
AcDbLine
 10
173.3321966904
 20
119.85
 30
0.0
 11
133.3321975845
 21
119.85
 31
0.0
  0
LINE
  5
A0
330
9D
100
AcDbEntity
  8
Default
  6
CENTER2
 62
     7
100
AcDbLine
 10
153.3321971374
 20
139.849999553
 30
0.0
 11
153.3321971374
 21
99.850000447
 31
0.0
  0
ENDBLK
  5
A2
330
9D
100
AcDbEntity
  8
0
100
AcDbBlockEnd
  0
BLOCK
  5
207
330
A3
100
AcDbEntity
  8
0
100
AcDbBlockBegin
  2
SE
 70
     0
 10
0.0
 20
0.0
 30
0.0
  3
SE
  1

  0
LINE
  5
A6
330
A3
100
AcDbEntity
  8
$DDT_AUDIT_GENERATED_(A5)
  6
Continuous
 62
     7
100
AcDbLine
 10
92.4321971374
 20
450.9676437089
 30
0.0
 11
174.2321971374
 21
450.9676437089
 31
0.0
  0
ARC
  5
A7
330
A3
100
AcDbEntity
  8
$DDT_AUDIT_GENERATED_(A5)
  6
Continuous
 62
     7
100
AcDbCircle
 10
174.2321971374
 20
449.3676437089
 30
0.0
 40
1.600000000000004
100
AcDbArc
 50
0.0
 51
90.0
  0
ARC
  5
A8
330
A3
100
AcDbEntity
  8
$DDT_AUDIT_GENERATED_(A5)
  6
Continuous
 62
     7
100
AcDbCircle
 10
92.4321971374
 20
449.3676437089
 30
0.0
 40
1.599999999999997
100
AcDbArc
 50
90.0
 51
180.0
  0
LINE
  5
A9
330
A3
100
AcDbEntity
  8
$DDT_AUDIT_GENERATED_(A5)
  6
Continuous
 62
     7
100
AcDbLine
 10
175.8321971374
 20
449.3676437089
 30
0.0
 11
175.8321971374
 21
244.5676437089
 31
0.0
  0
LINE
  5
AA
330
A3
100
AcDbEntity
  8
$DDT_AUDIT_GENERATED_(A5)
  6
Continuous
 62
     7
100
AcDbLine
 10
90.8321971374
 20
244.5676437089
 30
0.0
 11
90.8321971374
 21
449.3676437089
 31
0.0
  0
ARC
  5
AB
330
A3
100
AcDbEntity
  8
$DDT_AUDIT_GENERATED_(A5)
  6
Continuous
 62
     7
100
AcDbCircle
 10
174.2321971374
 20
244.5676437089
 30
0.0
 40
1.599999999999997
100
AcDbArc
 50
270.0
 51
0.0
  0
ARC
  5
AC
330
A3
100
AcDbEntity
  8
$DDT_AUDIT_GENERATED_(A5)
  6
Continuous
 62
     7
100
AcDbCircle
 10
92.4321971374
 20
244.5676437089
 30
0.0
 40
1.600000000000004
100
AcDbArc
 50
180.0
 51
270.0
  0
LINE
  5
AD
330
A3
100
AcDbEntity
  8
$DDT_AUDIT_GENERATED_(A5)
  6
Continuous
 62
     7
100
AcDbLine
 10
174.2321971374
 20
242.9676437089
 30
0.0
 11
92.4321971374
 21
242.9676437089
 31
0.0
  0
LINE
  5
AE
330
A3
100
AcDbEntity
  8
$DDT_AUDIT_GENERATED_(A5)
  6
Continuous
 62
     7
100
AcDbLine
 10
113.3321971374
 20
404.9676437089
 30
0.0
 11
112.6848701682
 21
404.9676437089
 31
0.0
  0
ARC
  5
AF
330
A3
100
AcDbEntity
  8
$DDT_AUDIT_GENERATED_(A5)
  6
Continuous
 62
     7
100
AcDbCircle
 10
113.3321971374
 20
408.4676437089
 30
0.0
 40
3.499999999999996
100
AcDbArc
 50
70.5720708062
 51
90.0
  0
ARC
  5
B0
330
A3
100
AcDbEntity
  8
$DDT_AUDIT_GENERATED_(A5)
  6
Continuous
 62
     7
100
AcDbCircle
 10
113.3321971374
 20
408.4676437089
 30
0.0
 40
3.499999999999996
100
AcDbArc
 50
270.0
 51
289.427950017
  0
LINE
  5
B1
330
A3
100
AcDbEntity
  8
$DDT_AUDIT_GENERATED_(A5)
  6
Continuous
 62
     7
100
AcDbLine
 10
112.6848711757
 20
411.9676437089
 30
0.0
 11
113.3321971374
 21
411.9676437089
 31
0.0
  0
LINE
  5
B2
330
A3
100
AcDbEntity
  8
$DDT_AUDIT_GENERATED_(A5)
  6
Continuous
 62
     7
100
AcDbLine
 10
153.3321971374
 20
411.967694298
 30
0.0
 11
153.9794002289
 21
411.967694298
 31
0.0
  0
ARC
  5
B3
330
A3
100
AcDbEntity
  8
$DDT_AUDIT_GENERATED_(A5)
  6
Continuous
 62
     7
100
AcDbCircle
 10
153.3321971374
 20
408.4676437089
 30
0.0
 40
3.5000505891499
100
AcDbArc
 50
250.5750347475
 51
270.3080560081
  0
ARC
  5
B4
330
A3
100
AcDbEntity
  8
$DDT_AUDIT_GENERATED_(A5)
  6
Continuous
 62
     7
100
AcDbCircle
 10
153.3321971374
 20
408.4676437089
 30
0.0
 40
3.5000505891499
100
AcDbArc
 50
90.0
 51
109.4249444157
  0
LINE
  5
B5
330
A3
100
AcDbEntity
  8
$DDT_AUDIT_GENERATED_(A5)
  6
Continuous
 62
     7
100
AcDbLine
 10
153.9795241069
 20
404.9676437089
 30
0.0
 11
153.3510153894
 21
404.9676437089
 31
0.0
  0
LINE
  5
B6
330
A3
100
AcDbEntity
  8
$DDT_AUDIT_GENERATED_(A5)
  6
Continuous
 62
     7
100
AcDbLine
 10
153.979523099
 20
288.9676437089
 30
0.0
 11
153.3321971374
 21
288.9676437089
 31
0.0
  0
ARC
  5
B7
330
A3
100
AcDbEntity
  8
$DDT_AUDIT_GENERATED_(A5)
  6
Continuous
 62
     7
100
AcDbCircle
 10
153.3321971374
 20
285.4676437089
 30
0.0
 40
3.499999999999989
100
AcDbArc
 50
90.0
 51
109.4279291859
  0
ARC
  5
B8
330
A3
100
AcDbEntity
  8
$DDT_AUDIT_GENERATED_(A5)
  6
Continuous
 62
     7
100
AcDbCircle
 10
153.3321971374
 20
285.4676437089
 30
0.0
 40
3.499999999999989
100
AcDbArc
 50
250.5720499805
 51
270.0
  0
LINE
  5
B9
330
A3
100
AcDbEntity
  8
$DDT_AUDIT_GENERATED_(A5)
  6
Continuous
 62
     7
100
AcDbLine
 10
153.3321971374
 20
281.9676437089
 30
0.0
 11
153.9795241069
 21
281.9676437089
 31
0.0
  0
LINE
  5
BA
330
A3
100
AcDbEntity
  8
$DDT_AUDIT_GENERATED_(A5)
  6
Continuous
 62
     7
100
AcDbLine
 10
112.6848701682
 20
281.9676437089
 30
0.0
 11
113.3321971374
 21
281.9676437089
 31
0.0
  0
ARC
  5
BB
330
A3
100
AcDbEntity
  8
$DDT_AUDIT_GENERATED_(A5)
  6
Continuous
 62
     7
100
AcDbCircle
 10
113.3321971374
 20
285.4676437089
 30
0.0
 40
3.500000000000003
100
AcDbArc
 50
270.0
 51
289.427950017
  0
ARC
  5
BC
330
A3
100
AcDbEntity
  8
$DDT_AUDIT_GENERATED_(A5)
  6
Continuous
 62
     7
100
AcDbCircle
 10
113.3321971374
 20
285.4676437089
 30
0.0
 40
3.500000000000003
100
AcDbArc
 50
70.5720708082
 51
90.0
  0
LINE
  5
BD
330
A3
100
AcDbEntity
  8
$DDT_AUDIT_GENERATED_(A5)
  6
Continuous
 62
     7
100
AcDbLine
 10
113.3321971374
 20
288.9676437089
 30
0.0
 11
112.6848711757
 21
288.9676437089
 31
0.0
  0
CIRCLE
  5
BF
330
A3
100
AcDbEntity
  8
$DDT_AUDIT_GENERATED_(BE)
  6
Continuous
 62
     7
100
AcDbCircle
 10
113.3321971374
 20
408.4676435014
 30
0.0
 40
3.0
  0
LINE
  5
C0
330
A3
100
AcDbEntity
  8
$DDT_AUDIT_GENERATED_(BE)
  6
Continuous
 62
     7
100
AcDbLine
 10
115.5661804114
 20
408.9676435014
 30
0.0
 11
113.8321971374
 21
408.9676435014
 31
0.0
  0
ELLIPSE
  5
C1
330
A3
100
AcDbEntity
  8
$DDT_AUDIT_GENERATED_(BE)
  6
Continuous
 62
     7
100
AcDbEllipse
 10
111.3188043286
 20
408.4676435014
 30
0.0
 11
1.765948498544390E-12
 21
-5.773698229355119
 31
0.0
210
0.0
220
0.0
230
1.0
 40
0.738416287
 41
1.484088110269907
 42
1.657504543319435
  0
ELLIPSE
  5
C2
330
A3
100
AcDbEntity
  8
$DDT_AUDIT_GENERATED_(BE)
  6
Continuous
 62
     7
100
AcDbEllipse
 10
115.3455899463
 20
408.4676435014
 30
0.0
 11
0.0
 21
4.276704758251115
 31
0.0
210
0.0
220
0.0
230
1.0
 40
1.0
 41
1.453615895784683
 42
1.687976757804686
  0
LINE
  5
C3
330
A3
100
AcDbEntity
  8
$DDT_AUDIT_GENERATED_(BE)
  6
Continuous
 62
     7
100
AcDbLine
 10
115.5661804114
 20
407.9676435014
 30
0.0
 11
113.8321971374
 21
407.9676435014
 31
0.0
  0
LINE
  5
C4
330
A3
100
AcDbEntity
  8
$DDT_AUDIT_GENERATED_(BE)
  6
Continuous
 62
     7
100
AcDbLine
 10
113.8321971374
 20
407.9676435014
 30
0.0
 11
112.8321971374
 21
407.9676435014
 31
0.0
  0
LINE
  5
C5
330
A3
100
AcDbEntity
  8
$DDT_AUDIT_GENERATED_(BE)
  6
Continuous
 62
     7
100
AcDbLine
 10
112.8321971374
 20
407.9676435014
 30
0.0
 11
112.8321971374
 21
408.9676435014
 31
0.0
  0
LINE
  5
C6
330
A3
100
AcDbEntity
  8
$DDT_AUDIT_GENERATED_(BE)
  6
Continuous
 62
     7
100
AcDbLine
 10
113.8321971374
 20
407.9676435014
 30
0.0
 11
113.8321971374
 21
408.9676435014
 31
0.0
  0
LINE
  5
C7
330
A3
100
AcDbEntity
  8
$DDT_AUDIT_GENERATED_(BE)
  6
Continuous
 62
     7
100
AcDbLine
 10
113.8321971374
 20
408.9676435014
 30
0.0
 11
112.8321971374
 21
408.9676435014
 31
0.0
  0
LINE
  5
C8
330
A3
100
AcDbEntity
  8
$DDT_AUDIT_GENERATED_(BE)
  6
Continuous
 62
     7
100
AcDbLine
 10
112.8321971374
 20
408.9676435014
 30
0.0
 11
111.0982138634
 21
408.9676435014
 31
0.0
  0
LINE
  5
C9
330
A3
100
AcDbEntity
  8
$DDT_AUDIT_GENERATED_(BE)
  6
Continuous
 62
     7
100
AcDbLine
 10
112.8321971374
 20
407.9676435014
 30
0.0
 11
111.0982138634
 21
407.9676435014
 31
0.0
  0
ELLIPSE
  5
CA
330
A3
100
AcDbEntity
  8
$DDT_AUDIT_GENERATED_(BE)
  6
Continuous
 62
     7
100
AcDbEllipse
 10
113.3321971374
 20
410.4476435014
 30
0.0
 11
-5.599999999996153
 21
-1.124100812432971E-12
 31
0.0
210
0.0
220
0.0
230
1.0
 40
0.8
 41
1.481391554867115
 42
1.660201098722431
  0
ELLIPSE
  5
CB
330
A3
100
AcDbEntity
  8
$DDT_AUDIT_GENERATED_(BE)
  6
Continuous
 62
     7
100
AcDbEllipse
 10
113.3321971374
 20
406.4876435014
 30
0.0
 11
5.599999999995636
 21
3.962108419131027E-12
 31
0.0
210
0.0
220
0.0
230
1.0
 40
0.8
 41
1.481391554866696
 42
1.660201098722029
  0
LINE
  5
CC
330
A3
100
AcDbEntity
  8
$DDT_AUDIT_GENERATED_(BE)
  6
Continuous
 62
     7
100
AcDbLine
 10
112.8321971374
 20
405.9855363758
 30
0.0
 11
112.8321971374
 21
407.9676435014
 31
0.0
  0
LINE
  5
CD
330
A3
100
AcDbEntity
  8
$DDT_AUDIT_GENERATED_(BE)
  6
Continuous
 62
     7
100
AcDbLine
 10
113.8321971374
 20
405.9855363758
 30
0.0
 11
113.8321971374
 21
407.9676435014
 31
0.0
  0
LINE
  5
CE
330
A3
100
AcDbEntity
  8
$DDT_AUDIT_GENERATED_(BE)
  6
Continuous
 62
     7
100
AcDbLine
 10
113.8321971374
 20
408.9676435014
 30
0.0
 11
113.8321971374
 21
410.949750627
 31
0.0
  0
LINE
  5
CF
330
A3
100
AcDbEntity
  8
$DDT_AUDIT_GENERATED_(BE)
  6
Continuous
 62
     7
100
AcDbLine
 10
112.8321971374
 20
408.9676435014
 30
0.0
 11
112.8321971374
 21
410.949750627
 31
0.0
  0
ARC
  5
D1
330
A3
100
AcDbEntity
  8
$DDT_AUDIT_GENERATED_(D0)
  6
Continuous
 62
     7
100
AcDbCircle
 10
133.3321971374
 20
408.4676435014
 30
0.0
 40
23.90000000000002
100
AcDbArc
 50
175.0
 51
185.0
  0
ARC
  5
D2
330
A3
100
AcDbEntity
  8
$DDT_AUDIT_GENERATED_(D0)
  6
Continuous
 62
     7
100
AcDbCircle
 10
113.4083031755
 20
410.2107583564
 30
0.0
 40
3.900000000062321
100
AcDbArc
 50
355.0
 51
175.0
  0
ARC
  5
D3
330
A3
100
AcDbEntity
  8
$DDT_AUDIT_GENERATED_(D0)
  6
Continuous
 62
     7
100
AcDbCircle
 10
133.3321971374
 20
408.4676435014
 30
0.0
 40
16.10000000000002
100
AcDbArc
 50
175.0
 51
185.0
  0
ARC
  5
D4
330
A3
100
AcDbEntity
  8
$DDT_AUDIT_GENERATED_(D0)
  6
Continuous
 62
     7
100
AcDbCircle
 10
113.4083031756
 20
406.7245286465
 30
0.0
 40
3.900000000000002
100
AcDbArc
 50
185.0
 51
5.0
  0
ARC
  5
D5
330
A3
100
AcDbEntity
  8
$DDT_AUDIT_GENERATED_(D0)
  6
Continuous
 62
     7
100
AcDbCircle
 10
133.3321971375
 20
408.4676435014
 30
0.0
 40
16.10000000807537
100
AcDbArc
 50
355.0
 51
5.0000000001
  0
ARC
  5
D6
330
A3
100
AcDbEntity
  8
$DDT_AUDIT_GENERATED_(D0)
  6
Continuous
 62
     7
100
AcDbCircle
 10
153.2560910994
 20
410.2107583564
 30
0.0
 40
3.899999991798298
100
AcDbArc
 50
5.0000000001
 51
185.0000000001
  0
ARC
  5
D7
330
A3
100
AcDbEntity
  8
$DDT_AUDIT_GENERATED_(D0)
  6
Continuous
 62
     7
100
AcDbCircle
 10
133.3321971375
 20
408.4676435014
 30
0.0
 40
23.89999999179661
100
AcDbArc
 50
355.0
 51
5.0000000001
  0
ARC
  5
D8
330
A3
100
AcDbEntity
  8
$DDT_AUDIT_GENERATED_(D0)
  6
Continuous
 62
     7
100
AcDbCircle
 10
153.2560910993
 20
406.7245286465
 30
0.0
 40
3.899999991860622
100
AcDbArc
 50
175.0
 51
355.0
  0
ARC
  5
D9
330
A3
100
AcDbEntity
  8
$DDT_AUDIT_GENERATED_(D0)
  6
Continuous
 62
     7
100
AcDbCircle
 10
113.4083031756
 20
406.7245286465
 30
0.0
 40
1.9
100
AcDbArc
 50
203.2200326274
 51
341.7799673723
  0
ARC
  5
DA
330
A3
100
AcDbEntity
  8
$DDT_AUDIT_GENERATED_(D0)
  6
Continuous
 62
     7
100
AcDbCircle
 10
113.4083031755
 20
410.2107583564
 30
0.0
 40
1.900000000062322
100
AcDbArc
 50
18.2200326278
 51
156.7799673762
  0
ARC
  5
DB
330
A3
100
AcDbEntity
  8
$DDT_AUDIT_GENERATED_(D0)
  6
Continuous
 62
     7
100
AcDbCircle
 10
153.2560910994
 20
410.2107583564
 30
0.0
 40
1.899999999999996
100
AcDbArc
 50
23.2200326262
 51
161.7799673663
  0
ARC
  5
DC
330
A3
100
AcDbEntity
  8
$DDT_AUDIT_GENERATED_(D0)
  6
Continuous
 62
     7
100
AcDbCircle
 10
153.2560910993
 20
406.7245286465
 30
0.0
 40
1.900000000062323
100
AcDbArc
 50
198.2200326273
 51
336.7799673769
  0
LINE
  5
DD
330
A3
100
AcDbEntity
  8
$DDT_AUDIT_GENERATED_(D0)
  6
Continuous
 62
     7
100
AcDbLine
 10
113.3263560256
 20
417.8193840082
 30
0.0
 11
113.0630675051
 21
417.95353621
 31
0.0
  0
LINE
  5
DE
330
A3
100
AcDbEntity
  8
$DDT_AUDIT_GENERATED_(D0)
  6
Continuous
 62
     7
100
AcDbLine
 10
117.6977772817
 20
417.2755229842
 30
0.0
 11
117.9610658022
 21
417.1413707825
 31
0.0
  0
ARC
  5
DF
330
A3
100
AcDbEntity
  8
$DDT_AUDIT_GENERATED_(D0)
  6
Continuous
 62
     7
100
AcDbCircle
 10
115.5120666537
 20
417.5474534962
 30
0.0
 40
2.199999999999994
100
AcDbArc
 50
352.9322704722
 51
133.0677295278
  0
LINE
  5
E0
330
A3
100
AcDbEntity
  8
$DDT_AUDIT_GENERATED_(D0)
  6
Continuous
 62
     7
100
AcDbLine
 10
114.2971213978
 20
419.008243702
 30
0.0
 11
114.7992481096
 21
418.7523973635
 31
0.0
  0
LINE
  5
E1
330
A3
100
AcDbEntity
  8
$DDT_AUDIT_GENERATED_(D0)
  6
Continuous
 62
     7
100
AcDbLine
 10
114.2971213978
 20
419.008243702
 30
0.0
 11
114.009769332
 21
419.1546568925
 31
0.0
  0
LINE
  5
E2
330
A3
100
AcDbEntity
  8
$DDT_AUDIT_GENERATED_(D0)
  6
Continuous
 62
     7
100
AcDbLine
 10
117.695349725
 20
417.2767598861
 30
0.0
 11
117.4079976591
 21
417.4231730767
 31
0.0
  0
ARC
  5
E3
330
A3
100
AcDbEntity
  8
$DDT_AUDIT_GENERATED_(D0)
  6
Continuous
 62
     7
100
AcDbCircle
 10
115.5120666537
 20
417.5474534962
 30
0.0
 40
1.899999999999999
100
AcDbArc
 50
356.2495625906
 51
129.7504374094
  0
ARC
  5
E4
330
A3
100
AcDbEntity
  8
$DDT_AUDIT_GENERATED_(D0)
  6
Continuous
 62
     7
100
AcDbCircle
 10
115.5120666537
 20
417.5474534962
 30
0.0
 40
2.200000000000001
100
AcDbArc
 50
172.9322704722
 51
313.0677295278
  0
LINE
  5
E5
330
A3
100
AcDbEntity
  8
$DDT_AUDIT_GENERATED_(D0)
  6
Continuous
 62
     7
100
AcDbLine
 10
116.7270119095
 20
416.0866632904
 30
0.0
 11
116.2248851977
 21
416.3425096289
 31
0.0
  0
LINE
  5
E6
330
A3
100
AcDbEntity
  8
$DDT_AUDIT_GENERATED_(D0)
  6
Continuous
 62
     7
100
AcDbLine
 10
116.7270119095
 20
416.0866632904
 30
0.0
 11
117.0143639754
 21
415.9402500999
 31
0.0
  0
LINE
  5
E7
330
A3
100
AcDbEntity
  8
$DDT_AUDIT_GENERATED_(D0)
  6
Continuous
 62
     7
100
AcDbLine
 10
113.3287835823
 20
417.8181471063
 30
0.0
 11
113.6161356482
 21
417.6717339157
 31
0.0
  0
ARC
  5
E8
330
A3
100
AcDbEntity
  8
$DDT_AUDIT_GENERATED_(D0)
  6
Continuous
 62
     7
100
AcDbCircle
 10
115.5120666537
 20
417.5474534962
 30
0.0
 40
1.900000000000002
100
AcDbArc
 50
176.2495625906
 51
309.7504374094
  0
ARC
  5
E9
330
A3
100
AcDbEntity
  8
$DDT_AUDIT_GENERATED_(D0)
  6
Continuous
 62
     7
100
AcDbCircle
 10
115.5120666537
 20
417.5474534962
 30
0.0
 40
2.75
100
AcDbArc
 50
174.8729080664
 51
311.1270919336
  0
ARC
  5
EA
330
A3
100
AcDbEntity
  8
$DDT_AUDIT_GENERATED_(D0)
  6
Continuous
 62
     7
100
AcDbCircle
 10
112.9722694052
 20
417.7753349051
 30
0.0
 40
0.2000000000000008
100
AcDbArc
 50
63.0
 51
174.8729080664
  0
LINE
  5
EB
330
A3
100
AcDbEntity
  8
$DDT_AUDIT_GENERATED_(D0)
  6
Continuous
 62
     7
100
AcDbLine
 10
113.7440532547
 20
419.2900459962
 30
0.0
 11
114.0073417752
 21
419.1558937945
 31
0.0
  0
ARC
  5
EC
330
A3
100
AcDbEntity
  8
$DDT_AUDIT_GENERATED_(D0)
  6
Continuous
 62
     7
100
AcDbCircle
 10
113.8348513547
 20
419.4682473011
 30
0.0
 40
0.2000000000000038
100
AcDbArc
 50
131.1270919336
 51
243.0
  0
ARC
  5
ED
330
A3
100
AcDbEntity
  8
$DDT_AUDIT_GENERATED_(D0)
  6
Continuous
 62
     7
100
AcDbCircle
 10
115.5120666537
 20
417.5474534962
 30
0.0
 40
2.75
100
AcDbArc
 50
354.8729080664
 51
131.1270919336
  0
ARC
  5
EE
330
A3
100
AcDbEntity
  8
$DDT_AUDIT_GENERATED_(D0)
  6
Continuous
 62
     7
100
AcDbCircle
 10
118.0518639022
 20
417.3195720873
 30
0.0
 40
0.2000000000000014
100
AcDbArc
 50
243.0
 51
354.8729080664
  0
LINE
  5
EF
330
A3
100
AcDbEntity
  8
$DDT_AUDIT_GENERATED_(D0)
  6
Continuous
 62
     7
100
AcDbLine
 10
117.2800800526
 20
415.8048609962
 30
0.0
 11
117.0167915321
 21
415.9390131979
 31
0.0
  0
ARC
  5
F0
330
A3
100
AcDbEntity
  8
$DDT_AUDIT_GENERATED_(D0)
  6
Continuous
 62
     7
100
AcDbCircle
 10
117.1892819526
 20
415.6266596913
 30
0.0
 40
0.199999999999999
100
AcDbArc
 50
311.1270919336
 51
63.0
  0
LINE
  5
F1
330
A3
100
AcDbEntity
  8
$DDT_AUDIT_GENERATED_(D0)
  6
Continuous
 62
     7
100
AcDbLine
 10
116.9058709473
 20
417.6790194152
 30
0.0
 11
117.4079976591
 21
417.4231730767
 31
0.0
  0
LINE
  5
F2
330
A3
100
AcDbEntity
  8
$DDT_AUDIT_GENERATED_(D0)
  6
Continuous
 62
     7
100
AcDbLine
 10
114.11826236
 20
417.4158875772
 30
0.0
 11
113.6161356482
 21
417.6717339157
 31
0.0
  0
ARC
  5
F3
330
A3
100
AcDbEntity
  8
$DDT_AUDIT_GENERATED_(D0)
  6
Continuous
 62
     7
100
AcDbCircle
 10
115.5120666537
 20
417.5474534962
 30
0.0
 40
1.399999999999996
100
AcDbArc
 50
185.3923654858
 51
300.6076345142
  0
ARC
  5
F4
330
A3
100
AcDbEntity
  8
$DDT_AUDIT_GENERATED_(D0)
  6
Continuous
 62
     7
100
AcDbCircle
 10
115.5120666537
 20
417.5474534962
 30
0.0
 40
1.399999999999993
100
AcDbArc
 50
5.3923654858
 51
120.6076345142
  0
LINE
  5
F5
330
A3
100
AcDbEntity
  8
$DDT_AUDIT_GENERATED_(D0)
  6
Continuous
 62
     7
100
AcDbLine
 10
116.9058709473
 20
417.6790194152
 30
0.0
 11
116.6872096225
 21
417.790432925
 31
0.0
  0
LINE
  5
F6
330
A3
100
AcDbEntity
  8
$DDT_AUDIT_GENERATED_(D0)
  6
Continuous
 62
     7
100
AcDbLine
 10
115.0179094344
 20
418.6409838537
 30
0.0
 11
114.7992481096
 21
418.7523973635
 31
0.0
  0
LINE
  5
F7
330
A3
100
AcDbEntity
  8
$DDT_AUDIT_GENERATED_(D0)
  6
Continuous
 62
     7
100
AcDbLine
 10
114.11826236
 20
417.4158875772
 30
0.0
 11
114.3369236848
 21
417.3044740674
 31
0.0
  0
LINE
  5
F8
330
A3
100
AcDbEntity
  8
$DDT_AUDIT_GENERATED_(D0)
  6
Continuous
 62
     7
100
AcDbLine
 10
116.0062238729
 20
416.4539231387
 30
0.0
 11
116.2248851977
 21
416.3425096289
 31
0.0
  0
ARC
  5
F9
330
A3
100
AcDbEntity
  8
$DDT_AUDIT_GENERATED_(D0)
  6
Continuous
 62
     7
100
AcDbCircle
 10
133.3321971374
 20
408.4676435014
 30
0.0
 40
14.0
100
AcDbArc
 50
314.4153085972
 51
225.5846914028
  0
LINE
  5
FA
330
A3
100
AcDbEntity
  8
$DDT_AUDIT_GENERATED_(D0)
  6
Continuous
 62
     7
100
AcDbLine
 10
143.3321971374
 20
397.9676435014
 30
0.0
 11
123.3321971374
 21
397.9676435014
 31
0.0
  0
ARC
  5
FB
330
A3
100
AcDbEntity
  8
$DDT_AUDIT_GENERATED_(D0)
  6
Continuous
 62
     7
100
AcDbCircle
 10
133.3321971374
 20
408.4676435014
 30
0.0
 40
14.5
100
AcDbArc
 50
313.6028189727
 51
226.3971810273
  0
LINE
  5
FC
330
A3
100
AcDbEntity
  8
$DDT_AUDIT_GENERATED_(D0)
  6
Continuous
 62
     7
100
AcDbLine
 10
123.5342381663
 20
398.4676435014
 30
0.0
 11
143.1301561086
 21
398.4676435014
 31
0.0
  0
LINE
  5
FD
330
A3
100
AcDbEntity
  8
$DDT_AUDIT_GENERATED_(D0)
  6
Continuous
 62
     7
100
AcDbLine
 10
143.1301561086
 20
398.4676435014
 30
0.0
 11
143.3321971374
 21
397.9676435014
 31
0.0
  0
LINE
  5
FE
330
A3
100
AcDbEntity
  8
$DDT_AUDIT_GENERATED_(D0)
  6
Continuous
 62
     7
100
AcDbLine
 10
123.3321971374
 20
397.9676435014
 30
0.0
 11
123.5342381663
 21
398.4676435014
 31
0.0
  0
ARC
  5
FF
330
A3
100
AcDbEntity
  8
$DDT_AUDIT_GENERATED_(D0)
  6
Continuous
 62
     7
100
AcDbCircle
 10
133.3321971374
 20
408.4676435014
 30
0.0
 40
34.67499999999999
100
AcDbArc
 50
323.0
 51
359.6695250342
  0
LINE
  5
100
330
A3
100
AcDbEntity
  8
$DDT_AUDIT_GENERATED_(D0)
  6
Continuous
 62
     7
100
AcDbLine
 10
161.4001493354
 20
387.3169244445
 30
0.0
 11
161.0248834483
 21
387.5997075736
 31
0.0
  0
LINE
  5
101
330
A3
100
AcDbEntity
  8
$DDT_AUDIT_GENERATED_(D0)
  6
Continuous
 62
     7
100
AcDbLine
 10
154.2001330652
 20
380.7749571905
 30
0.0
 11
154.4829161943
 21
380.3996913034
 31
0.0
  0
LINE
  5
102
330
A3
100
AcDbEntity
  8
$DDT_AUDIT_GENERATED_(D0)
  6
Continuous
 62
     7
100
AcDbLine
 10
161.4001493354
 20
387.3169244445
 30
0.0
 11
161.5598764374
 21
387.1965614399
 31
0.0
  0
LINE
  5
103
330
A3
100
AcDbEntity
  8
$DDT_AUDIT_GENERATED_(D0)
  6
Continuous
 62
     7
100
AcDbLine
 10
161.5598764374
 20
387.1965614399
 30
0.0
 11
161.7436554074
 21
387.0580740528
 31
0.0
  0
LINE
  5
104
330
A3
100
AcDbEntity
  8
$DDT_AUDIT_GENERATED_(D0)
  6
Continuous
 62
     7
100
AcDbLine
 10
154.2001330652
 20
380.7749571905
 30
0.0
 11
153.3120933636
 21
381.9534256779
 31
0.0
  0
LINE
  5
105
330
A3
100
AcDbEntity
  8
$DDT_AUDIT_GENERATED_(D0)
  6
Continuous
 62
     7
100
AcDbLine
 10
154.7417665861
 20
380.0561852315
 30
0.0
 11
154.6032791989
 21
380.2399642014
 31
0.0
  0
LINE
  5
106
330
A3
100
AcDbEntity
  8
$DDT_AUDIT_GENERATED_(D0)
  6
Continuous
 62
     7
100
AcDbLine
 10
154.6032791989
 20
380.2399642014
 30
0.0
 11
154.4829161943
 21
380.3996913034
 31
0.0
  0
LINE
  5
107
330
A3
100
AcDbEntity
  8
$DDT_AUDIT_GENERATED_(D0)
  6
Continuous
 62
     7
100
AcDbLine
 10
159.8464149609
 20
388.4877472752
 30
0.0
 11
161.0248834483
 21
387.5997075736
 31
0.0
  0
ARC
  5
108
330
A3
100
AcDbEntity
  8
$DDT_AUDIT_GENERATED_(D0)
  6
Continuous
 62
     7
100
AcDbCircle
 10
159.7260519563
 20
388.3280201732
 30
0.0
 40
0.2000000000000081
100
AcDbArc
 50
53.0
 51
142.6548426141
  0
ARC
  5
109
330
A3
100
AcDbEntity
  8
$DDT_AUDIT_GENERATED_(D0)
  6
Continuous
 62
     7
100
AcDbCircle
 10
133.3321971374
 20
408.4676435014
 30
0.0
 40
33.0
100
AcDbArc
 50
307.3451573859
 51
322.6548426141
  0
ARC
  5
10A
330
A3
100
AcDbEntity
  8
$DDT_AUDIT_GENERATED_(D0)
  6
Continuous
 62
     7
100
AcDbCircle
 10
153.4718204656
 20
382.0737886826
 30
0.0
 40
0.1999999999999973
100
AcDbArc
 50
127.3451573859
 51
217.0
  0
ARC
  5
10B
330
A3
100
AcDbEntity
  8
$DDT_AUDIT_GENERATED_(D0)
  6
Continuous
 62
     7
100
AcDbCircle
 10
133.3321971374
 20
408.4676435014
 30
0.0
 40
34.675
100
AcDbArc
 50
233.0
 51
269.6695250342
  0
LINE
  5
10C
330
A3
100
AcDbEntity
  8
$DDT_AUDIT_GENERATED_(D0)
  6
Continuous
 62
     7
100
AcDbLine
 10
112.1814780806
 20
380.3996913034
 30
0.0
 11
112.4642612096
 21
380.7749571905
 31
0.0
  0
LINE
  5
10D
330
A3
100
AcDbEntity
  8
$DDT_AUDIT_GENERATED_(D0)
  6
Continuous
 62
     7
100
AcDbLine
 10
105.6395108265
 20
387.5997075736
 30
0.0
 11
105.2642449395
 21
387.3169244445
 31
0.0
  0
LINE
  5
10E
330
A3
100
AcDbEntity
  8
$DDT_AUDIT_GENERATED_(D0)
  6
Continuous
 62
     7
100
AcDbLine
 10
112.1814780806
 20
380.3996913034
 30
0.0
 11
112.0611150759
 21
380.2399642014
 31
0.0
  0
LINE
  5
10F
330
A3
100
AcDbEntity
  8
$DDT_AUDIT_GENERATED_(D0)
  6
Continuous
 62
     7
100
AcDbLine
 10
112.0611150759
 20
380.2399642014
 30
0.0
 11
111.9226276888
 21
380.0561852315
 31
0.0
  0
LINE
  5
110
330
A3
100
AcDbEntity
  8
$DDT_AUDIT_GENERATED_(D0)
  6
Continuous
 62
     7
100
AcDbLine
 10
105.6395108265
 20
387.5997075736
 30
0.0
 11
106.8179793139
 21
388.4877472752
 31
0.0
  0
LINE
  5
111
330
A3
100
AcDbEntity
  8
$DDT_AUDIT_GENERATED_(D0)
  6
Continuous
 62
     7
100
AcDbLine
 10
104.9207388675
 20
387.0580740528
 30
0.0
 11
105.1045178374
 21
387.1965614399
 31
0.0
  0
LINE
  5
112
330
A3
100
AcDbEntity
  8
$DDT_AUDIT_GENERATED_(D0)
  6
Continuous
 62
     7
100
AcDbLine
 10
105.1045178374
 20
387.1965614399
 30
0.0
 11
105.2642449395
 21
387.3169244445
 31
0.0
  0
LINE
  5
113
330
A3
100
AcDbEntity
  8
$DDT_AUDIT_GENERATED_(D0)
  6
Continuous
 62
     7
100
AcDbLine
 10
113.3523009112
 20
381.9534256779
 30
0.0
 11
112.4642612096
 21
380.7749571905
 31
0.0
  0
ARC
  5
114
330
A3
100
AcDbEntity
  8
$DDT_AUDIT_GENERATED_(D0)
  6
Continuous
 62
     7
100
AcDbCircle
 10
113.1925738092
 20
382.0737886826
 30
0.0
 40
0.2000000000000039
100
AcDbArc
 50
323.0
 51
52.6548426141
  0
ARC
  5
115
330
A3
100
AcDbEntity
  8
$DDT_AUDIT_GENERATED_(D0)
  6
Continuous
 62
     7
100
AcDbCircle
 10
133.3321971374
 20
408.4676435014
 30
0.0
 40
33.0
100
AcDbArc
 50
217.3451573859
 51
232.6548426141
  0
ARC
  5
116
330
A3
100
AcDbEntity
  8
$DDT_AUDIT_GENERATED_(D0)
  6
Continuous
 62
     7
100
AcDbCircle
 10
106.9383423186
 20
388.3280201732
 30
0.0
 40
0.2000000000000021
100
AcDbArc
 50
37.3451573859
 51
127.0
  0
ARC
  5
117
330
A3
100
AcDbEntity
  8
$DDT_AUDIT_GENERATED_(D0)
  6
Continuous
 62
     7
100
AcDbCircle
 10
133.3321971374
 20
408.4676435014
 30
0.0
 40
34.675
100
AcDbArc
 50
98.0
 51
179.6695250342
  0
LINE
  5
118
330
A3
100
AcDbEntity
  8
$DDT_AUDIT_GENERATED_(D0)
  6
Continuous
 62
     7
100
AcDbLine
 10
128.4409746763
 20
443.2704997067
 30
0.0
 11
128.5063698616
 21
442.805188785
 31
0.0
  0
LINE
  5
119
330
A3
100
AcDbEntity
  8
$DDT_AUDIT_GENERATED_(D0)
  6
Continuous
 62
     7
100
AcDbLine
 10
138.1580244132
 20
442.805188785
 30
0.0
 11
138.2234195985
 21
443.2704997067
 31
0.0
  0
LINE
  5
11A
330
A3
100
AcDbEntity
  8
$DDT_AUDIT_GENERATED_(D0)
  6
Continuous
 62
     7
100
AcDbLine
 10
128.4409746763
 20
443.2704997067
 30
0.0
 11
128.4131400561
 21
443.4685533204
 31
0.0
  0
LINE
  5
11B
330
A3
100
AcDbEntity
  8
$DDT_AUDIT_GENERATED_(D0)
  6
Continuous
 62
     7
100
AcDbLine
 10
128.4131400561
 20
443.4685533204
 30
0.0
 11
128.3811140708
 21
443.6964300469
 31
0.0
  0
LINE
  5
11C
330
A3
100
AcDbEntity
  8
$DDT_AUDIT_GENERATED_(D0)
  6
Continuous
 62
     7
100
AcDbLine
 10
138.1580244132
 20
442.805188785
 30
0.0
 11
137.9526602493
 21
441.3439468312
 31
0.0
  0
LINE
  5
11D
330
A3
100
AcDbEntity
  8
$DDT_AUDIT_GENERATED_(D0)
  6
Continuous
 62
     7
100
AcDbLine
 10
138.2832802041
 20
443.6964300469
 30
0.0
 11
138.2512542187
 21
443.4685533204
 31
0.0
  0
LINE
  5
11E
330
A3
100
AcDbEntity
  8
$DDT_AUDIT_GENERATED_(D0)
  6
Continuous
 62
     7
100
AcDbLine
 10
138.2512542187
 20
443.4685533204
 30
0.0
 11
138.2234195985
 21
443.2704997067
 31
0.0
  0
LINE
  5
11F
330
A3
100
AcDbEntity
  8
$DDT_AUDIT_GENERATED_(D0)
  6
Continuous
 62
     7
100
AcDbLine
 10
128.7117340255
 20
441.3439468312
 30
0.0
 11
128.5063698616
 21
442.805188785
 31
0.0
  0
ARC
  5
120
330
A3
100
AcDbEntity
  8
$DDT_AUDIT_GENERATED_(D0)
  6
Continuous
 62
     7
100
AcDbCircle
 10
128.9097876393
 20
441.3717814514
 30
0.0
 40
0.1999999999999924
100
AcDbArc
 50
188.0
 51
277.6548426141
  0
ARC
  5
121
330
A3
100
AcDbEntity
  8
$DDT_AUDIT_GENERATED_(D0)
  6
Continuous
 62
     7
100
AcDbCircle
 10
133.3321971374
 20
408.4676435014
 30
0.0
 40
33.0
100
AcDbArc
 50
82.3451573859
 51
89.6527507256
  0
ARC
  5
122
330
A3
100
AcDbEntity
  8
$DDT_AUDIT_GENERATED_(D0)
  6
Continuous
 62
     7
100
AcDbCircle
 10
137.7546066356
 20
441.3717814514
 30
0.0
 40
0.1999999999999965
100
AcDbArc
 50
262.3451573859
 51
352.0
  0
ARC
  5
123
330
A3
100
AcDbEntity
  8
$DDT_AUDIT_GENERATED_(D0)
  6
Continuous
 62
     7
100
AcDbCircle
 10
133.3321971374
 20
408.4676435014
 30
0.0
 40
34.675
100
AcDbArc
 50
180.3304749658
 51
217.0
  0
LINE
  5
124
330
A3
100
AcDbEntity
  8
$DDT_AUDIT_GENERATED_(D0)
  6
Continuous
 62
     7
100
AcDbLine
 10
98.6577739266
 20
408.6676435014
 30
0.0
 11
106.3321971374
 21
408.6676435014
 31
0.0
  0
LINE
  5
125
330
A3
100
AcDbEntity
  8
$DDT_AUDIT_GENERATED_(D0)
  6
Continuous
 62
     7
100
AcDbLine
 10
106.3321971374
 20
408.2676435014
 30
0.0
 11
98.6577739266
 21
408.2676435014
 31
0.0
  0
LINE
  5
126
330
A3
100
AcDbEntity
  8
$DDT_AUDIT_GENERATED_(D0)
  6
Continuous
 62
     7
100
AcDbLine
 10
98.2571971374
 20
408.4676435014
 30
0.0
 11
106.3321971374
 21
408.4676435014
 31
0.0
  0
ARC
  5
127
330
A3
100
AcDbEntity
  8
$DDT_AUDIT_GENERATED_(D0)
  6
Continuous
 62
     7
100
AcDbCircle
 10
98.6577633619
 20
408.7687767516
 30
0.0
 40
0.5011332503214866
100
AcDbArc
 50
216.9347087643
 51
270.0012078926
  0
ARC
  5
128
330
A3
100
AcDbEntity
  8
$DDT_AUDIT_GENERATED_(D0)
  6
Continuous
 62
     7
100
AcDbCircle
 10
98.6577636341
 20
408.166509706
 30
0.0
 40
0.5011337954689417
100
AcDbArc
 50
89.9988232282
 51
143.065260115
  0
LINE
  5
129
330
A3
100
AcDbEntity
  8
$DDT_AUDIT_GENERATED_(D0)
  6
Continuous
 62
     7
100
AcDbLine
 10
106.3321971374
 20
408.6676435014
 30
0.0
 11
106.3321971374
 21
408.2676435014
 31
0.0
  0
ARC
  5
12A
330
A3
100
AcDbEntity
  8
$DDT_AUDIT_GENERATED_(D0)
  6
Continuous
 62
     7
100
AcDbCircle
 10
133.3321971374
 20
408.4676435014
 30
0.0
 40
34.675
100
AcDbArc
 50
270.3304749658
 51
307.0
  0
LINE
  5
12B
330
A3
100
AcDbEntity
  8
$DDT_AUDIT_GENERATED_(D0)
  6
Continuous
 62
     7
100
AcDbLine
 10
133.1321971374
 20
373.7932202906
 30
0.0
 11
133.1321971374
 21
381.4676435014
 31
0.0
  0
LINE
  5
12C
330
A3
100
AcDbEntity
  8
$DDT_AUDIT_GENERATED_(D0)
  6
Continuous
 62
     7
100
AcDbLine
 10
133.5321971374
 20
381.4676435014
 30
0.0
 11
133.5321971374
 21
373.7932202906
 31
0.0
  0
LINE
  5
12D
330
A3
100
AcDbEntity
  8
$DDT_AUDIT_GENERATED_(D0)
  6
Continuous
 62
     7
100
AcDbLine
 10
133.3321971374
 20
373.3926435014
 30
0.0
 11
133.3321971374
 21
381.4676435014
 31
0.0
  0
ARC
  5
12E
330
A3
100
AcDbEntity
  8
$DDT_AUDIT_GENERATED_(D0)
  6
Continuous
 62
     7
100
AcDbCircle
 10
133.0310638872
 20
373.7932097259
 30
0.0
 40
0.5011332503213793
100
AcDbArc
 50
306.9347087643
 51
0.0012078926
  0
ARC
  5
12F
330
A3
100
AcDbEntity
  8
$DDT_AUDIT_GENERATED_(D0)
  6
Continuous
 62
     7
100
AcDbCircle
 10
133.6333309328
 20
373.7932099981
 30
0.0
 40
0.5011337954689565
100
AcDbArc
 50
179.9988232282
 51
233.065260115
  0
LINE
  5
130
330
A3
100
AcDbEntity
  8
$DDT_AUDIT_GENERATED_(D0)
  6
Continuous
 62
     7
100
AcDbLine
 10
133.1321971374
 20
381.4676435014
 30
0.0
 11
133.5321971374
 21
381.4676435014
 31
0.0
  0
ARC
  5
131
330
A3
100
AcDbEntity
  8
$DDT_AUDIT_GENERATED_(D0)
  6
Continuous
 62
     7
100
AcDbCircle
 10
133.3321971374
 20
408.4676435014
 30
0.0
 40
34.675
100
AcDbArc
 50
0.3304749658
 51
82.0
  0
ARC
  5
132
330
A3
100
AcDbEntity
  8
$DDT_AUDIT_GENERATED_(D0)
  6
Continuous
 62
     7
100
AcDbCircle
 10
168.0066306408
 20
408.7687772968
 30
0.0
 40
0.501133795469165
100
AcDbArc
 50
269.9988232282
 51
323.065260115
  0
ARC
  5
133
330
A3
100
AcDbEntity
  8
$DDT_AUDIT_GENERATED_(D0)
  6
Continuous
 62
     7
100
AcDbCircle
 10
168.0066309129
 20
408.1665102512
 30
0.0
 40
0.5011332503213001
100
AcDbArc
 50
36.9347087642
 51
90.0012078926
  0
LINE
  5
134
330
A3
100
AcDbEntity
  8
$DDT_AUDIT_GENERATED_(D0)
  6
Continuous
 62
     7
100
AcDbLine
 10
168.4071971374
 20
408.4676435014
 30
0.0
 11
160.3321971374
 21
408.4676435014
 31
0.0
  0
LINE
  5
135
330
A3
100
AcDbEntity
  8
$DDT_AUDIT_GENERATED_(D0)
  6
Continuous
 62
     7
100
AcDbLine
 10
168.0066203482
 20
408.2676435014
 30
0.0
 11
160.3321971374
 21
408.2676435014
 31
0.0
  0
LINE
  5
136
330
A3
100
AcDbEntity
  8
$DDT_AUDIT_GENERATED_(D0)
  6
Continuous
 62
     7
100
AcDbLine
 10
168.0066203482
 20
408.6676435014
 30
0.0
 11
160.3321971374
 21
408.6676435014
 31
0.0
  0
LINE
  5
137
330
A3
100
AcDbEntity
  8
$DDT_AUDIT_GENERATED_(D0)
  6
Continuous
 62
     7
100
AcDbLine
 10
160.3321971374
 20
408.2676435014
 30
0.0
 11
160.3321971374
 21
408.6676435014
 31
0.0
  0
ARC
  5
138
330
A3
100
AcDbEntity
  8
$DDT_AUDIT_GENERATED_(D0)
  6
Continuous
 62
     7
100
AcDbCircle
 10
133.3321971374
 20
408.4676435014
 30
0.0
 40
33.0
100
AcDbArc
 50
90.3472492744
 51
97.6548426141
  0
ARC
  5
139
330
A3
100
AcDbEntity
  8
$DDT_AUDIT_GENERATED_(D0)
  6
Continuous
 62
     7
100
AcDbCircle
 10
133.3321971374
 20
408.4676435014
 30
0.0
 40
33.00000000000313
100
AcDbArc
 50
89.6527507256
 51
90.0
  0
ARC
  5
13A
330
A3
100
AcDbEntity
  8
$DDT_AUDIT_GENERATED_(D0)
  6
Continuous
 62
     7
100
AcDbCircle
 10
133.3321971374
 20
408.4676435014
 30
0.0
 40
32.999999999998
100
AcDbArc
 50
90.0
 51
90.3472492744
  0
LINE
  5
13B
330
A3
100
AcDbEntity
  8
$DDT_AUDIT_GENERATED_(D0)
  6
Continuous
 62
     7
100
AcDbLine
 10
133.1321971374
 20
441.4670374352
 30
0.0
 11
133.1321971374
 21
435.9676435014
 31
0.0
  0
LINE
  5
13C
330
A3
100
AcDbEntity
  8
$DDT_AUDIT_GENERATED_(D0)
  6
Continuous
 62
     7
100
AcDbLine
 10
133.3321971374
 20
441.4676435014
 30
0.0
 11
133.3321971374
 21
435.9676435014
 31
0.0
  0
LINE
  5
13D
330
A3
100
AcDbEntity
  8
$DDT_AUDIT_GENERATED_(D0)
  6
Continuous
 62
     7
100
AcDbLine
 10
133.5321971374
 20
441.4670374352
 30
0.0
 11
133.5321971374
 21
435.9676435014
 31
0.0
  0
LINE
  5
13E
330
A3
100
AcDbEntity
  8
$DDT_AUDIT_GENERATED_(D0)
  6
Continuous
 62
     7
100
AcDbLine
 10
133.5321971374
 20
435.9676435014
 30
0.0
 11
133.1321971374
 21
435.9676435014
 31
0.0
  0
LINE
  5
13F
330
A3
100
AcDbEntity
  8
$DDT_AUDIT_GENERATED_(D0)
  6
Continuous
 62
     7
100
AcDbLine
 10
137.0042228609
 20
430.5158750127
 30
0.0
 11
137.0042228609
 21
428.5480293535
 31
0.0
  0
LINE
  5
140
330
A3
100
AcDbEntity
  8
$DDT_AUDIT_GENERATED_(D0)
  6
Continuous
 62
     7
100
AcDbLine
 10
137.0042228609
 20
428.5480293535
 30
0.0
 11
136.3611360442
 21
428.5480293535
 31
0.0
  0
LINE
  5
141
330
A3
100
AcDbEntity
  8
$DDT_AUDIT_GENERATED_(D0)
  6
Continuous
 62
     7
100
AcDbLine
 10
136.3611360442
 20
428.5480293535
 30
0.0
 11
136.3611360442
 21
433.3840422152
 31
0.0
  0
LINE
  5
142
330
A3
100
AcDbEntity
  8
$DDT_AUDIT_GENERATED_(D0)
  6
Continuous
 62
     7
100
AcDbLine
 10
137.0042228609
 20
432.8181258165
 30
0.0
 11
137.0042228609
 21
431.0817914114
 31
0.0
  0
SPLINE
  5
143
330
A3
100
AcDbEntity
  8
$DDT_AUDIT_GENERATED_(D0)
  6
Continuous
 62
     7
100
AcDbSpline
210
0.0
220
0.0
230
1.0
 70
     8
 71
     3
 72
    23
 73
    19
 74
     0
 42
0.0000000017033823
 43
0.0000000001
 40
0.0
 40
0.0
 40
0.0
 40
0.0
 40
0.2153464661080403
 40
0.2153464661080403
 40
0.2153464661080403
 40
0.3510874383522812
 40
0.3510874383522812
 40
0.4868284105965207
 40
0.4868284105965207
 40
0.5851235973940736
 40
0.5851235973940736
 40
0.6834187841916254
 40
0.6834187841916254
 40
0.6834187841916254
 40
0.7868348524204801
 40
0.7868348524204801
 40
0.7868348524204801
 40
1.0
 40
1.0
 40
1.0
 40
1.0
 10
137.0042228608966
 20
431.0817914113788
 30
0.0
 10
137.4211574804036
 20
431.0817914113788
 30
0.0
 10
137.8380920999105
 20
431.0817914113788
 30
0.0
 10
138.2550267194175
 20
431.0817914113788
 30
0.0
 10
138.6698177162021
 20
431.0817914113788
 30
0.0
 10
138.9656376518934
 20
431.1589618293852
 30
0.0
 10
139.3129045329223
 20
431.467643501411
 30
0.0
 10
139.3997212531796
 20
431.6862930190958
 30
0.0
 10
139.3997212531796
 20
432.1686081316361
 30
0.0
 10
139.3482743078419
 20
432.3422415721505
 30
0.0
 10
139.1424865264915
 20
432.6316306396747
 30
0.0
 10
139.0106537290638
 20
432.7280936621827
 30
0.0
 10
138.8402357226329
 20
432.7763251734366
 30
0.0
 10
138.7352550851843
 20
432.8060366746014
 30
0.0
 10
138.5347694846908
 20
432.8181258165235
 30
0.0
 10
138.2421649830831
 20
432.8181258165235
 30
0.0
 10
137.8295176090209
 20
432.8181258165235
 30
0.0
 10
137.4168702349588
 20
432.8181258165235
 30
0.0
 10
137.0042228608966
 20
432.8181258165235
 30
0.0
  0
SPLINE
  5
144
330
A3
100
AcDbEntity
  8
$DDT_AUDIT_GENERATED_(D0)
  6
Continuous
 62
     7
100
AcDbSpline
210
0.0
220
0.0
230
1.0
 70
     8
 71
     3
 72
    28
 73
    24
 74
     0
 42
0.0000000011756584
 43
0.0000000001
 40
0.0
 40
0.0
 40
0.0
 40
0.0
 40
0.2169696169568664
 40
0.2169696169568664
 40
0.2169696169568664
 40
0.3050996054439294
 40
0.3050996054439294
 40
0.3050996054439294
 40
0.3815489737057801
 40
0.3815489737057801
 40
0.3815489737057801
 40
0.4546102486636976
 40
0.4546102486636976
 40
0.4546102486636976
 40
0.5347260970899725
 40
0.5347260970899725
 40
0.6714571450708151
 40
0.6714571450708151
 40
0.6714571450708151
 40
0.852552121115953
 40
0.852552121115953
 40
0.852552121115953
 40
1.0
 40
1.0
 40
1.0
 40
1.0
 10
136.3611360441764
 20
433.3840422152373
 30
0.0
 10
136.9699248973382
 20
433.3840422152373
 30
0.0
 10
137.5787137505
 20
433.3840422152373
 30
0.0
 10
138.1875026036619
 20
433.3840422152373
 30
0.0
 10
138.509046012022
 20
433.3840422152373
 30
0.0
 10
138.7566344364593
 20
433.3711804789029
 30
0.0
 10
138.9270524428902
 20
433.3390261380669
 30
0.0
 10
139.1638450114682
 20
433.294348294939
 30
0.0
 10
139.3643514782599
 20
433.2232705110573
 30
0.0
 10
139.52512318244
 20
433.1139457522148
 30
0.0
 10
139.6873900282891
 20
433.0036042970374
 30
0.0
 10
139.8145122499641
 20
432.8470647232759
 30
0.0
 10
139.9109752724722
 20
432.6444923760091
 30
0.0
 10
140.0067845098615
 20
432.4432929774914
 30
0.0
 10
140.0588852403178
 20
432.2264859451408
 30
0.0
 10
140.0588852403178
 20
431.5737528261698
 30
0.0
 10
139.9302678769738
 20
431.2264859451408
 30
0.0
 10
139.6666022821185
 20
430.9403123117004
 30
0.0
 10
139.4045390251219
 20
430.6558778010578
 30
0.0
 10
138.9302678769738
 20
430.5126595785813
 30
0.0
 10
138.2453804171667
 20
430.515875012665
 30
0.0
 10
137.8316703505263
 20
430.5178173134473
 30
0.0
 10
137.41794204632
 20
430.515875012665
 30
0.0
 10
137.0042228608966
 20
430.515875012665
 30
0.0
  0
SPLINE
  5
145
330
A3
100
AcDbEntity
  8
$DDT_AUDIT_GENERATED_(D0)
  6
Continuous
 62
     7
100
AcDbSpline
210
0.0
220
0.0
230
1.0
 70
    11
 71
     3
 72
    28
 73
    24
 74
     0
 42
0.0000000008469438
 43
0.0000000001
 40
0.0
 40
0.0
 40
0.0
 40
0.0
 40
0.118932841003384
 40
0.118932841003384
 40
0.237865682006768
 40
0.237865682006768
 40
0.3592257238469559
 40
0.3592257238469559
 40
0.3592257238469559
 40
0.4975438145927089
 40
0.4975438145927089
 40
0.5849780481211121
 40
0.5849780481211121
 40
0.5849780481211121
 40
0.6638739999844364
 40
0.6638739999844364
 40
0.7427699518477604
 40
0.7427699518477604
 40
0.7427699518477604
 40
0.8547410132393007
 40
0.8547410132393007
 40
0.8547410132393007
 40
1.0
 40
1.0
 40
1.0
 40
1.0
 10
131.5637083914432
 20
430.89529623453
 30
0.0
 10
131.5637083914432
 20
430.3133026653981
 30
0.0
 10
131.7212646615397
 20
429.8534955914432
 30
0.0
 10
132.3514897419255
 20
429.184685302054
 30
0.0
 10
132.7437727001249
 20
429.0174827297068
 30
0.0
 10
133.6987566229545
 20
429.0174827297068
 30
0.0
 10
134.097470449321
 20
429.184685302054
 30
0.0
 10
134.4093675554304
 20
429.5223058808322
 30
0.0
 10
134.7228673431557
 20
429.8616613211535
 30
0.0
 10
134.8756054975525
 20
430.3422415721505
 30
0.0
 10
134.8756054975525
 20
431.3551033084849
 30
0.0
 10
134.8112968158805
 20
431.6991547554302
 30
0.0
 10
134.6762485843693
 20
431.991759257038
 30
0.0
 10
134.5417650144532
 20
432.2831403251895
 30
0.0
 10
134.3482743078419
 20
432.5126595785813
 30
0.0
 10
133.8338048544657
 20
432.8342029869415
 30
0.0
 10
133.5476312210252
 20
432.9145888390316
 30
0.0
 10
133.2260878126651
 20
432.9178042731152
 30
0.0
 10
132.7727890910903
 20
432.9223372603309
 30
0.0
 10
132.3836440827615
 20
432.7602480030187
 30
0.0
 10
132.0556698062342
 20
432.451566330993
 30
0.0
 10
131.7260907626046
 20
432.1413742899298
 30
0.0
 10
131.5637083914432
 20
431.6219843374238
 30
0.0
 10
131.5637083914432
 20
430.89529623453
 30
0.0
  0
SPLINE
  5
146
330
A3
100
AcDbEntity
  8
$DDT_AUDIT_GENERATED_(D0)
  6
Continuous
 62
     7
100
AcDbSpline
210
0.0
220
0.0
230
1.0
 70
    11
 71
     3
 72
    34
 73
    30
 74
     0
 42
0.0000000006428408
 43
0.0000000001
 40
0.0
 40
0.0
 40
0.0
 40
0.0
 40
0.1334214018143665
 40
0.1334214018143665
 40
0.1334214018143665
 40
0.2565274793549155
 40
0.2565274793549155
 40
0.3372432566102757
 40
0.3372432566102757
 40
0.3372432566102757
 40
0.4175138986819729
 40
0.4175138986819729
 40
0.4175138986819729
 40
0.5048085737334352
 40
0.5048085737334352
 40
0.5938491422859267
 40
0.5938491422859267
 40
0.5938491422859267
 40
0.6732803097699097
 40
0.6732803097699097
 40
0.7527114772538929
 40
0.7527114772538929
 40
0.8382060926374162
 40
0.8382060926374162
 40
0.8382060926374162
 40
0.9185099863685966
 40
0.9185099863685966
 40
0.9185099863685966
 40
1.0
 40
1.0
 40
1.0
 40
1.0
 10
130.904544404305
 20
430.9017271026971
 30
0.0
 10
130.904544404305
 20
431.7055856235975
 30
0.0
 10
131.1199784879063
 20
432.3325952698997
 30
0.0
 10
131.5540620891924
 20
432.7859714756875
 30
0.0
 10
131.986607841159
 20
433.237741483297
 30
0.0
 10
132.541200352858
 20
433.467643501411
 30
0.0
 10
133.6698177162021
 20
433.467643501411
 30
0.0
 10
134.0749624107358
 20
433.3615341766521
 30
0.0
 10
134.4318755940156
 20
433.1461000930508
 30
0.0
 10
134.7897229938369
 20
432.9301021129785
 30
0.0
 10
135.065316108485
 20
432.6380615078418
 30
0.0
 10
135.2550267194175
 20
432.2554248518933
 30
0.0
 10
135.4441028826658
 20
431.8740678446637
 30
0.0
 10
135.5347694846908
 20
431.4419200287422
 30
0.0
 10
135.5347694846908
 20
430.467643501411
 30
0.0
 10
135.4383064621828
 20
430.0303444660412
 30
0.0
 10
135.2389495489995
 20
429.6412769419255
 30
0.0
 10
135.0408975958646
 20
429.2547561946784
 30
0.0
 10
134.7598498705429
 20
428.9628203502855
 30
0.0
 10
134.033161767649
 20
428.564106523919
 30
0.0
 10
133.6408788094496
 20
428.467643501411
 30
0.0
 10
132.7662807387101
 20
428.467643501411
 30
0.0
 10
132.3579206100927
 20
428.5737528261698
 30
0.0
 10
131.9977919927294
 20
428.7956177779383
 30
0.0
 10
131.6414301063538
 20
429.0151621543661
 30
0.0
 10
131.3675669123436
 20
429.3165180994818
 30
0.0
 10
131.1842871695783
 20
429.6959393213467
 30
0.0
 10
131.0003990913249
 20
430.0766199043975
 30
0.0
 10
130.904544404305
 20
430.4772898036618
 30
0.0
 10
130.904544404305
 20
430.9017271026971
 30
0.0
  0
LINE
  5
147
330
A3
100
AcDbEntity
  8
$DDT_AUDIT_GENERATED_(D0)
  6
Continuous
 62
     7
100
AcDbLine
 10
128.8466665908
 20
432.8181258165
 30
0.0
 11
128.8466665908
 21
428.5480293535
 31
0.0
  0
LINE
  5
148
330
A3
100
AcDbEntity
  8
$DDT_AUDIT_GENERATED_(D0)
  6
Continuous
 62
     7
100
AcDbLine
 10
128.8466665908
 20
428.5480293535
 30
0.0
 11
128.2035797741
 21
428.5480293535
 31
0.0
  0
LINE
  5
149
330
A3
100
AcDbEntity
  8
$DDT_AUDIT_GENERATED_(D0)
  6
Continuous
 62
     7
100
AcDbLine
 10
128.2035797741
 20
428.5480293535
 30
0.0
 11
128.2035797741
 21
432.8181258165
 31
0.0
  0
LINE
  5
14A
330
A3
100
AcDbEntity
  8
$DDT_AUDIT_GENERATED_(D0)
  6
Continuous
 62
     7
100
AcDbLine
 10
128.2035797741
 20
432.8181258165
 30
0.0
 11
126.6055090345
 21
432.8181258165
 31
0.0
  0
LINE
  5
14B
330
A3
100
AcDbEntity
  8
$DDT_AUDIT_GENERATED_(D0)
  6
Continuous
 62
     7
100
AcDbLine
 10
126.6055090345
 20
432.8181258165
 30
0.0
 11
126.6055090345
 21
433.3840422152
 31
0.0
  0
LINE
  5
14C
330
A3
100
AcDbEntity
  8
$DDT_AUDIT_GENERATED_(D0)
  6
Continuous
 62
     7
100
AcDbLine
 10
126.6055090345
 20
433.3840422152
 30
0.0
 11
130.4447373303
 21
433.3840422152
 31
0.0
  0
LINE
  5
14D
330
A3
100
AcDbEntity
  8
$DDT_AUDIT_GENERATED_(D0)
  6
Continuous
 62
     7
100
AcDbLine
 10
130.4447373303
 20
433.3840422152
 30
0.0
 11
130.4447373303
 21
432.8181258165
 31
0.0
  0
LINE
  5
14E
330
A3
100
AcDbEntity
  8
$DDT_AUDIT_GENERATED_(D0)
  6
Continuous
 62
     7
100
AcDbLine
 10
130.4447373303
 20
432.8181258165
 30
0.0
 11
128.8466665908
 21
432.8181258165
 31
0.0
  0
ARC
  5
14F
330
A3
100
AcDbEntity
  8
$DDT_AUDIT_GENERATED_(D0)
  6
Continuous
 62
     7
100
AcDbCircle
 10
133.3321971374
 20
408.4676435014
 30
0.0
 40
35.57499999999998
100
AcDbArc
 50
323.0
 51
82.0
  0
ARC
  5
150
330
A3
100
AcDbEntity
  8
$DDT_AUDIT_GENERATED_(D0)
  6
Continuous
 62
     7
100
AcDbCircle
 10
133.3321971374
 20
408.4676435014
 30
0.0
 40
35.57499999999998
100
AcDbArc
 50
233.0
 51
307.0
  0
ARC
  5
151
330
A3
100
AcDbEntity
  8
$DDT_AUDIT_GENERATED_(D0)
  6
Continuous
 62
     7
100
AcDbCircle
 10
133.3321971374
 20
408.4676435014
 30
0.0
 40
35.57499999999997
100
AcDbArc
 50
98.0
 51
217.0
  0
CIRCLE
  5
152
330
A3
100
AcDbEntity
  8
$DDT_AUDIT_GENERATED_(BE)
  6
Continuous
 62
     7
100
AcDbCircle
 10
153.3321971374
 20
408.4676435014
 30
0.0
 40
3.0
  0
LINE
  5
153
330
A3
100
AcDbEntity
  8
$DDT_AUDIT_GENERATED_(BE)
  6
Continuous
 62
     7
100
AcDbLine
 10
151.0982138634
 20
407.9676435014
 30
0.0
 11
152.8321971374
 21
407.9676435014
 31
0.0
  0
ELLIPSE
  5
154
330
A3
100
AcDbEntity
  8
$DDT_AUDIT_GENERATED_(BE)
  6
Continuous
 62
     7
100
AcDbEllipse
 10
155.3455899463
 20
408.4676435014
 30
0.0
 11
0.0
 21
4.276704758267242
 31
0.0
210
0.0
220
0.0
230
1.0
 40
1.0
 41
1.45361589578522
 42
1.687976757804353
  0
ELLIPSE
  5
155
330
A3
100
AcDbEntity
  8
$DDT_AUDIT_GENERATED_(BE)
  6
Continuous
 62
     7
100
AcDbEllipse
 10
151.3188043286
 20
408.4676435014
 30
0.0
 11
-4.274358644806853E-12
 21
-5.773698229394379
 31
0.0
210
0.0
220
0.0
230
1.0
 40
0.738416287
 41
1.484088110271191
 42
1.657504543319537
  0
LINE
  5
156
330
A3
100
AcDbEntity
  8
$DDT_AUDIT_GENERATED_(BE)
  6
Continuous
 62
     7
100
AcDbLine
 10
151.0982138634
 20
408.9676435014
 30
0.0
 11
152.8321971374
 21
408.9676435014
 31
0.0
  0
LINE
  5
157
330
A3
100
AcDbEntity
  8
$DDT_AUDIT_GENERATED_(BE)
  6
Continuous
 62
     7
100
AcDbLine
 10
152.8321971374
 20
408.9676435014
 30
0.0
 11
153.8321971374
 21
408.9676435014
 31
0.0
  0
LINE
  5
158
330
A3
100
AcDbEntity
  8
$DDT_AUDIT_GENERATED_(BE)
  6
Continuous
 62
     7
100
AcDbLine
 10
153.8321971374
 20
408.9676435014
 30
0.0
 11
153.8321971374
 21
407.9676435014
 31
0.0
  0
LINE
  5
159
330
A3
100
AcDbEntity
  8
$DDT_AUDIT_GENERATED_(BE)
  6
Continuous
 62
     7
100
AcDbLine
 10
152.8321971374
 20
408.9676435014
 30
0.0
 11
152.8321971374
 21
407.9676435014
 31
0.0
  0
LINE
  5
15A
330
A3
100
AcDbEntity
  8
$DDT_AUDIT_GENERATED_(BE)
  6
Continuous
 62
     7
100
AcDbLine
 10
152.8321971374
 20
407.9676435014
 30
0.0
 11
153.8321971374
 21
407.9676435014
 31
0.0
  0
LINE
  5
15B
330
A3
100
AcDbEntity
  8
$DDT_AUDIT_GENERATED_(BE)
  6
Continuous
 62
     7
100
AcDbLine
 10
153.8321971374
 20
407.9676435014
 30
0.0
 11
155.5661804114
 21
407.9676435014
 31
0.0
  0
LINE
  5
15C
330
A3
100
AcDbEntity
  8
$DDT_AUDIT_GENERATED_(BE)
  6
Continuous
 62
     7
100
AcDbLine
 10
153.8321971374
 20
408.9676435014
 30
0.0
 11
155.5661804114
 21
408.9676435014
 31
0.0
  0
ELLIPSE
  5
15D
330
A3
100
AcDbEntity
  8
$DDT_AUDIT_GENERATED_(BE)
  6
Continuous
 62
     7
100
AcDbEllipse
 10
153.3321971374
 20
406.4876435014
 30
0.0
 11
5.600000000014624
 21
3.740063814205996E-12
 31
0.0
210
0.0
220
0.0
230
1.0
 40
0.8
 41
1.481391554867001
 42
1.660201098721718
  0
ELLIPSE
  5
15E
330
A3
100
AcDbEntity
  8
$DDT_AUDIT_GENERATED_(BE)
  6
Continuous
 62
     7
100
AcDbEllipse
 10
153.3321971374
 20
410.4476435014
 30
0.0
 11
-5.599999999988239
 21
9.450773497121645E-12
 31
0.0
210
0.0
220
0.0
230
1.0
 40
0.8
 41
1.481391554868555
 42
1.660201098724117
  0
LINE
  5
15F
330
A3
100
AcDbEntity
  8
$DDT_AUDIT_GENERATED_(BE)
  6
Continuous
 62
     7
100
AcDbLine
 10
153.8321971374
 20
410.949750627
 30
0.0
 11
153.8321971374
 21
408.9676435014
 31
0.0
  0
LINE
  5
160
330
A3
100
AcDbEntity
  8
$DDT_AUDIT_GENERATED_(BE)
  6
Continuous
 62
     7
100
AcDbLine
 10
152.8321971374
 20
410.949750627
 30
0.0
 11
152.8321971374
 21
408.9676435014
 31
0.0
  0
LINE
  5
161
330
A3
100
AcDbEntity
  8
$DDT_AUDIT_GENERATED_(BE)
  6
Continuous
 62
     7
100
AcDbLine
 10
152.8321971374
 20
407.9676435014
 30
0.0
 11
152.8321971374
 21
405.9855363758
 31
0.0
  0
LINE
  5
162
330
A3
100
AcDbEntity
  8
$DDT_AUDIT_GENERATED_(BE)
  6
Continuous
 62
     7
100
AcDbLine
 10
153.8321971374
 20
407.9676435014
 30
0.0
 11
153.8321971374
 21
405.9855363758
 31
0.0
  0
ARC
  5
163
330
A3
100
AcDbEntity
  8
$DDT_AUDIT_GENERATED_(D0)
  6
Continuous
 62
     7
100
AcDbCircle
 10
133.3321971374
 20
285.4676435014
 30
0.0
 40
23.90000000000002
100
AcDbArc
 50
175.0
 51
185.0
  0
ARC
  5
164
330
A3
100
AcDbEntity
  8
$DDT_AUDIT_GENERATED_(D0)
  6
Continuous
 62
     7
100
AcDbCircle
 10
113.4083031755
 20
287.2107583564
 30
0.0
 40
3.900000000062325
100
AcDbArc
 50
355.0
 51
175.0
  0
ARC
  5
165
330
A3
100
AcDbEntity
  8
$DDT_AUDIT_GENERATED_(D0)
  6
Continuous
 62
     7
100
AcDbCircle
 10
133.3321971374
 20
285.4676435014
 30
0.0
 40
16.10000000000002
100
AcDbArc
 50
175.0
 51
185.0
  0
ARC
  5
166
330
A3
100
AcDbEntity
  8
$DDT_AUDIT_GENERATED_(D0)
  6
Continuous
 62
     7
100
AcDbCircle
 10
113.4083031756
 20
283.7245286465
 30
0.0
 40
3.899999999999999
100
AcDbArc
 50
185.0
 51
5.0
  0
ARC
  5
167
330
A3
100
AcDbEntity
  8
$DDT_AUDIT_GENERATED_(D0)
  6
Continuous
 62
     7
100
AcDbCircle
 10
133.3321971375
 20
285.4676435014
 30
0.0
 40
16.10000000807537
100
AcDbArc
 50
355.0
 51
5.0000000001
  0
ARC
  5
168
330
A3
100
AcDbEntity
  8
$DDT_AUDIT_GENERATED_(D0)
  6
Continuous
 62
     7
100
AcDbCircle
 10
153.2560910994
 20
287.2107583564
 30
0.0
 40
3.899999991798298
100
AcDbArc
 50
5.0000000001
 51
185.0000000001
  0
ARC
  5
169
330
A3
100
AcDbEntity
  8
$DDT_AUDIT_GENERATED_(D0)
  6
Continuous
 62
     7
100
AcDbCircle
 10
133.3321971375
 20
285.4676435014
 30
0.0
 40
23.89999999179662
100
AcDbArc
 50
355.0
 51
5.0000000001
  0
ARC
  5
16A
330
A3
100
AcDbEntity
  8
$DDT_AUDIT_GENERATED_(D0)
  6
Continuous
 62
     7
100
AcDbCircle
 10
153.2560910993
 20
283.7245286465
 30
0.0
 40
3.899999991860625
100
AcDbArc
 50
175.0
 51
355.0
  0
ARC
  5
16B
330
A3
100
AcDbEntity
  8
$DDT_AUDIT_GENERATED_(D0)
  6
Continuous
 62
     7
100
AcDbCircle
 10
113.4083031756
 20
283.7245286465
 30
0.0
 40
1.9
100
AcDbArc
 50
203.2200326303
 51
341.7799673702
  0
ARC
  5
16C
330
A3
100
AcDbEntity
  8
$DDT_AUDIT_GENERATED_(D0)
  6
Continuous
 62
     7
100
AcDbCircle
 10
113.4083031755
 20
287.2107583564
 30
0.0
 40
1.900000000062322
100
AcDbArc
 50
18.2200326266
 51
156.7799673779
  0
ARC
  5
16D
330
A3
100
AcDbEntity
  8
$DDT_AUDIT_GENERATED_(D0)
  6
Continuous
 62
     7
100
AcDbCircle
 10
153.2560910994
 20
287.2107583564
 30
0.0
 40
1.899999999999999
100
AcDbArc
 50
23.2200326255
 51
161.7799673668
  0
ARC
  5
16E
330
A3
100
AcDbEntity
  8
$DDT_AUDIT_GENERATED_(D0)
  6
Continuous
 62
     7
100
AcDbCircle
 10
153.2560910993
 20
283.7245286465
 30
0.0
 40
1.900000000062323
100
AcDbArc
 50
198.220032626
 51
336.7799673788
  0
LINE
  5
16F
330
A3
100
AcDbEntity
  8
$DDT_AUDIT_GENERATED_(D0)
  6
Continuous
 62
     7
100
AcDbLine
 10
113.3263560256
 20
294.8193840082
 30
0.0
 11
113.0630675051
 21
294.95353621
 31
0.0
  0
LINE
  5
170
330
A3
100
AcDbEntity
  8
$DDT_AUDIT_GENERATED_(D0)
  6
Continuous
 62
     7
100
AcDbLine
 10
117.6977772817
 20
294.2755229842
 30
0.0
 11
117.9610658022
 21
294.1413707825
 31
0.0
  0
ARC
  5
171
330
A3
100
AcDbEntity
  8
$DDT_AUDIT_GENERATED_(D0)
  6
Continuous
 62
     7
100
AcDbCircle
 10
115.5120666537
 20
294.5474534962
 30
0.0
 40
2.199999999999999
100
AcDbArc
 50
352.9322704722
 51
133.0677295278
  0
LINE
  5
172
330
A3
100
AcDbEntity
  8
$DDT_AUDIT_GENERATED_(D0)
  6
Continuous
 62
     7
100
AcDbLine
 10
114.2971213978
 20
296.008243702
 30
0.0
 11
114.7992481096
 21
295.7523973635
 31
0.0
  0
LINE
  5
173
330
A3
100
AcDbEntity
  8
$DDT_AUDIT_GENERATED_(D0)
  6
Continuous
 62
     7
100
AcDbLine
 10
114.2971213978
 20
296.008243702
 30
0.0
 11
114.009769332
 21
296.1546568925
 31
0.0
  0
LINE
  5
174
330
A3
100
AcDbEntity
  8
$DDT_AUDIT_GENERATED_(D0)
  6
Continuous
 62
     7
100
AcDbLine
 10
117.695349725
 20
294.2767598861
 30
0.0
 11
117.4079976591
 21
294.4231730767
 31
0.0
  0
ARC
  5
175
330
A3
100
AcDbEntity
  8
$DDT_AUDIT_GENERATED_(D0)
  6
Continuous
 62
     7
100
AcDbCircle
 10
115.5120666537
 20
294.5474534962
 30
0.0
 40
1.900000000000003
100
AcDbArc
 50
356.2495625906
 51
129.7504374094
  0
ARC
  5
176
330
A3
100
AcDbEntity
  8
$DDT_AUDIT_GENERATED_(D0)
  6
Continuous
 62
     7
100
AcDbCircle
 10
115.5120666537
 20
294.5474534962
 30
0.0
 40
2.200000000000001
100
AcDbArc
 50
172.9322704722
 51
313.0677295278
  0
LINE
  5
177
330
A3
100
AcDbEntity
  8
$DDT_AUDIT_GENERATED_(D0)
  6
Continuous
 62
     7
100
AcDbLine
 10
116.7270119095
 20
293.0866632904
 30
0.0
 11
116.2248851977
 21
293.3425096289
 31
0.0
  0
LINE
  5
178
330
A3
100
AcDbEntity
  8
$DDT_AUDIT_GENERATED_(D0)
  6
Continuous
 62
     7
100
AcDbLine
 10
116.7270119095
 20
293.0866632904
 30
0.0
 11
117.0143639754
 21
292.9402500999
 31
0.0
  0
LINE
  5
179
330
A3
100
AcDbEntity
  8
$DDT_AUDIT_GENERATED_(D0)
  6
Continuous
 62
     7
100
AcDbLine
 10
113.3287835823
 20
294.8181471063
 30
0.0
 11
113.6161356482
 21
294.6717339157
 31
0.0
  0
ARC
  5
17A
330
A3
100
AcDbEntity
  8
$DDT_AUDIT_GENERATED_(D0)
  6
Continuous
 62
     7
100
AcDbCircle
 10
115.5120666537
 20
294.5474534962
 30
0.0
 40
1.900000000000003
100
AcDbArc
 50
176.2495625906
 51
309.7504374094
  0
ARC
  5
17B
330
A3
100
AcDbEntity
  8
$DDT_AUDIT_GENERATED_(D0)
  6
Continuous
 62
     7
100
AcDbCircle
 10
115.5120666537
 20
294.5474534962
 30
0.0
 40
2.75
100
AcDbArc
 50
174.8729080664
 51
311.1270919336
  0
ARC
  5
17C
330
A3
100
AcDbEntity
  8
$DDT_AUDIT_GENERATED_(D0)
  6
Continuous
 62
     7
100
AcDbCircle
 10
112.9722694052
 20
294.7753349051
 30
0.0
 40
0.2000000000000002
100
AcDbArc
 50
63.0
 51
174.8729080664
  0
LINE
  5
17D
330
A3
100
AcDbEntity
  8
$DDT_AUDIT_GENERATED_(D0)
  6
Continuous
 62
     7
100
AcDbLine
 10
113.7440532547
 20
296.2900459962
 30
0.0
 11
114.0073417752
 21
296.1558937945
 31
0.0
  0
ARC
  5
17E
330
A3
100
AcDbEntity
  8
$DDT_AUDIT_GENERATED_(D0)
  6
Continuous
 62
     7
100
AcDbCircle
 10
113.8348513547
 20
296.4682473011
 30
0.0
 40
0.2000000000000038
100
AcDbArc
 50
131.1270919336
 51
243.0
  0
ARC
  5
17F
330
A3
100
AcDbEntity
  8
$DDT_AUDIT_GENERATED_(D0)
  6
Continuous
 62
     7
100
AcDbCircle
 10
115.5120666537
 20
294.5474534962
 30
0.0
 40
2.75
100
AcDbArc
 50
354.8729080664
 51
131.1270919336
  0
ARC
  5
180
330
A3
100
AcDbEntity
  8
$DDT_AUDIT_GENERATED_(D0)
  6
Continuous
 62
     7
100
AcDbCircle
 10
118.0518639022
 20
294.3195720873
 30
0.0
 40
0.2000000000000002
100
AcDbArc
 50
243.0
 51
354.8729080664
  0
LINE
  5
181
330
A3
100
AcDbEntity
  8
$DDT_AUDIT_GENERATED_(D0)
  6
Continuous
 62
     7
100
AcDbLine
 10
117.2800800526
 20
292.8048609962
 30
0.0
 11
117.0167915321
 21
292.9390131979
 31
0.0
  0
ARC
  5
182
330
A3
100
AcDbEntity
  8
$DDT_AUDIT_GENERATED_(D0)
  6
Continuous
 62
     7
100
AcDbCircle
 10
117.1892819526
 20
292.6266596913
 30
0.0
 40
0.199999999999999
100
AcDbArc
 50
311.1270919336
 51
63.0
  0
LINE
  5
183
330
A3
100
AcDbEntity
  8
$DDT_AUDIT_GENERATED_(D0)
  6
Continuous
 62
     7
100
AcDbLine
 10
116.9058709473
 20
294.6790194152
 30
0.0
 11
117.4079976591
 21
294.4231730767
 31
0.0
  0
LINE
  5
184
330
A3
100
AcDbEntity
  8
$DDT_AUDIT_GENERATED_(D0)
  6
Continuous
 62
     7
100
AcDbLine
 10
114.11826236
 20
294.4158875772
 30
0.0
 11
113.6161356482
 21
294.6717339157
 31
0.0
  0
ARC
  5
185
330
A3
100
AcDbEntity
  8
$DDT_AUDIT_GENERATED_(D0)
  6
Continuous
 62
     7
100
AcDbCircle
 10
115.5120666537
 20
294.5474534962
 30
0.0
 40
1.400000000000004
100
AcDbArc
 50
185.3923654858
 51
300.6076345142
  0
ARC
  5
186
330
A3
100
AcDbEntity
  8
$DDT_AUDIT_GENERATED_(D0)
  6
Continuous
 62
     7
100
AcDbCircle
 10
115.5120666537
 20
294.5474534962
 30
0.0
 40
1.399999999999999
100
AcDbArc
 50
5.3923654858
 51
120.6076345142
  0
LINE
  5
187
330
A3
100
AcDbEntity
  8
$DDT_AUDIT_GENERATED_(D0)
  6
Continuous
 62
     7
100
AcDbLine
 10
116.9058709473
 20
294.6790194152
 30
0.0
 11
116.6872096225
 21
294.790432925
 31
0.0
  0
LINE
  5
188
330
A3
100
AcDbEntity
  8
$DDT_AUDIT_GENERATED_(D0)
  6
Continuous
 62
     7
100
AcDbLine
 10
115.0179094344
 20
295.6409838537
 30
0.0
 11
114.7992481096
 21
295.7523973635
 31
0.0
  0
LINE
  5
189
330
A3
100
AcDbEntity
  8
$DDT_AUDIT_GENERATED_(D0)
  6
Continuous
 62
     7
100
AcDbLine
 10
114.11826236
 20
294.4158875772
 30
0.0
 11
114.3369236848
 21
294.3044740674
 31
0.0
  0
LINE
  5
18A
330
A3
100
AcDbEntity
  8
$DDT_AUDIT_GENERATED_(D0)
  6
Continuous
 62
     7
100
AcDbLine
 10
116.0062238729
 20
293.4539231387
 30
0.0
 11
116.2248851977
 21
293.3425096289
 31
0.0
  0
ARC
  5
18B
330
A3
100
AcDbEntity
  8
$DDT_AUDIT_GENERATED_(D0)
  6
Continuous
 62
     7
100
AcDbCircle
 10
133.3321971374
 20
285.4676435014
 30
0.0
 40
14.0
100
AcDbArc
 50
314.4153085972
 51
225.5846914028
  0
LINE
  5
18C
330
A3
100
AcDbEntity
  8
$DDT_AUDIT_GENERATED_(D0)
  6
Continuous
 62
     7
100
AcDbLine
 10
143.3321971374
 20
274.9676435014
 30
0.0
 11
123.3321971374
 21
274.9676435014
 31
0.0
  0
ARC
  5
18D
330
A3
100
AcDbEntity
  8
$DDT_AUDIT_GENERATED_(D0)
  6
Continuous
 62
     7
100
AcDbCircle
 10
133.3321971374
 20
285.4676435014
 30
0.0
 40
14.5
100
AcDbArc
 50
313.6028189727
 51
226.3971810273
  0
LINE
  5
18E
330
A3
100
AcDbEntity
  8
$DDT_AUDIT_GENERATED_(D0)
  6
Continuous
 62
     7
100
AcDbLine
 10
123.5342381663
 20
275.4676435014
 30
0.0
 11
143.1301561086
 21
275.4676435014
 31
0.0
  0
LINE
  5
18F
330
A3
100
AcDbEntity
  8
$DDT_AUDIT_GENERATED_(D0)
  6
Continuous
 62
     7
100
AcDbLine
 10
143.1301561086
 20
275.4676435014
 30
0.0
 11
143.3321971374
 21
274.9676435014
 31
0.0
  0
LINE
  5
190
330
A3
100
AcDbEntity
  8
$DDT_AUDIT_GENERATED_(D0)
  6
Continuous
 62
     7
100
AcDbLine
 10
123.3321971374
 20
274.9676435014
 30
0.0
 11
123.5342381663
 21
275.4676435014
 31
0.0
  0
ARC
  5
191
330
A3
100
AcDbEntity
  8
$DDT_AUDIT_GENERATED_(D0)
  6
Continuous
 62
     7
100
AcDbCircle
 10
133.3321971374
 20
285.4676435014
 30
0.0
 40
34.675
100
AcDbArc
 50
323.0
 51
359.6695250342
  0
LINE
  5
192
330
A3
100
AcDbEntity
  8
$DDT_AUDIT_GENERATED_(D0)
  6
Continuous
 62
     7
100
AcDbLine
 10
161.4001493354
 20
264.3169244445
 30
0.0
 11
161.0248834483
 21
264.5997075736
 31
0.0
  0
LINE
  5
193
330
A3
100
AcDbEntity
  8
$DDT_AUDIT_GENERATED_(D0)
  6
Continuous
 62
     7
100
AcDbLine
 10
154.2001330652
 20
257.7749571905
 30
0.0
 11
154.4829161943
 21
257.3996913034
 31
0.0
  0
LINE
  5
194
330
A3
100
AcDbEntity
  8
$DDT_AUDIT_GENERATED_(D0)
  6
Continuous
 62
     7
100
AcDbLine
 10
161.4001493354
 20
264.3169244445
 30
0.0
 11
161.5598764374
 21
264.1965614399
 31
0.0
  0
LINE
  5
195
330
A3
100
AcDbEntity
  8
$DDT_AUDIT_GENERATED_(D0)
  6
Continuous
 62
     7
100
AcDbLine
 10
161.5598764374
 20
264.1965614399
 30
0.0
 11
161.7436554074
 21
264.0580740528
 31
0.0
  0
LINE
  5
196
330
A3
100
AcDbEntity
  8
$DDT_AUDIT_GENERATED_(D0)
  6
Continuous
 62
     7
100
AcDbLine
 10
154.2001330652
 20
257.7749571905
 30
0.0
 11
153.3120933636
 21
258.9534256779
 31
0.0
  0
LINE
  5
197
330
A3
100
AcDbEntity
  8
$DDT_AUDIT_GENERATED_(D0)
  6
Continuous
 62
     7
100
AcDbLine
 10
154.7417665861
 20
257.0561852315
 30
0.0
 11
154.6032791989
 21
257.2399642014
 31
0.0
  0
LINE
  5
198
330
A3
100
AcDbEntity
  8
$DDT_AUDIT_GENERATED_(D0)
  6
Continuous
 62
     7
100
AcDbLine
 10
154.6032791989
 20
257.2399642014
 30
0.0
 11
154.4829161943
 21
257.3996913034
 31
0.0
  0
LINE
  5
199
330
A3
100
AcDbEntity
  8
$DDT_AUDIT_GENERATED_(D0)
  6
Continuous
 62
     7
100
AcDbLine
 10
159.8464149609
 20
265.4877472752
 30
0.0
 11
161.0248834483
 21
264.5997075736
 31
0.0
  0
ARC
  5
19A
330
A3
100
AcDbEntity
  8
$DDT_AUDIT_GENERATED_(D0)
  6
Continuous
 62
     7
100
AcDbCircle
 10
159.7260519563
 20
265.3280201732
 30
0.0
 40
0.2000000000000081
100
AcDbArc
 50
53.0
 51
142.6548426141
  0
ARC
  5
19B
330
A3
100
AcDbEntity
  8
$DDT_AUDIT_GENERATED_(D0)
  6
Continuous
 62
     7
100
AcDbCircle
 10
133.3321971374
 20
285.4676435014
 30
0.0
 40
32.99999999999999
100
AcDbArc
 50
307.3451573859
 51
322.6548426141
  0
ARC
  5
19C
330
A3
100
AcDbEntity
  8
$DDT_AUDIT_GENERATED_(D0)
  6
Continuous
 62
     7
100
AcDbCircle
 10
153.4718204656
 20
259.0737886826
 30
0.0
 40
0.2000000000000001
100
AcDbArc
 50
127.3451573859
 51
217.0
  0
ARC
  5
19D
330
A3
100
AcDbEntity
  8
$DDT_AUDIT_GENERATED_(D0)
  6
Continuous
 62
     7
100
AcDbCircle
 10
133.3321971374
 20
285.4676435014
 30
0.0
 40
35.14488379849647
100
AcDbArc
 50
233.0
 51
307.0
  0
ARC
  5
19E
330
A3
100
AcDbEntity
  8
$DDT_AUDIT_GENERATED_(D0)
  6
Continuous
 62
     7
100
AcDbCircle
 10
133.3321971374
 20
285.4676435014
 30
0.0
 40
34.675
100
AcDbArc
 50
233.0
 51
269.6695250342
  0
LINE
  5
19F
330
A3
100
AcDbEntity
  8
$DDT_AUDIT_GENERATED_(D0)
  6
Continuous
 62
     7
100
AcDbLine
 10
112.1814780806
 20
257.3996913034
 30
0.0
 11
112.4642612096
 21
257.7749571905
 31
0.0
  0
LINE
  5
1A0
330
A3
100
AcDbEntity
  8
$DDT_AUDIT_GENERATED_(D0)
  6
Continuous
 62
     7
100
AcDbLine
 10
105.6395108265
 20
264.5997075736
 30
0.0
 11
105.2642449395
 21
264.3169244445
 31
0.0
  0
LINE
  5
1A1
330
A3
100
AcDbEntity
  8
$DDT_AUDIT_GENERATED_(D0)
  6
Continuous
 62
     7
100
AcDbLine
 10
112.1814780806
 20
257.3996913034
 30
0.0
 11
112.0611150759
 21
257.2399642014
 31
0.0
  0
LINE
  5
1A2
330
A3
100
AcDbEntity
  8
$DDT_AUDIT_GENERATED_(D0)
  6
Continuous
 62
     7
100
AcDbLine
 10
112.0611150759
 20
257.2399642014
 30
0.0
 11
111.9226276888
 21
257.0561852315
 31
0.0
  0
LINE
  5
1A3
330
A3
100
AcDbEntity
  8
$DDT_AUDIT_GENERATED_(D0)
  6
Continuous
 62
     7
100
AcDbLine
 10
105.6395108265
 20
264.5997075736
 30
0.0
 11
106.8179793139
 21
265.4877472752
 31
0.0
  0
LINE
  5
1A4
330
A3
100
AcDbEntity
  8
$DDT_AUDIT_GENERATED_(D0)
  6
Continuous
 62
     7
100
AcDbLine
 10
104.9207388675
 20
264.0580740528
 30
0.0
 11
105.1045178374
 21
264.1965614399
 31
0.0
  0
LINE
  5
1A5
330
A3
100
AcDbEntity
  8
$DDT_AUDIT_GENERATED_(D0)
  6
Continuous
 62
     7
100
AcDbLine
 10
105.1045178374
 20
264.1965614399
 30
0.0
 11
105.2642449395
 21
264.3169244445
 31
0.0
  0
LINE
  5
1A6
330
A3
100
AcDbEntity
  8
$DDT_AUDIT_GENERATED_(D0)
  6
Continuous
 62
     7
100
AcDbLine
 10
113.3523009112
 20
258.9534256779
 30
0.0
 11
112.4642612096
 21
257.7749571905
 31
0.0
  0
ARC
  5
1A7
330
A3
100
AcDbEntity
  8
$DDT_AUDIT_GENERATED_(D0)
  6
Continuous
 62
     7
100
AcDbCircle
 10
113.1925738092
 20
259.0737886826
 30
0.0
 40
0.1999999999999929
100
AcDbArc
 50
323.0
 51
52.6548426141
  0
ARC
  5
1A8
330
A3
100
AcDbEntity
  8
$DDT_AUDIT_GENERATED_(D0)
  6
Continuous
 62
     7
100
AcDbCircle
 10
133.3321971374
 20
285.4676435014
 30
0.0
 40
33.0
100
AcDbArc
 50
217.3451573859
 51
232.6548426141
  0
ARC
  5
1A9
330
A3
100
AcDbEntity
  8
$DDT_AUDIT_GENERATED_(D0)
  6
Continuous
 62
     7
100
AcDbCircle
 10
106.9383423186
 20
265.3280201732
 30
0.0
 40
0.2000000000000077
100
AcDbArc
 50
37.3451573859
 51
127.0
  0
ARC
  5
1AA
330
A3
100
AcDbEntity
  8
$DDT_AUDIT_GENERATED_(D0)
  6
Continuous
 62
     7
100
AcDbCircle
 10
133.3321971374
 20
285.4676435014
 30
0.0
 40
34.675
100
AcDbArc
 50
98.0
 51
179.6695250342
  0
LINE
  5
1AB
330
A3
100
AcDbEntity
  8
$DDT_AUDIT_GENERATED_(D0)
  6
Continuous
 62
     7
100
AcDbLine
 10
128.4409746763
 20
320.2704997067
 30
0.0
 11
128.5063698616
 21
319.805188785
 31
0.0
  0
LINE
  5
1AC
330
A3
100
AcDbEntity
  8
$DDT_AUDIT_GENERATED_(D0)
  6
Continuous
 62
     7
100
AcDbLine
 10
138.1580244132
 20
319.805188785
 30
0.0
 11
138.2234195985
 21
320.2704997067
 31
0.0
  0
LINE
  5
1AD
330
A3
100
AcDbEntity
  8
$DDT_AUDIT_GENERATED_(D0)
  6
Continuous
 62
     7
100
AcDbLine
 10
128.4409746763
 20
320.2704997067
 30
0.0
 11
128.4131400561
 21
320.4685533204
 31
0.0
  0
LINE
  5
1AE
330
A3
100
AcDbEntity
  8
$DDT_AUDIT_GENERATED_(D0)
  6
Continuous
 62
     7
100
AcDbLine
 10
128.4131400561
 20
320.4685533204
 30
0.0
 11
128.3811140708
 21
320.6964300469
 31
0.0
  0
LINE
  5
1AF
330
A3
100
AcDbEntity
  8
$DDT_AUDIT_GENERATED_(D0)
  6
Continuous
 62
     7
100
AcDbLine
 10
138.1580244132
 20
319.805188785
 30
0.0
 11
137.9526602493
 21
318.3439468312
 31
0.0
  0
LINE
  5
1B0
330
A3
100
AcDbEntity
  8
$DDT_AUDIT_GENERATED_(D0)
  6
Continuous
 62
     7
100
AcDbLine
 10
138.2832802041
 20
320.6964300469
 30
0.0
 11
138.2512542187
 21
320.4685533204
 31
0.0
  0
LINE
  5
1B1
330
A3
100
AcDbEntity
  8
$DDT_AUDIT_GENERATED_(D0)
  6
Continuous
 62
     7
100
AcDbLine
 10
138.2512542187
 20
320.4685533204
 30
0.0
 11
138.2234195985
 21
320.2704997067
 31
0.0
  0
LINE
  5
1B2
330
A3
100
AcDbEntity
  8
$DDT_AUDIT_GENERATED_(D0)
  6
Continuous
 62
     7
100
AcDbLine
 10
128.7117340255
 20
318.3439468312
 30
0.0
 11
128.5063698616
 21
319.805188785
 31
0.0
  0
ARC
  5
1B3
330
A3
100
AcDbEntity
  8
$DDT_AUDIT_GENERATED_(D0)
  6
Continuous
 62
     7
100
AcDbCircle
 10
128.9097876393
 20
318.3717814514
 30
0.0
 40
0.1999999999999999
100
AcDbArc
 50
188.0
 51
277.6548426141
  0
ARC
  5
1B4
330
A3
100
AcDbEntity
  8
$DDT_AUDIT_GENERATED_(D0)
  6
Continuous
 62
     7
100
AcDbCircle
 10
133.3321971374
 20
285.4676435014
 30
0.0
 40
33.0
100
AcDbArc
 50
82.3451573859
 51
89.6527507256
  0
ARC
  5
1B5
330
A3
100
AcDbEntity
  8
$DDT_AUDIT_GENERATED_(D0)
  6
Continuous
 62
     7
100
AcDbCircle
 10
137.7546066356
 20
318.3717814514
 30
0.0
 40
0.199999999999996
100
AcDbArc
 50
262.3451573859
 51
352.0
  0
ARC
  5
1B6
330
A3
100
AcDbEntity
  8
$DDT_AUDIT_GENERATED_(D0)
  6
Continuous
 62
     7
100
AcDbCircle
 10
133.3321971374
 20
285.4676435014
 30
0.0
 40
34.67500000000001
100
AcDbArc
 50
180.3304749658
 51
217.0
  0
LINE
  5
1B7
330
A3
100
AcDbEntity
  8
$DDT_AUDIT_GENERATED_(D0)
  6
Continuous
 62
     7
100
AcDbLine
 10
98.6577739266
 20
285.6676435014
 30
0.0
 11
106.3321971374
 21
285.6676435014
 31
0.0
  0
LINE
  5
1B8
330
A3
100
AcDbEntity
  8
$DDT_AUDIT_GENERATED_(D0)
  6
Continuous
 62
     7
100
AcDbLine
 10
106.3321971374
 20
285.2676435014
 30
0.0
 11
98.6577739266
 21
285.2676435014
 31
0.0
  0
LINE
  5
1B9
330
A3
100
AcDbEntity
  8
$DDT_AUDIT_GENERATED_(D0)
  6
Continuous
 62
     7
100
AcDbLine
 10
98.2571971374
 20
285.4676435014
 30
0.0
 11
106.3321971374
 21
285.4676435014
 31
0.0
  0
ARC
  5
1BA
330
A3
100
AcDbEntity
  8
$DDT_AUDIT_GENERATED_(D0)
  6
Continuous
 62
     7
100
AcDbCircle
 10
98.6577633619
 20
285.7687767516
 30
0.0
 40
0.5011332503214677
100
AcDbArc
 50
216.9347087643
 51
270.0012078926
  0
ARC
  5
1BB
330
A3
100
AcDbEntity
  8
$DDT_AUDIT_GENERATED_(D0)
  6
Continuous
 62
     7
100
AcDbCircle
 10
98.6577636341
 20
285.166509706
 30
0.0
 40
0.5011337954689723
100
AcDbArc
 50
89.9988232282
 51
143.065260115
  0
LINE
  5
1BC
330
A3
100
AcDbEntity
  8
$DDT_AUDIT_GENERATED_(D0)
  6
Continuous
 62
     7
100
AcDbLine
 10
106.3321971374
 20
285.6676435014
 30
0.0
 11
106.3321971374
 21
285.2676435014
 31
0.0
  0
ARC
  5
1BD
330
A3
100
AcDbEntity
  8
$DDT_AUDIT_GENERATED_(D0)
  6
Continuous
 62
     7
100
AcDbCircle
 10
133.3321971374
 20
285.4676435014
 30
0.0
 40
34.67500000000001
100
AcDbArc
 50
270.3304749658
 51
307.0
  0
LINE
  5
1BE
330
A3
100
AcDbEntity
  8
$DDT_AUDIT_GENERATED_(D0)
  6
Continuous
 62
     7
100
AcDbLine
 10
133.1321971374
 20
250.7932202906
 30
0.0
 11
133.1321971374
 21
258.4676435014
 31
0.0
  0
LINE
  5
1BF
330
A3
100
AcDbEntity
  8
$DDT_AUDIT_GENERATED_(D0)
  6
Continuous
 62
     7
100
AcDbLine
 10
133.5321971374
 20
258.4676435014
 30
0.0
 11
133.5321971374
 21
250.7932202906
 31
0.0
  0
LINE
  5
1C0
330
A3
100
AcDbEntity
  8
$DDT_AUDIT_GENERATED_(D0)
  6
Continuous
 62
     7
100
AcDbLine
 10
133.3321971374
 20
250.3926435014
 30
0.0
 11
133.3321971374
 21
258.4676435014
 31
0.0
  0
ARC
  5
1C1
330
A3
100
AcDbEntity
  8
$DDT_AUDIT_GENERATED_(D0)
  6
Continuous
 62
     7
100
AcDbCircle
 10
133.0310638872
 20
250.7932097259
 30
0.0
 40
0.5011332503213249
100
AcDbArc
 50
306.9347087643
 51
0.0012078926
  0
ARC
  5
1C2
330
A3
100
AcDbEntity
  8
$DDT_AUDIT_GENERATED_(D0)
  6
Continuous
 62
     7
100
AcDbCircle
 10
133.6333309328
 20
250.7932099981
 30
0.0
 40
0.5011337954689128
100
AcDbArc
 50
179.9988232282
 51
233.065260115
  0
LINE
  5
1C3
330
A3
100
AcDbEntity
  8
$DDT_AUDIT_GENERATED_(D0)
  6
Continuous
 62
     7
100
AcDbLine
 10
133.1321971374
 20
258.4676435014
 30
0.0
 11
133.5321971374
 21
258.4676435014
 31
0.0
  0
ARC
  5
1C4
330
A3
100
AcDbEntity
  8
$DDT_AUDIT_GENERATED_(D0)
  6
Continuous
 62
     7
100
AcDbCircle
 10
133.3321971374
 20
285.4676435014
 30
0.0
 40
34.675
100
AcDbArc
 50
0.3304749658
 51
82.0
  0
ARC
  5
1C5
330
A3
100
AcDbEntity
  8
$DDT_AUDIT_GENERATED_(D0)
  6
Continuous
 62
     7
100
AcDbCircle
 10
168.0066306408
 20
285.7687772968
 30
0.0
 40
0.5011337954692101
100
AcDbArc
 50
269.9988232282
 51
323.065260115
  0
ARC
  5
1C6
330
A3
100
AcDbEntity
  8
$DDT_AUDIT_GENERATED_(D0)
  6
Continuous
 62
     7
100
AcDbCircle
 10
168.0066309129
 20
285.1665102512
 30
0.0
 40
0.5011332503213543
100
AcDbArc
 50
36.9347087642
 51
90.0012078926
  0
LINE
  5
1C7
330
A3
100
AcDbEntity
  8
$DDT_AUDIT_GENERATED_(D0)
  6
Continuous
 62
     7
100
AcDbLine
 10
168.4071971374
 20
285.4676435014
 30
0.0
 11
160.3321971374
 21
285.4676435014
 31
0.0
  0
LINE
  5
1C8
330
A3
100
AcDbEntity
  8
$DDT_AUDIT_GENERATED_(D0)
  6
Continuous
 62
     7
100
AcDbLine
 10
168.0066203482
 20
285.2676435014
 30
0.0
 11
160.3321971374
 21
285.2676435014
 31
0.0
  0
LINE
  5
1C9
330
A3
100
AcDbEntity
  8
$DDT_AUDIT_GENERATED_(D0)
  6
Continuous
 62
     7
100
AcDbLine
 10
168.0066203482
 20
285.6676435014
 30
0.0
 11
160.3321971374
 21
285.6676435014
 31
0.0
  0
LINE
  5
1CA
330
A3
100
AcDbEntity
  8
$DDT_AUDIT_GENERATED_(D0)
  6
Continuous
 62
     7
100
AcDbLine
 10
160.3321971374
 20
285.2676435014
 30
0.0
 11
160.3321971374
 21
285.6676435014
 31
0.0
  0
ARC
  5
1CB
330
A3
100
AcDbEntity
  8
$DDT_AUDIT_GENERATED_(D0)
  6
Continuous
 62
     7
100
AcDbCircle
 10
133.3321971374
 20
285.4676435014
 30
0.0
 40
33.0
100
AcDbArc
 50
90.3472492744
 51
97.6548426141
  0
ARC
  5
1CC
330
A3
100
AcDbEntity
  8
$DDT_AUDIT_GENERATED_(D0)
  6
Continuous
 62
     7
100
AcDbCircle
 10
133.3321971374
 20
285.4676435014
 30
0.0
 40
33.00000000000314
100
AcDbArc
 50
89.6527507256
 51
90.0
  0
ARC
  5
1CD
330
A3
100
AcDbEntity
  8
$DDT_AUDIT_GENERATED_(D0)
  6
Continuous
 62
     7
100
AcDbCircle
 10
133.3321971374
 20
285.4676435014
 30
0.0
 40
32.99999999999797
100
AcDbArc
 50
90.0
 51
90.3472492744
  0
LINE
  5
1CE
330
A3
100
AcDbEntity
  8
$DDT_AUDIT_GENERATED_(D0)
  6
Continuous
 62
     7
100
AcDbLine
 10
133.1321971374
 20
318.4670374352
 30
0.0
 11
133.1321971374
 21
312.9676435014
 31
0.0
  0
LINE
  5
1CF
330
A3
100
AcDbEntity
  8
$DDT_AUDIT_GENERATED_(D0)
  6
Continuous
 62
     7
100
AcDbLine
 10
133.3321971374
 20
318.4676435014
 30
0.0
 11
133.3321971374
 21
312.9676435014
 31
0.0
  0
LINE
  5
1D0
330
A3
100
AcDbEntity
  8
$DDT_AUDIT_GENERATED_(D0)
  6
Continuous
 62
     7
100
AcDbLine
 10
133.5321971374
 20
318.4670374352
 30
0.0
 11
133.5321971374
 21
312.9676435014
 31
0.0
  0
LINE
  5
1D1
330
A3
100
AcDbEntity
  8
$DDT_AUDIT_GENERATED_(D0)
  6
Continuous
 62
     7
100
AcDbLine
 10
133.5321971374
 20
312.9676435014
 30
0.0
 11
133.1321971374
 21
312.9676435014
 31
0.0
  0
LINE
  5
1D2
330
A3
100
AcDbEntity
  8
$DDT_AUDIT_GENERATED_(D0)
  6
Continuous
 62
     7
100
AcDbLine
 10
137.0042228609
 20
307.5158750127
 30
0.0
 11
137.0042228609
 21
305.5480293535
 31
0.0
  0
LINE
  5
1D3
330
A3
100
AcDbEntity
  8
$DDT_AUDIT_GENERATED_(D0)
  6
Continuous
 62
     7
100
AcDbLine
 10
137.0042228609
 20
305.5480293535
 30
0.0
 11
136.3611360442
 21
305.5480293535
 31
0.0
  0
LINE
  5
1D4
330
A3
100
AcDbEntity
  8
$DDT_AUDIT_GENERATED_(D0)
  6
Continuous
 62
     7
100
AcDbLine
 10
136.3611360442
 20
305.5480293535
 30
0.0
 11
136.3611360442
 21
310.3840422152
 31
0.0
  0
LINE
  5
1D5
330
A3
100
AcDbEntity
  8
$DDT_AUDIT_GENERATED_(D0)
  6
Continuous
 62
     7
100
AcDbLine
 10
137.0042228609
 20
309.8181258165
 30
0.0
 11
137.0042228609
 21
308.0817914114
 31
0.0
  0
SPLINE
  5
1D6
330
A3
100
AcDbEntity
  8
$DDT_AUDIT_GENERATED_(D0)
  6
Continuous
 62
     7
100
AcDbSpline
210
0.0
220
0.0
230
1.0
 70
     8
 71
     3
 72
    23
 73
    19
 74
     0
 42
0.0000000017033823
 43
0.0000000001
 40
0.0
 40
0.0
 40
0.0
 40
0.0
 40
0.2153464661080403
 40
0.2153464661080403
 40
0.2153464661080403
 40
0.3510874383522812
 40
0.3510874383522812
 40
0.4868284105965207
 40
0.4868284105965207
 40
0.5851235973940736
 40
0.5851235973940736
 40
0.6834187841916254
 40
0.6834187841916254
 40
0.6834187841916254
 40
0.7868348524204801
 40
0.7868348524204801
 40
0.7868348524204801
 40
1.0
 40
1.0
 40
1.0
 40
1.0
 10
137.0042228608966
 20
308.0817914113788
 30
0.0
 10
137.4211574804036
 20
308.0817914113788
 30
0.0
 10
137.8380920999105
 20
308.0817914113788
 30
0.0
 10
138.2550267194175
 20
308.0817914113788
 30
0.0
 10
138.6698177162021
 20
308.0817914113788
 30
0.0
 10
138.9656376518934
 20
308.1589618293853
 30
0.0
 10
139.3129045329223
 20
308.467643501411
 30
0.0
 10
139.3997212531796
 20
308.6862930190959
 30
0.0
 10
139.3997212531796
 20
309.1686081316361
 30
0.0
 10
139.348274307842
 20
309.3422415721505
 30
0.0
 10
139.1424865264915
 20
309.6316306396747
 30
0.0
 10
139.0106537290638
 20
309.7280936621827
 30
0.0
 10
138.840235722633
 20
309.7763251734367
 30
0.0
 10
138.7352550851843
 20
309.8060366746014
 30
0.0
 10
138.5347694846909
 20
309.8181258165235
 30
0.0
 10
138.2421649830831
 20
309.8181258165235
 30
0.0
 10
137.829517609021
 20
309.8181258165235
 30
0.0
 10
137.4168702349588
 20
309.8181258165235
 30
0.0
 10
137.0042228608966
 20
309.8181258165235
 30
0.0
  0
SPLINE
  5
1D7
330
A3
100
AcDbEntity
  8
$DDT_AUDIT_GENERATED_(D0)
  6
Continuous
 62
     7
100
AcDbSpline
210
0.0
220
0.0
230
1.0
 70
     8
 71
     3
 72
    28
 73
    24
 74
     0
 42
0.0000000011756584
 43
0.0000000001
 40
0.0
 40
0.0
 40
0.0
 40
0.0
 40
0.2169696169568664
 40
0.2169696169568664
 40
0.2169696169568664
 40
0.3050996054439294
 40
0.3050996054439294
 40
0.3050996054439294
 40
0.3815489737057801
 40
0.3815489737057801
 40
0.3815489737057801
 40
0.4546102486636976
 40
0.4546102486636976
 40
0.4546102486636976
 40
0.5347260970899725
 40
0.5347260970899725
 40
0.6714571450708151
 40
0.6714571450708151
 40
0.6714571450708151
 40
0.852552121115953
 40
0.852552121115953
 40
0.852552121115953
 40
1.0
 40
1.0
 40
1.0
 40
1.0
 10
136.3611360441764
 20
310.3840422152373
 30
0.0
 10
136.9699248973382
 20
310.3840422152373
 30
0.0
 10
137.5787137505
 20
310.3840422152373
 30
0.0
 10
138.1875026036619
 20
310.3840422152373
 30
0.0
 10
138.509046012022
 20
310.3840422152373
 30
0.0
 10
138.7566344364593
 20
310.3711804789029
 30
0.0
 10
138.9270524428902
 20
310.339026138067
 30
0.0
 10
139.1638450114683
 20
310.294348294939
 30
0.0
 10
139.3643514782599
 20
310.2232705110573
 30
0.0
 10
139.52512318244
 20
310.1139457522149
 30
0.0
 10
139.6873900282892
 20
310.0036042970374
 30
0.0
 10
139.8145122499641
 20
309.8470647232759
 30
0.0
 10
139.9109752724722
 20
309.6444923760091
 30
0.0
 10
140.0067845098616
 20
309.4432929774914
 30
0.0
 10
140.0588852403178
 20
309.2264859451409
 30
0.0
 10
140.0588852403178
 20
308.5737528261698
 30
0.0
 10
139.9302678769738
 20
308.2264859451409
 30
0.0
 10
139.6666022821185
 20
307.9403123117004
 30
0.0
 10
139.404539025122
 20
307.6558778010578
 30
0.0
 10
138.9302678769738
 20
307.5126595785814
 30
0.0
 10
138.2453804171667
 20
307.515875012665
 30
0.0
 10
137.8316703505264
 20
307.5178173134473
 30
0.0
 10
137.41794204632
 20
307.515875012665
 30
0.0
 10
137.0042228608966
 20
307.515875012665
 30
0.0
  0
SPLINE
  5
1D8
330
A3
100
AcDbEntity
  8
$DDT_AUDIT_GENERATED_(D0)
  6
Continuous
 62
     7
100
AcDbSpline
210
0.0
220
0.0
230
1.0
 70
    11
 71
     3
 72
    28
 73
    24
 74
     0
 42
0.0000000008469438
 43
0.0000000001
 40
0.0
 40
0.0
 40
0.0
 40
0.0
 40
0.118932841003384
 40
0.118932841003384
 40
0.237865682006768
 40
0.237865682006768
 40
0.3592257238469559
 40
0.3592257238469559
 40
0.3592257238469559
 40
0.4975438145927089
 40
0.4975438145927089
 40
0.5849780481211121
 40
0.5849780481211121
 40
0.5849780481211121
 40
0.6638739999844364
 40
0.6638739999844364
 40
0.7427699518477604
 40
0.7427699518477604
 40
0.7427699518477604
 40
0.8547410132393007
 40
0.8547410132393007
 40
0.8547410132393007
 40
1.0
 40
1.0
 40
1.0
 40
1.0
 10
131.5637083914432
 20
307.89529623453
 30
0.0
 10
131.5637083914432
 20
307.3133026653981
 30
0.0
 10
131.7212646615397
 20
306.8534955914432
 30
0.0
 10
132.3514897419256
 20
306.1846853020541
 30
0.0
 10
132.7437727001249
 20
306.0174827297068
 30
0.0
 10
133.6987566229545
 20
306.0174827297068
 30
0.0
 10
134.097470449321
 20
306.1846853020541
 30
0.0
 10
134.4093675554304
 20
306.5223058808322
 30
0.0
 10
134.7228673431557
 20
306.8616613211535
 30
0.0
 10
134.8756054975526
 20
307.3422415721506
 30
0.0
 10
134.8756054975526
 20
308.3551033084849
 30
0.0
 10
134.8112968158806
 20
308.6991547554303
 30
0.0
 10
134.6762485843693
 20
308.991759257038
 30
0.0
 10
134.5417650144532
 20
309.2831403251895
 30
0.0
 10
134.348274307842
 20
309.5126595785814
 30
0.0
 10
133.8338048544657
 20
309.8342029869415
 30
0.0
 10
133.5476312210252
 20
309.9145888390316
 30
0.0
 10
133.2260878126651
 20
309.9178042731152
 30
0.0
 10
132.7727890910903
 20
309.9223372603309
 30
0.0
 10
132.3836440827616
 20
309.7602480030187
 30
0.0
 10
132.0556698062342
 20
309.451566330993
 30
0.0
 10
131.7260907626046
 20
309.1413742899298
 30
0.0
 10
131.5637083914432
 20
308.6219843374239
 30
0.0
 10
131.5637083914432
 20
307.89529623453
 30
0.0
  0
SPLINE
  5
1D9
330
A3
100
AcDbEntity
  8
$DDT_AUDIT_GENERATED_(D0)
  6
Continuous
 62
     7
100
AcDbSpline
210
0.0
220
0.0
230
1.0
 70
    11
 71
     3
 72
    34
 73
    30
 74
     0
 42
0.0000000006428408
 43
0.0000000001
 40
0.0
 40
0.0
 40
0.0
 40
0.0
 40
0.1334214018143665
 40
0.1334214018143665
 40
0.1334214018143665
 40
0.2565274793549155
 40
0.2565274793549155
 40
0.3372432566102757
 40
0.3372432566102757
 40
0.3372432566102757
 40
0.4175138986819729
 40
0.4175138986819729
 40
0.4175138986819729
 40
0.5048085737334352
 40
0.5048085737334352
 40
0.5938491422859267
 40
0.5938491422859267
 40
0.5938491422859267
 40
0.6732803097699097
 40
0.6732803097699097
 40
0.7527114772538929
 40
0.7527114772538929
 40
0.8382060926374162
 40
0.8382060926374162
 40
0.8382060926374162
 40
0.9185099863685966
 40
0.9185099863685966
 40
0.9185099863685966
 40
1.0
 40
1.0
 40
1.0
 40
1.0
 10
130.904544404305
 20
307.9017271026971
 30
0.0
 10
130.904544404305
 20
308.7055856235975
 30
0.0
 10
131.1199784879063
 20
309.3325952698997
 30
0.0
 10
131.5540620891924
 20
309.7859714756875
 30
0.0
 10
131.986607841159
 20
310.237741483297
 30
0.0
 10
132.5412003528581
 20
310.467643501411
 30
0.0
 10
133.6698177162021
 20
310.467643501411
 30
0.0
 10
134.0749624107358
 20
310.3615341766521
 30
0.0
 10
134.4318755940156
 20
310.1461000930509
 30
0.0
 10
134.7897229938369
 20
309.9301021129785
 30
0.0
 10
135.065316108485
 20
309.6380615078418
 30
0.0
 10
135.2550267194175
 20
309.2554248518933
 30
0.0
 10
135.4441028826658
 20
308.8740678446638
 30
0.0
 10
135.5347694846909
 20
308.4419200287422
 30
0.0
 10
135.5347694846909
 20
307.467643501411
 30
0.0
 10
135.4383064621828
 20
307.0303444660412
 30
0.0
 10
135.2389495489995
 20
306.6412769419255
 30
0.0
 10
135.0408975958647
 20
306.2547561946784
 30
0.0
 10
134.7598498705429
 20
305.9628203502856
 30
0.0
 10
134.033161767649
 20
305.564106523919
 30
0.0
 10
133.6408788094497
 20
305.467643501411
 30
0.0
 10
132.7662807387101
 20
305.467643501411
 30
0.0
 10
132.3579206100928
 20
305.5737528261698
 30
0.0
 10
131.9977919927294
 20
305.7956177779383
 30
0.0
 10
131.6414301063538
 20
306.0151621543661
 30
0.0
 10
131.3675669123436
 20
306.3165180994818
 30
0.0
 10
131.1842871695783
 20
306.6959393213467
 30
0.0
 10
131.0003990913249
 20
307.0766199043976
 30
0.0
 10
130.904544404305
 20
307.4772898036618
 30
0.0
 10
130.904544404305
 20
307.9017271026971
 30
0.0
  0
LINE
  5
1DA
330
A3
100
AcDbEntity
  8
$DDT_AUDIT_GENERATED_(D0)
  6
Continuous
 62
     7
100
AcDbLine
 10
128.8466665908
 20
309.8181258165
 30
0.0
 11
128.8466665908
 21
305.5480293535
 31
0.0
  0
LINE
  5
1DB
330
A3
100
AcDbEntity
  8
$DDT_AUDIT_GENERATED_(D0)
  6
Continuous
 62
     7
100
AcDbLine
 10
128.8466665908
 20
305.5480293535
 30
0.0
 11
128.2035797741
 21
305.5480293535
 31
0.0
  0
LINE
  5
1DC
330
A3
100
AcDbEntity
  8
$DDT_AUDIT_GENERATED_(D0)
  6
Continuous
 62
     7
100
AcDbLine
 10
128.2035797741
 20
305.5480293535
 30
0.0
 11
128.2035797741
 21
309.8181258165
 31
0.0
  0
LINE
  5
1DD
330
A3
100
AcDbEntity
  8
$DDT_AUDIT_GENERATED_(D0)
  6
Continuous
 62
     7
100
AcDbLine
 10
128.2035797741
 20
309.8181258165
 30
0.0
 11
126.6055090345
 21
309.8181258165
 31
0.0
  0
LINE
  5
1DE
330
A3
100
AcDbEntity
  8
$DDT_AUDIT_GENERATED_(D0)
  6
Continuous
 62
     7
100
AcDbLine
 10
126.6055090345
 20
309.8181258165
 30
0.0
 11
126.6055090345
 21
310.3840422152
 31
0.0
  0
LINE
  5
1DF
330
A3
100
AcDbEntity
  8
$DDT_AUDIT_GENERATED_(D0)
  6
Continuous
 62
     7
100
AcDbLine
 10
126.6055090345
 20
310.3840422152
 30
0.0
 11
130.4447373303
 21
310.3840422152
 31
0.0
  0
LINE
  5
1E0
330
A3
100
AcDbEntity
  8
$DDT_AUDIT_GENERATED_(D0)
  6
Continuous
 62
     7
100
AcDbLine
 10
130.4447373303
 20
310.3840422152
 30
0.0
 11
130.4447373303
 21
309.8181258165
 31
0.0
  0
LINE
  5
1E1
330
A3
100
AcDbEntity
  8
$DDT_AUDIT_GENERATED_(D0)
  6
Continuous
 62
     7
100
AcDbLine
 10
130.4447373303
 20
309.8181258165
 30
0.0
 11
128.8466665908
 21
309.8181258165
 31
0.0
  0
ARC
  5
1E2
330
A3
100
AcDbEntity
  8
$DDT_AUDIT_GENERATED_(D0)
  6
Continuous
 62
     7
100
AcDbCircle
 10
133.3321971374
 20
285.4676435014
 30
0.0
 40
35.57499999999998
100
AcDbArc
 50
323.0
 51
82.0
  0
ARC
  5
1E3
330
A3
100
AcDbEntity
  8
$DDT_AUDIT_GENERATED_(D0)
  6
Continuous
 62
     7
100
AcDbCircle
 10
133.3321971374
 20
285.4676435014
 30
0.0
 40
35.57499999999999
100
AcDbArc
 50
233.0
 51
307.0
  0
ARC
  5
1E4
330
A3
100
AcDbEntity
  8
$DDT_AUDIT_GENERATED_(D0)
  6
Continuous
 62
     7
100
AcDbCircle
 10
133.3321971374
 20
285.4676435014
 30
0.0
 40
35.57499999999998
100
AcDbArc
 50
98.0
 51
217.0
  0
CIRCLE
  5
1E5
330
A3
100
AcDbEntity
  8
$DDT_AUDIT_GENERATED_(BE)
  6
Continuous
 62
     7
100
AcDbCircle
 10
113.3321971374
 20
285.4676435014
 30
0.0
 40
3.0
  0
LINE
  5
1E6
330
A3
100
AcDbEntity
  8
$DDT_AUDIT_GENERATED_(BE)
  6
Continuous
 62
     7
100
AcDbLine
 10
115.5661804114
 20
285.9676435014
 30
0.0
 11
113.8321971374
 21
285.9676435014
 31
0.0
  0
ELLIPSE
  5
1E7
330
A3
100
AcDbEntity
  8
$DDT_AUDIT_GENERATED_(BE)
  6
Continuous
 62
     7
100
AcDbEllipse
 10
111.3188043286
 20
285.4676435014
 30
0.0
 11
-1.065120214249760E-12
 21
-5.773698229355896
 31
0.0
210
0.0
220
0.0
230
1.0
 40
0.738416287
 41
1.484088110270449
 42
1.657504543319943
  0
ELLIPSE
  5
1E8
330
A3
100
AcDbEntity
  8
$DDT_AUDIT_GENERATED_(BE)
  6
Continuous
 62
     7
100
AcDbEllipse
 10
115.3455899463
 20
285.4676435014
 30
0.0
 11
0.0
 21
4.276704758265711
 31
0.0
210
0.0
220
0.0
230
1.0
 40
1.0
 41
1.453615895785191
 42
1.687976757804385
  0
LINE
  5
1E9
330
A3
100
AcDbEntity
  8
$DDT_AUDIT_GENERATED_(BE)
  6
Continuous
 62
     7
100
AcDbLine
 10
115.5661804114
 20
284.9676435014
 30
0.0
 11
113.8321971374
 21
284.9676435014
 31
0.0
  0
LINE
  5
1EA
330
A3
100
AcDbEntity
  8
$DDT_AUDIT_GENERATED_(BE)
  6
Continuous
 62
     7
100
AcDbLine
 10
113.8321971374
 20
284.9676435014
 30
0.0
 11
112.8321971374
 21
284.9676435014
 31
0.0
  0
LINE
  5
1EB
330
A3
100
AcDbEntity
  8
$DDT_AUDIT_GENERATED_(BE)
  6
Continuous
 62
     7
100
AcDbLine
 10
112.8321971374
 20
284.9676435014
 30
0.0
 11
112.8321971374
 21
285.9676435014
 31
0.0
  0
LINE
  5
1EC
330
A3
100
AcDbEntity
  8
$DDT_AUDIT_GENERATED_(BE)
  6
Continuous
 62
     7
100
AcDbLine
 10
113.8321971374
 20
284.9676435014
 30
0.0
 11
113.8321971374
 21
285.9676435014
 31
0.0
  0
LINE
  5
1ED
330
A3
100
AcDbEntity
  8
$DDT_AUDIT_GENERATED_(BE)
  6
Continuous
 62
     7
100
AcDbLine
 10
113.8321971374
 20
285.9676435014
 30
0.0
 11
112.8321971374
 21
285.9676435014
 31
0.0
  0
LINE
  5
1EE
330
A3
100
AcDbEntity
  8
$DDT_AUDIT_GENERATED_(BE)
  6
Continuous
 62
     7
100
AcDbLine
 10
112.8321971374
 20
285.9676435014
 30
0.0
 11
111.0982138634
 21
285.9676435014
 31
0.0
  0
LINE
  5
1EF
330
A3
100
AcDbEntity
  8
$DDT_AUDIT_GENERATED_(BE)
  6
Continuous
 62
     7
100
AcDbLine
 10
112.8321971374
 20
284.9676435014
 30
0.0
 11
111.0982138634
 21
284.9676435014
 31
0.0
  0
ELLIPSE
  5
1F0
330
A3
100
AcDbEntity
  8
$DDT_AUDIT_GENERATED_(BE)
  6
Continuous
 62
     7
100
AcDbEllipse
 10
113.3321971374
 20
287.4476435014
 30
0.0
 11
-5.599999999992316
 21
-4.898859096158503E-12
 31
0.0
210
0.0
220
0.0
230
1.0
 40
0.8
 41
1.481391554866514
 42
1.660201098721953
  0
ELLIPSE
  5
1F1
330
A3
100
AcDbEntity
  8
$DDT_AUDIT_GENERATED_(BE)
  6
Continuous
 62
     7
100
AcDbEllipse
 10
113.3321971374
 20
283.4876435014
 30
0.0
 11
5.59999999999217
 21
-3.164135620181696E-12
 31
0.0
210
0.0
220
0.0
230
1.0
 40
0.8
 41
1.481391554867666
 42
1.660201098723108
  0
LINE
  5
1F2
330
A3
100
AcDbEntity
  8
$DDT_AUDIT_GENERATED_(BE)
  6
Continuous
 62
     7
100
AcDbLine
 10
112.8321971374
 20
282.9855363758
 30
0.0
 11
112.8321971374
 21
284.9676435014
 31
0.0
  0
LINE
  5
1F3
330
A3
100
AcDbEntity
  8
$DDT_AUDIT_GENERATED_(BE)
  6
Continuous
 62
     7
100
AcDbLine
 10
113.8321971374
 20
282.9855363758
 30
0.0
 11
113.8321971374
 21
284.9676435014
 31
0.0
  0
LINE
  5
1F4
330
A3
100
AcDbEntity
  8
$DDT_AUDIT_GENERATED_(BE)
  6
Continuous
 62
     7
100
AcDbLine
 10
113.8321971374
 20
285.9676435014
 30
0.0
 11
113.8321971374
 21
287.949750627
 31
0.0
  0
LINE
  5
1F5
330
A3
100
AcDbEntity
  8
$DDT_AUDIT_GENERATED_(BE)
  6
Continuous
 62
     7
100
AcDbLine
 10
112.8321971374
 20
285.9676435014
 30
0.0
 11
112.8321971374
 21
287.949750627
 31
0.0
  0
CIRCLE
  5
1F6
330
A3
100
AcDbEntity
  8
$DDT_AUDIT_GENERATED_(BE)
  6
Continuous
 62
     7
100
AcDbCircle
 10
153.3321971374
 20
285.4676435014
 30
0.0
 40
3.0
  0
LINE
  5
1F7
330
A3
100
AcDbEntity
  8
$DDT_AUDIT_GENERATED_(BE)
  6
Continuous
 62
     7
100
AcDbLine
 10
155.5661804114
 20
285.9676435014
 30
0.0
 11
153.8321971374
 21
285.9676435014
 31
0.0
  0
ELLIPSE
  5
1F8
330
A3
100
AcDbEntity
  8
$DDT_AUDIT_GENERATED_(BE)
  6
Continuous
 62
     7
100
AcDbEllipse
 10
151.3188043286
 20
285.4676435014
 30
0.0
 11
4.378442053365461E-12
 21
-5.773698229357291
 31
0.0
210
0.0
220
0.0
230
1.0
 40
0.738416287
 41
1.484088110269606
 42
1.657504543319058
  0
ELLIPSE
  5
1F9
330
A3
100
AcDbEntity
  8
$DDT_AUDIT_GENERATED_(BE)
  6
Continuous
 62
     7
100
AcDbEllipse
 10
155.3455899463
 20
285.4676435014
 30
0.0
 11
0.0
 21
4.276704758282535
 31
0.0
210
0.0
220
0.0
230
1.0
 40
1.0
 41
1.453615895785653
 42
1.687976757803933
  0
LINE
  5
1FA
330
A3
100
AcDbEntity
  8
$DDT_AUDIT_GENERATED_(BE)
  6
Continuous
 62
     7
100
AcDbLine
 10
155.5661804114
 20
284.9676435014
 30
0.0
 11
153.8321971374
 21
284.9676435014
 31
0.0
  0
LINE
  5
1FB
330
A3
100
AcDbEntity
  8
$DDT_AUDIT_GENERATED_(BE)
  6
Continuous
 62
     7
100
AcDbLine
 10
153.8321971374
 20
284.9676435014
 30
0.0
 11
152.8321971374
 21
284.9676435014
 31
0.0
  0
LINE
  5
1FC
330
A3
100
AcDbEntity
  8
$DDT_AUDIT_GENERATED_(BE)
  6
Continuous
 62
     7
100
AcDbLine
 10
152.8321971374
 20
284.9676435014
 30
0.0
 11
152.8321971374
 21
285.9676435014
 31
0.0
  0
LINE
  5
1FD
330
A3
100
AcDbEntity
  8
$DDT_AUDIT_GENERATED_(BE)
  6
Continuous
 62
     7
100
AcDbLine
 10
153.8321971374
 20
284.9676435014
 30
0.0
 11
153.8321971374
 21
285.9676435014
 31
0.0
  0
LINE
  5
1FE
330
A3
100
AcDbEntity
  8
$DDT_AUDIT_GENERATED_(BE)
  6
Continuous
 62
     7
100
AcDbLine
 10
153.8321971374
 20
285.9676435014
 30
0.0
 11
152.8321971374
 21
285.9676435014
 31
0.0
  0
LINE
  5
1FF
330
A3
100
AcDbEntity
  8
$DDT_AUDIT_GENERATED_(BE)
  6
Continuous
 62
     7
100
AcDbLine
 10
152.8321971374
 20
285.9676435014
 30
0.0
 11
151.0982138634
 21
285.9676435014
 31
0.0
  0
LINE
  5
200
330
A3
100
AcDbEntity
  8
$DDT_AUDIT_GENERATED_(BE)
  6
Continuous
 62
     7
100
AcDbLine
 10
152.8321971374
 20
284.9676435014
 30
0.0
 11
151.0982138634
 21
284.9676435014
 31
0.0
  0
ELLIPSE
  5
201
330
A3
100
AcDbEntity
  8
$DDT_AUDIT_GENERATED_(BE)
  6
Continuous
 62
     7
100
AcDbEllipse
 10
153.3321971374
 20
287.4476435014
 30
0.0
 11
-5.60000000001188
 21
2.893518757929314E-12
 31
0.0
210
0.0
220
0.0
230
1.0
 40
0.8
 41
1.481391554867905
 42
1.660201098722715
  0
ELLIPSE
  5
202
330
A3
100
AcDbEntity
  8
$DDT_AUDIT_GENERATED_(BE)
  6
Continuous
 62
     7
100
AcDbEllipse
 10
153.3321971374
 20
283.4876435014
 30
0.0
 11
5.600000000013407
 21
-3.289035710452027E-12
 31
0.0
210
0.0
220
0.0
230
1.0
 40
0.8
 41
1.481391554867986
 42
1.660201098722752
  0
LINE
  5
203
330
A3
100
AcDbEntity
  8
$DDT_AUDIT_GENERATED_(BE)
  6
Continuous
 62
     7
100
AcDbLine
 10
152.8321971374
 20
282.9855363758
 30
0.0
 11
152.8321971374
 21
284.9676435014
 31
0.0
  0
LINE
  5
204
330
A3
100
AcDbEntity
  8
$DDT_AUDIT_GENERATED_(BE)
  6
Continuous
 62
     7
100
AcDbLine
 10
153.8321971374
 20
282.9855363758
 30
0.0
 11
153.8321971374
 21
284.9676435014
 31
0.0
  0
LINE
  5
205
330
A3
100
AcDbEntity
  8
$DDT_AUDIT_GENERATED_(BE)
  6
Continuous
 62
     7
100
AcDbLine
 10
153.8321971374
 20
285.9676435014
 30
0.0
 11
153.8321971374
 21
287.949750627
 31
0.0
  0
LINE
  5
206
330
A3
100
AcDbEntity
  8
$DDT_AUDIT_GENERATED_(BE)
  6
Continuous
 62
     7
100
AcDbLine
 10
152.8321971374
 20
285.9676435014
 30
0.0
 11
152.8321971374
 21
287.949750627
 31
0.0
  0
ENDBLK
  5
208
330
A3
100
AcDbEntity
  8
0
100
AcDbBlockEnd
  0
BLOCK
  5
2B5
330
209
100
AcDbEntity
  8
0
100
AcDbBlockBegin
  2
SE1
 70
     0
 10
0.0
 20
0.0
 30
0.0
  3
SE1
  1

  0
LINE
  5
20B
330
209
100
AcDbEntity
  8
$DDT_AUDIT_GENERATED_(A5)
  6
Continuous
 62
     7
100
AcDbLine
 10
308.4529734942
 20
242.9676437089
 30
0.0
 11
308.4529734942
 21
244.5676437089
 31
0.0
  0
LINE
  5
20C
330
209
100
AcDbEntity
  8
$DDT_AUDIT_GENERATED_(A5)
  6
Continuous
 62
     7
100
AcDbLine
 10
308.4529734942
 20
449.3676437089
 30
0.0
 11
308.4529734942
 21
244.5676437089
 31
0.0
  0
LINE
  5
20D
330
209
100
AcDbEntity
  8
$DDT_AUDIT_GENERATED_(A5)
  6
Continuous
 62
     7
100
AcDbLine
 10
308.4529734942
 20
449.3676437089
 30
0.0
 11
308.4529734942
 21
450.9676437089
 31
0.0
  0
LINE
  5
20E
330
209
100
AcDbEntity
  8
$DDT_AUDIT_GENERATED_(A5)
  6
Continuous
 62
     7
100
AcDbLine
 10
308.4529734942
 20
450.9676437089
 30
0.0
 11
317.2529734942
 21
450.9676437089
 31
0.0
  0
LINE
  5
20F
330
209
100
AcDbEntity
  8
$DDT_AUDIT_GENERATED_(A5)
  6
Continuous
 62
     7
100
AcDbLine
 10
318.4529734942
 20
244.5676437089
 30
0.0
 11
318.4529734942
 21
244.1676437089
 31
0.0
  0
LINE
  5
210
330
209
100
AcDbEntity
  8
$DDT_AUDIT_GENERATED_(A5)
  6
Continuous
 62
     7
100
AcDbLine
 10
318.4529734942
 20
449.3676437089
 30
0.0
 11
318.4529734942
 21
244.5676437089
 31
0.0
  0
LINE
  5
211
330
209
100
AcDbEntity
  8
$DDT_AUDIT_GENERATED_(A5)
  6
Continuous
 62
     7
100
AcDbLine
 10
318.4529734942
 20
449.7676437089
 30
0.0
 11
318.4529734942
 21
449.3676437089
 31
0.0
  0
LINE
  5
212
330
209
100
AcDbEntity
  8
$DDT_AUDIT_GENERATED_(A5)
  6
Continuous
 62
     7
100
AcDbLine
 10
317.2529734942
 20
242.9676437089
 30
0.0
 11
308.4529734942
 21
242.9676437089
 31
0.0
  0
ARC
  5
213
330
209
100
AcDbEntity
  8
$DDT_AUDIT_GENERATED_(A5)
  6
Continuous
 62
     7
100
AcDbCircle
 10
317.2529734942
 20
244.1676437089
 30
0.0
 40
1.200000000000007
100
AcDbArc
 50
270.0
 51
0.0
  0
ARC
  5
214
330
209
100
AcDbEntity
  8
$DDT_AUDIT_GENERATED_(A5)
  6
Continuous
 62
     7
100
AcDbCircle
 10
317.2529734942
 20
449.7676437089
 30
0.0
 40
1.200000000000007
100
AcDbArc
 50
0.0
 51
90.0
  0
LINE
  5
215
330
209
100
AcDbEntity
  8
$DDT_AUDIT_GENERATED_(BE)
  6
Continuous
 62
     7
100
AcDbLine
 10
320.8192547916
 20
411.4676435014
 30
0.0
 11
320.8192547916
 21
405.4676435014
 31
0.0
  0
ELLIPSE
  5
216
330
209
100
AcDbEntity
  8
$DDT_AUDIT_GENERATED_(BE)
  6
Continuous
 62
     7
100
AcDbEllipse
 10
317.2576635299
 20
408.4676435014
 30
0.0
 11
0.0
 21
3.910931814124072
 31
0.0
210
0.0
220
0.0
230
1.0
 40
1.0
 41
4.584191352047075
 42
4.840586608722766
  0
LINE
  5
217
330
209
100
AcDbEntity
  8
$DDT_AUDIT_GENERATED_(BE)
  6
Continuous
 62
     7
100
AcDbLine
 10
321.5143974859
 20
408.9676435014
 30
0.0
 11
321.1365019713
 21
408.9676435014
 31
0.0
  0
LINE
  5
218
330
209
100
AcDbEntity
  8
$DDT_AUDIT_GENERATED_(BE)
  6
Continuous
 62
     7
100
AcDbLine
 10
321.5143974859
 20
407.9676435014
 30
0.0
 11
321.1365019713
 21
407.9676435014
 31
0.0
  0
LINE
  5
219
330
209
100
AcDbEntity
  8
$DDT_AUDIT_GENERATED_(BE)
  6
Continuous
 62
     7
100
AcDbLine
 10
321.0395538384
 20
405.9855363758
 30
0.0
 11
321.0529734942
 21
405.9676435014
 31
0.0
  0
LINE
  5
21A
330
209
100
AcDbEntity
  8
$DDT_AUDIT_GENERATED_(BE)
  6
Continuous
 62
     7
100
AcDbLine
 10
321.0395538384
 20
410.949750627
 30
0.0
 11
321.0529734942
 21
410.9676435014
 31
0.0
  0
ARC
  5
21B
330
209
100
AcDbEntity
  8
$DDT_AUDIT_GENERATED_(BE)
  6
Continuous
 62
     7
100
AcDbCircle
 10
315.0529734942
 20
408.4676435014
 30
0.0
 40
6.480740698407864
100
AcDbArc
 50
337.4805246973
 51
355.5751374706
  0
ARC
  5
21C
330
209
100
AcDbEntity
  8
$DDT_AUDIT_GENERATED_(BE)
  6
Continuous
 62
     7
100
AcDbCircle
 10
315.0529734942
 20
408.4676435014
 30
0.0
 40
6.480740698407861
100
AcDbArc
 50
4.4248625294
 51
22.5194753027
  0
ARC
  5
21D
330
209
100
AcDbEntity
  8
$DDT_AUDIT_GENERATED_(BE)
  6
Continuous
 62
     7
100
AcDbCircle
 10
315.0529734942
 20
408.4676435014
 30
0.0
 40
6.500000000000002
100
AcDbArc
 50
22.619864948
 51
27.4864262504
  0
ARC
  5
21E
330
209
100
AcDbEntity
  8
$DDT_AUDIT_GENERATED_(BE)
  6
Continuous
 62
     7
100
AcDbCircle
 10
315.0529734942
 20
408.4676435014
 30
0.0
 40
6.499999999999994
100
AcDbArc
 50
332.5135737496
 51
337.380135052
  0
LINE
  5
21F
330
209
100
AcDbEntity
  8
$DDT_AUDIT_GENERATED_(BE)
  6
Continuous
 62
     7
100
AcDbLine
 10
320.4529734942
 20
405.4676435014
 30
0.0
 11
320.8192547916
 21
405.4676435014
 31
0.0
  0
LINE
  5
220
330
209
100
AcDbEntity
  8
$DDT_AUDIT_GENERATED_(BE)
  6
Continuous
 62
     7
100
AcDbLine
 10
320.8192547916
 20
411.4676435014
 30
0.0
 11
320.4529734942
 21
411.4676435014
 31
0.0
  0
LINE
  5
221
330
209
100
AcDbEntity
  8
$DDT_AUDIT_GENERATED_(D0)
  6
Continuous
 62
     7
100
AcDbLine
 10
321.3529734942
 20
415.3474534962
 30
0.0
 11
321.3529734942
 21
417.8181471063
 31
0.0
  0
LINE
  5
222
330
209
100
AcDbEntity
  8
$DDT_AUDIT_GENERATED_(D0)
  6
Continuous
 62
     7
100
AcDbLine
 10
321.3529734942
 20
419.7474534962
 30
0.0
 11
321.3529734942
 21
419.1546568925
 31
0.0
  0
LINE
  5
223
330
209
100
AcDbEntity
  8
$DDT_AUDIT_GENERATED_(D0)
  6
Continuous
 62
     7
100
AcDbLine
 10
321.3529734942
 20
419.1546568925
 30
0.0
 11
321.6529734942
 21
419.1546568925
 31
0.0
  0
LINE
  5
224
330
209
100
AcDbEntity
  8
$DDT_AUDIT_GENERATED_(D0)
  6
Continuous
 62
     7
100
AcDbLine
 10
321.3529734942
 20
417.8181471063
 30
0.0
 11
321.6529734942
 21
417.8181471063
 31
0.0
  0
LINE
  5
225
330
209
100
AcDbEntity
  8
$DDT_AUDIT_GENERATED_(D0)
  6
Continuous
 62
     7
100
AcDbLine
 10
321.6529734942
 20
419.7474534962
 30
0.0
 11
321.6529734942
 21
419.1546568925
 31
0.0
  0
LINE
  5
226
330
209
100
AcDbEntity
  8
$DDT_AUDIT_GENERATED_(D0)
  6
Continuous
 62
     7
100
AcDbLine
 10
321.9529734942
 20
419.008243702
 30
0.0
 11
321.9529734942
 21
418.7523973635
 31
0.0
  0
LINE
  5
227
330
209
100
AcDbEntity
  8
$DDT_AUDIT_GENERATED_(D0)
  6
Continuous
 62
     7
100
AcDbLine
 10
321.9529734942
 20
419.008243702
 30
0.0
 11
321.6529734942
 21
419.1546568925
 31
0.0
  0
LINE
  5
228
330
209
100
AcDbEntity
  8
$DDT_AUDIT_GENERATED_(D0)
  6
Continuous
 62
     7
100
AcDbLine
 10
321.9529734942
 20
419.008243702
 30
0.0
 11
321.9529734942
 21
419.4474534962
 31
0.0
  0
LINE
  5
229
330
209
100
AcDbEntity
  8
$DDT_AUDIT_GENERATED_(D0)
  6
Continuous
 62
     7
100
AcDbLine
 10
321.6529734942
 20
415.3474534962
 30
0.0
 11
321.6529734942
 21
417.8181471063
 31
0.0
  0
LINE
  5
22A
330
209
100
AcDbEntity
  8
$DDT_AUDIT_GENERATED_(D0)
  6
Continuous
 62
     7
100
AcDbLine
 10
321.6529734942
 20
417.8181471063
 30
0.0
 11
321.9529734942
 21
417.6717339157
 31
0.0
  0
LINE
  5
22B
330
209
100
AcDbEntity
  8
$DDT_AUDIT_GENERATED_(D0)
  6
Continuous
 62
     7
100
AcDbLine
 10
321.9529734942
 20
417.6717339157
 30
0.0
 11
321.9529734942
 21
415.6474534962
 31
0.0
  0
LINE
  5
22C
330
209
100
AcDbEntity
  8
$DDT_AUDIT_GENERATED_(D0)
  6
Continuous
 62
     7
100
AcDbLine
 10
321.9529734942
 20
417.6790194152
 30
0.0
 11
321.9529734942
 21
417.6717339157
 31
0.0
  0
LINE
  5
22D
330
209
100
AcDbEntity
  8
$DDT_AUDIT_GENERATED_(D0)
  6
Continuous
 62
     7
100
AcDbLine
 10
321.9529734942
 20
417.6790194152
 30
0.0
 11
321.938045537
 21
417.6790194152
 31
0.0
  0
LINE
  5
22E
330
209
100
AcDbEntity
  8
$DDT_AUDIT_GENERATED_(D0)
  6
Continuous
 62
     7
100
AcDbLine
 10
321.0679014514
 20
417.6790194152
 30
0.0
 11
320.6529734942
 21
417.6790194152
 31
0.0
  0
LINE
  5
22F
330
209
100
AcDbEntity
  8
$DDT_AUDIT_GENERATED_(D0)
  6
Continuous
 62
     7
100
AcDbLine
 10
321.9529734942
 20
418.7523973635
 30
0.0
 11
321.9529734942
 21
417.6790194152
 31
0.0
  0
LINE
  5
230
330
209
100
AcDbEntity
  8
$DDT_AUDIT_GENERATED_(D0)
  6
Continuous
 62
     7
100
AcDbLine
 10
320.6529734942
 20
418.7523973635
 30
0.0
 11
321.9529734942
 21
418.7523973635
 31
0.0
  0
SPLINE
  5
231
330
209
100
AcDbEntity
  8
$DDT_AUDIT_GENERATED_(D0)
  6
Continuous
 62
     7
100
AcDbSpline
210
0.0
220
0.0
230
1.0
 70
     8
 71
     3
 72
    10
 73
     6
 74
     0
 42
0.0000000390292863
 43
0.0000000001
 40
0.0
 40
0.0
 40
0.0
 40
0.0
 40
0.5
 40
0.5
 40
1.0
 40
1.0
 40
1.0
 40
1.0
 10
320.6529734942274
 20
417.6790194152058
 30
0.0
 10
320.5937781984591
 20
417.6790194152058
 30
0.0
 10
320.5385916414185
 20
417.6938592336401
 30
0.0
 10
320.4687569923723
 20
417.7368829891068
 30
0.0
 10
320.4529734942273
 20
417.7636876887773
 30
0.0
 10
320.4529734942273
 20
417.7904329250184
 30
0.0
  0
SPLINE
  5
232
330
209
100
AcDbEntity
  8
$DDT_AUDIT_GENERATED_(D0)
  6
Continuous
 62
     7
100
AcDbSpline
210
0.0
220
0.0
230
1.0
 70
     8
 71
     3
 72
    10
 73
     6
 74
     0
 42
0.0000000390277236
 43
0.0000000001
 40
0.0
 40
0.0
 40
0.0
 40
0.0
 40
0.5
 40
0.5
 40
1.0
 40
1.0
 40
1.0
 40
1.0
 10
320.4529734942273
 20
418.640983853668
 30
0.0
 10
320.4529734942273
 20
418.6677524922237
 30
0.0
 10
320.4686018131865
 20
418.6943642536851
 30
0.0
 10
320.5383057035351
 20
418.737454851418
 30
0.0
 10
320.5936275080468
 20
418.752397363481
 30
0.0
 10
320.6529734942274
 20
418.7523973634806
 30
0.0
  0
LINE
  5
233
330
209
100
AcDbEntity
  8
$DDT_AUDIT_GENERATED_(D0)
  6
Continuous
 62
     7
100
AcDbLine
 10
321.0529734942
 20
419.008243702
 30
0.0
 11
320.4529734942
 21
419.008243702
 31
0.0
  0
LINE
  5
234
330
209
100
AcDbEntity
  8
$DDT_AUDIT_GENERATED_(D0)
  6
Continuous
 62
     7
100
AcDbLine
 10
321.0529734942
 20
419.4474534962
 30
0.0
 11
321.0529734942
 21
419.008243702
 31
0.0
  0
LINE
  5
235
330
209
100
AcDbEntity
  8
$DDT_AUDIT_GENERATED_(D0)
  6
Continuous
 62
     7
100
AcDbLine
 10
321.0529734942
 20
417.6717339157
 30
0.0
 11
320.4529734942
 21
417.6717339157
 31
0.0
  0
LINE
  5
236
330
209
100
AcDbEntity
  8
$DDT_AUDIT_GENERATED_(D0)
  6
Continuous
 62
     7
100
AcDbLine
 10
321.0529734942
 20
415.6474534962
 30
0.0
 11
321.0529734942
 21
417.6717339157
 31
0.0
  0
LINE
  5
237
330
209
100
AcDbEntity
  8
$DDT_AUDIT_GENERATED_(D0)
  6
Continuous
 62
     7
100
AcDbLine
 10
321.3529734942
 20
419.1546568925
 30
0.0
 11
321.0529734942
 21
419.008243702
 31
0.0
  0
LINE
  5
238
330
209
100
AcDbEntity
  8
$DDT_AUDIT_GENERATED_(D0)
  6
Continuous
 62
     7
100
AcDbLine
 10
321.0529734942
 20
417.6717339157
 30
0.0
 11
321.3529734942
 21
417.8181471063
 31
0.0
  0
LINE
  5
239
330
209
100
AcDbEntity
  8
$DDT_AUDIT_GENERATED_(D0)
  6
Continuous
 62
     7
100
AcDbLine
 10
319.873880533
 20
373.1227597029
 30
0.0
 11
319.873880533
 21
380.2399642014
 31
0.0
  0
LINE
  5
23A
330
209
100
AcDbEntity
  8
$DDT_AUDIT_GENERATED_(D0)
  6
Continuous
 62
     7
100
AcDbLine
 10
319.0320664554
 20
380.2399642014
 30
0.0
 11
319.0320664554
 21
373.1227597029
 31
0.0
  0
ELLIPSE
  5
23B
330
209
100
AcDbEntity
  8
$DDT_AUDIT_GENERATED_(D0)
  6
Continuous
 62
     7
100
AcDbEllipse
 10
318.6111594166
 20
387.0341413155
 30
0.0
 11
0.5000000000005729
 21
1.387778780781446E-14
 31
0.0
210
0.0
220
0.0
230
1.0
 40
0.6018150232
 41
0.5701610109239024
 42
1.221949758217991
  0
ELLIPSE
  5
23C
330
209
100
AcDbEntity
  8
$DDT_AUDIT_GENERATED_(D0)
  6
Continuous
 62
     7
100
AcDbEllipse
 10
318.6111594166
 20
380.0244254164
 30
0.0
 11
0.5000000000003647
 21
-4.857225732735060E-14
 31
0.0
210
0.0
220
0.0
230
1.0
 40
0.79863551
 41
0.5701610109239791
 42
1.221949758218055
  0
LINE
  5
23D
330
209
100
AcDbEntity
  8
$DDT_AUDIT_GENERATED_(D0)
  6
Continuous
 62
     7
100
AcDbLine
 10
319.873880533
 20
387.1965614399
 30
0.0
 11
319.873880533
 21
443.4685533204
 31
0.0
  0
LINE
  5
23E
330
209
100
AcDbEntity
  8
$DDT_AUDIT_GENERATED_(D0)
  6
Continuous
 62
     7
100
AcDbLine
 10
320.4529734942
 20
380.7749571905
 30
0.0
 11
320.4529734942
 21
373.7932202906
 31
0.0
  0
ELLIPSE
  5
23F
330
209
100
AcDbEntity
  8
$DDT_AUDIT_GENERATED_(D0)
  6
Continuous
 62
     7
100
AcDbEllipse
 10
319.9529734942
 20
380.7749571905
 30
0.0
 11
-0.4999999999997506
 21
-1.387778780781446E-14
 31
0.0
210
0.0
220
0.0
230
1.0
 40
0.79863551
 41
1.919642895370909
 42
3.141592653589793
  0
ELLIPSE
  5
240
330
209
100
AcDbEntity
  8
$DDT_AUDIT_GENERATED_(D0)
  6
Continuous
 62
     7
100
AcDbEllipse
 10
318.9529734942
 20
380.7749571905
 30
0.0
 11
-0.5000000000000004
 21
-2.636779683484747E-13
 31
0.0
210
0.0
220
0.0
230
1.0
 40
0.79863551
 41
0.0
 42
1.22194975821838
  0
ELLIPSE
  5
241
330
209
100
AcDbEntity
  8
$DDT_AUDIT_GENERATED_(D0)
  6
Continuous
 62
     7
100
AcDbEllipse
 10
319.9529734942
 20
387.5997075736
 30
0.0
 11
0.499999999999997
 21
-6.938893903907228E-15
 31
0.0
210
0.0
220
0.0
230
1.0
 40
0.6018150232
 41
5.061235548960796
 42
6.283185307179586
  0
ELLIPSE
  5
242
330
209
100
AcDbEntity
  8
$DDT_AUDIT_GENERATED_(D0)
  6
Continuous
 62
     7
100
AcDbEllipse
 10
318.9529734942
 20
387.5997075736
 30
0.0
 11
0.4999999999996327
 21
6.938893903907228E-15
 31
0.0
210
0.0
220
0.0
230
1.0
 40
0.6018150232
 41
3.141592653589793
 42
4.36354241180844
  0
ELLIPSE
  5
243
330
209
100
AcDbEntity
  8
$DDT_AUDIT_GENERATED_(D0)
  6
Continuous
 62
     7
100
AcDbEllipse
 10
320.2947875718
 20
380.0244254164
 30
0.0
 11
-0.5000000000004359
 21
0.0
 31
0.0
210
0.0
220
0.0
230
1.0
 40
0.79863551
 41
5.061235548961678
 42
5.713024296253356
  0
ELLIPSE
  5
244
330
209
100
AcDbEntity
  8
$DDT_AUDIT_GENERATED_(D0)
  6
Continuous
 62
     7
100
AcDbEllipse
 10
319.4529734942
 20
380.4555029865
 30
0.0
 11
0.5000000000003092
 21
0.0
 31
0.0
210
0.0
220
0.0
230
1.0
 40
0.79863551
 41
3.71175366451647
 42
5.713024296255226
  0
ELLIPSE
  5
245
330
209
100
AcDbEntity
  8
$DDT_AUDIT_GENERATED_(D0)
  6
Continuous
 62
     7
100
AcDbEllipse
 10
319.4529734942
 20
387.3589815644
 30
0.0
 11
-0.4999999999994852
 21
6.938893903907228E-15
 31
0.0
210
0.0
220
0.0
230
1.0
 40
0.6018150232
 41
0.5701610109264326
 42
2.571431642665484
  0
ELLIPSE
  5
246
330
209
100
AcDbEntity
  8
$DDT_AUDIT_GENERATED_(D0)
  6
Continuous
 62
     7
100
AcDbEllipse
 10
320.2947875718
 20
387.0341413155
 30
0.0
 11
-0.4999999999995893
 21
1.387778780781446E-14
 31
0.0
210
0.0
220
0.0
230
1.0
 40
0.6018150232
 41
5.061235548961585
 42
5.713024296253486
  0
LINE
  5
247
330
209
100
AcDbEntity
  8
$DDT_AUDIT_GENERATED_(D0)
  6
Continuous
 62
     7
100
AcDbLine
 10
320.4529734942
 20
381.9534256779
 30
0.0
 11
320.4529734942
 21
380.7749571905
 31
0.0
  0
LINE
  5
248
330
209
100
AcDbEntity
  8
$DDT_AUDIT_GENERATED_(D0)
  6
Continuous
 62
     7
100
AcDbLine
 10
320.4529734942
 20
381.9534256779
 30
0.0
 11
318.4529734942
 21
381.9534256779
 31
0.0
  0
LINE
  5
249
330
209
100
AcDbEntity
  8
$DDT_AUDIT_GENERATED_(D0)
  6
Continuous
 62
     7
100
AcDbLine
 10
318.4529734942
 20
382.232787808
 30
0.0
 11
320.4529734942
 21
382.232787808
 31
0.0
  0
LINE
  5
24A
330
209
100
AcDbEntity
  8
$DDT_AUDIT_GENERATED_(D0)
  6
Continuous
 62
     7
100
AcDbLine
 10
320.4529734942
 20
382.232787808
 30
0.0
 11
320.4529734942
 21
381.9534256779
 31
0.0
  0
LINE
  5
24B
330
209
100
AcDbEntity
  8
$DDT_AUDIT_GENERATED_(D0)
  6
Continuous
 62
     7
100
AcDbLine
 10
320.4529734942
 20
387.5997075736
 30
0.0
 11
320.4529734942
 21
382.232787808
 31
0.0
  0
LINE
  5
24C
330
209
100
AcDbEntity
  8
$DDT_AUDIT_GENERATED_(D0)
  6
Continuous
 62
     7
100
AcDbLine
 10
319.0320664554
 20
443.4685533204
 30
0.0
 11
319.0320664554
 21
387.1965614399
 31
0.0
  0
ELLIPSE
  5
24D
330
209
100
AcDbEntity
  8
$DDT_AUDIT_GENERATED_(D0)
  6
Continuous
 62
     7
100
AcDbEllipse
 10
318.6111594166
 20
443.7358106284
 30
0.0
 11
0.5000000000004254
 21
-7.494005416219807E-13
 31
0.0
210
0.0
220
0.0
230
1.0
 40
0.9902680687
 41
5.06123554896317
 42
5.71302429625698
  0
LINE
  5
24E
330
209
100
AcDbEntity
  8
$DDT_AUDIT_GENERATED_(D0)
  6
Continuous
 62
     7
100
AcDbLine
 10
320.4529734942
 20
442.805188785
 30
0.0
 11
320.4529734942
 21
408.6676435014
 31
0.0
  0
ELLIPSE
  5
24F
330
209
100
AcDbEntity
  8
$DDT_AUDIT_GENERATED_(D0)
  6
Continuous
 62
     7
100
AcDbEllipse
 10
319.9529734942
 20
442.805188785
 30
0.0
 11
-0.4999999999997489
 21
-7.216449660063518E-13
 31
0.0
210
0.0
220
0.0
230
1.0
 40
0.9902680687
 41
3.141592653589793
 42
4.363542411807103
  0
ELLIPSE
  5
250
330
209
100
AcDbEntity
  8
$DDT_AUDIT_GENERATED_(D0)
  6
Continuous
 62
     7
100
AcDbEllipse
 10
318.9529734942
 20
442.805188785
 30
0.0
 11
-0.499999999999997
 21
-1.179611963664229E-12
 31
0.0
210
0.0
220
0.0
230
1.0
 40
0.9902680687
 41
5.061235548958451
 42
6.283185307177204
  0
ELLIPSE
  5
251
330
209
100
AcDbEntity
  8
$DDT_AUDIT_GENERATED_(D0)
  6
Continuous
 62
     7
100
AcDbEllipse
 10
320.2947875718
 20
443.7358106284
 30
0.0
 11
-0.5000000000004359
 21
1.873501354054952E-12
 31
0.0
210
0.0
220
0.0
230
1.0
 40
0.9902680687
 41
0.5701610109299405
 42
1.221949758221619
  0
ELLIPSE
  5
252
330
209
100
AcDbEntity
  8
$DDT_AUDIT_GENERATED_(D0)
  6
Continuous
 62
     7
100
AcDbEllipse
 10
319.4529734942
 20
443.2012960125
 30
0.0
 11
0.500000000000304
 21
6.938893903907228E-14
 31
0.0
210
0.0
220
0.0
230
1.0
 40
0.9902680687
 41
0.5701610109242068
 42
2.571431642662995
  0
LINE
  5
253
330
209
100
AcDbEntity
  8
$DDT_AUDIT_GENERATED_(D0)
  6
Continuous
 62
     7
100
AcDbLine
 10
320.4529734942
 20
408.2676435014
 30
0.0
 11
320.4529734942
 21
387.5997075736
 31
0.0
  0
LINE
  5
254
330
209
100
AcDbEntity
  8
$DDT_AUDIT_GENERATED_(D0)
  6
Continuous
 62
     7
100
AcDbLine
 10
320.2529734942
 20
408.4676435014
 30
0.0
 11
320.4529734942
 21
408.2676435014
 31
0.0
  0
LINE
  5
255
330
209
100
AcDbEntity
  8
$DDT_AUDIT_GENERATED_(D0)
  6
Continuous
 62
     7
100
AcDbLine
 10
320.4529734942
 20
408.6676435014
 30
0.0
 11
320.2529734942
 21
408.4676435014
 31
0.0
  0
LINE
  5
256
330
209
100
AcDbEntity
  8
$DDT_AUDIT_GENERATED_(D0)
  6
Continuous
 62
     7
100
AcDbLine
 10
320.4529734942
 20
408.6676435014
 30
0.0
 11
320.4529734942
 21
408.2676435014
 31
0.0
  0
ARC
  5
257
330
209
100
AcDbEntity
  8
$DDT_AUDIT_GENERATED_(D0)
  6
Continuous
 62
     7
100
AcDbCircle
 10
319.9518396989
 20
373.7932099981
 30
0.0
 40
0.5011337954689092
100
AcDbArc
 50
306.934739885
 51
0.0011767718
  0
LINE
  5
258
330
209
100
AcDbEntity
  8
$DDT_AUDIT_GENERATED_(D0)
  6
Continuous
 62
     7
100
AcDbLine
 10
321.6529734942
 20
419.7474534962
 30
0.0
 11
321.3529734942
 21
419.7474534962
 31
0.0
  0
LINE
  5
259
330
209
100
AcDbEntity
  8
$DDT_AUDIT_GENERATED_(D0)
  6
Continuous
 62
     7
100
AcDbLine
 10
320.4529734942
 20
415.6474534962
 30
0.0
 11
321.0529734942
 21
415.6474534962
 31
0.0
  0
LINE
  5
25A
330
209
100
AcDbEntity
  8
$DDT_AUDIT_GENERATED_(D0)
  6
Continuous
 62
     7
100
AcDbLine
 10
321.0529734942
 20
419.4474534962
 30
0.0
 11
320.4529734942
 21
419.4474534962
 31
0.0
  0
LINE
  5
25B
330
209
100
AcDbEntity
  8
$DDT_AUDIT_GENERATED_(D0)
  6
Continuous
 62
     7
100
AcDbLine
 10
321.3529734942
 20
415.3474534962
 30
0.0
 11
321.6529734942
 21
415.3474534962
 31
0.0
  0
LINE
  5
25C
330
209
100
AcDbEntity
  8
$DDT_AUDIT_GENERATED_(D0)
  6
Continuous
 62
     7
100
AcDbLine
 10
321.9529734942
 20
419.4474534962
 30
0.0
 11
321.6529734942
 21
419.7474534962
 31
0.0
  0
LINE
  5
25D
330
209
100
AcDbEntity
  8
$DDT_AUDIT_GENERATED_(D0)
  6
Continuous
 62
     7
100
AcDbLine
 10
321.6529734942
 20
415.3474534962
 30
0.0
 11
321.9529734942
 21
415.6474534962
 31
0.0
  0
LINE
  5
25E
330
209
100
AcDbEntity
  8
$DDT_AUDIT_GENERATED_(D0)
  6
Continuous
 62
     7
100
AcDbLine
 10
321.3529734942
 20
419.7474534962
 30
0.0
 11
321.0529734942
 21
419.4474534962
 31
0.0
  0
LINE
  5
25F
330
209
100
AcDbEntity
  8
$DDT_AUDIT_GENERATED_(D0)
  6
Continuous
 62
     7
100
AcDbLine
 10
321.0529734942
 20
415.6474534962
 30
0.0
 11
321.3529734942
 21
415.3474534962
 31
0.0
  0
ARC
  5
260
330
209
100
AcDbEntity
  8
$DDT_AUDIT_GENERATED_(D0)
  6
Continuous
 62
     7
100
AcDbCircle
 10
318.6111594166
 20
372.8528759044
 30
0.0
 40
0.5000000000005835
100
AcDbArc
 50
32.6678195689
 51
70.0125639229
  0
ARC
  5
261
330
209
100
AcDbEntity
  8
$DDT_AUDIT_GENERATED_(D0)
  6
Continuous
 62
     7
100
AcDbCircle
 10
320.2947875718
 20
372.8528759044
 30
0.0
 40
0.4999999999996355
100
AcDbArc
 50
109.9874360771
 51
147.332180431
  0
ARC
  5
262
330
209
100
AcDbEntity
  8
$DDT_AUDIT_GENERATED_(D0)
  6
Continuous
 62
     7
100
AcDbCircle
 10
318.9529734942
 20
373.7926435014
 30
0.0
 40
0.5000000000000004
100
AcDbArc
 50
180.0
 51
250.012563923
  0
ARC
  5
263
330
209
100
AcDbEntity
  8
$DDT_AUDIT_GENERATED_(D0)
  6
Continuous
 62
     7
100
AcDbCircle
 10
319.9529734942
 20
373.7926435014
 30
0.0
 40
0.4999999999996604
100
AcDbArc
 50
289.987436077
 51
307.268518726
  0
ARC
  5
264
330
209
100
AcDbEntity
  8
$DDT_AUDIT_GENERATED_(D0)
  6
Continuous
 62
     7
100
AcDbCircle
 10
319.4529734942
 20
373.3926435014
 30
0.0
 40
0.4999999999995444
100
AcDbArc
 50
212.667819569
 51
327.3321804311
  0
LINE
  5
265
330
209
100
AcDbEntity
  8
$DDT_AUDIT_GENERATED_(D0)
  6
Continuous
 62
     7
100
AcDbLine
 10
321.3529734942
 20
292.3474534962
 30
0.0
 11
321.3529734942
 21
294.8181471063
 31
0.0
  0
LINE
  5
266
330
209
100
AcDbEntity
  8
$DDT_AUDIT_GENERATED_(D0)
  6
Continuous
 62
     7
100
AcDbLine
 10
321.3529734942
 20
296.7474534962
 30
0.0
 11
321.3529734942
 21
296.1546568925
 31
0.0
  0
LINE
  5
267
330
209
100
AcDbEntity
  8
$DDT_AUDIT_GENERATED_(D0)
  6
Continuous
 62
     7
100
AcDbLine
 10
321.3529734942
 20
296.1546568925
 30
0.0
 11
321.6529734942
 21
296.1546568925
 31
0.0
  0
LINE
  5
268
330
209
100
AcDbEntity
  8
$DDT_AUDIT_GENERATED_(D0)
  6
Continuous
 62
     7
100
AcDbLine
 10
321.3529734942
 20
294.8181471063
 30
0.0
 11
321.6529734942
 21
294.8181471063
 31
0.0
  0
LINE
  5
269
330
209
100
AcDbEntity
  8
$DDT_AUDIT_GENERATED_(D0)
  6
Continuous
 62
     7
100
AcDbLine
 10
321.6529734942
 20
296.7474534962
 30
0.0
 11
321.6529734942
 21
296.1546568925
 31
0.0
  0
LINE
  5
26A
330
209
100
AcDbEntity
  8
$DDT_AUDIT_GENERATED_(D0)
  6
Continuous
 62
     7
100
AcDbLine
 10
321.9529734942
 20
296.008243702
 30
0.0
 11
321.9529734942
 21
295.7523973635
 31
0.0
  0
LINE
  5
26B
330
209
100
AcDbEntity
  8
$DDT_AUDIT_GENERATED_(D0)
  6
Continuous
 62
     7
100
AcDbLine
 10
321.9529734942
 20
296.008243702
 30
0.0
 11
321.6529734942
 21
296.1546568925
 31
0.0
  0
LINE
  5
26C
330
209
100
AcDbEntity
  8
$DDT_AUDIT_GENERATED_(D0)
  6
Continuous
 62
     7
100
AcDbLine
 10
321.9529734942
 20
296.008243702
 30
0.0
 11
321.9529734942
 21
296.4474534962
 31
0.0
  0
LINE
  5
26D
330
209
100
AcDbEntity
  8
$DDT_AUDIT_GENERATED_(D0)
  6
Continuous
 62
     7
100
AcDbLine
 10
321.6529734942
 20
292.3474534962
 30
0.0
 11
321.6529734942
 21
294.8181471063
 31
0.0
  0
LINE
  5
26E
330
209
100
AcDbEntity
  8
$DDT_AUDIT_GENERATED_(D0)
  6
Continuous
 62
     7
100
AcDbLine
 10
321.6529734942
 20
294.8181471063
 30
0.0
 11
321.9529734942
 21
294.6717339157
 31
0.0
  0
LINE
  5
26F
330
209
100
AcDbEntity
  8
$DDT_AUDIT_GENERATED_(D0)
  6
Continuous
 62
     7
100
AcDbLine
 10
321.9529734942
 20
294.6717339157
 30
0.0
 11
321.9529734942
 21
292.6474534962
 31
0.0
  0
LINE
  5
270
330
209
100
AcDbEntity
  8
$DDT_AUDIT_GENERATED_(D0)
  6
Continuous
 62
     7
100
AcDbLine
 10
321.9529734942
 20
294.6790194152
 30
0.0
 11
321.9529734942
 21
294.6717339157
 31
0.0
  0
LINE
  5
271
330
209
100
AcDbEntity
  8
$DDT_AUDIT_GENERATED_(D0)
  6
Continuous
 62
     7
100
AcDbLine
 10
321.9529734942
 20
294.6790194152
 30
0.0
 11
321.938045537
 21
294.6790194152
 31
0.0
  0
LINE
  5
272
330
209
100
AcDbEntity
  8
$DDT_AUDIT_GENERATED_(D0)
  6
Continuous
 62
     7
100
AcDbLine
 10
321.0679014514
 20
294.6790194152
 30
0.0
 11
320.6529734942
 21
294.6790194152
 31
0.0
  0
LINE
  5
273
330
209
100
AcDbEntity
  8
$DDT_AUDIT_GENERATED_(D0)
  6
Continuous
 62
     7
100
AcDbLine
 10
321.9529734942
 20
295.7523973635
 30
0.0
 11
321.9529734942
 21
294.6790194152
 31
0.0
  0
LINE
  5
274
330
209
100
AcDbEntity
  8
$DDT_AUDIT_GENERATED_(D0)
  6
Continuous
 62
     7
100
AcDbLine
 10
320.6529734942
 20
295.7523973635
 30
0.0
 11
321.9529734942
 21
295.7523973635
 31
0.0
  0
SPLINE
  5
275
330
209
100
AcDbEntity
  8
$DDT_AUDIT_GENERATED_(D0)
  6
Continuous
 62
     7
100
AcDbSpline
210
0.0
220
0.0
230
1.0
 70
     8
 71
     3
 72
    10
 73
     6
 74
     0
 42
0.0000000390292863
 43
0.0000000001
 40
0.0
 40
0.0
 40
0.0
 40
0.0
 40
0.5
 40
0.5
 40
1.0
 40
1.0
 40
1.0
 40
1.0
 10
320.6529734942274
 20
294.6790194152058
 30
0.0
 10
320.5937781984591
 20
294.6790194152058
 30
0.0
 10
320.5385916414185
 20
294.6938592336401
 30
0.0
 10
320.4687569923723
 20
294.7368829891069
 30
0.0
 10
320.4529734942274
 20
294.7636876887773
 30
0.0
 10
320.4529734942274
 20
294.7904329250184
 30
0.0
  0
SPLINE
  5
276
330
209
100
AcDbEntity
  8
$DDT_AUDIT_GENERATED_(D0)
  6
Continuous
 62
     7
100
AcDbSpline
210
0.0
220
0.0
230
1.0
 70
     8
 71
     3
 72
    10
 73
     6
 74
     0
 42
0.0000000390277236
 43
0.0000000001
 40
0.0
 40
0.0
 40
0.0
 40
0.0
 40
0.5
 40
0.5
 40
1.0
 40
1.0
 40
1.0
 40
1.0
 10
320.4529734942274
 20
295.640983853668
 30
0.0
 10
320.4529734942274
 20
295.6677524922238
 30
0.0
 10
320.4686018131865
 20
295.6943642536851
 30
0.0
 10
320.5383057035351
 20
295.737454851418
 30
0.0
 10
320.5936275080468
 20
295.752397363481
 30
0.0
 10
320.6529734942274
 20
295.7523973634806
 30
0.0
  0
LINE
  5
277
330
209
100
AcDbEntity
  8
$DDT_AUDIT_GENERATED_(D0)
  6
Continuous
 62
     7
100
AcDbLine
 10
321.0529734942
 20
296.008243702
 30
0.0
 11
320.4529734942
 21
296.008243702
 31
0.0
  0
LINE
  5
278
330
209
100
AcDbEntity
  8
$DDT_AUDIT_GENERATED_(D0)
  6
Continuous
 62
     7
100
AcDbLine
 10
321.0529734942
 20
296.4474534962
 30
0.0
 11
321.0529734942
 21
296.008243702
 31
0.0
  0
LINE
  5
279
330
209
100
AcDbEntity
  8
$DDT_AUDIT_GENERATED_(D0)
  6
Continuous
 62
     7
100
AcDbLine
 10
321.0529734942
 20
294.6717339157
 30
0.0
 11
320.4529734942
 21
294.6717339157
 31
0.0
  0
LINE
  5
27A
330
209
100
AcDbEntity
  8
$DDT_AUDIT_GENERATED_(D0)
  6
Continuous
 62
     7
100
AcDbLine
 10
321.0529734942
 20
292.6474534962
 30
0.0
 11
321.0529734942
 21
294.6717339157
 31
0.0
  0
LINE
  5
27B
330
209
100
AcDbEntity
  8
$DDT_AUDIT_GENERATED_(D0)
  6
Continuous
 62
     7
100
AcDbLine
 10
321.3529734942
 20
296.1546568925
 30
0.0
 11
321.0529734942
 21
296.008243702
 31
0.0
  0
LINE
  5
27C
330
209
100
AcDbEntity
  8
$DDT_AUDIT_GENERATED_(D0)
  6
Continuous
 62
     7
100
AcDbLine
 10
321.0529734942
 20
294.6717339157
 30
0.0
 11
321.3529734942
 21
294.8181471063
 31
0.0
  0
LINE
  5
27D
330
209
100
AcDbEntity
  8
$DDT_AUDIT_GENERATED_(D0)
  6
Continuous
 62
     7
100
AcDbLine
 10
319.873880533
 20
250.1227597029
 30
0.0
 11
319.873880533
 21
257.2399642014
 31
0.0
  0
LINE
  5
27E
330
209
100
AcDbEntity
  8
$DDT_AUDIT_GENERATED_(D0)
  6
Continuous
 62
     7
100
AcDbLine
 10
319.0320664554
 20
257.2399642014
 30
0.0
 11
319.0320664554
 21
250.1227597029
 31
0.0
  0
ELLIPSE
  5
27F
330
209
100
AcDbEntity
  8
$DDT_AUDIT_GENERATED_(D0)
  6
Continuous
 62
     7
100
AcDbEllipse
 10
318.6111594166
 20
264.0341413155
 30
0.0
 11
0.5000000000005694
 21
2.775557561562891E-14
 31
0.0
210
0.0
220
0.0
230
1.0
 40
0.6018150232
 41
0.5701610109238753
 42
1.221949758217972
  0
ELLIPSE
  5
280
330
209
100
AcDbEntity
  8
$DDT_AUDIT_GENERATED_(D0)
  6
Continuous
 62
     7
100
AcDbEllipse
 10
318.6111594166
 20
257.0244254164
 30
0.0
 11
0.5000000000004029
 21
-9.714451465470120E-14
 31
0.0
210
0.0
220
0.0
230
1.0
 40
0.79863551
 41
0.5701610109241759
 42
1.22194975821816
  0
LINE
  5
281
330
209
100
AcDbEntity
  8
$DDT_AUDIT_GENERATED_(D0)
  6
Continuous
 62
     7
100
AcDbLine
 10
319.873880533
 20
264.1965614399
 30
0.0
 11
319.873880533
 21
320.4685533204
 31
0.0
  0
LINE
  5
282
330
209
100
AcDbEntity
  8
$DDT_AUDIT_GENERATED_(D0)
  6
Continuous
 62
     7
100
AcDbLine
 10
320.4529734942
 20
257.7749571905
 30
0.0
 11
320.4529734942
 21
250.7932202906
 31
0.0
  0
ELLIPSE
  5
283
330
209
100
AcDbEntity
  8
$DDT_AUDIT_GENERATED_(D0)
  6
Continuous
 62
     7
100
AcDbEllipse
 10
319.9529734942
 20
257.7749571905
 30
0.0
 11
-0.4999999999997593
 21
0.0
 31
0.0
210
0.0
220
0.0
230
1.0
 40
0.79863551
 41
1.919642895371046
 42
3.141592653589793
  0
ELLIPSE
  5
284
330
209
100
AcDbEntity
  8
$DDT_AUDIT_GENERATED_(D0)
  6
Continuous
 62
     7
100
AcDbEllipse
 10
318.9529734942
 20
257.7749571905
 30
0.0
 11
-0.5000000000000004
 21
-2.914335439641036E-13
 31
0.0
210
0.0
220
0.0
230
1.0
 40
0.79863551
 41
0.0
 42
1.221949758218336
  0
ELLIPSE
  5
285
330
209
100
AcDbEntity
  8
$DDT_AUDIT_GENERATED_(D0)
  6
Continuous
 62
     7
100
AcDbEllipse
 10
319.9529734942
 20
264.5997075736
 30
0.0
 11
0.5000000000000039
 21
-2.775557561562891E-14
 31
0.0
210
0.0
220
0.0
230
1.0
 40
0.6018150232
 41
5.061235548960816
 42
6.283185307179586
  0
ELLIPSE
  5
286
330
209
100
AcDbEntity
  8
$DDT_AUDIT_GENERATED_(D0)
  6
Continuous
 62
     7
100
AcDbEllipse
 10
318.9529734942
 20
264.5997075736
 30
0.0
 11
0.4999999999996344
 21
0.0
 31
0.0
210
0.0
220
0.0
230
1.0
 40
0.6018150232
 41
3.141592653589793
 42
4.363542411808449
  0
ELLIPSE
  5
287
330
209
100
AcDbEntity
  8
$DDT_AUDIT_GENERATED_(D0)
  6
Continuous
 62
     7
100
AcDbEllipse
 10
320.2947875718
 20
257.0244254164
 30
0.0
 11
-0.5000000000004498
 21
-9.714451465470120E-14
 31
0.0
210
0.0
220
0.0
230
1.0
 40
0.79863551
 41
5.061235548961513
 42
5.713024296253368
  0
ELLIPSE
  5
288
330
209
100
AcDbEntity
  8
$DDT_AUDIT_GENERATED_(D0)
  6
Continuous
 62
     7
100
AcDbEllipse
 10
319.4529734942
 20
257.4555029865
 30
0.0
 11
0.5000000000003023
 21
1.387778780781446E-14
 31
0.0
210
0.0
220
0.0
230
1.0
 40
0.79863551
 41
3.711753664516216
 42
5.713024296255226
  0
ELLIPSE
  5
289
330
209
100
AcDbEntity
  8
$DDT_AUDIT_GENERATED_(D0)
  6
Continuous
 62
     7
100
AcDbEllipse
 10
319.4529734942
 20
264.3589815644
 30
0.0
 11
-0.499999999999487
 21
0.0
 31
0.0
210
0.0
220
0.0
230
1.0
 40
0.6018150232
 41
0.5701610109264295
 42
2.57143164266547
  0
ELLIPSE
  5
28A
330
209
100
AcDbEntity
  8
$DDT_AUDIT_GENERATED_(D0)
  6
Continuous
 62
     7
100
AcDbEllipse
 10
320.2947875718
 20
264.0341413155
 30
0.0
 11
-0.499999999999572
 21
-1.387778780781446E-14
 31
0.0
210
0.0
220
0.0
230
1.0
 40
0.6018150232
 41
5.061235548961564
 42
5.713024296253507
  0
LINE
  5
28B
330
209
100
AcDbEntity
  8
$DDT_AUDIT_GENERATED_(D0)
  6
Continuous
 62
     7
100
AcDbLine
 10
320.4529734942
 20
258.9534256779
 30
0.0
 11
320.4529734942
 21
257.7749571905
 31
0.0
  0
LINE
  5
28C
330
209
100
AcDbEntity
  8
$DDT_AUDIT_GENERATED_(D0)
  6
Continuous
 62
     7
100
AcDbLine
 10
320.4529734942
 20
258.9534256779
 30
0.0
 11
318.4529734942
 21
258.9534256779
 31
0.0
  0
LINE
  5
28D
330
209
100
AcDbEntity
  8
$DDT_AUDIT_GENERATED_(D0)
  6
Continuous
 62
     7
100
AcDbLine
 10
318.4529734942
 20
259.232787808
 30
0.0
 11
320.4529734942
 21
259.232787808
 31
0.0
  0
LINE
  5
28E
330
209
100
AcDbEntity
  8
$DDT_AUDIT_GENERATED_(D0)
  6
Continuous
 62
     7
100
AcDbLine
 10
320.4529734942
 20
259.232787808
 30
0.0
 11
320.4529734942
 21
258.9534256779
 31
0.0
  0
LINE
  5
28F
330
209
100
AcDbEntity
  8
$DDT_AUDIT_GENERATED_(D0)
  6
Continuous
 62
     7
100
AcDbLine
 10
320.4529734942
 20
264.5997075736
 30
0.0
 11
320.4529734942
 21
259.232787808
 31
0.0
  0
LINE
  5
290
330
209
100
AcDbEntity
  8
$DDT_AUDIT_GENERATED_(D0)
  6
Continuous
 62
     7
100
AcDbLine
 10
319.0320664554
 20
320.4685533204
 30
0.0
 11
319.0320664554
 21
264.1965614399
 31
0.0
  0
ELLIPSE
  5
291
330
209
100
AcDbEntity
  8
$DDT_AUDIT_GENERATED_(D0)
  6
Continuous
 62
     7
100
AcDbEllipse
 10
318.6111594166
 20
320.7358106284
 30
0.0
 11
0.5000000000003942
 21
3.851086116668512E-13
 31
0.0
210
0.0
220
0.0
230
1.0
 40
0.9902680687
 41
5.061235548960703
 42
5.713024296254829
  0
LINE
  5
292
330
209
100
AcDbEntity
  8
$DDT_AUDIT_GENERATED_(D0)
  6
Continuous
 62
     7
100
AcDbLine
 10
320.4529734942
 20
319.805188785
 30
0.0
 11
320.4529734942
 21
285.6676435014
 31
0.0
  0
ELLIPSE
  5
293
330
209
100
AcDbEntity
  8
$DDT_AUDIT_GENERATED_(D0)
  6
Continuous
 62
     7
100
AcDbEllipse
 10
319.9529734942
 20
319.805188785
 30
0.0
 11
-0.4999999999997541
 21
-1.665334536937735E-13
 31
0.0
210
0.0
220
0.0
230
1.0
 40
0.9902680687
 41
3.141592653589801
 42
4.363542411808206
  0
ELLIPSE
  5
294
330
209
100
AcDbEntity
  8
$DDT_AUDIT_GENERATED_(D0)
  6
Continuous
 62
     7
100
AcDbEllipse
 10
318.9529734942
 20
319.805188785
 30
0.0
 11
-0.4999999999999952
 21
-6.730727086790012E-13
 31
0.0
210
0.0
220
0.0
230
1.0
 40
0.9902680687
 41
5.061235548959576
 42
6.283185307178226
  0
ELLIPSE
  5
295
330
209
100
AcDbEntity
  8
$DDT_AUDIT_GENERATED_(D0)
  6
Continuous
 62
     7
100
AcDbEllipse
 10
320.2947875718
 20
320.7358106284
 30
0.0
 11
-0.5000000000004393
 21
7.702172233337023E-13
 31
0.0
210
0.0
220
0.0
230
1.0
 40
0.9902680687
 41
0.5701610109275553
 42
1.221949758219436
  0
ELLIPSE
  5
296
330
209
100
AcDbEntity
  8
$DDT_AUDIT_GENERATED_(D0)
  6
Continuous
 62
     7
100
AcDbEllipse
 10
319.4529734942
 20
320.2012960125
 30
0.0
 11
0.500000000000304
 21
-1.457167719820518E-13
 31
0.0
210
0.0
220
0.0
230
1.0
 40
0.9902680687
 41
0.5701610109248434
 42
2.571431642663631
  0
LINE
  5
297
330
209
100
AcDbEntity
  8
$DDT_AUDIT_GENERATED_(D0)
  6
Continuous
 62
     7
100
AcDbLine
 10
320.4529734942
 20
285.2676435014
 30
0.0
 11
320.4529734942
 21
264.5997075736
 31
0.0
  0
LINE
  5
298
330
209
100
AcDbEntity
  8
$DDT_AUDIT_GENERATED_(D0)
  6
Continuous
 62
     7
100
AcDbLine
 10
320.2529734942
 20
285.4676435014
 30
0.0
 11
320.4529734942
 21
285.2676435014
 31
0.0
  0
LINE
  5
299
330
209
100
AcDbEntity
  8
$DDT_AUDIT_GENERATED_(D0)
  6
Continuous
 62
     7
100
AcDbLine
 10
320.4529734942
 20
285.6676435014
 30
0.0
 11
320.2529734942
 21
285.4676435014
 31
0.0
  0
LINE
  5
29A
330
209
100
AcDbEntity
  8
$DDT_AUDIT_GENERATED_(D0)
  6
Continuous
 62
     7
100
AcDbLine
 10
320.4529734942
 20
285.6676435014
 30
0.0
 11
320.4529734942
 21
285.2676435014
 31
0.0
  0
ARC
  5
29B
330
209
100
AcDbEntity
  8
$DDT_AUDIT_GENERATED_(D0)
  6
Continuous
 62
     7
100
AcDbCircle
 10
319.9518396989
 20
250.7932099981
 30
0.0
 40
0.5011337954688825
100
AcDbArc
 50
306.934739885
 51
0.0011767718
  0
LINE
  5
29C
330
209
100
AcDbEntity
  8
$DDT_AUDIT_GENERATED_(D0)
  6
Continuous
 62
     7
100
AcDbLine
 10
321.6529734942
 20
296.7474534962
 30
0.0
 11
321.3529734942
 21
296.7474534962
 31
0.0
  0
LINE
  5
29D
330
209
100
AcDbEntity
  8
$DDT_AUDIT_GENERATED_(D0)
  6
Continuous
 62
     7
100
AcDbLine
 10
320.4529734942
 20
292.6474534962
 30
0.0
 11
321.0529734942
 21
292.6474534962
 31
0.0
  0
LINE
  5
29E
330
209
100
AcDbEntity
  8
$DDT_AUDIT_GENERATED_(D0)
  6
Continuous
 62
     7
100
AcDbLine
 10
321.0529734942
 20
296.4474534962
 30
0.0
 11
320.4529734942
 21
296.4474534962
 31
0.0
  0
LINE
  5
29F
330
209
100
AcDbEntity
  8
$DDT_AUDIT_GENERATED_(D0)
  6
Continuous
 62
     7
100
AcDbLine
 10
321.3529734942
 20
292.3474534962
 30
0.0
 11
321.6529734942
 21
292.3474534962
 31
0.0
  0
LINE
  5
2A0
330
209
100
AcDbEntity
  8
$DDT_AUDIT_GENERATED_(D0)
  6
Continuous
 62
     7
100
AcDbLine
 10
321.9529734942
 20
296.4474534962
 30
0.0
 11
321.6529734942
 21
296.7474534962
 31
0.0
  0
LINE
  5
2A1
330
209
100
AcDbEntity
  8
$DDT_AUDIT_GENERATED_(D0)
  6
Continuous
 62
     7
100
AcDbLine
 10
321.6529734942
 20
292.3474534962
 30
0.0
 11
321.9529734942
 21
292.6474534962
 31
0.0
  0
LINE
  5
2A2
330
209
100
AcDbEntity
  8
$DDT_AUDIT_GENERATED_(D0)
  6
Continuous
 62
     7
100
AcDbLine
 10
321.3529734942
 20
296.7474534962
 30
0.0
 11
321.0529734942
 21
296.4474534962
 31
0.0
  0
LINE
  5
2A3
330
209
100
AcDbEntity
  8
$DDT_AUDIT_GENERATED_(D0)
  6
Continuous
 62
     7
100
AcDbLine
 10
321.0529734942
 20
292.6474534962
 30
0.0
 11
321.3529734942
 21
292.3474534962
 31
0.0
  0
ARC
  5
2A4
330
209
100
AcDbEntity
  8
$DDT_AUDIT_GENERATED_(D0)
  6
Continuous
 62
     7
100
AcDbCircle
 10
318.6111594166
 20
249.8528759044
 30
0.0
 40
0.5000000000005842
100
AcDbArc
 50
32.6678195689
 51
70.0125639229
  0
ARC
  5
2A5
330
209
100
AcDbEntity
  8
$DDT_AUDIT_GENERATED_(D0)
  6
Continuous
 62
     7
100
AcDbCircle
 10
320.2947875718
 20
249.8528759044
 30
0.0
 40
0.4999999999996369
100
AcDbArc
 50
109.9874360771
 51
147.332180431
  0
ARC
  5
2A6
330
209
100
AcDbEntity
  8
$DDT_AUDIT_GENERATED_(D0)
  6
Continuous
 62
     7
100
AcDbCircle
 10
318.9529734942
 20
250.7926435014
 30
0.0
 40
0.5000000000000004
100
AcDbArc
 50
180.0
 51
250.012563923
  0
ARC
  5
2A7
330
209
100
AcDbEntity
  8
$DDT_AUDIT_GENERATED_(D0)
  6
Continuous
 62
     7
100
AcDbCircle
 10
319.9529734942
 20
250.7926435014
 30
0.0
 40
0.4999999999996534
100
AcDbArc
 50
289.987436077
 51
307.268518726
  0
ARC
  5
2A8
330
209
100
AcDbEntity
  8
$DDT_AUDIT_GENERATED_(D0)
  6
Continuous
 62
     7
100
AcDbCircle
 10
319.4529734942
 20
250.3926435014
 30
0.0
 40
0.4999999999995444
100
AcDbArc
 50
212.667819569
 51
327.3321804311
  0
LINE
  5
2A9
330
209
100
AcDbEntity
  8
$DDT_AUDIT_GENERATED_(BE)
  6
Continuous
 62
     7
100
AcDbLine
 10
320.8192547916
 20
288.4676435014
 30
0.0
 11
320.8192547916
 21
282.4676435014
 31
0.0
  0
ELLIPSE
  5
2AA
330
209
100
AcDbEntity
  8
$DDT_AUDIT_GENERATED_(BE)
  6
Continuous
 62
     7
100
AcDbEllipse
 10
317.2576635299
 20
285.4676435014
 30
0.0
 11
0.0
 21
3.910931814137773
 31
0.0
210
0.0
220
0.0
230
1.0
 40
1.0
 41
4.584191352047409
 42
4.840586608722203
  0
LINE
  5
2AB
330
209
100
AcDbEntity
  8
$DDT_AUDIT_GENERATED_(BE)
  6
Continuous
 62
     7
100
AcDbLine
 10
321.5143974859
 20
285.9676435014
 30
0.0
 11
321.1365019713
 21
285.9676435014
 31
0.0
  0
LINE
  5
2AC
330
209
100
AcDbEntity
  8
$DDT_AUDIT_GENERATED_(BE)
  6
Continuous
 62
     7
100
AcDbLine
 10
321.5143974859
 20
284.9676435014
 30
0.0
 11
321.1365019713
 21
284.9676435014
 31
0.0
  0
LINE
  5
2AD
330
209
100
AcDbEntity
  8
$DDT_AUDIT_GENERATED_(BE)
  6
Continuous
 62
     7
100
AcDbLine
 10
321.0395538384
 20
282.9855363758
 30
0.0
 11
321.0529734942
 21
282.9676435014
 31
0.0
  0
LINE
  5
2AE
330
209
100
AcDbEntity
  8
$DDT_AUDIT_GENERATED_(BE)
  6
Continuous
 62
     7
100
AcDbLine
 10
321.0395538384
 20
287.949750627
 30
0.0
 11
321.0529734942
 21
287.9676435014
 31
0.0
  0
ARC
  5
2AF
330
209
100
AcDbEntity
  8
$DDT_AUDIT_GENERATED_(BE)
  6
Continuous
 62
     7
100
AcDbCircle
 10
315.0529734942
 20
285.4676435014
 30
0.0
 40
6.480740698407861
100
AcDbArc
 50
337.4805246973
 51
355.5751374706
  0
ARC
  5
2B0
330
209
100
AcDbEntity
  8
$DDT_AUDIT_GENERATED_(BE)
  6
Continuous
 62
     7
100
AcDbCircle
 10
315.0529734942
 20
285.4676435014
 30
0.0
 40
6.480740698407859
100
AcDbArc
 50
4.4248625294
 51
22.5194753027
  0
ARC
  5
2B1
330
209
100
AcDbEntity
  8
$DDT_AUDIT_GENERATED_(BE)
  6
Continuous
 62
     7
100
AcDbCircle
 10
315.0529734942
 20
285.4676435014
 30
0.0
 40
6.499999999999999
100
AcDbArc
 50
22.619864948
 51
27.4864262504
  0
ARC
  5
2B2
330
209
100
AcDbEntity
  8
$DDT_AUDIT_GENERATED_(BE)
  6
Continuous
 62
     7
100
AcDbCircle
 10
315.0529734942
 20
285.4676435014
 30
0.0
 40
6.499999999999994
100
AcDbArc
 50
332.5135737496
 51
337.380135052
  0
LINE
  5
2B3
330
209
100
AcDbEntity
  8
$DDT_AUDIT_GENERATED_(BE)
  6
Continuous
 62
     7
100
AcDbLine
 10
320.4529734942
 20
282.4676435014
 30
0.0
 11
320.8192547916
 21
282.4676435014
 31
0.0
  0
LINE
  5
2B4
330
209
100
AcDbEntity
  8
$DDT_AUDIT_GENERATED_(BE)
  6
Continuous
 62
     7
100
AcDbLine
 10
320.8192547916
 20
288.4676435014
 30
0.0
 11
320.4529734942
 21
288.4676435014
 31
0.0
  0
ENDBLK
  5
2B6
330
209
100
AcDbEntity
  8
0
100
AcDbBlockEnd
  0
BLOCK
  5
31C
330
2B7
100
AcDbEntity
  8
0
100
AcDbBlockBegin
  2
SE2
 70
     0
 10
0.0
 20
0.0
 30
0.0
  3
SE2
  1

  0
LINE
  5
2B9
330
2B7
100
AcDbEntity
  8
$DDT_AUDIT_GENERATED_(A5)
  6
Continuous
 62
     7
100
AcDbLine
 10
174.2321971374
 20
119.85
 30
0.0
 11
92.4321971374
 21
119.85
 31
0.0
  0
LINE
  5
2BA
330
2B7
100
AcDbEntity
  8
$DDT_AUDIT_GENERATED_(A5)
  6
Continuous
 62
     7
100
AcDbLine
 10
174.2321971374
 20
119.85
 30
0.0
 11
175.8321971374
 21
119.85
 31
0.0
  0
LINE
  5
2BB
330
2B7
100
AcDbEntity
  8
$DDT_AUDIT_GENERATED_(A5)
  6
Continuous
 62
     7
100
AcDbLine
 10
175.8321971374
 20
119.85
 30
0.0
 11
175.8321971374
 21
111.05
 31
0.0
  0
LINE
  5
2BC
330
2B7
100
AcDbEntity
  8
$DDT_AUDIT_GENERATED_(A5)
  6
Continuous
 62
     7
100
AcDbLine
 10
90.8321971374
 20
119.85
 30
0.0
 11
92.4321971374
 21
119.85
 31
0.0
  0
LINE
  5
2BD
330
2B7
100
AcDbEntity
  8
$DDT_AUDIT_GENERATED_(A5)
  6
Continuous
 62
     7
100
AcDbLine
 10
92.4321971374
 20
109.85
 30
0.0
 11
92.0321971374
 21
109.85
 31
0.0
  0
LINE
  5
2BE
330
2B7
100
AcDbEntity
  8
$DDT_AUDIT_GENERATED_(A5)
  6
Continuous
 62
     7
100
AcDbLine
 10
174.6321971374
 20
109.85
 30
0.0
 11
174.2321971374
 21
109.85
 31
0.0
  0
LINE
  5
2BF
330
2B7
100
AcDbEntity
  8
$DDT_AUDIT_GENERATED_(A5)
  6
Continuous
 62
     7
100
AcDbLine
 10
174.2321971374
 20
109.85
 30
0.0
 11
92.4321971374
 21
109.85
 31
0.0
  0
LINE
  5
2C0
330
2B7
100
AcDbEntity
  8
$DDT_AUDIT_GENERATED_(A5)
  6
Continuous
 62
     7
100
AcDbLine
 10
90.8321971374
 20
111.05
 30
0.0
 11
90.8321971374
 21
119.85
 31
0.0
  0
ARC
  5
2C1
330
2B7
100
AcDbEntity
  8
$DDT_AUDIT_GENERATED_(A5)
  6
Continuous
 62
     7
100
AcDbCircle
 10
174.6321971374
 20
111.05
 30
0.0
 40
1.2
100
AcDbArc
 50
270.0
 51
0.0
  0
ARC
  5
2C2
330
2B7
100
AcDbEntity
  8
$DDT_AUDIT_GENERATED_(A5)
  6
Continuous
 62
     7
100
AcDbCircle
 10
92.0321971374
 20
111.05
 30
0.0
 40
1.2
100
AcDbArc
 50
180.0
 51
270.0
  0
LINE
  5
2C3
330
2B7
100
AcDbEntity
  8
$DDT_AUDIT_GENERATED_(BE)
  6
Continuous
 62
     7
100
AcDbLine
 10
113.6120666537
 20
107.4837187027
 30
0.0
 11
110.3321971374
 21
107.4837187027
 31
0.0
  0
LINE
  5
2C4
330
2B7
100
AcDbEntity
  8
$DDT_AUDIT_GENERATED_(BE)
  6
Continuous
 62
     7
100
AcDbLine
 10
111.0982138634
 20
107.1664715229
 30
0.0
 11
111.0821971374
 21
107.1518445412
 31
0.0
  0
ARC
  5
2C5
330
2B7
100
AcDbEntity
  8
$DDT_AUDIT_GENERATED_(BE)
  6
Continuous
 62
     7
100
AcDbCircle
 10
113.3321971374
 20
113.25
 30
0.0
 40
6.480740698407861
100
AcDbArc
 50
249.835838581
 51
265.5751374706
  0
ELLIPSE
  5
2C6
330
2B7
100
AcDbEntity
  8
$DDT_AUDIT_GENERATED_(BE)
  6
Continuous
 62
     7
100
AcDbEllipse
 10
113.3321971374
 20
110.61
 30
0.0
 11
5.599999999995685
 21
-5.898059818321144E-13
 31
0.0
210
0.0
220
0.0
230
1.0
 40
0.6
 41
4.622984208457053
 42
4.762386507350838
  0
LINE
  5
2C7
330
2B7
100
AcDbEntity
  8
$DDT_AUDIT_GENERATED_(BE)
  6
Continuous
 62
     7
100
AcDbLine
 10
112.8321971374
 20
106.7885760083
 30
0.0
 11
112.8321971374
 21
107.2634196558
 31
0.0
  0
ARC
  5
2C8
330
2B7
100
AcDbEntity
  8
$DDT_AUDIT_GENERATED_(BE)
  6
Continuous
 62
     7
100
AcDbCircle
 10
113.3321971374
 20
113.25
 30
0.0
 40
6.499999999999996
100
AcDbArc
 50
242.5135737496
 51
249.7477532578
  0
LINE
  5
2C9
330
2B7
100
AcDbEntity
  8
$DDT_AUDIT_GENERATED_(BE)
  6
Continuous
 62
     7
100
AcDbLine
 10
110.3321971374
 20
107.85
 30
0.0
 11
110.3321971374
 21
107.4837187027
 31
0.0
  0
LINE
  5
2CA
330
2B7
100
AcDbEntity
  8
$DDT_AUDIT_GENERATED_(D0)
  6
Continuous
 62
     7
100
AcDbLine
 10
168.6770809359
 20
109.2709070388
 30
0.0
 11
138.2512542187
 21
109.2709070388
 31
0.0
  0
LINE
  5
2CB
330
2B7
100
AcDbEntity
  8
$DDT_AUDIT_GENERATED_(D0)
  6
Continuous
 62
     7
100
AcDbLine
 10
113.3287835823
 20
106.95
 30
0.0
 11
113.3120666537
 21
106.95
 31
0.0
  0
LINE
  5
2CC
330
2B7
100
AcDbEntity
  8
$DDT_AUDIT_GENERATED_(D0)
  6
Continuous
 62
     7
100
AcDbLine
 10
114.009769332
 20
106.95
 30
0.0
 11
117.7120666537
 21
106.95
 31
0.0
  0
LINE
  5
2CD
330
2B7
100
AcDbEntity
  8
$DDT_AUDIT_GENERATED_(D0)
  6
Continuous
 62
     7
100
AcDbLine
 10
114.009769332
 20
106.95
 30
0.0
 11
114.009769332
 21
106.65
 31
0.0
  0
LINE
  5
2CE
330
2B7
100
AcDbEntity
  8
$DDT_AUDIT_GENERATED_(D0)
  6
Continuous
 62
     7
100
AcDbLine
 10
113.3287835823
 20
106.95
 30
0.0
 11
113.3287835823
 21
106.65
 31
0.0
  0
LINE
  5
2CF
330
2B7
100
AcDbEntity
  8
$DDT_AUDIT_GENERATED_(D0)
  6
Continuous
 62
     7
100
AcDbLine
 10
114.009769332
 20
106.65
 30
0.0
 11
117.7120666537
 21
106.65
 31
0.0
  0
LINE
  5
2D0
330
2B7
100
AcDbEntity
  8
$DDT_AUDIT_GENERATED_(D0)
  6
Continuous
 62
     7
100
AcDbLine
 10
114.2971213978
 20
106.35
 30
0.0
 11
114.009769332
 21
106.65
 31
0.0
  0
LINE
  5
2D1
330
2B7
100
AcDbEntity
  8
$DDT_AUDIT_GENERATED_(D0)
  6
Continuous
 62
     7
100
AcDbLine
 10
117.4120666537
 20
106.35
 30
0.0
 11
114.2971213978
 21
106.35
 31
0.0
  0
LINE
  5
2D2
330
2B7
100
AcDbEntity
  8
$DDT_AUDIT_GENERATED_(D0)
  6
Continuous
 62
     7
100
AcDbLine
 10
113.3287835823
 20
106.65
 30
0.0
 11
113.3120666537
 21
106.65
 31
0.0
  0
LINE
  5
2D3
330
2B7
100
AcDbEntity
  8
$DDT_AUDIT_GENERATED_(D0)
  6
Continuous
 62
     7
100
AcDbLine
 10
113.3287835823
 20
106.65
 30
0.0
 11
113.6161356482
 21
106.35
 31
0.0
  0
LINE
  5
2D4
330
2B7
100
AcDbEntity
  8
$DDT_AUDIT_GENERATED_(D0)
  6
Continuous
 62
     7
100
AcDbLine
 10
113.6120666537
 20
106.35
 30
0.0
 11
113.6161356482
 21
106.35
 31
0.0
  0
LINE
  5
2D5
330
2B7
100
AcDbEntity
  8
$DDT_AUDIT_GENERATED_(D0)
  6
Continuous
 62
     7
100
AcDbLine
 10
114.11826236
 20
106.35
 30
0.0
 11
113.6161356482
 21
106.35
 31
0.0
  0
LINE
  5
2D6
330
2B7
100
AcDbEntity
  8
$DDT_AUDIT_GENERATED_(D0)
  6
Continuous
 62
     7
100
AcDbLine
 10
114.2971213978
 20
106.35
 30
0.0
 11
114.11826236
 21
106.35
 31
0.0
  0
LINE
  5
2D7
330
2B7
100
AcDbEntity
  8
$DDT_AUDIT_GENERATED_(D0)
  6
Continuous
 62
     7
100
AcDbLine
 10
114.11826236
 20
106.35
 30
0.0
 11
114.11826236
 21
106.5367316011
 31
0.0
  0
LINE
  5
2D8
330
2B7
100
AcDbEntity
  8
$DDT_AUDIT_GENERATED_(D0)
  6
Continuous
 62
     7
100
AcDbLine
 10
114.11826236
 20
107.0632683989
 30
0.0
 11
114.11826236
 21
107.65
 31
0.0
  0
ARC
  5
2D9
330
2B7
100
AcDbEntity
  8
$DDT_AUDIT_GENERATED_(D0)
  6
Continuous
 62
     7
100
AcDbCircle
 10
114.3259752674
 20
107.6424380398
 30
0.0
 40
0.2078505115540658
100
AcDbArc
 50
98.1299883474
 51
177.9150205715
  0
LINE
  5
2DA
330
2B7
100
AcDbEntity
  8
$DDT_AUDIT_GENERATED_(D0)
  6
Continuous
 62
     7
100
AcDbLine
 10
114.2971213978
 20
107.25
 30
0.0
 11
114.2971213978
 21
107.85
 31
0.0
  0
LINE
  5
2DB
330
2B7
100
AcDbEntity
  8
$DDT_AUDIT_GENERATED_(D0)
  6
Continuous
 62
     7
100
AcDbLine
 10
114.2971213978
 20
107.25
 30
0.0
 11
117.4120666537
 21
107.25
 31
0.0
  0
LINE
  5
2DC
330
2B7
100
AcDbEntity
  8
$DDT_AUDIT_GENERATED_(D0)
  6
Continuous
 62
     7
100
AcDbLine
 10
113.6161356482
 20
107.25
 30
0.0
 11
113.6161356482
 21
107.85
 31
0.0
  0
LINE
  5
2DD
330
2B7
100
AcDbEntity
  8
$DDT_AUDIT_GENERATED_(D0)
  6
Continuous
 62
     7
100
AcDbLine
 10
113.6161356482
 20
107.25
 30
0.0
 11
113.6120666537
 21
107.25
 31
0.0
  0
LINE
  5
2DE
330
2B7
100
AcDbEntity
  8
$DDT_AUDIT_GENERATED_(D0)
  6
Continuous
 62
     7
100
AcDbLine
 10
114.009769332
 20
106.95
 30
0.0
 11
114.2971213978
 21
107.25
 31
0.0
  0
LINE
  5
2DF
330
2B7
100
AcDbEntity
  8
$DDT_AUDIT_GENERATED_(D0)
  6
Continuous
 62
     7
100
AcDbLine
 10
113.6161356482
 20
107.25
 30
0.0
 11
113.3287835823
 21
106.95
 31
0.0
  0
LINE
  5
2E0
330
2B7
100
AcDbEntity
  8
$DDT_AUDIT_GENERATED_(D0)
  6
Continuous
 62
     7
100
AcDbLine
 10
97.9873133389
 20
108.4290929612
 30
0.0
 11
128.4131400561
 21
108.4290929612
 31
0.0
  0
LINE
  5
2E1
330
2B7
100
AcDbEntity
  8
$DDT_AUDIT_GENERATED_(D0)
  6
Continuous
 62
     7
100
AcDbLine
 10
128.4131400561
 20
109.2709070388
 30
0.0
 11
97.9873133389
 21
109.2709070388
 31
0.0
  0
ELLIPSE
  5
2E2
330
2B7
100
AcDbEntity
  8
$DDT_AUDIT_GENERATED_(D0)
  6
Continuous
 62
     7
100
AcDbEllipse
 10
138.2888147839
 20
109.6918140776
 30
0.0
 11
-1.734723475976807E-15
 21
-0.5000000000005694
 31
0.0
210
0.0
220
0.0
230
1.0
 40
0.139173101
 41
-1.221949758217975
 42
-0.5701610109240658
  0
ELLIPSE
  5
2E3
330
2B7
100
AcDbEntity
  8
$DDT_AUDIT_GENERATED_(D0)
  6
Continuous
 62
     7
100
AcDbEllipse
 10
128.375579491
 20
109.6918140776
 30
0.0
 11
6.071532165918825E-15
 21
-0.5000000000004237
 31
0.0
210
0.0
220
0.0
230
1.0
 40
0.139173101
 41
0.5701610109240838
 42
1.221949758217928
  0
LINE
  5
2E4
330
2B7
100
AcDbEntity
  8
$DDT_AUDIT_GENERATED_(D0)
  6
Continuous
 62
     7
100
AcDbLine
 10
138.2512542187
 20
108.4290929612
 30
0.0
 11
168.6770809359
 21
108.4290929612
 31
0.0
  0
LINE
  5
2E5
330
2B7
100
AcDbEntity
  8
$DDT_AUDIT_GENERATED_(D0)
  6
Continuous
 62
     7
100
AcDbLine
 10
128.5063698616
 20
107.85
 30
0.0
 11
98.6577739266
 21
107.85
 31
0.0
  0
ELLIPSE
  5
2E6
330
2B7
100
AcDbEntity
  8
$DDT_AUDIT_GENERATED_(D0)
  6
Continuous
 62
     7
100
AcDbEllipse
 10
128.5063698616
 20
108.35
 30
0.0
 11
0.0
 21
0.1829911095499521
 31
0.0
210
0.0
220
0.0
230
1.0
 40
1.0
 41
2.776144273536676
 42
3.141592653589793
  0
ELLIPSE
  5
2E7
330
2B7
100
AcDbEntity
  8
$DDT_AUDIT_GENERATED_(D0)
  6
Continuous
 62
     7
100
AcDbEllipse
 10
128.5063698616
 20
109.35
 30
0.0
 11
0.0
 21
0.5
 31
0.0
210
0.0
220
0.0
230
1.0
 40
1.0
 41
0.0
 42
0.3654483800533515
  0
ELLIPSE
  5
2E8
330
2B7
100
AcDbEntity
  8
$DDT_AUDIT_GENERATED_(D0)
  6
Continuous
 62
     7
100
AcDbEllipse
 10
138.1580244132
 20
108.35
 30
0.0
 11
-4.336808689942018E-15
 21
-0.4999999999999987
 31
0.0
210
0.0
220
0.0
230
1.0
 40
0.139173101
 41
0.0000000000000623
 42
1.221949758218711
  0
ELLIPSE
  5
2E9
330
2B7
100
AcDbEntity
  8
$DDT_AUDIT_GENERATED_(D0)
  6
Continuous
 62
     7
100
AcDbEllipse
 10
138.1580244132
 20
109.35
 30
0.0
 11
8.673617379884035E-16
 21
-0.4999999999996396
 31
0.0
210
0.0
220
0.0
230
1.0
 40
0.139173101
 41
1.919642895371012
 42
3.141592653589793
  0
ELLIPSE
  5
2EA
330
2B7
100
AcDbEntity
  8
$DDT_AUDIT_GENERATED_(D0)
  6
Continuous
 62
     7
100
AcDbEllipse
 10
128.375579491
 20
108.0081859224
 30
0.0
 11
0.0
 21
0.1829911095504767
 31
0.0
210
0.0
220
0.0
230
1.0
 40
1.0
 41
-0.3654483800523525
 42
-0.089001450735896
  0
ELLIPSE
  5
2EB
330
2B7
100
AcDbEntity
  8
$DDT_AUDIT_GENERATED_(D0)
  6
Continuous
 62
     7
100
AcDbEllipse
 10
128.4507006212
 20
108.85
 30
0.0
 11
-8.673617379884035E-16
 21
-0.500000000000304
 31
0.0
210
0.0
220
0.0
230
1.0
 40
0.139173101
 41
3.711753664516402
 42
5.713024296255295
  0
LINE
  5
2EC
330
2B7
100
AcDbEntity
  8
$DDT_AUDIT_GENERATED_(D0)
  6
Continuous
 62
     7
100
AcDbLine
 10
138.1580244132
 20
107.85
 30
0.0
 11
137.9526602493
 21
107.85
 31
0.0
  0
ELLIPSE
  5
2ED
330
2B7
100
AcDbEntity
  8
$DDT_AUDIT_GENERATED_(D0)
  6
Continuous
 62
     7
100
AcDbEllipse
 10
138.2136936536
 20
108.85
 30
0.0
 11
0.0
 21
0.4225796154124252
 31
0.0
210
0.0
220
0.0
230
1.0
 40
1.0
 41
3.230594104325277
 42
6.194183856443638
  0
ELLIPSE
  5
2EE
330
2B7
100
AcDbEntity
  8
$DDT_AUDIT_GENERATED_(D0)
  6
Continuous
 62
     7
100
AcDbEllipse
 10
138.2888147839
 20
108.0081859224
 30
0.0
 11
0.0
 21
0.4225796154119849
 31
0.0
210
0.0
220
0.0
230
1.0
 40
1.0
 41
0.0890014507359147
 42
0.3654483800525279
  0
LINE
  5
2EF
330
2B7
100
AcDbEntity
  8
$DDT_AUDIT_GENERATED_(D0)
  6
Continuous
 62
     7
100
AcDbLine
 10
128.7117340255
 20
107.85
 30
0.0
 11
128.5063698616
 21
107.85
 31
0.0
  0
LINE
  5
2F0
330
2B7
100
AcDbEntity
  8
$DDT_AUDIT_GENERATED_(D0)
  6
Continuous
 62
     7
100
AcDbLine
 10
128.7117340255
 20
107.85
 30
0.0
 11
128.7117340255
 21
109.85
 31
0.0
  0
LINE
  5
2F1
330
2B7
100
AcDbEntity
  8
$DDT_AUDIT_GENERATED_(D0)
  6
Continuous
 62
     7
100
AcDbLine
 10
128.9364286603
 20
109.85
 30
0.0
 11
128.9364286603
 21
107.85
 31
0.0
  0
LINE
  5
2F2
330
2B7
100
AcDbEntity
  8
$DDT_AUDIT_GENERATED_(D0)
  6
Continuous
 62
     7
100
AcDbLine
 10
128.9364286603
 20
107.85
 30
0.0
 11
128.7117340255
 21
107.85
 31
0.0
  0
LINE
  5
2F3
330
2B7
100
AcDbEntity
  8
$DDT_AUDIT_GENERATED_(D0)
  6
Continuous
 62
     7
100
AcDbLine
 10
137.7279656145
 20
107.85
 30
0.0
 11
133.5321971374
 21
107.85
 31
0.0
  0
LINE
  5
2F4
330
2B7
100
AcDbEntity
  8
$DDT_AUDIT_GENERATED_(D0)
  6
Continuous
 62
     7
100
AcDbLine
 10
137.7279656145
 20
107.85
 30
0.0
 11
137.7279656145
 21
109.85
 31
0.0
  0
LINE
  5
2F5
330
2B7
100
AcDbEntity
  8
$DDT_AUDIT_GENERATED_(D0)
  6
Continuous
 62
     7
100
AcDbLine
 10
137.9526602493
 20
109.85
 30
0.0
 11
137.9526602493
 21
107.85
 31
0.0
  0
LINE
  5
2F6
330
2B7
100
AcDbEntity
  8
$DDT_AUDIT_GENERATED_(D0)
  6
Continuous
 62
     7
100
AcDbLine
 10
137.9526602493
 20
107.85
 30
0.0
 11
137.7279656145
 21
107.85
 31
0.0
  0
ARC
  5
2F7
330
2B7
100
AcDbEntity
  8
$DDT_AUDIT_GENERATED_(D0)
  6
Continuous
 62
     7
100
AcDbCircle
 10
98.6577636341
 20
108.3511337954
 30
0.0
 40
0.5011337954689382
100
AcDbArc
 50
216.934739885
 51
270.0011767718
  0
LINE
  5
2F8
330
2B7
100
AcDbEntity
  8
$DDT_AUDIT_GENERATED_(D0)
  6
Continuous
 62
     7
100
AcDbLine
 10
168.0066203482
 20
107.85
 30
0.0
 11
138.1580244132
 21
107.85
 31
0.0
  0
ARC
  5
2F9
330
2B7
100
AcDbEntity
  8
$DDT_AUDIT_GENERATED_(D0)
  6
Continuous
 62
     7
100
AcDbCircle
 10
168.0066309129
 20
108.3511332502
 30
0.0
 40
0.5011332503213485
100
AcDbArc
 50
269.9987921074
 51
323.0652912358
  0
LINE
  5
2FA
330
2B7
100
AcDbEntity
  8
$DDT_AUDIT_GENERATED_(D0)
  6
Continuous
 62
     7
100
AcDbLine
 10
133.1321971374
 20
107.85
 30
0.0
 11
128.9364286603
 21
107.85
 31
0.0
  0
LINE
  5
2FB
330
2B7
100
AcDbEntity
  8
$DDT_AUDIT_GENERATED_(D0)
  6
Continuous
 62
     7
100
AcDbLine
 10
133.3321971374
 20
108.05
 30
0.0
 11
133.5321971374
 21
107.85
 31
0.0
  0
LINE
  5
2FC
330
2B7
100
AcDbEntity
  8
$DDT_AUDIT_GENERATED_(D0)
  6
Continuous
 62
     7
100
AcDbLine
 10
133.1321971374
 20
107.85
 30
0.0
 11
133.3321971374
 21
108.05
 31
0.0
  0
LINE
  5
2FD
330
2B7
100
AcDbEntity
  8
$DDT_AUDIT_GENERATED_(D0)
  6
Continuous
 62
     7
100
AcDbLine
 10
133.5321971374
 20
107.85
 30
0.0
 11
133.1321971374
 21
107.85
 31
0.0
  0
ARC
  5
2FE
330
2B7
100
AcDbEntity
  8
$DDT_AUDIT_GENERATED_(D0)
  6
Continuous
 62
     7
100
AcDbCircle
 10
168.4071971374
 20
108.85
 30
0.0
 40
0.500000000000309
100
AcDbArc
 50
302.6678195689
 51
57.332180431
  0
ARC
  5
2FF
330
2B7
100
AcDbEntity
  8
$DDT_AUDIT_GENERATED_(D0)
  6
Continuous
 62
     7
100
AcDbCircle
 10
168.0071971374
 20
108.35
 30
0.0
 40
0.5000000000000006
100
AcDbArc
 50
322.7802748302
 51
340.012563923
  0
ARC
  5
300
330
2B7
100
AcDbEntity
  8
$DDT_AUDIT_GENERATED_(D0)
  6
Continuous
 62
     7
100
AcDbCircle
 10
168.0071971374
 20
109.35
 30
0.0
 40
0.4999999999995242
100
AcDbArc
 50
19.987436077
 51
90.0
  0
ARC
  5
301
330
2B7
100
AcDbEntity
  8
$DDT_AUDIT_GENERATED_(D0)
  6
Continuous
 62
     7
100
AcDbCircle
 10
168.9469647344
 20
108.0081859224
 30
0.0
 40
0.500000000000449
100
AcDbArc
 50
122.667819569
 51
160.0125639229
  0
ARC
  5
302
330
2B7
100
AcDbEntity
  8
$DDT_AUDIT_GENERATED_(D0)
  6
Continuous
 62
     7
100
AcDbCircle
 10
168.9469647344
 20
109.6918140776
 30
0.0
 40
0.5000000000003962
100
AcDbArc
 50
199.9874360771
 51
237.3321804311
  0
LINE
  5
303
330
2B7
100
AcDbEntity
  8
$DDT_AUDIT_GENERATED_(D0)
  6
Continuous
 62
     7
100
AcDbLine
 10
117.7120666537
 20
106.65
 30
0.0
 11
117.7120666537
 21
106.95
 31
0.0
  0
LINE
  5
304
330
2B7
100
AcDbEntity
  8
$DDT_AUDIT_GENERATED_(D0)
  6
Continuous
 62
     7
100
AcDbLine
 10
113.6120666537
 20
107.85
 30
0.0
 11
113.6120666537
 21
107.25
 31
0.0
  0
LINE
  5
305
330
2B7
100
AcDbEntity
  8
$DDT_AUDIT_GENERATED_(D0)
  6
Continuous
 62
     7
100
AcDbLine
 10
117.4120666537
 20
107.25
 30
0.0
 11
117.4120666537
 21
107.85
 31
0.0
  0
LINE
  5
306
330
2B7
100
AcDbEntity
  8
$DDT_AUDIT_GENERATED_(D0)
  6
Continuous
 62
     7
100
AcDbLine
 10
113.3120666537
 20
106.95
 30
0.0
 11
113.3120666537
 21
106.65
 31
0.0
  0
LINE
  5
307
330
2B7
100
AcDbEntity
  8
$DDT_AUDIT_GENERATED_(D0)
  6
Continuous
 62
     7
100
AcDbLine
 10
117.4120666537
 20
106.35
 30
0.0
 11
117.7120666537
 21
106.65
 31
0.0
  0
LINE
  5
308
330
2B7
100
AcDbEntity
  8
$DDT_AUDIT_GENERATED_(D0)
  6
Continuous
 62
     7
100
AcDbLine
 10
113.3120666537
 20
106.65
 30
0.0
 11
113.6120666537
 21
106.35
 31
0.0
  0
LINE
  5
309
330
2B7
100
AcDbEntity
  8
$DDT_AUDIT_GENERATED_(D0)
  6
Continuous
 62
     7
100
AcDbLine
 10
117.7120666537
 20
106.95
 30
0.0
 11
117.4120666537
 21
107.25
 31
0.0
  0
LINE
  5
30A
330
2B7
100
AcDbEntity
  8
$DDT_AUDIT_GENERATED_(D0)
  6
Continuous
 62
     7
100
AcDbLine
 10
113.6120666537
 20
107.25
 30
0.0
 11
113.3120666537
 21
106.95
 31
0.0
  0
ARC
  5
30B
330
2B7
100
AcDbEntity
  8
$DDT_AUDIT_GENERATED_(D0)
  6
Continuous
 62
     7
100
AcDbCircle
 10
97.7174295404
 20
109.6918140776
 30
0.0
 40
0.5000000000005705
100
AcDbArc
 50
302.6678195689
 51
340.0125639229
  0
ARC
  5
30C
330
2B7
100
AcDbEntity
  8
$DDT_AUDIT_GENERATED_(D0)
  6
Continuous
 62
     7
100
AcDbCircle
 10
97.7174295404
 20
108.0081859224
 30
0.0
 40
0.4999999999996383
100
AcDbArc
 50
19.9874360771
 51
57.332180431
  0
ARC
  5
30D
330
2B7
100
AcDbEntity
  8
$DDT_AUDIT_GENERATED_(D0)
  6
Continuous
 62
     7
100
AcDbCircle
 10
98.6571971374
 20
109.35
 30
0.0
 40
0.5000000000000004
100
AcDbArc
 50
90.0
 51
160.012563923
  0
ARC
  5
30E
330
2B7
100
AcDbEntity
  8
$DDT_AUDIT_GENERATED_(D0)
  6
Continuous
 62
     7
100
AcDbCircle
 10
98.6571971374
 20
108.35
 30
0.0
 40
0.4999999999996599
100
AcDbArc
 50
199.987436077
 51
217.268518726
  0
ARC
  5
30F
330
2B7
100
AcDbEntity
  8
$DDT_AUDIT_GENERATED_(D0)
  6
Continuous
 62
     7
100
AcDbCircle
 10
98.2571971374
 20
108.85
 30
0.0
 40
0.4999999999995429
100
AcDbArc
 50
122.667819569
 51
237.3321804311
  0
LINE
  5
310
330
2B7
100
AcDbEntity
  8
$DDT_AUDIT_GENERATED_(BE)
  6
Continuous
 62
     7
100
AcDbLine
 10
156.3321971374
 20
107.4837154909
 30
0.0
 11
150.3321971374
 21
107.4837154909
 31
0.0
  0
LINE
  5
311
330
2B7
100
AcDbEntity
  8
$DDT_AUDIT_GENERATED_(BE)
  6
Continuous
 62
     7
100
AcDbLine
 10
151.0821971374
 20
107.1518413294
 30
0.0
 11
151.0982138634
 21
107.1664683112
 31
0.0
  0
LINE
  5
312
330
2B7
100
AcDbEntity
  8
$DDT_AUDIT_GENERATED_(BE)
  6
Continuous
 62
     7
100
AcDbLine
 10
155.5661804114
 20
107.1664683112
 30
0.0
 11
155.5821971374
 21
107.1518413294
 31
0.0
  0
ARC
  5
313
330
2B7
100
AcDbEntity
  8
$DDT_AUDIT_GENERATED_(BE)
  6
Continuous
 62
     7
100
AcDbCircle
 10
153.3321971374
 20
113.2499967882
 30
0.0
 40
6.480740698407864
100
AcDbArc
 50
249.835838581
 51
265.5751374706
  0
ARC
  5
314
330
2B7
100
AcDbEntity
  8
$DDT_AUDIT_GENERATED_(BE)
  6
Continuous
 62
     7
100
AcDbCircle
 10
153.3321971374
 20
113.2499967882
 30
0.0
 40
6.480740698407862
100
AcDbArc
 50
274.4248625294
 51
290.164161419
  0
ELLIPSE
  5
315
330
2B7
100
AcDbEntity
  8
$DDT_AUDIT_GENERATED_(BE)
  6
Continuous
 62
     7
100
AcDbEllipse
 10
153.3321971374
 20
110.6099967883
 30
0.0
 11
5.600000000014566
 21
3.972516759986888E-13
 31
0.0
210
0.0
220
0.0
230
1.0
 40
0.6
 41
4.62298420845728
 42
4.801793752312004
  0
LINE
  5
316
330
2B7
100
AcDbEntity
  8
$DDT_AUDIT_GENERATED_(BE)
  6
Continuous
 62
     7
100
AcDbLine
 10
153.8321971374
 20
107.2634164441
 30
0.0
 11
153.8321971374
 21
106.7885727966
 31
0.0
  0
LINE
  5
317
330
2B7
100
AcDbEntity
  8
$DDT_AUDIT_GENERATED_(BE)
  6
Continuous
 62
     7
100
AcDbLine
 10
152.8321971374
 20
107.2634164441
 30
0.0
 11
152.8321971374
 21
106.7885727966
 31
0.0
  0
ARC
  5
318
330
2B7
100
AcDbEntity
  8
$DDT_AUDIT_GENERATED_(BE)
  6
Continuous
 62
     7
100
AcDbCircle
 10
153.3321971374
 20
113.2499967882
 30
0.0
 40
6.499999999999999
100
AcDbArc
 50
290.2522467422
 51
297.4864262504
  0
ARC
  5
319
330
2B7
100
AcDbEntity
  8
$DDT_AUDIT_GENERATED_(BE)
  6
Continuous
 62
     7
100
AcDbCircle
 10
153.3321971374
 20
113.2499967882
 30
0.0
 40
6.499999999999997
100
AcDbArc
 50
242.5135737496
 51
249.7477532578
  0
LINE
  5
31A
330
2B7
100
AcDbEntity
  8
$DDT_AUDIT_GENERATED_(BE)
  6
Continuous
 62
     7
100
AcDbLine
 10
150.3321971374
 20
107.85
 30
0.0
 11
150.3321971374
 21
107.4837154909
 31
0.0
  0
LINE
  5
31B
330
2B7
100
AcDbEntity
  8
$DDT_AUDIT_GENERATED_(BE)
  6
Continuous
 62
     7
100
AcDbLine
 10
156.3321971374
 20
107.4837154909
 30
0.0
 11
156.3321971374
 21
107.85
 31
0.0
  0
ENDBLK
  5
31D
330
2B7
100
AcDbEntity
  8
0
100
AcDbBlockEnd
  0
ENDSEC
  0
SECTION
  2
ENTITIES
  0
INSERT
  5
5F
330
1F
100
AcDbEntity
  8
Default
100
AcDbBlockReference
  2
SEANNOT_GROUP
 10
0.0
 20
0.0
 30
0.0
  0
INSERT
  5
6A
330
1F
100
AcDbEntity
  8
Default
100
AcDbBlockReference
  2
SEANNOT_GROUP1
 10
0.0
 20
0.0
 30
0.0
  0
INSERT
  5
74
330
1F
100
AcDbEntity
  8
Default
100
AcDbBlockReference
  2
SEANNOT_GROUP2
 10
0.0
 20
0.0
 30
0.0
  0
INSERT
  5
7E
330
1F
100
AcDbEntity
  8
Default
100
AcDbBlockReference
  2
SEANNOT_GROUP3
 10
0.0
 20
0.0
 30
0.0
  0
LINE
  5
87
330
1F
100
AcDbEntity
  8
Default
  6
Continuous
 62
     7
100
AcDbLine
 10
300.5801186416
 20
408.4676435014
 30
0.0
 11
308.4529734942
 21
408.4676435014
 31
0.0
  0
LINE
  5
88
330
1F
100
AcDbEntity
  8
Default
  6
Continuous
 62
     7
100
AcDbLine
 10
300.5801186416
 20
285.4676435014
 30
0.0
 11
308.4529734942
 21
285.4676435014
 31
0.0
  0
LINE
  5
89
330
1F
100
AcDbEntity
  8
Default
  6
Continuous
 62
     7
100
AcDbLine
 10
113.3321971374
 20
123.9474317302
 30
0.0
 11
113.3321971374
 21
119.85
 31
0.0
  0
LINE
  5
8A
330
1F
100
AcDbEntity
  8
Default
  6
Continuous
 62
     7
100
AcDbLine
 10
153.3321971374
 20
123.9474317302
 30
0.0
 11
153.3321971374
 21
119.85
 31
0.0
  0
INSERT
  5
8C
330
1F
100
AcDbEntity
  8
Default
100
AcDbBlockReference
  2
SEANNOT_GROUP4
 10
0.0
 20
0.0
 30
0.0
  0
INSERT
  5
92
330
1F
100
AcDbEntity
  8
Default
100
AcDbBlockReference
  2
SEANNOT_GROUP5
 10
0.0
 20
0.0
 30
0.0
  0
INSERT
  5
98
330
1F
100
AcDbEntity
  8
Default
100
AcDbBlockReference
  2
SEANNOT_GROUP6
 10
0.0
 20
0.0
 30
0.0
  0
INSERT
  5
9E
330
1F
100
AcDbEntity
  8
Default
100
AcDbBlockReference
  2
SEANNOT_GROUP7
 10
0.0
 20
0.0
 30
0.0
  0
INSERT
  5
A4
330
1F
100
AcDbEntity
  8
Default
100
AcDbBlockReference
  2
SE
 10
0.0
 20
0.0
 30
0.0
  0
INSERT
  5
20A
330
1F
100
AcDbEntity
  8
Default
100
AcDbBlockReference
  2
SE1
 10
0.0
 20
0.0
 30
0.0
  0
INSERT
  5
2B8
330
1F
100
AcDbEntity
  8
Default
100
AcDbBlockReference
  2
SE2
 10
0.0
 20
0.0
 30
0.0
  0
TEXT
  5
31F
330
1F
100
AcDbEntity
  8
Default
  6
Continuous
 62
     7
100
AcDbText
 10
5.9362635081
 20
53.4225120485
 30
0.0
 40
10.0
  1
Grohe AG^J
  7
SEACAD_seiso_ttf
 11
5.9362635081
 21
63.4225120485
 31
0.0
100
AcDbText
 73
     3
  0
TEXT
  5
320
330
1F
100
AcDbEntity
  8
Default
  6
Continuous
 62
     7
100
AcDbText
 10
5.9362635081
 20
37.0588756849
 30
0.0
 40
10.0
  1
 
  7
SEACAD_seiso_ttf
 11
5.9362635081
 21
47.0588756849
 31
0.0
100
AcDbText
 73
     3
  0
TEXT
  5
321
330
1F
100
AcDbEntity
  8
Default
  6
Continuous
 62
     7
100
AcDbText
 10
5.9362635081
 20
20.6952393213
 30
0.0
 40
10.0
  1
ecn:
  7
SEACAD_seiso_ttf
 11
5.9362635081
 21
30.6952393213
 31
0.0
100
AcDbText
 73
     3
  0
TEXT
  5
322
330
1F
100
AcDbEntity
  8
Default
  6
Continuous
 62
     7
100
AcDbText
 10
5.9362635081
 20
4.3316029576
 30
0.0
 40
10.0
  1
unit: mm
  7
SEACAD_seiso_ttf
 11
5.9362635081
 21
14.3316029576
 31
0.0
100
AcDbText
 73
     3
  0
LINE
  5
323
330
1F
100
AcDbEntity
  8
Default
  6
Continuous
 62
     7
100
AcDbLine
 10
0.0
 20
0.0
 30
0.0
 11
100.0
 21
0.0
 31
0.0
  0
LINE
  5
324
330
1F
100
AcDbEntity
  8
Default
  6
Continuous
 62
     7
100
AcDbLine
 10
0.0
 20
0.0
 30
0.0
 11
0.0
 21
100.0
 31
0.0
  0
TEXT
  5
325
330
1F
100
AcDbEntity
  8
Default
  6
Continuous
 62
     7
100
AcDbText
 10
24.3923665681
 20
-18.2375342018
 30
0.0
 40
10.0
  1
100 mm
  7
SEACAD_seiso_ttf
 11
24.3923665681
 21
-8.2375342018
 31
0.0
100
AcDbText
 73
     3
  0
TEXT
  5
326
330
1F
100
AcDbEntity
  8
Default
  6
Continuous
 62
     7
100
AcDbText
 10
-7.6150308803
 20
24.6231930421
 30
0.0
 40
10.0
  1
100 mm
 50
90.0
  7
SEACAD_seiso_ttf
 11
-17.6150308803
 21
24.6231930421
 31
0.0
100
AcDbText
 73
     3
  0
TEXT
  5
327
330
1F
100
AcDbEntity
  8
Default
  6
Continuous
 62
     7
100
AcDbText
 10
28.4878128572
 20
20.0907663715
 30
0.0
 40
10.0
  1
223882
  7
SEACAD_seiso_ttf
 11
28.4878128572
 21
30.0907663715
 31
0.0
100
AcDbText
 73
     3
  0
TEXT
  5
328
330
1F
100
AcDbEntity
  8
Default
  6
Continuous
 62
     7
100
AcDbText
 10
5.9012241913
 20
36.7242780188
 30
0.0
 40
10.0
  1
40548000
  7
SEACAD_seiso_ttf
 11
5.9012241913
 21
46.7242780188
 31
0.0
100
AcDbText
 73
     3
  0
ENDSEC
  0
SECTION
  2
OBJECTS
  0
DICTIONARY
  5
C
330
0
100
AcDbDictionary
281
     1
  3
ACAD_GROUP
350
D
  3
ACAD_LAYOUT
350
1A
  3
ACAD_MLEADERSTYLE
350
32C
  3
ACAD_MLINESTYLE
350
17
  3
ACAD_PLOTSETTINGS
350
19
  3
ACAD_PLOTSTYLENAME
350
E
  3
ACAD_SCALELIST
350
3B
  3
ACAD_TABLESTYLE
350
32B
  3
ACAD_VISUALSTYLE
350
2A
  3
AcDbVariableDictionary
350
329
  0
DICTIONARY
  5
D
102
{ACAD_REACTORS
330
C
102
}
330
C
100
AcDbDictionary
281
     1
  0
DICTIONARY
  5
1A
102
{ACAD_REACTORS
330
C
102
}
330
C
100
AcDbDictionary
281
     1
  3
Layout1
350
1E
  3
Model
350
22
  0
DICTIONARY
  5
32C
102
{ACAD_REACTORS
330
C
102
}
330
C
100
AcDbDictionary
281
     1
  0
DICTIONARY
  5
17
102
{ACAD_REACTORS
330
C
102
}
330
C
100
AcDbDictionary
281
     1
  3
Standard
350
18
  0
DICTIONARY
  5
19
102
{ACAD_REACTORS
330
C
102
}
330
C
100
AcDbDictionary
281
     1
  0
ACDBDICTIONARYWDFLT
  5
E
102
{ACAD_REACTORS
330
C
102
}
330
C
100
AcDbDictionary
281
     1
  3
Normal
350
F
100
AcDbDictionaryWithDefault
340
F
  0
DICTIONARY
  5
3B
102
{ACAD_REACTORS
330
C
102
}
330
C
100
AcDbDictionary
281
     1
  3
A0
350
3C
  3
A1
350
3D
  3
A2
350
3E
  3
A3
350
3F
  3
A4
350
40
  3
A5
350
41
  3
A6
350
42
  3
A7
350
43
  3
A8
350
44
  3
A9
350
45
  3
B0
350
46
  3
B1
350
47
  3
B2
350
48
  3
B3
350
49
  3
B4
350
4A
  3
B5
350
4B
  3
B6
350
4C
  3
B7
350
4D
  3
B8
350
4E
  3
B9
350
4F
  3
C0
350
50
  3
C1
350
51
  3
C2
350
52
  3
C3
350
53
  3
C4
350
54
  3
C5
350
55
  3
C6
350
56
  3
C7
350
57
  3
C8
350
58
  3
C9
350
59
  3
D0
350
5A
  3
D1
350
5B
  3
D2
350
5C
  0
DICTIONARY
  5
32B
102
{ACAD_REACTORS
330
C
102
}
330
C
100
AcDbDictionary
281
     1
  0
DICTIONARY
  5
2A
102
{ACAD_REACTORS
330
C
102
}
330
C
100
AcDbDictionary
281
     1
  3
2dWireframe
350
2F
  3
3D Hidden
350
31
  3
3dWireframe
350
30
  3
Basic
350
32
  3
Brighten
350
36
  3
ColorChange
350
3A
  3
Conceptual
350
34
  3
Dim
350
35
  3
Facepattern
350
39
  3
Flat
350
2B
  3
FlatWithEdges
350
2C
  3
Gouraud
350
2D
  3
GouraudWithEdges
350
2E
  3
Linepattern
350
38
  3
Realistic
350
33
  3
Thicken
350
37
  0
DICTIONARY
  5
329
102
{ACAD_REACTORS
330
C
102
}
330
C
100
AcDbDictionary
281
     1
  3
CANNOSCALE
350
32A
  3
PSOLHEIGHT
350
32E
  3
PSOLWIDTH
350
32D
  0
LAYOUT
  5
1E
102
{ACAD_REACTORS
330
1A
102
}
330
1A
100
AcDbPlotSettings
  1

  2
none_device
  4

  6

 40
0.0
 41
0.0
 42
0.0
 43
0.0
 44
0.0
 45
0.0
 46
0.0
 47
0.0
 48
0.0
 49
0.0
140
0.0
141
0.0
142
1.0
143
1.0
 70
   688
 72
     0
 73
     0
 74
     5
  7

 75
    16
147
1.0
148
0.0
149
0.0
100
AcDbLayout
  1
Layout1
 70
     1
 71
     1
 10
0.0
 20
0.0
 11
3000.0
 21
4500.0
 12
0.0
 22
0.0
 32
0.0
 14
0.0
 24
0.0
 34
0.0
 15
3000.0
 25
4500.0
 35
0.0
146
0.0
 13
0.0
 23
0.0
 33
0.0
 16
1.0
 26
0.0
 36
0.0
 17
0.0
 27
1.0
 37
0.0
 76
     0
330
1B
  0
LAYOUT
  5
22
102
{ACAD_REACTORS
330
1A
102
}
330
1A
100
AcDbPlotSettings
  1

  2
none_device
  4

  6

 40
0.0
 41
0.0
 42
0.0
 43
0.0
 44
0.0
 45
0.0
 46
0.0
 47
0.0
 48
0.0
 49
0.0
140
0.0
141
0.0
142
1.0
143
1.0
 70
  1712
 72
     0
 73
     0
 74
     0
  7

 75
     0
147
1.0
148
0.0
149
0.0
100
AcDbLayout
  1
Model
 70
     1
 71
     0
 10
0.0
 20
0.0
 11
3000.0
 21
4500.0
 12
0.0
 22
0.0
 32
0.0
 14
0.0
 24
0.0
 34
0.0
 15
3000.0
 25
4500.0
 35
0.0
146
0.0
 13
0.0
 23
0.0
 33
0.0
 16
1.0
 26
0.0
 36
0.0
 17
0.0
 27
1.0
 37
0.0
 76
     0
330
1F
331
29
  0
MLINESTYLE
  5
18
102
{ACAD_REACTORS
330
17
102
}
330
17
100
AcDbMlineStyle
  2
Standard
 70
     0
  3

 62
   256
 51
90.0
 52
90.0
 71
     2
 49
0.5
 62
   256
  6
BYLAYER
 49
-0.5
 62
   256
  6
BYLAYER
  0
ACDBPLACEHOLDER
  5
F
102
{ACAD_REACTORS
330
E
102
}
330
E
  0
SCALE
  5
3C
102
{ACAD_REACTORS
330
3B
102
}
330
3B
100
AcDbScale
 70
     0
300
1:1
140
1.0
141
1.0
290
     1
  0
SCALE
  5
3D
102
{ACAD_REACTORS
330
3B
102
}
330
3B
100
AcDbScale
 70
     0
300
1:2
140
1.0
141
2.0
290
     0
  0
SCALE
  5
3E
102
{ACAD_REACTORS
330
3B
102
}
330
3B
100
AcDbScale
 70
     0
300
1:4
140
1.0
141
4.0
290
     0
  0
SCALE
  5
3F
102
{ACAD_REACTORS
330
3B
102
}
330
3B
100
AcDbScale
 70
     0
300
1:5
140
1.0
141
5.0
290
     0
  0
SCALE
  5
40
102
{ACAD_REACTORS
330
3B
102
}
330
3B
100
AcDbScale
 70
     0
300
1:8
140
1.0
141
8.0
290
     0
  0
SCALE
  5
41
102
{ACAD_REACTORS
330
3B
102
}
330
3B
100
AcDbScale
 70
     0
300
1:10
140
1.0
141
10.0
290
     0
  0
SCALE
  5
42
102
{ACAD_REACTORS
330
3B
102
}
330
3B
100
AcDbScale
 70
     0
300
1:16
140
1.0
141
16.0
290
     0
  0
SCALE
  5
43
102
{ACAD_REACTORS
330
3B
102
}
330
3B
100
AcDbScale
 70
     0
300
1:20
140
1.0
141
20.0
290
     0
  0
SCALE
  5
44
102
{ACAD_REACTORS
330
3B
102
}
330
3B
100
AcDbScale
 70
     0
300
1:30
140
1.0
141
30.0
290
     0
  0
SCALE
  5
45
102
{ACAD_REACTORS
330
3B
102
}
330
3B
100
AcDbScale
 70
     0
300
1:40
140
1.0
141
40.0
290
     0
  0
SCALE
  5
46
102
{ACAD_REACTORS
330
3B
102
}
330
3B
100
AcDbScale
 70
     0
300
1:50
140
1.0
141
50.0
290
     0
  0
SCALE
  5
47
102
{ACAD_REACTORS
330
3B
102
}
330
3B
100
AcDbScale
 70
     0
300
1:100
140
1.0
141
100.0
290
     0
  0
SCALE
  5
48
102
{ACAD_REACTORS
330
3B
102
}
330
3B
100
AcDbScale
 70
     0
300
2:1
140
2.0
141
1.0
290
     0
  0
SCALE
  5
49
102
{ACAD_REACTORS
330
3B
102
}
330
3B
100
AcDbScale
 70
     0
300
4:1
140
4.0
141
1.0
290
     0
  0
SCALE
  5
4A
102
{ACAD_REACTORS
330
3B
102
}
330
3B
100
AcDbScale
 70
     0
300
8:1
140
8.0
141
1.0
290
     0
  0
SCALE
  5
4B
102
{ACAD_REACTORS
330
3B
102
}
330
3B
100
AcDbScale
 70
     0
300
10:1
140
10.0
141
1.0
290
     0
  0
SCALE
  5
4C
102
{ACAD_REACTORS
330
3B
102
}
330
3B
100
AcDbScale
 70
     0
300
100:1
140
100.0
141
1.0
290
     0
  0
SCALE
  5
4D
102
{ACAD_REACTORS
330
3B
102
}
330
3B
100
AcDbScale
 70
     0
300
1/128" = 1'-0"
140
0.0078125
141
12.0
290
     0
  0
SCALE
  5
4E
102
{ACAD_REACTORS
330
3B
102
}
330
3B
100
AcDbScale
 70
     0
300
1/64" = 1'-0"
140
0.015625
141
12.0
290
     0
  0
SCALE
  5
4F
102
{ACAD_REACTORS
330
3B
102
}
330
3B
100
AcDbScale
 70
     0
300
1/32" = 1'-0"
140
0.03125
141
12.0
290
     0
  0
SCALE
  5
50
102
{ACAD_REACTORS
330
3B
102
}
330
3B
100
AcDbScale
 70
     0
300
1/16" = 1'-0"
140
0.0625
141
12.0
290
     0
  0
SCALE
  5
51
102
{ACAD_REACTORS
330
3B
102
}
330
3B
100
AcDbScale
 70
     0
300
3/32" = 1'-0"
140
0.09375
141
12.0
290
     0
  0
SCALE
  5
52
102
{ACAD_REACTORS
330
3B
102
}
330
3B
100
AcDbScale
 70
     0
300
1/8" = 1'-0"
140
0.125
141
12.0
290
     0
  0
SCALE
  5
53
102
{ACAD_REACTORS
330
3B
102
}
330
3B
100
AcDbScale
 70
     0
300
3/16" = 1'-0"
140
0.1875
141
12.0
290
     0
  0
SCALE
  5
54
102
{ACAD_REACTORS
330
3B
102
}
330
3B
100
AcDbScale
 70
     0
300
1/4" = 1'-0"
140
0.25
141
12.0
290
     0
  0
SCALE
  5
55
102
{ACAD_REACTORS
330
3B
102
}
330
3B
100
AcDbScale
 70
     0
300
3/8" = 1'-0"
140
0.375
141
12.0
290
     0
  0
SCALE
  5
56
102
{ACAD_REACTORS
330
3B
102
}
330
3B
100
AcDbScale
 70
     0
300
1/2" = 1'-0"
140
0.5
141
12.0
290
     0
  0
SCALE
  5
57
102
{ACAD_REACTORS
330
3B
102
}
330
3B
100
AcDbScale
 70
     0
300
3/4" = 1'-0"
140
0.75
141
12.0
290
     0
  0
SCALE
  5
58
102
{ACAD_REACTORS
330
3B
102
}
330
3B
100
AcDbScale
 70
     0
300
1" = 1'-0"
140
1.0
141
12.0
290
     0
  0
SCALE
  5
59
102
{ACAD_REACTORS
330
3B
102
}
330
3B
100
AcDbScale
 70
     0
300
1-1/2" = 1'-0"
140
1.5
141
12.0
290
     0
  0
SCALE
  5
5A
102
{ACAD_REACTORS
330
3B
102
}
330
3B
100
AcDbScale
 70
     0
300
3" = 1'-0"
140
3.0
141
12.0
290
     0
  0
SCALE
  5
5B
102
{ACAD_REACTORS
330
3B
102
}
330
3B
100
AcDbScale
 70
     0
300
6" = 1'-0"
140
6.0
141
12.0
290
     0
  0
SCALE
  5
5C
102
{ACAD_REACTORS
330
3B
102
}
330
3B
100
AcDbScale
 70
     0
300
1'-0" = 1'-0"
140
12.0
141
12.0
290
     0
  0
VISUALSTYLE
  5
2F
102
{ACAD_REACTORS
330
2A
102
}
330
2A
100
AcDbVisualStyle
  2
2dWireframe
 70
     4
 71
     0
 72
     2
 73
     0
 90
        0
 40
-0.6
 41
-30.0
 62
     5
 63
     7
 74
     1
 91
        4
 64
     7
 65
   257
 75
     1
175
     1
 42
1.0
 92
        0
 66
   257
 43
1.0
 76
     1
 77
     6
 78
     2
 67
     7
 79
     5
170
     0
171
     0
290
     0
174
     0
 93
        1
 44
0.0
173
     0
291
     0
 45
0.0
1001
ACAD
1000
AcDbSavedByObjectVersion
1070
     0
  0
VISUALSTYLE
  5
31
102
{ACAD_REACTORS
330
2A
102
}
330
2A
100
AcDbVisualStyle
  2
3D Hidden
 70
     6
 71
     1
 72
     2
 73
     2
 90
        0
 40
-0.6
 41
-30.0
 62
     5
 63
     7
 74
     2
 91
        2
 64
     7
 65
   257
 75
     2
175
     1
 42
40.0
 92
        0
 66
   257
 43
1.0
 76
     1
 77
     6
 78
     2
 67
     7
 79
     3
170
     0
171
     0
290
     0
174
     0
 93
        1
 44
0.0
173
     0
291
     0
 45
0.0
1001
ACAD
1000
AcDbSavedByObjectVersion
1070
     0
  0
VISUALSTYLE
  5
30
102
{ACAD_REACTORS
330
2A
102
}
330
2A
100
AcDbVisualStyle
  2
3dWireframe
 70
     5
 71
     0
 72
     2
 73
     0
 90
        0
 40
-0.6
 41
-30.0
 62
     5
 63
     7
 74
     1
 91
        4
 64
     7
 65
   257
 75
     1
175
     1
 42
1.0
 92
        0
 66
   257
 43
1.0
 76
     1
 77
     6
 78
     2
 67
     7
 79
     5
170
     0
171
     0
290
     0
174
     0
 93
        1
 44
0.0
173
     0
291
     0
 45
0.0
1001
ACAD
1000
AcDbSavedByObjectVersion
1070
     0
  0
VISUALSTYLE
  5
32
102
{ACAD_REACTORS
330
2A
102
}
330
2A
100
AcDbVisualStyle
  2
Basic
 70
     7
 71
     1
 72
     0
 73
     1
 90
        0
 40
-0.6
 41
-30.0
 62
     5
 63
     7
 74
     0
 91
        4
 64
     7
 65
   257
 75
     1
175
     1
 42
1.0
 92
        8
 66
     7
 43
1.0
 76
     1
 77
     6
 78
     2
 67
     7
 79
     5
170
     0
171
     0
290
     0
174
     0
 93
        1
 44
0.0
173
     0
291
     1
 45
0.0
1001
ACAD
1000
AcDbSavedByObjectVersion
1070
     0
  0
VISUALSTYLE
  5
36
102
{ACAD_REACTORS
330
2A
102
}
330
2A
100
AcDbVisualStyle
  2
Brighten
 70
    12
 71
     2
 72
     2
 73
     0
 90
        0
 40
-0.6
 41
-30.0
 62
     5
 63
     7
 74
     1
 91
        4
 64
     7
 65
   257
 75
     1
175
     1
 42
1.0
 92
        8
 66
     7
 43
1.0
 76
     1
 77
     6
 78
     2
 67
     7
 79
     5
170
     0
171
     0
290
     0
174
     0
 93
        1
 44
50.0
173
     0
291
     1
 45
0.0
1001
ACAD
1000
AcDbSavedByObjectVersion
1070
     0
  0
VISUALSTYLE
  5
3A
102
{ACAD_REACTORS
330
2A
102
}
330
2A
100
AcDbVisualStyle
  2
ColorChange
 70
    16
 71
     2
 72
     2
 73
     3
 90
        0
 40
-0.6
 41
-30.0
 62
     5
 63
     8
 74
     1
 91
        4
 64
     7
 65
   257
 75
     1
175
     1
 42
1.0
 92
        8
 66
     8
 43
1.0
 76
     1
 77
     6
 78
     2
 67
     7
 79
     5
170
     0
171
     0
290
     0
174
     0
 93
        1
 44
0.0
173
     0
291
     1
 45
0.0
1001
ACAD
1000
AcDbSavedByObjectVersion
1070
     0
  0
VISUALSTYLE
  5
34
102
{ACAD_REACTORS
330
2A
102
}
330
2A
100
AcDbVisualStyle
  2
Conceptual
 70
     9
 71
     3
 72
     2
 73
     0
 90
        0
 40
-0.6
 41
-30.0
 62
     5
 63
     7
 74
     2
 91
        2
 64
     7
 65
   257
 75
     1
175
     1
 42
40.0
 92
        8
 66
     7
 43
1.0
 76
     1
 77
     6
 78
     2
 67
     7
 79
     3
170
     0
171
     0
290
     0
174
     0
 93
        1
 44
0.0
173
     0
291
     0
 45
0.0
1001
ACAD
1000
AcDbSavedByObjectVersion
1070
     0
  0
VISUALSTYLE
  5
35
102
{ACAD_REACTORS
330
2A
102
}
330
2A
100
AcDbVisualStyle
  2
Dim
 70
    11
 71
     2
 72
     2
 73
     0
 90
        0
 40
-0.6
 41
-30.0
 62
     5
 63
     7
 74
     1
 91
        4
 64
     7
 65
   257
 75
     1
175
     1
 42
1.0
 92
        8
 66
     7
 43
1.0
 76
     1
 77
     6
 78
     2
 67
     7
 79
     5
170
     0
171
     0
290
     0
174
     0
 93
        1
 44
-50.0
173
     0
291
     1
 45
0.0
1001
ACAD
1000
AcDbSavedByObjectVersion
1070
     0
  0
VISUALSTYLE
  5
39
102
{ACAD_REACTORS
330
2A
102
}
330
2A
100
AcDbVisualStyle
  2
Facepattern
 70
    15
 71
     2
 72
     2
 73
     0
 90
        0
 40
-0.6
 41
-30.0
 62
     5
 63
     7
 74
     1
 91
        4
 64
     7
 65
   257
 75
     1
175
     1
 42
1.0
 92
        8
 66
     7
 43
1.0
 76
     1
 77
     6
 78
     2
 67
     7
 79
     5
170
     0
171
     0
290
     0
174
     0
 93
        1
 44
0.0
173
     0
291
     1
 45
0.0
1001
ACAD
1000
AcDbSavedByObjectVersion
1070
     0
  0
VISUALSTYLE
  5
2B
102
{ACAD_REACTORS
330
2A
102
}
330
2A
100
AcDbVisualStyle
  2
Flat
 70
     0
 71
     2
 72
     1
 73
     1
 90
        2
 40
-0.6
 41
30.0
 62
     5
 63
     7
 74
     0
 91
        4
 64
     7
 65
   257
 75
     1
175
     1
 42
1.0
 92
        8
 66
     7
 43
1.0
 76
     1
 77
     6
 78
     2
 67
     7
 79
     5
170
     0
171
     0
290
     0
174
     0
 93
       13
 44
0.0
173
     0
291
     1
 45
0.0
1001
ACAD
1000
AcDbSavedByObjectVersion
1070
     0
  0
VISUALSTYLE
  5
2C
102
{ACAD_REACTORS
330
2A
102
}
330
2A
100
AcDbVisualStyle
  2
FlatWithEdges
 70
     1
 71
     2
 72
     1
 73
     1
 90
        2
 40
-0.6
 41
30.0
 62
     5
 63
     7
 74
     1
 91
        4
 64
     7
 65
   257
 75
     1
175
     1
 42
1.0
 92
        0
 66
   257
 43
1.0
 76
     1
 77
     6
 78
     2
 67
     7
 79
     5
170
     0
171
     0
290
     0
174
     0
 93
       13
 44
0.0
173
     0
291
     1
 45
0.0
1001
ACAD
1000
AcDbSavedByObjectVersion
1070
     0
  0
VISUALSTYLE
  5
2D
102
{ACAD_REACTORS
330
2A
102
}
330
2A
100
AcDbVisualStyle
  2
Gouraud
 70
     2
 71
     2
 72
     2
 73
     1
 90
        2
 40
-0.6
 41
30.0
 62
     5
 63
     7
 74
     0
 91
        4
 64
     7
 65
   257
 75
     1
175
     1
 42
1.0
 92
        0
 66
     7
 43
1.0
 76
     1
 77
     6
 78
     2
 67
     7
 79
     5
170
     0
171
     0
290
     0
174
     0
 93
       13
 44
0.0
173
     0
291
     1
 45
0.0
1001
ACAD
1000
AcDbSavedByObjectVersion
1070
     0
  0
VISUALSTYLE
  5
2E
102
{ACAD_REACTORS
330
2A
102
}
330
2A
100
AcDbVisualStyle
  2
GouraudWithEdges
 70
     3
 71
     2
 72
     2
 73
     1
 90
        2
 40
-0.6
 41
30.0
 62
     5
 63
     7
 74
     1
 91
        4
 64
     7
 65
   257
 75
     1
175
     1
 42
1.0
 92
        0
 66
   257
 43
1.0
 76
     1
 77
     6
 78
     2
 67
     7
 79
     5
170
     0
171
     0
290
     0
174
     0
 93
       13
 44
0.0
173
     0
291
     1
 45
0.0
1001
ACAD
1000
AcDbSavedByObjectVersion
1070
     0
  0
VISUALSTYLE
  5
38
102
{ACAD_REACTORS
330
2A
102
}
330
2A
100
AcDbVisualStyle
  2
Linepattern
 70
    14
 71
     2
 72
     2
 73
     0
 90
        0
 40
-0.6
 41
-30.0
 62
     5
 63
     7
 74
     1
 91
        4
 64
     7
 65
   257
 75
     7
175
     7
 42
1.0
 92
        8
 66
     7
 43
1.0
 76
     1
 77
     6
 78
     2
 67
     7
 79
     5
170
     0
171
     0
290
     0
174
     0
 93
        1
 44
0.0
173
     0
291
     1
 45
0.0
1001
ACAD
1000
AcDbSavedByObjectVersion
1070
     0
  0
VISUALSTYLE
  5
33
102
{ACAD_REACTORS
330
2A
102
}
330
2A
100
AcDbVisualStyle
  2
Realistic
 70
     8
 71
     2
 72
     2
 73
     0
 90
        0
 40
-0.6
 41
-30.0
 62
     5
 63
     7
 74
     1
 91
        0
 64
     7
 65
   257
 75
     1
175
     1
 42
1.0
 92
        8
 66
     8
 43
1.0
 76
     1
 77
     6
 78
     2
 67
     7
 79
     5
170
     0
171
     0
290
     0
174
     0
 93
       13
 44
0.0
173
     0
291
     0
 45
0.0
1001
ACAD
1000
AcDbSavedByObjectVersion
1070
     0
  0
VISUALSTYLE
  5
37
102
{ACAD_REACTORS
330
2A
102
}
330
2A
100
AcDbVisualStyle
  2
Thicken
 70
    13
 71
     2
 72
     2
 73
     0
 90
        0
 40
-0.6
 41
-30.0
 62
     5
 63
     7
 74
     1
 91
        4
 64
     7
 65
   257
 75
     1
175
     1
 42
1.0
 92
       12
 66
     7
 43
1.0
 76
     1
 77
     6
 78
     2
 67
     7
 79
     5
170
     0
171
     0
290
     0
174
     0
 93
        1
 44
0.0
173
     0
291
     1
 45
0.0
1001
ACAD
1000
AcDbSavedByObjectVersion
1070
     0
  0
DICTIONARYVAR
  5
32A
102
{ACAD_REACTORS
330
329
102
}
330
329
100
DictionaryVariables
280
     0
  1
1:1
  0
DICTIONARYVAR
  5
32E
102
{ACAD_REACTORS
330
329
102
}
330
329
100
DictionaryVariables
280
     0
  1
80.000000
  0
DICTIONARYVAR
  5
32D
102
{ACAD_REACTORS
330
329
102
}
330
329
100
DictionaryVariables
280
     0
  1
5.000000
  0
ENDSEC
  0
EOF
