  0
SECTION
  2
HEADER
  9
$ACADVER
  1
AC1009
  9
$DWGCODEPAGE
  3
ansi_1252
  9
$INSBASE
 10
0.0
 20
0.0
 30
0.0
  9
$EXTMIN
 10
1.000000000000000E+20
 20
1.000000000000000E+20
 30
1.000000000000000E+20
  9
$EXTMAX
 10
-1.000000000000000E+20
 20
-1.000000000000000E+20
 30
-1.000000000000000E+20
  9
$LIMMIN
 10
0.0
 20
0.0
  9
$LIMMAX
 10
12.0
 20
9.0
  9
$ORTHOMODE
 70
     0
  9
$REGENMODE
 70
     1
  9
$FILLMODE
 70
     1
  9
$QTEXTMODE
 70
     0
  9
$MIRRTEXT
 70
     1
  9
$DRAGMODE
 70
     2
  9
$LTSCALE
 40
1.0
  9
$OSMODE
 70
    37
  9
$ATTMODE
 70
     1
  9
$TEXTSIZE
 40
0.2
  9
$TRACEWID
 40
0.05
  9
$TEXTSTYLE
  7
STANDARD
  9
$CLAYER
  8
0
  9
$CELTYPE
  6
BYLAYER
  9
$CECOLOR
 62
   256
  9
$DIMSCALE
 40
1.0
  9
$DIMASZ
 40
0.18
  9
$DIMEXO
 40
0.0625
  9
$DIMDLI
 40
0.38
  9
$DIMRND
 40
0.0
  9
$DIMDLE
 40
0.0
  9
$DIMEXE
 40
0.18
  9
$DIMTP
 40
0.0
  9
$DIMTM
 40
0.0
  9
$DIMTXT
 40
0.18
  9
$DIMCEN
 40
0.09
  9
$DIMTSZ
 40
0.0
  9
$DIMTOL
 70
     0
  9
$DIMLIM
 70
     0
  9
$DIMTIH
 70
     1
  9
$DIMTOH
 70
     1
  9
$DIMSE1
 70
     0
  9
$DIMSE2
 70
     0
  9
$DIMTAD
 70
     0
  9
$DIMZIN
 70
     0
  9
$DIMBLK
  1

  9
$DIMASO
 70
     1
  9
$DIMSHO
 70
     1
  9
$DIMPOST
  1

  9
$DIMAPOST
  1

  9
$DIMALT
 70
     0
  9
$DIMALTD
 70
     2
  9
$DIMALTF
 40
25.4
  9
$DIMLFAC
 40
1.0
  9
$DIMTOFL
 70
     0
  9
$DIMTVP
 40
0.0
  9
$DIMTIX
 70
     0
  9
$DIMSOXD
 70
     0
  9
$DIMSAH
 70
     0
  9
$DIMBLK1
  1

  9
$DIMBLK2
  1

  9
$DIMSTYLE
  2
STANDARD
  9
$DIMCLRD
 70
     0
  9
$DIMCLRE
 70
     0
  9
$DIMCLRT
 70
     0
  9
$DIMTFAC
 40
1.0
  9
$DIMGAP
 40
0.09
  9
$LUNITS
 70
     2
  9
$LUPREC
 70
     4
  9
$SKETCHINC
 40
0.1
  9
$FILLETRAD
 40
0.5
  9
$AUNITS
 70
     0
  9
$AUPREC
 70
     0
  9
$MENU
  1
.
  9
$ELEVATION
 40
0.0
  9
$PELEVATION
 40
0.0
  9
$THICKNESS
 40
0.0
  9
$LIMCHECK
 70
     0
  9
$CHAMFERA
 40
0.5
  9
$CHAMFERB
 40
0.5
  9
$SKPOLY
 70
     0
  9
$TDCREATE
 40
2456003.378882245
  9
$TDUPDATE
 40
2456003.378882245
  9
$TDINDWG
 40
0.0000000116
  9
$TDUSRTIMER
 40
0.0000000116
  9
$USRTIMER
 70
     1
  9
$ANGBASE
 50
0.0
  9
$ANGDIR
 70
     0
  9
$PDMODE
 70
     0
  9
$PDSIZE
 40
0.0
  9
$PLINEWID
 40
0.0
  9
$COORDS
 70
     1
  9
$SPLFRAME
 70
     0
  9
$SPLINETYPE
 70
     6
  9
$SPLINESEGS
 70
     8
  9
$ATTDIA
 70
     0
  9
$ATTREQ
 70
     1
  9
$HANDLING
 70
     1
  9
$HANDSEED
  5
6F2
  9
$SURFTAB1
 70
     6
  9
$SURFTAB2
 70
     6
  9
$SURFTYPE
 70
     6
  9
$SURFU
 70
     6
  9
$SURFV
 70
     6
  9
$UCSNAME
  2

  9
$UCSORG
 10
0.0
 20
0.0
 30
0.0
  9
$UCSXDIR
 10
1.0
 20
0.0
 30
0.0
  9
$UCSYDIR
 10
0.0
 20
1.0
 30
0.0
  9
$PUCSNAME
  2

  9
$PUCSORG
 10
0.0
 20
0.0
 30
0.0
  9
$PUCSXDIR
 10
1.0
 20
0.0
 30
0.0
  9
$PUCSYDIR
 10
0.0
 20
1.0
 30
0.0
  9
$USERI1
 70
     0
  9
$USERI2
 70
     0
  9
$USERI3
 70
     0
  9
$USERI4
 70
     0
  9
$USERI5
 70
     0
  9
$USERR1
 40
0.0
  9
$USERR2
 40
0.0
  9
$USERR3
 40
0.0
  9
$USERR4
 40
0.0
  9
$USERR5
 40
0.0
  9
$WORLDVIEW
 70
     1
  9
$SHADEDGE
 70
     3
  9
$SHADEDIF
 70
    70
  9
$TILEMODE
 70
     1
  9
$MAXACTVP
 70
    64
  9
$PLIMCHECK
 70
     0
  9
$PEXTMIN
 10
1.000000000000000E+20
 20
1.000000000000000E+20
 30
1.000000000000000E+20
  9
$PEXTMAX
 10
-1.000000000000000E+20
 20
-1.000000000000000E+20
 30
-1.000000000000000E+20
  9
$PLIMMIN
 10
0.0
 20
0.0
  9
$PLIMMAX
 10
12.0
 20
9.0
  9
$UNITMODE
 70
     0
  9
$VISRETAIN
 70
     1
  9
$PLINEGEN
 70
     0
  9
$PSLTSCALE
 70
     1
  0
ENDSEC
  0
SECTION
  2
TABLES
  0
TABLE
  2
VPORT
 70
     1
  0
VPORT
  2
*ACTIVE
 70
     0
 10
0.0
 20
0.0
 11
1.0
 21
1.0
 12
0.0
 22
0.0
 13
0.0
 23
0.0
 14
0.5
 24
0.5
 15
0.5
 25
0.5
 16
1023.286254882812
 26
-1023.286254882812
 36
1024.637451171875
 17
-12.2509765625
 27
9.385009765625
 37
0.0
 40
643.8508334625402
 41
1.972972972850329
 42
50.0
 43
0.0
 44
0.0
 50
0.0
 51
0.0
 71
     0
 72
   100
 73
     1
 74
     3
 75
     0
 76
     0
 77
     0
 78
     0
  0
ENDTAB
  0
TABLE
  2
LTYPE
 70
     1
  0
LTYPE
  2
CONTINUOUS
 70
     0
  3
Solid line
 72
    65
 73
     0
 40
0.0
  0
ENDTAB
  0
TABLE
  2
LAYER
 70
     2
  0
LAYER
  2
0
 70
     0
 62
     7
  6
CONTINUOUS
  0
LAYER
  2
LAYER_1
 70
     0
 62
     7
  6
CONTINUOUS
  0
ENDTAB
  0
TABLE
  2
STYLE
 70
     1
  0
STYLE
  2
STANDARD
 70
     0
 40
0.0
 41
1.0
 50
0.0
 71
     0
 42
0.2
  3
txt
  4

  0
ENDTAB
  0
TABLE
  2
VIEW
 70
     0
  0
ENDTAB
  0
TABLE
  2
UCS
 70
     0
  0
ENDTAB
  0
TABLE
  2
APPID
 70
     1
  0
APPID
  2
ACAD
 70
     0
  0
ENDTAB
  0
TABLE
  2
DIMSTYLE
 70
     1
  0
DIMSTYLE
  2
STANDARD
 70
     0
  3

  4

  5

  6

  7

 40
1.0
 41
0.18
 42
0.0625
 43
0.38
 44
0.18
 45
0.0
 46
0.0
 47
0.0
 48
0.0
140
0.18
141
0.09
142
0.0
143
25.4
144
1.0
145
0.0
146
1.0
147
0.09
 71
     0
 72
     0
 73
     1
 74
     1
 75
     0
 76
     0
 77
     0
 78
     0
170
     0
171
     2
172
     0
173
     0
174
     0
175
     0
176
     0
177
     0
178
     0
  0
ENDTAB
  0
ENDSEC
  0
SECTION
  2
BLOCKS
  0
BLOCK
  8
0
  2
$MODEL_SPACE
 70
     0
 10
0.0
 20
0.0
 30
0.0
  3
$MODEL_SPACE
  1

  0
ENDBLK
  5
21
  8
0
  0
BLOCK
 67
     1
  8
0
  2
$PAPER_SPACE
 70
     0
 10
0.0
 20
0.0
 30
0.0
  3
$PAPER_SPACE
  1

  0
ENDBLK
  5
1D
 67
     1
  8
0
  0
BLOCK
  8
0
  2
M50150-002
 70
     0
 10
0.0
 20
0.0
 30
0.0
  3
M50150-002
  1

  0
POLYLINE
  5
3C
  8
0
 62
   123
 66
     1
 10
0.0
 20
0.0
 30
0.0
 70
    64
 71
    33
 72
    31
  0
VERTEX
  5
3D
  8
0
 10
0.0807641744613647
 20
-5.899446964263916
 30
460.3999938964844
 70
   192
  0
VERTEX
  5
3E
  8
0
 10
-3.514312744140625
 20
-4.739156723022461
 30
460.3999938964844
 70
   192
  0
VERTEX
  5
3F
  8
0
 10
-1.639684557914734
 20
-5.667577266693115
 30
460.3999938964844
 70
   192
  0
VERTEX
  5
40
  8
0
 10
3.616845369338989
 20
-4.661376476287842
 30
460.3999938964844
 70
   192
  0
VERTEX
  5
41
  8
0
 10
0.0000000000000004
 20
5.900000095367432
 30
460.3999938964844
 70
   192
  0
VERTEX
  5
42
  8
0
 10
-1.738547801971436
 20
5.638036251068115
 30
460.3999938964844
 70
   192
  0
VERTEX
  5
43
  8
0
 10
-5.899454593658447
 20
-0.0802151709794998
 30
460.3999938964844
 70
   192
  0
VERTEX
  5
44
  8
0
 10
-5.179028511047363
 20
-2.826245307922363
 30
460.3999938964844
 70
   192
  0
VERTEX
  5
45
  8
0
 10
-5.249711513519287
 20
2.692680358886719
 30
460.3999938964844
 70
   192
  0
VERTEX
  5
46
  8
0
 10
1.738547801971436
 20
-5.638036251068115
 30
460.3999938964844
 70
   192
  0
VERTEX
  5
47
  8
0
 10
-3.616845369338989
 20
4.661376476287842
 30
460.3999938964844
 70
   192
  0
VERTEX
  5
48
  8
0
 10
5.899454593658447
 20
0.0802151709794998
 30
460.3999938964844
 70
   192
  0
VERTEX
  5
49
  8
0
 10
5.249711513519287
 20
-2.692680358886719
 30
460.3999938964844
 70
   192
  0
VERTEX
  5
4A
  8
0
 10
3.514312744140625
 20
4.739156723022461
 30
460.3999938964844
 70
   192
  0
VERTEX
  5
4B
  8
0
 10
5.179028511047363
 20
2.826245307922363
 30
460.3999938964844
 70
   192
  0
VERTEX
  5
4C
  8
0
 10
1.639684557914734
 20
5.667577266693115
 30
460.3999938964844
 70
   192
  0
VERTEX
  5
4D
  8
0
 10
0.0000000000000007
 20
6.0
 30
462.0
 70
   192
  0
VERTEX
  5
4E
  8
0
 10
-7.0
 20
15.0
 30
460.0
 70
   192
  0
VERTEX
  5
4F
  8
0
 10
-2.778577327728271
 20
5.317848205566406
 30
462.0
 70
   192
  0
VERTEX
  5
50
  8
0
 10
7.0
 20
-15.0
 30
460.0
 70
   192
  0
VERTEX
  5
51
  8
0
 10
1.5
 20
-5.809474945068359
 30
462.0
 70
   192
  0
VERTEX
  5
52
  8
0
 10
-7.0
 20
-15.0
 30
461.5
 70
   192
  0
VERTEX
  5
53
  8
0
 10
7.5
 20
14.5
 30
460.0
 70
   192
  0
VERTEX
  5
54
  8
0
 10
2.778577327728271
 20
5.317848205566406
 30
462.0
 70
   192
  0
VERTEX
  5
55
  8
0
 10
-5.625576019287109
 20
-2.08635950088501
 30
462.0
 70
   192
  0
VERTEX
  5
56
  8
0
 10
-4.019807815551758
 20
-4.454339981079102
 30
462.0
 70
   192
  0
VERTEX
  5
57
  8
0
 10
-1.5
 20
-5.809474945068359
 30
460.7999877929688
 70
   192
  0
VERTEX
  5
58
  8
0
 10
-5.952178001403809
 20
0.7560257315635681
 30
462.0
 70
   192
  0
VERTEX
  5
59
  8
0
 10
-4.925350666046143
 20
3.42650294303894
 30
462.0
 70
   192
  0
VERTEX
  5
5A
  8
0
 10
5.952178001403809
 20
0.7560257315635681
 30
462.0
 70
   192
  0
VERTEX
  5
5B
  8
0
 10
5.625576019287109
 20
-2.08635950088501
 30
462.0
 70
   192
  0
VERTEX
  5
5C
  8
0
 10
4.925350666046143
 20
3.42650294303894
 30
462.0
 70
   192
  0
VERTEX
  5
5D
  8
0
 10
4.019807815551758
 20
-4.454339981079102
 30
462.0
 70
   192
  0
VERTEX
  5
5E
  8
0
 62
   123
 10
0.0
 20
0.0
 30
0.0
 70
   128
 71
     3
 72
     2
 73
     1
  0
VERTEX
  5
5F
  8
0
 62
   123
 10
0.0
 20
0.0
 30
0.0
 70
   128
 71
     6
 72
     5
 73
     4
  0
VERTEX
  5
60
  8
0
 62
   123
 10
0.0
 20
0.0
 30
0.0
 70
   128
 71
     2
 72
     8
 73
     7
  0
VERTEX
  5
61
  8
0
 62
   123
 10
0.0
 20
0.0
 30
0.0
 70
   128
 71
     7
 72
     9
 73
     1
  0
VERTEX
  5
62
  8
0
 62
   123
 10
0.0
 20
0.0
 30
0.0
 70
   128
 71
     1
 72
     2
 73
     7
  0
VERTEX
  5
63
  8
0
 62
   123
 10
0.0
 20
0.0
 30
0.0
 70
   128
 71
     4
 72
    10
 73
     6
  0
VERTEX
  5
64
  8
0
 62
   123
 10
0.0
 20
0.0
 30
0.0
 70
   128
 71
    11
 72
     1
 73
     9
  0
VERTEX
  5
65
  8
0
 62
   123
 10
0.0
 20
0.0
 30
0.0
 70
   128
 71
    13
 72
     5
 73
    12
  0
VERTEX
  5
66
  8
0
 62
   123
 10
0.0
 20
0.0
 30
0.0
 70
   128
 71
    15
 72
    12
 73
    14
  0
VERTEX
  5
67
  8
0
 62
   123
 10
0.0
 20
0.0
 30
0.0
 70
   128
 71
    16
 72
    14
 73
     5
  0
VERTEX
  5
68
  8
0
 62
   123
 10
0.0
 20
0.0
 30
0.0
 70
   128
 71
     5
 72
    13
 73
     4
  0
VERTEX
  5
69
  8
0
 62
   123
 10
0.0
 20
0.0
 30
0.0
 70
   128
 71
     5
 72
    14
 73
    12
  0
VERTEX
  5
6A
  8
0
 62
   123
 10
0.0
 20
0.0
 30
0.0
 70
   128
 71
    10
 72
    11
 73
     6
  0
VERTEX
  5
6B
  8
0
 62
   123
 10
0.0
 20
0.0
 30
0.0
 70
   128
 71
    10
 72
     1
 73
    11
  0
VERTEX
  5
6C
  8
0
 62
   123
 10
0.0
 20
0.0
 30
0.0
 70
   128
 71
    19
 72
    18
 73
    17
  0
VERTEX
  5
6D
  8
0
 62
   123
 10
0.0
 20
0.0
 30
0.0
 70
   128
 71
    22
 72
    21
 73
    20
  0
VERTEX
  5
6E
  8
0
 62
   123
 10
0.0
 20
0.0
 30
0.0
 70
   128
 71
    24
 72
    17
 73
    23
  0
VERTEX
  5
6F
  8
0
 62
   123
 10
0.0
 20
0.0
 30
0.0
 70
   128
 71
    26
 72
    22
 73
    25
  0
VERTEX
  5
70
  8
0
 62
   123
 10
0.0
 20
0.0
 30
0.0
 70
   128
 71
    26
 72
    27
 73
    22
  0
VERTEX
  5
71
  8
0
 62
   123
 10
0.0
 20
0.0
 30
0.0
 70
   128
 71
    28
 72
    22
 73
    18
  0
VERTEX
  5
72
  8
0
 62
   123
 10
0.0
 20
0.0
 30
0.0
 70
   128
 71
    28
 72
    25
 73
    22
  0
VERTEX
  5
73
  8
0
 62
   123
 10
0.0
 20
0.0
 30
0.0
 70
   128
 71
    19
 72
    29
 73
    18
  0
VERTEX
  5
74
  8
0
 62
   123
 10
0.0
 20
0.0
 30
0.0
 70
   128
 71
    29
 72
    28
 73
    18
  0
VERTEX
  5
75
  8
0
 62
   123
 10
0.0
 20
0.0
 30
0.0
 70
   128
 71
    31
 72
    30
 73
    20
  0
VERTEX
  5
76
  8
0
 62
   123
 10
0.0
 20
0.0
 30
0.0
 70
   128
 71
    23
 72
    17
 73
    18
  0
VERTEX
  5
77
  8
0
 62
   123
 10
0.0
 20
0.0
 30
0.0
 70
   128
 71
    32
 72
    23
 73
    30
  0
VERTEX
  5
78
  8
0
 62
   123
 10
0.0
 20
0.0
 30
0.0
 70
   128
 71
    32
 72
    24
 73
    23
  0
VERTEX
  5
79
  8
0
 62
   123
 10
0.0
 20
0.0
 30
0.0
 70
   128
 71
    30
 72
    23
 73
    20
  0
VERTEX
  5
7A
  8
0
 62
   123
 10
0.0
 20
0.0
 30
0.0
 70
   128
 71
    27
 72
    21
 73
    22
  0
VERTEX
  5
7B
  8
0
 62
   123
 10
0.0
 20
0.0
 30
0.0
 70
   128
 71
    33
 72
    31
 73
    20
  0
VERTEX
  5
7C
  8
0
 62
   123
 10
0.0
 20
0.0
 30
0.0
 70
   128
 71
    21
 72
    33
 73
    20
  0
SEQEND
  5
7D
  8
0
 62
   123
  0
ENDBLK
  5
81
  8
0
  0
BLOCK
  8
0
  2
M50150-002_1_
 70
     0
 10
0.0
 20
0.0
 30
0.0
  3
M50150-002_1_
  1

  0
POLYLINE
  5
83
  8
0
 62
   123
 66
     1
 10
0.0
 20
0.0
 30
0.0
 70
    64
 71
    33
 72
    31
  0
VERTEX
  5
84
  8
0
 10
0.0807641744613647
 20
5.899446964263916
 30
-460.3999938964844
 70
   192
  0
VERTEX
  5
85
  8
0
 10
-3.514312744140625
 20
4.739156723022461
 30
-460.3999938964844
 70
   192
  0
VERTEX
  5
86
  8
0
 10
-1.639684557914734
 20
5.667577266693115
 30
-460.3999938964844
 70
   192
  0
VERTEX
  5
87
  8
0
 10
3.616845369338989
 20
4.661376476287842
 30
-460.3999938964844
 70
   192
  0
VERTEX
  5
88
  8
0
 10
0.0000000000000011
 20
-5.900000095367432
 30
-460.3999938964844
 70
   192
  0
VERTEX
  5
89
  8
0
 10
-1.738547801971436
 20
-5.638036251068115
 30
-460.3999938964844
 70
   192
  0
VERTEX
  5
8A
  8
0
 10
-5.899454593658447
 20
0.0802151709794998
 30
-460.3999938964844
 70
   192
  0
VERTEX
  5
8B
  8
0
 10
-5.179028511047363
 20
2.826245307922363
 30
-460.3999938964844
 70
   192
  0
VERTEX
  5
8C
  8
0
 10
-5.249711513519287
 20
-2.692680358886719
 30
-460.3999938964844
 70
   192
  0
VERTEX
  5
8D
  8
0
 10
1.738547801971436
 20
5.638036251068115
 30
-460.3999938964844
 70
   192
  0
VERTEX
  5
8E
  8
0
 10
-3.616845369338989
 20
-4.661376476287842
 30
-460.3999938964844
 70
   192
  0
VERTEX
  5
8F
  8
0
 10
5.899454593658447
 20
-0.0802151709794998
 30
-460.3999938964844
 70
   192
  0
VERTEX
  5
90
  8
0
 10
5.249711513519287
 20
2.692680358886719
 30
-460.3999938964844
 70
   192
  0
VERTEX
  5
91
  8
0
 10
3.514312744140625
 20
-4.739156723022461
 30
-460.3999938964844
 70
   192
  0
VERTEX
  5
92
  8
0
 10
5.179028511047363
 20
-2.826245307922363
 30
-460.3999938964844
 70
   192
  0
VERTEX
  5
93
  8
0
 10
1.639684557914734
 20
-5.667577266693115
 30
-460.3999938964844
 70
   192
  0
VERTEX
  5
94
  8
0
 10
-0.0000000000000019
 20
-6.0
 30
-462.0
 70
   192
  0
VERTEX
  5
95
  8
0
 10
-7.0
 20
-15.0
 30
-460.0
 70
   192
  0
VERTEX
  5
96
  8
0
 10
-2.778577327728271
 20
-5.317848205566406
 30
-462.0
 70
   192
  0
VERTEX
  5
97
  8
0
 10
7.0
 20
15.0
 30
-460.0
 70
   192
  0
VERTEX
  5
98
  8
0
 10
1.5
 20
5.809474945068359
 30
-462.0
 70
   192
  0
VERTEX
  5
99
  8
0
 10
-7.0
 20
15.0
 30
-461.5
 70
   192
  0
VERTEX
  5
9A
  8
0
 10
7.5
 20
-14.5
 30
-460.0
 70
   192
  0
VERTEX
  5
9B
  8
0
 10
2.778577327728271
 20
-5.317848205566406
 30
-462.0
 70
   192
  0
VERTEX
  5
9C
  8
0
 10
-5.625576019287109
 20
2.08635950088501
 30
-462.0
 70
   192
  0
VERTEX
  5
9D
  8
0
 10
-4.019807815551758
 20
4.454339981079102
 30
-462.0
 70
   192
  0
VERTEX
  5
9E
  8
0
 10
-1.5
 20
5.809474945068359
 30
-460.7999877929688
 70
   192
  0
VERTEX
  5
9F
  8
0
 10
-5.952178001403809
 20
-0.7560257315635681
 30
-462.0
 70
   192
  0
VERTEX
  5
A0
  8
0
 10
-4.925350666046143
 20
-3.42650294303894
 30
-462.0
 70
   192
  0
VERTEX
  5
A1
  8
0
 10
5.952178001403809
 20
-0.7560257315635681
 30
-462.0
 70
   192
  0
VERTEX
  5
A2
  8
0
 10
5.625576019287109
 20
2.08635950088501
 30
-462.0
 70
   192
  0
VERTEX
  5
A3
  8
0
 10
4.925350666046143
 20
-3.42650294303894
 30
-462.0
 70
   192
  0
VERTEX
  5
A4
  8
0
 10
4.019807815551758
 20
4.454339981079102
 30
-462.0
 70
   192
  0
VERTEX
  5
A5
  8
0
 62
   123
 10
0.0
 20
0.0
 30
0.0
 70
   128
 71
     3
 72
     2
 73
     1
  0
VERTEX
  5
A6
  8
0
 62
   123
 10
0.0
 20
0.0
 30
0.0
 70
   128
 71
     6
 72
     5
 73
     4
  0
VERTEX
  5
A7
  8
0
 62
   123
 10
0.0
 20
0.0
 30
0.0
 70
   128
 71
     2
 72
     8
 73
     7
  0
VERTEX
  5
A8
  8
0
 62
   123
 10
0.0
 20
0.0
 30
0.0
 70
   128
 71
     7
 72
     9
 73
     1
  0
VERTEX
  5
A9
  8
0
 62
   123
 10
0.0
 20
0.0
 30
0.0
 70
   128
 71
     1
 72
     2
 73
     7
  0
VERTEX
  5
AA
  8
0
 62
   123
 10
0.0
 20
0.0
 30
0.0
 70
   128
 71
     4
 72
    10
 73
     6
  0
VERTEX
  5
AB
  8
0
 62
   123
 10
0.0
 20
0.0
 30
0.0
 70
   128
 71
    11
 72
     1
 73
     9
  0
VERTEX
  5
AC
  8
0
 62
   123
 10
0.0
 20
0.0
 30
0.0
 70
   128
 71
    13
 72
     5
 73
    12
  0
VERTEX
  5
AD
  8
0
 62
   123
 10
0.0
 20
0.0
 30
0.0
 70
   128
 71
    15
 72
    12
 73
    14
  0
VERTEX
  5
AE
  8
0
 62
   123
 10
0.0
 20
0.0
 30
0.0
 70
   128
 71
    16
 72
    14
 73
     5
  0
VERTEX
  5
AF
  8
0
 62
   123
 10
0.0
 20
0.0
 30
0.0
 70
   128
 71
     5
 72
    13
 73
     4
  0
VERTEX
  5
B0
  8
0
 62
   123
 10
0.0
 20
0.0
 30
0.0
 70
   128
 71
     5
 72
    14
 73
    12
  0
VERTEX
  5
B1
  8
0
 62
   123
 10
0.0
 20
0.0
 30
0.0
 70
   128
 71
    10
 72
    11
 73
     6
  0
VERTEX
  5
B2
  8
0
 62
   123
 10
0.0
 20
0.0
 30
0.0
 70
   128
 71
    10
 72
     1
 73
    11
  0
VERTEX
  5
B3
  8
0
 62
   123
 10
0.0
 20
0.0
 30
0.0
 70
   128
 71
    19
 72
    18
 73
    17
  0
VERTEX
  5
B4
  8
0
 62
   123
 10
0.0
 20
0.0
 30
0.0
 70
   128
 71
    22
 72
    21
 73
    20
  0
VERTEX
  5
B5
  8
0
 62
   123
 10
0.0
 20
0.0
 30
0.0
 70
   128
 71
    24
 72
    17
 73
    23
  0
VERTEX
  5
B6
  8
0
 62
   123
 10
0.0
 20
0.0
 30
0.0
 70
   128
 71
    26
 72
    22
 73
    25
  0
VERTEX
  5
B7
  8
0
 62
   123
 10
0.0
 20
0.0
 30
0.0
 70
   128
 71
    26
 72
    27
 73
    22
  0
VERTEX
  5
B8
  8
0
 62
   123
 10
0.0
 20
0.0
 30
0.0
 70
   128
 71
    28
 72
    22
 73
    18
  0
VERTEX
  5
B9
  8
0
 62
   123
 10
0.0
 20
0.0
 30
0.0
 70
   128
 71
    28
 72
    25
 73
    22
  0
VERTEX
  5
BA
  8
0
 62
   123
 10
0.0
 20
0.0
 30
0.0
 70
   128
 71
    19
 72
    29
 73
    18
  0
VERTEX
  5
BB
  8
0
 62
   123
 10
0.0
 20
0.0
 30
0.0
 70
   128
 71
    29
 72
    28
 73
    18
  0
VERTEX
  5
BC
  8
0
 62
   123
 10
0.0
 20
0.0
 30
0.0
 70
   128
 71
    31
 72
    30
 73
    20
  0
VERTEX
  5
BD
  8
0
 62
   123
 10
0.0
 20
0.0
 30
0.0
 70
   128
 71
    23
 72
    17
 73
    18
  0
VERTEX
  5
BE
  8
0
 62
   123
 10
0.0
 20
0.0
 30
0.0
 70
   128
 71
    32
 72
    23
 73
    30
  0
VERTEX
  5
BF
  8
0
 62
   123
 10
0.0
 20
0.0
 30
0.0
 70
   128
 71
    32
 72
    24
 73
    23
  0
VERTEX
  5
C0
  8
0
 62
   123
 10
0.0
 20
0.0
 30
0.0
 70
   128
 71
    30
 72
    23
 73
    20
  0
VERTEX
  5
C1
  8
0
 62
   123
 10
0.0
 20
0.0
 30
0.0
 70
   128
 71
    27
 72
    21
 73
    22
  0
VERTEX
  5
C2
  8
0
 62
   123
 10
0.0
 20
0.0
 30
0.0
 70
   128
 71
    33
 72
    31
 73
    20
  0
VERTEX
  5
C3
  8
0
 62
   123
 10
0.0
 20
0.0
 30
0.0
 70
   128
 71
    21
 72
    33
 73
    20
  0
SEQEND
  5
C4
  8
0
 62
   123
  0
ENDBLK
  5
C7
  8
0
  0
BLOCK
  8
0
  2
M50150-009
 70
     0
 10
0.0
 20
0.0
 30
0.0
  3
M50150-009
  1

  0
POLYLINE
  5
C9
  8
0
 62
   123
 66
     1
 10
0.0
 20
0.0
 30
0.0
 70
    64
 71
    24
 72
    44
  0
VERTEX
  5
CA
  8
0
 10
-7.5
 20
-14.87782669067383
 30
437.4221801757812
 70
   192
  0
VERTEX
  5
CB
  8
0
 10
-7.499277114868164
 20
-14.73137855529785
 30
437.0686340332031
 70
   192
  0
VERTEX
  5
CC
  8
0
 10
-7.5
 20
-14.37782955169678
 30
436.9221801757812
 70
   192
  0
VERTEX
  5
CD
  8
0
 10
-7.5
 20
-14.87782669067383
 30
461.3778381347656
 70
   192
  0
VERTEX
  5
CE
  8
0
 10
-7.5
 20
14.37782955169678
 30
461.8778381347656
 70
   192
  0
VERTEX
  5
CF
  8
0
 10
-7.5
 20
-14.37782955169678
 30
461.8778381347656
 70
   192
  0
VERTEX
  5
D0
  8
0
 10
-7.499277114868164
 20
-14.73137855529785
 30
461.7313842773438
 70
   192
  0
VERTEX
  5
D1
  8
0
 10
-7.5
 20
14.87782669067383
 30
461.3778381347656
 70
   192
  0
VERTEX
  5
D2
  8
0
 10
-7.499277114868164
 20
14.73137855529785
 30
461.7313842773438
 70
   192
  0
VERTEX
  5
D3
  8
0
 10
-7.5
 20
14.87782669067383
 30
437.4221801757812
 70
   192
  0
VERTEX
  5
D4
  8
0
 10
-7.5
 20
14.37782955169678
 30
436.9221801757812
 70
   192
  0
VERTEX
  5
D5
  8
0
 10
-7.499277114868164
 20
14.73137855529785
 30
437.0686340332031
 70
   192
  0
VERTEX
  5
D6
  8
0
 10
-42.5
 20
15.0
 30
437.2999877929688
 70
   192
  0
VERTEX
  5
D7
  8
0
 10
-42.49927520751953
 20
14.85355186462402
 30
436.9464416503906
 70
   192
  0
VERTEX
  5
D8
  8
0
 10
-42.5
 20
14.50000286102295
 30
436.7999877929688
 70
   192
  0
VERTEX
  5
D9
  8
0
 10
-42.5
 20
-15.0
 30
461.5
 70
   192
  0
VERTEX
  5
DA
  8
0
 10
-42.49927520751953
 20
-14.85355186462402
 30
461.8535461425781
 70
   192
  0
VERTEX
  5
DB
  8
0
 10
-42.5
 20
-14.50000286102295
 30
462.0
 70
   192
  0
VERTEX
  5
DC
  8
0
 10
-42.5
 20
14.50000286102295
 30
462.0
 70
   192
  0
VERTEX
  5
DD
  8
0
 10
-42.5
 20
15.0
 30
461.5
 70
   192
  0
VERTEX
  5
DE
  8
0
 10
-42.49927520751953
 20
14.85355186462402
 30
461.8535461425781
 70
   192
  0
VERTEX
  5
DF
  8
0
 10
-42.5
 20
-15.0
 30
437.2999877929688
 70
   192
  0
VERTEX
  5
E0
  8
0
 10
-42.5
 20
-14.50000286102295
 30
436.7999877929688
 70
   192
  0
VERTEX
  5
E1
  8
0
 10
-42.49927520751953
 20
-14.85355186462402
 30
436.9464416503906
 70
   192
  0
VERTEX
  5
E2
  8
0
 62
   123
 10
0.0
 20
0.0
 30
0.0
 70
   128
 71
     3
 72
     2
 73
     1
  0
VERTEX
  5
E3
  8
0
 62
   123
 10
0.0
 20
0.0
 30
0.0
 70
   128
 71
     6
 72
     5
 73
     4
  0
VERTEX
  5
E4
  8
0
 62
   123
 10
0.0
 20
0.0
 30
0.0
 70
   128
 71
     7
 72
     6
 73
     4
  0
VERTEX
  5
E5
  8
0
 62
   123
 10
0.0
 20
0.0
 30
0.0
 70
   128
 71
     8
 72
     4
 73
     5
  0
VERTEX
  5
E6
  8
0
 62
   123
 10
0.0
 20
0.0
 30
0.0
 70
   128
 71
     4
 72
     8
 73
     1
  0
VERTEX
  5
E7
  8
0
 62
   123
 10
0.0
 20
0.0
 30
0.0
 70
   128
 71
     8
 72
     5
 73
     9
  0
VERTEX
  5
E8
  8
0
 62
   123
 10
0.0
 20
0.0
 30
0.0
 70
   128
 71
     1
 72
     8
 73
    10
  0
VERTEX
  5
E9
  8
0
 62
   123
 10
0.0
 20
0.0
 30
0.0
 70
   128
 71
    10
 72
    12
 73
    11
  0
VERTEX
  5
EA
  8
0
 62
   123
 10
0.0
 20
0.0
 30
0.0
 70
   128
 71
    10
 72
     3
 73
     1
  0
VERTEX
  5
EB
  8
0
 62
   123
 10
0.0
 20
0.0
 30
0.0
 70
   128
 71
    11
 72
     3
 73
    10
  0
VERTEX
  5
EC
  8
0
 62
   123
 10
0.0
 20
0.0
 30
0.0
 70
   128
 71
    15
 72
    14
 73
    13
  0
VERTEX
  5
ED
  8
0
 62
   123
 10
0.0
 20
0.0
 30
0.0
 70
   128
 71
    18
 72
    17
 73
    16
  0
VERTEX
  5
EE
  8
0
 62
   123
 10
0.0
 20
0.0
 30
0.0
 70
   128
 71
    18
 72
    16
 73
    19
  0
VERTEX
  5
EF
  8
0
 62
   123
 10
0.0
 20
0.0
 30
0.0
 70
   128
 71
    19
 72
    16
 73
    20
  0
VERTEX
  5
F0
  8
0
 62
   123
 10
0.0
 20
0.0
 30
0.0
 70
   128
 71
    19
 72
    20
 73
    21
  0
VERTEX
  5
F1
  8
0
 62
   123
 10
0.0
 20
0.0
 30
0.0
 70
   128
 71
    16
 72
    22
 73
    20
  0
VERTEX
  5
F2
  8
0
 62
   123
 10
0.0
 20
0.0
 30
0.0
 70
   128
 71
    13
 72
    20
 73
    22
  0
VERTEX
  5
F3
  8
0
 62
   123
 10
0.0
 20
0.0
 30
0.0
 70
   128
 71
    13
 72
    23
 73
    15
  0
VERTEX
  5
F4
  8
0
 62
   123
 10
0.0
 20
0.0
 30
0.0
 70
   128
 71
    23
 72
    22
 73
    24
  0
VERTEX
  5
F5
  8
0
 62
   123
 10
0.0
 20
0.0
 30
0.0
 70
   128
 71
    22
 72
    23
 73
    13
  0
VERTEX
  5
F6
  8
0
 62
   123
 10
0.0
 20
0.0
 30
0.0
 70
   128
 71
     2
 72
    24
 73
     1
  0
VERTEX
  5
F7
  8
0
 62
   123
 10
0.0
 20
0.0
 30
0.0
 70
   128
 71
     1
 72
    24
 73
    22
  0
VERTEX
  5
F8
  8
0
 62
   123
 10
0.0
 20
0.0
 30
0.0
 70
   128
 71
    24
 72
     2
 73
    23
  0
VERTEX
  5
F9
  8
0
 62
   123
 10
0.0
 20
0.0
 30
0.0
 70
   128
 71
     3
 72
    23
 73
     2
  0
VERTEX
  5
FA
  8
0
 62
   123
 10
0.0
 20
0.0
 30
0.0
 70
   128
 71
     3
 72
    11
 73
    23
  0
VERTEX
  5
FB
  8
0
 62
   123
 10
0.0
 20
0.0
 30
0.0
 70
   128
 71
    15
 72
    23
 73
    11
  0
VERTEX
  5
FC
  8
0
 62
   123
 10
0.0
 20
0.0
 30
0.0
 70
   128
 71
    12
 72
    14
 73
    11
  0
VERTEX
  5
FD
  8
0
 62
   123
 10
0.0
 20
0.0
 30
0.0
 70
   128
 71
    11
 72
    14
 73
    15
  0
VERTEX
  5
FE
  8
0
 62
   123
 10
0.0
 20
0.0
 30
0.0
 70
   128
 71
    14
 72
    12
 73
    13
  0
VERTEX
  5
FF
  8
0
 62
   123
 10
0.0
 20
0.0
 30
0.0
 70
   128
 71
    10
 72
    13
 73
    12
  0
VERTEX
  5
100
  8
0
 62
   123
 10
0.0
 20
0.0
 30
0.0
 70
   128
 71
     8
 72
    20
 73
    13
  0
VERTEX
  5
101
  8
0
 62
   123
 10
0.0
 20
0.0
 30
0.0
 70
   128
 71
    10
 72
     8
 73
    13
  0
VERTEX
  5
102
  8
0
 62
   123
 10
0.0
 20
0.0
 30
0.0
 70
   128
 71
     9
 72
    21
 73
     8
  0
VERTEX
  5
103
  8
0
 62
   123
 10
0.0
 20
0.0
 30
0.0
 70
   128
 71
     8
 72
    21
 73
    20
  0
VERTEX
  5
104
  8
0
 62
   123
 10
0.0
 20
0.0
 30
0.0
 70
   128
 71
    21
 72
     9
 73
    19
  0
VERTEX
  5
105
  8
0
 62
   123
 10
0.0
 20
0.0
 30
0.0
 70
   128
 71
     5
 72
    19
 73
     9
  0
VERTEX
  5
106
  8
0
 62
   123
 10
0.0
 20
0.0
 30
0.0
 70
   128
 71
    19
 72
     5
 73
    18
  0
VERTEX
  5
107
  8
0
 62
   123
 10
0.0
 20
0.0
 30
0.0
 70
   128
 71
     6
 72
    18
 73
     5
  0
VERTEX
  5
108
  8
0
 62
   123
 10
0.0
 20
0.0
 30
0.0
 70
   128
 71
     7
 72
    17
 73
     6
  0
VERTEX
  5
109
  8
0
 62
   123
 10
0.0
 20
0.0
 30
0.0
 70
   128
 71
     6
 72
    17
 73
    18
  0
VERTEX
  5
10A
  8
0
 62
   123
 10
0.0
 20
0.0
 30
0.0
 70
   128
 71
    17
 72
     7
 73
    16
  0
VERTEX
  5
10B
  8
0
 62
   123
 10
0.0
 20
0.0
 30
0.0
 70
   128
 71
     4
 72
    16
 73
     7
  0
VERTEX
  5
10C
  8
0
 62
   123
 10
0.0
 20
0.0
 30
0.0
 70
   128
 71
    22
 72
    16
 73
     4
  0
VERTEX
  5
10D
  8
0
 62
   123
 10
0.0
 20
0.0
 30
0.0
 70
   128
 71
     1
 72
    22
 73
     4
  0
SEQEND
  5
10E
  8
0
 62
   123
  0
ENDBLK
  5
111
  8
0
  0
BLOCK
  8
0
  2
M50150-009_1_
 70
     0
 10
0.0
 20
0.0
 30
0.0
  3
M50150-009_1_
  1

  0
POLYLINE
  5
113
  8
0
 62
   123
 66
     1
 10
0.0
 20
0.0
 30
0.0
 70
    64
 71
    24
 72
    44
  0
VERTEX
  5
114
  8
0
 10
-42.5
 20
-14.87782669067383
 30
-437.4221801757812
 70
   192
  0
VERTEX
  5
115
  8
0
 10
-42.50072479248047
 20
-14.73137855529785
 30
-437.0686340332031
 70
   192
  0
VERTEX
  5
116
  8
0
 10
-42.5
 20
-14.37782955169678
 30
-436.9221801757812
 70
   192
  0
VERTEX
  5
117
  8
0
 10
-42.5
 20
-14.87782669067383
 30
-461.3778381347656
 70
   192
  0
VERTEX
  5
118
  8
0
 10
-42.5
 20
14.37782955169678
 30
-461.8778381347656
 70
   192
  0
VERTEX
  5
119
  8
0
 10
-42.5
 20
-14.37782955169678
 30
-461.8778381347656
 70
   192
  0
VERTEX
  5
11A
  8
0
 10
-42.50072479248047
 20
-14.73137855529785
 30
-461.7313842773438
 70
   192
  0
VERTEX
  5
11B
  8
0
 10
-42.5
 20
14.87782669067383
 30
-461.3778381347656
 70
   192
  0
VERTEX
  5
11C
  8
0
 10
-42.50072479248047
 20
14.73137855529785
 30
-461.7313842773438
 70
   192
  0
VERTEX
  5
11D
  8
0
 10
-42.5
 20
14.87782669067383
 30
-437.4221801757812
 70
   192
  0
VERTEX
  5
11E
  8
0
 10
-42.5
 20
14.37782955169678
 30
-436.9221801757812
 70
   192
  0
VERTEX
  5
11F
  8
0
 10
-42.50072479248047
 20
14.73137855529785
 30
-437.0686340332031
 70
   192
  0
VERTEX
  5
120
  8
0
 10
-7.5
 20
15.0
 30
-437.2999877929688
 70
   192
  0
VERTEX
  5
121
  8
0
 10
-7.500722885131836
 20
14.85355186462402
 30
-436.9464416503906
 70
   192
  0
VERTEX
  5
122
  8
0
 10
-7.5
 20
14.50000286102295
 30
-436.7999877929688
 70
   192
  0
VERTEX
  5
123
  8
0
 10
-7.5
 20
-15.0
 30
-461.5
 70
   192
  0
VERTEX
  5
124
  8
0
 10
-7.500722885131836
 20
-14.85355186462402
 30
-461.8535461425781
 70
   192
  0
VERTEX
  5
125
  8
0
 10
-7.5
 20
-14.50000286102295
 30
-462.0
 70
   192
  0
VERTEX
  5
126
  8
0
 10
-7.5
 20
14.50000286102295
 30
-462.0
 70
   192
  0
VERTEX
  5
127
  8
0
 10
-7.5
 20
15.0
 30
-461.5
 70
   192
  0
VERTEX
  5
128
  8
0
 10
-7.500722885131836
 20
14.85355186462402
 30
-461.8535461425781
 70
   192
  0
VERTEX
  5
129
  8
0
 10
-7.5
 20
-15.0
 30
-437.2999877929688
 70
   192
  0
VERTEX
  5
12A
  8
0
 10
-7.5
 20
-14.50000286102295
 30
-436.7999877929688
 70
   192
  0
VERTEX
  5
12B
  8
0
 10
-7.500722885131836
 20
-14.85355186462402
 30
-436.9464416503906
 70
   192
  0
VERTEX
  5
12C
  8
0
 62
   123
 10
0.0
 20
0.0
 30
0.0
 70
   128
 71
     3
 72
     2
 73
     1
  0
VERTEX
  5
12D
  8
0
 62
   123
 10
0.0
 20
0.0
 30
0.0
 70
   128
 71
     6
 72
     5
 73
     4
  0
VERTEX
  5
12E
  8
0
 62
   123
 10
0.0
 20
0.0
 30
0.0
 70
   128
 71
     7
 72
     6
 73
     4
  0
VERTEX
  5
12F
  8
0
 62
   123
 10
0.0
 20
0.0
 30
0.0
 70
   128
 71
     8
 72
     4
 73
     5
  0
VERTEX
  5
130
  8
0
 62
   123
 10
0.0
 20
0.0
 30
0.0
 70
   128
 71
     4
 72
     8
 73
     1
  0
VERTEX
  5
131
  8
0
 62
   123
 10
0.0
 20
0.0
 30
0.0
 70
   128
 71
     8
 72
     5
 73
     9
  0
VERTEX
  5
132
  8
0
 62
   123
 10
0.0
 20
0.0
 30
0.0
 70
   128
 71
     1
 72
     8
 73
    10
  0
VERTEX
  5
133
  8
0
 62
   123
 10
0.0
 20
0.0
 30
0.0
 70
   128
 71
    10
 72
    12
 73
    11
  0
VERTEX
  5
134
  8
0
 62
   123
 10
0.0
 20
0.0
 30
0.0
 70
   128
 71
    10
 72
     3
 73
     1
  0
VERTEX
  5
135
  8
0
 62
   123
 10
0.0
 20
0.0
 30
0.0
 70
   128
 71
    11
 72
     3
 73
    10
  0
VERTEX
  5
136
  8
0
 62
   123
 10
0.0
 20
0.0
 30
0.0
 70
   128
 71
    15
 72
    14
 73
    13
  0
VERTEX
  5
137
  8
0
 62
   123
 10
0.0
 20
0.0
 30
0.0
 70
   128
 71
    18
 72
    17
 73
    16
  0
VERTEX
  5
138
  8
0
 62
   123
 10
0.0
 20
0.0
 30
0.0
 70
   128
 71
    18
 72
    16
 73
    19
  0
VERTEX
  5
139
  8
0
 62
   123
 10
0.0
 20
0.0
 30
0.0
 70
   128
 71
    19
 72
    16
 73
    20
  0
VERTEX
  5
13A
  8
0
 62
   123
 10
0.0
 20
0.0
 30
0.0
 70
   128
 71
    19
 72
    20
 73
    21
  0
VERTEX
  5
13B
  8
0
 62
   123
 10
0.0
 20
0.0
 30
0.0
 70
   128
 71
    16
 72
    22
 73
    20
  0
VERTEX
  5
13C
  8
0
 62
   123
 10
0.0
 20
0.0
 30
0.0
 70
   128
 71
    13
 72
    20
 73
    22
  0
VERTEX
  5
13D
  8
0
 62
   123
 10
0.0
 20
0.0
 30
0.0
 70
   128
 71
    13
 72
    23
 73
    15
  0
VERTEX
  5
13E
  8
0
 62
   123
 10
0.0
 20
0.0
 30
0.0
 70
   128
 71
    23
 72
    22
 73
    24
  0
VERTEX
  5
13F
  8
0
 62
   123
 10
0.0
 20
0.0
 30
0.0
 70
   128
 71
    22
 72
    23
 73
    13
  0
VERTEX
  5
140
  8
0
 62
   123
 10
0.0
 20
0.0
 30
0.0
 70
   128
 71
     2
 72
    24
 73
     1
  0
VERTEX
  5
141
  8
0
 62
   123
 10
0.0
 20
0.0
 30
0.0
 70
   128
 71
     1
 72
    24
 73
    22
  0
VERTEX
  5
142
  8
0
 62
   123
 10
0.0
 20
0.0
 30
0.0
 70
   128
 71
    24
 72
     2
 73
    23
  0
VERTEX
  5
143
  8
0
 62
   123
 10
0.0
 20
0.0
 30
0.0
 70
   128
 71
     3
 72
    23
 73
     2
  0
VERTEX
  5
144
  8
0
 62
   123
 10
0.0
 20
0.0
 30
0.0
 70
   128
 71
     3
 72
    11
 73
    23
  0
VERTEX
  5
145
  8
0
 62
   123
 10
0.0
 20
0.0
 30
0.0
 70
   128
 71
    15
 72
    23
 73
    11
  0
VERTEX
  5
146
  8
0
 62
   123
 10
0.0
 20
0.0
 30
0.0
 70
   128
 71
    12
 72
    14
 73
    11
  0
VERTEX
  5
147
  8
0
 62
   123
 10
0.0
 20
0.0
 30
0.0
 70
   128
 71
    11
 72
    14
 73
    15
  0
VERTEX
  5
148
  8
0
 62
   123
 10
0.0
 20
0.0
 30
0.0
 70
   128
 71
    14
 72
    12
 73
    13
  0
VERTEX
  5
149
  8
0
 62
   123
 10
0.0
 20
0.0
 30
0.0
 70
   128
 71
    10
 72
    13
 73
    12
  0
VERTEX
  5
14A
  8
0
 62
   123
 10
0.0
 20
0.0
 30
0.0
 70
   128
 71
     8
 72
    20
 73
    13
  0
VERTEX
  5
14B
  8
0
 62
   123
 10
0.0
 20
0.0
 30
0.0
 70
   128
 71
    10
 72
     8
 73
    13
  0
VERTEX
  5
14C
  8
0
 62
   123
 10
0.0
 20
0.0
 30
0.0
 70
   128
 71
     9
 72
    21
 73
     8
  0
VERTEX
  5
14D
  8
0
 62
   123
 10
0.0
 20
0.0
 30
0.0
 70
   128
 71
     8
 72
    21
 73
    20
  0
VERTEX
  5
14E
  8
0
 62
   123
 10
0.0
 20
0.0
 30
0.0
 70
   128
 71
    21
 72
     9
 73
    19
  0
VERTEX
  5
14F
  8
0
 62
   123
 10
0.0
 20
0.0
 30
0.0
 70
   128
 71
     5
 72
    19
 73
     9
  0
VERTEX
  5
150
  8
0
 62
   123
 10
0.0
 20
0.0
 30
0.0
 70
   128
 71
    19
 72
     5
 73
    18
  0
VERTEX
  5
151
  8
0
 62
   123
 10
0.0
 20
0.0
 30
0.0
 70
   128
 71
     6
 72
    18
 73
     5
  0
VERTEX
  5
152
  8
0
 62
   123
 10
0.0
 20
0.0
 30
0.0
 70
   128
 71
     7
 72
    17
 73
     6
  0
VERTEX
  5
153
  8
0
 62
   123
 10
0.0
 20
0.0
 30
0.0
 70
   128
 71
     6
 72
    17
 73
    18
  0
VERTEX
  5
154
  8
0
 62
   123
 10
0.0
 20
0.0
 30
0.0
 70
   128
 71
    17
 72
     7
 73
    16
  0
VERTEX
  5
155
  8
0
 62
   123
 10
0.0
 20
0.0
 30
0.0
 70
   128
 71
     4
 72
    16
 73
     7
  0
VERTEX
  5
156
  8
0
 62
   123
 10
0.0
 20
0.0
 30
0.0
 70
   128
 71
    22
 72
    16
 73
     4
  0
VERTEX
  5
157
  8
0
 62
   123
 10
0.0
 20
0.0
 30
0.0
 70
   128
 71
     1
 72
    22
 73
     4
  0
SEQEND
  5
158
  8
0
 62
   123
  0
ENDBLK
  5
15B
  8
0
  0
BLOCK
  8
0
  2
M51240-002
 70
     0
 10
0.0
 20
0.0
 30
0.0
  3
M51240-002
  1

  0
POLYLINE
  5
15D
  8
0
 62
   123
 66
     1
 10
0.0
 20
0.0
 30
0.0
 70
    64
 71
     4
 72
     4
  0
VERTEX
  5
15E
  8
0
 10
-7.0
 20
15.0
 30
460.0
 70
   192
  0
VERTEX
  5
15F
  8
0
 10
7.0
 20
-15.0
 30
460.0
 70
   192
  0
VERTEX
  5
160
  8
0
 10
-7.0
 20
-15.0
 30
-460.0
 70
   192
  0
VERTEX
  5
161
  8
0
 10
7.5
 20
14.5
 30
-460.0
 70
   192
  0
VERTEX
  5
162
  8
0
 62
   123
 10
0.0
 20
0.0
 30
0.0
 70
   128
 71
     3
 72
     2
 73
     1
  0
VERTEX
  5
163
  8
0
 62
   123
 10
0.0
 20
0.0
 30
0.0
 70
   128
 71
     4
 72
     3
 73
     1
  0
VERTEX
  5
164
  8
0
 62
   123
 10
0.0
 20
0.0
 30
0.0
 70
   128
 71
     3
 72
     4
 73
     1
  0
VERTEX
  5
165
  8
0
 62
   123
 10
0.0
 20
0.0
 30
0.0
 70
   128
 71
     2
 72
     3
 73
     1
  0
SEQEND
  5
166
  8
0
 62
   123
  0
ENDBLK
  5
169
  8
0
  0
BLOCK
  8
0
  2
30100015
 70
     0
 10
0.0
 20
0.0
 30
0.0
  3
30100015
  1

  0
POLYLINE
  5
16B
  8
0
 62
   123
 66
     1
 10
0.0
 20
0.0
 30
0.0
 70
    64
 71
   122
 72
   204
  0
VERTEX
  5
16C
  8
0
 10
0.5699484944343567
 20
45.39397811889648
 30
-1.042091131210327
 70
   192
  0
VERTEX
  5
16D
  8
0
 10
0.7590847611427307
 20
45.40722274780273
 30
-0.7582569122314453
 70
   192
  0
VERTEX
  5
16E
  8
0
 10
1.235176563262939
 20
45.2444953918457
 30
-1.729829549789429
 70
   192
  0
VERTEX
  5
16F
  8
0
 10
1.960998892784119
 20
44.978515625
 30
-2.4624183177948
 70
   192
  0
VERTEX
  5
170
  8
0
 10
1.518147468566895
 20
44.978515625
 30
-2.761005878448486
 70
   192
  0
VERTEX
  5
171
  8
0
 10
0.6245125532150269
 20
45.2444953918457
 30
-2.031737089157104
 70
   192
  0
VERTEX
  5
172
  8
0
 10
-0.4740646779537201
 20
45.35422897338867
 30
-1.422194004058838
 70
   192
  0
VERTEX
  5
173
  8
0
 10
1.729829549789429
 20
45.2444953918457
 30
-1.235176563262939
 70
   192
  0
VERTEX
  5
174
  8
0
 10
0.0000000000000005
 20
45.14703750610352
 30
-2.552336931228638
 70
   192
  0
VERTEX
  5
175
  8
0
 10
0.5219378471374512
 20
44.978515625
 30
-3.109331369400024
 70
   192
  0
VERTEX
  5
176
  8
0
 10
0.0000000000000006
 20
44.978515625
 30
-3.149875164031982
 70
   192
  0
VERTEX
  5
177
  8
0
 10
1.042267203330994
 20
45.39396667480469
 30
-0.5698585510253906
 70
   192
  0
VERTEX
  5
178
  8
0
 10
1.422194004058838
 20
45.35422897338867
 30
-0.4740646779537201
 70
   192
  0
VERTEX
  5
179
  8
0
 10
2.031737089157104
 20
45.2444953918457
 30
-0.6245125532150269
 70
   192
  0
VERTEX
  5
17A
  8
0
 10
2.662301778793335
 20
44.978515625
 30
-1.675015687942505
 70
   192
  0
VERTEX
  5
17B
  8
0
 10
3.06932258605957
 20
44.978515625
 30
-0.7180842161178589
 70
   192
  0
VERTEX
  5
17C
  8
0
 10
2.904215812683105
 20
44.978515625
 30
-1.217973828315735
 70
   192
  0
VERTEX
  5
17D
  8
0
 10
3.145164728164673
 20
44.978515625
 30
-0.1995521038770676
 70
   192
  0
VERTEX
  5
17E
  8
0
 10
2.552337884902954
 20
45.14703750610352
 30
0.0000000000000099
 70
   192
  0
VERTEX
  5
17F
  8
0
 10
3.152201652526855
 20
44.978515625
 30
-0.0000165406927408
 70
   192
  0
VERTEX
  5
180
  8
0
 10
2.342490673065186
 20
44.978515625
 30
-2.105814933776855
 70
   192
  0
VERTEX
  5
181
  8
0
 10
1.03769314289093
 20
44.978515625
 30
-2.974593877792358
 70
   192
  0
VERTEX
  5
182
  8
0
 10
2.031063079833984
 20
45.24464416503906
 30
0.6243053674697876
 70
   192
  0
VERTEX
  5
183
  8
0
 10
1.039513111114502
 20
45.39432907104492
 30
0.5698595643043518
 70
   192
  0
VERTEX
  5
184
  8
0
 10
1.729255676269531
 20
45.24464416503906
 30
1.234766721725464
 70
   192
  0
VERTEX
  5
185
  8
0
 10
0.7494617104530334
 20
45.40689086914062
 30
0.7700951099395752
 70
   192
  0
VERTEX
  5
186
  8
0
 10
1.234766721725464
 20
45.24464416503906
 30
1.729255676269531
 70
   192
  0
VERTEX
  5
187
  8
0
 10
3.105700492858887
 20
44.978515625
 30
0.5358628630638123
 70
   192
  0
VERTEX
  5
188
  8
0
 10
2.731046199798584
 20
44.978515625
 30
1.562878608703613
 70
   192
  0
VERTEX
  5
189
  8
0
 10
2.414939165115356
 20
44.978515625
 30
2.021924495697021
 70
   192
  0
VERTEX
  5
18A
  8
0
 10
0.6243053674697876
 20
45.24464416503906
 30
2.031063079833984
 70
   192
  0
VERTEX
  5
18B
  8
0
 10
0.4740646779537201
 20
45.35422897338867
 30
1.422194004058838
 70
   192
  0
VERTEX
  5
18C
  8
0
 10
0.5562425255775452
 20
45.39266967773438
 30
1.065172672271729
 70
   192
  0
VERTEX
  5
18D
  8
0
 10
1.58392345905304
 20
44.978515625
 30
2.719059467315674
 70
   192
  0
VERTEX
  5
18E
  8
0
 10
1.083905220031738
 20
44.978515625
 30
2.954222679138184
 70
   192
  0
VERTEX
  5
18F
  8
0
 10
0.5572060346603394
 20
44.978515625
 30
3.09735369682312
 70
   192
  0
VERTEX
  5
190
  8
0
 10
-0.0000000000000002
 20
45.14703750610352
 30
2.552337646484375
 70
   192
  0
VERTEX
  5
191
  8
0
 10
-0.0000000000000002
 20
44.978515625
 30
3.149875164031982
 70
   192
  0
VERTEX
  5
192
  8
0
 10
2.033406734466553
 20
44.978515625
 30
2.39781928062439
 70
   192
  0
VERTEX
  5
193
  8
0
 10
2.960291862487793
 20
44.978515625
 30
1.062379240989685
 70
   192
  0
VERTEX
  5
194
  8
0
 10
-1.729074597358704
 20
45.24468994140625
 30
1.234637498855591
 70
   192
  0
VERTEX
  5
195
  8
0
 10
-1.234637498855591
 20
45.24468994140625
 30
1.729074597358704
 70
   192
  0
VERTEX
  5
196
  8
0
 10
-0.8958820104598999
 20
45.40323638916016
 30
0.6503665447235107
 70
   192
  0
VERTEX
  5
197
  8
0
 10
-1.518147468566895
 20
44.978515625
 30
2.761005878448486
 70
   192
  0
VERTEX
  5
198
  8
0
 10
-1.960998892784119
 20
44.978515625
 30
2.4624183177948
 70
   192
  0
VERTEX
  5
199
  8
0
 10
-0.5920071601867676
 20
45.39815902709961
 30
0.9905379414558411
 70
   192
  0
VERTEX
  5
19A
  8
0
 10
-0.624239981174469
 20
45.24468994140625
 30
2.030850410461426
 70
   192
  0
VERTEX
  5
19B
  8
0
 10
-0.5219378471374512
 20
44.978515625
 30
3.109331369400024
 70
   192
  0
VERTEX
  5
19C
  8
0
 10
-1.139707803726196
 20
45.386474609375
 30
0.5259982347488403
 70
   192
  0
VERTEX
  5
19D
  8
0
 10
-1.422194004058838
 20
45.35422897338867
 30
0.4740646779537201
 70
   192
  0
VERTEX
  5
19E
  8
0
 10
-2.030850410461426
 20
45.24468994140625
 30
0.624239981174469
 70
   192
  0
VERTEX
  5
19F
  8
0
 10
-2.662301778793335
 20
44.978515625
 30
1.675015687942505
 70
   192
  0
VERTEX
  5
1A0
  8
0
 10
-3.06932258605957
 20
44.978515625
 30
0.7180842161178589
 70
   192
  0
VERTEX
  5
1A1
  8
0
 10
-2.904215812683105
 20
44.978515625
 30
1.217973828315735
 70
   192
  0
VERTEX
  5
1A2
  8
0
 10
-3.145164728164673
 20
44.978515625
 30
0.1995521038770676
 70
   192
  0
VERTEX
  5
1A3
  8
0
 10
-2.552336931228638
 20
45.14703750610352
 30
0.0000000000000089
 70
   192
  0
VERTEX
  5
1A4
  8
0
 10
-3.152201652526855
 20
44.978515625
 30
0.0000165406927408
 70
   192
  0
VERTEX
  5
1A5
  8
0
 10
-2.342490673065186
 20
44.978515625
 30
2.105814933776855
 70
   192
  0
VERTEX
  5
1A6
  8
0
 10
-1.03769314289093
 20
44.978515625
 30
2.974593877792358
 70
   192
  0
VERTEX
  5
1A7
  8
0
 10
-3.396244525909424
 20
44.79736328125
 30
0.2154920101165771
 70
   192
  0
VERTEX
  5
1A8
  8
0
 10
-3.395747900009155
 20
44.50150680541992
 30
0.8478772640228271
 70
   192
  0
VERTEX
  5
1A9
  8
0
 10
-3.301709175109863
 20
44.79736328125
 30
0.8243969082832336
 70
   192
  0
VERTEX
  5
1AA
  8
0
 10
2.210140228271484
 20
44.79736328125
 30
2.587700366973877
 70
   192
  0
VERTEX
  5
1AB
  8
0
 10
1.305328488349915
 20
44.79736328125
 30
3.142774343490601
 70
   192
  0
VERTEX
  5
1AC
  8
0
 10
3.309527635574341
 20
44.50150680541992
 30
1.138871073722839
 70
   192
  0
VERTEX
  5
1AD
  8
0
 10
3.217876434326172
 20
44.79736328125
 30
1.107332229614258
 70
   192
  0
VERTEX
  5
1AE
  8
0
 10
2.846290826797485
 20
44.79736328125
 30
1.865353107452393
 70
   192
  0
VERTEX
  5
1AF
  8
0
 10
3.379427671432495
 20
44.79736328125
 30
0.400478184223175
 70
   192
  0
VERTEX
  5
1B0
  8
0
 10
3.396244525909424
 20
44.79736328125
 30
-0.2154920101165771
 70
   192
  0
VERTEX
  5
1B1
  8
0
 10
2.273089170455933
 20
44.50150680541992
 30
2.661402940750122
 70
   192
  0
VERTEX
  5
1B2
  8
0
 10
3.492975950241089
 20
44.50150680541992
 30
-0.2216296195983887
 70
   192
  0
VERTEX
  5
1B3
  8
0
 10
0.2154920101165771
 20
44.79736328125
 30
3.396244525909424
 70
   192
  0
VERTEX
  5
1B4
  8
0
 10
1.342506647109985
 20
44.50150680541992
 30
3.23228645324707
 70
   192
  0
VERTEX
  5
1B5
  8
0
 10
-0.8976409435272217
 20
44.79736328125
 30
3.28255295753479
 70
   192
  0
VERTEX
  5
1B6
  8
0
 10
0.2216296195983887
 20
44.50150680541992
 30
3.492975950241089
 70
   192
  0
VERTEX
  5
1B7
  8
0
 10
-1.865353107452393
 20
44.79736328125
 30
2.846290826797485
 70
   192
  0
VERTEX
  5
1B8
  8
0
 10
-2.587700366973877
 20
44.79736328125
 30
2.210140228271484
 70
   192
  0
VERTEX
  5
1B9
  8
0
 10
-1.918481826782227
 20
44.50150680541992
 30
2.927358388900757
 70
   192
  0
VERTEX
  5
1BA
  8
0
 10
-3.05211329460144
 20
44.79736328125
 30
1.505163550376892
 70
   192
  0
VERTEX
  5
1BB
  8
0
 10
-3.13904333114624
 20
44.50150680541992
 30
1.548033475875854
 70
   192
  0
VERTEX
  5
1BC
  8
0
 10
-3.492975950241089
 20
44.50150680541992
 30
0.2216296195983887
 70
   192
  0
VERTEX
  5
1BD
  8
0
 10
-2.661402940750122
 20
44.50150680541992
 30
2.273089170455933
 70
   192
  0
VERTEX
  5
1BE
  8
0
 10
-0.9232074022293091
 20
44.50150680541992
 30
3.376046180725098
 70
   192
  0
VERTEX
  5
1BF
  8
0
 10
2.927358388900757
 20
44.50150680541992
 30
1.918481826782227
 70
   192
  0
VERTEX
  5
1C0
  8
0
 10
3.475679874420166
 20
44.50150680541992
 30
0.4118845462799072
 70
   192
  0
VERTEX
  5
1C1
  8
0
 10
3.05211329460144
 20
44.79736328125
 30
-1.505163550376892
 70
   192
  0
VERTEX
  5
1C2
  8
0
 10
2.587700366973877
 20
44.79736328125
 30
-2.210140228271484
 70
   192
  0
VERTEX
  5
1C3
  8
0
 10
1.865353107452393
 20
44.79736328125
 30
-2.846290826797485
 70
   192
  0
VERTEX
  5
1C4
  8
0
 10
3.301709175109863
 20
44.79736328125
 30
-0.8243969082832336
 70
   192
  0
VERTEX
  5
1C5
  8
0
 10
3.395747900009155
 20
44.50150680541992
 30
-0.8478772640228271
 70
   192
  0
VERTEX
  5
1C6
  8
0
 10
0.8976409435272217
 20
44.79736328125
 30
-3.28255295753479
 70
   192
  0
VERTEX
  5
1C7
  8
0
 10
-0.2216296195983887
 20
44.50150680541992
 30
-3.492975950241089
 70
   192
  0
VERTEX
  5
1C8
  8
0
 10
-0.2154920101165771
 20
44.79736328125
 30
-3.396244525909424
 70
   192
  0
VERTEX
  5
1C9
  8
0
 10
-2.210140228271484
 20
44.79736328125
 30
-2.587700366973877
 70
   192
  0
VERTEX
  5
1CA
  8
0
 10
-2.033406734466553
 20
44.978515625
 30
-2.39781928062439
 70
   192
  0
VERTEX
  5
1CB
  8
0
 10
-1.58392345905304
 20
44.978515625
 30
-2.719059467315674
 70
   192
  0
VERTEX
  5
1CC
  8
0
 10
-1.083905220031738
 20
44.978515625
 30
-2.954222679138184
 70
   192
  0
VERTEX
  5
1CD
  8
0
 10
-0.5572060346603394
 20
44.978515625
 30
-3.09735369682312
 70
   192
  0
VERTEX
  5
1CE
  8
0
 10
-1.305328488349915
 20
44.79736328125
 30
-3.142774343490601
 70
   192
  0
VERTEX
  5
1CF
  8
0
 10
-3.105700492858887
 20
44.978515625
 30
-0.5358628630638123
 70
   192
  0
VERTEX
  5
1D0
  8
0
 10
-2.960291862487793
 20
44.978515625
 30
-1.062379240989685
 70
   192
  0
VERTEX
  5
1D1
  8
0
 10
-3.217876434326172
 20
44.79736328125
 30
-1.107332229614258
 70
   192
  0
VERTEX
  5
1D2
  8
0
 10
-2.846290826797485
 20
44.79736328125
 30
-1.865353107452393
 70
   192
  0
VERTEX
  5
1D3
  8
0
 10
-2.731046199798584
 20
44.978515625
 30
-1.562878608703613
 70
   192
  0
VERTEX
  5
1D4
  8
0
 10
-3.379427671432495
 20
44.79736328125
 30
-0.400478184223175
 70
   192
  0
VERTEX
  5
1D5
  8
0
 10
-3.309527635574341
 20
44.50150680541992
 30
-1.138871073722839
 70
   192
  0
VERTEX
  5
1D6
  8
0
 10
-2.273089170455933
 20
44.50150680541992
 30
-2.661402940750122
 70
   192
  0
VERTEX
  5
1D7
  8
0
 10
-2.414939165115356
 20
44.978515625
 30
-2.021924495697021
 70
   192
  0
VERTEX
  5
1D8
  8
0
 10
-1.342506647109985
 20
44.50150680541992
 30
-3.23228645324707
 70
   192
  0
VERTEX
  5
1D9
  8
0
 10
1.918481826782227
 20
44.50150680541992
 30
-2.927358388900757
 70
   192
  0
VERTEX
  5
1DA
  8
0
 10
3.13904333114624
 20
44.50150680541992
 30
-1.548033475875854
 70
   192
  0
VERTEX
  5
1DB
  8
0
 10
2.661402940750122
 20
44.50150680541992
 30
-2.273089170455933
 70
   192
  0
VERTEX
  5
1DC
  8
0
 10
0.9232074022293091
 20
44.50150680541992
 30
-3.376046180725098
 70
   192
  0
VERTEX
  5
1DD
  8
0
 10
-2.927358388900757
 20
44.50150680541992
 30
-1.918481826782227
 70
   192
  0
VERTEX
  5
1DE
  8
0
 10
-3.475679874420166
 20
44.50150680541992
 30
-0.4118845462799072
 70
   192
  0
VERTEX
  5
1DF
  8
0
 10
-0.6244780421257019
 20
45.24452209472656
 30
-2.031624794006348
 70
   192
  0
VERTEX
  5
1E0
  8
0
 10
-1.235108256340027
 20
45.24452209472656
 30
-1.729733943939209
 70
   192
  0
VERTEX
  5
1E1
  8
0
 10
-1.729733943939209
 20
45.24452209472656
 30
-1.235108256340027
 70
   192
  0
VERTEX
  5
1E2
  8
0
 10
-2.031624794006348
 20
45.24452209472656
 30
-0.6244780421257019
 70
   192
  0
VERTEX
  5
1E3
  8
0
 10
-1.060641884803772
 20
45.39315414428711
 30
-0.5566859841346741
 70
   192
  0
VERTEX
  5
1E4
  8
0
 10
-0.7685849666595459
 20
45.4062385559082
 30
-0.7549967169761658
 70
   192
  0
VERTEX
  5
1E5
  8
0
 10
-0.5586963295936584
 20
45.39338302612305
 30
-1.057044982910156
 70
   192
  0
VERTEX
  5
1E6
  8
0
 62
   123
 10
0.0
 20
0.0
 30
0.0
 70
   128
 71
     3
 72
     2
 73
     1
  0
VERTEX
  5
1E7
  8
0
 62
   123
 10
0.0
 20
0.0
 30
0.0
 70
   128
 71
     3
 72
     5
 73
     4
  0
VERTEX
  5
1E8
  8
0
 62
   123
 10
0.0
 20
0.0
 30
0.0
 70
   128
 71
     3
 72
     1
 73
     6
  0
VERTEX
  5
1E9
  8
0
 62
   123
 10
0.0
 20
0.0
 30
0.0
 70
   128
 71
     6
 72
     1
 73
     7
  0
VERTEX
  5
1EA
  8
0
 62
   123
 10
0.0
 20
0.0
 30
0.0
 70
   128
 71
     2
 72
     3
 73
     8
  0
VERTEX
  5
1EB
  8
0
 62
   123
 10
0.0
 20
0.0
 30
0.0
 70
   128
 71
    10
 72
     6
 73
     9
  0
VERTEX
  5
1EC
  8
0
 62
   123
 10
0.0
 20
0.0
 30
0.0
 70
   128
 71
     9
 72
    11
 73
    10
  0
VERTEX
  5
1ED
  8
0
 62
   123
 10
0.0
 20
0.0
 30
0.0
 70
   128
 71
    13
 72
    12
 73
     8
  0
VERTEX
  5
1EE
  8
0
 62
   123
 10
0.0
 20
0.0
 30
0.0
 70
   128
 71
     7
 72
     9
 73
     6
  0
VERTEX
  5
1EF
  8
0
 62
   123
 10
0.0
 20
0.0
 30
0.0
 70
   128
 71
    13
 72
     8
 73
    14
  0
VERTEX
  5
1F0
  8
0
 62
   123
 10
0.0
 20
0.0
 30
0.0
 70
   128
 71
    15
 72
    14
 73
     8
  0
VERTEX
  5
1F1
  8
0
 62
   123
 10
0.0
 20
0.0
 30
0.0
 70
   128
 71
    13
 72
    14
 73
    16
  0
VERTEX
  5
1F2
  8
0
 62
   123
 10
0.0
 20
0.0
 30
0.0
 70
   128
 71
    14
 72
    17
 73
    16
  0
VERTEX
  5
1F3
  8
0
 62
   123
 10
0.0
 20
0.0
 30
0.0
 70
   128
 71
    15
 72
    17
 73
    14
  0
VERTEX
  5
1F4
  8
0
 62
   123
 10
0.0
 20
0.0
 30
0.0
 70
   128
 71
    19
 72
    16
 73
    18
  0
VERTEX
  5
1F5
  8
0
 62
   123
 10
0.0
 20
0.0
 30
0.0
 70
   128
 71
    13
 72
    16
 73
    19
  0
VERTEX
  5
1F6
  8
0
 62
   123
 10
0.0
 20
0.0
 30
0.0
 70
   128
 71
    19
 72
    18
 73
    20
  0
VERTEX
  5
1F7
  8
0
 62
   123
 10
0.0
 20
0.0
 30
0.0
 70
   128
 71
     8
 72
    21
 73
    15
  0
VERTEX
  5
1F8
  8
0
 62
   123
 10
0.0
 20
0.0
 30
0.0
 70
   128
 71
    21
 72
     8
 73
     4
  0
VERTEX
  5
1F9
  8
0
 62
   123
 10
0.0
 20
0.0
 30
0.0
 70
   128
 71
     8
 72
    12
 73
     2
  0
VERTEX
  5
1FA
  8
0
 62
   123
 10
0.0
 20
0.0
 30
0.0
 70
   128
 71
     8
 72
     3
 73
     4
  0
VERTEX
  5
1FB
  8
0
 62
   123
 10
0.0
 20
0.0
 30
0.0
 70
   128
 71
    22
 72
     5
 73
     3
  0
VERTEX
  5
1FC
  8
0
 62
   123
 10
0.0
 20
0.0
 30
0.0
 70
   128
 71
     6
 72
    22
 73
     3
  0
VERTEX
  5
1FD
  8
0
 62
   123
 10
0.0
 20
0.0
 30
0.0
 70
   128
 71
    22
 72
     6
 73
    10
  0
VERTEX
  5
1FE
  8
0
 62
   123
 10
0.0
 20
0.0
 30
0.0
 70
   128
 71
    24
 72
    13
 73
    23
  0
VERTEX
  5
1FF
  8
0
 62
   123
 10
0.0
 20
0.0
 30
0.0
 70
   128
 71
    27
 72
    26
 73
    25
  0
VERTEX
  5
200
  8
0
 62
   123
 10
0.0
 20
0.0
 30
0.0
 70
   128
 71
    25
 72
    24
 73
    23
  0
VERTEX
  5
201
  8
0
 62
   123
 10
0.0
 20
0.0
 30
0.0
 70
   128
 71
    23
 72
    19
 73
    28
  0
VERTEX
  5
202
  8
0
 62
   123
 10
0.0
 20
0.0
 30
0.0
 70
   128
 71
    23
 72
    13
 73
    19
  0
VERTEX
  5
203
  8
0
 62
   123
 10
0.0
 20
0.0
 30
0.0
 70
   128
 71
    19
 72
    20
 73
    28
  0
VERTEX
  5
204
  8
0
 62
   123
 10
0.0
 20
0.0
 30
0.0
 70
   128
 71
    30
 72
    25
 73
    29
  0
VERTEX
  5
205
  8
0
 62
   123
 10
0.0
 20
0.0
 30
0.0
 70
   128
 71
    24
 72
    25
 73
    26
  0
VERTEX
  5
206
  8
0
 62
   123
 10
0.0
 20
0.0
 30
0.0
 70
   128
 71
    32
 72
    27
 73
    31
  0
VERTEX
  5
207
  8
0
 62
   123
 10
0.0
 20
0.0
 30
0.0
 70
   128
 71
    33
 72
    27
 73
    32
  0
VERTEX
  5
208
  8
0
 62
   123
 10
0.0
 20
0.0
 30
0.0
 70
   128
 71
    34
 72
    31
 73
    27
  0
VERTEX
  5
209
  8
0
 62
   123
 10
0.0
 20
0.0
 30
0.0
 70
   128
 71
    31
 72
    34
 73
    35
  0
VERTEX
  5
20A
  8
0
 62
   123
 10
0.0
 20
0.0
 30
0.0
 70
   128
 71
    31
 72
    36
 73
    32
  0
VERTEX
  5
20B
  8
0
 62
   123
 10
0.0
 20
0.0
 30
0.0
 70
   128
 71
    37
 72
    32
 73
    36
  0
VERTEX
  5
20C
  8
0
 62
   123
 10
0.0
 20
0.0
 30
0.0
 70
   128
 71
    35
 72
    36
 73
    31
  0
VERTEX
  5
20D
  8
0
 62
   123
 10
0.0
 20
0.0
 30
0.0
 70
   128
 71
    37
 72
    36
 73
    38
  0
VERTEX
  5
20E
  8
0
 62
   123
 10
0.0
 20
0.0
 30
0.0
 70
   128
 71
    39
 72
    34
 73
    27
  0
VERTEX
  5
20F
  8
0
 62
   123
 10
0.0
 20
0.0
 30
0.0
 70
   128
 71
    39
 72
    27
 73
    30
  0
VERTEX
  5
210
  8
0
 62
   123
 10
0.0
 20
0.0
 30
0.0
 70
   128
 71
    27
 72
    33
 73
    26
  0
VERTEX
  5
211
  8
0
 62
   123
 10
0.0
 20
0.0
 30
0.0
 70
   128
 71
    27
 72
    25
 73
    30
  0
VERTEX
  5
212
  8
0
 62
   123
 10
0.0
 20
0.0
 30
0.0
 70
   128
 71
    40
 72
    29
 73
    25
  0
VERTEX
  5
213
  8
0
 62
   123
 10
0.0
 20
0.0
 30
0.0
 70
   128
 71
    23
 72
    40
 73
    25
  0
VERTEX
  5
214
  8
0
 62
   123
 10
0.0
 20
0.0
 30
0.0
 70
   128
 71
    40
 72
    23
 73
    28
  0
VERTEX
  5
215
  8
0
 62
   123
 10
0.0
 20
0.0
 30
0.0
 70
   128
 71
    43
 72
    42
 73
    41
  0
VERTEX
  5
216
  8
0
 62
   123
 10
0.0
 20
0.0
 30
0.0
 70
   128
 71
    45
 72
    42
 73
    44
  0
VERTEX
  5
217
  8
0
 62
   123
 10
0.0
 20
0.0
 30
0.0
 70
   128
 71
    43
 72
    46
 73
    42
  0
VERTEX
  5
218
  8
0
 62
   123
 10
0.0
 20
0.0
 30
0.0
 70
   128
 71
    46
 72
    32
 73
    42
  0
VERTEX
  5
219
  8
0
 62
   123
 10
0.0
 20
0.0
 30
0.0
 70
   128
 71
    42
 72
    32
 73
    47
  0
VERTEX
  5
21A
  8
0
 62
   123
 10
0.0
 20
0.0
 30
0.0
 70
   128
 71
    48
 72
    47
 73
    37
  0
VERTEX
  5
21B
  8
0
 62
   123
 10
0.0
 20
0.0
 30
0.0
 70
   128
 71
    38
 72
    48
 73
    37
  0
VERTEX
  5
21C
  8
0
 62
   123
 10
0.0
 20
0.0
 30
0.0
 70
   128
 71
    50
 72
    49
 73
    41
  0
VERTEX
  5
21D
  8
0
 62
   123
 10
0.0
 20
0.0
 30
0.0
 70
   128
 71
    32
 72
    37
 73
    47
  0
VERTEX
  5
21E
  8
0
 62
   123
 10
0.0
 20
0.0
 30
0.0
 70
   128
 71
    50
 72
    41
 73
    51
  0
VERTEX
  5
21F
  8
0
 62
   123
 10
0.0
 20
0.0
 30
0.0
 70
   128
 71
    52
 72
    51
 73
    41
  0
VERTEX
  5
220
  8
0
 62
   123
 10
0.0
 20
0.0
 30
0.0
 70
   128
 71
    50
 72
    51
 73
    53
  0
VERTEX
  5
221
  8
0
 62
   123
 10
0.0
 20
0.0
 30
0.0
 70
   128
 71
    51
 72
    54
 73
    53
  0
VERTEX
  5
222
  8
0
 62
   123
 10
0.0
 20
0.0
 30
0.0
 70
   128
 71
    52
 72
    54
 73
    51
  0
VERTEX
  5
223
  8
0
 62
   123
 10
0.0
 20
0.0
 30
0.0
 70
   128
 71
    56
 72
    53
 73
    55
  0
VERTEX
  5
224
  8
0
 62
   123
 10
0.0
 20
0.0
 30
0.0
 70
   128
 71
    50
 72
    53
 73
    56
  0
VERTEX
  5
225
  8
0
 62
   123
 10
0.0
 20
0.0
 30
0.0
 70
   128
 71
    56
 72
    55
 73
    57
  0
VERTEX
  5
226
  8
0
 62
   123
 10
0.0
 20
0.0
 30
0.0
 70
   128
 71
    41
 72
    58
 73
    52
  0
VERTEX
  5
227
  8
0
 62
   123
 10
0.0
 20
0.0
 30
0.0
 70
   128
 71
    58
 72
    41
 73
    45
  0
VERTEX
  5
228
  8
0
 62
   123
 10
0.0
 20
0.0
 30
0.0
 70
   128
 71
    41
 72
    49
 73
    43
  0
VERTEX
  5
229
  8
0
 62
   123
 10
0.0
 20
0.0
 30
0.0
 70
   128
 71
    41
 72
    42
 73
    45
  0
VERTEX
  5
22A
  8
0
 62
   123
 10
0.0
 20
0.0
 30
0.0
 70
   128
 71
    59
 72
    44
 73
    42
  0
VERTEX
  5
22B
  8
0
 62
   123
 10
0.0
 20
0.0
 30
0.0
 70
   128
 71
    47
 72
    59
 73
    42
  0
VERTEX
  5
22C
  8
0
 62
   123
 10
0.0
 20
0.0
 30
0.0
 70
   128
 71
    59
 72
    47
 73
    48
  0
VERTEX
  5
22D
  8
0
 62
   123
 10
0.0
 20
0.0
 30
0.0
 70
   128
 71
    62
 72
    61
 73
    60
  0
VERTEX
  5
22E
  8
0
 62
   123
 10
0.0
 20
0.0
 30
0.0
 70
   128
 71
    64
 72
    34
 73
    63
  0
VERTEX
  5
22F
  8
0
 62
   123
 10
0.0
 20
0.0
 30
0.0
 70
   128
 71
    63
 72
    34
 73
    39
  0
VERTEX
  5
230
  8
0
 62
   123
 10
0.0
 20
0.0
 30
0.0
 70
   128
 71
    67
 72
    66
 73
    65
  0
VERTEX
  5
231
  8
0
 62
   123
 10
0.0
 20
0.0
 30
0.0
 70
   128
 71
    30
 72
    67
 73
    63
  0
VERTEX
  5
232
  8
0
 62
   123
 10
0.0
 20
0.0
 30
0.0
 70
   128
 71
    66
 72
    67
 73
    29
  0
VERTEX
  5
233
  8
0
 62
   123
 10
0.0
 20
0.0
 30
0.0
 70
   128
 71
    29
 72
    40
 73
    66
  0
VERTEX
  5
234
  8
0
 62
   123
 10
0.0
 20
0.0
 30
0.0
 70
   128
 71
    29
 72
    67
 73
    30
  0
VERTEX
  5
235
  8
0
 62
   123
 10
0.0
 20
0.0
 30
0.0
 70
   128
 71
    68
 72
    28
 73
    20
  0
VERTEX
  5
236
  8
0
 62
   123
 10
0.0
 20
0.0
 30
0.0
 70
   128
 71
    28
 72
    68
 73
    66
  0
VERTEX
  5
237
  8
0
 62
   123
 10
0.0
 20
0.0
 30
0.0
 70
   128
 71
    40
 72
    28
 73
    66
  0
VERTEX
  5
238
  8
0
 62
   123
 10
0.0
 20
0.0
 30
0.0
 70
   128
 71
    20
 72
    18
 73
    69
  0
VERTEX
  5
239
  8
0
 62
   123
 10
0.0
 20
0.0
 30
0.0
 70
   128
 71
    70
 72
    64
 73
    63
  0
VERTEX
  5
23A
  8
0
 62
   123
 10
0.0
 20
0.0
 30
0.0
 70
   128
 71
    68
 72
    69
 73
    71
  0
VERTEX
  5
23B
  8
0
 62
   123
 10
0.0
 20
0.0
 30
0.0
 70
   128
 71
    64
 72
    72
 73
    36
  0
VERTEX
  5
23C
  8
0
 62
   123
 10
0.0
 20
0.0
 30
0.0
 70
   128
 71
    35
 72
    64
 73
    36
  0
VERTEX
  5
23D
  8
0
 62
   123
 10
0.0
 20
0.0
 30
0.0
 70
   128
 71
    48
 72
    38
 73
    72
  0
VERTEX
  5
23E
  8
0
 62
   123
 10
0.0
 20
0.0
 30
0.0
 70
   128
 71
    72
 72
    64
 73
    73
  0
VERTEX
  5
23F
  8
0
 62
   123
 10
0.0
 20
0.0
 30
0.0
 70
   128
 71
    75
 72
    74
 73
    72
  0
VERTEX
  5
240
  8
0
 62
   123
 10
0.0
 20
0.0
 30
0.0
 70
   128
 71
    72
 72
    74
 73
    48
  0
VERTEX
  5
241
  8
0
 62
   123
 10
0.0
 20
0.0
 30
0.0
 70
   128
 71
    59
 72
    48
 73
    74
  0
VERTEX
  5
242
  8
0
 62
   123
 10
0.0
 20
0.0
 30
0.0
 70
   128
 71
    76
 72
    59
 73
    74
  0
VERTEX
  5
243
  8
0
 62
   123
 10
0.0
 20
0.0
 30
0.0
 70
   128
 71
    44
 72
    76
 73
    45
  0
VERTEX
  5
244
  8
0
 62
   123
 10
0.0
 20
0.0
 30
0.0
 70
   128
 71
    76
 72
    78
 73
    77
  0
VERTEX
  5
245
  8
0
 62
   123
 10
0.0
 20
0.0
 30
0.0
 70
   128
 71
    45
 72
    76
 73
    77
  0
VERTEX
  5
246
  8
0
 62
   123
 10
0.0
 20
0.0
 30
0.0
 70
   128
 71
    77
 72
    58
 73
    45
  0
VERTEX
  5
247
  8
0
 62
   123
 10
0.0
 20
0.0
 30
0.0
 70
   128
 71
    77
 72
    79
 73
    58
  0
VERTEX
  5
248
  8
0
 62
   123
 10
0.0
 20
0.0
 30
0.0
 70
   128
 71
    54
 72
    79
 73
    62
  0
VERTEX
  5
249
  8
0
 62
   123
 10
0.0
 20
0.0
 30
0.0
 70
   128
 71
    54
 72
    52
 73
    79
  0
VERTEX
  5
24A
  8
0
 62
   123
 10
0.0
 20
0.0
 30
0.0
 70
   128
 71
    60
 72
    53
 73
    62
  0
VERTEX
  5
24B
  8
0
 62
   123
 10
0.0
 20
0.0
 30
0.0
 70
   128
 71
    80
 72
    62
 73
    79
  0
VERTEX
  5
24C
  8
0
 62
   123
 10
0.0
 20
0.0
 30
0.0
 70
   128
 71
    60
 72
    55
 73
    53
  0
VERTEX
  5
24D
  8
0
 62
   123
 10
0.0
 20
0.0
 30
0.0
 70
   128
 71
    81
 72
    60
 73
    61
  0
VERTEX
  5
24E
  8
0
 62
   123
 10
0.0
 20
0.0
 30
0.0
 70
   128
 71
    61
 72
    62
 73
    80
  0
VERTEX
  5
24F
  8
0
 62
   123
 10
0.0
 20
0.0
 30
0.0
 70
   128
 71
    62
 72
    53
 73
    54
  0
VERTEX
  5
250
  8
0
 62
   123
 10
0.0
 20
0.0
 30
0.0
 70
   128
 71
    80
 72
    79
 73
    82
  0
VERTEX
  5
251
  8
0
 62
   123
 10
0.0
 20
0.0
 30
0.0
 70
   128
 71
    79
 72
    52
 73
    58
  0
VERTEX
  5
252
  8
0
 62
   123
 10
0.0
 20
0.0
 30
0.0
 70
   128
 71
    77
 72
    82
 73
    79
  0
VERTEX
  5
253
  8
0
 62
   123
 10
0.0
 20
0.0
 30
0.0
 70
   128
 71
    82
 72
    77
 73
    78
  0
VERTEX
  5
254
  8
0
 62
   123
 10
0.0
 20
0.0
 30
0.0
 70
   128
 71
    78
 72
    76
 73
    83
  0
VERTEX
  5
255
  8
0
 62
   123
 10
0.0
 20
0.0
 30
0.0
 70
   128
 71
    76
 72
    44
 73
    59
  0
VERTEX
  5
256
  8
0
 62
   123
 10
0.0
 20
0.0
 30
0.0
 70
   128
 71
    74
 72
    83
 73
    76
  0
VERTEX
  5
257
  8
0
 62
   123
 10
0.0
 20
0.0
 30
0.0
 70
   128
 71
    83
 72
    74
 73
    75
  0
VERTEX
  5
258
  8
0
 62
   123
 10
0.0
 20
0.0
 30
0.0
 70
   128
 71
    75
 72
    72
 73
    73
  0
VERTEX
  5
259
  8
0
 62
   123
 10
0.0
 20
0.0
 30
0.0
 70
   128
 71
    72
 72
    38
 73
    36
  0
VERTEX
  5
25A
  8
0
 62
   123
 10
0.0
 20
0.0
 30
0.0
 70
   128
 71
    73
 72
    64
 73
    70
  0
VERTEX
  5
25B
  8
0
 62
   123
 10
0.0
 20
0.0
 30
0.0
 70
   128
 71
    64
 72
    35
 73
    34
  0
VERTEX
  5
25C
  8
0
 62
   123
 10
0.0
 20
0.0
 30
0.0
 70
   128
 71
    70
 72
    63
 73
    84
  0
VERTEX
  5
25D
  8
0
 62
   123
 10
0.0
 20
0.0
 30
0.0
 70
   128
 71
    63
 72
    39
 73
    30
  0
VERTEX
  5
25E
  8
0
 62
   123
 10
0.0
 20
0.0
 30
0.0
 70
   128
 71
    67
 72
    84
 73
    63
  0
VERTEX
  5
25F
  8
0
 62
   123
 10
0.0
 20
0.0
 30
0.0
 70
   128
 71
    84
 72
    67
 73
    65
  0
VERTEX
  5
260
  8
0
 62
   123
 10
0.0
 20
0.0
 30
0.0
 70
   128
 71
    66
 72
    85
 73
    65
  0
VERTEX
  5
261
  8
0
 62
   123
 10
0.0
 20
0.0
 30
0.0
 70
   128
 71
    68
 72
    20
 73
    69
  0
VERTEX
  5
262
  8
0
 62
   123
 10
0.0
 20
0.0
 30
0.0
 70
   128
 71
    68
 72
    85
 73
    66
  0
VERTEX
  5
263
  8
0
 62
   123
 10
0.0
 20
0.0
 30
0.0
 70
   128
 71
    85
 72
    68
 73
    71
  0
VERTEX
  5
264
  8
0
 62
   123
 10
0.0
 20
0.0
 30
0.0
 70
   128
 71
    17
 72
    15
 73
    86
  0
VERTEX
  5
265
  8
0
 62
   123
 10
0.0
 20
0.0
 30
0.0
 70
   128
 71
     4
 72
    88
 73
    87
  0
VERTEX
  5
266
  8
0
 62
   123
 10
0.0
 20
0.0
 30
0.0
 70
   128
 71
    86
 72
    89
 73
    17
  0
VERTEX
  5
267
  8
0
 62
   123
 10
0.0
 20
0.0
 30
0.0
 70
   128
 71
    90
 72
    71
 73
    69
  0
VERTEX
  5
268
  8
0
 62
   123
 10
0.0
 20
0.0
 30
0.0
 70
   128
 71
    93
 72
    92
 73
    91
  0
VERTEX
  5
269
  8
0
 62
   123
 10
0.0
 20
0.0
 30
0.0
 70
   128
 71
    96
 72
    95
 73
    94
  0
VERTEX
  5
26A
  8
0
 62
   123
 10
0.0
 20
0.0
 30
0.0
 70
   128
 71
    99
 72
    98
 73
    97
  0
VERTEX
  5
26B
  8
0
 62
   123
 10
0.0
 20
0.0
 30
0.0
 70
   128
 71
   102
 72
   101
 73
   100
  0
VERTEX
  5
26C
  8
0
 62
   123
 10
0.0
 20
0.0
 30
0.0
 70
   128
 71
   104
 72
   102
 73
   103
  0
VERTEX
  5
26D
  8
0
 62
   123
 10
0.0
 20
0.0
 30
0.0
 70
   128
 71
    57
 72
    55
 73
    60
  0
VERTEX
  5
26E
  8
0
 62
   123
 10
0.0
 20
0.0
 30
0.0
 70
   128
 71
   102
 72
   100
 73
   105
  0
VERTEX
  5
26F
  8
0
 62
   123
 10
0.0
 20
0.0
 30
0.0
 70
   128
 71
   105
 72
    60
 73
    81
  0
VERTEX
  5
270
  8
0
 62
   123
 10
0.0
 20
0.0
 30
0.0
 70
   128
 71
    57
 72
   105
 73
   100
  0
VERTEX
  5
271
  8
0
 62
   123
 10
0.0
 20
0.0
 30
0.0
 70
   128
 71
   102
 72
   106
 73
   103
  0
VERTEX
  5
272
  8
0
 62
   123
 10
0.0
 20
0.0
 30
0.0
 70
   128
 71
   101
 72
   102
 73
   104
  0
VERTEX
  5
273
  8
0
 62
   123
 10
0.0
 20
0.0
 30
0.0
 70
   128
 71
    99
 72
    94
 73
   107
  0
VERTEX
  5
274
  8
0
 62
   123
 10
0.0
 20
0.0
 30
0.0
 70
   128
 71
   108
 72
   103
 73
    94
  0
VERTEX
  5
275
  8
0
 62
   123
 10
0.0
 20
0.0
 30
0.0
 70
   128
 71
    69
 72
    89
 73
    90
  0
VERTEX
  5
276
  8
0
 62
   123
 10
0.0
 20
0.0
 30
0.0
 70
   128
 71
    96
 72
    94
 73
    99
  0
VERTEX
  5
277
  8
0
 62
   123
 10
0.0
 20
0.0
 30
0.0
 70
   128
 71
   104
 72
   103
 73
   108
  0
VERTEX
  5
278
  8
0
 62
   123
 10
0.0
 20
0.0
 30
0.0
 70
   128
 71
    99
 72
   109
 73
    93
  0
VERTEX
  5
279
  8
0
 62
   123
 10
0.0
 20
0.0
 30
0.0
 70
   128
 71
    93
 72
    98
 73
    99
  0
VERTEX
  5
27A
  8
0
 62
   123
 10
0.0
 20
0.0
 30
0.0
 70
   128
 71
    10
 72
    11
 73
    93
  0
VERTEX
  5
27B
  8
0
 62
   123
 10
0.0
 20
0.0
 30
0.0
 70
   128
 71
    91
 72
    10
 73
    93
  0
VERTEX
  5
27C
  8
0
 62
   123
 10
0.0
 20
0.0
 30
0.0
 70
   128
 71
    22
 72
    10
 73
    91
  0
VERTEX
  5
27D
  8
0
 62
   123
 10
0.0
 20
0.0
 30
0.0
 70
   128
 71
    88
 72
    22
 73
    91
  0
VERTEX
  5
27E
  8
0
 62
   123
 10
0.0
 20
0.0
 30
0.0
 70
   128
 71
     5
 72
    88
 73
     4
  0
VERTEX
  5
27F
  8
0
 62
   123
 10
0.0
 20
0.0
 30
0.0
 70
   128
 71
    21
 72
    87
 73
    86
  0
VERTEX
  5
280
  8
0
 62
   123
 10
0.0
 20
0.0
 30
0.0
 70
   128
 71
   110
 72
    87
 73
    88
  0
VERTEX
  5
281
  8
0
 62
   123
 10
0.0
 20
0.0
 30
0.0
 70
   128
 71
   111
 72
    89
 73
    86
  0
VERTEX
  5
282
  8
0
 62
   123
 10
0.0
 20
0.0
 30
0.0
 70
   128
 71
    21
 72
     4
 73
    87
  0
VERTEX
  5
283
  8
0
 62
   123
 10
0.0
 20
0.0
 30
0.0
 70
   128
 71
   111
 72
    90
 73
    89
  0
VERTEX
  5
284
  8
0
 62
   123
 10
0.0
 20
0.0
 30
0.0
 70
   128
 71
    16
 72
    69
 73
    18
  0
VERTEX
  5
285
  8
0
 62
   123
 10
0.0
 20
0.0
 30
0.0
 70
   128
 71
    89
 72
    16
 73
    17
  0
VERTEX
  5
286
  8
0
 62
   123
 10
0.0
 20
0.0
 30
0.0
 70
   128
 71
    16
 72
    89
 73
    69
  0
VERTEX
  5
287
  8
0
 62
   123
 10
0.0
 20
0.0
 30
0.0
 70
   128
 71
   111
 72
    86
 73
   112
  0
VERTEX
  5
288
  8
0
 62
   123
 10
0.0
 20
0.0
 30
0.0
 70
   128
 71
    86
 72
    15
 73
    21
  0
VERTEX
  5
289
  8
0
 62
   123
 10
0.0
 20
0.0
 30
0.0
 70
   128
 71
    87
 72
   112
 73
    86
  0
VERTEX
  5
28A
  8
0
 62
   123
 10
0.0
 20
0.0
 30
0.0
 70
   128
 71
   112
 72
    87
 73
   110
  0
VERTEX
  5
28B
  8
0
 62
   123
 10
0.0
 20
0.0
 30
0.0
 70
   128
 71
   110
 72
    88
 73
   113
  0
VERTEX
  5
28C
  8
0
 62
   123
 10
0.0
 20
0.0
 30
0.0
 70
   128
 71
    88
 72
     5
 73
    22
  0
VERTEX
  5
28D
  8
0
 62
   123
 10
0.0
 20
0.0
 30
0.0
 70
   128
 71
    91
 72
   113
 73
    88
  0
VERTEX
  5
28E
  8
0
 62
   123
 10
0.0
 20
0.0
 30
0.0
 70
   128
 71
   113
 72
    91
 73
    92
  0
VERTEX
  5
28F
  8
0
 62
   123
 10
0.0
 20
0.0
 30
0.0
 70
   128
 71
    92
 72
    93
 73
   109
  0
VERTEX
  5
290
  8
0
 62
   123
 10
0.0
 20
0.0
 30
0.0
 70
   128
 71
    93
 72
    11
 73
    98
  0
VERTEX
  5
291
  8
0
 62
   123
 10
0.0
 20
0.0
 30
0.0
 70
   128
 71
   109
 72
    99
 73
   107
  0
VERTEX
  5
292
  8
0
 62
   123
 10
0.0
 20
0.0
 30
0.0
 70
   128
 71
    99
 72
    97
 73
    96
  0
VERTEX
  5
293
  8
0
 62
   123
 10
0.0
 20
0.0
 30
0.0
 70
   128
 71
   107
 72
    94
 73
   114
  0
VERTEX
  5
294
  8
0
 62
   123
 10
0.0
 20
0.0
 30
0.0
 70
   128
 71
    94
 72
    95
 73
   108
  0
VERTEX
  5
295
  8
0
 62
   123
 10
0.0
 20
0.0
 30
0.0
 70
   128
 71
   103
 72
   114
 73
    94
  0
VERTEX
  5
296
  8
0
 62
   123
 10
0.0
 20
0.0
 30
0.0
 70
   128
 71
   114
 72
   103
 73
   106
  0
VERTEX
  5
297
  8
0
 62
   123
 10
0.0
 20
0.0
 30
0.0
 70
   128
 71
   102
 72
   115
 73
   106
  0
VERTEX
  5
298
  8
0
 62
   123
 10
0.0
 20
0.0
 30
0.0
 70
   128
 71
   105
 72
    57
 73
    60
  0
VERTEX
  5
299
  8
0
 62
   123
 10
0.0
 20
0.0
 30
0.0
 70
   128
 71
   105
 72
   115
 73
   102
  0
VERTEX
  5
29A
  8
0
 62
   123
 10
0.0
 20
0.0
 30
0.0
 70
   128
 71
   115
 72
   105
 73
    81
  0
VERTEX
  5
29B
  8
0
 62
   123
 10
0.0
 20
0.0
 30
0.0
 70
   128
 71
   116
 72
    97
 73
    98
  0
VERTEX
  5
29C
  8
0
 62
   123
 10
0.0
 20
0.0
 30
0.0
 70
   128
 71
    96
 72
   116
 73
   117
  0
VERTEX
  5
29D
  8
0
 62
   123
 10
0.0
 20
0.0
 30
0.0
 70
   128
 71
    98
 72
     9
 73
     7
  0
VERTEX
  5
29E
  8
0
 62
   123
 10
0.0
 20
0.0
 30
0.0
 70
   128
 71
    98
 72
    11
 73
     9
  0
VERTEX
  5
29F
  8
0
 62
   123
 10
0.0
 20
0.0
 30
0.0
 70
   128
 71
   108
 72
   118
 73
   104
  0
VERTEX
  5
2A0
  8
0
 62
   123
 10
0.0
 20
0.0
 30
0.0
 70
   128
 71
   100
 72
   119
 73
    56
  0
VERTEX
  5
2A1
  8
0
 62
   123
 10
0.0
 20
0.0
 30
0.0
 70
   128
 71
   120
 72
    50
 73
   119
  0
VERTEX
  5
2A2
  8
0
 62
   123
 10
0.0
 20
0.0
 30
0.0
 70
   128
 71
   119
 72
    50
 73
    56
  0
VERTEX
  5
2A3
  8
0
 62
   123
 10
0.0
 20
0.0
 30
0.0
 70
   128
 71
   100
 72
    56
 73
    57
  0
VERTEX
  5
2A4
  8
0
 62
   123
 10
0.0
 20
0.0
 30
0.0
 70
   128
 71
   117
 72
   121
 73
   118
  0
VERTEX
  5
2A5
  8
0
 62
   123
 10
0.0
 20
0.0
 30
0.0
 70
   128
 71
   120
 72
   119
 73
   118
  0
VERTEX
  5
2A6
  8
0
 62
   123
 10
0.0
 20
0.0
 30
0.0
 70
   128
 71
     7
 72
   122
 73
   117
  0
VERTEX
  5
2A7
  8
0
 62
   123
 10
0.0
 20
0.0
 30
0.0
 70
   128
 71
   117
 72
   118
 73
   108
  0
VERTEX
  5
2A8
  8
0
 62
   123
 10
0.0
 20
0.0
 30
0.0
 70
   128
 71
   116
 72
     7
 73
   117
  0
VERTEX
  5
2A9
  8
0
 62
   123
 10
0.0
 20
0.0
 30
0.0
 70
   128
 71
   117
 72
    95
 73
    96
  0
VERTEX
  5
2AA
  8
0
 62
   123
 10
0.0
 20
0.0
 30
0.0
 70
   128
 71
    96
 72
    97
 73
   116
  0
VERTEX
  5
2AB
  8
0
 62
   123
 10
0.0
 20
0.0
 30
0.0
 70
   128
 71
    98
 72
     7
 73
   116
  0
VERTEX
  5
2AC
  8
0
 62
   123
 10
0.0
 20
0.0
 30
0.0
 70
   128
 71
    95
 72
   117
 73
   108
  0
VERTEX
  5
2AD
  8
0
 62
   123
 10
0.0
 20
0.0
 30
0.0
 70
   128
 71
   117
 72
   122
 73
   121
  0
VERTEX
  5
2AE
  8
0
 62
   123
 10
0.0
 20
0.0
 30
0.0
 70
   128
 71
   101
 72
   104
 73
   118
  0
VERTEX
  5
2AF
  8
0
 62
   123
 10
0.0
 20
0.0
 30
0.0
 70
   128
 71
   118
 72
   121
 73
   120
  0
VERTEX
  5
2B0
  8
0
 62
   123
 10
0.0
 20
0.0
 30
0.0
 70
   128
 71
   119
 72
   101
 73
   118
  0
VERTEX
  5
2B1
  8
0
 62
   123
 10
0.0
 20
0.0
 30
0.0
 70
   128
 71
   101
 72
   119
 73
   100
  0
SEQEND
  5
2B2
  8
0
 62
   123
  0
ENDBLK
  5
2B5
  8
0
  0
BLOCK
  8
0
  2
M50150-019
 70
     0
 10
0.0
 20
0.0
 30
0.0
  3
M50150-019
  1

  0
POLYLINE
  5
2B7
  8
0
 62
   123
 66
     1
 10
0.0
 20
0.0
 30
0.0
 70
    64
 71
     4
 72
     2
  0
VERTEX
  5
2B8
  8
0
 10
-9.5
 20
-48.72999954223633
 30
-9.799999237060547
 70
   192
  0
VERTEX
  5
2B9
  8
0
 10
9.499998092651367
 20
-48.72999954223633
 30
9.799999237060547
 70
   192
  0
VERTEX
  5
2BA
  8
0
 10
-9.799999237060547
 20
-48.72999954223633
 30
9.5
 70
   192
  0
VERTEX
  5
2BB
  8
0
 10
9.799999237060547
 20
-48.72999954223633
 30
-9.5
 70
   192
  0
VERTEX
  5
2BC
  8
0
 62
   123
 10
0.0
 20
0.0
 30
0.0
 70
   128
 71
     3
 72
     2
 73
     1
  0
VERTEX
  5
2BD
  8
0
 62
   123
 10
0.0
 20
0.0
 30
0.0
 70
   128
 71
     2
 72
     4
 73
     1
  0
SEQEND
  5
2BE
  8
0
 62
   123
  0
ENDBLK
  5
2C1
  8
0
  0
BLOCK
  8
0
  2
M50150-020
 70
     0
 10
0.0
 20
0.0
 30
0.0
  3
M50150-020
  1

  0
POLYLINE
  5
2C6
  8
0
 62
   123
 66
     1
 10
0.0
 20
0.0
 30
0.0
 70
    64
 71
    84
 72
   122
  0
VERTEX
  5
2C7
  8
0
 10
-17.1971435546875
 20
-48.23543930053711
 30
-13.24631023406982
 70
   192
  0
VERTEX
  5
2C8
  8
0
 10
-17.52367210388184
 20
-48.23581314086914
 30
-13.02392292022705
 70
   192
  0
VERTEX
  5
2C9
  8
0
 10
-17.79824638366699
 20
-27.72999954223633
 30
-12.49827766418457
 70
   192
  0
VERTEX
  5
2CA
  8
0
 10
-16.82109832763672
 20
-48.2343635559082
 30
-13.32106113433838
 70
   192
  0
VERTEX
  5
2CB
  8
0
 10
17.1971435546875
 20
-48.23543930053711
 30
-13.24631023406982
 70
   192
  0
VERTEX
  5
2CC
  8
0
 10
16.99827766418457
 20
-27.72999954223633
 30
-13.29824733734131
 70
   192
  0
VERTEX
  5
2CD
  8
0
 10
17.52367210388184
 20
-48.23581314086914
 30
-13.02392292022705
 70
   192
  0
VERTEX
  5
2CE
  8
0
 10
16.82109832763672
 20
-48.2343635559082
 30
-13.32106113433838
 70
   192
  0
VERTEX
  5
2CF
  8
0
 10
17.1971435546875
 20
-48.23543930053711
 30
13.24631023406982
 70
   192
  0
VERTEX
  5
2D0
  8
0
 10
17.52367210388184
 20
-48.23581314086914
 30
13.02392292022705
 70
   192
  0
VERTEX
  5
2D1
  8
0
 10
17.79824638366699
 20
-27.72999954223633
 30
12.49827766418457
 70
   192
  0
VERTEX
  5
2D2
  8
0
 10
16.82109832763672
 20
-48.2343635559082
 30
13.32106113433838
 70
   192
  0
VERTEX
  5
2D3
  8
0
 10
-17.1971435546875
 20
-48.23543930053711
 30
13.24631023406982
 70
   192
  0
VERTEX
  5
2D4
  8
0
 10
-16.99827766418457
 20
-27.72999954223633
 30
13.29824733734131
 70
   192
  0
VERTEX
  5
2D5
  8
0
 10
-17.52367210388184
 20
-48.23581314086914
 30
13.02392292022705
 70
   192
  0
VERTEX
  5
2D6
  8
0
 10
-16.82109832763672
 20
-48.2343635559082
 30
13.32106113433838
 70
   192
  0
VERTEX
  5
2D7
  8
0
 10
-17.32107925415039
 20
-48.72999954223633
 30
-12.32109928131104
 70
   192
  0
VERTEX
  5
2D8
  8
0
 10
-17.17464256286621
 20
-48.72999954223633
 30
-12.67464447021484
 70
   192
  0
VERTEX
  5
2D9
  8
0
 10
-16.82109832763672
 20
-48.72999954223633
 30
-12.82108020782471
 70
   192
  0
VERTEX
  5
2DA
  8
0
 10
17.32107925415039
 20
-48.72999954223633
 30
12.32109928131104
 70
   192
  0
VERTEX
  5
2DB
  8
0
 10
17.17464256286621
 20
-48.72999954223633
 30
12.67464447021484
 70
   192
  0
VERTEX
  5
2DC
  8
0
 10
16.82109832763672
 20
-48.72999954223633
 30
12.82108020782471
 70
   192
  0
VERTEX
  5
2DD
  8
0
 10
16.82109832763672
 20
-48.72999954223633
 30
-12.82108020782471
 70
   192
  0
VERTEX
  5
2DE
  8
0
 10
10.05000019073486
 20
-48.72999954223633
 30
-9.550000190734863
 70
   192
  0
VERTEX
  5
2DF
  8
0
 10
17.32107925415039
 20
-48.72999954223633
 30
-12.32109928131104
 70
   192
  0
VERTEX
  5
2E0
  8
0
 10
17.17464256286621
 20
-48.72999954223633
 30
-12.67464447021484
 70
   192
  0
VERTEX
  5
2E1
  8
0
 10
-10.05000019073486
 20
-48.72999954223633
 30
9.550000190734863
 70
   192
  0
VERTEX
  5
2E2
  8
0
 10
-17.32107925415039
 20
-48.72999954223633
 30
12.32109928131104
 70
   192
  0
VERTEX
  5
2E3
  8
0
 10
-9.550000190734863
 20
-48.72999954223633
 30
-10.05000019073486
 70
   192
  0
VERTEX
  5
2E4
  8
0
 10
-16.82109832763672
 20
-48.72999954223633
 30
12.82108020782471
 70
   192
  0
VERTEX
  5
2E5
  8
0
 10
9.550000190734863
 20
-48.72999954223633
 30
10.05000019073486
 70
   192
  0
VERTEX
  5
2E6
  8
0
 10
-17.17464256286621
 20
-48.72999954223633
 30
12.67464447021484
 70
   192
  0
VERTEX
  5
2E7
  8
0
 10
-17.82106018066406
 20
-48.2343635559082
 30
-12.32109928131104
 70
   192
  0
VERTEX
  5
2E8
  8
0
 10
-17.82106018066406
 20
-48.2343635559082
 30
12.32109928131104
 70
   192
  0
VERTEX
  5
2E9
  8
0
 10
-17.74228096008301
 20
-48.2354621887207
 30
12.70681095123291
 70
   192
  0
VERTEX
  5
2EA
  8
0
 10
17.74228096008301
 20
-48.2354621887207
 30
12.70681095123291
 70
   192
  0
VERTEX
  5
2EB
  8
0
 10
17.82106018066406
 20
-48.2343635559082
 30
12.32109928131104
 70
   192
  0
VERTEX
  5
2EC
  8
0
 10
17.82106018066406
 20
-48.2343635559082
 30
-12.32109928131104
 70
   192
  0
VERTEX
  5
2ED
  8
0
 10
17.74228096008301
 20
-48.2354621887207
 30
-12.70681095123291
 70
   192
  0
VERTEX
  5
2EE
  8
0
 10
-17.74228096008301
 20
-48.2354621887207
 30
-12.70681095123291
 70
   192
  0
VERTEX
  5
2EF
  8
0
 10
-16.82109832763672
 20
-48.5850944519043
 30
-13.17308712005615
 70
   192
  0
VERTEX
  5
2F0
  8
0
 10
-17.67308807373047
 20
-48.5850944519043
 30
-12.32109928131104
 70
   192
  0
VERTEX
  5
2F1
  8
0
 10
-17.42354393005371
 20
-48.58509063720703
 30
-12.92354583740234
 70
   192
  0
VERTEX
  5
2F2
  8
0
 10
-17.6730785369873
 20
-48.58508682250977
 30
12.32109546661377
 70
   192
  0
VERTEX
  5
2F3
  8
0
 10
-17.42354393005371
 20
-48.58509063720703
 30
12.92354583740234
 70
   192
  0
VERTEX
  5
2F4
  8
0
 10
-16.82109832763672
 20
-48.5850944519043
 30
13.17308712005615
 70
   192
  0
VERTEX
  5
2F5
  8
0
 10
16.82109451293945
 20
-48.58509063720703
 30
13.17308235168457
 70
   192
  0
VERTEX
  5
2F6
  8
0
 10
17.67308807373047
 20
-48.5850944519043
 30
12.32109928131104
 70
   192
  0
VERTEX
  5
2F7
  8
0
 10
17.42354393005371
 20
-48.58509063720703
 30
12.92354583740234
 70
   192
  0
VERTEX
  5
2F8
  8
0
 10
17.6730785369873
 20
-48.58508682250977
 30
-12.32109546661377
 70
   192
  0
VERTEX
  5
2F9
  8
0
 10
17.42354393005371
 20
-48.58509063720703
 30
-12.92354583740234
 70
   192
  0
VERTEX
  5
2FA
  8
0
 10
16.82109832763672
 20
-48.5850944519043
 30
-13.17308712005615
 70
   192
  0
VERTEX
  5
2FB
  8
0
 10
5.550000190734863
 20
-45.72999954223633
 30
-5.949999809265137
 70
   192
  0
VERTEX
  5
2FC
  8
0
 10
5.550000190734863
 20
-45.72999954223633
 30
-10.05000019073486
 70
   192
  0
VERTEX
  5
2FD
  8
0
 10
8.550000190734863
 20
-45.72999954223633
 30
-10.05000019073486
 70
   192
  0
VERTEX
  5
2FE
  8
0
 10
8.550000190734863
 20
-45.72999954223633
 30
-5.949999809265137
 70
   192
  0
VERTEX
  5
2FF
  8
0
 10
-8.550000190734863
 20
-45.72999954223633
 30
10.05000019073486
 70
   192
  0
VERTEX
  5
300
  8
0
 10
-5.550000190734863
 20
-45.72999954223633
 30
5.949999809265137
 70
   192
  0
VERTEX
  5
301
  8
0
 10
-5.550000190734863
 20
-45.72999954223633
 30
10.05000019073486
 70
   192
  0
VERTEX
  5
302
  8
0
 10
-8.550000190734863
 20
-45.72999954223633
 30
5.949999809265137
 70
   192
  0
VERTEX
  5
303
  8
0
 10
5.692207813262939
 20
-46.52999877929688
 30
-3.470545530319214
 70
   192
  0
VERTEX
  5
304
  8
0
 10
10.05000019073486
 20
-46.52999877929688
 30
-5.949999809265137
 70
   192
  0
VERTEX
  5
305
  8
0
 10
7.341036319732666
 20
-46.52999877929688
 30
-1.967024803161621
 70
   192
  0
VERTEX
  5
306
  8
0
 10
-3.111950874328613
 20
-46.52999877929688
 30
-5.899107456207275
 70
   192
  0
VERTEX
  5
307
  8
0
 10
-10.05000019073486
 20
-46.52999877929688
 30
-9.550000190734863
 70
   192
  0
VERTEX
  5
308
  8
0
 10
-0.490972101688385
 20
-46.52999877929688
 30
-6.651041984558105
 70
   192
  0
VERTEX
  5
309
  8
0
 10
7.599991798400879
 20
-46.52999877929688
 30
-0.000000033524401
 70
   192
  0
VERTEX
  5
30A
  8
0
 10
10.05000019073486
 20
-46.52999877929688
 30
9.550000190734863
 70
   192
  0
VERTEX
  5
30B
  8
0
 10
6.44272518157959
 20
-46.52999877929688
 30
1.726323008537292
 70
   192
  0
VERTEX
  5
30C
  8
0
 10
-2.211324453353882
 20
-46.52999877929688
 30
6.291185855865479
 70
   192
  0
VERTEX
  5
30D
  8
0
 10
-5.550000190734863
 20
-46.52999877929688
 30
10.05000019073486
 70
   192
  0
VERTEX
  5
30E
  8
0
 10
-4.543190956115723
 20
-46.52999877929688
 30
4.880387306213379
 70
   192
  0
VERTEX
  5
30F
  8
0
 10
-10.05000019073486
 20
-46.52999877929688
 30
5.949999809265137
 70
   192
  0
VERTEX
  5
310
  8
0
 10
-5.692207813262939
 20
-46.52999877929688
 30
3.470545530319214
 70
   192
  0
VERTEX
  5
311
  8
0
 10
4.543190956115723
 20
-46.52999877929688
 30
-4.880387306213379
 70
   192
  0
VERTEX
  5
312
  8
0
 10
5.550000190734863
 20
-46.52999877929688
 30
-10.05000019073486
 70
   192
  0
VERTEX
  5
313
  8
0
 10
2.211324453353882
 20
-46.52999877929688
 30
-6.291185855865479
 70
   192
  0
VERTEX
  5
314
  8
0
 10
-7.599991798400879
 20
-46.52999877929688
 30
0.0000000000001492
 70
   192
  0
VERTEX
  5
315
  8
0
 10
-7.341036319732666
 20
-46.52999877929688
 30
1.967024683952332
 70
   192
  0
VERTEX
  5
316
  8
0
 10
-6.44272518157959
 20
-46.52999877929688
 30
-1.726323008537292
 70
   192
  0
VERTEX
  5
317
  8
0
 10
-5.213099956512451
 20
-46.52999877929688
 30
-4.160670757293701
 70
   192
  0
VERTEX
  5
318
  8
0
 10
0.490972101688385
 20
-46.52999877929688
 30
6.651041984558105
 70
   192
  0
VERTEX
  5
319
  8
0
 10
5.213099956512451
 20
-46.52999877929688
 30
4.160670757293701
 70
   192
  0
VERTEX
  5
31A
  8
0
 10
3.111950874328613
 20
-46.52999877929688
 30
5.899107456207275
 70
   192
  0
VERTEX
  5
31B
  8
0
 62
   123
 10
0.0
 20
0.0
 30
0.0
 70
   128
 71
     3
 72
     2
 73
     1
  0
VERTEX
  5
31C
  8
0
 62
   123
 10
0.0
 20
0.0
 30
0.0
 70
   128
 71
     4
 72
     3
 73
     1
  0
VERTEX
  5
31D
  8
0
 62
   123
 10
0.0
 20
0.0
 30
0.0
 70
   128
 71
     7
 72
     6
 73
     5
  0
VERTEX
  5
31E
  8
0
 62
   123
 10
0.0
 20
0.0
 30
0.0
 70
   128
 71
     8
 72
     5
 73
     6
  0
VERTEX
  5
31F
  8
0
 62
   123
 10
0.0
 20
0.0
 30
0.0
 70
   128
 71
    11
 72
    10
 73
     9
  0
VERTEX
  5
320
  8
0
 62
   123
 10
0.0
 20
0.0
 30
0.0
 70
   128
 71
    12
 72
    11
 73
     9
  0
VERTEX
  5
321
  8
0
 62
   123
 10
0.0
 20
0.0
 30
0.0
 70
   128
 71
    15
 72
    14
 73
    13
  0
VERTEX
  5
322
  8
0
 62
   123
 10
0.0
 20
0.0
 30
0.0
 70
   128
 71
    16
 72
    13
 73
    14
  0
VERTEX
  5
323
  8
0
 62
   123
 10
0.0
 20
0.0
 30
0.0
 70
   128
 71
    19
 72
    18
 73
    17
  0
VERTEX
  5
324
  8
0
 62
   123
 10
0.0
 20
0.0
 30
0.0
 70
   128
 71
    22
 72
    21
 73
    20
  0
VERTEX
  5
325
  8
0
 62
   123
 10
0.0
 20
0.0
 30
0.0
 70
   128
 71
    19
 72
    24
 73
    23
  0
VERTEX
  5
326
  8
0
 62
   123
 10
0.0
 20
0.0
 30
0.0
 70
   128
 71
    23
 72
    24
 73
    25
  0
VERTEX
  5
327
  8
0
 62
   123
 10
0.0
 20
0.0
 30
0.0
 70
   128
 71
    23
 72
    25
 73
    26
  0
VERTEX
  5
328
  8
0
 62
   123
 10
0.0
 20
0.0
 30
0.0
 70
   128
 71
    29
 72
    28
 73
    27
  0
VERTEX
  5
329
  8
0
 62
   123
 10
0.0
 20
0.0
 30
0.0
 70
   128
 71
    27
 72
    28
 73
    30
  0
VERTEX
  5
32A
  8
0
 62
   123
 10
0.0
 20
0.0
 30
0.0
 70
   128
 71
    22
 72
    31
 73
    27
  0
VERTEX
  5
32B
  8
0
 62
   123
 10
0.0
 20
0.0
 30
0.0
 70
   128
 71
    30
 72
    28
 73
    32
  0
VERTEX
  5
32C
  8
0
 62
   123
 10
0.0
 20
0.0
 30
0.0
 70
   128
 71
    29
 72
    17
 73
    28
  0
VERTEX
  5
32D
  8
0
 62
   123
 10
0.0
 20
0.0
 30
0.0
 70
   128
 71
    24
 72
    19
 73
    29
  0
VERTEX
  5
32E
  8
0
 62
   123
 10
0.0
 20
0.0
 30
0.0
 70
   128
 71
    20
 72
    25
 73
    31
  0
VERTEX
  5
32F
  8
0
 62
   123
 10
0.0
 20
0.0
 30
0.0
 70
   128
 71
    17
 72
    29
 73
    19
  0
VERTEX
  5
330
  8
0
 62
   123
 10
0.0
 20
0.0
 30
0.0
 70
   128
 71
    20
 72
    31
 73
    22
  0
VERTEX
  5
331
  8
0
 62
   123
 10
0.0
 20
0.0
 30
0.0
 70
   128
 71
    27
 72
    30
 73
    22
  0
VERTEX
  5
332
  8
0
 62
   123
 10
0.0
 20
0.0
 30
0.0
 70
   128
 71
    24
 72
    31
 73
    25
  0
VERTEX
  5
333
  8
0
 62
   123
 10
0.0
 20
0.0
 30
0.0
 70
   128
 71
    34
 72
    33
 73
    14
  0
VERTEX
  5
334
  8
0
 62
   123
 10
0.0
 20
0.0
 30
0.0
 70
   128
 71
     3
 72
    14
 73
    33
  0
VERTEX
  5
335
  8
0
 62
   123
 10
0.0
 20
0.0
 30
0.0
 70
   128
 71
    34
 72
    14
 73
    35
  0
VERTEX
  5
336
  8
0
 62
   123
 10
0.0
 20
0.0
 30
0.0
 70
   128
 71
    14
 72
    15
 73
    35
  0
VERTEX
  5
337
  8
0
 62
   123
 10
0.0
 20
0.0
 30
0.0
 70
   128
 71
    11
 72
    12
 73
    14
  0
VERTEX
  5
338
  8
0
 62
   123
 10
0.0
 20
0.0
 30
0.0
 70
   128
 71
    16
 72
    14
 73
    12
  0
VERTEX
  5
339
  8
0
 62
   123
 10
0.0
 20
0.0
 30
0.0
 70
   128
 71
    10
 72
    11
 73
    36
  0
VERTEX
  5
33A
  8
0
 62
   123
 10
0.0
 20
0.0
 30
0.0
 70
   128
 71
    11
 72
    37
 73
    36
  0
VERTEX
  5
33B
  8
0
 62
   123
 10
0.0
 20
0.0
 30
0.0
 70
   128
 71
    38
 72
    37
 73
    11
  0
VERTEX
  5
33C
  8
0
 62
   123
 10
0.0
 20
0.0
 30
0.0
 70
   128
 71
     6
 72
    38
 73
    11
  0
VERTEX
  5
33D
  8
0
 62
   123
 10
0.0
 20
0.0
 30
0.0
 70
   128
 71
    38
 72
     6
 73
    39
  0
VERTEX
  5
33E
  8
0
 62
   123
 10
0.0
 20
0.0
 30
0.0
 70
   128
 71
     6
 72
     7
 73
    39
  0
VERTEX
  5
33F
  8
0
 62
   123
 10
0.0
 20
0.0
 30
0.0
 70
   128
 71
     3
 72
     4
 73
     8
  0
VERTEX
  5
340
  8
0
 62
   123
 10
0.0
 20
0.0
 30
0.0
 70
   128
 71
     8
 72
     6
 73
     3
  0
VERTEX
  5
341
  8
0
 62
   123
 10
0.0
 20
0.0
 30
0.0
 70
   128
 71
     2
 72
     3
 73
    40
  0
VERTEX
  5
342
  8
0
 62
   123
 10
0.0
 20
0.0
 30
0.0
 70
   128
 71
     3
 72
    33
 73
    40
  0
VERTEX
  5
343
  8
0
 62
   123
 10
0.0
 20
0.0
 30
0.0
 70
   128
 71
    18
 72
    19
 73
    41
  0
VERTEX
  5
344
  8
0
 62
   123
 10
0.0
 20
0.0
 30
0.0
 70
   128
 71
    43
 72
    42
 73
    17
  0
VERTEX
  5
345
  8
0
 62
   123
 10
0.0
 20
0.0
 30
0.0
 70
   128
 71
    43
 72
     1
 73
     2
  0
VERTEX
  5
346
  8
0
 62
   123
 10
0.0
 20
0.0
 30
0.0
 70
   128
 71
    43
 72
     2
 73
    42
  0
VERTEX
  5
347
  8
0
 62
   123
 10
0.0
 20
0.0
 30
0.0
 70
   128
 71
    40
 72
    33
 73
    42
  0
VERTEX
  5
348
  8
0
 62
   123
 10
0.0
 20
0.0
 30
0.0
 70
   128
 71
    18
 72
    41
 73
    43
  0
VERTEX
  5
349
  8
0
 62
   123
 10
0.0
 20
0.0
 30
0.0
 70
   128
 71
     2
 72
    40
 73
    42
  0
VERTEX
  5
34A
  8
0
 62
   123
 10
0.0
 20
0.0
 30
0.0
 70
   128
 71
     4
 72
    43
 73
    41
  0
VERTEX
  5
34B
  8
0
 62
   123
 10
0.0
 20
0.0
 30
0.0
 70
   128
 71
     4
 72
     1
 73
    43
  0
VERTEX
  5
34C
  8
0
 62
   123
 10
0.0
 20
0.0
 30
0.0
 70
   128
 71
    18
 72
    43
 73
    17
  0
VERTEX
  5
34D
  8
0
 62
   123
 10
0.0
 20
0.0
 30
0.0
 70
   128
 71
    42
 72
    34
 73
    44
  0
VERTEX
  5
34E
  8
0
 62
   123
 10
0.0
 20
0.0
 30
0.0
 70
   128
 71
    42
 72
    33
 73
    34
  0
VERTEX
  5
34F
  8
0
 62
   123
 10
0.0
 20
0.0
 30
0.0
 70
   128
 71
    42
 72
    44
 73
    17
  0
VERTEX
  5
350
  8
0
 62
   123
 10
0.0
 20
0.0
 30
0.0
 70
   128
 71
    28
 72
    17
 73
    44
  0
VERTEX
  5
351
  8
0
 62
   123
 10
0.0
 20
0.0
 30
0.0
 70
   128
 71
    32
 72
    28
 73
    44
  0
VERTEX
  5
352
  8
0
 62
   123
 10
0.0
 20
0.0
 30
0.0
 70
   128
 71
    45
 72
    35
 73
    15
  0
VERTEX
  5
353
  8
0
 62
   123
 10
0.0
 20
0.0
 30
0.0
 70
   128
 71
    30
 72
    45
 73
    46
  0
VERTEX
  5
354
  8
0
 62
   123
 10
0.0
 20
0.0
 30
0.0
 70
   128
 71
    46
 72
    45
 73
    15
  0
VERTEX
  5
355
  8
0
 62
   123
 10
0.0
 20
0.0
 30
0.0
 70
   128
 71
    13
 72
    16
 73
    46
  0
VERTEX
  5
356
  8
0
 62
   123
 10
0.0
 20
0.0
 30
0.0
 70
   128
 71
    32
 72
    44
 73
    45
  0
VERTEX
  5
357
  8
0
 62
   123
 10
0.0
 20
0.0
 30
0.0
 70
   128
 71
    15
 72
    13
 73
    46
  0
VERTEX
  5
358
  8
0
 62
   123
 10
0.0
 20
0.0
 30
0.0
 70
   128
 71
    34
 72
    45
 73
    44
  0
VERTEX
  5
359
  8
0
 62
   123
 10
0.0
 20
0.0
 30
0.0
 70
   128
 71
    34
 72
    35
 73
    45
  0
VERTEX
  5
35A
  8
0
 62
   123
 10
0.0
 20
0.0
 30
0.0
 70
   128
 71
    32
 72
    45
 73
    30
  0
VERTEX
  5
35B
  8
0
 62
   123
 10
0.0
 20
0.0
 30
0.0
 70
   128
 71
    46
 72
    12
 73
    47
  0
VERTEX
  5
35C
  8
0
 62
   123
 10
0.0
 20
0.0
 30
0.0
 70
   128
 71
    46
 72
    16
 73
    12
  0
VERTEX
  5
35D
  8
0
 62
   123
 10
0.0
 20
0.0
 30
0.0
 70
   128
 71
    46
 72
    47
 73
    30
  0
VERTEX
  5
35E
  8
0
 62
   123
 10
0.0
 20
0.0
 30
0.0
 70
   128
 71
    22
 72
    30
 73
    47
  0
VERTEX
  5
35F
  8
0
 62
   123
 10
0.0
 20
0.0
 30
0.0
 70
   128
 71
    21
 72
    22
 73
    47
  0
VERTEX
  5
360
  8
0
 62
   123
 10
0.0
 20
0.0
 30
0.0
 70
   128
 71
    49
 72
    48
 73
    20
  0
VERTEX
  5
361
  8
0
 62
   123
 10
0.0
 20
0.0
 30
0.0
 70
   128
 71
    49
 72
     9
 73
    10
  0
VERTEX
  5
362
  8
0
 62
   123
 10
0.0
 20
0.0
 30
0.0
 70
   128
 71
    49
 72
    10
 73
    48
  0
VERTEX
  5
363
  8
0
 62
   123
 10
0.0
 20
0.0
 30
0.0
 70
   128
 71
    36
 72
    37
 73
    48
  0
VERTEX
  5
364
  8
0
 62
   123
 10
0.0
 20
0.0
 30
0.0
 70
   128
 71
    21
 72
    47
 73
    49
  0
VERTEX
  5
365
  8
0
 62
   123
 10
0.0
 20
0.0
 30
0.0
 70
   128
 71
    10
 72
    36
 73
    48
  0
VERTEX
  5
366
  8
0
 62
   123
 10
0.0
 20
0.0
 30
0.0
 70
   128
 71
    12
 72
    49
 73
    47
  0
VERTEX
  5
367
  8
0
 62
   123
 10
0.0
 20
0.0
 30
0.0
 70
   128
 71
    12
 72
     9
 73
    49
  0
VERTEX
  5
368
  8
0
 62
   123
 10
0.0
 20
0.0
 30
0.0
 70
   128
 71
    21
 72
    49
 73
    20
  0
VERTEX
  5
369
  8
0
 62
   123
 10
0.0
 20
0.0
 30
0.0
 70
   128
 71
    48
 72
    38
 73
    50
  0
VERTEX
  5
36A
  8
0
 62
   123
 10
0.0
 20
0.0
 30
0.0
 70
   128
 71
    48
 72
    37
 73
    38
  0
VERTEX
  5
36B
  8
0
 62
   123
 10
0.0
 20
0.0
 30
0.0
 70
   128
 71
    48
 72
    50
 73
    20
  0
VERTEX
  5
36C
  8
0
 62
   123
 10
0.0
 20
0.0
 30
0.0
 70
   128
 71
    25
 72
    20
 73
    50
  0
VERTEX
  5
36D
  8
0
 62
   123
 10
0.0
 20
0.0
 30
0.0
 70
   128
 71
    26
 72
    25
 73
    50
  0
VERTEX
  5
36E
  8
0
 62
   123
 10
0.0
 20
0.0
 30
0.0
 70
   128
 71
    51
 72
    39
 73
     7
  0
VERTEX
  5
36F
  8
0
 62
   123
 10
0.0
 20
0.0
 30
0.0
 70
   128
 71
    23
 72
    51
 73
    52
  0
VERTEX
  5
370
  8
0
 62
   123
 10
0.0
 20
0.0
 30
0.0
 70
   128
 71
    52
 72
    51
 73
     7
  0
VERTEX
  5
371
  8
0
 62
   123
 10
0.0
 20
0.0
 30
0.0
 70
   128
 71
     5
 72
     8
 73
    52
  0
VERTEX
  5
372
  8
0
 62
   123
 10
0.0
 20
0.0
 30
0.0
 70
   128
 71
    26
 72
    50
 73
    51
  0
VERTEX
  5
373
  8
0
 62
   123
 10
0.0
 20
0.0
 30
0.0
 70
   128
 71
     7
 72
     5
 73
    52
  0
VERTEX
  5
374
  8
0
 62
   123
 10
0.0
 20
0.0
 30
0.0
 70
   128
 71
    38
 72
    51
 73
    50
  0
VERTEX
  5
375
  8
0
 62
   123
 10
0.0
 20
0.0
 30
0.0
 70
   128
 71
    38
 72
    39
 73
    51
  0
VERTEX
  5
376
  8
0
 62
   123
 10
0.0
 20
0.0
 30
0.0
 70
   128
 71
    26
 72
    51
 73
    23
  0
VERTEX
  5
377
  8
0
 62
   123
 10
0.0
 20
0.0
 30
0.0
 70
   128
 71
    52
 72
     4
 73
    41
  0
VERTEX
  5
378
  8
0
 62
   123
 10
0.0
 20
0.0
 30
0.0
 70
   128
 71
    52
 72
     8
 73
     4
  0
VERTEX
  5
379
  8
0
 62
   123
 10
0.0
 20
0.0
 30
0.0
 70
   128
 71
    52
 72
    41
 73
    23
  0
VERTEX
  5
37A
  8
0
 62
   123
 10
0.0
 20
0.0
 30
0.0
 70
   128
 71
    19
 72
    23
 73
    41
  0
VERTEX
  5
37B
  8
0
 62
   123
 10
0.0
 20
0.0
 30
0.0
 70
   128
 71
    55
 72
    54
 73
    53
  0
VERTEX
  5
37C
  8
0
 62
   123
 10
0.0
 20
0.0
 30
0.0
 70
   128
 71
    56
 72
    55
 73
    53
  0
VERTEX
  5
37D
  8
0
 62
   123
 10
0.0
 20
0.0
 30
0.0
 70
   128
 71
    59
 72
    58
 73
    57
  0
VERTEX
  5
37E
  8
0
 62
   123
 10
0.0
 20
0.0
 30
0.0
 70
   128
 71
    60
 72
    57
 73
    58
  0
VERTEX
  5
37F
  8
0
 62
   123
 10
0.0
 20
0.0
 30
0.0
 70
   128
 71
    63
 72
    62
 73
    61
  0
VERTEX
  5
380
  8
0
 62
   123
 10
0.0
 20
0.0
 30
0.0
 70
   128
 71
    66
 72
    65
 73
    64
  0
VERTEX
  5
381
  8
0
 62
   123
 10
0.0
 20
0.0
 30
0.0
 70
   128
 71
    69
 72
    68
 73
    67
  0
VERTEX
  5
382
  8
0
 62
   123
 10
0.0
 20
0.0
 30
0.0
 70
   128
 71
    72
 72
    71
 73
    70
  0
VERTEX
  5
383
  8
0
 62
   123
 10
0.0
 20
0.0
 30
0.0
 70
   128
 71
    72
 72
    74
 73
    73
  0
VERTEX
  5
384
  8
0
 62
   123
 10
0.0
 20
0.0
 30
0.0
 70
   128
 71
    75
 72
    61
 73
    62
  0
VERTEX
  5
385
  8
0
 62
   123
 10
0.0
 20
0.0
 30
0.0
 70
   128
 71
    66
 72
    77
 73
    76
  0
VERTEX
  5
386
  8
0
 62
   123
 10
0.0
 20
0.0
 30
0.0
 70
   128
 71
    76
 72
    77
 73
    75
  0
VERTEX
  5
387
  8
0
 62
   123
 10
0.0
 20
0.0
 30
0.0
 70
   128
 71
    73
 72
    79
 73
    78
  0
VERTEX
  5
388
  8
0
 62
   123
 10
0.0
 20
0.0
 30
0.0
 70
   128
 71
    65
 72
    66
 73
    76
  0
VERTEX
  5
389
  8
0
 62
   123
 10
0.0
 20
0.0
 30
0.0
 70
   128
 71
    73
 72
    78
 73
    65
  0
VERTEX
  5
38A
  8
0
 62
   123
 10
0.0
 20
0.0
 30
0.0
 70
   128
 71
    81
 72
    65
 73
    80
  0
VERTEX
  5
38B
  8
0
 62
   123
 10
0.0
 20
0.0
 30
0.0
 70
   128
 71
    81
 72
    64
 73
    65
  0
VERTEX
  5
38C
  8
0
 62
   123
 10
0.0
 20
0.0
 30
0.0
 70
   128
 71
    78
 72
    80
 73
    65
  0
VERTEX
  5
38D
  8
0
 62
   123
 10
0.0
 20
0.0
 30
0.0
 70
   128
 71
    73
 72
    74
 73
    79
  0
VERTEX
  5
38E
  8
0
 62
   123
 10
0.0
 20
0.0
 30
0.0
 70
   128
 71
    71
 72
    68
 73
    82
  0
VERTEX
  5
38F
  8
0
 62
   123
 10
0.0
 20
0.0
 30
0.0
 70
   128
 71
    82
 72
    70
 73
    71
  0
VERTEX
  5
390
  8
0
 62
   123
 10
0.0
 20
0.0
 30
0.0
 70
   128
 71
    84
 72
    68
 73
    83
  0
VERTEX
  5
391
  8
0
 62
   123
 10
0.0
 20
0.0
 30
0.0
 70
   128
 71
    84
 72
    82
 73
    68
  0
VERTEX
  5
392
  8
0
 62
   123
 10
0.0
 20
0.0
 30
0.0
 70
   128
 71
    69
 72
    83
 73
    68
  0
VERTEX
  5
393
  8
0
 62
   123
 10
0.0
 20
0.0
 30
0.0
 70
   128
 71
    67
 72
    62
 73
    63
  0
VERTEX
  5
394
  8
0
 62
   123
 10
0.0
 20
0.0
 30
0.0
 70
   128
 71
    62
 72
    67
 73
    68
  0
SEQEND
  5
395
  8
0
 62
   123
  0
ENDBLK
  5
398
  8
0
  0
BLOCK
  8
0
  2
M50150-026
 70
     0
 10
0.0
 20
0.0
 30
0.0
  3
M50150-026
  1

  0
POLYLINE
  5
39A
  8
0
 62
   123
 66
     1
 10
0.0
 20
0.0
 30
0.0
 70
    64
 71
   114
 72
   122
  0
VERTEX
  5
39B
  8
0
 10
-2.146446704864502
 20
29.35355377197266
 30
10.46000003814697
 70
   192
  0
VERTEX
  5
39C
  8
0
 10
2.0
 20
29.0
 30
10.46000003814697
 70
   192
  0
VERTEX
  5
39D
  8
0
 10
2.146446704864502
 20
29.35355377197266
 30
10.46000003814697
 70
   192
  0
VERTEX
  5
39E
  8
0
 10
-2.0
 20
29.0
 30
10.46000003814697
 70
   192
  0
VERTEX
  5
39F
  8
0
 10
2.0
 20
27.5
 30
10.46000003814697
 70
   192
  0
VERTEX
  5
3A0
  8
0
 10
-2.0
 20
27.5
 30
10.46000003814697
 70
   192
  0
VERTEX
  5
3A1
  8
0
 10
-2.5
 20
29.5
 30
10.46000003814697
 70
   192
  0
VERTEX
  5
3A2
  8
0
 10
2.5
 20
29.5
 30
10.46000003814697
 70
   192
  0
VERTEX
  5
3A3
  8
0
 10
-4.520663261413574
 20
27.5
 30
-7.139054775238037
 70
   192
  0
VERTEX
  5
3A4
  8
0
 10
-4.520663261413574
 20
29.0
 30
-7.139054775238037
 70
   192
  0
VERTEX
  5
3A5
  8
0
 10
-3.425358057022095
 20
29.0
 30
-7.724598407745361
 70
   192
  0
VERTEX
  5
3A6
  8
0
 10
-2.0
 20
29.0
 30
-8.593748092651367
 70
   192
  0
VERTEX
  5
3A7
  8
0
 10
-2.360335111618042
 20
27.5
 30
-8.11365032196045
 70
   192
  0
VERTEX
  5
3A8
  8
0
 10
-3.425358057022095
 20
27.5
 30
-7.724598407745361
 70
   192
  0
VERTEX
  5
3A9
  8
0
 10
-6.603288173675537
 20
29.0
 30
-5.272483825683594
 70
   192
  0
VERTEX
  5
3AA
  8
0
 10
-7.454520702362061
 20
27.5
 30
-3.979022979736328
 70
   192
  0
VERTEX
  5
3AB
  8
0
 10
-7.454520702362061
 20
29.0
 30
-3.979022979736328
 70
   192
  0
VERTEX
  5
3AC
  8
0
 10
-6.603288173675537
 20
27.5
 30
-5.272483825683594
 70
   192
  0
VERTEX
  5
3AD
  8
0
 10
-5.60060977935791
 20
29.0
 30
-6.327374458312988
 70
   192
  0
VERTEX
  5
3AE
  8
0
 10
-5.60060977935791
 20
27.5
 30
-6.327374458312988
 70
   192
  0
VERTEX
  5
3AF
  8
0
 10
-8.407793998718262
 20
27.5
 30
0.843502938747406
 70
   192
  0
VERTEX
  5
3B0
  8
0
 10
-8.407793998718262
 20
29.0
 30
0.843502938747406
 70
   192
  0
VERTEX
  5
3B1
  8
0
 10
-8.407793998718262
 20
29.0
 30
-0.843502938747406
 70
   192
  0
VERTEX
  5
3B2
  8
0
 10
-8.407793998718262
 20
27.5
 30
-0.843502938747406
 70
   192
  0
VERTEX
  5
3B3
  8
0
 10
-8.077588081359863
 20
29.0
 30
-2.480941772460938
 70
   192
  0
VERTEX
  5
3B4
  8
0
 10
-8.077588081359863
 20
27.5
 30
-2.480941772460938
 70
   192
  0
VERTEX
  5
3B5
  8
0
 10
-6.603288173675537
 20
29.0
 30
5.272483825683594
 70
   192
  0
VERTEX
  5
3B6
  8
0
 10
-7.454520702362061
 20
29.0
 30
3.979022979736328
 70
   192
  0
VERTEX
  5
3B7
  8
0
 10
-6.603288173675537
 20
27.5
 30
5.272483825683594
 70
   192
  0
VERTEX
  5
3B8
  8
0
 10
-8.077588081359863
 20
29.0
 30
2.480941772460938
 70
   192
  0
VERTEX
  5
3B9
  8
0
 10
-8.077588081359863
 20
27.5
 30
2.480941772460938
 70
   192
  0
VERTEX
  5
3BA
  8
0
 10
-7.454520702362061
 20
27.5
 30
3.979022979736328
 70
   192
  0
VERTEX
  5
3BB
  8
0
 10
-4.520663261413574
 20
27.5
 30
7.139054775238037
 70
   192
  0
VERTEX
  5
3BC
  8
0
 10
-5.60060977935791
 20
29.0
 30
6.327374458312988
 70
   192
  0
VERTEX
  5
3BD
  8
0
 10
-5.60060977935791
 20
27.5
 30
6.327374458312988
 70
   192
  0
VERTEX
  5
3BE
  8
0
 10
-3.425358057022095
 20
27.5
 30
7.724598407745361
 70
   192
  0
VERTEX
  5
3BF
  8
0
 10
-4.520663261413574
 20
29.0
 30
7.139054775238037
 70
   192
  0
VERTEX
  5
3C0
  8
0
 10
-3.425358057022095
 20
29.0
 30
7.724598407745361
 70
   192
  0
VERTEX
  5
3C1
  8
0
 10
-2.0
 20
27.5
 30
8.593748092651367
 70
   192
  0
VERTEX
  5
3C2
  8
0
 10
-2.360335111618042
 20
29.0
 30
8.11365032196045
 70
   192
  0
VERTEX
  5
3C3
  8
0
 10
4.520663261413574
 20
27.5
 30
7.139054775238037
 70
   192
  0
VERTEX
  5
3C4
  8
0
 10
4.520663261413574
 20
29.0
 30
7.139054775238037
 70
   192
  0
VERTEX
  5
3C5
  8
0
 10
3.425358057022095
 20
29.0
 30
7.724598407745361
 70
   192
  0
VERTEX
  5
3C6
  8
0
 10
2.0
 20
29.0
 30
8.593748092651367
 70
   192
  0
VERTEX
  5
3C7
  8
0
 10
2.360335111618042
 20
27.5
 30
8.11365032196045
 70
   192
  0
VERTEX
  5
3C8
  8
0
 10
3.425358057022095
 20
27.5
 30
7.724598407745361
 70
   192
  0
VERTEX
  5
3C9
  8
0
 10
6.603288173675537
 20
29.0
 30
5.272483825683594
 70
   192
  0
VERTEX
  5
3CA
  8
0
 10
7.454520702362061
 20
27.5
 30
3.979022979736328
 70
   192
  0
VERTEX
  5
3CB
  8
0
 10
7.454520702362061
 20
29.0
 30
3.979022979736328
 70
   192
  0
VERTEX
  5
3CC
  8
0
 10
6.603288173675537
 20
27.5
 30
5.272483825683594
 70
   192
  0
VERTEX
  5
3CD
  8
0
 10
5.60060977935791
 20
29.0
 30
6.327374458312988
 70
   192
  0
VERTEX
  5
3CE
  8
0
 10
5.60060977935791
 20
27.5
 30
6.327374458312988
 70
   192
  0
VERTEX
  5
3CF
  8
0
 10
8.407793998718262
 20
27.5
 30
-0.843502938747406
 70
   192
  0
VERTEX
  5
3D0
  8
0
 10
8.407793998718262
 20
29.0
 30
-0.843502938747406
 70
   192
  0
VERTEX
  5
3D1
  8
0
 10
8.407793998718262
 20
29.0
 30
0.843502938747406
 70
   192
  0
VERTEX
  5
3D2
  8
0
 10
8.407793998718262
 20
27.5
 30
0.843502938747406
 70
   192
  0
VERTEX
  5
3D3
  8
0
 10
8.077588081359863
 20
29.0
 30
2.480941772460938
 70
   192
  0
VERTEX
  5
3D4
  8
0
 10
8.077588081359863
 20
27.5
 30
2.480941772460938
 70
   192
  0
VERTEX
  5
3D5
  8
0
 10
6.603288173675537
 20
29.0
 30
-5.272483825683594
 70
   192
  0
VERTEX
  5
3D6
  8
0
 10
7.454520702362061
 20
29.0
 30
-3.979022979736328
 70
   192
  0
VERTEX
  5
3D7
  8
0
 10
6.603288173675537
 20
27.5
 30
-5.272483825683594
 70
   192
  0
VERTEX
  5
3D8
  8
0
 10
8.077588081359863
 20
29.0
 30
-2.480941772460938
 70
   192
  0
VERTEX
  5
3D9
  8
0
 10
8.077588081359863
 20
27.5
 30
-2.480941772460938
 70
   192
  0
VERTEX
  5
3DA
  8
0
 10
7.454520702362061
 20
27.5
 30
-3.979022979736328
 70
   192
  0
VERTEX
  5
3DB
  8
0
 10
4.520663261413574
 20
27.5
 30
-7.139054775238037
 70
   192
  0
VERTEX
  5
3DC
  8
0
 10
5.60060977935791
 20
29.0
 30
-6.327374458312988
 70
   192
  0
VERTEX
  5
3DD
  8
0
 10
5.60060977935791
 20
27.5
 30
-6.327374458312988
 70
   192
  0
VERTEX
  5
3DE
  8
0
 10
3.425358057022095
 20
27.5
 30
-7.724598407745361
 70
   192
  0
VERTEX
  5
3DF
  8
0
 10
4.520663261413574
 20
29.0
 30
-7.139054775238037
 70
   192
  0
VERTEX
  5
3E0
  8
0
 10
3.425358057022095
 20
29.0
 30
-7.724598407745361
 70
   192
  0
VERTEX
  5
3E1
  8
0
 10
2.0
 20
27.5
 30
-8.593748092651367
 70
   192
  0
VERTEX
  5
3E2
  8
0
 10
2.360335111618042
 20
29.0
 30
-8.11365032196045
 70
   192
  0
VERTEX
  5
3E3
  8
0
 10
10.30000305175781
 20
27.5
 30
-6.309714794158936
 70
   192
  0
VERTEX
  5
3E4
  8
0
 10
10.38985347747803
 20
27.58786773681641
 30
-6.706853866577148
 70
   192
  0
VERTEX
  5
3E5
  8
0
 10
10.68152046203613
 20
27.58786773681641
 30
-6.679717540740967
 70
   192
  0
VERTEX
  5
3E6
  8
0
 10
10.15383052825928
 20
27.58786773681641
 30
-6.533362865447998
 70
   192
  0
VERTEX
  5
3E7
  8
0
 10
12.71003150939941
 20
27.79999923706055
 30
-1.008763194084167
 70
   192
  0
VERTEX
  5
3E8
  8
0
 10
12.71003150939941
 20
27.79999923706055
 30
1.008763194084167
 70
   192
  0
VERTEX
  5
3E9
  8
0
 10
12.62260913848877
 20
27.58803939819336
 30
1.001824617385864
 70
   192
  0
VERTEX
  5
3EA
  8
0
 10
12.30948257446289
 20
27.58803939819336
 30
-2.968254566192627
 70
   192
  0
VERTEX
  5
3EB
  8
0
 10
11.70593547821045
 20
27.58803939819336
 30
-4.827523708343506
 70
   192
  0
VERTEX
  5
3EC
  8
0
 10
11.78700923919678
 20
27.79999923706055
 30
-4.860958576202393
 70
   192
  0
VERTEX
  5
3ED
  8
0
 10
12.30948257446289
 20
27.58803939819336
 30
2.968254566192627
 70
   192
  0
VERTEX
  5
3EE
  8
0
 10
11.70593547821045
 20
27.58803939819336
 30
4.827523708343506
 70
   192
  0
VERTEX
  5
3EF
  8
0
 10
12.39473724365234
 20
27.79999923706055
 30
2.988812208175659
 70
   192
  0
VERTEX
  5
3F0
  8
0
 10
11.78700923919678
 20
27.79999923706055
 30
4.860958576202393
 70
   192
  0
VERTEX
  5
3F1
  8
0
 10
10.9285717010498
 20
27.79999923706055
 30
6.567254066467285
 70
   192
  0
VERTEX
  5
3F2
  8
0
 10
12.39473724365234
 20
27.79999923706055
 30
-2.988812208175659
 70
   192
  0
VERTEX
  5
3F3
  8
0
 10
12.62260913848877
 20
27.58803939819336
 30
-1.001824617385864
 70
   192
  0
VERTEX
  5
3F4
  8
0
 10
-10.0
 20
27.79999923706055
 30
-6.309714794158936
 70
   192
  0
VERTEX
  5
3F5
  8
0
 10
-10.15383052825928
 20
27.58786773681641
 30
-6.533362865447998
 70
   192
  0
VERTEX
  5
3F6
  8
0
 10
-10.38985347747803
 20
27.58786773681641
 30
-6.706853866577148
 70
   192
  0
VERTEX
  5
3F7
  8
0
 10
-10.68152046203613
 20
27.58786773681641
 30
-6.679717540740967
 70
   192
  0
VERTEX
  5
3F8
  8
0
 10
-12.71003150939941
 20
27.79999923706055
 30
1.008763194084167
 70
   192
  0
VERTEX
  5
3F9
  8
0
 10
-12.71003150939941
 20
27.79999923706055
 30
-1.008763194084167
 70
   192
  0
VERTEX
  5
3FA
  8
0
 10
-12.62260913848877
 20
27.58803939819336
 30
-1.001824617385864
 70
   192
  0
VERTEX
  5
3FB
  8
0
 10
-12.30948257446289
 20
27.58803939819336
 30
2.968254566192627
 70
   192
  0
VERTEX
  5
3FC
  8
0
 10
-11.70593547821045
 20
27.58803939819336
 30
4.827523708343506
 70
   192
  0
VERTEX
  5
3FD
  8
0
 10
-11.78700923919678
 20
27.79999923706055
 30
4.860958576202393
 70
   192
  0
VERTEX
  5
3FE
  8
0
 10
-10.36636924743652
 20
27.79999923706055
 30
6.791526794433594
 70
   192
  0
VERTEX
  5
3FF
  8
0
 10
-12.30948257446289
 20
27.58803939819336
 30
-2.968254566192627
 70
   192
  0
VERTEX
  5
400
  8
0
 10
-11.70593547821045
 20
27.58803939819336
 30
-4.827523708343506
 70
   192
  0
VERTEX
  5
401
  8
0
 10
-12.39473724365234
 20
27.79999923706055
 30
-2.988812208175659
 70
   192
  0
VERTEX
  5
402
  8
0
 10
-11.78700923919678
 20
27.79999923706055
 30
-4.860958576202393
 70
   192
  0
VERTEX
  5
403
  8
0
 10
-12.39473724365234
 20
27.79999923706055
 30
2.988812208175659
 70
   192
  0
VERTEX
  5
404
  8
0
 10
-12.62260913848877
 20
27.58803939819336
 30
1.001824617385864
 70
   192
  0
VERTEX
  5
405
  8
0
 10
2.0
 20
27.5
 30
-10.46000003814697
 70
   192
  0
VERTEX
  5
406
  8
0
 10
-2.0
 20
27.5
 30
-10.46000003814697
 70
   192
  0
VERTEX
  5
407
  8
0
 10
-2.0
 20
29.0
 30
-10.46000003814697
 70
   192
  0
VERTEX
  5
408
  8
0
 10
2.146446704864502
 20
29.35355377197266
 30
-10.46000003814697
 70
   192
  0
VERTEX
  5
409
  8
0
 10
-2.146446704864502
 20
29.35355377197266
 30
-10.46000003814697
 70
   192
  0
VERTEX
  5
40A
  8
0
 10
-2.5
 20
29.5
 30
-10.46000003814697
 70
   192
  0
VERTEX
  5
40B
  8
0
 10
2.5
 20
29.5
 30
-10.46000003814697
 70
   192
  0
VERTEX
  5
40C
  8
0
 10
2.0
 20
29.0
 30
-10.46000003814697
 70
   192
  0
VERTEX
  5
40D
  8
0
 62
   123
 10
0.0
 20
0.0
 30
0.0
 70
   128
 71
     3
 72
     2
 73
     1
  0
VERTEX
  5
40E
  8
0
 62
   123
 10
0.0
 20
0.0
 30
0.0
 70
   128
 71
     4
 72
     1
 73
     2
  0
VERTEX
  5
40F
  8
0
 62
   123
 10
0.0
 20
0.0
 30
0.0
 70
   128
 71
     4
 72
     2
 73
     5
  0
VERTEX
  5
410
  8
0
 62
   123
 10
0.0
 20
0.0
 30
0.0
 70
   128
 71
     5
 72
     6
 73
     4
  0
VERTEX
  5
411
  8
0
 62
   123
 10
0.0
 20
0.0
 30
0.0
 70
   128
 71
     3
 72
     1
 73
     7
  0
VERTEX
  5
412
  8
0
 62
   123
 10
0.0
 20
0.0
 30
0.0
 70
   128
 71
     7
 72
     8
 73
     3
  0
VERTEX
  5
413
  8
0
 62
   123
 10
0.0
 20
0.0
 30
0.0
 70
   128
 71
    11
 72
    10
 73
     9
  0
VERTEX
  5
414
  8
0
 62
   123
 10
0.0
 20
0.0
 30
0.0
 70
   128
 71
    14
 72
    13
 73
    12
  0
VERTEX
  5
415
  8
0
 62
   123
 10
0.0
 20
0.0
 30
0.0
 70
   128
 71
    17
 72
    16
 73
    15
  0
VERTEX
  5
416
  8
0
 62
   123
 10
0.0
 20
0.0
 30
0.0
 70
   128
 71
    20
 72
    19
 73
    18
  0
VERTEX
  5
417
  8
0
 62
   123
 10
0.0
 20
0.0
 30
0.0
 70
   128
 71
    23
 72
    22
 73
    21
  0
VERTEX
  5
418
  8
0
 62
   123
 10
0.0
 20
0.0
 30
0.0
 70
   128
 71
    26
 72
    25
 73
    24
  0
VERTEX
  5
419
  8
0
 62
   123
 10
0.0
 20
0.0
 30
0.0
 70
   128
 71
    29
 72
    28
 73
    27
  0
VERTEX
  5
41A
  8
0
 62
   123
 10
0.0
 20
0.0
 30
0.0
 70
   128
 71
    32
 72
    31
 73
    30
  0
VERTEX
  5
41B
  8
0
 62
   123
 10
0.0
 20
0.0
 30
0.0
 70
   128
 71
    35
 72
    34
 73
    33
  0
VERTEX
  5
41C
  8
0
 62
   123
 10
0.0
 20
0.0
 30
0.0
 70
   128
 71
    34
 72
    35
 73
    27
  0
VERTEX
  5
41D
  8
0
 62
   123
 10
0.0
 20
0.0
 30
0.0
 70
   128
 71
    37
 72
    36
 73
    33
  0
VERTEX
  5
41E
  8
0
 62
   123
 10
0.0
 20
0.0
 30
0.0
 70
   128
 71
    33
 72
    34
 73
    37
  0
VERTEX
  5
41F
  8
0
 62
   123
 10
0.0
 20
0.0
 30
0.0
 70
   128
 71
    39
 72
    36
 73
    38
  0
VERTEX
  5
420
  8
0
 62
   123
 10
0.0
 20
0.0
 30
0.0
 70
   128
 71
    37
 72
    38
 73
    36
  0
VERTEX
  5
421
  8
0
 62
   123
 10
0.0
 20
0.0
 30
0.0
 70
   128
 71
    28
 72
    29
 73
    32
  0
VERTEX
  5
422
  8
0
 62
   123
 10
0.0
 20
0.0
 30
0.0
 70
   128
 71
    40
 72
    39
 73
    38
  0
VERTEX
  5
423
  8
0
 62
   123
 10
0.0
 20
0.0
 30
0.0
 70
   128
 71
    29
 72
    27
 73
    35
  0
VERTEX
  5
424
  8
0
 62
   123
 10
0.0
 20
0.0
 30
0.0
 70
   128
 71
    22
 72
    30
 73
    31
  0
VERTEX
  5
425
  8
0
 62
   123
 10
0.0
 20
0.0
 30
0.0
 70
   128
 71
    30
 72
    28
 73
    32
  0
VERTEX
  5
426
  8
0
 62
   123
 10
0.0
 20
0.0
 30
0.0
 70
   128
 71
    23
 72
    21
 73
    24
  0
VERTEX
  5
427
  8
0
 62
   123
 10
0.0
 20
0.0
 30
0.0
 70
   128
 71
    22
 72
    31
 73
    21
  0
VERTEX
  5
428
  8
0
 62
   123
 10
0.0
 20
0.0
 30
0.0
 70
   128
 71
    25
 72
    26
 73
    17
  0
VERTEX
  5
429
  8
0
 62
   123
 10
0.0
 20
0.0
 30
0.0
 70
   128
 71
    23
 72
    24
 73
    25
  0
VERTEX
  5
42A
  8
0
 62
   123
 10
0.0
 20
0.0
 30
0.0
 70
   128
 71
    16
 72
    18
 73
    15
  0
VERTEX
  5
42B
  8
0
 62
   123
 10
0.0
 20
0.0
 30
0.0
 70
   128
 71
    26
 72
    16
 73
    17
  0
VERTEX
  5
42C
  8
0
 62
   123
 10
0.0
 20
0.0
 30
0.0
 70
   128
 71
    20
 72
    10
 73
    19
  0
VERTEX
  5
42D
  8
0
 62
   123
 10
0.0
 20
0.0
 30
0.0
 70
   128
 71
    18
 72
    19
 73
    15
  0
VERTEX
  5
42E
  8
0
 62
   123
 10
0.0
 20
0.0
 30
0.0
 70
   128
 71
    14
 72
    11
 73
     9
  0
VERTEX
  5
42F
  8
0
 62
   123
 10
0.0
 20
0.0
 30
0.0
 70
   128
 71
     9
 72
    10
 73
    20
  0
VERTEX
  5
430
  8
0
 62
   123
 10
0.0
 20
0.0
 30
0.0
 70
   128
 71
    11
 72
    14
 73
    12
  0
VERTEX
  5
431
  8
0
 62
   123
 10
0.0
 20
0.0
 30
0.0
 70
   128
 71
    43
 72
    42
 73
    41
  0
VERTEX
  5
432
  8
0
 62
   123
 10
0.0
 20
0.0
 30
0.0
 70
   128
 71
    46
 72
    45
 73
    44
  0
VERTEX
  5
433
  8
0
 62
   123
 10
0.0
 20
0.0
 30
0.0
 70
   128
 71
    49
 72
    48
 73
    47
  0
VERTEX
  5
434
  8
0
 62
   123
 10
0.0
 20
0.0
 30
0.0
 70
   128
 71
    52
 72
    51
 73
    50
  0
VERTEX
  5
435
  8
0
 62
   123
 10
0.0
 20
0.0
 30
0.0
 70
   128
 71
    55
 72
    54
 73
    53
  0
VERTEX
  5
436
  8
0
 62
   123
 10
0.0
 20
0.0
 30
0.0
 70
   128
 71
    58
 72
    57
 73
    56
  0
VERTEX
  5
437
  8
0
 62
   123
 10
0.0
 20
0.0
 30
0.0
 70
   128
 71
    61
 72
    60
 73
    59
  0
VERTEX
  5
438
  8
0
 62
   123
 10
0.0
 20
0.0
 30
0.0
 70
   128
 71
    64
 72
    63
 73
    62
  0
VERTEX
  5
439
  8
0
 62
   123
 10
0.0
 20
0.0
 30
0.0
 70
   128
 71
    67
 72
    66
 73
    65
  0
VERTEX
  5
43A
  8
0
 62
   123
 10
0.0
 20
0.0
 30
0.0
 70
   128
 71
    66
 72
    67
 73
    59
  0
VERTEX
  5
43B
  8
0
 62
   123
 10
0.0
 20
0.0
 30
0.0
 70
   128
 71
    69
 72
    68
 73
    65
  0
VERTEX
  5
43C
  8
0
 62
   123
 10
0.0
 20
0.0
 30
0.0
 70
   128
 71
    65
 72
    66
 73
    69
  0
VERTEX
  5
43D
  8
0
 62
   123
 10
0.0
 20
0.0
 30
0.0
 70
   128
 71
    71
 72
    68
 73
    70
  0
VERTEX
  5
43E
  8
0
 62
   123
 10
0.0
 20
0.0
 30
0.0
 70
   128
 71
    69
 72
    70
 73
    68
  0
VERTEX
  5
43F
  8
0
 62
   123
 10
0.0
 20
0.0
 30
0.0
 70
   128
 71
    60
 72
    61
 73
    64
  0
VERTEX
  5
440
  8
0
 62
   123
 10
0.0
 20
0.0
 30
0.0
 70
   128
 71
    72
 72
    71
 73
    70
  0
VERTEX
  5
441
  8
0
 62
   123
 10
0.0
 20
0.0
 30
0.0
 70
   128
 71
    61
 72
    59
 73
    67
  0
VERTEX
  5
442
  8
0
 62
   123
 10
0.0
 20
0.0
 30
0.0
 70
   128
 71
    54
 72
    62
 73
    63
  0
VERTEX
  5
443
  8
0
 62
   123
 10
0.0
 20
0.0
 30
0.0
 70
   128
 71
    62
 72
    60
 73
    64
  0
VERTEX
  5
444
  8
0
 62
   123
 10
0.0
 20
0.0
 30
0.0
 70
   128
 71
    55
 72
    53
 73
    56
  0
VERTEX
  5
445
  8
0
 62
   123
 10
0.0
 20
0.0
 30
0.0
 70
   128
 71
    54
 72
    63
 73
    53
  0
VERTEX
  5
446
  8
0
 62
   123
 10
0.0
 20
0.0
 30
0.0
 70
   128
 71
    57
 72
    58
 73
    49
  0
VERTEX
  5
447
  8
0
 62
   123
 10
0.0
 20
0.0
 30
0.0
 70
   128
 71
    55
 72
    56
 73
    57
  0
VERTEX
  5
448
  8
0
 62
   123
 10
0.0
 20
0.0
 30
0.0
 70
   128
 71
    48
 72
    50
 73
    47
  0
VERTEX
  5
449
  8
0
 62
   123
 10
0.0
 20
0.0
 30
0.0
 70
   128
 71
    58
 72
    48
 73
    49
  0
VERTEX
  5
44A
  8
0
 62
   123
 10
0.0
 20
0.0
 30
0.0
 70
   128
 71
    52
 72
    42
 73
    51
  0
VERTEX
  5
44B
  8
0
 62
   123
 10
0.0
 20
0.0
 30
0.0
 70
   128
 71
    50
 72
    51
 73
    47
  0
VERTEX
  5
44C
  8
0
 62
   123
 10
0.0
 20
0.0
 30
0.0
 70
   128
 71
    46
 72
    43
 73
    41
  0
VERTEX
  5
44D
  8
0
 62
   123
 10
0.0
 20
0.0
 30
0.0
 70
   128
 71
    41
 72
    42
 73
    52
  0
VERTEX
  5
44E
  8
0
 62
   123
 10
0.0
 20
0.0
 30
0.0
 70
   128
 71
    43
 72
    46
 73
    44
  0
VERTEX
  5
44F
  8
0
 62
   123
 10
0.0
 20
0.0
 30
0.0
 70
   128
 71
    75
 72
    74
 73
    73
  0
VERTEX
  5
450
  8
0
 62
   123
 10
0.0
 20
0.0
 30
0.0
 70
   128
 71
    74
 72
    76
 73
    73
  0
VERTEX
  5
451
  8
0
 62
   123
 10
0.0
 20
0.0
 30
0.0
 70
   128
 71
    79
 72
    78
 73
    77
  0
VERTEX
  5
452
  8
0
 62
   123
 10
0.0
 20
0.0
 30
0.0
 70
   128
 71
    82
 72
    81
 73
    80
  0
VERTEX
  5
453
  8
0
 62
   123
 10
0.0
 20
0.0
 30
0.0
 70
   128
 71
    81
 72
    82
 73
    73
  0
VERTEX
  5
454
  8
0
 62
   123
 10
0.0
 20
0.0
 30
0.0
 70
   128
 71
    78
 72
    79
 73
    83
  0
VERTEX
  5
455
  8
0
 62
   123
 10
0.0
 20
0.0
 30
0.0
 70
   128
 71
    85
 72
    83
 73
    84
  0
VERTEX
  5
456
  8
0
 62
   123
 10
0.0
 20
0.0
 30
0.0
 70
   128
 71
    84
 72
    87
 73
    86
  0
VERTEX
  5
457
  8
0
 62
   123
 10
0.0
 20
0.0
 30
0.0
 70
   128
 71
    86
 72
    85
 73
    84
  0
VERTEX
  5
458
  8
0
 62
   123
 10
0.0
 20
0.0
 30
0.0
 70
   128
 71
    85
 72
    78
 73
    83
  0
VERTEX
  5
459
  8
0
 62
   123
 10
0.0
 20
0.0
 30
0.0
 70
   128
 71
    89
 72
    88
 73
    80
  0
VERTEX
  5
45A
  8
0
 62
   123
 10
0.0
 20
0.0
 30
0.0
 70
   128
 71
    79
 72
    77
 73
    89
  0
VERTEX
  5
45B
  8
0
 62
   123
 10
0.0
 20
0.0
 30
0.0
 70
   128
 71
    82
 72
    81
 73
    88
  0
VERTEX
  5
45C
  8
0
 62
   123
 10
0.0
 20
0.0
 30
0.0
 70
   128
 71
    89
 72
    77
 73
    88
  0
VERTEX
  5
45D
  8
0
 62
   123
 10
0.0
 20
0.0
 30
0.0
 70
   128
 71
    80
 72
    88
 73
    82
  0
VERTEX
  5
45E
  8
0
 62
   123
 10
0.0
 20
0.0
 30
0.0
 70
   128
 71
    80
 72
    77
 73
    88
  0
VERTEX
  5
45F
  8
0
 62
   123
 10
0.0
 20
0.0
 30
0.0
 70
   128
 71
    80
 72
    88
 73
    81
  0
VERTEX
  5
460
  8
0
 62
   123
 10
0.0
 20
0.0
 30
0.0
 70
   128
 71
    89
 72
    78
 73
    77
  0
VERTEX
  5
461
  8
0
 62
   123
 10
0.0
 20
0.0
 30
0.0
 70
   128
 71
    89
 72
    77
 73
    80
  0
VERTEX
  5
462
  8
0
 62
   123
 10
0.0
 20
0.0
 30
0.0
 70
   128
 71
    79
 72
    85
 73
    78
  0
VERTEX
  5
463
  8
0
 62
   123
 10
0.0
 20
0.0
 30
0.0
 70
   128
 71
    79
 72
    78
 73
    89
  0
VERTEX
  5
464
  8
0
 62
   123
 10
0.0
 20
0.0
 30
0.0
 70
   128
 71
    83
 72
    86
 73
    85
  0
VERTEX
  5
465
  8
0
 62
   123
 10
0.0
 20
0.0
 30
0.0
 70
   128
 71
    83
 72
    85
 73
    79
  0
VERTEX
  5
466
  8
0
 62
   123
 10
0.0
 20
0.0
 30
0.0
 70
   128
 71
    84
 72
    86
 73
    83
  0
VERTEX
  5
467
  8
0
 62
   123
 10
0.0
 20
0.0
 30
0.0
 70
   128
 71
    92
 72
    91
 73
    90
  0
VERTEX
  5
468
  8
0
 62
   123
 10
0.0
 20
0.0
 30
0.0
 70
   128
 71
    91
 72
    92
 73
    90
  0
VERTEX
  5
469
  8
0
 62
   123
 10
0.0
 20
0.0
 30
0.0
 70
   128
 71
    92
 72
    93
 73
    90
  0
VERTEX
  5
46A
  8
0
 62
   123
 10
0.0
 20
0.0
 30
0.0
 70
   128
 71
    93
 72
    92
 73
    90
  0
VERTEX
  5
46B
  8
0
 62
   123
 10
0.0
 20
0.0
 30
0.0
 70
   128
 71
    96
 72
    95
 73
    94
  0
VERTEX
  5
46C
  8
0
 62
   123
 10
0.0
 20
0.0
 30
0.0
 70
   128
 71
    99
 72
    98
 73
    97
  0
VERTEX
  5
46D
  8
0
 62
   123
 10
0.0
 20
0.0
 30
0.0
 70
   128
 71
    98
 72
    99
 73
   100
  0
VERTEX
  5
46E
  8
0
 62
   123
 10
0.0
 20
0.0
 30
0.0
 70
   128
 71
    95
 72
    96
 73
   101
  0
VERTEX
  5
46F
  8
0
 62
   123
 10
0.0
 20
0.0
 30
0.0
 70
   128
 71
   103
 72
   101
 73
   102
  0
VERTEX
  5
470
  8
0
 62
   123
 10
0.0
 20
0.0
 30
0.0
 70
   128
 71
   102
 72
    90
 73
   104
  0
VERTEX
  5
471
  8
0
 62
   123
 10
0.0
 20
0.0
 30
0.0
 70
   128
 71
   104
 72
   103
 73
   102
  0
VERTEX
  5
472
  8
0
 62
   123
 10
0.0
 20
0.0
 30
0.0
 70
   128
 71
   103
 72
    95
 73
   101
  0
VERTEX
  5
473
  8
0
 62
   123
 10
0.0
 20
0.0
 30
0.0
 70
   128
 71
   106
 72
   105
 73
    97
  0
VERTEX
  5
474
  8
0
 62
   123
 10
0.0
 20
0.0
 30
0.0
 70
   128
 71
    96
 72
    94
 73
   106
  0
VERTEX
  5
475
  8
0
 62
   123
 10
0.0
 20
0.0
 30
0.0
 70
   128
 71
    99
 72
    98
 73
   105
  0
VERTEX
  5
476
  8
0
 62
   123
 10
0.0
 20
0.0
 30
0.0
 70
   128
 71
   106
 72
    94
 73
   105
  0
VERTEX
  5
477
  8
0
 62
   123
 10
0.0
 20
0.0
 30
0.0
 70
   128
 71
    97
 72
   105
 73
    99
  0
VERTEX
  5
478
  8
0
 62
   123
 10
0.0
 20
0.0
 30
0.0
 70
   128
 71
    97
 72
    94
 73
   105
  0
VERTEX
  5
479
  8
0
 62
   123
 10
0.0
 20
0.0
 30
0.0
 70
   128
 71
    97
 72
   105
 73
    98
  0
VERTEX
  5
47A
  8
0
 62
   123
 10
0.0
 20
0.0
 30
0.0
 70
   128
 71
   106
 72
    95
 73
    94
  0
VERTEX
  5
47B
  8
0
 62
   123
 10
0.0
 20
0.0
 30
0.0
 70
   128
 71
   106
 72
    94
 73
    97
  0
VERTEX
  5
47C
  8
0
 62
   123
 10
0.0
 20
0.0
 30
0.0
 70
   128
 71
    96
 72
   103
 73
    95
  0
VERTEX
  5
47D
  8
0
 62
   123
 10
0.0
 20
0.0
 30
0.0
 70
   128
 71
    96
 72
    95
 73
   106
  0
VERTEX
  5
47E
  8
0
 62
   123
 10
0.0
 20
0.0
 30
0.0
 70
   128
 71
   101
 72
   104
 73
   103
  0
VERTEX
  5
47F
  8
0
 62
   123
 10
0.0
 20
0.0
 30
0.0
 70
   128
 71
   101
 72
   103
 73
    96
  0
VERTEX
  5
480
  8
0
 62
   123
 10
0.0
 20
0.0
 30
0.0
 70
   128
 71
   102
 72
   104
 73
   101
  0
VERTEX
  5
481
  8
0
 62
   123
 10
0.0
 20
0.0
 30
0.0
 70
   128
 71
   109
 72
   108
 73
   107
  0
VERTEX
  5
482
  8
0
 62
   123
 10
0.0
 20
0.0
 30
0.0
 70
   128
 71
   112
 72
   111
 73
   110
  0
VERTEX
  5
483
  8
0
 62
   123
 10
0.0
 20
0.0
 30
0.0
 70
   128
 71
   110
 72
   113
 73
   112
  0
VERTEX
  5
484
  8
0
 62
   123
 10
0.0
 20
0.0
 30
0.0
 70
   128
 71
   111
 72
   114
 73
   110
  0
VERTEX
  5
485
  8
0
 62
   123
 10
0.0
 20
0.0
 30
0.0
 70
   128
 71
   114
 72
   109
 73
   107
  0
VERTEX
  5
486
  8
0
 62
   123
 10
0.0
 20
0.0
 30
0.0
 70
   128
 71
   109
 72
   114
 73
   111
  0
SEQEND
  5
487
  8
0
 62
   123
  0
ENDBLK
  5
48A
  8
0
  0
BLOCK
  8
0
  2
M50150-025
 70
     0
 10
0.0
 20
0.0
 30
0.0
  3
M50150-025
  1

  0
POLYLINE
  5
48C
  8
0
 62
   123
 66
     1
 10
0.0
 20
0.0
 30
0.0
 70
    64
 71
   182
 72
   358
  0
VERTEX
  5
48D
  8
0
 10
-5.0
 20
42.86171340942383
 30
0.000000000000356
 70
   192
  0
VERTEX
  5
48E
  8
0
 10
-4.659492015838623
 20
47.94869232177734
 30
-2.009539365768433
 70
   192
  0
VERTEX
  5
48F
  8
0
 10
-5.091390609741211
 20
48.09749221801758
 30
0.0000000000003571
 70
   192
  0
VERTEX
  5
490
  8
0
 10
-1.931497573852539
 20
47.22422027587891
 30
-4.694465637207031
 70
   192
  0
VERTEX
  5
491
  8
0
 10
-2.587141275405884
 20
42.86171340942383
 30
-4.25380802154541
 70
   192
  0
VERTEX
  5
492
  8
0
 10
-0.0000000000000009
 20
42.86171340942383
 30
-5.0
 70
   192
  0
VERTEX
  5
493
  8
0
 10
-3.536697149276733
 20
47.58673477172852
 30
-3.62391185760498
 70
   192
  0
VERTEX
  5
494
  8
0
 10
-4.25380802154541
 20
42.86171340942383
 30
-2.587141275405884
 70
   192
  0
VERTEX
  5
495
  8
0
 10
4.25380802154541
 20
42.86171340942383
 30
-2.587141275405884
 70
   192
  0
VERTEX
  5
496
  8
0
 10
3.620573997497559
 20
47.67405700683594
 30
-3.564785003662109
 70
   192
  0
VERTEX
  5
497
  8
0
 10
2.357022523880005
 20
42.86171340942383
 30
-4.34912633895874
 70
   192
  0
VERTEX
  5
498
  8
0
 10
1.977018475532532
 20
47.27480697631836
 30
-4.660543918609619
 70
   192
  0
VERTEX
  5
499
  8
0
 10
4.658698081970215
 20
47.94828414916992
 30
-2.011270523071289
 70
   192
  0
VERTEX
  5
49A
  8
0
 10
5.0
 20
42.86171340942383
 30
0.0000000000003567
 70
   192
  0
VERTEX
  5
49B
  8
0
 10
5.091390609741211
 20
48.09749221801758
 30
0.0000000000003613
 70
   192
  0
VERTEX
  5
49C
  8
0
 10
0.0752927288413048
 20
47.10287475585938
 30
-5.052417278289795
 70
   192
  0
VERTEX
  5
49D
  8
0
 10
8.907021522521973
 20
66.02696990966797
 30
13.14999961853027
 70
   192
  0
VERTEX
  5
49E
  8
0
 10
8.397454261779785
 20
66.1168212890625
 30
13.00076198577881
 70
   192
  0
VERTEX
  5
49F
  8
0
 10
8.228738784790039
 20
65.8629379272461
 30
12.86625862121582
 70
   192
  0
VERTEX
  5
4A0
  8
0
 10
8.069185256958008
 20
66.1747055053711
 30
12.6674280166626
 70
   192
  0
VERTEX
  5
4A1
  8
0
 10
7.950395584106445
 20
65.73713684082031
 30
12.17934417724609
 70
   192
  0
VERTEX
  5
4A2
  8
0
 10
8.005621910095215
 20
66.67364501953125
 30
12.14999961853027
 70
   192
  0
VERTEX
  5
4A3
  8
0
 10
8.409788131713867
 20
65.55095672607422
 30
12.87537479400635
 70
   192
  0
VERTEX
  5
4A4
  8
0
 10
8.185662269592285
 20
65.33638763427734
 30
12.20233631134033
 70
   192
  0
VERTEX
  5
4A5
  8
0
 10
-11.63424396514893
 20
61.58329010009766
 30
13.14999961853027
 70
   192
  0
VERTEX
  5
4A6
  8
0
 10
-8.409789085388184
 20
65.55095672607422
 30
12.87537384033203
 70
   192
  0
VERTEX
  5
4A7
  8
0
 10
-8.990429878234863
 20
66.5
 30
13.14999961853027
 70
   192
  0
VERTEX
  5
4A8
  8
0
 10
-9.707026481628418
 20
51.71365737915039
 30
12.20233631134033
 70
   192
  0
VERTEX
  5
4A9
  8
0
 10
-6.419281959533691
 20
47.78736877441406
 30
12.87537479400635
 70
   192
  0
VERTEX
  5
4AA
  8
0
 10
-6.113010883331299
 20
48.04116058349609
 30
12.20233631134033
 70
   192
  0
VERTEX
  5
4AB
  8
0
 10
-10.75911617279053
 20
61.94789886474609
 30
12.87537479400635
 70
   192
  0
VERTEX
  5
4AC
  8
0
 10
-12.27473258972168
 20
56.50353622436523
 30
13.14999961853027
 70
   192
  0
VERTEX
  5
4AD
  8
0
 10
-2.044443130493164
 20
46.03864669799805
 30
12.87537479400635
 70
   192
  0
VERTEX
  5
4AE
  8
0
 10
-10.50942516326904
 20
61.78379821777344
 30
12.20233631134033
 70
   192
  0
VERTEX
  5
4AF
  8
0
 10
-11.62928009033203
 20
56.95023345947266
 30
12.87537479400635
 70
   192
  0
VERTEX
  5
4B0
  8
0
 10
10.08300304412842
 20
51.67973709106445
 30
12.87537479400635
 70
   192
  0
VERTEX
  5
4B1
  8
0
 10
6.328574657440186
 20
48.08148574829102
 30
12.20233631134033
 70
   192
  0
VERTEX
  5
4B2
  8
0
 10
6.41928243637085
 20
47.78736877441406
 30
12.87537479400635
 70
   192
  0
VERTEX
  5
4B3
  8
0
 10
2.069266557693481
 20
46.29555130004883
 30
12.20233631134033
 70
   192
  0
VERTEX
  5
4B4
  8
0
 10
10.75911617279053
 20
61.94789886474609
 30
12.87537479400635
 70
   192
  0
VERTEX
  5
4B5
  8
0
 10
11.25155067443848
 20
56.96017074584961
 30
12.20233631134033
 70
   192
  0
VERTEX
  5
4B6
  8
0
 10
11.62928009033203
 20
56.95023345947266
 30
12.87537479400635
 70
   192
  0
VERTEX
  5
4B7
  8
0
 10
9.794408798217773
 20
51.90583801269531
 30
12.20233631134033
 70
   192
  0
VERTEX
  5
4B8
  8
0
 10
10.50942420959473
 20
61.78379821777344
 30
12.20233631134033
 70
   192
  0
VERTEX
  5
4B9
  8
0
 10
-2.050308704376221
 20
46.36148452758789
 30
12.20233631134033
 70
   192
  0
VERTEX
  5
4BA
  8
0
 10
2.044443368911743
 20
46.03864669799805
 30
12.87537479400635
 70
   192
  0
VERTEX
  5
4BB
  8
0
 10
-10.0830020904541
 20
51.67973709106445
 30
12.87537479400635
 70
   192
  0
VERTEX
  5
4BC
  8
0
 10
-11.32469177246094
 20
56.83697128295898
 30
12.20233631134033
 70
   192
  0
VERTEX
  5
4BD
  8
0
 10
-8.185661315917969
 20
65.33638763427734
 30
12.20233631134033
 70
   192
  0
VERTEX
  5
4BE
  8
0
 10
-10.78128147125244
 20
51.55223083496094
 30
13.14999961853027
 70
   192
  0
VERTEX
  5
4BF
  8
0
 10
-7.382669448852539
 20
47.64507293701172
 30
13.14999961853027
 70
   192
  0
VERTEX
  5
4C0
  8
0
 10
-2.670866966247559
 20
45.47743606567383
 30
13.14999961853027
 70
   192
  0
VERTEX
  5
4C1
  8
0
 10
2.523332357406616
 20
45.44216918945312
 30
13.14999961853027
 70
   192
  0
VERTEX
  5
4C2
  8
0
 10
7.27492618560791
 20
47.5539665222168
 30
13.14999961853027
 70
   192
  0
VERTEX
  5
4C3
  8
0
 10
10.73379993438721
 20
51.44104385375977
 30
13.14999961853027
 70
   192
  0
VERTEX
  5
4C4
  8
0
 10
12.28032302856445
 20
56.41299819946289
 30
13.14999961853027
 70
   192
  0
VERTEX
  5
4C5
  8
0
 10
11.63424396514893
 20
61.58329010009766
 30
13.14999961853027
 70
   192
  0
VERTEX
  5
4C6
  8
0
 10
-8.228738784790039
 20
65.8629379272461
 30
12.86625862121582
 70
   192
  0
VERTEX
  5
4C7
  8
0
 10
-7.950395584106445
 20
65.73712921142578
 30
12.17934417724609
 70
   192
  0
VERTEX
  5
4C8
  8
0
 10
-7.922213554382324
 20
66.20061492919922
 30
12.14999961853027
 70
   192
  0
VERTEX
  5
4C9
  8
0
 10
-8.069185256958008
 20
66.1747055053711
 30
12.6674280166626
 70
   192
  0
VERTEX
  5
4CA
  8
0
 10
-8.397454261779785
 20
66.1168212890625
 30
13.00076198577881
 70
   192
  0
VERTEX
  5
4CB
  8
0
 10
-7.844871997833252
 20
63.79532241821289
 30
-12.09766387939453
 70
   192
  0
VERTEX
  5
4CC
  8
0
 10
-7.735548973083496
 20
65.1419906616211
 30
-4.050849437713623
 70
   192
  0
VERTEX
  5
4CD
  8
0
 10
-7.800228595733643
 20
64.98667907714844
 30
0.026943476870656
 70
   192
  0
VERTEX
  5
4CE
  8
0
 10
-7.82997989654541
 20
65.67753601074219
 30
4.049150466918945
 70
   192
  0
VERTEX
  5
4CF
  8
0
 10
-8.012979507446289
 20
64.54922485351562
 30
-0.384079247713089
 70
   192
  0
VERTEX
  5
4D0
  8
0
 10
7.917313098907471
 20
50.86215591430664
 30
-12.83835506439209
 70
   192
  0
VERTEX
  5
4D1
  8
0
 10
10.13225078582764
 20
55.47952270507812
 30
-12.83835506439209
 70
   192
  0
VERTEX
  5
4D2
  8
0
 10
10.77938842773438
 20
55.12417221069336
 30
-13.14999961853027
 70
   192
  0
VERTEX
  5
4D3
  8
0
 10
10.77807521820068
 20
59.96470642089844
 30
-13.14999961853027
 70
   192
  0
VERTEX
  5
4D4
  8
0
 10
9.943809509277344
 20
60.30454635620117
 30
-12.83835506439209
 70
   192
  0
VERTEX
  5
4D5
  8
0
 10
8.62372875213623
 20
64.42033386230469
 30
-13.14999961853027
 70
   192
  0
VERTEX
  5
4D6
  8
0
 10
4.871461868286133
 20
47.59502029418945
 30
-13.14999961853027
 70
   192
  0
VERTEX
  5
4D7
  8
0
 10
4.03621244430542
 20
47.98928070068359
 30
-12.83835506439209
 70
   192
  0
VERTEX
  5
4D8
  8
0
 10
8.68538761138916
 20
50.69057464599609
 30
-13.14999961853027
 70
   192
  0
VERTEX
  5
4D9
  8
0
 10
7.47027063369751
 20
50.8421516418457
 30
-12.09766387939453
 70
   192
  0
VERTEX
  5
4DA
  8
0
 10
-7.917313575744629
 20
50.86215591430664
 30
-12.83835506439209
 70
   192
  0
VERTEX
  5
4DB
  8
0
 10
-4.730890274047852
 20
47.51834487915039
 30
-13.14999961853027
 70
   192
  0
VERTEX
  5
4DC
  8
0
 10
-8.609532356262207
 20
50.57277679443359
 30
-13.14999961853027
 70
   192
  0
VERTEX
  5
4DD
  8
0
 10
0.0833973810076714
 20
46.45866775512695
 30
-13.14999961853027
 70
   192
  0
VERTEX
  5
4DE
  8
0
 10
-4.036212921142578
 20
47.98928070068359
 30
-12.83835506439209
 70
   192
  0
VERTEX
  5
4DF
  8
0
 10
-0.0000003191760811
 20
47.16826248168945
 30
-12.83835506439209
 70
   192
  0
VERTEX
  5
4E0
  8
0
 10
-9.943809509277344
 20
60.30454635620117
 30
-12.83835506439209
 70
   192
  0
VERTEX
  5
4E1
  8
0
 10
-10.77162742614746
 20
55.01770401000977
 30
-13.14999961853027
 70
   192
  0
VERTEX
  5
4E2
  8
0
 10
-10.77807521820068
 20
59.9647102355957
 30
-13.14999961853027
 70
   192
  0
VERTEX
  5
4E3
  8
0
 10
-10.13225078582764
 20
55.47952270507812
 30
-12.83835506439209
 70
   192
  0
VERTEX
  5
4E4
  8
0
 10
-9.739858627319336
 20
60.08076477050781
 30
-12.09766387939453
 70
   192
  0
VERTEX
  5
4E5
  8
0
 10
-8.057990074157715
 20
63.96634674072266
 30
-12.83835506439209
 70
   192
  0
VERTEX
  5
4E6
  8
0
 10
-8.62372875213623
 20
64.42034149169922
 30
-13.14999961853027
 70
   192
  0
VERTEX
  5
4E7
  8
0
 10
7.638920783996582
 20
64.59398651123047
 30
-12.14999961853027
 70
   192
  0
VERTEX
  5
4E8
  8
0
 10
8.057990074157715
 20
63.96634674072266
 30
-12.83835411071777
 70
   192
  0
VERTEX
  5
4E9
  8
0
 10
9.739858627319336
 20
60.08076477050781
 30
-12.09766387939453
 70
   192
  0
VERTEX
  5
4EA
  8
0
 10
-9.763947486877441
 20
55.40771102905273
 30
-12.09766387939453
 70
   192
  0
VERTEX
  5
4EB
  8
0
 10
-7.63247537612915
 20
51.00209045410156
 30
-12.09766387939453
 70
   192
  0
VERTEX
  5
4EC
  8
0
 10
-3.945812225341797
 20
48.20285797119141
 30
-12.09766387939453
 70
   192
  0
VERTEX
  5
4ED
  8
0
 10
0.0298785138875246
 20
47.39235305786133
 30
-12.09766387939453
 70
   192
  0
VERTEX
  5
4EE
  8
0
 10
3.767922639846802
 20
48.23979568481445
 30
-12.09766387939453
 70
   192
  0
VERTEX
  5
4EF
  8
0
 10
9.802220344543457
 20
55.24288177490234
 30
-12.09766387939453
 70
   192
  0
VERTEX
  5
4F0
  8
0
 10
17.50076103210449
 20
66.5
 30
12.6674280166626
 70
   192
  0
VERTEX
  5
4F1
  8
0
 10
16.64999961853027
 20
28.0
 30
13.14999961853027
 70
   192
  0
VERTEX
  5
4F2
  8
0
 10
17.64999961853027
 20
66.5
 30
12.14999961853027
 70
   192
  0
VERTEX
  5
4F3
  8
0
 10
17.16742897033691
 20
66.5
 30
13.00076198577881
 70
   192
  0
VERTEX
  5
4F4
  8
0
 10
16.64999961853027
 20
66.5
 30
13.14999961853027
 70
   192
  0
VERTEX
  5
4F5
  8
0
 10
17.64999961853027
 20
66.5
 30
-12.14999961853027
 70
   192
  0
VERTEX
  5
4F6
  8
0
 10
17.64999961853027
 20
28.0
 30
-12.14999961853027
 70
   192
  0
VERTEX
  5
4F7
  8
0
 10
17.16742897033691
 20
66.5
 30
-13.00076198577881
 70
   192
  0
VERTEX
  5
4F8
  8
0
 10
17.50076103210449
 20
66.5
 30
-12.6674280166626
 70
   192
  0
VERTEX
  5
4F9
  8
0
 10
16.64999961853027
 20
66.5
 30
-13.14999961853027
 70
   192
  0
VERTEX
  5
4FA
  8
0
 10
8.990429878234863
 20
66.5
 30
-13.14999961853027
 70
   192
  0
VERTEX
  5
4FB
  8
0
 10
-16.64999961853027
 20
66.5
 30
-13.14999961853027
 70
   192
  0
VERTEX
  5
4FC
  8
0
 10
-16.64999961853027
 20
28.0
 30
-13.14999961853027
 70
   192
  0
VERTEX
  5
4FD
  8
0
 10
-8.990429878234863
 20
66.5
 30
-13.14999961853027
 70
   192
  0
VERTEX
  5
4FE
  8
0
 10
-17.50076103210449
 20
66.5
 30
-12.6674280166626
 70
   192
  0
VERTEX
  5
4FF
  8
0
 10
-17.64999961853027
 20
66.5
 30
-12.14999961853027
 70
   192
  0
VERTEX
  5
500
  8
0
 10
-17.16742897033691
 20
66.5
 30
-13.00076198577881
 70
   192
  0
VERTEX
  5
501
  8
0
 10
-16.64999961853027
 20
67.01742553710938
 30
-13.00076198577881
 70
   192
  0
VERTEX
  5
502
  8
0
 10
-17.35710716247559
 20
67.20710754394531
 30
-12.14999961853027
 70
   192
  0
VERTEX
  5
503
  8
0
 10
-17.15040397644043
 20
67.00040435791016
 30
-12.85653495788574
 70
   192
  0
VERTEX
  5
504
  8
0
 10
-16.64999961853027
 20
67.35076141357422
 30
-12.6674280166626
 70
   192
  0
VERTEX
  5
505
  8
0
 10
-16.64999961853027
 20
67.5
 30
-12.14999961853027
 70
   192
  0
VERTEX
  5
506
  8
0
 10
-8.990429878234863
 20
67.01742553710938
 30
-13.00076198577881
 70
   192
  0
VERTEX
  5
507
  8
0
 10
-8.990429878234863
 20
67.35076141357422
 30
-12.6674280166626
 70
   192
  0
VERTEX
  5
508
  8
0
 10
-8.990429878234863
 20
67.5
 30
-12.14999961853027
 70
   192
  0
VERTEX
  5
509
  8
0
 10
-8.480862617492676
 20
66.58985137939453
 30
-13.00076198577881
 70
   192
  0
VERTEX
  5
50A
  8
0
 10
-8.535542488098145
 20
67.0421142578125
 30
-12.85653495788574
 70
   192
  0
VERTEX
  5
50B
  8
0
 10
-8.347641944885254
 20
67.26604461669922
 30
-12.14999961853027
 70
   192
  0
VERTEX
  5
50C
  8
0
 10
-8.152592658996582
 20
66.64773559570312
 30
-12.6674280166626
 70
   192
  0
VERTEX
  5
50D
  8
0
 10
-8.005621910095215
 20
66.67364501953125
 30
-12.14999961853027
 70
   192
  0
VERTEX
  5
50E
  8
0
 10
-8.347641944885254
 20
67.26604461669922
 30
12.14999961853027
 70
   192
  0
VERTEX
  5
50F
  8
0
 10
-8.990429878234863
 20
67.5
 30
12.14999961853027
 70
   192
  0
VERTEX
  5
510
  8
0
 10
-8.990429878234863
 20
67.01742553710938
 30
13.00076198577881
 70
   192
  0
VERTEX
  5
511
  8
0
 10
-8.535542488098145
 20
67.0421142578125
 30
12.85653495788574
 70
   192
  0
VERTEX
  5
512
  8
0
 10
-8.990429878234863
 20
67.35076141357422
 30
12.6674280166626
 70
   192
  0
VERTEX
  5
513
  8
0
 10
-16.64999961853027
 20
67.01742553710938
 30
13.00076198577881
 70
   192
  0
VERTEX
  5
514
  8
0
 10
-16.64999961853027
 20
66.5
 30
13.14999961853027
 70
   192
  0
VERTEX
  5
515
  8
0
 10
-16.64999961853027
 20
67.35076141357422
 30
12.6674280166626
 70
   192
  0
VERTEX
  5
516
  8
0
 10
-16.64999961853027
 20
67.5
 30
12.14999961853027
 70
   192
  0
VERTEX
  5
517
  8
0
 10
-17.64999961853027
 20
28.0
 30
12.14999961853027
 70
   192
  0
VERTEX
  5
518
  8
0
 10
4.641779899597168
 20
42.86171340942383
 30
1.967068910598755
 70
   192
  0
VERTEX
  5
519
  8
0
 10
2.903469085693359
 20
42.86171340942383
 30
4.112619400024414
 70
   192
  0
VERTEX
  5
51A
  8
0
 10
-2.96380090713501
 20
42.86171340942383
 30
3.871292114257812
 70
   192
  0
VERTEX
  5
51B
  8
0
 10
-0.1696832627058029
 20
42.86171340942383
 30
4.898190021514893
 70
   192
  0
VERTEX
  5
51C
  8
0
 10
-4.641779899597168
 20
42.86171340942383
 30
1.967068910598755
 70
   192
  0
VERTEX
  5
51D
  8
0
 10
-1.169568300247192
 20
46.62228775024414
 30
4.924304485321045
 70
   192
  0
VERTEX
  5
51E
  8
0
 10
-3.217068910598755
 20
47.1402473449707
 30
3.910173416137695
 70
   192
  0
VERTEX
  5
51F
  8
0
 10
1.100876212120056
 20
46.62358856201172
 30
4.921709537506104
 70
   192
  0
VERTEX
  5
520
  8
0
 10
-4.548686027526855
 20
47.65765380859375
 30
2.250412940979004
 70
   192
  0
VERTEX
  5
521
  8
0
 10
3.115022420883179
 20
47.02685165405273
 30
3.987871646881104
 70
   192
  0
VERTEX
  5
522
  8
0
 10
4.550369262695312
 20
47.65883636474609
 30
2.246945381164551
 70
   192
  0
VERTEX
  5
523
  8
0
 10
8.019079208374023
 20
64.57682800292969
 30
0.051451675593853
 70
   192
  0
VERTEX
  5
524
  8
0
 10
7.830002784729004
 20
65.67765808105469
 30
4.049141883850098
 70
   192
  0
VERTEX
  5
525
  8
0
 10
7.73557186126709
 20
65.14212036132812
 30
-4.050858020782471
 70
   192
  0
VERTEX
  5
526
  8
0
 10
7.800228595733643
 20
64.98667907714844
 30
0.0269432459026575
 70
   192
  0
VERTEX
  5
527
  8
0
 10
8.152592658996582
 20
66.64773559570312
 30
-12.6674280166626
 70
   192
  0
VERTEX
  5
528
  8
0
 10
8.480862617492676
 20
66.58985137939453
 30
-13.00076198577881
 70
   192
  0
VERTEX
  5
529
  8
0
 10
8.005621910095215
 20
66.67364501953125
 30
-12.14999961853027
 70
   192
  0
VERTEX
  5
52A
  8
0
 10
8.990429878234863
 20
67.01742553710938
 30
-13.00076198577881
 70
   192
  0
VERTEX
  5
52B
  8
0
 10
8.535542488098145
 20
67.0421142578125
 30
-12.85653495788574
 70
   192
  0
VERTEX
  5
52C
  8
0
 10
8.347641944885254
 20
67.26604461669922
 30
-12.14999961853027
 70
   192
  0
VERTEX
  5
52D
  8
0
 10
8.990429878234863
 20
67.35076141357422
 30
-12.6674280166626
 70
   192
  0
VERTEX
  5
52E
  8
0
 10
8.990429878234863
 20
67.5
 30
-12.14999961853027
 70
   192
  0
VERTEX
  5
52F
  8
0
 10
16.64999961853027
 20
67.01742553710938
 30
-13.00076198577881
 70
   192
  0
VERTEX
  5
530
  8
0
 10
16.64999961853027
 20
67.35076141357422
 30
-12.6674280166626
 70
   192
  0
VERTEX
  5
531
  8
0
 10
16.64999961853027
 20
67.5
 30
-12.14999961853027
 70
   192
  0
VERTEX
  5
532
  8
0
 10
17.15040397644043
 20
67.00040435791016
 30
-12.85653495788574
 70
   192
  0
VERTEX
  5
533
  8
0
 10
17.35710716247559
 20
67.20710754394531
 30
-12.14999961853027
 70
   192
  0
VERTEX
  5
534
  8
0
 10
17.35710716247559
 20
67.20710754394531
 30
12.14999961853027
 70
   192
  0
VERTEX
  5
535
  8
0
 10
16.64999961853027
 20
67.5
 30
12.14999961853027
 70
   192
  0
VERTEX
  5
536
  8
0
 10
16.64999961853027
 20
67.01742553710938
 30
13.00076198577881
 70
   192
  0
VERTEX
  5
537
  8
0
 10
17.15040397644043
 20
67.00040435791016
 30
12.85653495788574
 70
   192
  0
VERTEX
  5
538
  8
0
 10
16.64999961853027
 20
67.35076141357422
 30
12.6674280166626
 70
   192
  0
VERTEX
  5
539
  8
0
 10
8.990429878234863
 20
67.01742553710938
 30
13.00076198577881
 70
   192
  0
VERTEX
  5
53A
  8
0
 10
8.990429878234863
 20
67.35076141357422
 30
12.6674280166626
 70
   192
  0
VERTEX
  5
53B
  8
0
 10
8.990429878234863
 20
67.5
 30
12.14999961853027
 70
   192
  0
VERTEX
  5
53C
  8
0
 10
8.535542488098145
 20
67.0421142578125
 30
12.85653495788574
 70
   192
  0
VERTEX
  5
53D
  8
0
 10
8.347641944885254
 20
67.26604461669922
 30
12.14999961853027
 70
   192
  0
VERTEX
  5
53E
  8
0
 10
-17.35710716247559
 20
67.20710754394531
 30
12.14999961853027
 70
   192
  0
VERTEX
  5
53F
  8
0
 10
-17.64999961853027
 20
66.5
 30
12.14999961853027
 70
   192
  0
VERTEX
  5
540
  8
0
 10
-17.16742897033691
 20
66.5
 30
13.00076198577881
 70
   192
  0
VERTEX
  5
541
  8
0
 10
-17.15040397644043
 20
67.00040435791016
 30
12.85653495788574
 70
   192
  0
VERTEX
  5
542
  8
0
 10
-17.50076103210449
 20
66.5
 30
12.6674280166626
 70
   192
  0
VERTEX
  5
543
  8
0
 62
   123
 10
0.0
 20
0.0
 30
0.0
 70
   128
 71
     3
 72
     2
 73
     1
  0
VERTEX
  5
544
  8
0
 62
   123
 10
0.0
 20
0.0
 30
0.0
 70
   128
 71
     6
 72
     5
 73
     4
  0
VERTEX
  5
545
  8
0
 62
   123
 10
0.0
 20
0.0
 30
0.0
 70
   128
 71
     8
 72
     7
 73
     5
  0
VERTEX
  5
546
  8
0
 62
   123
 10
0.0
 20
0.0
 30
0.0
 70
   128
 71
    11
 72
    10
 73
     9
  0
VERTEX
  5
547
  8
0
 62
   123
 10
0.0
 20
0.0
 30
0.0
 70
   128
 71
    12
 72
    11
 73
     6
  0
VERTEX
  5
548
  8
0
 62
   123
 10
0.0
 20
0.0
 30
0.0
 70
   128
 71
    15
 72
    14
 73
    13
  0
VERTEX
  5
549
  8
0
 62
   123
 10
0.0
 20
0.0
 30
0.0
 70
   128
 71
    10
 72
    13
 73
     9
  0
VERTEX
  5
54A
  8
0
 62
   123
 10
0.0
 20
0.0
 30
0.0
 70
   128
 71
    14
 72
     9
 73
    13
  0
VERTEX
  5
54B
  8
0
 62
   123
 10
0.0
 20
0.0
 30
0.0
 70
   128
 71
    16
 72
    12
 73
     6
  0
VERTEX
  5
54C
  8
0
 62
   123
 10
0.0
 20
0.0
 30
0.0
 70
   128
 71
    12
 72
    10
 73
    11
  0
VERTEX
  5
54D
  8
0
 62
   123
 10
0.0
 20
0.0
 30
0.0
 70
   128
 71
     6
 72
     4
 73
    16
  0
VERTEX
  5
54E
  8
0
 62
   123
 10
0.0
 20
0.0
 30
0.0
 70
   128
 71
     8
 72
     1
 73
     2
  0
VERTEX
  5
54F
  8
0
 62
   123
 10
0.0
 20
0.0
 30
0.0
 70
   128
 71
     2
 72
     7
 73
     8
  0
VERTEX
  5
550
  8
0
 62
   123
 10
0.0
 20
0.0
 30
0.0
 70
   128
 71
     5
 72
     7
 73
     4
  0
VERTEX
  5
551
  8
0
 62
   123
 10
0.0
 20
0.0
 30
0.0
 70
   128
 71
    19
 72
    18
 73
    17
  0
VERTEX
  5
552
  8
0
 62
   123
 10
0.0
 20
0.0
 30
0.0
 70
   128
 71
    19
 72
    21
 73
    20
  0
VERTEX
  5
553
  8
0
 62
   123
 10
0.0
 20
0.0
 30
0.0
 70
   128
 71
    22
 72
    20
 73
    21
  0
VERTEX
  5
554
  8
0
 62
   123
 10
0.0
 20
0.0
 30
0.0
 70
   128
 71
    19
 72
    20
 73
    18
  0
VERTEX
  5
555
  8
0
 62
   123
 10
0.0
 20
0.0
 30
0.0
 70
   128
 71
    24
 72
    21
 73
    23
  0
VERTEX
  5
556
  8
0
 62
   123
 10
0.0
 20
0.0
 30
0.0
 70
   128
 71
    19
 72
    23
 73
    21
  0
VERTEX
  5
557
  8
0
 62
   123
 10
0.0
 20
0.0
 30
0.0
 70
   128
 71
    23
 72
    19
 73
    17
  0
VERTEX
  5
558
  8
0
 62
   123
 10
0.0
 20
0.0
 30
0.0
 70
   128
 71
    27
 72
    26
 73
    25
  0
VERTEX
  5
559
  8
0
 62
   123
 10
0.0
 20
0.0
 30
0.0
 70
   128
 71
    30
 72
    29
 73
    28
  0
VERTEX
  5
55A
  8
0
 62
   123
 10
0.0
 20
0.0
 30
0.0
 70
   128
 71
    32
 72
    25
 73
    31
  0
VERTEX
  5
55B
  8
0
 62
   123
 10
0.0
 20
0.0
 30
0.0
 70
   128
 71
    29
 72
    30
 73
    33
  0
VERTEX
  5
55C
  8
0
 62
   123
 10
0.0
 20
0.0
 30
0.0
 70
   128
 71
    35
 72
    31
 73
    34
  0
VERTEX
  5
55D
  8
0
 62
   123
 10
0.0
 20
0.0
 30
0.0
 70
   128
 71
    38
 72
    37
 73
    36
  0
VERTEX
  5
55E
  8
0
 62
   123
 10
0.0
 20
0.0
 30
0.0
 70
   128
 71
    38
 72
    39
 73
    37
  0
VERTEX
  5
55F
  8
0
 62
   123
 10
0.0
 20
0.0
 30
0.0
 70
   128
 71
    42
 72
    41
 73
    40
  0
VERTEX
  5
560
  8
0
 62
   123
 10
0.0
 20
0.0
 30
0.0
 70
   128
 71
    42
 72
    36
 73
    43
  0
VERTEX
  5
561
  8
0
 62
   123
 10
0.0
 20
0.0
 30
0.0
 70
   128
 71
    44
 72
    24
 73
    23
  0
VERTEX
  5
562
  8
0
 62
   123
 10
0.0
 20
0.0
 30
0.0
 70
   128
 71
    44
 72
    23
 73
    40
  0
VERTEX
  5
563
  8
0
 62
   123
 10
0.0
 20
0.0
 30
0.0
 70
   128
 71
    17
 72
    40
 73
    23
  0
VERTEX
  5
564
  8
0
 62
   123
 10
0.0
 20
0.0
 30
0.0
 70
   128
 71
    41
 72
    42
 73
    43
  0
VERTEX
  5
565
  8
0
 62
   123
 10
0.0
 20
0.0
 30
0.0
 70
   128
 71
    41
 72
    44
 73
    40
  0
VERTEX
  5
566
  8
0
 62
   123
 10
0.0
 20
0.0
 30
0.0
 70
   128
 71
    43
 72
    36
 73
    37
  0
VERTEX
  5
567
  8
0
 62
   123
 10
0.0
 20
0.0
 30
0.0
 70
   128
 71
    46
 72
    33
 73
    45
  0
VERTEX
  5
568
  8
0
 62
   123
 10
0.0
 20
0.0
 30
0.0
 70
   128
 71
    46
 72
    39
 73
    38
  0
VERTEX
  5
569
  8
0
 62
   123
 10
0.0
 20
0.0
 30
0.0
 70
   128
 71
    33
 72
    30
 73
    45
  0
VERTEX
  5
56A
  8
0
 62
   123
 10
0.0
 20
0.0
 30
0.0
 70
   128
 71
    45
 72
    39
 73
    46
  0
VERTEX
  5
56B
  8
0
 62
   123
 10
0.0
 20
0.0
 30
0.0
 70
   128
 71
    48
 72
    47
 73
    35
  0
VERTEX
  5
56C
  8
0
 62
   123
 10
0.0
 20
0.0
 30
0.0
 70
   128
 71
    28
 72
    29
 73
    47
  0
VERTEX
  5
56D
  8
0
 62
   123
 10
0.0
 20
0.0
 30
0.0
 70
   128
 71
    25
 72
    26
 73
    31
  0
VERTEX
  5
56E
  8
0
 62
   123
 10
0.0
 20
0.0
 30
0.0
 70
   128
 71
    28
 72
    47
 73
    48
  0
VERTEX
  5
56F
  8
0
 62
   123
 10
0.0
 20
0.0
 30
0.0
 70
   128
 71
    49
 72
    31
 73
    26
  0
VERTEX
  5
570
  8
0
 62
   123
 10
0.0
 20
0.0
 30
0.0
 70
   128
 71
    34
 72
    31
 73
    49
  0
VERTEX
  5
571
  8
0
 62
   123
 10
0.0
 20
0.0
 30
0.0
 70
   128
 71
    48
 72
    35
 73
    34
  0
VERTEX
  5
572
  8
0
 62
   123
 10
0.0
 20
0.0
 30
0.0
 70
   128
 71
    35
 72
    50
 73
    32
  0
VERTEX
  5
573
  8
0
 62
   123
 10
0.0
 20
0.0
 30
0.0
 70
   128
 71
    35
 72
    32
 73
    31
  0
VERTEX
  5
574
  8
0
 62
   123
 10
0.0
 20
0.0
 30
0.0
 70
   128
 71
    47
 72
    51
 73
    50
  0
VERTEX
  5
575
  8
0
 62
   123
 10
0.0
 20
0.0
 30
0.0
 70
   128
 71
    47
 72
    50
 73
    35
  0
VERTEX
  5
576
  8
0
 62
   123
 10
0.0
 20
0.0
 30
0.0
 70
   128
 71
    29
 72
    52
 73
    51
  0
VERTEX
  5
577
  8
0
 62
   123
 10
0.0
 20
0.0
 30
0.0
 70
   128
 71
    29
 72
    51
 73
    47
  0
VERTEX
  5
578
  8
0
 62
   123
 10
0.0
 20
0.0
 30
0.0
 70
   128
 71
    33
 72
    53
 73
    52
  0
VERTEX
  5
579
  8
0
 62
   123
 10
0.0
 20
0.0
 30
0.0
 70
   128
 71
    33
 72
    52
 73
    29
  0
VERTEX
  5
57A
  8
0
 62
   123
 10
0.0
 20
0.0
 30
0.0
 70
   128
 71
    46
 72
    54
 73
    53
  0
VERTEX
  5
57B
  8
0
 62
   123
 10
0.0
 20
0.0
 30
0.0
 70
   128
 71
    46
 72
    53
 73
    33
  0
VERTEX
  5
57C
  8
0
 62
   123
 10
0.0
 20
0.0
 30
0.0
 70
   128
 71
    38
 72
    55
 73
    54
  0
VERTEX
  5
57D
  8
0
 62
   123
 10
0.0
 20
0.0
 30
0.0
 70
   128
 71
    38
 72
    54
 73
    46
  0
VERTEX
  5
57E
  8
0
 62
   123
 10
0.0
 20
0.0
 30
0.0
 70
   128
 71
    36
 72
    56
 73
    55
  0
VERTEX
  5
57F
  8
0
 62
   123
 10
0.0
 20
0.0
 30
0.0
 70
   128
 71
    36
 72
    55
 73
    38
  0
VERTEX
  5
580
  8
0
 62
   123
 10
0.0
 20
0.0
 30
0.0
 70
   128
 71
    42
 72
    57
 73
    56
  0
VERTEX
  5
581
  8
0
 62
   123
 10
0.0
 20
0.0
 30
0.0
 70
   128
 71
    42
 72
    56
 73
    36
  0
VERTEX
  5
582
  8
0
 62
   123
 10
0.0
 20
0.0
 30
0.0
 70
   128
 71
    57
 72
    40
 73
    17
  0
VERTEX
  5
583
  8
0
 62
   123
 10
0.0
 20
0.0
 30
0.0
 70
   128
 71
    40
 72
    57
 73
    42
  0
VERTEX
  5
584
  8
0
 62
   123
 10
0.0
 20
0.0
 30
0.0
 70
   128
 71
    59
 72
    26
 73
    58
  0
VERTEX
  5
585
  8
0
 62
   123
 10
0.0
 20
0.0
 30
0.0
 70
   128
 71
    59
 72
    49
 73
    26
  0
VERTEX
  5
586
  8
0
 62
   123
 10
0.0
 20
0.0
 30
0.0
 70
   128
 71
    26
 72
    27
 73
    58
  0
VERTEX
  5
587
  8
0
 62
   123
 10
0.0
 20
0.0
 30
0.0
 70
   128
 71
    61
 72
    60
 73
    59
  0
VERTEX
  5
588
  8
0
 62
   123
 10
0.0
 20
0.0
 30
0.0
 70
   128
 71
    58
 72
    62
 73
    61
  0
VERTEX
  5
589
  8
0
 62
   123
 10
0.0
 20
0.0
 30
0.0
 70
   128
 71
    59
 72
    58
 73
    61
  0
VERTEX
  5
58A
  8
0
 62
   123
 10
0.0
 20
0.0
 30
0.0
 70
   128
 71
    62
 72
    58
 73
    27
  0
VERTEX
  5
58B
  8
0
 62
   123
 10
0.0
 20
0.0
 30
0.0
 70
   128
 71
    65
 72
    64
 73
    63
  0
VERTEX
  5
58C
  8
0
 62
   123
 10
0.0
 20
0.0
 30
0.0
 70
   128
 71
    59
 72
    60
 73
    66
  0
VERTEX
  5
58D
  8
0
 62
   123
 10
0.0
 20
0.0
 30
0.0
 70
   128
 71
    66
 72
    65
 73
    59
  0
VERTEX
  5
58E
  8
0
 62
   123
 10
0.0
 20
0.0
 30
0.0
 70
   128
 71
    67
 72
    65
 73
    63
  0
VERTEX
  5
58F
  8
0
 62
   123
 10
0.0
 20
0.0
 30
0.0
 70
   128
 71
    67
 72
    49
 73
    59
  0
VERTEX
  5
590
  8
0
 62
   123
 10
0.0
 20
0.0
 30
0.0
 70
   128
 71
    64
 72
    65
 73
    66
  0
VERTEX
  5
591
  8
0
 62
   123
 10
0.0
 20
0.0
 30
0.0
 70
   128
 71
    65
 72
    67
 73
    59
  0
VERTEX
  5
592
  8
0
 62
   123
 10
0.0
 20
0.0
 30
0.0
 70
   128
 71
    70
 72
    69
 73
    68
  0
VERTEX
  5
593
  8
0
 62
   123
 10
0.0
 20
0.0
 30
0.0
 70
   128
 71
    73
 72
    72
 73
    71
  0
VERTEX
  5
594
  8
0
 62
   123
 10
0.0
 20
0.0
 30
0.0
 70
   128
 71
    76
 72
    75
 73
    74
  0
VERTEX
  5
595
  8
0
 62
   123
 10
0.0
 20
0.0
 30
0.0
 70
   128
 71
    68
 72
    69
 73
    77
  0
VERTEX
  5
596
  8
0
 62
   123
 10
0.0
 20
0.0
 30
0.0
 70
   128
 71
    80
 72
    79
 73
    78
  0
VERTEX
  5
597
  8
0
 62
   123
 10
0.0
 20
0.0
 30
0.0
 70
   128
 71
    83
 72
    82
 73
    81
  0
VERTEX
  5
598
  8
0
 62
   123
 10
0.0
 20
0.0
 30
0.0
 70
   128
 71
    86
 72
    85
 73
    84
  0
VERTEX
  5
599
  8
0
 62
   123
 10
0.0
 20
0.0
 30
0.0
 70
   128
 71
    87
 72
    85
 73
    80
  0
VERTEX
  5
59A
  8
0
 62
   123
 10
0.0
 20
0.0
 30
0.0
 70
   128
 71
    84
 72
    88
 73
    63
  0
VERTEX
  5
59B
  8
0
 62
   123
 10
0.0
 20
0.0
 30
0.0
 70
   128
 71
    84
 72
    89
 73
    86
  0
VERTEX
  5
59C
  8
0
 62
   123
 10
0.0
 20
0.0
 30
0.0
 70
   128
 71
    86
 72
    89
 73
    90
  0
VERTEX
  5
59D
  8
0
 62
   123
 10
0.0
 20
0.0
 30
0.0
 70
   128
 71
    85
 72
    87
 73
    84
  0
VERTEX
  5
59E
  8
0
 62
   123
 10
0.0
 20
0.0
 30
0.0
 70
   128
 71
    80
 72
    78
 73
    87
  0
VERTEX
  5
59F
  8
0
 62
   123
 10
0.0
 20
0.0
 30
0.0
 70
   128
 71
    82
 72
    78
 73
    79
  0
VERTEX
  5
5A0
  8
0
 62
   123
 10
0.0
 20
0.0
 30
0.0
 70
   128
 71
    81
 72
    74
 73
    83
  0
VERTEX
  5
5A1
  8
0
 62
   123
 10
0.0
 20
0.0
 30
0.0
 70
   128
 71
    79
 72
    81
 73
    82
  0
VERTEX
  5
5A2
  8
0
 62
   123
 10
0.0
 20
0.0
 30
0.0
 70
   128
 71
    68
 72
    75
 73
    76
  0
VERTEX
  5
5A3
  8
0
 62
   123
 10
0.0
 20
0.0
 30
0.0
 70
   128
 71
    83
 72
    74
 73
    75
  0
VERTEX
  5
5A4
  8
0
 62
   123
 10
0.0
 20
0.0
 30
0.0
 70
   128
 71
    72
 72
    69
 73
    71
  0
VERTEX
  5
5A5
  8
0
 62
   123
 10
0.0
 20
0.0
 30
0.0
 70
   128
 71
    70
 72
    68
 73
    76
  0
VERTEX
  5
5A6
  8
0
 62
   123
 10
0.0
 20
0.0
 30
0.0
 70
   128
 71
    93
 72
    92
 73
    91
  0
VERTEX
  5
5A7
  8
0
 62
   123
 10
0.0
 20
0.0
 30
0.0
 70
   128
 71
    73
 72
    92
 73
    72
  0
VERTEX
  5
5A8
  8
0
 62
   123
 10
0.0
 20
0.0
 30
0.0
 70
   128
 71
    94
 72
    88
 73
    87
  0
VERTEX
  5
5A9
  8
0
 62
   123
 10
0.0
 20
0.0
 30
0.0
 70
   128
 71
    89
 72
    84
 73
    63
  0
VERTEX
  5
5AA
  8
0
 62
   123
 10
0.0
 20
0.0
 30
0.0
 70
   128
 71
    95
 72
    94
 73
    78
  0
VERTEX
  5
5AB
  8
0
 62
   123
 10
0.0
 20
0.0
 30
0.0
 70
   128
 71
    84
 72
    87
 73
    88
  0
VERTEX
  5
5AC
  8
0
 62
   123
 10
0.0
 20
0.0
 30
0.0
 70
   128
 71
    96
 72
    95
 73
    82
  0
VERTEX
  5
5AD
  8
0
 62
   123
 10
0.0
 20
0.0
 30
0.0
 70
   128
 71
    87
 72
    78
 73
    94
  0
VERTEX
  5
5AE
  8
0
 62
   123
 10
0.0
 20
0.0
 30
0.0
 70
   128
 71
    97
 72
    96
 73
    83
  0
VERTEX
  5
5AF
  8
0
 62
   123
 10
0.0
 20
0.0
 30
0.0
 70
   128
 71
    78
 72
    82
 73
    95
  0
VERTEX
  5
5B0
  8
0
 62
   123
 10
0.0
 20
0.0
 30
0.0
 70
   128
 71
    98
 72
    97
 73
    75
  0
VERTEX
  5
5B1
  8
0
 62
   123
 10
0.0
 20
0.0
 30
0.0
 70
   128
 71
    82
 72
    83
 73
    96
  0
VERTEX
  5
5B2
  8
0
 62
   123
 10
0.0
 20
0.0
 30
0.0
 70
   128
 71
    77
 72
    98
 73
    68
  0
VERTEX
  5
5B3
  8
0
 62
   123
 10
0.0
 20
0.0
 30
0.0
 70
   128
 71
    83
 72
    75
 73
    97
  0
VERTEX
  5
5B4
  8
0
 62
   123
 10
0.0
 20
0.0
 30
0.0
 70
   128
 71
    99
 72
    77
 73
    69
  0
VERTEX
  5
5B5
  8
0
 62
   123
 10
0.0
 20
0.0
 30
0.0
 70
   128
 71
    75
 72
    68
 73
    98
  0
VERTEX
  5
5B6
  8
0
 62
   123
 10
0.0
 20
0.0
 30
0.0
 70
   128
 71
    93
 72
    99
 73
    72
  0
VERTEX
  5
5B7
  8
0
 62
   123
 10
0.0
 20
0.0
 30
0.0
 70
   128
 71
    69
 72
    70
 73
    71
  0
VERTEX
  5
5B8
  8
0
 62
   123
 10
0.0
 20
0.0
 30
0.0
 70
   128
 71
    72
 72
    92
 73
    93
  0
VERTEX
  5
5B9
  8
0
 62
   123
 10
0.0
 20
0.0
 30
0.0
 70
   128
 71
    69
 72
    72
 73
    99
  0
VERTEX
  5
5BA
  8
0
 62
   123
 10
0.0
 20
0.0
 30
0.0
 70
   128
 71
   102
 72
   101
 73
   100
  0
VERTEX
  5
5BB
  8
0
 62
   123
 10
0.0
 20
0.0
 30
0.0
 70
   128
 71
   101
 72
   104
 73
   103
  0
VERTEX
  5
5BC
  8
0
 62
   123
 10
0.0
 20
0.0
 30
0.0
 70
   128
 71
   103
 72
   100
 73
   101
  0
VERTEX
  5
5BD
  8
0
 62
   123
 10
0.0
 20
0.0
 30
0.0
 70
   128
 71
   102
 72
   105
 73
   101
  0
VERTEX
  5
5BE
  8
0
 62
   123
 10
0.0
 20
0.0
 30
0.0
 70
   128
 71
   106
 72
   101
 73
   105
  0
VERTEX
  5
5BF
  8
0
 62
   123
 10
0.0
 20
0.0
 30
0.0
 70
   128
 71
   108
 72
   107
 73
   106
  0
VERTEX
  5
5C0
  8
0
 62
   123
 10
0.0
 20
0.0
 30
0.0
 70
   128
 71
   107
 72
   109
 73
   106
  0
VERTEX
  5
5C1
  8
0
 62
   123
 10
0.0
 20
0.0
 30
0.0
 70
   128
 71
   106
 72
   105
 73
   108
  0
VERTEX
  5
5C2
  8
0
 62
   123
 10
0.0
 20
0.0
 30
0.0
 70
   128
 71
   110
 72
    73
 73
   109
  0
VERTEX
  5
5C3
  8
0
 62
   123
 10
0.0
 20
0.0
 30
0.0
 70
   128
 71
    86
 72
   111
 73
    85
  0
VERTEX
  5
5C4
  8
0
 62
   123
 10
0.0
 20
0.0
 30
0.0
 70
   128
 71
    81
 72
    79
 73
   112
  0
VERTEX
  5
5C5
  8
0
 62
   123
 10
0.0
 20
0.0
 30
0.0
 70
   128
 71
    70
 72
   106
 73
   109
  0
VERTEX
  5
5C6
  8
0
 62
   123
 10
0.0
 20
0.0
 30
0.0
 70
   128
 71
    73
 72
    71
 73
   109
  0
VERTEX
  5
5C7
  8
0
 62
   123
 10
0.0
 20
0.0
 30
0.0
 70
   128
 71
    74
 72
    81
 73
   106
  0
VERTEX
  5
5C8
  8
0
 62
   123
 10
0.0
 20
0.0
 30
0.0
 70
   128
 71
    71
 72
    70
 73
   109
  0
VERTEX
  5
5C9
  8
0
 62
   123
 10
0.0
 20
0.0
 30
0.0
 70
   128
 71
    76
 72
    74
 73
   106
  0
VERTEX
  5
5CA
  8
0
 62
   123
 10
0.0
 20
0.0
 30
0.0
 70
   128
 71
    70
 72
    76
 73
   106
  0
VERTEX
  5
5CB
  8
0
 62
   123
 10
0.0
 20
0.0
 30
0.0
 70
   128
 71
    81
 72
   112
 73
   106
  0
VERTEX
  5
5CC
  8
0
 62
   123
 10
0.0
 20
0.0
 30
0.0
 70
   128
 71
    80
 72
    85
 73
   112
  0
VERTEX
  5
5CD
  8
0
 62
   123
 10
0.0
 20
0.0
 30
0.0
 70
   128
 71
    79
 72
    80
 73
   112
  0
VERTEX
  5
5CE
  8
0
 62
   123
 10
0.0
 20
0.0
 30
0.0
 70
   128
 71
   112
 72
    85
 73
   111
  0
VERTEX
  5
5CF
  8
0
 62
   123
 10
0.0
 20
0.0
 30
0.0
 70
   128
 71
   113
 72
   111
 73
    90
  0
VERTEX
  5
5D0
  8
0
 62
   123
 10
0.0
 20
0.0
 30
0.0
 70
   128
 71
   111
 72
    86
 73
    90
  0
VERTEX
  5
5D1
  8
0
 62
   123
 10
0.0
 20
0.0
 30
0.0
 70
   128
 71
   115
 72
   112
 73
   114
  0
VERTEX
  5
5D2
  8
0
 62
   123
 10
0.0
 20
0.0
 30
0.0
 70
   128
 71
   112
 72
   111
 73
   116
  0
VERTEX
  5
5D3
  8
0
 62
   123
 10
0.0
 20
0.0
 30
0.0
 70
   128
 71
   116
 72
   114
 73
   112
  0
VERTEX
  5
5D4
  8
0
 62
   123
 10
0.0
 20
0.0
 30
0.0
 70
   128
 71
   116
 72
   111
 73
   117
  0
VERTEX
  5
5D5
  8
0
 62
   123
 10
0.0
 20
0.0
 30
0.0
 70
   128
 71
   114
 72
   119
 73
   118
  0
VERTEX
  5
5D6
  8
0
 62
   123
 10
0.0
 20
0.0
 30
0.0
 70
   128
 71
   117
 72
   119
 73
   116
  0
VERTEX
  5
5D7
  8
0
 62
   123
 10
0.0
 20
0.0
 30
0.0
 70
   128
 71
   121
 72
   118
 73
   120
  0
VERTEX
  5
5D8
  8
0
 62
   123
 10
0.0
 20
0.0
 30
0.0
 70
   128
 71
   118
 72
   119
 73
   120
  0
VERTEX
  5
5D9
  8
0
 62
   123
 10
0.0
 20
0.0
 30
0.0
 70
   128
 71
   118
 72
   115
 73
   114
  0
VERTEX
  5
5DA
  8
0
 62
   123
 10
0.0
 20
0.0
 30
0.0
 70
   128
 71
   120
 72
   119
 73
   117
  0
VERTEX
  5
5DB
  8
0
 62
   123
 10
0.0
 20
0.0
 30
0.0
 70
   128
 71
   119
 72
   114
 73
   116
  0
VERTEX
  5
5DC
  8
0
 62
   123
 10
0.0
 20
0.0
 30
0.0
 70
   128
 71
   120
 72
   117
 73
   122
  0
VERTEX
  5
5DD
  8
0
 62
   123
 10
0.0
 20
0.0
 30
0.0
 70
   128
 71
   122
 72
   117
 73
   113
  0
VERTEX
  5
5DE
  8
0
 62
   123
 10
0.0
 20
0.0
 30
0.0
 70
   128
 71
   117
 72
   111
 73
   113
  0
VERTEX
  5
5DF
  8
0
 62
   123
 10
0.0
 20
0.0
 30
0.0
 70
   128
 71
   123
 72
   120
 73
   122
  0
VERTEX
  5
5E0
  8
0
 62
   123
 10
0.0
 20
0.0
 30
0.0
 70
   128
 71
   123
 72
   121
 73
   120
  0
VERTEX
  5
5E1
  8
0
 62
   123
 10
0.0
 20
0.0
 30
0.0
 70
   128
 71
   124
 72
   121
 73
   123
  0
VERTEX
  5
5E2
  8
0
 62
   123
 10
0.0
 20
0.0
 30
0.0
 70
   128
 71
   122
 72
   113
 73
   125
  0
VERTEX
  5
5E3
  8
0
 62
   123
 10
0.0
 20
0.0
 30
0.0
 70
   128
 71
   127
 72
   123
 73
   126
  0
VERTEX
  5
5E4
  8
0
 62
   123
 10
0.0
 20
0.0
 30
0.0
 70
   128
 71
   125
 72
   126
 73
   122
  0
VERTEX
  5
5E5
  8
0
 62
   123
 10
0.0
 20
0.0
 30
0.0
 70
   128
 71
   129
 72
   127
 73
   128
  0
VERTEX
  5
5E6
  8
0
 62
   123
 10
0.0
 20
0.0
 30
0.0
 70
   128
 71
   126
 72
   123
 73
   122
  0
VERTEX
  5
5E7
  8
0
 62
   123
 10
0.0
 20
0.0
 30
0.0
 70
   128
 71
   127
 72
   124
 73
   123
  0
VERTEX
  5
5E8
  8
0
 62
   123
 10
0.0
 20
0.0
 30
0.0
 70
   128
 71
   126
 72
   128
 73
   127
  0
VERTEX
  5
5E9
  8
0
 62
   123
 10
0.0
 20
0.0
 30
0.0
 70
   128
 71
   128
 72
   126
 73
   125
  0
VERTEX
  5
5EA
  8
0
 62
   123
 10
0.0
 20
0.0
 30
0.0
 70
   128
 71
   125
 72
    90
 73
    89
  0
VERTEX
  5
5EB
  8
0
 62
   123
 10
0.0
 20
0.0
 30
0.0
 70
   128
 71
   125
 72
   113
 73
    90
  0
VERTEX
  5
5EC
  8
0
 62
   123
 10
0.0
 20
0.0
 30
0.0
 70
   128
 71
   125
 72
    89
 73
   128
  0
VERTEX
  5
5ED
  8
0
 62
   123
 10
0.0
 20
0.0
 30
0.0
 70
   128
 71
    63
 72
   128
 73
    89
  0
VERTEX
  5
5EE
  8
0
 62
   123
 10
0.0
 20
0.0
 30
0.0
 70
   128
 71
   129
 72
   128
 73
    63
  0
VERTEX
  5
5EF
  8
0
 62
   123
 10
0.0
 20
0.0
 30
0.0
 70
   128
 71
   129
 72
    63
 73
    64
  0
VERTEX
  5
5F0
  8
0
 62
   123
 10
0.0
 20
0.0
 30
0.0
 70
   128
 71
   129
 72
    66
 73
    60
  0
VERTEX
  5
5F1
  8
0
 62
   123
 10
0.0
 20
0.0
 30
0.0
 70
   128
 71
    66
 72
   129
 73
    64
  0
VERTEX
  5
5F2
  8
0
 62
   123
 10
0.0
 20
0.0
 30
0.0
 70
   128
 71
   127
 72
   130
 73
   124
  0
VERTEX
  5
5F3
  8
0
 62
   123
 10
0.0
 20
0.0
 30
0.0
 70
   128
 71
   124
 72
   130
 73
   131
  0
VERTEX
  5
5F4
  8
0
 62
   123
 10
0.0
 20
0.0
 30
0.0
 70
   128
 71
   130
 72
   127
 73
    60
  0
VERTEX
  5
5F5
  8
0
 62
   123
 10
0.0
 20
0.0
 30
0.0
 70
   128
 71
   129
 72
    60
 73
   127
  0
VERTEX
  5
5F6
  8
0
 62
   123
 10
0.0
 20
0.0
 30
0.0
 70
   128
 71
    62
 72
    27
 73
   132
  0
VERTEX
  5
5F7
  8
0
 62
   123
 10
0.0
 20
0.0
 30
0.0
 70
   128
 71
   130
 72
    61
 73
   133
  0
VERTEX
  5
5F8
  8
0
 62
   123
 10
0.0
 20
0.0
 30
0.0
 70
   128
 71
    62
 72
   133
 73
    61
  0
VERTEX
  5
5F9
  8
0
 62
   123
 10
0.0
 20
0.0
 30
0.0
 70
   128
 71
   131
 72
   130
 73
   134
  0
VERTEX
  5
5FA
  8
0
 62
   123
 10
0.0
 20
0.0
 30
0.0
 70
   128
 71
    60
 72
    61
 73
   130
  0
VERTEX
  5
5FB
  8
0
 62
   123
 10
0.0
 20
0.0
 30
0.0
 70
   128
 71
   133
 72
   132
 73
   134
  0
VERTEX
  5
5FC
  8
0
 62
   123
 10
0.0
 20
0.0
 30
0.0
 70
   128
 71
   130
 72
   133
 73
   134
  0
VERTEX
  5
5FD
  8
0
 62
   123
 10
0.0
 20
0.0
 30
0.0
 70
   128
 71
   132
 72
   133
 73
    62
  0
VERTEX
  5
5FE
  8
0
 62
   123
 10
0.0
 20
0.0
 30
0.0
 70
   128
 71
   134
 72
   132
 73
   135
  0
VERTEX
  5
5FF
  8
0
 62
   123
 10
0.0
 20
0.0
 30
0.0
 70
   128
 71
   135
 72
   132
 73
   136
  0
VERTEX
  5
600
  8
0
 62
   123
 10
0.0
 20
0.0
 30
0.0
 70
   128
 71
   132
 72
    27
 73
   136
  0
VERTEX
  5
601
  8
0
 62
   123
 10
0.0
 20
0.0
 30
0.0
 70
   128
 71
   137
 72
   134
 73
   135
  0
VERTEX
  5
602
  8
0
 62
   123
 10
0.0
 20
0.0
 30
0.0
 70
   128
 71
   137
 72
   131
 73
   134
  0
VERTEX
  5
603
  8
0
 62
   123
 10
0.0
 20
0.0
 30
0.0
 70
   128
 71
   138
 72
   131
 73
   137
  0
VERTEX
  5
604
  8
0
 62
   123
 10
0.0
 20
0.0
 30
0.0
 70
   128
 71
    53
 72
   139
 73
    52
  0
VERTEX
  5
605
  8
0
 62
   123
 10
0.0
 20
0.0
 30
0.0
 70
   128
 71
    55
 72
    56
 73
   101
  0
VERTEX
  5
606
  8
0
 62
   123
 10
0.0
 20
0.0
 30
0.0
 70
   128
 71
    53
 72
    54
 73
   101
  0
VERTEX
  5
607
  8
0
 62
   123
 10
0.0
 20
0.0
 30
0.0
 70
   128
 71
   139
 72
   136
 73
    32
  0
VERTEX
  5
608
  8
0
 62
   123
 10
0.0
 20
0.0
 30
0.0
 70
   128
 71
    25
 72
    32
 73
   136
  0
VERTEX
  5
609
  8
0
 62
   123
 10
0.0
 20
0.0
 30
0.0
 70
   128
 71
    27
 72
    25
 73
   136
  0
VERTEX
  5
60A
  8
0
 62
   123
 10
0.0
 20
0.0
 30
0.0
 70
   128
 71
   139
 72
    50
 73
    51
  0
VERTEX
  5
60B
  8
0
 62
   123
 10
0.0
 20
0.0
 30
0.0
 70
   128
 71
    32
 72
    50
 73
   139
  0
VERTEX
  5
60C
  8
0
 62
   123
 10
0.0
 20
0.0
 30
0.0
 70
   128
 71
    51
 72
    52
 73
   139
  0
VERTEX
  5
60D
  8
0
 62
   123
 10
0.0
 20
0.0
 30
0.0
 70
   128
 71
    53
 72
   101
 73
   139
  0
VERTEX
  5
60E
  8
0
 62
   123
 10
0.0
 20
0.0
 30
0.0
 70
   128
 71
    54
 72
    55
 73
   101
  0
VERTEX
  5
60F
  8
0
 62
   123
 10
0.0
 20
0.0
 30
0.0
 70
   128
 71
   104
 72
    56
 73
    57
  0
VERTEX
  5
610
  8
0
 62
   123
 10
0.0
 20
0.0
 30
0.0
 70
   128
 71
   101
 72
    56
 73
   104
  0
VERTEX
  5
611
  8
0
 62
   123
 10
0.0
 20
0.0
 30
0.0
 70
   128
 71
    17
 72
   104
 73
    57
  0
VERTEX
  5
612
  8
0
 62
   123
 10
0.0
 20
0.0
 30
0.0
 70
   128
 71
     5
 72
    11
 73
   140
  0
VERTEX
  5
613
  8
0
 62
   123
 10
0.0
 20
0.0
 30
0.0
 70
   128
 71
     9
 72
    14
 73
   140
  0
VERTEX
  5
614
  8
0
 62
   123
 10
0.0
 20
0.0
 30
0.0
 70
   128
 71
    11
 72
     5
 73
     6
  0
VERTEX
  5
615
  8
0
 62
   123
 10
0.0
 20
0.0
 30
0.0
 70
   128
 71
   140
 72
   141
 73
     5
  0
VERTEX
  5
616
  8
0
 62
   123
 10
0.0
 20
0.0
 30
0.0
 70
   128
 71
   140
 72
    11
 73
     9
  0
VERTEX
  5
617
  8
0
 62
   123
 10
0.0
 20
0.0
 30
0.0
 70
   128
 71
     5
 72
   141
 73
     8
  0
VERTEX
  5
618
  8
0
 62
   123
 10
0.0
 20
0.0
 30
0.0
 70
   128
 71
   142
 72
     8
 73
   141
  0
VERTEX
  5
619
  8
0
 62
   123
 10
0.0
 20
0.0
 30
0.0
 70
   128
 71
   142
 72
   141
 73
   143
  0
VERTEX
  5
61A
  8
0
 62
   123
 10
0.0
 20
0.0
 30
0.0
 70
   128
 71
     8
 72
   144
 73
     1
  0
VERTEX
  5
61B
  8
0
 62
   123
 10
0.0
 20
0.0
 30
0.0
 70
   128
 71
   144
 72
     8
 73
   142
  0
VERTEX
  5
61C
  8
0
 62
   123
 10
0.0
 20
0.0
 30
0.0
 70
   128
 71
   143
 72
   145
 73
   142
  0
VERTEX
  5
61D
  8
0
 62
   123
 10
0.0
 20
0.0
 30
0.0
 70
   128
 71
   146
 72
   142
 73
   145
  0
VERTEX
  5
61E
  8
0
 62
   123
 10
0.0
 20
0.0
 30
0.0
 70
   128
 71
   145
 72
   143
 73
   147
  0
VERTEX
  5
61F
  8
0
 62
   123
 10
0.0
 20
0.0
 30
0.0
 70
   128
 71
   143
 72
   141
 73
   147
  0
VERTEX
  5
620
  8
0
 62
   123
 10
0.0
 20
0.0
 30
0.0
 70
   128
 71
   144
 72
   148
 73
     3
  0
VERTEX
  5
621
  8
0
 62
   123
 10
0.0
 20
0.0
 30
0.0
 70
   128
 71
   142
 72
   146
 73
   144
  0
VERTEX
  5
622
  8
0
 62
   123
 10
0.0
 20
0.0
 30
0.0
 70
   128
 71
     1
 72
   144
 73
     3
  0
VERTEX
  5
623
  8
0
 62
   123
 10
0.0
 20
0.0
 30
0.0
 70
   128
 71
   148
 72
   144
 73
   146
  0
VERTEX
  5
624
  8
0
 62
   123
 10
0.0
 20
0.0
 30
0.0
 70
   128
 71
   149
 72
   147
 73
   141
  0
VERTEX
  5
625
  8
0
 62
   123
 10
0.0
 20
0.0
 30
0.0
 70
   128
 71
   140
 72
   150
 73
   141
  0
VERTEX
  5
626
  8
0
 62
   123
 10
0.0
 20
0.0
 30
0.0
 70
   128
 71
   149
 72
   141
 73
   150
  0
VERTEX
  5
627
  8
0
 62
   123
 10
0.0
 20
0.0
 30
0.0
 70
   128
 71
   140
 72
    14
 73
    15
  0
VERTEX
  5
628
  8
0
 62
   123
 10
0.0
 20
0.0
 30
0.0
 70
   128
 71
    15
 72
   150
 73
   140
  0
VERTEX
  5
629
  8
0
 62
   123
 10
0.0
 20
0.0
 30
0.0
 70
   128
 71
    63
 72
    34
 73
    67
  0
VERTEX
  5
62A
  8
0
 62
   123
 10
0.0
 20
0.0
 30
0.0
 70
   128
 71
    88
 72
    34
 73
    63
  0
VERTEX
  5
62B
  8
0
 62
   123
 10
0.0
 20
0.0
 30
0.0
 70
   128
 71
    48
 72
    94
 73
    28
  0
VERTEX
  5
62C
  8
0
 62
   123
 10
0.0
 20
0.0
 30
0.0
 70
   128
 71
    12
 72
    16
 73
    97
  0
VERTEX
  5
62D
  8
0
 62
   123
 10
0.0
 20
0.0
 30
0.0
 70
   128
 71
     3
 72
    96
 73
     2
  0
VERTEX
  5
62E
  8
0
 62
   123
 10
0.0
 20
0.0
 30
0.0
 70
   128
 71
    41
 72
    43
 73
    99
  0
VERTEX
  5
62F
  8
0
 62
   123
 10
0.0
 20
0.0
 30
0.0
 70
   128
 71
   147
 72
   149
 73
    39
  0
VERTEX
  5
630
  8
0
 62
   123
 10
0.0
 20
0.0
 30
0.0
 70
   128
 71
    44
 72
    93
 73
    91
  0
VERTEX
  5
631
  8
0
 62
   123
 10
0.0
 20
0.0
 30
0.0
 70
   128
 71
    41
 72
    93
 73
    44
  0
VERTEX
  5
632
  8
0
 62
   123
 10
0.0
 20
0.0
 30
0.0
 70
   128
 71
    44
 72
    91
 73
   151
  0
VERTEX
  5
633
  8
0
 62
   123
 10
0.0
 20
0.0
 30
0.0
 70
   128
 71
   151
 72
    24
 73
    44
  0
VERTEX
  5
634
  8
0
 62
   123
 10
0.0
 20
0.0
 30
0.0
 70
   128
 71
    93
 72
    41
 73
    99
  0
VERTEX
  5
635
  8
0
 62
   123
 10
0.0
 20
0.0
 30
0.0
 70
   128
 71
    77
 72
    99
 73
    43
  0
VERTEX
  5
636
  8
0
 62
   123
 10
0.0
 20
0.0
 30
0.0
 70
   128
 71
    15
 72
    13
 73
    98
  0
VERTEX
  5
637
  8
0
 62
   123
 10
0.0
 20
0.0
 30
0.0
 70
   128
 71
    77
 72
    43
 73
    37
  0
VERTEX
  5
638
  8
0
 62
   123
 10
0.0
 20
0.0
 30
0.0
 70
   128
 71
    16
 72
     4
 73
    97
  0
VERTEX
  5
639
  8
0
 62
   123
 10
0.0
 20
0.0
 30
0.0
 70
   128
 71
    10
 72
    12
 73
    98
  0
VERTEX
  5
63A
  8
0
 62
   123
 10
0.0
 20
0.0
 30
0.0
 70
   128
 71
    28
 72
    95
 73
    30
  0
VERTEX
  5
63B
  8
0
 62
   123
 10
0.0
 20
0.0
 30
0.0
 70
   128
 71
    96
 72
     4
 73
     7
  0
VERTEX
  5
63C
  8
0
 62
   123
 10
0.0
 20
0.0
 30
0.0
 70
   128
 71
    28
 72
    94
 73
    95
  0
VERTEX
  5
63D
  8
0
 62
   123
 10
0.0
 20
0.0
 30
0.0
 70
   128
 71
    88
 72
    48
 73
    34
  0
VERTEX
  5
63E
  8
0
 62
   123
 10
0.0
 20
0.0
 30
0.0
 70
   128
 71
    48
 72
    88
 73
    94
  0
VERTEX
  5
63F
  8
0
 62
   123
 10
0.0
 20
0.0
 30
0.0
 70
   128
 71
    34
 72
    49
 73
    67
  0
VERTEX
  5
640
  8
0
 62
   123
 10
0.0
 20
0.0
 30
0.0
 70
   128
 71
    77
 72
    15
 73
    98
  0
VERTEX
  5
641
  8
0
 62
   123
 10
0.0
 20
0.0
 30
0.0
 70
   128
 71
    37
 72
    15
 73
    77
  0
VERTEX
  5
642
  8
0
 62
   123
 10
0.0
 20
0.0
 30
0.0
 70
   128
 71
    15
 72
    37
 73
   150
  0
VERTEX
  5
643
  8
0
 62
   123
 10
0.0
 20
0.0
 30
0.0
 70
   128
 71
    37
 72
   149
 73
   150
  0
VERTEX
  5
644
  8
0
 62
   123
 10
0.0
 20
0.0
 30
0.0
 70
   128
 71
    12
 72
    97
 73
    98
  0
VERTEX
  5
645
  8
0
 62
   123
 10
0.0
 20
0.0
 30
0.0
 70
   128
 71
    13
 72
    10
 73
    98
  0
VERTEX
  5
646
  8
0
 62
   123
 10
0.0
 20
0.0
 30
0.0
 70
   128
 71
   147
 72
    45
 73
   145
  0
VERTEX
  5
647
  8
0
 62
   123
 10
0.0
 20
0.0
 30
0.0
 70
   128
 71
    45
 72
   146
 73
   145
  0
VERTEX
  5
648
  8
0
 62
   123
 10
0.0
 20
0.0
 30
0.0
 70
   128
 71
    97
 72
     4
 73
    96
  0
VERTEX
  5
649
  8
0
 62
   123
 10
0.0
 20
0.0
 30
0.0
 70
   128
 71
   146
 72
    30
 73
   148
  0
VERTEX
  5
64A
  8
0
 62
   123
 10
0.0
 20
0.0
 30
0.0
 70
   128
 71
     7
 72
     2
 73
    96
  0
VERTEX
  5
64B
  8
0
 62
   123
 10
0.0
 20
0.0
 30
0.0
 70
   128
 71
    95
 72
     3
 73
    30
  0
VERTEX
  5
64C
  8
0
 62
   123
 10
0.0
 20
0.0
 30
0.0
 70
   128
 71
     3
 72
    95
 73
    96
  0
VERTEX
  5
64D
  8
0
 62
   123
 10
0.0
 20
0.0
 30
0.0
 70
   128
 71
   148
 72
    30
 73
     3
  0
VERTEX
  5
64E
  8
0
 62
   123
 10
0.0
 20
0.0
 30
0.0
 70
   128
 71
   146
 72
    45
 73
    30
  0
VERTEX
  5
64F
  8
0
 62
   123
 10
0.0
 20
0.0
 30
0.0
 70
   128
 71
   147
 72
    39
 73
    45
  0
VERTEX
  5
650
  8
0
 62
   123
 10
0.0
 20
0.0
 30
0.0
 70
   128
 71
    39
 72
   149
 73
    37
  0
VERTEX
  5
651
  8
0
 62
   123
 10
0.0
 20
0.0
 30
0.0
 70
   128
 71
   154
 72
   153
 73
   152
  0
VERTEX
  5
652
  8
0
 62
   123
 10
0.0
 20
0.0
 30
0.0
 70
   128
 71
    21
 72
   152
 73
    22
  0
VERTEX
  5
653
  8
0
 62
   123
 10
0.0
 20
0.0
 30
0.0
 70
   128
 71
   154
 72
   151
 73
    91
  0
VERTEX
  5
654
  8
0
 62
   123
 10
0.0
 20
0.0
 30
0.0
 70
   128
 71
   151
 72
    21
 73
    24
  0
VERTEX
  5
655
  8
0
 62
   123
 10
0.0
 20
0.0
 30
0.0
 70
   128
 71
   153
 72
   154
 73
    91
  0
VERTEX
  5
656
  8
0
 62
   123
 10
0.0
 20
0.0
 30
0.0
 70
   128
 71
   154
 72
    21
 73
   151
  0
VERTEX
  5
657
  8
0
 62
   123
 10
0.0
 20
0.0
 30
0.0
 70
   128
 71
    21
 72
   154
 73
   152
  0
VERTEX
  5
658
  8
0
 62
   123
 10
0.0
 20
0.0
 30
0.0
 70
   128
 71
    92
 72
   156
 73
   155
  0
VERTEX
  5
659
  8
0
 62
   123
 10
0.0
 20
0.0
 30
0.0
 70
   128
 71
    92
 72
    73
 73
   156
  0
VERTEX
  5
65A
  8
0
 62
   123
 10
0.0
 20
0.0
 30
0.0
 70
   128
 71
    73
 72
   110
 73
   156
  0
VERTEX
  5
65B
  8
0
 62
   123
 10
0.0
 20
0.0
 30
0.0
 70
   128
 71
    91
 72
    92
 73
   155
  0
VERTEX
  5
65C
  8
0
 62
   123
 10
0.0
 20
0.0
 30
0.0
 70
   128
 71
   157
 72
    91
 73
   155
  0
VERTEX
  5
65D
  8
0
 62
   123
 10
0.0
 20
0.0
 30
0.0
 70
   128
 71
   156
 72
   110
 73
   158
  0
VERTEX
  5
65E
  8
0
 62
   123
 10
0.0
 20
0.0
 30
0.0
 70
   128
 71
   160
 72
   155
 73
   159
  0
VERTEX
  5
65F
  8
0
 62
   123
 10
0.0
 20
0.0
 30
0.0
 70
   128
 71
   156
 72
   159
 73
   155
  0
VERTEX
  5
660
  8
0
 62
   123
 10
0.0
 20
0.0
 30
0.0
 70
   128
 71
   162
 72
   160
 73
   161
  0
VERTEX
  5
661
  8
0
 62
   123
 10
0.0
 20
0.0
 30
0.0
 70
   128
 71
   157
 72
   155
 73
   160
  0
VERTEX
  5
662
  8
0
 62
   123
 10
0.0
 20
0.0
 30
0.0
 70
   128
 71
   159
 72
   158
 73
   161
  0
VERTEX
  5
663
  8
0
 62
   123
 10
0.0
 20
0.0
 30
0.0
 70
   128
 71
   160
 72
   159
 73
   161
  0
VERTEX
  5
664
  8
0
 62
   123
 10
0.0
 20
0.0
 30
0.0
 70
   128
 71
   158
 72
   159
 73
   156
  0
VERTEX
  5
665
  8
0
 62
   123
 10
0.0
 20
0.0
 30
0.0
 70
   128
 71
   161
 72
   158
 73
   163
  0
VERTEX
  5
666
  8
0
 62
   123
 10
0.0
 20
0.0
 30
0.0
 70
   128
 71
   163
 72
   158
 73
   109
  0
VERTEX
  5
667
  8
0
 62
   123
 10
0.0
 20
0.0
 30
0.0
 70
   128
 71
   158
 72
   110
 73
   109
  0
VERTEX
  5
668
  8
0
 62
   123
 10
0.0
 20
0.0
 30
0.0
 70
   128
 71
   164
 72
   161
 73
   163
  0
VERTEX
  5
669
  8
0
 62
   123
 10
0.0
 20
0.0
 30
0.0
 70
   128
 71
   164
 72
   162
 73
   161
  0
VERTEX
  5
66A
  8
0
 62
   123
 10
0.0
 20
0.0
 30
0.0
 70
   128
 71
   165
 72
   162
 73
   164
  0
VERTEX
  5
66B
  8
0
 62
   123
 10
0.0
 20
0.0
 30
0.0
 70
   128
 71
   163
 72
   109
 73
   107
  0
VERTEX
  5
66C
  8
0
 62
   123
 10
0.0
 20
0.0
 30
0.0
 70
   128
 71
   167
 72
   164
 73
   166
  0
VERTEX
  5
66D
  8
0
 62
   123
 10
0.0
 20
0.0
 30
0.0
 70
   128
 71
   163
 72
   166
 73
   164
  0
VERTEX
  5
66E
  8
0
 62
   123
 10
0.0
 20
0.0
 30
0.0
 70
   128
 71
   105
 72
   167
 73
   108
  0
VERTEX
  5
66F
  8
0
 62
   123
 10
0.0
 20
0.0
 30
0.0
 70
   128
 71
   165
 72
   164
 73
   167
  0
VERTEX
  5
670
  8
0
 62
   123
 10
0.0
 20
0.0
 30
0.0
 70
   128
 71
   166
 72
   108
 73
   167
  0
VERTEX
  5
671
  8
0
 62
   123
 10
0.0
 20
0.0
 30
0.0
 70
   128
 71
   166
 72
   107
 73
   108
  0
VERTEX
  5
672
  8
0
 62
   123
 10
0.0
 20
0.0
 30
0.0
 70
   128
 71
   107
 72
   166
 73
   163
  0
VERTEX
  5
673
  8
0
 62
   123
 10
0.0
 20
0.0
 30
0.0
 70
   128
 71
   168
 72
   167
 73
   102
  0
VERTEX
  5
674
  8
0
 62
   123
 10
0.0
 20
0.0
 30
0.0
 70
   128
 71
   102
 72
   167
 73
   105
  0
VERTEX
  5
675
  8
0
 62
   123
 10
0.0
 20
0.0
 30
0.0
 70
   128
 71
   167
 72
   168
 73
   165
  0
VERTEX
  5
676
  8
0
 62
   123
 10
0.0
 20
0.0
 30
0.0
 70
   128
 71
   169
 72
   165
 73
   168
  0
VERTEX
  5
677
  8
0
 62
   123
 10
0.0
 20
0.0
 30
0.0
 70
   128
 71
   103
 72
   104
 73
   170
  0
VERTEX
  5
678
  8
0
 62
   123
 10
0.0
 20
0.0
 30
0.0
 70
   128
 71
   100
 72
   171
 73
   168
  0
VERTEX
  5
679
  8
0
 62
   123
 10
0.0
 20
0.0
 30
0.0
 70
   128
 71
   170
 72
   171
 73
   103
  0
VERTEX
  5
67A
  8
0
 62
   123
 10
0.0
 20
0.0
 30
0.0
 70
   128
 71
   169
 72
   168
 73
   172
  0
VERTEX
  5
67B
  8
0
 62
   123
 10
0.0
 20
0.0
 30
0.0
 70
   128
 71
   168
 72
   171
 73
   172
  0
VERTEX
  5
67C
  8
0
 62
   123
 10
0.0
 20
0.0
 30
0.0
 70
   128
 71
   168
 72
   102
 73
   100
  0
VERTEX
  5
67D
  8
0
 62
   123
 10
0.0
 20
0.0
 30
0.0
 70
   128
 71
   172
 72
   171
 73
   170
  0
VERTEX
  5
67E
  8
0
 62
   123
 10
0.0
 20
0.0
 30
0.0
 70
   128
 71
   171
 72
   100
 73
   103
  0
VERTEX
  5
67F
  8
0
 62
   123
 10
0.0
 20
0.0
 30
0.0
 70
   128
 71
   172
 72
   170
 73
   173
  0
VERTEX
  5
680
  8
0
 62
   123
 10
0.0
 20
0.0
 30
0.0
 70
   128
 71
   173
 72
   170
 73
    17
  0
VERTEX
  5
681
  8
0
 62
   123
 10
0.0
 20
0.0
 30
0.0
 70
   128
 71
   170
 72
   104
 73
    17
  0
VERTEX
  5
682
  8
0
 62
   123
 10
0.0
 20
0.0
 30
0.0
 70
   128
 71
   174
 72
   172
 73
   173
  0
VERTEX
  5
683
  8
0
 62
   123
 10
0.0
 20
0.0
 30
0.0
 70
   128
 71
   174
 72
   169
 73
   172
  0
VERTEX
  5
684
  8
0
 62
   123
 10
0.0
 20
0.0
 30
0.0
 70
   128
 71
   175
 72
   169
 73
   174
  0
VERTEX
  5
685
  8
0
 62
   123
 10
0.0
 20
0.0
 30
0.0
 70
   128
 71
   173
 72
    17
 73
    18
  0
VERTEX
  5
686
  8
0
 62
   123
 10
0.0
 20
0.0
 30
0.0
 70
   128
 71
   177
 72
   174
 73
   176
  0
VERTEX
  5
687
  8
0
 62
   123
 10
0.0
 20
0.0
 30
0.0
 70
   128
 71
    18
 72
   176
 73
   173
  0
VERTEX
  5
688
  8
0
 62
   123
 10
0.0
 20
0.0
 30
0.0
 70
   128
 71
    22
 72
   177
 73
    20
  0
VERTEX
  5
689
  8
0
 62
   123
 10
0.0
 20
0.0
 30
0.0
 70
   128
 71
   176
 72
   174
 73
   173
  0
VERTEX
  5
68A
  8
0
 62
   123
 10
0.0
 20
0.0
 30
0.0
 70
   128
 71
   177
 72
   175
 73
   174
  0
VERTEX
  5
68B
  8
0
 62
   123
 10
0.0
 20
0.0
 30
0.0
 70
   128
 71
   176
 72
    20
 73
   177
  0
VERTEX
  5
68C
  8
0
 62
   123
 10
0.0
 20
0.0
 30
0.0
 70
   128
 71
    20
 72
   176
 73
    18
  0
VERTEX
  5
68D
  8
0
 62
   123
 10
0.0
 20
0.0
 30
0.0
 70
   128
 71
   157
 72
   152
 73
   153
  0
VERTEX
  5
68E
  8
0
 62
   123
 10
0.0
 20
0.0
 30
0.0
 70
   128
 71
   152
 72
   157
 73
    22
  0
VERTEX
  5
68F
  8
0
 62
   123
 10
0.0
 20
0.0
 30
0.0
 70
   128
 71
   153
 72
    91
 73
   157
  0
VERTEX
  5
690
  8
0
 62
   123
 10
0.0
 20
0.0
 30
0.0
 70
   128
 71
   177
 72
   160
 73
   175
  0
VERTEX
  5
691
  8
0
 62
   123
 10
0.0
 20
0.0
 30
0.0
 70
   128
 71
   175
 72
   160
 73
   162
  0
VERTEX
  5
692
  8
0
 62
   123
 10
0.0
 20
0.0
 30
0.0
 70
   128
 71
   160
 72
   177
 73
   157
  0
VERTEX
  5
693
  8
0
 62
   123
 10
0.0
 20
0.0
 30
0.0
 70
   128
 71
    22
 72
   157
 73
   177
  0
VERTEX
  5
694
  8
0
 62
   123
 10
0.0
 20
0.0
 30
0.0
 70
   128
 71
   131
 72
   138
 73
   121
  0
VERTEX
  5
695
  8
0
 62
   123
 10
0.0
 20
0.0
 30
0.0
 70
   128
 71
   124
 72
   131
 73
   121
  0
VERTEX
  5
696
  8
0
 62
   123
 10
0.0
 20
0.0
 30
0.0
 70
   128
 71
   165
 72
   169
 73
   162
  0
VERTEX
  5
697
  8
0
 62
   123
 10
0.0
 20
0.0
 30
0.0
 70
   128
 71
   175
 72
   162
 73
   169
  0
VERTEX
  5
698
  8
0
 62
   123
 10
0.0
 20
0.0
 30
0.0
 70
   128
 71
   118
 72
   178
 73
   115
  0
VERTEX
  5
699
  8
0
 62
   123
 10
0.0
 20
0.0
 30
0.0
 70
   128
 71
   115
 72
   178
 73
   179
  0
VERTEX
  5
69A
  8
0
 62
   123
 10
0.0
 20
0.0
 30
0.0
 70
   128
 71
   178
 72
   118
 73
   138
  0
VERTEX
  5
69B
  8
0
 62
   123
 10
0.0
 20
0.0
 30
0.0
 70
   128
 71
   121
 72
   138
 73
   118
  0
VERTEX
  5
69C
  8
0
 62
   123
 10
0.0
 20
0.0
 30
0.0
 70
   128
 71
   135
 72
   136
 73
   180
  0
VERTEX
  5
69D
  8
0
 62
   123
 10
0.0
 20
0.0
 30
0.0
 70
   128
 71
   178
 72
   137
 73
   181
  0
VERTEX
  5
69E
  8
0
 62
   123
 10
0.0
 20
0.0
 30
0.0
 70
   128
 71
   135
 72
   181
 73
   137
  0
VERTEX
  5
69F
  8
0
 62
   123
 10
0.0
 20
0.0
 30
0.0
 70
   128
 71
   179
 72
   178
 73
   182
  0
VERTEX
  5
6A0
  8
0
 62
   123
 10
0.0
 20
0.0
 30
0.0
 70
   128
 71
   138
 72
   137
 73
   178
  0
VERTEX
  5
6A1
  8
0
 62
   123
 10
0.0
 20
0.0
 30
0.0
 70
   128
 71
   181
 72
   182
 73
   178
  0
VERTEX
  5
6A2
  8
0
 62
   123
 10
0.0
 20
0.0
 30
0.0
 70
   128
 71
   181
 72
   180
 73
   182
  0
VERTEX
  5
6A3
  8
0
 62
   123
 10
0.0
 20
0.0
 30
0.0
 70
   128
 71
   180
 72
   181
 73
   135
  0
VERTEX
  5
6A4
  8
0
 62
   123
 10
0.0
 20
0.0
 30
0.0
 70
   128
 71
   182
 72
   180
 73
   139
  0
VERTEX
  5
6A5
  8
0
 62
   123
 10
0.0
 20
0.0
 30
0.0
 70
   128
 71
   180
 72
   136
 73
   139
  0
VERTEX
  5
6A6
  8
0
 62
   123
 10
0.0
 20
0.0
 30
0.0
 70
   128
 71
   139
 72
   179
 73
   182
  0
VERTEX
  5
6A7
  8
0
 62
   123
 10
0.0
 20
0.0
 30
0.0
 70
   128
 71
   115
 72
   179
 73
   139
  0
VERTEX
  5
6A8
  8
0
 62
   123
 10
0.0
 20
0.0
 30
0.0
 70
   128
 71
   139
 72
   112
 73
   115
  0
SEQEND
  5
6A9
  8
0
 62
   123
  0
ENDBLK
  5
6AC
  8
0
  0
BLOCK
  8
0
  2
M50150-023
 70
     0
 10
0.0
 20
0.0
 30
0.0
  3
M50150-023
  1

  0
POLYLINE
  5
6AE
  8
0
 62
   123
 66
     1
 10
0.0
 20
0.0
 30
0.0
 70
    64
 71
    10
 72
     6
  0
VERTEX
  5
6AF
  8
0
 10
9.399999618530273
 20
-17.39999961853027
 30
12.60000038146973
 70
   192
  0
VERTEX
  5
6B0
  8
0
 10
3.799999952316284
 20
-15.19999980926514
 30
13.5
 70
   192
  0
VERTEX
  5
6B1
  8
0
 10
-9.899999618530273
 20
-16.89999961853027
 30
13.5
 70
   192
  0
VERTEX
  5
6B2
  8
0
 10
-9.899999618530273
 20
-6.300000190734863
 30
13.5
 70
   192
  0
VERTEX
  5
6B3
  8
0
 10
-7.300000190734863
 20
-15.19999980926514
 30
13.5
 70
   192
  0
VERTEX
  5
6B4
  8
0
 10
-3.200000047683716
 20
-15.19999980926514
 30
13.5
 70
   192
  0
VERTEX
  5
6B5
  8
0
 10
-3.799999952316284
 20
17.39999961853027
 30
13.5
 70
   192
  0
VERTEX
  5
6B6
  8
0
 10
-9.399999618530273
 20
17.39999961853027
 30
13.5
 70
   192
  0
VERTEX
  5
6B7
  8
0
 10
-9.899999618530273
 20
12.69999980926514
 30
13.5
 70
   192
  0
VERTEX
  5
6B8
  8
0
 10
9.899999618530273
 20
-12.69999980926514
 30
13.5
 70
   192
  0
VERTEX
  5
6B9
  8
0
 62
   123
 10
0.0
 20
0.0
 30
0.0
 70
   128
 71
     3
 72
     2
 73
     1
  0
VERTEX
  5
6BA
  8
0
 62
   123
 10
0.0
 20
0.0
 30
0.0
 70
   128
 71
     5
 72
     3
 73
     4
  0
VERTEX
  5
6BB
  8
0
 62
   123
 10
0.0
 20
0.0
 30
0.0
 70
   128
 71
     5
 72
     6
 73
     3
  0
VERTEX
  5
6BC
  8
0
 62
   123
 10
0.0
 20
0.0
 30
0.0
 70
   128
 71
     9
 72
     8
 73
     7
  0
VERTEX
  5
6BD
  8
0
 62
   123
 10
0.0
 20
0.0
 30
0.0
 70
   128
 71
     2
 72
    10
 73
     1
  0
VERTEX
  5
6BE
  8
0
 62
   123
 10
0.0
 20
0.0
 30
0.0
 70
   128
 71
     3
 72
     6
 73
     2
  0
SEQEND
  5
6BF
  8
0
 62
   123
  0
ENDBLK
  5
6C2
  8
0
  0
BLOCK
  8
0
  2
M50150-022
 70
     0
 10
0.0
 20
0.0
 30
0.0
  3
M50150-022
  1

  0
POLYLINE
  5
6C4
  8
0
 62
   123
 66
     1
 10
0.0
 20
0.0
 30
0.0
 70
    64
 71
    16
 72
    20
  0
VERTEX
  5
6C5
  8
0
 10
17.66523361206055
 20
27.30122184753418
 30
12.16525268554688
 70
   192
  0
VERTEX
  5
6C6
  8
0
 10
16.99878883361816
 20
-27.29877853393555
 30
13.49877071380615
 70
   192
  0
VERTEX
  5
6C7
  8
0
 10
17.99877166748047
 20
-27.29877853393555
 30
-12.49878978729248
 70
   192
  0
VERTEX
  5
6C8
  8
0
 10
16.66525268554688
 20
27.30122184753418
 30
-13.16523456573486
 70
   192
  0
VERTEX
  5
6C9
  8
0
 10
-16.99878883361816
 20
-27.29877853393555
 30
-13.49877071380615
 70
   192
  0
VERTEX
  5
6CA
  8
0
 10
9.899999618530273
 20
-17.39999961853027
 30
-13.4383020401001
 70
   192
  0
VERTEX
  5
6CB
  8
0
 10
-9.899999618530273
 20
17.39999961853027
 30
-13.22571849822998
 70
   192
  0
VERTEX
  5
6CC
  8
0
 10
-9.899999618530273
 20
-17.39999961853027
 30
-13.4383020401001
 70
   192
  0
VERTEX
  5
6CD
  8
0
 10
9.899999618530273
 20
17.39999961853027
 30
-13.22571849822998
 70
   192
  0
VERTEX
  5
6CE
  8
0
 10
-17.66523361206055
 20
27.30122184753418
 30
-12.16525268554688
 70
   192
  0
VERTEX
  5
6CF
  8
0
 10
-17.99877166748047
 20
-27.29877853393555
 30
12.49878978729248
 70
   192
  0
VERTEX
  5
6D0
  8
0
 10
-16.66525268554688
 20
27.30122184753418
 30
13.16523456573486
 70
   192
  0
VERTEX
  5
6D1
  8
0
 10
9.899999618530273
 20
17.39999961853027
 30
13.22571849822998
 70
   192
  0
VERTEX
  5
6D2
  8
0
 10
-9.899999618530273
 20
17.39999961853027
 30
13.22571849822998
 70
   192
  0
VERTEX
  5
6D3
  8
0
 10
-9.899999618530273
 20
-17.39999961853027
 30
13.4383020401001
 70
   192
  0
VERTEX
  5
6D4
  8
0
 10
9.899999618530273
 20
-17.39999961853027
 30
13.4383020401001
 70
   192
  0
VERTEX
  5
6D5
  8
0
 62
   123
 10
0.0
 20
0.0
 30
0.0
 70
   128
 71
     3
 72
     2
 73
     1
  0
VERTEX
  5
6D6
  8
0
 62
   123
 10
0.0
 20
0.0
 30
0.0
 70
   128
 71
     4
 72
     3
 73
     1
  0
VERTEX
  5
6D7
  8
0
 62
   123
 10
0.0
 20
0.0
 30
0.0
 70
   128
 71
     3
 72
     6
 73
     5
  0
VERTEX
  5
6D8
  8
0
 62
   123
 10
0.0
 20
0.0
 30
0.0
 70
   128
 71
     5
 72
     8
 73
     7
  0
VERTEX
  5
6D9
  8
0
 62
   123
 10
0.0
 20
0.0
 30
0.0
 70
   128
 71
     9
 72
     3
 73
     4
  0
VERTEX
  5
6DA
  8
0
 62
   123
 10
0.0
 20
0.0
 30
0.0
 70
   128
 71
     6
 72
     8
 73
     5
  0
VERTEX
  5
6DB
  8
0
 62
   123
 10
0.0
 20
0.0
 30
0.0
 70
   128
 71
    10
 72
     7
 73
     4
  0
VERTEX
  5
6DC
  8
0
 62
   123
 10
0.0
 20
0.0
 30
0.0
 70
   128
 71
     7
 72
    10
 73
     5
  0
VERTEX
  5
6DD
  8
0
 62
   123
 10
0.0
 20
0.0
 30
0.0
 70
   128
 71
     7
 72
     9
 73
     4
  0
VERTEX
  5
6DE
  8
0
 62
   123
 10
0.0
 20
0.0
 30
0.0
 70
   128
 71
     9
 72
     6
 73
     3
  0
VERTEX
  5
6DF
  8
0
 62
   123
 10
0.0
 20
0.0
 30
0.0
 70
   128
 71
     5
 72
    10
 73
    11
  0
VERTEX
  5
6E0
  8
0
 62
   123
 10
0.0
 20
0.0
 30
0.0
 70
   128
 71
    12
 72
    11
 73
    10
  0
VERTEX
  5
6E1
  8
0
 62
   123
 10
0.0
 20
0.0
 30
0.0
 70
   128
 71
    13
 72
    12
 73
     1
  0
VERTEX
  5
6E2
  8
0
 62
   123
 10
0.0
 20
0.0
 30
0.0
 70
   128
 71
    14
 72
    12
 73
    13
  0
VERTEX
  5
6E3
  8
0
 62
   123
 10
0.0
 20
0.0
 30
0.0
 70
   128
 71
    14
 72
    15
 73
    11
  0
VERTEX
  5
6E4
  8
0
 62
   123
 10
0.0
 20
0.0
 30
0.0
 70
   128
 71
    15
 72
     2
 73
    11
  0
VERTEX
  5
6E5
  8
0
 62
   123
 10
0.0
 20
0.0
 30
0.0
 70
   128
 71
    12
 72
    14
 73
    11
  0
VERTEX
  5
6E6
  8
0
 62
   123
 10
0.0
 20
0.0
 30
0.0
 70
   128
 71
    13
 72
     1
 73
     2
  0
VERTEX
  5
6E7
  8
0
 62
   123
 10
0.0
 20
0.0
 30
0.0
 70
   128
 71
    16
 72
     2
 73
    15
  0
VERTEX
  5
6E8
  8
0
 62
   123
 10
0.0
 20
0.0
 30
0.0
 70
   128
 71
    16
 72
    13
 73
     2
  0
SEQEND
  5
6E9
  8
0
 62
   123
  0
ENDBLK
  5
6EC
  8
0
  0
ENDSEC
  0
SECTION
  2
ENTITIES
  0
INSERT
  5
7E
  8
LAYER_1
  2
M50150-002
 10
0.0
 20
0.0
 30
0.0
  0
INSERT
  5
C5
  8
LAYER_1
  2
M50150-002_1_
 10
0.0
 20
0.0
 30
0.0
  0
INSERT
  5
10F
  8
LAYER_1
  2
M50150-009
 10
0.0
 20
0.0
 30
0.0
  0
INSERT
  5
159
  8
LAYER_1
  2
M50150-009_1_
 10
0.0
 20
0.0
 30
0.0
  0
INSERT
  5
167
  8
LAYER_1
  2
M51240-002
 10
0.0
 20
0.0
 30
0.0
  0
INSERT
  5
2B3
  8
LAYER_1
  2
30100015
 10
0.0
 20
0.0
 30
0.0
  0
INSERT
  5
2BF
  8
LAYER_1
  2
M50150-019
 10
0.0
 20
0.0
 30
0.0
  0
INSERT
  5
396
  8
LAYER_1
  2
M50150-020
 10
0.0
 20
0.0
 30
0.0
  0
INSERT
  5
488
  8
LAYER_1
  2
M50150-026
 10
0.0
 20
0.0
 30
0.0
  0
INSERT
  5
6AA
  8
LAYER_1
  2
M50150-025
 10
0.0
 20
0.0
 30
0.0
  0
INSERT
  5
6C0
  8
LAYER_1
  2
M50150-023
 10
0.0
 20
0.0
 30
0.0
  0
INSERT
  5
6EA
  8
LAYER_1
  2
M50150-022
 10
0.0
 20
0.0
 30
0.0
  0
ENDSEC
  0
EOF
