  0
SECTION
  2
HEADER
  9
$ACADVER
  1
AC1015
  9
$ACADMAINTVER
 70
     6
  9
$DWGCODEPAGE
  3
ANSI_1252
  9
$INSBASE
 10
0.0
 20
0.0
 30
0.0
  9
$EXTMIN
 10
0.0
 20
0.0
 30
0.0
  9
$EXTMAX
 10
3000.0
 20
4500.0
 30
0.0
  9
$LIMMIN
 10
0.0
 20
0.0
  9
$LIMMAX
 10
3000.0
 20
4500.0
  9
$ORTHOMODE
 70
     0
  9
$REGENMODE
 70
     1
  9
$FILLMODE
 70
     1
  9
$QTEXTMODE
 70
     0
  9
$MIRRTEXT
 70
     1
  9
$LTSCALE
 40
1.0
  9
$ATTMODE
 70
     1
  9
$TEXTSIZE
 40
2.5
  9
$TRACEWID
 40
1.0
  9
$TEXTSTYLE
  7
Standard
  9
$CLAYER
  8
0
  9
$CELTYPE
  6
ByLayer
  9
$CECOLOR
 62
   256
  9
$CELTSCALE
 40
1.0
  9
$DISPSILH
 70
     0
  9
$DIMSCALE
 40
1.0
  9
$DIMASZ
 40
2.5
  9
$DIMEXO
 40
0.625
  9
$DIMDLI
 40
3.75
  9
$DIMRND
 40
0.0
  9
$DIMDLE
 40
0.0
  9
$DIMEXE
 40
1.25
  9
$DIMTP
 40
0.0
  9
$DIMTM
 40
0.0
  9
$DIMTXT
 40
2.5
  9
$DIMCEN
 40
2.5
  9
$DIMTSZ
 40
0.0
  9
$DIMTOL
 70
     0
  9
$DIMLIM
 70
     0
  9
$DIMTIH
 70
     0
  9
$DIMTOH
 70
     0
  9
$DIMSE1
 70
     0
  9
$DIMSE2
 70
     0
  9
$DIMTAD
 70
     1
  9
$DIMZIN
 70
     8
  9
$DIMBLK
  1

  9
$DIMASO
 70
     1
  9
$DIMSHO
 70
     1
  9
$DIMPOST
  1

  9
$DIMAPOST
  1

  9
$DIMALT
 70
     0
  9
$DIMALTD
 70
     3
  9
$DIMALTF
 40
0.0393700787
  9
$DIMLFAC
 40
1.0
  9
$DIMTOFL
 70
     1
  9
$DIMTVP
 40
0.0
  9
$DIMTIX
 70
     0
  9
$DIMSOXD
 70
     0
  9
$DIMSAH
 70
     0
  9
$DIMBLK1
  1

  9
$DIMBLK2
  1

  9
$DIMSTYLE
  2
ISO-25
  9
$DIMCLRD
 70
     0
  9
$DIMCLRE
 70
     0
  9
$DIMCLRT
 70
     0
  9
$DIMTFAC
 40
1.0
  9
$DIMGAP
 40
0.625
  9
$DIMJUST
 70
     0
  9
$DIMSD1
 70
     0
  9
$DIMSD2
 70
     0
  9
$DIMTOLJ
 70
     0
  9
$DIMTZIN
 70
     8
  9
$DIMALTZ
 70
     0
  9
$DIMALTTZ
 70
     0
  9
$DIMUPT
 70
     0
  9
$DIMDEC
 70
     2
  9
$DIMTDEC
 70
     2
  9
$DIMALTU
 70
     2
  9
$DIMALTTD
 70
     3
  9
$DIMTXSTY
  7
Standard
  9
$DIMAUNIT
 70
     0
  9
$DIMADEC
 70
     0
  9
$DIMALTRND
 40
0.0
  9
$DIMAZIN
 70
     0
  9
$DIMDSEP
 70
    44
  9
$DIMATFIT
 70
     3
  9
$DIMFRAC
 70
     0
  9
$DIMLDRBLK
  1

  9
$DIMLUNIT
 70
     2
  9
$DIMLWD
 70
    -2
  9
$DIMLWE
 70
    -2
  9
$DIMTMOVE
 70
     0
  9
$LUNITS
 70
     2
  9
$LUPREC
 70
     4
  9
$SKETCHINC
 40
1.0
  9
$FILLETRAD
 40
10.0
  9
$AUNITS
 70
     0
  9
$AUPREC
 70
     0
  9
$MENU
  1
.
  9
$ELEVATION
 40
0.0
  9
$PELEVATION
 40
0.0
  9
$THICKNESS
 40
0.0
  9
$LIMCHECK
 70
     0
  9
$CHAMFERA
 40
10.0
  9
$CHAMFERB
 40
10.0
  9
$CHAMFERC
 40
20.0
  9
$CHAMFERD
 40
0.0
  9
$SKPOLY
 70
     0
  9
$TDCREATE
 40
2455993.355961921
  9
$TDUCREATE
 40
2455993.314295255
  9
$TDUPDATE
 40
2455993.355961933
  9
$TDUUPDATE
 40
2455993.314295266
  9
$TDINDWG
 40
0.0000000116
  9
$TDUSRTIMER
 40
0.0000000116
  9
$USRTIMER
 70
     1
  9
$ANGBASE
 50
0.0
  9
$ANGDIR
 70
     0
  9
$PDMODE
 70
     0
  9
$PDSIZE
 40
0.0
  9
$PLINEWID
 40
0.0
  9
$SPLFRAME
 70
     0
  9
$SPLINETYPE
 70
     6
  9
$SPLINESEGS
 70
     8
  9
$HANDSEED
  5
3E7
  9
$SURFTAB1
 70
     6
  9
$SURFTAB2
 70
     6
  9
$SURFTYPE
 70
     6
  9
$SURFU
 70
     6
  9
$SURFV
 70
     6
  9
$UCSBASE
  2

  9
$UCSNAME
  2

  9
$UCSORG
 10
0.0
 20
0.0
 30
0.0
  9
$UCSXDIR
 10
1.0
 20
0.0
 30
0.0
  9
$UCSYDIR
 10
0.0
 20
1.0
 30
0.0
  9
$UCSORTHOREF
  2

  9
$UCSORTHOVIEW
 70
     0
  9
$UCSORGTOP
 10
0.0
 20
0.0
 30
0.0
  9
$UCSORGBOTTOM
 10
0.0
 20
0.0
 30
0.0
  9
$UCSORGLEFT
 10
0.0
 20
0.0
 30
0.0
  9
$UCSORGRIGHT
 10
0.0
 20
0.0
 30
0.0
  9
$UCSORGFRONT
 10
0.0
 20
0.0
 30
0.0
  9
$UCSORGBACK
 10
0.0
 20
0.0
 30
0.0
  9
$PUCSBASE
  2

  9
$PUCSNAME
  2

  9
$PUCSORG
 10
0.0
 20
0.0
 30
0.0
  9
$PUCSXDIR
 10
1.0
 20
0.0
 30
0.0
  9
$PUCSYDIR
 10
0.0
 20
1.0
 30
0.0
  9
$PUCSORTHOREF
  2

  9
$PUCSORTHOVIEW
 70
     0
  9
$PUCSORGTOP
 10
0.0
 20
0.0
 30
0.0
  9
$PUCSORGBOTTOM
 10
0.0
 20
0.0
 30
0.0
  9
$PUCSORGLEFT
 10
0.0
 20
0.0
 30
0.0
  9
$PUCSORGRIGHT
 10
0.0
 20
0.0
 30
0.0
  9
$PUCSORGFRONT
 10
0.0
 20
0.0
 30
0.0
  9
$PUCSORGBACK
 10
0.0
 20
0.0
 30
0.0
  9
$USERI1
 70
     0
  9
$USERI2
 70
     0
  9
$USERI3
 70
     0
  9
$USERI4
 70
     0
  9
$USERI5
 70
     0
  9
$USERR1
 40
0.0
  9
$USERR2
 40
0.0
  9
$USERR3
 40
0.0
  9
$USERR4
 40
0.0
  9
$USERR5
 40
0.0
  9
$WORLDVIEW
 70
     1
  9
$SHADEDGE
 70
     3
  9
$SHADEDIF
 70
    70
  9
$TILEMODE
 70
     1
  9
$MAXACTVP
 70
    64
  9
$PINSBASE
 10
0.0
 20
0.0
 30
0.0
  9
$PLIMCHECK
 70
     0
  9
$PEXTMIN
 10
0.0
 20
0.0
 30
0.0
  9
$PEXTMAX
 10
3000.0
 20
4500.0
 30
0.0
  9
$PLIMMIN
 10
0.0
 20
0.0
  9
$PLIMMAX
 10
3000.0
 20
4500.0
  9
$UNITMODE
 70
     0
  9
$VISRETAIN
 70
     1
  9
$PLINEGEN
 70
     0
  9
$PSLTSCALE
 70
     1
  9
$TREEDEPTH
 70
  3020
  9
$CMLSTYLE
  2
Standard
  9
$CMLJUST
 70
     0
  9
$CMLSCALE
 40
20.0
  9
$PROXYGRAPHICS
 70
     1
  9
$MEASUREMENT
 70
     1
  9
$CELWEIGHT
370
    -1
  9
$ENDCAPS
280
     0
  9
$JOINSTYLE
280
     0
  9
$LWDISPLAY
290
     0
  9
$INSUNITS
 70
     4
  9
$HYPERLINKBASE
  1

  9
$STYLESHEET
  1

  9
$XEDIT
290
     1
  9
$CEPSNTYPE
380
     0
  9
$PSTYLEMODE
290
     1
  9
$FINGERPRINTGUID
  2
{678AE796-ECCE-4E6F-A221-711F9024DF77}
  9
$VERSIONGUID
  2
{FAEB1C32-E019-11D5-929B-00C0DF256EC4}
  9
$EXTNAMES
290
     1
  9
$PSVPSCALE
 40
0.0
  9
$OLESTARTUP
290
     0
  0
ENDSEC
  0
SECTION
  2
CLASSES
  0
CLASS
  1
ACDBDICTIONARYWDFLT
  2
AcDbDictionaryWithDefault
  3
ObjectDBX Classes
 90
        0
280
     0
281
     0
  0
CLASS
  1
VISUALSTYLE
  2
AcDbVisualStyle
  3
ObjectDBX Classes
 90
     4095
280
     0
281
     0
  0
CLASS
  1
SCALE
  2
AcDbScale
  3
ObjectDBX Classes
 90
     1153
280
     0
281
     0
  0
CLASS
  1
DICTIONARYVAR
  2
AcDbDictionaryVar
  3
ObjectDBX Classes
 90
        0
280
     0
281
     0
  0
CLASS
  1
ACDBPLACEHOLDER
  2
AcDbPlaceHolder
  3
ObjectDBX Classes
 90
        0
280
     0
281
     0
  0
CLASS
  1
LAYOUT
  2
AcDbLayout
  3
ObjectDBX Classes
 90
        0
280
     0
281
     0
  0
ENDSEC
  0
SECTION
  2
TABLES
  0
TABLE
  2
VPORT
  5
8
330
0
100
AcDbSymbolTable
 70
     1
  0
VPORT
  5
29
330
8
100
AcDbSymbolTableRecord
100
AcDbViewportTableRecord
  2
*Active
 70
     0
 10
0.0
 20
0.0
 11
1.0
 21
1.0
 12
344.1869158879
 22
148.5
 13
0.0
 23
0.0
 14
10.0
 24
10.0
 15
10.0
 25
10.0
 16
0.0
 26
0.0
 36
1.0
 17
0.0
 27
0.0
 37
0.0
 40
297.0
 41
1.9729729729
 42
50.0
 43
0.0
 44
0.0
 50
0.0
 51
0.0
 71
     0
 72
   100
 73
     1
 74
     3
 75
     0
 76
     0
 77
     0
 78
     0
281
     0
 65
     1
110
0.0
120
0.0
130
0.0
111
1.0
121
0.0
131
0.0
112
0.0
122
1.0
132
0.0
 79
     0
146
0.0
  0
ENDTAB
  0
TABLE
  2
LTYPE
  5
5
330
0
100
AcDbSymbolTable
 70
     2
  0
LTYPE
  5
14
330
5
100
AcDbSymbolTableRecord
100
AcDbLinetypeTableRecord
  2
ByBlock
 70
     0
  3

 72
    65
 73
     0
 40
0.0
  0
LTYPE
  5
15
330
5
100
AcDbSymbolTableRecord
100
AcDbLinetypeTableRecord
  2
ByLayer
 70
     0
  3

 72
    65
 73
     0
 40
0.0
  0
LTYPE
  5
16
330
5
100
AcDbSymbolTableRecord
100
AcDbLinetypeTableRecord
  2
Continuous
 70
     0
  3
Solid line
 72
    65
 73
     0
 40
0.0
  0
LTYPE
  5
60
330
5
100
AcDbSymbolTableRecord
100
AcDbLinetypeTableRecord
  2
CENTER2
 70
     0
  3
Center (.5x) ___ _ ___ _ ___ _ ___ _ ___ _ ___
 72
    65
 73
     4
 40
28.575
 49
19.05
 74
     4
 75
     0
340
0
 46
0.0
 50
0.0
 44
0.0
 45
0.0
 49
-3.175
 74
     4
 75
     0
340
0
 46
0.0
 50
0.0
 44
0.0
 45
0.0
 49
3.175
 74
     4
 75
     0
340
0
 46
0.0
 50
0.0
 44
0.0
 45
0.0
 49
-3.175
 74
     4
 75
     0
340
0
 46
0.0
 50
0.0
 44
0.0
 45
0.0
  0
ENDTAB
  0
TABLE
  2
LAYER
  5
2
330
0
100
AcDbSymbolTable
 70
     5
  0
LAYER
  5
10
330
2
100
AcDbSymbolTableRecord
100
AcDbLayerTableRecord
  2
0
 70
     0
 62
     7
  6
Continuous
370
    -3
390
F
  0
LAYER
  5
5D
330
2
100
AcDbSymbolTableRecord
100
AcDbLayerTableRecord
  2
Default
 70
     0
 62
     7
  6
Continuous
370
    -3
390
F
  0
LAYER
  5
83
330
2
100
AcDbSymbolTableRecord
100
AcDbLayerTableRecord
  2
DV1_Default
 70
     0
 62
     7
  6
Continuous
370
    -3
390
F
  0
LAYER
  5
233
330
2
100
AcDbSymbolTableRecord
100
AcDbLayerTableRecord
  2
DV2_Default
 70
     0
 62
     7
  6
Continuous
370
    -3
390
F
  0
LAYER
  5
30B
330
2
100
AcDbSymbolTableRecord
100
AcDbLayerTableRecord
  2
DV3_Default
 70
     0
 62
     7
  6
Continuous
370
    -3
390
F
  0
ENDTAB
  0
TABLE
  2
STYLE
  5
3
330
0
100
AcDbSymbolTable
 70
     2
  0
STYLE
  5
11
330
3
100
AcDbSymbolTableRecord
100
AcDbTextStyleTableRecord
  2
Standard
 70
     0
 40
0.0
 41
1.0
 50
0.0
 71
     0
 42
2.5
  3
txt
  4

  0
STYLE
  5
3D6
330
3
100
AcDbSymbolTableRecord
100
AcDbTextStyleTableRecord
  2
SEACAD_seiso_ttf
 70
     0
 40
0.0
 41
1.0
 50
0.0
 71
     0
 42
0.2
  3
seiso.ttf
  4

  0
ENDTAB
  0
TABLE
  2
VIEW
  5
6
330
0
100
AcDbSymbolTable
 70
     0
  0
ENDTAB
  0
TABLE
  2
UCS
  5
7
330
0
100
AcDbSymbolTable
 70
     0
  0
ENDTAB
  0
TABLE
  2
APPID
  5
9
330
0
100
AcDbSymbolTable
 70
     1
  0
APPID
  5
12
330
9
100
AcDbSymbolTableRecord
100
AcDbRegAppTableRecord
  2
ACAD
 70
     0
  0
ENDTAB
  0
TABLE
  2
DIMSTYLE
  5
A
330
0
100
AcDbSymbolTable
 70
     1
100
AcDbDimStyleTable
  0
DIMSTYLE
105
27
330
A
100
AcDbSymbolTableRecord
100
AcDbDimStyleTableRecord
  2
ISO-25
 70
     0
 41
2.5
 42
0.625
 43
3.75
 44
1.25
 73
     0
 74
     0
 77
     1
 78
     8
140
2.5
141
2.5
143
0.0393700787
147
0.625
171
     3
172
     1
271
     2
272
     2
274
     3
278
    44
283
     0
284
     8
340
11
  0
ENDTAB
  0
TABLE
  2
BLOCK_RECORD
  5
1
330
0
100
AcDbSymbolTable
 70
     9
  0
BLOCK_RECORD
  5
1F
330
1
100
AcDbSymbolTableRecord
100
AcDbBlockTableRecord
  2
*Model_Space
340
22
  0
BLOCK_RECORD
  5
1B
330
1
100
AcDbSymbolTableRecord
100
AcDbBlockTableRecord
  2
*Paper_Space
340
1E
  0
BLOCK_RECORD
  5
5E
330
1
100
AcDbSymbolTableRecord
100
AcDbBlockTableRecord
  2
SEANNOT_GROUP
340
0
102
{BLKREFS
331
5F
102
}
  0
BLOCK_RECORD
  5
65
330
1
100
AcDbSymbolTableRecord
100
AcDbBlockTableRecord
  2
SEANNOT_GROUP1
340
0
102
{BLKREFS
331
66
102
}
  0
BLOCK_RECORD
  5
6B
330
1
100
AcDbSymbolTableRecord
100
AcDbBlockTableRecord
  2
SEANNOT_GROUP2
340
0
102
{BLKREFS
331
6C
102
}
  0
BLOCK_RECORD
  5
71
330
1
100
AcDbSymbolTableRecord
100
AcDbBlockTableRecord
  2
SEANNOT_GROUP3
340
0
102
{BLKREFS
331
72
102
}
  0
BLOCK_RECORD
  5
77
330
1
100
AcDbSymbolTableRecord
100
AcDbBlockTableRecord
  2
SEANNOT_GROUP4
340
0
102
{BLKREFS
331
78
102
}
  0
BLOCK_RECORD
  5
81
330
1
100
AcDbSymbolTableRecord
100
AcDbBlockTableRecord
  2
SE
340
0
102
{BLKREFS
331
82
102
}
  0
BLOCK_RECORD
  5
231
330
1
100
AcDbSymbolTableRecord
100
AcDbBlockTableRecord
  2
SE1
340
0
102
{BLKREFS
331
232
102
}
  0
BLOCK_RECORD
  5
309
330
1
100
AcDbSymbolTableRecord
100
AcDbBlockTableRecord
  2
SE2
340
0
102
{BLKREFS
331
30A
102
}
  0
ENDTAB
  0
ENDSEC
  0
SECTION
  2
BLOCKS
  0
BLOCK
  5
20
330
1F
100
AcDbEntity
  8
0
100
AcDbBlockBegin
  2
*Model_Space
 70
     0
 10
0.0
 20
0.0
 30
0.0
  3
*Model_Space
  1

  0
ENDBLK
  5
21
330
1F
100
AcDbEntity
  8
0
100
AcDbBlockEnd
  0
BLOCK
  5
1C
330
1B
100
AcDbEntity
 67
     1
  8
0
100
AcDbBlockBegin
  2
*Paper_Space
 70
     0
 10
0.0
 20
0.0
 30
0.0
  3
*Paper_Space
  1

  0
ENDBLK
  5
1D
330
1B
100
AcDbEntity
 67
     1
  8
0
100
AcDbBlockEnd
  0
BLOCK
  5
63
330
5E
100
AcDbEntity
  8
0
100
AcDbBlockBegin
  2
SEANNOT_GROUP
 70
     0
 10
0.0
 20
0.0
 30
0.0
  3
SEANNOT_GROUP
  1

  0
LINE
  5
61
330
5E
100
AcDbEntity
  8
Default
  6
CENTER2
 62
     7
100
AcDbLine
 10
92.2207613562
 20
344.937622286
 30
0.0
 11
52.2207622503
 21
344.937622286
 31
0.0
  0
LINE
  5
62
330
5E
100
AcDbEntity
  8
Default
  6
CENTER2
 62
     7
100
AcDbLine
 10
72.2207618032
 20
364.9376218389
 30
0.0
 11
72.2207618032
 21
324.937622733
 31
0.0
  0
ENDBLK
  5
64
330
5E
100
AcDbEntity
  8
0
100
AcDbBlockEnd
  0
BLOCK
  5
69
330
65
100
AcDbEntity
  8
0
100
AcDbBlockBegin
  2
SEANNOT_GROUP1
 70
     0
 10
0.0
 20
0.0
 30
0.0
  3
SEANNOT_GROUP1
  1

  0
LINE
  5
67
330
65
100
AcDbEntity
  8
Default
  6
CENTER2
 62
     7
100
AcDbLine
 10
92.2207613562
 20
249.937622286
 30
0.0
 11
52.2207622503
 21
249.937622286
 31
0.0
  0
LINE
  5
68
330
65
100
AcDbEntity
  8
Default
  6
CENTER2
 62
     7
100
AcDbLine
 10
72.2207618032
 20
269.9376218389
 30
0.0
 11
72.2207618032
 21
229.937622733
 31
0.0
  0
ENDBLK
  5
6A
330
65
100
AcDbEntity
  8
0
100
AcDbBlockEnd
  0
BLOCK
  5
6F
330
6B
100
AcDbEntity
  8
0
100
AcDbBlockBegin
  2
SEANNOT_GROUP2
 70
     0
 10
0.0
 20
0.0
 30
0.0
  3
SEANNOT_GROUP2
  1

  0
LINE
  5
6D
330
6B
100
AcDbEntity
  8
Default
  6
CENTER2
 62
     7
100
AcDbLine
 10
192.7380000411
 20
249.937622286
 30
0.0
 11
152.7380009351
 21
249.937622286
 31
0.0
  0
LINE
  5
6E
330
6B
100
AcDbEntity
  8
Default
  6
CENTER2
 62
     7
100
AcDbLine
 10
172.7380004881
 20
269.9376218389
 30
0.0
 11
172.7380004881
 21
229.937622733
 31
0.0
  0
ENDBLK
  5
70
330
6B
100
AcDbEntity
  8
0
100
AcDbBlockEnd
  0
BLOCK
  5
75
330
71
100
AcDbEntity
  8
0
100
AcDbBlockBegin
  2
SEANNOT_GROUP3
 70
     0
 10
0.0
 20
0.0
 30
0.0
  3
SEANNOT_GROUP3
  1

  0
LINE
  5
73
330
71
100
AcDbEntity
  8
Default
  6
CENTER2
 62
     7
100
AcDbLine
 10
192.7380000411
 20
344.937622286
 30
0.0
 11
152.7380009351
 21
344.937622286
 31
0.0
  0
LINE
  5
74
330
71
100
AcDbEntity
  8
Default
  6
CENTER2
 62
     7
100
AcDbLine
 10
172.7380004881
 20
364.9376218389
 30
0.0
 11
172.7380004881
 21
324.937622733
 31
0.0
  0
ENDBLK
  5
76
330
71
100
AcDbEntity
  8
0
100
AcDbBlockEnd
  0
BLOCK
  5
7F
330
77
100
AcDbEntity
  8
0
100
AcDbBlockBegin
  2
SEANNOT_GROUP4
 70
     0
 10
0.0
 20
0.0
 30
0.0
  3
SEANNOT_GROUP4
  1

  0
LINE
  5
79
330
77
100
AcDbEntity
  8
Default
  6
CENTER2
 62
     7
100
AcDbLine
 10
92.2207613562
 20
176.0661069853
 30
0.0
 11
52.2207622503
 21
176.0661069853
 31
0.0
  0
LINE
  5
7A
330
77
100
AcDbEntity
  8
Default
  6
CENTER2
 62
     7
100
AcDbLine
 10
72.2207618032
 20
196.0661065382
 30
0.0
 11
72.2207618032
 21
156.0661074323
 31
0.0
  0
LINE
  5
7B
330
77
100
AcDbEntity
  8
Default
  6
CENTER2
 62
     7
100
AcDbLine
 10
97.2207612444
 20
176.0661069853
 30
0.0
 11
91.7207618032
 21
176.0661069853
 31
0.0
  0
LINE
  5
7C
330
77
100
AcDbEntity
  8
Default
  6
CENTER2
 62
     7
100
AcDbLine
 10
72.2207618032
 20
201.0661064265
 30
0.0
 11
72.2207618032
 21
195.5661069853
 31
0.0
  0
LINE
  5
7D
330
77
100
AcDbEntity
  8
Default
  6
CENTER2
 62
     7
100
AcDbLine
 10
47.220762362
 20
176.0661069853
 30
0.0
 11
52.7207618032
 21
176.0661069853
 31
0.0
  0
LINE
  5
7E
330
77
100
AcDbEntity
  8
Default
  6
CENTER2
 62
     7
100
AcDbLine
 10
72.2207618032
 20
151.0661075441
 30
0.0
 11
72.2207618032
 21
156.5661069853
 31
0.0
  0
ENDBLK
  5
80
330
77
100
AcDbEntity
  8
0
100
AcDbBlockEnd
  0
BLOCK
  5
22F
330
81
100
AcDbEntity
  8
0
100
AcDbBlockBegin
  2
SE
 70
     0
 10
0.0
 20
0.0
 30
0.0
  3
SE
  1

  0
CIRCLE
  5
84
330
81
100
AcDbEntity
  8
DV1_Default
  6
Continuous
 62
     7
100
AcDbCircle
 10
98.7372660977
 20
270.9211179915
 30
0.0
 40
3.557270813812923
  0
CIRCLE
  5
85
330
81
100
AcDbEntity
  8
DV1_Default
  6
Continuous
 62
     7
100
AcDbCircle
 10
98.7372660977
 20
270.9211179915
 30
0.0
 40
4.375
  0
LINE
  5
86
330
81
100
AcDbEntity
  8
DV1_Default
  6
Continuous
 62
     7
100
AcDbLine
 10
97.3624933892
 20
270.3211179915
 30
0.0
 11
97.7561952542
 21
270.3211179915
 31
0.0
  0
ARC
  5
87
330
81
100
AcDbEntity
  8
DV1_Default
  6
Continuous
 62
     7
100
AcDbCircle
 10
98.7372660977
 20
270.9211179915
 30
0.0
 40
1.499999999999992
100
AcDbArc
 50
156.4218215218
 51
203.5781784782
  0
LINE
  5
88
330
81
100
AcDbEntity
  8
DV1_Default
  6
Continuous
 62
     7
100
AcDbLine
 10
97.7561952542
 20
271.5211179915
 30
0.0
 11
97.3624933892
 21
271.5211179915
 31
0.0
  0
ARC
  5
89
330
81
100
AcDbEntity
  8
DV1_Default
  6
Continuous
 62
     7
100
AcDbCircle
 10
98.7372660977
 20
270.9211179915
 30
0.0
 40
1.149999999999998
100
AcDbArc
 50
121.4489813894
 51
148.5510186106
  0
LINE
  5
8A
330
81
100
AcDbEntity
  8
DV1_Default
  6
Continuous
 62
     7
100
AcDbLine
 10
98.1372660977
 20
272.2958907
 30
0.0
 11
98.1372660977
 21
271.902188835
 31
0.0
  0
ARC
  5
8B
330
81
100
AcDbEntity
  8
DV1_Default
  6
Continuous
 62
     7
100
AcDbCircle
 10
98.7372660977
 20
270.9211179915
 30
0.0
 40
1.499999999999998
100
AcDbArc
 50
66.4218215218
 51
113.5781784782
  0
LINE
  5
8C
330
81
100
AcDbEntity
  8
DV1_Default
  6
Continuous
 62
     7
100
AcDbLine
 10
99.3372660977
 20
271.902188835
 30
0.0
 11
99.3372660977
 21
272.2958907
 31
0.0
  0
ARC
  5
8D
330
81
100
AcDbEntity
  8
DV1_Default
  6
Continuous
 62
     7
100
AcDbCircle
 10
98.7372660977
 20
270.9211179915
 30
0.0
 40
1.149999999999995
100
AcDbArc
 50
31.4489813894
 51
58.5510186106
  0
LINE
  5
8E
330
81
100
AcDbEntity
  8
DV1_Default
  6
Continuous
 62
     7
100
AcDbLine
 10
100.1120388062
 20
271.5211179915
 30
0.0
 11
99.7183369413
 21
271.5211179915
 31
0.0
  0
ARC
  5
8F
330
81
100
AcDbEntity
  8
DV1_Default
  6
Continuous
 62
     7
100
AcDbCircle
 10
98.7372660977
 20
270.9211179915
 30
0.0
 40
1.499999999999993
100
AcDbArc
 50
336.4218215218
 51
23.5781784782
  0
LINE
  5
90
330
81
100
AcDbEntity
  8
DV1_Default
  6
Continuous
 62
     7
100
AcDbLine
 10
99.7183369413
 20
270.3211179915
 30
0.0
 11
100.1120388062
 21
270.3211179915
 31
0.0
  0
ARC
  5
91
330
81
100
AcDbEntity
  8
DV1_Default
  6
Continuous
 62
     7
100
AcDbCircle
 10
98.7372660977
 20
270.9211179915
 30
0.0
 40
1.149999999999999
100
AcDbArc
 50
301.4489813894
 51
328.5510186106
  0
LINE
  5
92
330
81
100
AcDbEntity
  8
DV1_Default
  6
Continuous
 62
     7
100
AcDbLine
 10
99.3372660977
 20
269.546345283
 30
0.0
 11
99.3372660977
 21
269.940047148
 31
0.0
  0
ARC
  5
93
330
81
100
AcDbEntity
  8
DV1_Default
  6
Continuous
 62
     7
100
AcDbCircle
 10
98.7372660977
 20
270.9211179915
 30
0.0
 40
1.5
100
AcDbArc
 50
246.4218215218
 51
293.5781784782
  0
LINE
  5
94
330
81
100
AcDbEntity
  8
DV1_Default
  6
Continuous
 62
     7
100
AcDbLine
 10
98.1372660977
 20
269.940047148
 30
0.0
 11
98.1372660977
 21
269.546345283
 31
0.0
  0
ARC
  5
95
330
81
100
AcDbEntity
  8
DV1_Default
  6
Continuous
 62
     7
100
AcDbCircle
 10
98.7372660977
 20
270.9211179915
 30
0.0
 40
1.149999999999992
100
AcDbArc
 50
211.4489813894
 51
238.5510186106
  0
CIRCLE
  5
96
330
81
100
AcDbEntity
  8
DV1_Default
  6
Continuous
 62
     7
100
AcDbCircle
 10
45.7042575087
 20
270.9211179915
 30
0.0
 40
3.557270813812923
  0
CIRCLE
  5
97
330
81
100
AcDbEntity
  8
DV1_Default
  6
Continuous
 62
     7
100
AcDbCircle
 10
45.7042575087
 20
270.9211179915
 30
0.0
 40
4.375
  0
LINE
  5
98
330
81
100
AcDbEntity
  8
DV1_Default
  6
Continuous
 62
     7
100
AcDbLine
 10
44.3294848003
 20
270.3211179915
 30
0.0
 11
44.7231866652
 21
270.3211179915
 31
0.0
  0
ARC
  5
99
330
81
100
AcDbEntity
  8
DV1_Default
  6
Continuous
 62
     7
100
AcDbCircle
 10
45.7042575087
 20
270.9211179915
 30
0.0
 40
1.499999999999992
100
AcDbArc
 50
156.4218215218
 51
203.5781784782
  0
LINE
  5
9A
330
81
100
AcDbEntity
  8
DV1_Default
  6
Continuous
 62
     7
100
AcDbLine
 10
44.7231866652
 20
271.5211179915
 30
0.0
 11
44.3294848003
 21
271.5211179915
 31
0.0
  0
ARC
  5
9B
330
81
100
AcDbEntity
  8
DV1_Default
  6
Continuous
 62
     7
100
AcDbCircle
 10
45.7042575087
 20
270.9211179915
 30
0.0
 40
1.149999999999998
100
AcDbArc
 50
121.4489813894
 51
148.5510186106
  0
LINE
  5
9C
330
81
100
AcDbEntity
  8
DV1_Default
  6
Continuous
 62
     7
100
AcDbLine
 10
45.1042575087
 20
272.2958907
 30
0.0
 11
45.1042575087
 21
271.902188835
 31
0.0
  0
ARC
  5
9D
330
81
100
AcDbEntity
  8
DV1_Default
  6
Continuous
 62
     7
100
AcDbCircle
 10
45.7042575087
 20
270.9211179915
 30
0.0
 40
1.499999999999998
100
AcDbArc
 50
66.4218215218
 51
113.5781784782
  0
LINE
  5
9E
330
81
100
AcDbEntity
  8
DV1_Default
  6
Continuous
 62
     7
100
AcDbLine
 10
46.3042575087
 20
271.902188835
 30
0.0
 11
46.3042575087
 21
272.2958907
 31
0.0
  0
ARC
  5
9F
330
81
100
AcDbEntity
  8
DV1_Default
  6
Continuous
 62
     7
100
AcDbCircle
 10
45.7042575087
 20
270.9211179915
 30
0.0
 40
1.149999999999995
100
AcDbArc
 50
31.4489813894
 51
58.5510186106
  0
LINE
  5
A0
330
81
100
AcDbEntity
  8
DV1_Default
  6
Continuous
 62
     7
100
AcDbLine
 10
47.0790302172
 20
271.5211179915
 30
0.0
 11
46.6853283523
 21
271.5211179915
 31
0.0
  0
ARC
  5
A1
330
81
100
AcDbEntity
  8
DV1_Default
  6
Continuous
 62
     7
100
AcDbCircle
 10
45.7042575087
 20
270.9211179915
 30
0.0
 40
1.499999999999993
100
AcDbArc
 50
336.4218215218
 51
23.5781784782
  0
LINE
  5
A2
330
81
100
AcDbEntity
  8
DV1_Default
  6
Continuous
 62
     7
100
AcDbLine
 10
46.6853283523
 20
270.3211179915
 30
0.0
 11
47.0790302172
 21
270.3211179915
 31
0.0
  0
ARC
  5
A3
330
81
100
AcDbEntity
  8
DV1_Default
  6
Continuous
 62
     7
100
AcDbCircle
 10
45.7042575087
 20
270.9211179915
 30
0.0
 40
1.149999999999999
100
AcDbArc
 50
301.4489813894
 51
328.5510186106
  0
LINE
  5
A4
330
81
100
AcDbEntity
  8
DV1_Default
  6
Continuous
 62
     7
100
AcDbLine
 10
46.3042575087
 20
269.546345283
 30
0.0
 11
46.3042575087
 21
269.940047148
 31
0.0
  0
ARC
  5
A5
330
81
100
AcDbEntity
  8
DV1_Default
  6
Continuous
 62
     7
100
AcDbCircle
 10
45.7042575087
 20
270.9211179915
 30
0.0
 40
1.5
100
AcDbArc
 50
246.4218215218
 51
293.5781784782
  0
LINE
  5
A6
330
81
100
AcDbEntity
  8
DV1_Default
  6
Continuous
 62
     7
100
AcDbLine
 10
45.1042575087
 20
269.940047148
 30
0.0
 11
45.1042575087
 21
269.546345283
 31
0.0
  0
ARC
  5
A7
330
81
100
AcDbEntity
  8
DV1_Default
  6
Continuous
 62
     7
100
AcDbCircle
 10
45.7042575087
 20
270.9211179915
 30
0.0
 40
1.149999999999992
100
AcDbArc
 50
211.4489813894
 51
238.5510186106
  0
CIRCLE
  5
A8
330
81
100
AcDbEntity
  8
DV1_Default
  6
Continuous
 62
     7
100
AcDbCircle
 10
98.7372660977
 20
323.9541265805
 30
0.0
 40
3.557270813812923
  0
CIRCLE
  5
A9
330
81
100
AcDbEntity
  8
DV1_Default
  6
Continuous
 62
     7
100
AcDbCircle
 10
98.7372660977
 20
323.9541265805
 30
0.0
 40
4.375
  0
LINE
  5
AA
330
81
100
AcDbEntity
  8
DV1_Default
  6
Continuous
 62
     7
100
AcDbLine
 10
97.3624933892
 20
323.3541265805
 30
0.0
 11
97.7561952542
 21
323.3541265805
 31
0.0
  0
ARC
  5
AB
330
81
100
AcDbEntity
  8
DV1_Default
  6
Continuous
 62
     7
100
AcDbCircle
 10
98.7372660977
 20
323.9541265805
 30
0.0
 40
1.499999999999992
100
AcDbArc
 50
156.4218215218
 51
203.5781784782
  0
LINE
  5
AC
330
81
100
AcDbEntity
  8
DV1_Default
  6
Continuous
 62
     7
100
AcDbLine
 10
97.7561952542
 20
324.5541265805
 30
0.0
 11
97.3624933892
 21
324.5541265805
 31
0.0
  0
ARC
  5
AD
330
81
100
AcDbEntity
  8
DV1_Default
  6
Continuous
 62
     7
100
AcDbCircle
 10
98.7372660977
 20
323.9541265805
 30
0.0
 40
1.149999999999998
100
AcDbArc
 50
121.4489813894
 51
148.5510186106
  0
LINE
  5
AE
330
81
100
AcDbEntity
  8
DV1_Default
  6
Continuous
 62
     7
100
AcDbLine
 10
98.1372660977
 20
325.328899289
 30
0.0
 11
98.1372660977
 21
324.935197424
 31
0.0
  0
ARC
  5
AF
330
81
100
AcDbEntity
  8
DV1_Default
  6
Continuous
 62
     7
100
AcDbCircle
 10
98.7372660977
 20
323.9541265805
 30
0.0
 40
1.499999999999998
100
AcDbArc
 50
66.4218215218
 51
113.5781784782
  0
LINE
  5
B0
330
81
100
AcDbEntity
  8
DV1_Default
  6
Continuous
 62
     7
100
AcDbLine
 10
99.3372660977
 20
324.935197424
 30
0.0
 11
99.3372660977
 21
325.328899289
 31
0.0
  0
ARC
  5
B1
330
81
100
AcDbEntity
  8
DV1_Default
  6
Continuous
 62
     7
100
AcDbCircle
 10
98.7372660977
 20
323.9541265805
 30
0.0
 40
1.149999999999995
100
AcDbArc
 50
31.4489813894
 51
58.5510186106
  0
LINE
  5
B2
330
81
100
AcDbEntity
  8
DV1_Default
  6
Continuous
 62
     7
100
AcDbLine
 10
100.1120388062
 20
324.5541265805
 30
0.0
 11
99.7183369413
 21
324.5541265805
 31
0.0
  0
ARC
  5
B3
330
81
100
AcDbEntity
  8
DV1_Default
  6
Continuous
 62
     7
100
AcDbCircle
 10
98.7372660977
 20
323.9541265805
 30
0.0
 40
1.499999999999993
100
AcDbArc
 50
336.4218215218
 51
23.5781784782
  0
LINE
  5
B4
330
81
100
AcDbEntity
  8
DV1_Default
  6
Continuous
 62
     7
100
AcDbLine
 10
99.7183369413
 20
323.3541265805
 30
0.0
 11
100.1120388062
 21
323.3541265805
 31
0.0
  0
ARC
  5
B5
330
81
100
AcDbEntity
  8
DV1_Default
  6
Continuous
 62
     7
100
AcDbCircle
 10
98.7372660977
 20
323.9541265805
 30
0.0
 40
1.149999999999999
100
AcDbArc
 50
301.4489813894
 51
328.5510186106
  0
LINE
  5
B6
330
81
100
AcDbEntity
  8
DV1_Default
  6
Continuous
 62
     7
100
AcDbLine
 10
99.3372660977
 20
322.579353872
 30
0.0
 11
99.3372660977
 21
322.973055737
 31
0.0
  0
ARC
  5
B7
330
81
100
AcDbEntity
  8
DV1_Default
  6
Continuous
 62
     7
100
AcDbCircle
 10
98.7372660977
 20
323.9541265805
 30
0.0
 40
1.5
100
AcDbArc
 50
246.4218215218
 51
293.5781784782
  0
LINE
  5
B8
330
81
100
AcDbEntity
  8
DV1_Default
  6
Continuous
 62
     7
100
AcDbLine
 10
98.1372660977
 20
322.973055737
 30
0.0
 11
98.1372660977
 21
322.579353872
 31
0.0
  0
ARC
  5
B9
330
81
100
AcDbEntity
  8
DV1_Default
  6
Continuous
 62
     7
100
AcDbCircle
 10
98.7372660977
 20
323.9541265805
 30
0.0
 40
1.149999999999992
100
AcDbArc
 50
211.4489813894
 51
238.5510186106
  0
LINE
  5
BA
330
81
100
AcDbEntity
  8
DV1_Default
  6
Continuous
 62
     7
100
AcDbLine
 10
85.2207618032
 20
249.937622286
 30
0.0
 11
59.2207618032
 21
249.937622286
 31
0.0
  0
LINE
  5
BB
330
81
100
AcDbEntity
  8
DV1_Default
  6
Continuous
 62
     7
100
AcDbLine
 10
72.2207618032
 20
290.5094190557
 30
0.0
 11
72.2207618032
 21
304.3658255163
 31
0.0
  0
LINE
  5
BC
330
81
100
AcDbEntity
  8
DV1_Default
  6
Continuous
 62
     7
100
AcDbLine
 10
85.7207618032
 20
250.6147466304
 30
0.0
 11
83.5533374982
 21
250.6147466304
 31
0.0
  0
LINE
  5
BD
330
81
100
AcDbEntity
  8
DV1_Default
  6
Continuous
 62
     7
100
AcDbLine
 10
85.7207618032
 20
344.937622286
 30
0.0
 11
83.5533374982
 21
344.937622286
 31
0.0
  0
ARC
  5
BE
330
81
100
AcDbEntity
  8
DV1_Default
  6
Continuous
 62
     7
100
AcDbCircle
 10
72.2207618032
 20
297.437622286
 30
0.0
 40
18.0
100
AcDbArc
 50
14.7738495882
 51
75.2261504066
  0
ARC
  5
BF
330
81
100
AcDbEntity
  8
DV1_Default
  6
Continuous
 62
     7
100
AcDbCircle
 10
72.2207618032
 20
297.437622286
 30
0.0
 40
18.0
100
AcDbArc
 50
104.7738495882
 51
165.2261504066
  0
ARC
  5
C0
330
81
100
AcDbEntity
  8
DV1_Default
  6
Continuous
 62
     7
100
AcDbCircle
 10
72.2207618032
 20
297.437622286
 30
0.0
 40
18.0
100
AcDbArc
 50
194.7738495882
 51
255.2261504066
  0
ARC
  5
C1
330
81
100
AcDbEntity
  8
DV1_Default
  6
Continuous
 62
     7
100
AcDbCircle
 10
72.2207618032
 20
297.437622286
 30
0.0
 40
18.0
100
AcDbArc
 50
284.7738495882
 51
345.2261504066
  0
LINE
  5
C2
330
81
100
AcDbEntity
  8
DV1_Default
  6
Continuous
 62
     7
100
AcDbLine
 10
85.7207618032
 20
259.937622286
 30
0.0
 11
86.7207618032
 21
259.937622286
 31
0.0
  0
LINE
  5
C3
330
81
100
AcDbEntity
  8
DV1_Default
  6
Continuous
 62
     7
100
AcDbLine
 10
85.7207618032
 20
250.6147466304
 30
0.0
 11
85.7207618032
 21
259.937622286
 31
0.0
  0
LINE
  5
C4
330
81
100
AcDbEntity
  8
DV1_Default
  6
Continuous
 62
     7
100
AcDbLine
 10
85.7207618032
 20
250.6147466304
 30
0.0
 11
85.7207618032
 21
250.0011292337
 31
0.0
  0
LINE
  5
C5
330
81
100
AcDbEntity
  8
DV1_Default
  6
Continuous
 62
     7
100
AcDbLine
 10
57.7207618032
 20
259.937622286
 30
0.0
 11
58.7207618032
 21
259.937622286
 31
0.0
  0
LINE
  5
C6
330
81
100
AcDbEntity
  8
DV1_Default
  6
Continuous
 62
     7
100
AcDbLine
 10
58.7207618032
 20
250.6147466304
 30
0.0
 11
58.7207618032
 21
259.937622286
 31
0.0
  0
LINE
  5
C7
330
81
100
AcDbEntity
  8
DV1_Default
  6
Continuous
 62
     7
100
AcDbLine
 10
58.7207618032
 20
250.6147466304
 30
0.0
 11
58.7207618032
 21
250.0011292337
 31
0.0
  0
LINE
  5
C8
330
81
100
AcDbEntity
  8
DV1_Default
  6
Continuous
 62
     7
100
AcDbLine
 10
60.8881861083
 20
250.6147466304
 30
0.0
 11
58.7207618032
 21
250.6147466304
 31
0.0
  0
LINE
  5
C9
330
81
100
AcDbEntity
  8
DV1_Default
  6
Continuous
 62
     7
100
AcDbLine
 10
70.0533374982
 20
259.937622286
 30
0.0
 11
60.8881861083
 21
259.937622286
 31
0.0
  0
LINE
  5
CA
330
81
100
AcDbEntity
  8
DV1_Default
  6
Continuous
 62
     7
100
AcDbLine
 10
70.0533374982
 20
259.937622286
 30
0.0
 11
70.0533374982
 21
250.6147466304
 31
0.0
  0
LINE
  5
CB
330
81
100
AcDbEntity
  8
DV1_Default
  6
Continuous
 62
     7
100
AcDbLine
 10
60.8881861083
 20
250.6147466304
 30
0.0
 11
60.8881861083
 21
259.937622286
 31
0.0
  0
ARC
  5
CC
330
81
100
AcDbEntity
  8
DV1_Default
  6
Continuous
 62
     7
100
AcDbCircle
 10
65.4707618032
 20
266.2235791967
 30
0.0
 40
16.2676259510395
100
AcDbArc
 50
253.6383611025
 51
286.3616388975
  0
LINE
  5
CD
330
81
100
AcDbEntity
  8
DV1_Default
  6
Continuous
 62
     7
100
AcDbLine
 10
74.3881861083
 20
250.6147466304
 30
0.0
 11
70.0533374982
 21
250.6147466304
 31
0.0
  0
LINE
  5
CE
330
81
100
AcDbEntity
  8
DV1_Default
  6
Continuous
 62
     7
100
AcDbLine
 10
74.3881861083
 20
259.937622286
 30
0.0
 11
83.5533374982
 21
259.937622286
 31
0.0
  0
LINE
  5
CF
330
81
100
AcDbEntity
  8
DV1_Default
  6
Continuous
 62
     7
100
AcDbLine
 10
74.3881861083
 20
259.937622286
 30
0.0
 11
74.3881861083
 21
250.6147466304
 31
0.0
  0
LINE
  5
D0
330
81
100
AcDbEntity
  8
DV1_Default
  6
Continuous
 62
     7
100
AcDbLine
 10
83.5533374982
 20
250.6147466304
 30
0.0
 11
83.5533374982
 21
259.937622286
 31
0.0
  0
ARC
  5
D1
330
81
100
AcDbEntity
  8
DV1_Default
  6
Continuous
 62
     7
100
AcDbCircle
 10
78.9707618032
 20
266.2235791967
 30
0.0
 40
16.26762595103952
100
AcDbArc
 50
253.6383611025
 51
286.3616388975
  0
LINE
  5
D2
330
81
100
AcDbEntity
  8
DV1_Default
  6
Continuous
 62
     7
100
AcDbLine
 10
85.7207618032
 20
334.937622286
 30
0.0
 11
86.7207618032
 21
334.937622286
 31
0.0
  0
LINE
  5
D3
330
81
100
AcDbEntity
  8
DV1_Default
  6
Continuous
 62
     7
100
AcDbLine
 10
85.7207618032
 20
344.937622286
 30
0.0
 11
85.7207618032
 21
334.937622286
 31
0.0
  0
LINE
  5
D4
330
81
100
AcDbEntity
  8
DV1_Default
  6
Continuous
 62
     7
100
AcDbLine
 10
58.7207618032
 20
334.937622286
 30
0.0
 11
57.7207618032
 21
334.937622286
 31
0.0
  0
LINE
  5
D5
330
81
100
AcDbEntity
  8
DV1_Default
  6
Continuous
 62
     7
100
AcDbLine
 10
58.7207618032
 20
344.937622286
 30
0.0
 11
58.7207618032
 21
334.937622286
 31
0.0
  0
LINE
  5
D6
330
81
100
AcDbEntity
  8
DV1_Default
  6
Continuous
 62
     7
100
AcDbLine
 10
60.8881861083
 20
344.937622286
 30
0.0
 11
58.7207618032
 21
344.937622286
 31
0.0
  0
LINE
  5
D7
330
81
100
AcDbEntity
  8
DV1_Default
  6
Continuous
 62
     7
100
AcDbLine
 10
70.0533374982
 20
334.937622286
 30
0.0
 11
60.8881861083
 21
334.937622286
 31
0.0
  0
LINE
  5
D8
330
81
100
AcDbEntity
  8
DV1_Default
  6
Continuous
 62
     7
100
AcDbLine
 10
70.0533374982
 20
334.937622286
 30
0.0
 11
70.0533374982
 21
344.937622286
 31
0.0
  0
LINE
  5
D9
330
81
100
AcDbEntity
  8
DV1_Default
  6
Continuous
 62
     7
100
AcDbLine
 10
60.8881861083
 20
344.937622286
 30
0.0
 11
60.8881861083
 21
334.937622286
 31
0.0
  0
LINE
  5
DA
330
81
100
AcDbEntity
  8
DV1_Default
  6
Continuous
 62
     7
100
AcDbLine
 10
60.8881861083
 20
344.937622286
 30
0.0
 11
70.0533374982
 21
344.937622286
 31
0.0
  0
LINE
  5
DB
330
81
100
AcDbEntity
  8
DV1_Default
  6
Continuous
 62
     7
100
AcDbLine
 10
74.3881861083
 20
344.937622286
 30
0.0
 11
70.0533374982
 21
344.937622286
 31
0.0
  0
LINE
  5
DC
330
81
100
AcDbEntity
  8
DV1_Default
  6
Continuous
 62
     7
100
AcDbLine
 10
74.3881861083
 20
334.937622286
 30
0.0
 11
83.5533374982
 21
334.937622286
 31
0.0
  0
LINE
  5
DD
330
81
100
AcDbEntity
  8
DV1_Default
  6
Continuous
 62
     7
100
AcDbLine
 10
74.3881861083
 20
334.937622286
 30
0.0
 11
74.3881861083
 21
344.937622286
 31
0.0
  0
LINE
  5
DE
330
81
100
AcDbEntity
  8
DV1_Default
  6
Continuous
 62
     7
100
AcDbLine
 10
83.5533374982
 20
344.937622286
 30
0.0
 11
83.5533374982
 21
334.937622286
 31
0.0
  0
LINE
  5
DF
330
81
100
AcDbEntity
  8
DV1_Default
  6
Continuous
 62
     7
100
AcDbLine
 10
83.5533374982
 20
344.937622286
 30
0.0
 11
74.3881861083
 21
344.937622286
 31
0.0
  0
ARC
  5
E0
330
81
100
AcDbEntity
  8
DV1_Default
  6
Continuous
 62
     7
100
AcDbCircle
 10
59.2207618032
 20
251.937622286
 30
0.0
 40
2.0
100
AcDbArc
 50
255.509462551
 51
270.0
  0
ARC
  5
E1
330
81
100
AcDbEntity
  8
DV1_Default
  6
Continuous
 62
     7
100
AcDbCircle
 10
85.2207618032
 20
251.937622286
 30
0.0
 40
2.000000000000002
100
AcDbArc
 50
270.0
 51
284.4955397592
  0
LINE
  5
E2
330
81
100
AcDbEntity
  8
DV1_Default
  6
Continuous
 62
     7
100
AcDbLine
 10
86.7207618032
 20
259.937622286
 30
0.0
 11
86.7207618032
 21
263.187622286
 31
0.0
  0
LINE
  5
E3
330
81
100
AcDbEntity
  8
DV1_Default
  6
Continuous
 62
     7
100
AcDbLine
 10
57.7207618032
 20
263.187622286
 30
0.0
 11
57.7207618032
 21
259.937622286
 31
0.0
  0
LINE
  5
E4
330
81
100
AcDbEntity
  8
DV1_Default
  6
Continuous
 62
     7
100
AcDbLine
 10
86.7207618032
 20
331.687622286
 30
0.0
 11
86.7207618032
 21
334.937622286
 31
0.0
  0
LINE
  5
E5
330
81
100
AcDbEntity
  8
DV1_Default
  6
Continuous
 62
     7
100
AcDbLine
 10
57.7207618032
 20
334.937622286
 30
0.0
 11
57.7207618032
 21
331.687622286
 31
0.0
  0
CIRCLE
  5
E6
330
81
100
AcDbEntity
  8
DV1_Default
  6
Continuous
 62
     7
100
AcDbCircle
 10
72.2207618032
 20
297.437622286
 30
0.0
 40
16.75132843307491
  0
ARC
  5
E7
330
81
100
AcDbEntity
  8
DV1_Default
  6
Continuous
 62
     7
100
AcDbCircle
 10
72.2207618032
 20
297.437622286
 30
0.0
 40
17.73354154705422
100
AcDbArc
 50
15.3128252577
 51
74.6868686814
  0
ARC
  5
E8
330
81
100
AcDbEntity
  8
DV1_Default
  6
Continuous
 62
     7
100
AcDbCircle
 10
72.2207618032
 20
297.437622286
 30
0.0
 40
17.73354154705422
100
AcDbArc
 50
105.2818582652
 51
164.6895375987
  0
ARC
  5
E9
330
81
100
AcDbEntity
  8
DV1_Default
  6
Continuous
 62
     7
100
AcDbCircle
 10
72.2207618032
 20
297.437622286
 30
0.0
 40
17.73354154705422
100
AcDbArc
 50
195.321987327
 51
254.6735910345
  0
ARC
  5
EA
330
81
100
AcDbEntity
  8
DV1_Default
  6
Continuous
 62
     7
100
AcDbCircle
 10
72.2207618032
 20
297.437622286
 30
0.0
 40
17.73354154705422
100
AcDbArc
 50
285.2582543535
 51
344.7114781785
  0
ARC
  5
EB
330
81
100
AcDbEntity
  8
DV1_Default
  6
Continuous
 62
     7
100
AcDbCircle
 10
72.2207618032
 20
297.437622286
 30
0.0
 40
17.8715879215465
100
AcDbArc
 50
14.9008795189
 51
74.9896118004
  0
ARC
  5
EC
330
81
100
AcDbEntity
  8
DV1_Default
  6
Continuous
 62
     7
100
AcDbCircle
 10
72.2207618032
 20
297.437622286
 30
0.0
 40
17.8715879215465
100
AcDbArc
 50
104.9082363854
 51
165.0135036703
  0
ARC
  5
ED
330
81
100
AcDbEntity
  8
DV1_Default
  6
Continuous
 62
     7
100
AcDbCircle
 10
72.2207618032
 20
297.437622286
 30
0.0
 40
17.8715879215465
100
AcDbArc
 50
194.8935158084
 51
254.98381101
  0
ARC
  5
EE
330
81
100
AcDbEntity
  8
DV1_Default
  6
Continuous
 62
     7
100
AcDbCircle
 10
72.2207618032
 20
297.437622286
 30
0.0
 40
17.8715879215465
100
AcDbArc
 50
284.9166781169
 51
345.0071282452
  0
CIRCLE
  5
EF
330
81
100
AcDbEntity
  8
DV1_Default
  6
Continuous
 62
     7
100
AcDbCircle
 10
72.2207618032
 20
297.437622286
 30
0.0
 40
15.75
  0
CIRCLE
  5
F0
330
81
100
AcDbEntity
  8
DV1_Default
  6
Continuous
 62
     7
100
AcDbCircle
 10
72.2207618032
 20
297.437622286
 30
0.0
 40
16.5
  0
ARC
  5
F1
330
81
100
AcDbEntity
  8
DV1_Default
  6
Continuous
 62
     7
100
AcDbCircle
 10
72.2207618032
 20
297.437622286
 30
0.0
 40
17.94966758975811
100
AcDbArc
 50
14.8573001748
 51
75.1426998215
  0
ARC
  5
F2
330
81
100
AcDbEntity
  8
DV1_Default
  6
Continuous
 62
     7
100
AcDbCircle
 10
72.2207618032
 20
297.437622286
 30
0.0
 40
17.94966758975811
100
AcDbArc
 50
104.8573001748
 51
165.1426998215
  0
ARC
  5
F3
330
81
100
AcDbEntity
  8
DV1_Default
  6
Continuous
 62
     7
100
AcDbCircle
 10
72.2207618032
 20
297.437622286
 30
0.0
 40
17.94966758975811
100
AcDbArc
 50
194.8573001748
 51
255.1426998215
  0
ARC
  5
F4
330
81
100
AcDbEntity
  8
DV1_Default
  6
Continuous
 62
     7
100
AcDbCircle
 10
72.2207618032
 20
297.437622286
 30
0.0
 40
17.94966758975811
100
AcDbArc
 50
284.8573001748
 51
345.1426998215
  0
CIRCLE
  5
F5
330
81
100
AcDbEntity
  8
DV1_Default
  6
Continuous
 62
     7
100
AcDbCircle
 10
72.2207618032
 20
297.437622286
 30
0.0
 40
17.0513284330749
  0
CIRCLE
  5
F6
330
81
100
AcDbEntity
  8
DV1_Default
  6
Continuous
 62
     7
100
AcDbCircle
 10
72.2207618032
 20
297.437622286
 30
0.0
 40
17.55307375878252
  0
ARC
  5
F7
330
81
100
AcDbEntity
  8
DV1_Default
  6
Continuous
 62
     7
100
AcDbCircle
 10
72.2207618032
 20
297.437622286
 30
0.0
 40
17.94966819899233
100
AcDbArc
 50
14.8572992979
 51
75.1427006984
  0
ARC
  5
F8
330
81
100
AcDbEntity
  8
DV1_Default
  6
Continuous
 62
     7
100
AcDbCircle
 10
72.2207618032
 20
297.437622286
 30
0.0
 40
17.94966819899233
100
AcDbArc
 50
104.8572992979
 51
165.1427006984
  0
ARC
  5
F9
330
81
100
AcDbEntity
  8
DV1_Default
  6
Continuous
 62
     7
100
AcDbCircle
 10
72.2207618032
 20
297.437622286
 30
0.0
 40
17.94966819899233
100
AcDbArc
 50
194.8572992979
 51
255.1427006984
  0
ARC
  5
FA
330
81
100
AcDbEntity
  8
DV1_Default
  6
Continuous
 62
     7
100
AcDbCircle
 10
72.2207618032
 20
297.437622286
 30
0.0
 40
17.94966819899233
100
AcDbArc
 50
284.8572992979
 51
345.1427006984
  0
ARC
  5
FB
330
81
100
AcDbEntity
  8
DV1_Default
  6
Continuous
 62
     7
100
AcDbCircle
 10
72.2207618032
 20
297.437622286
 30
0.0
 40
18.25
100
AcDbArc
 50
76.6147327903
 51
103.3852589769
  0
ARC
  5
FC
330
81
100
AcDbEntity
  8
DV1_Default
  6
Continuous
 62
     7
100
AcDbCircle
 10
72.2207618032
 20
297.437622286
 30
0.0
 40
18.25
100
AcDbArc
 50
346.6144816931
 51
13.3847498257
  0
ARC
  5
FD
330
81
100
AcDbEntity
  8
DV1_Default
  6
Continuous
 62
     7
100
AcDbCircle
 10
72.2207618032
 20
297.437622286
 30
0.0
 40
18.25
100
AcDbArc
 50
256.6133847631
 51
270.0
  0
ARC
  5
FE
330
81
100
AcDbEntity
  8
DV1_Default
  6
Continuous
 62
     7
100
AcDbCircle
 10
72.2207618032
 20
297.437622286
 30
0.0
 40
18.25
100
AcDbArc
 50
270.0
 51
283.386941044
  0
ARC
  5
FF
330
81
100
AcDbEntity
  8
DV1_Default
  6
Continuous
 62
     7
100
AcDbCircle
 10
72.2207618032
 20
297.437622286
 30
0.0
 40
18.25
100
AcDbArc
 50
166.6153091506
 51
193.385611411
  0
ARC
  5
100
330
81
100
AcDbEntity
  8
DV1_Default
  6
Continuous
 62
     7
100
AcDbCircle
 10
76.3300139095
 20
314.7054115802
 30
0.0
 40
0.4999999998652737
100
AcDbArc
 50
1.5982650471
 51
76.7872622723
  0
ARC
  5
101
330
81
100
AcDbEntity
  8
DV1_Default
  6
Continuous
 62
     7
100
AcDbCircle
 10
54.952972509
 20
301.5468743922
 30
0.0
 40
0.499999999865276
100
AcDbArc
 50
91.5982650471
 51
166.7872622723
  0
ARC
  5
102
330
81
100
AcDbEntity
  8
DV1_Default
  6
Continuous
 62
     7
100
AcDbCircle
 10
76.3300139087
 20
280.1698329946
 30
0.0
 40
0.5000000002650712
100
AcDbArc
 50
283.6287249185
 51
357.6387258784
  0
ARC
  5
103
330
81
100
AcDbEntity
  8
DV1_Default
  6
Continuous
 62
     7
100
AcDbCircle
 10
68.111509697
 20
280.1698329918
 30
0.0
 40
0.4999999998652752
100
AcDbArc
 50
181.5982650471
 51
256.7872622723
  0
ARC
  5
104
330
81
100
AcDbEntity
  8
DV1_Default
  6
Continuous
 62
     7
100
AcDbCircle
 10
54.9529725118
 20
293.3283701806
 30
0.0
 40
0.5000000002650671
100
AcDbArc
 50
193.6287249185
 51
267.6387258784
  0
ARC
  5
105
330
81
100
AcDbEntity
  8
DV1_Default
  6
Continuous
 62
     7
100
AcDbCircle
 10
68.1115096978
 20
314.7054115774
 30
0.0
 40
0.5000000002650671
100
AcDbArc
 50
103.6287249185
 51
177.6387258784
  0
ARC
  5
106
330
81
100
AcDbEntity
  8
DV1_Default
  6
Continuous
 62
     7
100
AcDbCircle
 10
89.4885510975
 20
293.3283701797
 30
0.0
 40
0.4999999998652773
100
AcDbArc
 50
271.5982650471
 51
346.7872622723
  0
ARC
  5
107
330
81
100
AcDbEntity
  8
DV1_Default
  6
Continuous
 62
     7
100
AcDbCircle
 10
89.4885510946
 20
301.5468743914
 30
0.0
 40
0.5000000002650685
100
AcDbArc
 50
13.6287249185
 51
87.6387258784
  0
SPLINE
  5
108
330
81
100
AcDbEntity
  8
DV1_Default
  6
Continuous
 62
     7
100
AcDbSpline
210
0.0
220
0.0
230
1.0
 70
     8
 71
     3
 72
    15
 73
    11
 74
     0
 42
0.0000000171886621
 43
0.0000000001
 40
0.0
 40
0.0
 40
0.0
 40
0.0
 40
0.1325006519780045
 40
0.1819151905928464
 40
0.2249061800646125
 40
0.2874756428328727
 40
0.4457067785459941
 40
0.6178903158451109
 40
0.8519377389854462
 40
1.0
 40
1.0
 40
1.0
 40
1.0
 10
55.36773879179615
 20
302.3801114332725
 30
0.0
 10
55.3678847735379
 20
302.3804270629746
 30
0.0
 10
55.36724348525343
 20
302.3783593677719
 30
0.0
 10
55.36089359916436
 20
302.3613641181064
 30
0.0
 10
55.35164104933359
 20
302.3391206081999
 30
0.0
 10
55.32642001499462
 20
302.2876003421399
 30
0.0
 10
55.27359150395534
 20
302.2116367578112
 30
0.0
 10
55.1760991397567
 20
302.1247240470814
 30
0.0
 10
55.05535554989611
 20
302.063590296414
 30
0.0
 10
54.97230546471558
 20
302.0557761396642
 30
0.0
 10
54.93464086953516
 20
302.0528344379149
 30
0.0
  0
SPLINE
  5
109
330
81
100
AcDbEntity
  8
DV1_Default
  6
Continuous
 62
     7
100
AcDbSpline
210
0.0
220
0.0
230
1.0
 70
     8
 71
     3
 72
    18
 73
    14
 74
     0
 42
0.0000000171695143
 43
0.0000000001
 40
0.0
 40
0.0
 40
0.0
 40
0.0
 40
0.0090625602616291
 40
0.1975459655511508
 40
0.3607980338133503
 40
0.5025848980127499
 40
0.6229322254732164
 40
0.719344619518808
 40
0.7779254455793551
 40
0.8164059773767793
 40
0.8541343391083385
 40
0.9097504327703103
 40
1.0
 40
1.0
 40
1.0
 40
1.0
 10
54.9330449802107
 20
292.8259779159141
 30
0.0
 10
54.93536019255767
 20
292.8261635717706
 30
0.0
 10
54.978896256289
 20
292.8296280692583
 30
0.0
 10
55.06509189316809
 20
292.8022458908578
 30
0.0
 10
55.16770321714699
 20
292.7533887286841
 30
0.0
 10
55.24559888711412
 20
292.6901947619951
 30
0.0
 10
55.30006196356194
 20
292.6268803984568
 30
0.0
 10
55.33381704087764
 20
292.5727984231532
 30
0.0
 10
55.3519623530152
 20
292.5352934162987
 30
0.0
 10
55.36003199361145
 20
292.5159636562066
 30
0.0
 10
55.36447965747683
 20
292.5043708179969
 30
0.0
 10
55.36725959684514
 20
292.4965477539852
 30
0.0
 10
55.36770052377751
 20
292.4952153664707
 30
0.0
 10
55.36768523615049
 20
292.4952475470679
 30
0.0
  0
SPLINE
  5
10A
330
81
100
AcDbEntity
  8
DV1_Default
  6
Continuous
 62
     7
100
AcDbSpline
210
0.0
220
0.0
230
1.0
 70
     8
 71
     3
 72
    15
 73
    11
 74
     0
 42
0.0000000171886621
 43
0.0000000001
 40
0.0
 40
0.0
 40
0.0
 40
0.0
 40
0.1325006519799462
 40
0.1819151905944294
 40
0.2249061800661938
 40
0.2874756428354365
 40
0.4457067785465903
 40
0.6178903158455064
 40
0.8519377389946678
 40
1.0
 40
1.0
 40
1.0
 40
1.0
 10
89.07378481468598
 20
292.4951331386819
 30
0.0
 10
89.07363883294423
 20
292.4948175089798
 30
0.0
 10
89.07428012122868
 20
292.4968852041825
 30
0.0
 10
89.080630007318
 20
292.5138804538486
 30
0.0
 10
89.08988255714902
 20
292.5361239637555
 30
0.0
 10
89.11510359148805
 20
292.5876442298154
 30
0.0
 10
89.1679321025273
 20
292.6636078141436
 30
0.0
 10
89.26542446672705
 20
292.7505205248744
 30
0.0
 10
89.3861680565881
 20
292.8116542755415
 30
0.0
 10
89.46921814176866
 20
292.8194684322904
 30
0.0
 10
89.50688273694676
 20
292.822410134039
 30
0.0
  0
SPLINE
  5
10B
330
81
100
AcDbEntity
  8
DV1_Default
  6
Continuous
 62
     7
100
AcDbSpline
210
0.0
220
0.0
230
1.0
 70
     8
 71
     3
 72
    18
 73
    14
 74
     0
 42
0.0000000171695143
 43
0.0000000001
 40
0.0
 40
0.0
 40
0.0
 40
0.0
 40
0.0090625602707349
 40
0.1975459655570298
 40
0.3607980338224574
 40
0.5025848980161577
 40
0.6229322254782127
 40
0.7193446195238373
 40
0.777925445581715
 40
0.8164059773785243
 40
0.8541343391108797
 40
0.9097504327738027
 40
1.0
 40
1.0
 40
1.0
 40
1.0
 10
89.50847862627161
 20
302.0492666560412
 30
0.0
 10
89.50616341392231
 20
302.0490810001846
 30
0.0
 10
89.46262735018959
 20
302.0456165026972
 30
0.0
 10
89.37643171330889
 20
302.0729986810983
 30
0.0
 10
89.2738203893315
 20
302.1218558432728
 30
0.0
 10
89.19592471936512
 20
302.1850498099623
 30
0.0
 10
89.1414616429183
 20
302.2483641735001
 30
0.0
 10
89.10770656560302
 20
302.302446148804
 30
0.0
 10
89.0895612534662
 20
302.3399511556575
 30
0.0
 10
89.08149161287047
 20
302.3592809157484
 30
0.0
 10
89.07704394900506
 20
302.3708737539583
 30
0.0
 10
89.07426400963709
 20
302.378696817969
 30
0.0
 10
89.0738230827047
 20
302.3800292054836
 30
0.0
 10
89.07383837033169
 20
302.3799970248864
 30
0.0
  0
SPLINE
  5
10C
330
81
100
AcDbEntity
  8
DV1_Default
  6
Continuous
 62
     7
100
AcDbSpline
210
0.0
220
0.0
230
1.0
 70
     8
 71
     3
 72
    15
 73
    11
 74
     0
 42
0.0000000171886621
 43
0.0000000001
 40
0.0
 40
0.0
 40
0.0
 40
0.0
 40
0.1325006519768079
 40
0.1819151905917646
 40
0.2249061800632202
 40
0.287475642829692
 40
0.4457067785491129
 40
0.617890315849969
 40
0.8519377389993389
 40
1.0
 40
1.0
 40
1.0
 40
1.0
 10
67.27827265594588
 20
280.5845992745323
 30
0.0
 10
67.2779570262438
 20
280.584745256274
 30
0.0
 10
67.28002472144642
 20
280.5841039679896
 30
0.0
 10
67.29701997111128
 20
280.5777540819007
 30
0.0
 10
67.31926348101716
 20
280.5685015320702
 30
0.0
 10
67.37078374707782
 20
280.5432804977312
 30
0.0
 10
67.44674733140795
 20
280.490451986691
 30
0.0
 10
67.5336600421397
 20
280.3929596224891
 30
0.0
 10
67.594793792806
 20
280.2722160326282
 30
0.0
 10
67.60260794955424
 20
280.1891659474486
 30
0.0
 10
67.60554965130264
 20
280.1515013522716
 30
0.0
  0
SPLINE
  5
10D
330
81
100
AcDbEntity
  8
DV1_Default
  6
Continuous
 62
     7
100
AcDbSpline
210
0.0
220
0.0
230
1.0
 70
     8
 71
     3
 72
    18
 73
    14
 74
     0
 42
0.0000000171695143
 43
0.0000000001
 40
0.0
 40
0.0
 40
0.0
 40
0.0
 40
0.0090625602759994
 40
0.1975459655620462
 40
0.3607980338281245
 40
0.5025848980185651
 40
0.6229322254817886
 40
0.7193446195260058
 40
0.7779254455829016
 40
0.816405977379481
 40
0.8541343391120166
 40
0.909750432775639
 40
1.0
 40
1.0
 40
1.0
 40
1.0
 10
76.83240617330559
 20
280.1499054629466
 30
0.0
 10
76.83222051744885
 20
280.1522206752972
 30
0.0
 10
76.82875601996163
 20
280.1957567390311
 30
0.0
 10
76.85613819836323
 20
280.2819523759127
 30
0.0
 10
76.90499536053832
 20
280.3845636998892
 30
0.0
 10
76.96818932722783
 20
280.4624593698549
 30
0.0
 10
77.03150369076533
 20
280.516922446301
 30
0.0
 10
77.08558566606894
 20
280.5506775236158
 30
0.0
 10
77.12309067292178
 20
280.5688228357523
 30
0.0
 10
77.1424204330125
 20
280.5768924763479
 30
0.0
 10
77.15401327122207
 20
280.5813401402132
 30
0.0
 10
77.16183633523323
 20
280.5841200795813
 30
0.0
 10
77.16316872274768
 20
280.5845610065137
 30
0.0
 10
77.16313654215043
 20
280.5845457188867
 30
0.0
  0
SPLINE
  5
10E
330
81
100
AcDbEntity
  8
DV1_Default
  6
Continuous
 62
     7
100
AcDbSpline
210
0.0
220
0.0
230
1.0
 70
     8
 71
     3
 72
    15
 73
    11
 74
     0
 42
0.0000000171886621
 43
0.0000000001
 40
0.0
 40
0.0
 40
0.0
 40
0.0
 40
0.1325006519781672
 40
0.1819151905928824
 40
0.2249061800646417
 40
0.2874756428326888
 40
0.4457067785447474
 40
0.6178903158469824
 40
0.8519377389982028
 40
1.0
 40
1.0
 40
1.0
 40
1.0
 10
77.16325095053631
 20
314.2906452974221
 30
0.0
 10
77.16356658023837
 20
314.2904993156804
 30
0.0
 10
77.16149888503564
 20
314.2911406039649
 30
0.0
 10
77.14450363537024
 20
314.2974904900539
 30
0.0
 10
77.12226012546361
 20
314.3067430398847
 30
0.0
 10
77.07073985940411
 20
314.3319640742235
 30
0.0
 10
76.99477627507497
 20
314.3847925852629
 30
0.0
 10
76.90786356434339
 20
314.4822849494637
 30
0.0
 10
76.8467298136763
 20
314.6030285393254
 30
0.0
 10
76.83891565692791
 20
314.6860786245056
 30
0.0
 10
76.83597395517943
 20
314.7237432196828
 30
0.0
  0
SPLINE
  5
10F
330
81
100
AcDbEntity
  8
DV1_Default
  6
Continuous
 62
     7
100
AcDbSpline
210
0.0
220
0.0
230
1.0
 70
     8
 71
     3
 72
    18
 73
    14
 74
     0
 42
0.0000000171695143
 43
0.0000000001
 40
0.0
 40
0.0
 40
0.0
 40
0.0
 40
0.0090625602642583
 40
0.1975459655543668
 40
0.3607980338172225
 40
0.5025848980128713
 40
0.6229322254747489
 40
0.7193446195221775
 40
0.7779254455804764
 40
0.8164059773778737
 40
0.8541343391100787
 40
0.9097504327720888
 40
1.0
 40
1.0
 40
1.0
 40
1.0
 10
67.60911743317772
 20
314.7253391090076
 30
0.0
 10
67.60930308903423
 20
314.72302389666
 30
0.0
 10
67.61276758652185
 20
314.6794878329277
 30
0.0
 10
67.58538540812096
 20
314.5932921960481
 30
0.0
 10
67.53652824594694
 20
314.49068087207
 30
0.0
 10
67.47333427925804
 20
314.4127852021034
 30
0.0
 10
67.41001991571986
 20
314.3583221256557
 30
0.0
 10
67.3559379404157
 20
314.3245670483399
 30
0.0
 10
67.31843293356172
 20
314.3064217362028
 30
0.0
 10
67.29910317347026
 20
314.2983520956067
 30
0.0
 10
67.28751033526044
 20
314.2939044317413
 30
0.0
 10
67.27968727124941
 20
314.2911244923733
 30
0.0
 10
67.27835488373475
 20
314.2906835654409
 30
0.0
 10
67.2783870643319
 20
314.2906988530678
 30
0.0
  0
CIRCLE
  5
110
330
81
100
AcDbEntity
  8
DV1_Default
  6
Continuous
 62
     7
100
AcDbCircle
 10
72.2207618032
 20
297.437622286
 30
0.0
 40
18.48254626441848
  0
LINE
  5
111
330
81
100
AcDbEntity
  8
DV1_Default
  6
Continuous
 62
     7
100
AcDbLine
 10
106.4707618032
 20
270.1873557474
 30
0.0
 11
106.4707618032
 21
247.437622286
 31
0.0
  0
ARC
  5
112
330
81
100
AcDbEntity
  8
DV1_Default
  6
Continuous
 62
     7
100
AcDbCircle
 10
101.4707618032
 20
247.437622286
 30
0.0
 40
5.000000000000001
100
AcDbArc
 50
200.0
 51
0.0
  0
LINE
  5
113
330
81
100
AcDbEntity
  8
DV1_Default
  6
Continuous
 62
     7
100
AcDbLine
 10
96.7722986993
 20
245.7275215693
 30
0.0
 11
90.537079733
 21
262.8586448846
 31
0.0
  0
ARC
  5
114
330
81
100
AcDbEntity
  8
DV1_Default
  6
Continuous
 62
     7
100
AcDbCircle
 10
101.4707618032
 20
247.437622286
 30
0.0
 40
4.856879368231551
100
AcDbArc
 50
200.0
 51
0.0
  0
LINE
  5
115
330
81
100
AcDbEntity
  8
DV1_Default
  6
Continuous
 62
     7
100
AcDbLine
 10
96.9067881009
 20
245.7764717083
 30
0.0
 11
94.952966557
 21
251.1445522816
 31
0.0
  0
CIRCLE
  5
116
330
81
100
AcDbEntity
  8
DV1_Default
  6
Continuous
 62
     7
100
AcDbCircle
 10
101.2207618032
 20
247.437622286
 30
0.0
 40
2.319814942326071
  0
CIRCLE
  5
117
330
81
100
AcDbEntity
  8
DV1_Default
  6
Continuous
 62
     7
100
AcDbCircle
 10
101.2207618032
 20
247.437622286
 30
0.0
 40
2.25
  0
LINE
  5
118
330
81
100
AcDbEntity
  8
DV1_Default
  6
Continuous
 62
     7
100
AcDbLine
 10
97.0606590615
 20
252.437622286
 30
0.0
 11
101.9707618032
 21
252.437622286
 31
0.0
  0
ARC
  5
119
330
81
100
AcDbEntity
  8
DV1_Default
  6
Continuous
 62
     7
100
AcDbCircle
 10
97.0606590615
 20
254.437622286
 30
0.0
 40
2.000000000000002
100
AcDbArc
 50
200.0
 51
270.0
  0
ARC
  5
11A
330
81
100
AcDbEntity
  8
DV1_Default
  6
Continuous
 62
     7
100
AcDbCircle
 10
101.9707618032
 20
261.187622286
 30
0.0
 40
1.999999999999998
100
AcDbArc
 50
0.0
 51
90.0
  0
LINE
  5
11B
330
81
100
AcDbEntity
  8
DV1_Default
  6
Continuous
 62
     7
100
AcDbLine
 10
92.7244747387
 20
260.5035819993
 30
0.0
 11
95.18127382
 21
253.7535819993
 31
0.0
  0
ARC
  5
11C
330
81
100
AcDbEntity
  8
DV1_Default
  6
Continuous
 62
     7
100
AcDbCircle
 10
94.6038599802
 20
261.187622286
 30
0.0
 40
2.000000000000002
100
AcDbArc
 50
90.0
 51
200.0
  0
LINE
  5
11D
330
81
100
AcDbEntity
  8
DV1_Default
  6
Continuous
 62
     7
100
AcDbLine
 10
103.9707618032
 20
254.437622286
 30
0.0
 11
103.9707618032
 21
261.187622286
 31
0.0
  0
ARC
  5
11E
330
81
100
AcDbEntity
  8
DV1_Default
  6
Continuous
 62
     7
100
AcDbCircle
 10
101.9707618032
 20
254.437622286
 30
0.0
 40
2.000000000000002
100
AcDbArc
 50
270.0
 51
0.0
  0
LINE
  5
11F
330
81
100
AcDbEntity
  8
DV1_Default
  6
Continuous
 62
     7
100
AcDbLine
 10
106.3276411715
 20
251.437622286
 30
0.0
 11
106.3276411715
 21
247.437622286
 31
0.0
  0
ARC
  5
120
330
81
100
AcDbEntity
  8
DV1_Default
  6
Continuous
 62
     7
100
AcDbCircle
 10
105.4707618032
 20
251.437622286
 30
0.0
 40
0.8568793682315543
100
AcDbArc
 50
0.0
 51
90.0
  0
LINE
  5
121
330
81
100
AcDbEntity
  8
DV1_Default
  6
Continuous
 62
     7
100
AcDbLine
 10
95.7581697763
 20
252.2945016542
 30
0.0
 11
105.4707618032
 21
252.2945016542
 31
0.0
  0
ARC
  5
122
330
81
100
AcDbEntity
  8
DV1_Default
  6
Continuous
 62
     7
100
AcDbCircle
 10
95.7581697763
 20
251.437622286
 30
0.0
 40
0.8568793682315543
100
AcDbArc
 50
90.0
 51
200.0
  0
ARC
  5
123
330
81
100
AcDbEntity
  8
DV1_Default
  6
Continuous
 62
     7
100
AcDbCircle
 10
42.9707618032
 20
247.437622286
 30
0.0
 40
5.000000000000002
100
AcDbArc
 50
180.0
 51
340.0
  0
LINE
  5
124
330
81
100
AcDbEntity
  8
DV1_Default
  6
Continuous
 62
     7
100
AcDbLine
 10
37.9707618032
 20
247.437622286
 30
0.0
 11
37.9707618032
 21
270.1873557474
 31
0.0
  0
ARC
  5
125
330
81
100
AcDbEntity
  8
DV1_Default
  6
Continuous
 62
     7
100
AcDbCircle
 10
42.9707618032
 20
247.437622286
 30
0.0
 40
4.856879368231556
100
AcDbArc
 50
180.0
 51
340.0
  0
LINE
  5
126
330
81
100
AcDbEntity
  8
DV1_Default
  6
Continuous
 62
     7
100
AcDbLine
 10
38.113882435
 20
247.437622286
 30
0.0
 11
38.113882435
 21
251.437622286
 31
0.0
  0
CIRCLE
  5
127
330
81
100
AcDbEntity
  8
DV1_Default
  6
Continuous
 62
     7
100
AcDbCircle
 10
43.2207618032
 20
247.437622286
 30
0.0
 40
2.319814942326071
  0
CIRCLE
  5
128
330
81
100
AcDbEntity
  8
DV1_Default
  6
Continuous
 62
     7
100
AcDbCircle
 10
43.2207618032
 20
247.437622286
 30
0.0
 40
2.25
  0
LINE
  5
129
330
81
100
AcDbEntity
  8
DV1_Default
  6
Continuous
 62
     7
100
AcDbLine
 10
49.2602497865
 20
253.7535819993
 30
0.0
 11
51.7170488678
 21
260.5035819993
 31
0.0
  0
ARC
  5
12A
330
81
100
AcDbEntity
  8
DV1_Default
  6
Continuous
 62
     7
100
AcDbCircle
 10
47.3808645449
 20
254.437622286
 30
0.0
 40
2.000000000000002
100
AcDbArc
 50
270.0
 51
340.0
  0
LINE
  5
12B
330
81
100
AcDbEntity
  8
DV1_Default
  6
Continuous
 62
     7
100
AcDbLine
 10
40.4707618032
 20
261.187622286
 30
0.0
 11
40.4707618032
 21
254.437622286
 31
0.0
  0
ARC
  5
12C
330
81
100
AcDbEntity
  8
DV1_Default
  6
Continuous
 62
     7
100
AcDbCircle
 10
42.4707618032
 20
261.187622286
 30
0.0
 40
2.000000000000002
100
AcDbArc
 50
90.0
 51
180.0
  0
ARC
  5
12D
330
81
100
AcDbEntity
  8
DV1_Default
  6
Continuous
 62
     7
100
AcDbCircle
 10
49.8376636262
 20
261.187622286
 30
0.0
 40
2.000000000000006
100
AcDbArc
 50
340.0
 51
90.0
  0
LINE
  5
12E
330
81
100
AcDbEntity
  8
DV1_Default
  6
Continuous
 62
     7
100
AcDbLine
 10
42.4707618032
 20
252.437622286
 30
0.0
 11
47.3808645449
 21
252.437622286
 31
0.0
  0
ARC
  5
12F
330
81
100
AcDbEntity
  8
DV1_Default
  6
Continuous
 62
     7
100
AcDbCircle
 10
42.4707618032
 20
254.437622286
 30
0.0
 40
2.000000000000002
100
AcDbArc
 50
180.0
 51
270.0
  0
LINE
  5
130
330
81
100
AcDbEntity
  8
DV1_Default
  6
Continuous
 62
     7
100
AcDbLine
 10
38.9707618032
 20
252.3643165965
 30
0.0
 11
40.9538683818
 21
252.3643165965
 31
0.0
  0
LINE
  5
131
330
81
100
AcDbEntity
  8
DV1_Default
  6
Continuous
 62
     7
100
AcDbLine
 10
38.9707618032
 20
252.2945016542
 30
0.0
 11
48.6833538302
 21
252.2945016542
 31
0.0
  0
ARC
  5
132
330
81
100
AcDbEntity
  8
DV1_Default
  6
Continuous
 62
     7
100
AcDbCircle
 10
38.9707618032
 20
251.437622286
 30
0.0
 40
0.8568793682315612
100
AcDbArc
 50
90.0
 51
180.0
  0
LINE
  5
133
330
81
100
AcDbEntity
  8
DV1_Default
  6
Continuous
 62
     7
100
AcDbLine
 10
49.4885570494
 20
251.1445522816
 30
0.0
 11
47.5347355056
 21
245.7764717083
 31
0.0
  0
ARC
  5
134
330
81
100
AcDbEntity
  8
DV1_Default
  6
Continuous
 62
     7
100
AcDbCircle
 10
48.6833538302
 20
251.437622286
 30
0.0
 40
0.8568793682315573
100
AcDbArc
 50
340.0
 51
90.0
  0
ARC
  5
135
330
81
100
AcDbEntity
  8
DV1_Default
  6
Continuous
 62
     7
100
AcDbCircle
 10
101.4707618032
 20
347.437622286
 30
0.0
 40
4.999999999999999
100
AcDbArc
 50
0.0
 51
160.0
  0
LINE
  5
136
330
81
100
AcDbEntity
  8
DV1_Default
  6
Continuous
 62
     7
100
AcDbLine
 10
106.4707618032
 20
347.437622286
 30
0.0
 11
106.4707618032
 21
324.6878888245
 31
0.0
  0
ARC
  5
137
330
81
100
AcDbEntity
  8
DV1_Default
  6
Continuous
 62
     7
100
AcDbCircle
 10
101.4707618032
 20
347.437622286
 30
0.0
 40
4.856879368231558
100
AcDbArc
 50
0.0
 51
160.0
  0
LINE
  5
138
330
81
100
AcDbEntity
  8
DV1_Default
  6
Continuous
 62
     7
100
AcDbLine
 10
106.3276411715
 20
347.437622286
 30
0.0
 11
106.3276411715
 21
343.437622286
 31
0.0
  0
CIRCLE
  5
139
330
81
100
AcDbEntity
  8
DV1_Default
  6
Continuous
 62
     7
100
AcDbCircle
 10
101.2207618032
 20
347.437622286
 30
0.0
 40
2.319814942326071
  0
CIRCLE
  5
13A
330
81
100
AcDbEntity
  8
DV1_Default
  6
Continuous
 62
     7
100
AcDbCircle
 10
101.2207618032
 20
347.437622286
 30
0.0
 40
2.25
  0
LINE
  5
13B
330
81
100
AcDbEntity
  8
DV1_Default
  6
Continuous
 62
     7
100
AcDbLine
 10
95.18127382
 20
341.1216625726
 30
0.0
 11
92.7244747387
 21
334.3716625726
 31
0.0
  0
ARC
  5
13C
330
81
100
AcDbEntity
  8
DV1_Default
  6
Continuous
 62
     7
100
AcDbCircle
 10
97.0606590615
 20
340.437622286
 30
0.0
 40
2.000000000000002
100
AcDbArc
 50
90.0
 51
160.0
  0
LINE
  5
13D
330
81
100
AcDbEntity
  8
DV1_Default
  6
Continuous
 62
     7
100
AcDbLine
 10
103.9707618032
 20
333.687622286
 30
0.0
 11
103.9707618032
 21
340.437622286
 31
0.0
  0
ARC
  5
13E
330
81
100
AcDbEntity
  8
DV1_Default
  6
Continuous
 62
     7
100
AcDbCircle
 10
101.9707618032
 20
333.687622286
 30
0.0
 40
2.000000000000002
100
AcDbArc
 50
270.0
 51
0.0
  0
ARC
  5
13F
330
81
100
AcDbEntity
  8
DV1_Default
  6
Continuous
 62
     7
100
AcDbCircle
 10
94.6038599802
 20
333.687622286
 30
0.0
 40
1.999999999999999
100
AcDbArc
 50
160.0
 51
270.0
  0
LINE
  5
140
330
81
100
AcDbEntity
  8
DV1_Default
  6
Continuous
 62
     7
100
AcDbLine
 10
101.9707618032
 20
342.437622286
 30
0.0
 11
97.0606590615
 21
342.437622286
 31
0.0
  0
ARC
  5
141
330
81
100
AcDbEntity
  8
DV1_Default
  6
Continuous
 62
     7
100
AcDbCircle
 10
101.9707618032
 20
340.437622286
 30
0.0
 40
2.000000000000002
100
AcDbArc
 50
0.0
 51
90.0
  0
LINE
  5
142
330
81
100
AcDbEntity
  8
DV1_Default
  6
Continuous
 62
     7
100
AcDbLine
 10
105.4707618032
 20
342.5807429177
 30
0.0
 11
95.7581697763
 21
342.5807429177
 31
0.0
  0
ARC
  5
143
330
81
100
AcDbEntity
  8
DV1_Default
  6
Continuous
 62
     7
100
AcDbCircle
 10
105.4707618032
 20
343.437622286
 30
0.0
 40
0.8568793682315543
100
AcDbArc
 50
270.0
 51
0.0
  0
LINE
  5
144
330
81
100
AcDbEntity
  8
DV1_Default
  6
Continuous
 62
     7
100
AcDbLine
 10
94.952966557
 20
343.7306922903
 30
0.0
 11
96.9067881009
 21
349.0987728636
 31
0.0
  0
ARC
  5
145
330
81
100
AcDbEntity
  8
DV1_Default
  6
Continuous
 62
     7
100
AcDbCircle
 10
95.7581697763
 20
343.437622286
 30
0.0
 40
0.8568793682315573
100
AcDbArc
 50
160.0
 51
270.0
  0
LINE
  5
146
330
81
100
AcDbEntity
  8
DV1_Default
  6
Continuous
 62
     7
100
AcDbLine
 10
37.9707618032
 20
324.6878888245
 30
0.0
 11
37.9707618032
 21
347.437622286
 31
0.0
  0
ARC
  5
147
330
81
100
AcDbEntity
  8
DV1_Default
  6
Continuous
 62
     7
100
AcDbCircle
 10
42.9707618032
 20
347.437622286
 30
0.0
 40
4.999999999999997
100
AcDbArc
 50
20.0
 51
180.0
  0
LINE
  5
148
330
81
100
AcDbEntity
  8
DV1_Default
  6
Continuous
 62
     7
100
AcDbLine
 10
47.6692249072
 20
349.1477230026
 30
0.0
 11
53.9044438735
 21
332.0165996874
 31
0.0
  0
ARC
  5
149
330
81
100
AcDbEntity
  8
DV1_Default
  6
Continuous
 62
     7
100
AcDbCircle
 10
42.9707618032
 20
347.437622286
 30
0.0
 40
4.856879368231555
100
AcDbArc
 50
20.0
 51
180.0
  0
LINE
  5
14A
330
81
100
AcDbEntity
  8
DV1_Default
  6
Continuous
 62
     7
100
AcDbLine
 10
47.5347355056
 20
349.0987728636
 30
0.0
 11
49.4885570494
 21
343.7306922903
 31
0.0
  0
CIRCLE
  5
14B
330
81
100
AcDbEntity
  8
DV1_Default
  6
Continuous
 62
     7
100
AcDbCircle
 10
43.2207618032
 20
347.437622286
 30
0.0
 40
2.319814942326071
  0
CIRCLE
  5
14C
330
81
100
AcDbEntity
  8
DV1_Default
  6
Continuous
 62
     7
100
AcDbCircle
 10
43.2207618032
 20
347.437622286
 30
0.0
 40
2.25
  0
LINE
  5
14D
330
81
100
AcDbEntity
  8
DV1_Default
  6
Continuous
 62
     7
100
AcDbLine
 10
47.3808645449
 20
342.437622286
 30
0.0
 11
42.4707618032
 21
342.437622286
 31
0.0
  0
ARC
  5
14E
330
81
100
AcDbEntity
  8
DV1_Default
  6
Continuous
 62
     7
100
AcDbCircle
 10
47.3808645449
 20
340.437622286
 30
0.0
 40
2.000000000000002
100
AcDbArc
 50
20.0
 51
90.0
  0
ARC
  5
14F
330
81
100
AcDbEntity
  8
DV1_Default
  6
Continuous
 62
     7
100
AcDbCircle
 10
42.4707618032
 20
333.687622286
 30
0.0
 40
1.999999999999998
100
AcDbArc
 50
180.0
 51
270.0
  0
LINE
  5
150
330
81
100
AcDbEntity
  8
DV1_Default
  6
Continuous
 62
     7
100
AcDbLine
 10
51.7170488678
 20
334.3716625726
 30
0.0
 11
49.2602497865
 21
341.1216625726
 31
0.0
  0
ARC
  5
151
330
81
100
AcDbEntity
  8
DV1_Default
  6
Continuous
 62
     7
100
AcDbCircle
 10
49.8376636262
 20
333.687622286
 30
0.0
 40
2.000000000000002
100
AcDbArc
 50
270.0
 51
20.0
  0
LINE
  5
152
330
81
100
AcDbEntity
  8
DV1_Default
  6
Continuous
 62
     7
100
AcDbLine
 10
40.4707618032
 20
340.437622286
 30
0.0
 11
40.4707618032
 21
333.687622286
 31
0.0
  0
ARC
  5
153
330
81
100
AcDbEntity
  8
DV1_Default
  6
Continuous
 62
     7
100
AcDbCircle
 10
42.4707618032
 20
340.437622286
 30
0.0
 40
2.000000000000002
100
AcDbArc
 50
90.0
 51
180.0
  0
LINE
  5
154
330
81
100
AcDbEntity
  8
DV1_Default
  6
Continuous
 62
     7
100
AcDbLine
 10
38.113882435
 20
343.437622286
 30
0.0
 11
38.113882435
 21
347.437622286
 31
0.0
  0
ARC
  5
155
330
81
100
AcDbEntity
  8
DV1_Default
  6
Continuous
 62
     7
100
AcDbCircle
 10
38.9707618032
 20
343.437622286
 30
0.0
 40
0.8568793682315543
100
AcDbArc
 50
180.0
 51
270.0
  0
LINE
  5
156
330
81
100
AcDbEntity
  8
DV1_Default
  6
Continuous
 62
     7
100
AcDbLine
 10
48.6833538302
 20
342.5807429177
 30
0.0
 11
38.9707618032
 21
342.5807429177
 31
0.0
  0
ARC
  5
157
330
81
100
AcDbEntity
  8
DV1_Default
  6
Continuous
 62
     7
100
AcDbCircle
 10
48.6833538302
 20
343.437622286
 30
0.0
 40
0.8568793682315543
100
AcDbArc
 50
270.0
 51
20.0
  0
CIRCLE
  5
158
330
81
100
AcDbEntity
  8
DV1_Default
  6
Continuous
 62
     7
100
AcDbCircle
 10
98.7372660977
 20
323.9541265805
 30
0.0
 40
4.723819396627723
  0
CIRCLE
  5
159
330
81
100
AcDbEntity
  8
DV1_Default
  6
Continuous
 62
     7
100
AcDbCircle
 10
45.7042575087
 20
270.9211179915
 30
0.0
 40
4.723819396627723
  0
CIRCLE
  5
15A
330
81
100
AcDbEntity
  8
DV1_Default
  6
Continuous
 62
     7
100
AcDbCircle
 10
98.7372660977
 20
270.9211179915
 30
0.0
 40
4.723819396627723
  0
CIRCLE
  5
15B
330
81
100
AcDbEntity
  8
DV1_Default
  6
Continuous
 62
     7
100
AcDbCircle
 10
45.7042575087
 20
323.9541265805
 30
0.0
 40
4.723819396627723
  0
LINE
  5
15C
330
81
100
AcDbEntity
  8
DV1_Default
  6
Continuous
 62
     7
100
AcDbLine
 10
73.1474561138
 20
326.2606466963
 30
0.0
 11
72.2207618032
 21
325.3339523858
 31
0.0
  0
LINE
  5
15D
330
81
100
AcDbEntity
  8
DV1_Default
  6
Continuous
 62
     7
100
AcDbLine
 10
73.1448380535
 20
326.2543261396
 30
0.0
 11
73.1474561138
 21
326.2606466963
 31
0.0
  0
LINE
  5
15E
330
81
100
AcDbEntity
  8
DV1_Default
  6
Continuous
 62
     7
100
AcDbLine
 10
72.2207618032
 20
325.3339523858
 30
0.0
 11
71.2940674927
 21
326.2606466963
 31
0.0
  0
LINE
  5
15F
330
81
100
AcDbEntity
  8
DV1_Default
  6
Continuous
 62
     7
100
AcDbLine
 10
72.2207618032
 20
325.3302498893
 30
0.0
 11
72.2207618032
 21
325.3339523858
 31
0.0
  0
LINE
  5
160
330
81
100
AcDbEntity
  8
DV1_Default
  6
Continuous
 62
     7
100
AcDbLine
 10
71.2940674927
 20
326.2606466963
 30
0.0
 11
71.2940674927
 21
323.6624571279
 31
0.0
  0
LINE
  5
161
330
81
100
AcDbEntity
  8
DV1_Default
  6
Continuous
 62
     7
100
AcDbLine
 10
71.296685553
 20
326.2543261396
 30
0.0
 11
71.2940674927
 21
326.2606466963
 31
0.0
  0
LINE
  5
162
330
81
100
AcDbEntity
  8
DV1_Default
  6
Continuous
 62
     7
100
AcDbLine
 10
71.2940674927
 20
323.6624571279
 30
0.0
 11
71.9940674927
 21
322.7479270783
 31
0.0
  0
LINE
  5
163
330
81
100
AcDbEntity
  8
DV1_Default
  6
Continuous
 62
     7
100
AcDbLine
 10
71.296685553
 20
323.6633440865
 30
0.0
 11
71.2940674927
 21
323.6624571279
 31
0.0
  0
LINE
  5
164
330
81
100
AcDbEntity
  8
DV1_Default
  6
Continuous
 62
     7
100
AcDbLine
 10
71.9940674927
 20
322.7479270783
 30
0.0
 11
71.9940674927
 21
320.7643165965
 31
0.0
  0
LINE
  5
165
330
81
100
AcDbEntity
  8
DV1_Default
  6
Continuous
 62
     7
100
AcDbLine
 10
71.996685553
 20
322.748814037
 30
0.0
 11
71.9940674927
 21
322.7479270783
 31
0.0
  0
LINE
  5
166
330
81
100
AcDbEntity
  8
DV1_Default
  6
Continuous
 62
     7
100
AcDbLine
 10
71.9940674927
 20
320.7643165965
 30
0.0
 11
71.3307203374
 21
320.7643165965
 31
0.0
  0
LINE
  5
167
330
81
100
AcDbEntity
  8
DV1_Default
  6
Continuous
 62
     7
100
AcDbLine
 10
71.996685553
 20
320.7616985362
 30
0.0
 11
71.9940674927
 21
320.7643165965
 31
0.0
  0
LINE
  5
168
330
81
100
AcDbEntity
  8
DV1_Default
  6
Continuous
 62
     7
100
AcDbLine
 10
71.3307203374
 20
320.7643165965
 30
0.0
 11
72.2207618032
 21
318.6282170785
 31
0.0
  0
LINE
  5
169
330
81
100
AcDbEntity
  8
DV1_Default
  6
Continuous
 62
     7
100
AcDbLine
 10
71.3346474279
 20
320.7616985362
 30
0.0
 11
71.3307203374
 21
320.7643165965
 31
0.0
  0
LINE
  5
16A
330
81
100
AcDbEntity
  8
DV1_Default
  6
Continuous
 62
     7
100
AcDbLine
 10
72.2207618032
 20
318.6282170785
 30
0.0
 11
73.1108032691
 21
320.7643165965
 31
0.0
  0
LINE
  5
16B
330
81
100
AcDbEntity
  8
DV1_Default
  6
Continuous
 62
     7
100
AcDbLine
 10
72.2207618032
 20
318.6350240354
 30
0.0
 11
72.2207618032
 21
318.6282170785
 31
0.0
  0
LINE
  5
16C
330
81
100
AcDbEntity
  8
DV1_Default
  6
Continuous
 62
     7
100
AcDbLine
 10
73.1108032691
 20
320.7643165965
 30
0.0
 11
72.4474561138
 21
320.7643165965
 31
0.0
  0
LINE
  5
16D
330
81
100
AcDbEntity
  8
DV1_Default
  6
Continuous
 62
     7
100
AcDbLine
 10
73.1068761786
 20
320.7616985362
 30
0.0
 11
73.1108032691
 21
320.7643165965
 31
0.0
  0
LINE
  5
16E
330
81
100
AcDbEntity
  8
DV1_Default
  6
Continuous
 62
     7
100
AcDbLine
 10
72.4474561138
 20
320.7643165965
 30
0.0
 11
72.4474561138
 21
322.7479270783
 31
0.0
  0
LINE
  5
16F
330
81
100
AcDbEntity
  8
DV1_Default
  6
Continuous
 62
     7
100
AcDbLine
 10
72.4448380535
 20
320.7616985362
 30
0.0
 11
72.4474561138
 21
320.7643165965
 31
0.0
  0
LINE
  5
170
330
81
100
AcDbEntity
  8
DV1_Default
  6
Continuous
 62
     7
100
AcDbLine
 10
72.4474561138
 20
322.7479270783
 30
0.0
 11
73.1474561138
 21
323.6624571279
 31
0.0
  0
LINE
  5
171
330
81
100
AcDbEntity
  8
DV1_Default
  6
Continuous
 62
     7
100
AcDbLine
 10
72.4448380535
 20
322.748814037
 30
0.0
 11
72.4474561138
 21
322.7479270783
 31
0.0
  0
LINE
  5
172
330
81
100
AcDbEntity
  8
DV1_Default
  6
Continuous
 62
     7
100
AcDbLine
 10
73.1474561138
 20
323.6624571279
 30
0.0
 11
73.1474561138
 21
326.2606466963
 31
0.0
  0
LINE
  5
173
330
81
100
AcDbEntity
  8
DV1_Default
  6
Continuous
 62
     7
100
AcDbLine
 10
73.1448380535
 20
323.6633440865
 30
0.0
 11
73.1474561138
 21
323.6624571279
 31
0.0
  0
LINE
  5
174
330
81
100
AcDbEntity
  8
DV1_Default
  6
Continuous
 62
     7
100
AcDbLine
 10
73.1448380535
 20
326.2543261396
 30
0.0
 11
72.2207618032
 21
325.3302498893
 31
0.0
  0
LINE
  5
175
330
81
100
AcDbEntity
  8
DV1_Default
  6
Continuous
 62
     7
100
AcDbLine
 10
72.2207618032
 20
325.3302498893
 30
0.0
 11
71.296685553
 21
326.2543261396
 31
0.0
  0
LINE
  5
176
330
81
100
AcDbEntity
  8
DV1_Default
  6
Continuous
 62
     7
100
AcDbLine
 10
71.296685553
 20
326.2543261396
 30
0.0
 11
71.296685553
 21
323.6633440865
 31
0.0
  0
LINE
  5
177
330
81
100
AcDbEntity
  8
DV1_Default
  6
Continuous
 62
     7
100
AcDbLine
 10
71.296685553
 20
323.6633440865
 30
0.0
 11
71.996685553
 21
322.748814037
 31
0.0
  0
LINE
  5
178
330
81
100
AcDbEntity
  8
DV1_Default
  6
Continuous
 62
     7
100
AcDbLine
 10
71.996685553
 20
322.748814037
 30
0.0
 11
71.996685553
 21
320.7616985362
 31
0.0
  0
LINE
  5
179
330
81
100
AcDbEntity
  8
DV1_Default
  6
Continuous
 62
     7
100
AcDbLine
 10
71.996685553
 20
320.7616985362
 30
0.0
 11
71.3346474279
 21
320.7616985362
 31
0.0
  0
LINE
  5
17A
330
81
100
AcDbEntity
  8
DV1_Default
  6
Continuous
 62
     7
100
AcDbLine
 10
71.3346474279
 20
320.7616985362
 30
0.0
 11
72.2207618032
 21
318.6350240354
 31
0.0
  0
LINE
  5
17B
330
81
100
AcDbEntity
  8
DV1_Default
  6
Continuous
 62
     7
100
AcDbLine
 10
72.2207618032
 20
318.6350240354
 30
0.0
 11
73.1068761786
 21
320.7616985362
 31
0.0
  0
LINE
  5
17C
330
81
100
AcDbEntity
  8
DV1_Default
  6
Continuous
 62
     7
100
AcDbLine
 10
73.1068761786
 20
320.7616985362
 30
0.0
 11
72.4448380535
 21
320.7616985362
 31
0.0
  0
LINE
  5
17D
330
81
100
AcDbEntity
  8
DV1_Default
  6
Continuous
 62
     7
100
AcDbLine
 10
72.4448380535
 20
320.7616985362
 30
0.0
 11
72.4448380535
 21
322.748814037
 31
0.0
  0
LINE
  5
17E
330
81
100
AcDbEntity
  8
DV1_Default
  6
Continuous
 62
     7
100
AcDbLine
 10
72.4448380535
 20
322.748814037
 30
0.0
 11
73.1448380535
 21
323.6633440865
 31
0.0
  0
LINE
  5
17F
330
81
100
AcDbEntity
  8
DV1_Default
  6
Continuous
 62
     7
100
AcDbLine
 10
73.1448380535
 20
323.6633440865
 30
0.0
 11
73.1448380535
 21
326.2543261396
 31
0.0
  0
LINE
  5
180
330
81
100
AcDbEntity
  8
DV1_Default
  6
Continuous
 62
     7
100
AcDbLine
 10
42.4707618032
 20
263.187622286
 30
0.0
 11
44.9704952647
 21
263.187622286
 31
0.0
  0
LINE
  5
181
330
81
100
AcDbEntity
  8
DV1_Default
  6
Continuous
 62
     7
100
AcDbLine
 10
94.6038599802
 20
263.187622286
 30
0.0
 11
99.4710323197
 21
263.187622286
 31
0.0
  0
LINE
  5
182
330
81
100
AcDbEntity
  8
DV1_Default
  6
Continuous
 62
     7
100
AcDbLine
 10
101.9707618032
 20
331.687622286
 30
0.0
 11
99.4710283418
 21
331.687622286
 31
0.0
  0
LINE
  5
183
330
81
100
AcDbEntity
  8
DV1_Default
  6
Continuous
 62
     7
100
AcDbLine
 10
49.8376636262
 20
331.687622286
 30
0.0
 11
44.9704912868
 21
331.687622286
 31
0.0
  0
LINE
  5
184
330
81
100
AcDbEntity
  8
DV1_Default
  6
Continuous
 62
     7
100
AcDbLine
 10
99.4710283418
 20
331.687622286
 30
0.0
 11
94.6038599802
 21
331.687622286
 31
0.0
  0
LINE
  5
185
330
81
100
AcDbEntity
  8
DV1_Default
  6
Continuous
 62
     7
100
AcDbLine
 10
44.9704912868
 20
331.687622286
 30
0.0
 11
42.4707618032
 21
331.687622286
 31
0.0
  0
LINE
  5
186
330
81
100
AcDbEntity
  8
DV1_Default
  6
Continuous
 62
     7
100
AcDbLine
 10
37.9707618032
 20
324.6878888245
 30
0.0
 11
37.9707618032
 21
270.1873557474
 31
0.0
  0
LINE
  5
187
330
81
100
AcDbEntity
  8
DV1_Default
  6
Continuous
 62
     7
100
AcDbLine
 10
44.9704952647
 20
263.187622286
 30
0.0
 11
49.8376636262
 21
263.187622286
 31
0.0
  0
LINE
  5
188
330
81
100
AcDbEntity
  8
DV1_Default
  6
Continuous
 62
     7
100
AcDbLine
 10
99.4710323197
 20
263.187622286
 30
0.0
 11
101.9707618032
 21
263.187622286
 31
0.0
  0
LINE
  5
189
330
81
100
AcDbEntity
  8
DV1_Default
  6
Continuous
 62
     7
100
AcDbLine
 10
106.4707618032
 20
270.1873557474
 30
0.0
 11
106.4707618032
 21
324.6878888245
 31
0.0
  0
ARC
  5
18A
330
81
100
AcDbEntity
  8
DV1_Default
  6
Continuous
 62
     7
100
AcDbCircle
 10
38.9707618032
 20
251.437622286
 30
0.0
 40
0.926694310557628
100
AcDbArc
 50
90.0
 51
117.7190115476
  0
LINE
  5
18B
330
81
100
AcDbEntity
  8
DV1_Default
  6
Continuous
 62
     7
100
AcDbLine
 10
38.0397421364
 20
251.437622286
 30
0.0
 11
38.0397421364
 21
343.437622286
 31
0.0
  0
ARC
  5
18C
330
81
100
AcDbEntity
  8
DV1_Default
  6
Continuous
 62
     7
100
AcDbCircle
 10
38.9734479631
 20
251.4310876476
 30
0.0
 40
0.9337286930629195
100
AcDbArc
 50
117.678414223
 51
179.5990160083
  0
LINE
  5
18D
330
81
100
AcDbEntity
  8
DV1_Default
  6
Continuous
 62
     7
100
AcDbLine
 10
53.9044438735
 20
262.8586448846
 30
0.0
 11
47.6692249072
 21
245.7275215693
 31
0.0
  0
LINE
  5
18E
330
81
100
AcDbEntity
  8
DV1_Default
  6
Continuous
 62
     7
100
AcDbLine
 10
53.8561433242
 20
262.9276252178
 30
0.0
 11
49.5582261409
 21
251.1191948061
 31
0.0
  0
LINE
  5
18F
330
81
100
AcDbEntity
  8
DV1_Default
  6
Continuous
 62
     7
100
AcDbLine
 10
54.3742722935
 20
263.187622286
 30
0.0
 11
90.0672513129
 21
263.187622286
 31
0.0
  0
LINE
  5
190
330
81
100
AcDbEntity
  8
DV1_Default
  6
Continuous
 62
     7
100
AcDbLine
 10
94.8832974656
 20
251.1191948061
 30
0.0
 11
90.5853802823
 21
262.9276252178
 31
0.0
  0
ELLIPSE
  5
191
330
81
100
AcDbEntity
  8
DV1_Default
  6
Continuous
 62
     7
100
AcDbEllipse
 10
54.3742989558
 20
262.6876032468
 30
0.0
 11
0.2868044926413227
 21
-0.4095992644903899
 31
0.0
210
0.0
220
0.0
230
1.0
 40
0.9999432559
 41
2.530754076900318
 42
3.752431230279123
  0
ELLIPSE
  5
192
330
81
100
AcDbEntity
  8
DV1_Default
  6
Continuous
 62
     7
100
AcDbEllipse
 10
90.0672246507
 20
262.6876032468
 30
0.0
 11
-0.2868044926413222
 21
-0.4095992644903902
 31
0.0
210
0.0
220
0.0
230
1.0
 40
0.9999432559
 41
2.530754076900357
 42
3.752431230279295
  0
LINE
  5
193
330
81
100
AcDbEntity
  8
DV1_Default
  6
Continuous
 62
     7
100
AcDbLine
 10
90.537079733
 20
332.0165996874
 30
0.0
 11
96.7722986993
 21
349.1477230026
 31
0.0
  0
LINE
  5
194
330
81
100
AcDbEntity
  8
DV1_Default
  6
Continuous
 62
     7
100
AcDbLine
 10
90.5853802823
 20
331.9476193542
 30
0.0
 11
94.8832974656
 21
343.7560497659
 31
0.0
  0
LINE
  5
195
330
81
100
AcDbEntity
  8
DV1_Default
  6
Continuous
 62
     7
100
AcDbLine
 10
90.0672513129
 20
331.687622286
 30
0.0
 11
54.3742722935
 21
331.687622286
 31
0.0
  0
LINE
  5
196
330
81
100
AcDbEntity
  8
DV1_Default
  6
Continuous
 62
     7
100
AcDbLine
 10
49.5582261409
 20
343.7560497659
 30
0.0
 11
53.8561433242
 21
331.9476193542
 31
0.0
  0
ELLIPSE
  5
197
330
81
100
AcDbEntity
  8
DV1_Default
  6
Continuous
 62
     7
100
AcDbEllipse
 10
90.0672246507
 20
332.1876413252
 30
0.0
 11
-0.2868044926413227
 21
0.4095992644903899
 31
0.0
210
0.0
220
0.0
230
1.0
 40
0.9999432559
 41
2.530754076900119
 42
3.752431230279228
  0
ELLIPSE
  5
198
330
81
100
AcDbEntity
  8
DV1_Default
  6
Continuous
 62
     7
100
AcDbEllipse
 10
54.3742989558
 20
332.1876413252
 30
0.0
 11
0.2868044926413222
 21
0.4095992644903902
 31
0.0
210
0.0
220
0.0
230
1.0
 40
0.9999432559
 41
2.530754076900357
 42
3.752431230279267
  0
ARC
  5
199
330
81
100
AcDbEntity
  8
DV1_Default
  6
Continuous
 62
     7
100
AcDbCircle
 10
40.6815551056
 20
613.851859541
 30
0.0
 40
361.4876455129717
100
AcDbArc
 50
270.0431616491
 51
270.2835903586
  0
LINE
  5
19A
330
81
100
AcDbEntity
  8
DV1_Default
  6
Continuous
 62
     7
100
AcDbLine
 10
106.40178147
 20
343.437622286
 30
0.0
 11
106.40178147
 21
251.437622286
 31
0.0
  0
ARC
  5
19B
330
81
100
AcDbEntity
  8
DV1_Default
  6
Continuous
 62
     7
100
AcDbCircle
 10
38.9733790539
 20
343.4486823029
 30
0.0
 40
0.9337024245251024
100
AcDbArc
 50
180.6787035061
 51
252.4119232921
  0
ARC
  5
19C
330
81
100
AcDbEntity
  8
DV1_Default
  6
Continuous
 62
     7
100
AcDbCircle
 10
40.2652921476
 20
63.2039949319
 30
0.0
 40
279.3113151258606
100
AcDbArc
 50
89.5475821801
 51
89.9634838708
  0
ARC
  5
19D
330
81
100
AcDbEntity
  8
DV1_Default
  6
Continuous
 62
     7
100
AcDbCircle
 10
105.4681445526
 20
251.4265622691
 30
0.0
 40
0.9337024245251243
100
AcDbArc
 50
0.6787035061
 51
72.4119232921
  0
ARC
  5
19E
330
81
100
AcDbEntity
  8
DV1_Default
  6
Continuous
 62
     7
100
AcDbCircle
 10
104.1762314589
 20
531.6712496401
 30
0.0
 40
279.3113151258603
100
AcDbArc
 50
269.5475821801
 51
269.9634838708
  0
ARC
  5
19F
330
81
100
AcDbEntity
  8
DV1_Default
  6
Continuous
 62
     7
100
AcDbCircle
 10
104.1762314589
 20
63.2039949319
 30
0.0
 40
279.3113151258601
100
AcDbArc
 50
90.0365161292
 51
90.4524178199
  0
ARC
  5
1A0
330
81
100
AcDbEntity
  8
DV1_Default
  6
Continuous
 62
     7
100
AcDbCircle
 10
105.4681445526
 20
343.4486823029
 30
0.0
 40
0.933702424525124
100
AcDbArc
 50
287.5880767079
 51
359.3212964939
  0
ARC
  5
1A1
330
81
100
AcDbEntity
  8
DV1_Default
  6
Continuous
 62
     7
100
AcDbCircle
 10
50.0296169818
 20
-11.1766967707
 30
0.0
 40
353.6932175725144
100
AcDbArc
 50
90.2180855587
 51
90.4290830207
  0
ARC
  5
1A2
330
81
100
AcDbEntity
  8
DV1_Default
  6
Continuous
 62
     7
100
AcDbCircle
 10
48.6771116705
 20
343.4471201498
 30
0.0
 40
0.9337024245251377
100
AcDbArc
 50
307.5880767079
 51
19.3212964939
  0
ARC
  5
1A3
330
81
100
AcDbEntity
  8
DV1_Default
  6
Continuous
 62
     7
100
AcDbCircle
 10
48.6779168367
 20
343.4481916571
 30
0.0
 40
0.934248827374014
100
AcDbArc
 50
270.3334427937
 51
295.4221330428
  0
ARC
  5
1A4
330
81
100
AcDbEntity
  8
DV1_Default
  6
Continuous
 62
     7
100
AcDbCircle
 10
94.4119066247
 20
606.0519413427
 30
0.0
 40
353.6932175725144
100
AcDbArc
 50
270.2180855587
 51
270.4290830207
  0
ARC
  5
1A5
330
81
100
AcDbEntity
  8
DV1_Default
  6
Continuous
 62
     7
100
AcDbCircle
 10
95.7644119359
 20
251.4281244222
 30
0.0
 40
0.9337024245251211
100
AcDbArc
 50
127.5880767079
 51
199.3212964939
  0
ARC
  5
1A6
330
81
100
AcDbEntity
  8
DV1_Default
  6
Continuous
 62
     7
100
AcDbCircle
 10
95.7636067698
 20
251.4270529148
 30
0.0
 40
0.934248827374014
100
AcDbArc
 50
90.3334427937
 51
115.4221330428
  0
ARC
  5
1A7
330
81
100
AcDbEntity
  8
DV1_Default
  6
Continuous
 62
     7
100
AcDbCircle
 10
48.6779169673
 20
251.4270534862
 30
0.0
 40
0.9342482552509955
100
AcDbArc
 50
64.57785915
 51
89.6665650134
  0
ARC
  5
1A8
330
81
100
AcDbEntity
  8
DV1_Default
  6
Continuous
 62
     7
100
AcDbCircle
 10
48.6771116705
 20
251.4281244222
 30
0.0
 40
0.9337024245251372
100
AcDbArc
 50
340.6787035061
 51
52.4119232921
  0
ARC
  5
1A9
330
81
100
AcDbEntity
  8
DV1_Default
  6
Continuous
 62
     7
100
AcDbCircle
 10
50.0296169818
 20
606.0519413427
 30
0.0
 40
353.6932175725145
100
AcDbArc
 50
269.5709169793
 51
269.7819144413
  0
ARC
  5
1AA
330
81
100
AcDbEntity
  8
DV1_Default
  6
Continuous
 62
     7
100
AcDbCircle
 10
94.4119066247
 20
-11.1766967707
 30
0.0
 40
353.6932175725085
100
AcDbArc
 50
89.5709169793
 51
89.7819144413
  0
ARC
  5
1AB
330
81
100
AcDbEntity
  8
DV1_Default
  6
Continuous
 62
     7
100
AcDbCircle
 10
95.7644119359
 20
343.4471201498
 30
0.0
 40
0.9337024245251212
100
AcDbArc
 50
160.6787035061
 51
232.4119232921
  0
ARC
  5
1AC
330
81
100
AcDbEntity
  8
DV1_Default
  6
Continuous
 62
     7
100
AcDbCircle
 10
95.7636066391
 20
343.4481910857
 30
0.0
 40
0.934248255250872
100
AcDbArc
 50
244.57785915
 51
269.6665650134
  0
CIRCLE
  5
1AD
330
81
100
AcDbEntity
  8
DV1_Default
  6
Continuous
 62
     7
100
AcDbCircle
 10
72.2207618032
 20
297.437622286
 30
0.0
 40
9.000000000000004
  0
ARC
  5
1AE
330
81
100
AcDbEntity
  8
DV1_Default
  6
Continuous
 62
     7
100
AcDbCircle
 10
72.2207618032
 20
297.437622286
 30
0.0
 40
6.500000000000001
100
AcDbArc
 50
97.380135052
 51
142.619864948
  0
LINE
  5
1AF
330
81
100
AcDbEntity
  8
DV1_Default
  6
Continuous
 62
     7
100
AcDbLine
 10
67.0556982938
 20
301.3837747087
 30
0.0
 11
66.2207618032
 21
300.9017239011
 31
0.0
  0
LINE
  5
1B0
330
81
100
AcDbEntity
  8
DV1_Default
  6
Continuous
 62
     7
100
AcDbLine
 10
66.2207618032
 20
300.9017239011
 30
0.0
 11
66.2207618032
 21
299.937622286
 31
0.0
  0
ARC
  5
1B1
330
81
100
AcDbEntity
  8
DV1_Default
  6
Continuous
 62
     7
100
AcDbCircle
 10
72.2207618032
 20
297.437622286
 30
0.0
 40
6.500000000000001
100
AcDbArc
 50
157.380135052
 51
202.619864948
  0
LINE
  5
1B2
330
81
100
AcDbEntity
  8
DV1_Default
  6
Continuous
 62
     7
100
AcDbLine
 10
66.2207618032
 20
294.937622286
 30
0.0
 11
66.2207618032
 21
293.9735206708
 31
0.0
  0
LINE
  5
1B3
330
81
100
AcDbEntity
  8
DV1_Default
  6
Continuous
 62
     7
100
AcDbLine
 10
66.2207618032
 20
293.9735206708
 30
0.0
 11
67.0556982938
 21
293.4914698633
 31
0.0
  0
ARC
  5
1B4
330
81
100
AcDbEntity
  8
DV1_Default
  6
Continuous
 62
     7
100
AcDbCircle
 10
72.2207618032
 20
297.437622286
 30
0.0
 40
6.500000000000001
100
AcDbArc
 50
217.380135052
 51
262.619864948
  0
LINE
  5
1B5
330
81
100
AcDbEntity
  8
DV1_Default
  6
Continuous
 62
     7
100
AcDbLine
 10
71.3858253127
 20
290.9914698633
 30
0.0
 11
72.2207618032
 21
290.5094190557
 31
0.0
  0
LINE
  5
1B6
330
81
100
AcDbEntity
  8
DV1_Default
  6
Continuous
 62
     7
100
AcDbLine
 10
72.2207618032
 20
290.5094190557
 30
0.0
 11
73.0556982938
 21
290.9914698633
 31
0.0
  0
ARC
  5
1B7
330
81
100
AcDbEntity
  8
DV1_Default
  6
Continuous
 62
     7
100
AcDbCircle
 10
72.2207618032
 20
297.437622286
 30
0.0
 40
6.500000000000001
100
AcDbArc
 50
277.380135052
 51
322.619864948
  0
LINE
  5
1B8
330
81
100
AcDbEntity
  8
DV1_Default
  6
Continuous
 62
     7
100
AcDbLine
 10
77.3858253127
 20
293.4914698633
 30
0.0
 11
78.2207618032
 21
293.9735206708
 31
0.0
  0
LINE
  5
1B9
330
81
100
AcDbEntity
  8
DV1_Default
  6
Continuous
 62
     7
100
AcDbLine
 10
78.2207618032
 20
293.9735206708
 30
0.0
 11
78.2207618032
 21
294.937622286
 31
0.0
  0
ARC
  5
1BA
330
81
100
AcDbEntity
  8
DV1_Default
  6
Continuous
 62
     7
100
AcDbCircle
 10
72.2207618032
 20
297.437622286
 30
0.0
 40
6.500000000000001
100
AcDbArc
 50
337.380135052
 51
22.619864948
  0
LINE
  5
1BB
330
81
100
AcDbEntity
  8
DV1_Default
  6
Continuous
 62
     7
100
AcDbLine
 10
78.2207618032
 20
299.937622286
 30
0.0
 11
78.2207618032
 21
300.9017239011
 31
0.0
  0
LINE
  5
1BC
330
81
100
AcDbEntity
  8
DV1_Default
  6
Continuous
 62
     7
100
AcDbLine
 10
78.2207618032
 20
300.9017239011
 30
0.0
 11
77.3858253127
 21
301.3837747087
 31
0.0
  0
ARC
  5
1BD
330
81
100
AcDbEntity
  8
DV1_Default
  6
Continuous
 62
     7
100
AcDbCircle
 10
72.2207618032
 20
297.437622286
 30
0.0
 40
6.500000000000001
100
AcDbArc
 50
37.380135052
 51
82.619864948
  0
LINE
  5
1BE
330
81
100
AcDbEntity
  8
DV1_Default
  6
Continuous
 62
     7
100
AcDbLine
 10
73.0556982938
 20
303.8837747087
 30
0.0
 11
72.2207618032
 21
304.3658255163
 31
0.0
  0
LINE
  5
1BF
330
81
100
AcDbEntity
  8
DV1_Default
  6
Continuous
 62
     7
100
AcDbLine
 10
72.2207618032
 20
304.3658255163
 30
0.0
 11
71.3858253127
 21
303.8837747087
 31
0.0
  0
CIRCLE
  5
1C0
330
81
100
AcDbEntity
  8
DV1_Default
  6
Continuous
 62
     7
100
AcDbCircle
 10
72.2207618032
 20
297.437622286
 30
0.0
 40
12.0
  0
CIRCLE
  5
1C1
330
81
100
AcDbEntity
  8
DV1_Default
  6
Continuous
 62
     7
100
AcDbCircle
 10
72.2207618032
 20
297.437622286
 30
0.0
 40
10.3155
  0
CIRCLE
  5
1C2
330
81
100
AcDbEntity
  8
DV1_Default
  6
Continuous
 62
     7
100
AcDbCircle
 10
72.2207618032
 20
297.437622286
 30
0.0
 40
11.0
  0
CIRCLE
  5
1C3
330
81
100
AcDbEntity
  8
DV1_Default
  6
Continuous
 62
     7
100
AcDbCircle
 10
72.2207618032
 20
297.437622286
 30
0.0
 40
9.3155
  0
CIRCLE
  5
1C4
330
81
100
AcDbEntity
  8
DV1_Default
  6
Continuous
 62
     7
100
AcDbCircle
 10
72.2207618032
 20
297.437622286
 30
0.0
 40
15.0
  0
CIRCLE
  5
1C5
330
81
100
AcDbEntity
  8
DV1_Default
  6
Continuous
 62
     7
100
AcDbCircle
 10
72.2207618032
 20
297.437622286
 30
0.0
 40
14.49999999999999
  0
ARC
  5
1C6
330
81
100
AcDbEntity
  8
DV1_Default
  6
Continuous
 62
     7
100
AcDbCircle
 10
72.2207618032
 20
297.437622286
 30
0.0
 40
10.4775
100
AcDbArc
 50
255.0
 51
195.0
  0
CIRCLE
  5
1C7
330
81
100
AcDbEntity
  8
DV1_Default
  6
Continuous
 62
     7
100
AcDbCircle
 10
45.7042575087
 20
323.9541265805
 30
0.0
 40
3.557270813812923
  0
CIRCLE
  5
1C8
330
81
100
AcDbEntity
  8
DV1_Default
  6
Continuous
 62
     7
100
AcDbCircle
 10
45.7042575087
 20
323.9541265805
 30
0.0
 40
4.375
  0
LINE
  5
1C9
330
81
100
AcDbEntity
  8
DV1_Default
  6
Continuous
 62
     7
100
AcDbLine
 10
44.3294848003
 20
323.3541265805
 30
0.0
 11
44.7231866652
 21
323.3541265805
 31
0.0
  0
ARC
  5
1CA
330
81
100
AcDbEntity
  8
DV1_Default
  6
Continuous
 62
     7
100
AcDbCircle
 10
45.7042575087
 20
323.9541265805
 30
0.0
 40
1.499999999999992
100
AcDbArc
 50
156.4218215218
 51
203.5781784782
  0
LINE
  5
1CB
330
81
100
AcDbEntity
  8
DV1_Default
  6
Continuous
 62
     7
100
AcDbLine
 10
44.7231866652
 20
324.5541265805
 30
0.0
 11
44.3294848003
 21
324.5541265805
 31
0.0
  0
ARC
  5
1CC
330
81
100
AcDbEntity
  8
DV1_Default
  6
Continuous
 62
     7
100
AcDbCircle
 10
45.7042575087
 20
323.9541265805
 30
0.0
 40
1.149999999999998
100
AcDbArc
 50
121.4489813894
 51
148.5510186106
  0
LINE
  5
1CD
330
81
100
AcDbEntity
  8
DV1_Default
  6
Continuous
 62
     7
100
AcDbLine
 10
45.1042575087
 20
325.328899289
 30
0.0
 11
45.1042575087
 21
324.935197424
 31
0.0
  0
ARC
  5
1CE
330
81
100
AcDbEntity
  8
DV1_Default
  6
Continuous
 62
     7
100
AcDbCircle
 10
45.7042575087
 20
323.9541265805
 30
0.0
 40
1.499999999999998
100
AcDbArc
 50
66.4218215218
 51
113.5781784782
  0
LINE
  5
1CF
330
81
100
AcDbEntity
  8
DV1_Default
  6
Continuous
 62
     7
100
AcDbLine
 10
46.3042575087
 20
324.935197424
 30
0.0
 11
46.3042575087
 21
325.328899289
 31
0.0
  0
ARC
  5
1D0
330
81
100
AcDbEntity
  8
DV1_Default
  6
Continuous
 62
     7
100
AcDbCircle
 10
45.7042575087
 20
323.9541265805
 30
0.0
 40
1.149999999999995
100
AcDbArc
 50
31.4489813894
 51
58.5510186106
  0
LINE
  5
1D1
330
81
100
AcDbEntity
  8
DV1_Default
  6
Continuous
 62
     7
100
AcDbLine
 10
47.0790302172
 20
324.5541265805
 30
0.0
 11
46.6853283523
 21
324.5541265805
 31
0.0
  0
ARC
  5
1D2
330
81
100
AcDbEntity
  8
DV1_Default
  6
Continuous
 62
     7
100
AcDbCircle
 10
45.7042575087
 20
323.9541265805
 30
0.0
 40
1.499999999999993
100
AcDbArc
 50
336.4218215218
 51
23.5781784782
  0
LINE
  5
1D3
330
81
100
AcDbEntity
  8
DV1_Default
  6
Continuous
 62
     7
100
AcDbLine
 10
46.6853283523
 20
323.3541265805
 30
0.0
 11
47.0790302172
 21
323.3541265805
 31
0.0
  0
ARC
  5
1D4
330
81
100
AcDbEntity
  8
DV1_Default
  6
Continuous
 62
     7
100
AcDbCircle
 10
45.7042575087
 20
323.9541265805
 30
0.0
 40
1.149999999999999
100
AcDbArc
 50
301.4489813894
 51
328.5510186106
  0
LINE
  5
1D5
330
81
100
AcDbEntity
  8
DV1_Default
  6
Continuous
 62
     7
100
AcDbLine
 10
46.3042575087
 20
322.579353872
 30
0.0
 11
46.3042575087
 21
322.973055737
 31
0.0
  0
ARC
  5
1D6
330
81
100
AcDbEntity
  8
DV1_Default
  6
Continuous
 62
     7
100
AcDbCircle
 10
45.7042575087
 20
323.9541265805
 30
0.0
 40
1.5
100
AcDbArc
 50
246.4218215218
 51
293.5781784782
  0
LINE
  5
1D7
330
81
100
AcDbEntity
  8
DV1_Default
  6
Continuous
 62
     7
100
AcDbLine
 10
45.1042575087
 20
322.973055737
 30
0.0
 11
45.1042575087
 21
322.579353872
 31
0.0
  0
ARC
  5
1D8
330
81
100
AcDbEntity
  8
DV1_Default
  6
Continuous
 62
     7
100
AcDbCircle
 10
45.7042575087
 20
323.9541265805
 30
0.0
 40
1.149999999999992
100
AcDbArc
 50
211.4489813894
 51
238.5510186106
  0
LINE
  5
1D9
330
81
100
AcDbEntity
  8
DV1_Default
  6
Continuous
 62
     7
100
AcDbLine
 10
88.2201525723
 20
263.180756099
 30
0.0
 11
88.2270187593
 21
263.187622286
 31
0.0
  0
ELLIPSE
  5
1DA
330
81
100
AcDbEntity
  8
DV1_Default
  6
Continuous
 62
     7
100
AcDbEllipse
 10
72.2207618032
 20
263.1819745841
 30
0.0
 11
-16.00000000000001
 21
-6.938893903907228E-15
 31
0.0
210
0.0
220
0.0
230
1.0
 40
0.0087268678
 41
0.008726646259982
 42
0.4364690287349232
  0
ELLIPSE
  5
1DB
330
81
100
AcDbEntity
  8
DV1_Default
  6
Continuous
 62
     7
100
AcDbEllipse
 10
72.2207618032
 20
263.1819745841
 30
0.0
 11
-16.00000000000001
 21
-6.938893903907228E-15
 31
0.0
210
0.0
220
0.0
230
1.0
 40
0.0087268678
 41
-3.578061682324714
 42
-3.150319299849928
  0
LINE
  5
1DC
330
81
100
AcDbEntity
  8
DV1_Default
  6
Continuous
 62
     7
100
AcDbLine
 10
88.2201525723
 20
331.694488473
 30
0.0
 11
88.2270187593
 21
331.687622286
 31
0.0
  0
ELLIPSE
  5
1DD
330
81
100
AcDbEntity
  8
DV1_Default
  6
Continuous
 62
     7
100
AcDbEllipse
 10
72.2207618032
 20
331.6932699878
 30
0.0
 11
-15.99999999999999
 21
0.0
 31
0.0
210
0.0
220
0.0
230
1.0
 40
0.0087268678
 41
-0.4364690287349218
 42
-0.0087266462600581
  0
ELLIPSE
  5
1DE
330
81
100
AcDbEntity
  8
DV1_Default
  6
Continuous
 62
     7
100
AcDbEllipse
 10
72.2207618032
 20
331.6932699878
 30
0.0
 11
-15.99999999999999
 21
0.0
 31
0.0
210
0.0
220
0.0
230
1.0
 40
0.0087268678
 41
3.15031929984975
 42
3.578061682324709
  0
CIRCLE
  5
1DF
330
81
100
AcDbEntity
  8
DV1_Default
  6
Continuous
 62
     7
100
AcDbCircle
 10
44.2207618032
 20
256.937622286
 30
0.0
 40
2.65
  0
CIRCLE
  5
1E0
330
81
100
AcDbEntity
  8
DV1_Default
  6
Continuous
 62
     7
100
AcDbCircle
 10
100.2207618032
 20
256.937622286
 30
0.0
 40
2.65
  0
CIRCLE
  5
1E1
330
81
100
AcDbEntity
  8
DV1_Default
  6
Continuous
 62
     7
100
AcDbCircle
 10
44.2207618032
 20
337.937622286
 30
0.0
 40
2.65
  0
CIRCLE
  5
1E2
330
81
100
AcDbEntity
  8
DV1_Default
  6
Continuous
 62
     7
100
AcDbCircle
 10
100.2207618032
 20
337.937622286
 30
0.0
 40
2.65
  0
LINE
  5
1E3
330
81
100
AcDbEntity
  8
DV1_Default
  6
Continuous
 62
     7
100
AcDbLine
 10
37.7862133117
 20
296.9987103605
 30
0.0
 11
37.7427312834
 21
296.9552283322
 31
0.0
  0
LINE
  5
1E4
330
81
100
AcDbEntity
  8
DV1_Default
  6
Continuous
 62
     7
100
AcDbLine
 10
106.6553102948
 20
297.8765342114
 30
0.0
 11
106.6987923231
 21
297.9200162398
 31
0.0
  0
LINE
  5
1E5
330
81
100
AcDbEntity
  8
DV1_Default
  6
Continuous
 62
     7
100
AcDbLine
 10
37.7862133117
 20
296.9987103605
 30
0.0
 11
37.7862133117
 21
297.8765342114
 31
0.0
  0
LINE
  5
1E6
330
81
100
AcDbEntity
  8
DV1_Default
  6
Continuous
 62
     7
100
AcDbLine
 10
106.6553102948
 20
297.8765342114
 30
0.0
 11
106.6553102948
 21
296.9987103605
 31
0.0
  0
LINE
  5
1E7
330
81
100
AcDbEntity
  8
DV1_Default
  6
Continuous
 62
     7
100
AcDbLine
 10
106.6987923231
 20
296.9552283322
 30
0.0
 11
106.6553102948
 21
296.9987103605
 31
0.0
  0
ELLIPSE
  5
1E8
330
81
100
AcDbEntity
  8
DV1_Default
  6
Continuous
 62
     7
100
AcDbEllipse
 10
58.2081015903
 20
255.9591729068
 30
0.0
 11
4.01539309651512
 21
-5.734575631104119
 31
0.0
210
0.0
220
0.0
230
1.0
 40
0.9999108345
 41
2.600359803308491
 42
3.336593465450813
  0
ELLIPSE
  5
1E9
330
81
100
AcDbEntity
  8
DV1_Default
  6
Continuous
 62
     7
100
AcDbEllipse
 10
86.2334220162
 20
255.9591729068
 30
0.0
 11
-4.015393070442889
 21
-5.734575649355116
 31
0.0
210
0.0
220
0.0
230
1.0
 40
0.9999108345
 41
2.946591837186026
 42
3.682825499324452
  0
ELLIPSE
  5
1EA
330
81
100
AcDbEntity
  8
DV1_Default
  6
Continuous
 62
     7
100
AcDbEllipse
 10
58.2081015903
 20
338.9160716652
 30
0.0
 11
4.015393081489582
 21
5.734575641625099
 31
0.0
210
0.0
220
0.0
230
1.0
 40
0.9999108345
 41
2.946591839108871
 42
3.682825501251168
  0
ELLIPSE
  5
1EB
330
81
100
AcDbEntity
  8
DV1_Default
  6
Continuous
 62
     7
100
AcDbEllipse
 10
86.2334220162
 20
338.9160716652
 30
0.0
 11
-4.015393107654978
 21
5.734575623298939
 31
0.0
210
0.0
220
0.0
230
1.0
 40
0.9999108345
 41
2.600359801366633
 42
3.336593463505053
  0
LINE
  5
1EC
330
81
100
AcDbEntity
  8
DV1_Default
  6
Continuous
 62
     7
100
AcDbLine
 10
37.7427312834
 20
296.9552283322
 30
0.0
 11
37.7427312834
 21
291.9708330149
 31
0.0
  0
LINE
  5
1ED
330
81
100
AcDbEntity
  8
DV1_Default
  6
Continuous
 62
     7
100
AcDbLine
 10
37.7427312834
 20
297.9200162398
 30
0.0
 11
37.7862133117
 21
297.8765342114
 31
0.0
  0
LINE
  5
1EE
330
81
100
AcDbEntity
  8
DV1_Default
  6
Continuous
 62
     7
100
AcDbLine
 10
106.6987923231
 20
297.9200162398
 30
0.0
 11
106.6987923231
 21
302.5085847101
 31
0.0
  0
LINE
  5
1EF
330
81
100
AcDbEntity
  8
DV1_Default
  6
Continuous
 62
     7
100
AcDbLine
 10
37.2228980096
 20
291.472204386
 30
0.0
 11
33.3589123053
 21
292.5075562351
 31
0.0
  0
LINE
  5
1F0
330
81
100
AcDbEntity
  8
DV1_Default
  6
Continuous
 62
     7
100
AcDbLine
 10
32.7295267487
 20
292.0246117117
 30
0.0
 11
32.7295267487
 21
286.8506328603
 31
0.0
  0
LINE
  5
1F1
330
81
100
AcDbEntity
  8
DV1_Default
  6
Continuous
 62
     7
100
AcDbLine
 10
33.3589123053
 20
286.3676883369
 30
0.0
 11
37.2236885186
 21
287.4032520022
 31
0.0
  0
LINE
  5
1F2
330
81
100
AcDbEntity
  8
DV1_Default
  6
Continuous
 62
     7
100
AcDbLine
 10
37.7427312834
 20
286.904411557
 30
0.0
 11
37.7427312834
 21
257.8859125559
 31
0.0
  0
ARC
  5
1F3
330
81
100
AcDbEntity
  8
DV1_Default
  6
Continuous
 62
     7
100
AcDbCircle
 10
33.2295457879
 20
286.8506824841
 30
0.0
 40
0.5000190416552934
100
AcDbArc
 50
180.0056862491
 51
284.994313751
  0
ARC
  5
1F4
330
81
100
AcDbEntity
  8
DV1_Default
  6
Continuous
 62
     7
100
AcDbCircle
 10
33.2295457879
 20
292.0245620879
 30
0.0
 40
0.5000190416552937
100
AcDbArc
 50
75.005686249
 51
179.994313751
  0
LINE
  5
1F5
330
81
100
AcDbEntity
  8
DV1_Default
  6
Continuous
 62
     7
100
AcDbLine
 10
37.2228980096
 20
307.472204386
 30
0.0
 11
33.3589123053
 21
308.5075562351
 31
0.0
  0
LINE
  5
1F6
330
81
100
AcDbEntity
  8
DV1_Default
  6
Continuous
 62
     7
100
AcDbLine
 10
37.7427312834
 20
302.904411557
 30
0.0
 11
37.7427312834
 21
297.9200162398
 31
0.0
  0
LINE
  5
1F7
330
81
100
AcDbEntity
  8
DV1_Default
  6
Continuous
 62
     7
100
AcDbLine
 10
33.3589123053
 20
302.3676883369
 30
0.0
 11
37.2236885186
 21
303.4032520022
 31
0.0
  0
LINE
  5
1F8
330
81
100
AcDbEntity
  8
DV1_Default
  6
Continuous
 62
     7
100
AcDbLine
 10
32.7295267487
 20
308.0246117117
 30
0.0
 11
32.7295267487
 21
302.8506328603
 31
0.0
  0
ARC
  5
1F9
330
81
100
AcDbEntity
  8
DV1_Default
  6
Continuous
 62
     7
100
AcDbCircle
 10
33.2295457879
 20
302.8506824841
 30
0.0
 40
0.500019041655296
100
AcDbArc
 50
180.0056862491
 51
284.994313751
  0
ARC
  5
1FA
330
81
100
AcDbEntity
  8
DV1_Default
  6
Continuous
 62
     7
100
AcDbCircle
 10
33.2295457879
 20
308.0245620879
 30
0.0
 40
0.5000190416552868
100
AcDbArc
 50
75.005686249
 51
179.9943137509
  0
LINE
  5
1FB
330
81
100
AcDbEntity
  8
DV1_Default
  6
Continuous
 62
     7
100
AcDbLine
 10
106.6987923231
 20
292.3666598618
 30
0.0
 11
106.6987923231
 21
296.9552283322
 31
0.0
  0
ELLIPSE
  5
1FC
330
81
100
AcDbEntity
  8
DV1_Default
  6
Continuous
 62
     7
100
AcDbEllipse
 10
106.5924387691
 20
291.2497363075
 30
0.0
 11
0.0
 21
0.8953132509234771
 31
0.0
210
0.0
220
0.0
230
1.0
 40
1.0
 41
0.0049134241279738
 42
1.308996938994758
  0
LINE
  5
1FD
330
81
100
AcDbEntity
  8
DV1_Default
  6
Continuous
 62
     7
100
AcDbLine
 10
106.5837119013
 20
287.6231699073
 30
0.0
 11
106.5837119013
 21
291.2520746646
 31
0.0
  0
ELLIPSE
  5
1FE
330
81
100
AcDbEntity
  8
DV1_Default
  6
Continuous
 62
     7
100
AcDbEllipse
 10
106.5924387691
 20
287.6255082645
 30
0.0
 11
-1.971254855875904E-5
 21
-1.035278821206513
 31
0.0
210
0.0
220
0.0
230
1.0
 40
0.008429464
 41
4.714647816635842
 42
5.741910272421313
  0
ARC
  5
1FF
330
81
100
AcDbEntity
  8
DV1_Default
  6
Continuous
 62
     7
100
AcDbCircle
 10
106.1988337786
 20
292.3666306473
 30
0.0
 40
0.4999585453253039
100
AcDbArc
 50
320.9133818061
 51
0.0033480106
  0
ARC
  5
200
330
81
100
AcDbEntity
  8
DV1_Default
  6
Continuous
 62
     7
100
AcDbCircle
 10
106.1988337786
 20
286.5086139246
 30
0.0
 40
0.4999585453253039
100
AcDbArc
 50
359.9966519894
 51
39.0866181868
  0
LINE
  5
201
330
81
100
AcDbEntity
  8
DV1_Default
  6
Continuous
 62
     7
100
AcDbLine
 10
106.6987923231
 20
308.3666598618
 30
0.0
 11
106.6987923231
 21
336.989332016
 31
0.0
  0
ELLIPSE
  5
202
330
81
100
AcDbEntity
  8
DV1_Default
  6
Continuous
 62
     7
100
AcDbEllipse
 10
106.5924387691
 20
307.2497363075
 30
0.0
 11
0.0
 21
0.8953132509234203
 31
0.0
210
0.0
220
0.0
230
1.0
 40
1.0
 41
0.004913424127974
 42
1.308996938994758
  0
LINE
  5
203
330
81
100
AcDbEntity
  8
DV1_Default
  6
Continuous
 62
     7
100
AcDbLine
 10
106.5837119013
 20
303.6231699073
 30
0.0
 11
106.5837119013
 21
307.2520746646
 31
0.0
  0
ELLIPSE
  5
204
330
81
100
AcDbEntity
  8
DV1_Default
  6
Continuous
 62
     7
100
AcDbEllipse
 10
106.5924387691
 20
303.6255082645
 30
0.0
 11
-1.971254855875904E-5
 21
-1.035278821206513
 31
0.0
210
0.0
220
0.0
230
1.0
 40
0.008429464
 41
4.714647816635896
 42
5.741910272421313
  0
ARC
  5
205
330
81
100
AcDbEntity
  8
DV1_Default
  6
Continuous
 62
     7
100
AcDbCircle
 10
106.1988337786
 20
308.3666306473
 30
0.0
 40
0.4999585453253039
100
AcDbArc
 50
320.9133818157
 51
0.0033480106
  0
ARC
  5
206
330
81
100
AcDbEntity
  8
DV1_Default
  6
Continuous
 62
     7
100
AcDbCircle
 10
106.1988337786
 20
302.5086139246
 30
0.0
 40
0.4999585453253039
100
AcDbArc
 50
359.9966519894
 51
39.0866181891
  0
ARC
  5
207
330
81
100
AcDbEntity
  8
DV1_Default
  6
Continuous
 62
     7
100
AcDbCircle
 10
87.1001952161
 20
337.9398914532
 30
0.0
 40
19.62058845546699
100
AcDbArc
 50
357.346604874
 51
359.0560395825
  0
ARC
  5
208
330
81
100
AcDbEntity
  8
DV1_Default
  6
Continuous
 62
     7
100
AcDbCircle
 10
108.3916407387
 20
336.9721825476
 30
0.0
 40
1.692935280040771
100
AcDbArc
 50
177.9894283061
 51
179.4195826754
  0
LINE
  5
209
330
81
100
AcDbEntity
  8
DV1_Default
  6
Continuous
 62
     7
100
AcDbLine
 10
106.6987923231
 20
257.8859125559
 30
0.0
 11
106.6987923231
 21
286.5085847101
 31
0.0
  0
ARC
  5
20A
330
81
100
AcDbEntity
  8
DV1_Default
  6
Continuous
 62
     7
100
AcDbCircle
 10
108.3954835338
 20
257.9031489272
 30
0.0
 40
1.696778759005708
100
AcDbArc
 50
180.5820371741
 51
182.0089518441
  0
ARC
  5
20B
330
81
100
AcDbEntity
  8
DV1_Default
  6
Continuous
 62
     7
100
AcDbCircle
 10
87.1002291078
 20
256.9353541831
 30
0.0
 40
19.62055455082655
100
AcDbArc
 50
0.9439589404
 51
2.6533966031
  0
LINE
  5
20C
330
81
100
AcDbEntity
  8
DV1_Default
  6
Continuous
 62
     7
100
AcDbLine
 10
106.7181208963
 20
257.2585919536
 30
0.0
 11
106.7181023847
 21
257.257462131
 31
0.0
  0
ARC
  5
20D
330
81
100
AcDbEntity
  8
DV1_Default
  6
Continuous
 62
     7
100
AcDbCircle
 10
100.2207618032
 20
256.937622286
 30
0.0
 40
6.497359093066306
100
AcDbArc
 50
344.1393610418
 51
0.0
  0
ARC
  5
20E
330
81
100
AcDbEntity
  8
DV1_Default
  6
Continuous
 62
     7
100
AcDbCircle
 10
57.3413283904
 20
256.9353531188
 30
0.0
 40
19.62058845543498
100
AcDbArc
 50
177.346604874
 51
179.0560395825
  0
ARC
  5
20F
330
81
100
AcDbEntity
  8
DV1_Default
  6
Continuous
 62
     7
100
AcDbCircle
 10
36.0498828686
 20
257.9030620243
 30
0.0
 40
1.692935279245123
100
AcDbArc
 50
357.9894283057
 51
359.4195826757
  0
LINE
  5
210
330
81
100
AcDbEntity
  8
DV1_Default
  6
Continuous
 62
     7
100
AcDbLine
 10
37.7234216499
 20
257.2574359986
 30
0.0
 11
37.7234027102
 21
257.2585919536
 31
0.0
  0
ARC
  5
211
330
81
100
AcDbEntity
  8
DV1_Default
  6
Continuous
 62
     7
100
AcDbCircle
 10
44.2207618032
 20
256.937622286
 30
0.0
 40
6.497359093066299
100
AcDbArc
 50
180.0
 51
195.8606389582
  0
ARC
  5
212
330
81
100
AcDbEntity
  8
DV1_Default
  6
Continuous
 62
     7
100
AcDbCircle
 10
57.3412944987
 20
337.9398903889
 30
0.0
 40
19.62055455080931
100
AcDbArc
 50
180.9439589404
 51
182.6533966031
  0
LINE
  5
213
330
81
100
AcDbEntity
  8
DV1_Default
  6
Continuous
 62
     7
100
AcDbLine
 10
37.7234027102
 20
337.6166526184
 30
0.0
 11
37.7234212218
 21
337.617782441
 31
0.0
  0
ARC
  5
214
330
81
100
AcDbEntity
  8
DV1_Default
  6
Continuous
 62
     7
100
AcDbCircle
 10
44.2207618032
 20
337.937622286
 30
0.0
 40
6.497359093066303
100
AcDbArc
 50
164.1393610418
 51
180.0
  0
LINE
  5
215
330
81
100
AcDbEntity
  8
DV1_Default
  6
Continuous
 62
     7
100
AcDbLine
 10
37.7427312834
 20
336.989332016
 30
0.0
 11
37.7427312834
 21
307.9708330149
 31
0.0
  0
ARC
  5
216
330
81
100
AcDbEntity
  8
DV1_Default
  6
Continuous
 62
     7
100
AcDbCircle
 10
36.0460400727
 20
336.9720956447
 30
0.0
 40
1.696778758987453
100
AcDbArc
 50
0.5820371741
 51
2.0089518441
  0
LINE
  5
217
330
81
100
AcDbEntity
  8
DV1_Default
  6
Continuous
 62
     7
100
AcDbLine
 10
106.7181019565
 20
337.6178085734
 30
0.0
 11
106.7181208963
 21
337.6166526184
 31
0.0
  0
ARC
  5
218
330
81
100
AcDbEntity
  8
DV1_Default
  6
Continuous
 62
     7
100
AcDbCircle
 10
100.2207618032
 20
337.937622286
 30
0.0
 40
6.497359093066303
100
AcDbArc
 50
0.0
 51
15.8606389582
  0
LINE
  5
219
330
81
100
AcDbEntity
  8
DV1_Default
  6
Continuous
 62
     7
100
AcDbLine
 10
56.2145048472
 20
263.187622286
 30
0.0
 11
56.2213710342
 21
263.180756099
 31
0.0
  0
LINE
  5
21A
330
81
100
AcDbEntity
  8
DV1_Default
  6
Continuous
 62
     7
100
AcDbLine
 10
56.2145048472
 20
331.687622286
 30
0.0
 11
56.2213710342
 21
331.694488473
 31
0.0
  0
ARC
  5
21B
330
81
100
AcDbEntity
  8
DV1_Default
  6
Continuous
 62
     7
100
AcDbCircle
 10
37.2762925374
 20
286.9217995195
 30
0.0
 40
0.4627591215396581
100
AcDbArc
 50
357.98770105
 51
40.710340667
  0
SPLINE
  5
21C
330
81
100
AcDbEntity
  8
DV1_Default
  6
Continuous
 62
     7
100
AcDbSpline
210
0.0
220
0.0
230
1.0
 70
     8
 71
     3
 72
    14
 73
    10
 74
     0
 42
0.0000000192576945
 43
0.0000000001
 40
0.0
 40
0.0
 40
0.0
 40
0.0
 40
0.126030521591926
 40
0.239654841052628
 40
0.3195933560138598
 40
0.4175870857947782
 40
0.581796212625113
 40
0.802314096520427
 40
1.0
 40
1.0
 40
1.0
 40
1.0
 10
37.16581346758576
 20
287.3972454841461
 30
0.0
 10
37.16574892694178
 20
287.3972342577079
 30
0.0
 10
37.16860457706802
 20
287.3977510036662
 30
0.0
 10
37.18624942392758
 20
287.4006630821698
 30
0.0
 10
37.22802791390978
 20
287.4043312507131
 30
0.0
 10
37.29977528644851
 20
287.4032389375121
 30
0.0
 10
37.40650309764806
 20
287.3824791666486
 30
0.0
 10
37.53031192357481
 20
287.3227828393518
 30
0.0
 10
37.59301826638802
 20
287.2594354241662
 30
0.0
 10
37.627071649089
 20
287.2236273171017
 30
0.0
  0
ARC
  5
21D
330
81
100
AcDbEntity
  8
DV1_Default
  6
Continuous
 62
     7
100
AcDbCircle
 10
37.2468470574
 20
291.9598353627
 30
0.0
 40
0.4885788273822291
100
AcDbArc
 50
260.4436308
 51
332.9716443458
  0
ARC
  5
21E
330
81
100
AcDbEntity
  8
DV1_Default
  6
Continuous
 62
     7
100
AcDbCircle
 10
37.3862838469
 20
291.9303253239
 30
0.0
 40
0.352913893454274
100
AcDbArc
 50
326.9409689086
 51
6.508097577
  0
ARC
  5
21F
330
81
100
AcDbEntity
  8
DV1_Default
  6
Continuous
 62
     7
100
AcDbCircle
 10
37.4244545103
 20
302.9460924566
 30
0.0
 40
0.3169157065989335
100
AcDbArc
 50
352.6501464057
 51
28.2912293689
  0
SPLINE
  5
220
330
81
100
AcDbEntity
  8
DV1_Default
  6
Continuous
 62
     7
100
AcDbSpline
210
0.0
220
0.0
230
1.0
 70
     8
 71
     3
 72
    15
 73
    11
 74
     0
 42
0.0000000149280353
 43
0.0000000001
 40
0.0
 40
0.0
 40
0.0
 40
0.0
 40
0.1034836109379588
 40
0.1967805170550054
 40
0.2624180157953349
 40
0.3428806478341521
 40
0.4777127292244681
 40
0.6587799198448374
 40
0.8223404819633031
 40
1.0
 40
1.0
 40
1.0
 40
1.0
 10
37.16581430649711
 20
303.3972452793418
 30
0.0
 10
37.16575021868277
 20
303.3972339426961
 30
0.0
 10
37.16860611469126
 20
303.3977506290164
 30
0.0
 10
37.18624381900976
 20
303.4006644503721
 30
0.0
 10
37.22804358493116
 20
303.4043274252995
 30
0.0
 10
37.29967918182659
 20
303.4032623973694
 30
0.0
 10
37.40723088584777
 20
303.382301508104
 30
0.0
 10
37.52709479543468
 20
303.3234916970341
 30
0.0
 10
37.63796021761245
 20
303.2232121971123
 30
0.0
 10
37.67932604879154
 20
303.1446916169255
 30
0.0
 10
37.70351460879391
 20
303.0962957405584
 30
0.0
  0
ARC
  5
221
330
81
100
AcDbEntity
  8
DV1_Default
  6
Continuous
 62
     7
100
AcDbCircle
 10
37.2461918075
 20
307.961202502
 30
0.0
 40
0.4898190004717553
100
AcDbArc
 50
260.5457593227
 51
337.8446821073
  0
ARC
  5
222
330
81
100
AcDbEntity
  8
DV1_Default
  6
Continuous
 62
     7
100
AcDbCircle
 10
37.3931263369
 20
307.9356198712
 30
0.0
 40
0.3455445005058643
100
AcDbArc
 50
332.5780088713
 51
5.7644258684
  0
SPLINE
  5
223
330
81
100
AcDbEntity
  8
DV1_Default
  6
Continuous
 62
     7
100
AcDbSpline
210
0.0
220
0.0
230
1.0
 70
     8
 71
     3
 72
    10
 73
     6
 74
     0
 42
0.0000000424000221
 43
0.0000000001
 40
0.0
 40
0.0
 40
0.0
 40
0.0
 40
0.3116266325146502
 40
0.9741166135899872
 40
1.0
 40
1.0
 40
1.0
 40
1.0
 10
106.5728812223309
 20
292.0384689391769
 30
0.0
 10
106.5887488547677
 20
292.0558672464508
 30
0.0
 10
106.6348978653046
 20
292.1120916184341
 30
0.0
 10
106.6765765086712
 20
292.1879322721699
 30
0.0
 10
106.6815209124888
 20
292.2385000491423
 30
0.0
 10
106.6817350100672
 20
292.2407050633654
 30
0.0
  0
SPLINE
  5
224
330
81
100
AcDbEntity
  8
DV1_Default
  6
Continuous
 62
     7
100
AcDbSpline
210
0.0
220
0.0
230
1.0
 70
     8
 71
     3
 72
    11
 73
     7
 74
     0
 42
0.0000000925169426
 43
0.0000000001
 40
0.0
 40
0.0
 40
0.0
 40
0.0
 40
0.0037711068232997
 40
0.5556510439041655
 40
0.8985394611488451
 40
1.0
 40
1.0
 40
1.0
 40
1.0
 10
106.5880133709707
 20
292.1381010569751
 30
0.0
 10
106.5880167751846
 20
292.1384018645224
 30
0.0
 10
106.5884497082452
 20
292.1766659944739
 30
0.0
 10
106.5894076889241
 20
292.2153940304878
 30
0.0
 10
106.590116573847
 20
292.2421073320107
 30
0.0
 10
106.5904241972891
 20
292.2460777028393
 30
0.0
 10
106.5904383206489
 20
292.2461524258495
 30
0.0
  0
SPLINE
  5
225
330
81
100
AcDbEntity
  8
DV1_Default
  6
Continuous
 62
     7
100
AcDbSpline
210
0.0
220
0.0
230
1.0
 70
     8
 71
     3
 72
    11
 73
     7
 74
     0
 42
0.0000000823136987
 43
0.0000000001
 40
0.0
 40
0.0
 40
0.0
 40
0.0
 40
0.060434672856911
 40
0.3440054723049721
 40
0.786647295788164
 40
1.0
 40
1.0
 40
1.0
 40
1.0
 10
106.590371887032
 20
286.6294910425386
 30
0.0
 10
106.5903712447533
 20
286.6294947437959
 30
0.0
 10
106.5902764394641
 20
286.6311567988562
 30
0.0
 10
106.589609906025
 20
286.649864712631
 30
0.0
 10
106.5886568329526
 20
286.6903048805621
 30
0.0
 10
106.5881101159555
 20
286.7340777176508
 30
0.0
 10
106.5879006231421
 20
286.7509469331014
 30
0.0
  0
ARC
  5
226
330
81
100
AcDbEntity
  8
DV1_Default
  6
Continuous
 62
     7
100
AcDbCircle
 10
106.209884042
 20
286.5207578511
 30
0.0
 40
0.4836037290570084
100
AcDbArc
 50
21.9501510775
 51
38.7518112139
  0
SPLINE
  5
227
330
81
100
AcDbEntity
  8
DV1_Default
  6
Continuous
 62
     7
100
AcDbSpline
210
0.0
220
0.0
230
1.0
 70
     8
 71
     3
 72
    10
 73
     6
 74
     0
 42
0.0000000424000221
 43
0.0000000001
 40
0.0
 40
0.0
 40
0.0
 40
0.0
 40
0.3116266325149089
 40
0.9741166135900862
 40
1.0
 40
1.0
 40
1.0
 40
1.0
 10
106.5728812223308
 20
308.0384689391769
 30
0.0
 10
106.5887488547676
 20
308.0558672464508
 30
0.0
 10
106.6348978653046
 20
308.1120916184341
 30
0.0
 10
106.6765765086711
 20
308.1879322721699
 30
0.0
 10
106.6815209124888
 20
308.2385000491423
 30
0.0
 10
106.6817350100672
 20
308.2407050633655
 30
0.0
  0
SPLINE
  5
228
330
81
100
AcDbEntity
  8
DV1_Default
  6
Continuous
 62
     7
100
AcDbSpline
210
0.0
220
0.0
230
1.0
 70
     8
 71
     3
 72
    11
 73
     7
 74
     0
 42
0.0000000925169426
 43
0.0000000001
 40
0.0
 40
0.0
 40
0.0
 40
0.0
 40
0.0037711068233287
 40
0.5556510439041653
 40
0.8985394611488008
 40
1.0
 40
1.0
 40
1.0
 40
1.0
 10
106.5880133709707
 20
308.1381010569751
 30
0.0
 10
106.5880167751846
 20
308.1384018645224
 30
0.0
 10
106.5884497082455
 20
308.1766659944737
 30
0.0
 10
106.5894076889241
 20
308.2153940304879
 30
0.0
 10
106.590116573847
 20
308.2421073320107
 30
0.0
 10
106.5904241972891
 20
308.2460777028393
 30
0.0
 10
106.5904383206489
 20
308.2461524258495
 30
0.0
  0
SPLINE
  5
229
330
81
100
AcDbEntity
  8
DV1_Default
  6
Continuous
 62
     7
100
AcDbSpline
210
0.0
220
0.0
230
1.0
 70
     8
 71
     3
 72
    11
 73
     7
 74
     0
 42
0.0000000823136987
 43
0.0000000001
 40
0.0
 40
0.0
 40
0.0
 40
0.0
 40
0.0604346728568229
 40
0.3440054723047826
 40
0.78664729578791
 40
1.0
 40
1.0
 40
1.0
 40
1.0
 10
106.590371887032
 20
302.6294910425386
 30
0.0
 10
106.5903712447533
 20
302.6294947437959
 30
0.0
 10
106.5902764394641
 20
302.6311567988562
 30
0.0
 10
106.589609906025
 20
302.649864712631
 30
0.0
 10
106.5886568329526
 20
302.6903048805621
 30
0.0
 10
106.5881101159555
 20
302.7340777176508
 30
0.0
 10
106.5879006231421
 20
302.7509469331013
 30
0.0
  0
ARC
  5
22A
330
81
100
AcDbEntity
  8
DV1_Default
  6
Continuous
 62
     7
100
AcDbCircle
 10
106.209884042
 20
302.5207578511
 30
0.0
 40
0.4836037290566877
100
AcDbArc
 50
21.9501510775
 51
38.7518112139
  0
LINE
  5
22B
330
81
100
AcDbEntity
  8
DV1_Default
  6
Continuous
 62
     7
100
AcDbLine
 10
106.7181323194
 20
256.937622286
 30
0.0
 11
106.7181323194
 21
257.2576718008
 31
0.0
  0
LINE
  5
22C
330
81
100
AcDbEntity
  8
DV1_Default
  6
Continuous
 62
     7
100
AcDbLine
 10
37.7233912871
 20
257.2574582011
 30
0.0
 11
37.7233912871
 21
256.937622286
 31
0.0
  0
LINE
  5
22D
330
81
100
AcDbEntity
  8
DV1_Default
  6
Continuous
 62
     7
100
AcDbLine
 10
37.7233912871
 20
337.937622286
 30
0.0
 11
37.7233912871
 21
337.6175727712
 31
0.0
  0
LINE
  5
22E
330
81
100
AcDbEntity
  8
DV1_Default
  6
Continuous
 62
     7
100
AcDbLine
 10
106.7181323194
 20
337.6177863708
 30
0.0
 11
106.7181323194
 21
337.937622286
 31
0.0
  0
ENDBLK
  5
230
330
81
100
AcDbEntity
  8
0
100
AcDbBlockEnd
  0
BLOCK
  5
307
330
231
100
AcDbEntity
  8
0
100
AcDbBlockBegin
  2
SE1
 70
     0
 10
0.0
 20
0.0
 30
0.0
  3
SE1
  1

  0
LINE
  5
234
330
231
100
AcDbEntity
  8
DV2_Default
  6
Continuous
 62
     7
100
AcDbLine
 10
183.7380004881
 20
275.4211179915
 30
0.0
 11
183.6380004881
 21
275.4211179915
 31
0.0
  0
LINE
  5
235
330
231
100
AcDbEntity
  8
DV2_Default
  6
Continuous
 62
     7
100
AcDbLine
 10
183.6380004881
 20
266.4211179915
 30
0.0
 11
183.7380004881
 21
266.4211179915
 31
0.0
  0
ARC
  5
236
330
231
100
AcDbEntity
  8
DV2_Default
  6
Continuous
 62
     7
100
AcDbCircle
 10
183.6380004881
 20
274.9211179915
 30
0.0
 40
0.5000000000000004
100
AcDbArc
 50
90.0
 51
180.0
  0
ARC
  5
237
330
231
100
AcDbEntity
  8
DV2_Default
  6
Continuous
 62
     7
100
AcDbCircle
 10
183.6380004881
 20
266.9211179915
 30
0.0
 40
0.5000000000000004
100
AcDbArc
 50
180.0
 51
270.0
  0
LINE
  5
238
330
231
100
AcDbEntity
  8
DV2_Default
  6
Continuous
 62
     7
100
AcDbLine
 10
185.7380004881
 20
249.937622286
 30
0.0
 11
159.7380004881
 21
249.937622286
 31
0.0
  0
LINE
  5
239
330
231
100
AcDbEntity
  8
DV2_Default
  6
Continuous
 62
     7
100
AcDbLine
 10
183.2380004881
 20
314.8366017715
 30
0.0
 11
183.2380004881
 21
315.2305467336
 31
0.0
  0
LINE
  5
23A
330
231
100
AcDbEntity
  8
DV2_Default
  6
Continuous
 62
     7
100
AcDbLine
 10
183.2380004881
 20
280.0386428004
 30
0.0
 11
183.2380004881
 21
290.1322009697
 31
0.0
  0
LINE
  5
23B
330
231
100
AcDbEntity
  8
DV2_Default
  6
Continuous
 62
     7
100
AcDbLine
 10
183.2380004881
 20
279.6446978384
 30
0.0
 11
183.2380004881
 21
280.0386428004
 31
0.0
  0
LINE
  5
23C
330
231
100
AcDbEntity
  8
DV2_Default
  6
Continuous
 62
     7
100
AcDbLine
 10
187.2380004881
 20
290.1432303378
 30
0.0
 11
187.2380004881
 21
304.7320142341
 31
0.0
  0
SPLINE
  5
23D
330
231
100
AcDbEntity
  8
DV2_Default
  6
Continuous
 62
     7
100
AcDbSpline
210
0.0
220
0.0
230
1.0
 70
     8
 71
     3
 72
    14
 73
    10
 74
     0
 42
0.0000000178835579
 43
0.0000000001
 40
0.0
 40
0.0
 40
0.0
 40
0.0
 40
0.2741478296179957
 40
0.2741478296179957
 40
0.5482956592359914
 40
0.5482956592359914
 40
0.8224434888539871
 40
0.8224434888539871
 40
1.0
 40
1.0
 40
1.0
 40
1.0
 10
183.2380004880868
 20
315.2305467335979
 30
0.0
 10
183.2380004880868
 20
315.2032317259403
 30
0.0
 10
183.2506860070829
 20
315.1789173553038
 30
0.0
 10
183.3008299380712
 20
315.1358010802786
 30
0.0
 10
183.3389456875876
 20
315.1168381723875
 30
0.0
 10
183.4385170377582
 20
315.085048409182
 30
0.0
 10
183.4996018065574
 20
315.0721356983428
 30
0.0
 10
183.6189253939186
 20
315.0547469696443
 30
0.0
 10
183.6708020296256
 20
315.0489179504403
 30
0.0
 10
183.7265693759372
 20
315.0439932884317
 30
0.0
  0
LINE
  5
23E
330
231
100
AcDbEntity
  8
DV2_Default
  6
Continuous
 62
     7
100
AcDbLine
 10
183.2380004881
 20
315.2305467336
 30
0.0
 11
183.2380004881
 21
319.6541265805
 31
0.0
  0
LINE
  5
23F
330
231
100
AcDbEntity
  8
DV2_Default
  6
Continuous
 62
     7
100
AcDbLine
 10
183.2380004881
 20
279.6446978384
 30
0.0
 11
183.2380004881
 21
275.2211179915
 31
0.0
  0
SPLINE
  5
240
330
231
100
AcDbEntity
  8
DV2_Default
  6
Continuous
 62
     7
100
AcDbSpline
210
0.0
220
0.0
230
1.0
 70
     8
 71
     3
 72
    14
 73
    10
 74
     0
 42
0.0000000178835579
 43
0.0000000001
 40
0.0
 40
0.0
 40
0.0
 40
0.0
 40
0.2741478296179938
 40
0.2741478296179938
 40
0.5482956592359876
 40
0.5482956592359876
 40
0.8224434888539813
 40
0.8224434888539813
 40
1.0
 40
1.0
 40
1.0
 40
1.0
 10
183.2380004880868
 20
279.6446978383565
 30
0.0
 10
183.2380004880868
 20
279.6720128460141
 30
0.0
 10
183.2506860070829
 20
279.6963272166506
 30
0.0
 10
183.3008299380712
 20
279.7394434916759
 30
0.0
 10
183.3389456875876
 20
279.7584063995669
 30
0.0
 10
183.4385170377582
 20
279.7901961627724
 30
0.0
 10
183.4996018065574
 20
279.8031088736116
 30
0.0
 10
183.6189253939186
 20
279.8204976023101
 30
0.0
 10
183.6708020296256
 20
279.8263266215141
 30
0.0
 10
183.7265693759372
 20
279.8312512835227
 30
0.0
  0
LINE
  5
241
330
231
100
AcDbEntity
  8
DV2_Default
  6
Continuous
 62
     7
100
AcDbLine
 10
183.2380004881
 20
304.7430436022
 30
0.0
 11
183.2380004881
 21
314.8366017715
 31
0.0
  0
LINE
  5
242
330
231
100
AcDbEntity
  8
DV2_Default
  6
Continuous
 62
     7
100
AcDbLine
 10
167.446497866
 20
250.6147466304
 30
0.0
 11
163.6924088481
 21
250.6147466304
 31
0.0
  0
LINE
  5
243
330
231
100
AcDbEntity
  8
DV2_Default
  6
Continuous
 62
     7
100
AcDbLine
 10
167.446497866
 20
259.937622286
 30
0.0
 11
178.0295031102
 21
259.937622286
 31
0.0
  0
LINE
  5
244
330
231
100
AcDbEntity
  8
DV2_Default
  6
Continuous
 62
     7
100
AcDbLine
 10
167.446497866
 20
259.937622286
 30
0.0
 11
167.446497866
 21
250.6147466304
 31
0.0
  0
LINE
  5
245
330
231
100
AcDbEntity
  8
DV2_Default
  6
Continuous
 62
     7
100
AcDbLine
 10
178.0295031102
 20
250.6147466304
 30
0.0
 11
178.0295031102
 21
259.937622286
 31
0.0
  0
SPLINE
  5
246
330
231
100
AcDbEntity
  8
DV2_Default
  6
Continuous
 62
     7
100
AcDbSpline
210
0.0
220
0.0
230
1.0
 70
     8
 71
     3
 72
    26
 73
    22
 74
     0
 42
0.0000000009330355
 43
0.0000000001
 40
0.0
 40
0.0
 40
0.0
 40
0.0
 40
0.0624999999999998
 40
0.0624999999999998
 40
0.1249999999999996
 40
0.1249999999999996
 40
0.2499999999999993
 40
0.2499999999999993
 40
0.3749999999999989
 40
0.3749999999999989
 40
0.4999999999999986
 40
0.4999999999999986
 40
0.5624999999999983
 40
0.5624999999999983
 40
0.6249999999999982
 40
0.6249999999999982
 40
0.7499999999999988
 40
0.7499999999999988
 40
0.8749999999999994
 40
0.8749999999999994
 40
1.0
 40
1.0
 40
1.0
 40
1.0
 10
167.4464978659576
 20
250.6147466304449
 30
0.0
 10
167.6540887906884
 20
250.5288469374529
 30
0.0
 10
167.8670416439386
 20
250.459595269592
 30
0.0
 10
168.2953188637817
 20
250.3431751640915
 30
0.0
 10
168.511583050431
 20
250.2958620160409
 30
0.0
 10
169.1647157978404
 20
250.1761728198008
 30
0.0
 10
169.6058419896946
 20
250.125623789038
 30
0.0
 10
170.4938106450143
 20
250.0538305586065
 30
0.0
 10
170.938511431576
 20
250.0330633439073
 30
0.0
 10
171.8281847186304
 20
250.0067631713618
 30
0.0
 10
172.2732705279963
 20
250.0013000696469
 30
0.0
 10
172.9411568005782
 20
250.0010513236128
 30
0.0
 10
173.1665390998886
 20
250.0023825695447
 30
0.0
 10
173.6143935127346
 20
250.0081530677831
 30
0.0
 10
173.8382224307099
 20
250.0125907892499
 30
0.0
 10
174.509331369862
 20
250.031871562278
 30
0.0
 10
174.9562569813569
 20
250.052312537539
 30
0.0
 10
175.8482021865715
 20
250.1233001612947
 30
0.0
 10
176.2932515012916
 20
250.1733773646787
 30
0.0
 10
177.1794728186993
 20
250.3347741641453
 30
0.0
 10
177.6142337133778
 20
250.4429110179579
 30
0.0
 10
178.029503110216
 20
250.6147466304449
 30
0.0
  0
LINE
  5
247
330
231
100
AcDbEntity
  8
DV2_Default
  6
Continuous
 62
     7
100
AcDbLine
 10
181.7835921281
 20
250.6147466304
 30
0.0
 11
178.0295031102
 21
250.6147466304
 31
0.0
  0
LINE
  5
248
330
231
100
AcDbEntity
  8
DV2_Default
  6
Continuous
 62
     7
100
AcDbLine
 10
187.0750947502
 20
259.937622286
 30
0.0
 11
181.7835921281
 21
259.937622286
 31
0.0
  0
LINE
  5
249
330
231
100
AcDbEntity
  8
DV2_Default
  6
Continuous
 62
     7
100
AcDbLine
 10
187.0750947502
 20
259.937622286
 30
0.0
 11
187.0750947502
 21
250.6147466304
 31
0.0
  0
LINE
  5
24A
330
231
100
AcDbEntity
  8
DV2_Default
  6
Continuous
 62
     7
100
AcDbLine
 10
181.7835921281
 20
250.6147466304
 30
0.0
 11
181.7835921281
 21
259.937622286
 31
0.0
  0
SPLINE
  5
24B
330
231
100
AcDbEntity
  8
DV2_Default
  6
Continuous
 62
     7
100
AcDbSpline
210
0.0
220
0.0
230
1.0
 70
     8
 71
     3
 72
    21
 73
    17
 74
     0
 42
0.0000000018021258
 43
0.0000000001
 40
0.0
 40
0.0
 40
0.0
 40
0.0
 40
0.125
 40
0.125
 40
0.25
 40
0.25
 40
0.375
 40
0.375
 40
0.5
 40
0.625
 40
0.625
 40
0.75
 40
0.75
 40
0.875
 40
0.875
 40
1.0
 40
1.0
 40
1.0
 40
1.0
 10
187.0750947502413
 20
250.6147466304449
 30
0.0
 10
186.8660812266854
 20
250.4417699212953
 30
0.0
 10
186.6500677903157
 20
250.3350307372914
 30
0.0
 10
186.212382941172
 20
250.1750916581715
 30
0.0
 10
185.9900156819115
 20
250.1244531906404
 30
0.0
 10
185.544109928027
 20
250.0529504029429
 30
0.0
 10
185.3211576132314
 20
250.032393389326
 30
0.0
 10
184.8752535445413
 20
250.0064400719176
 30
0.0
 10
184.4293500431869
 20
249.9958213858169
 30
0.0
 10
183.983447327535
 20
250.0064396182278
 30
0.0
 10
183.5375451792048
 20
250.0323921022916
 30
0.0
 10
183.3145943854847
 20
250.0529485518456
 30
0.0
 10
182.8686939222785
 20
250.1244486018451
 30
0.0
 10
182.6463112873232
 20
250.1750891814581
 30
0.0
 10
182.2086160890622
 20
250.3350316240009
 30
0.0
 10
181.9926007217788
 20
250.4417740012035
 30
0.0
 10
181.7835921281121
 20
250.6147466304449
 30
0.0
  0
LINE
  5
24C
330
231
100
AcDbEntity
  8
DV2_Default
  6
Continuous
 62
     7
100
AcDbLine
 10
158.2380004881
 20
250.6147466304
 30
0.0
 11
158.4009062259
 21
250.6147466304
 31
0.0
  0
LINE
  5
24D
330
231
100
AcDbEntity
  8
DV2_Default
  6
Continuous
 62
     7
100
AcDbLine
 10
163.6924088481
 20
259.937622286
 30
0.0
 11
158.4009062259
 21
259.937622286
 31
0.0
  0
LINE
  5
24E
330
231
100
AcDbEntity
  8
DV2_Default
  6
Continuous
 62
     7
100
AcDbLine
 10
163.6924088481
 20
259.937622286
 30
0.0
 11
163.6924088481
 21
250.6147466304
 31
0.0
  0
LINE
  5
24F
330
231
100
AcDbEntity
  8
DV2_Default
  6
Continuous
 62
     7
100
AcDbLine
 10
158.4009062259
 20
250.6147466304
 30
0.0
 11
158.4009062259
 21
259.937622286
 31
0.0
  0
SPLINE
  5
250
330
231
100
AcDbEntity
  8
DV2_Default
  6
Continuous
 62
     7
100
AcDbSpline
210
0.0
220
0.0
230
1.0
 70
     8
 71
     3
 72
    21
 73
    17
 74
     0
 42
0.0000000018021258
 43
0.0000000001
 40
0.0
 40
0.0
 40
0.0
 40
0.0
 40
0.125
 40
0.125
 40
0.25
 40
0.25
 40
0.375
 40
0.375
 40
0.5
 40
0.625
 40
0.625
 40
0.75
 40
0.75
 40
0.875
 40
0.875
 40
1.0
 40
1.0
 40
1.0
 40
1.0
 10
163.6924088480615
 20
250.6147466304449
 30
0.0
 10
163.4833953245056
 20
250.4417699212952
 30
0.0
 10
163.2673818881358
 20
250.3350307372915
 30
0.0
 10
162.8296970389922
 20
250.1750916581715
 30
0.0
 10
162.6073297797316
 20
250.1244531906404
 30
0.0
 10
162.1614240258471
 20
250.0529504029429
 30
0.0
 10
161.9384717110515
 20
250.032393389326
 30
0.0
 10
161.4925676423615
 20
250.0064400719176
 30
0.0
 10
161.046664141007
 20
249.9958213858169
 30
0.0
 10
160.6007614253552
 20
250.0064396182279
 30
0.0
 10
160.1548592770249
 20
250.0323921022917
 30
0.0
 10
159.9319084833049
 20
250.0529485518456
 30
0.0
 10
159.4860080200986
 20
250.1244486018451
 30
0.0
 10
159.2636253851434
 20
250.1750891814581
 30
0.0
 10
158.8259301868824
 20
250.3350316240009
 30
0.0
 10
158.609914819599
 20
250.4417740012035
 30
0.0
 10
158.4009062259323
 20
250.6147466304449
 30
0.0
  0
LINE
  5
251
330
231
100
AcDbEntity
  8
DV2_Default
  6
Continuous
 62
     7
100
AcDbLine
 10
187.0750947502
 20
250.6147466304
 30
0.0
 11
187.2380004881
 21
250.6147466304
 31
0.0
  0
LINE
  5
252
330
231
100
AcDbEntity
  8
DV2_Default
  6
Continuous
 62
     7
100
AcDbLine
 10
167.446497866
 20
344.937622286
 30
0.0
 11
163.6924088481
 21
344.937622286
 31
0.0
  0
LINE
  5
253
330
231
100
AcDbEntity
  8
DV2_Default
  6
Continuous
 62
     7
100
AcDbLine
 10
167.446497866
 20
334.937622286
 30
0.0
 11
178.0295031102
 21
334.937622286
 31
0.0
  0
LINE
  5
254
330
231
100
AcDbEntity
  8
DV2_Default
  6
Continuous
 62
     7
100
AcDbLine
 10
167.446497866
 20
334.937622286
 30
0.0
 11
167.446497866
 21
344.937622286
 31
0.0
  0
LINE
  5
255
330
231
100
AcDbEntity
  8
DV2_Default
  6
Continuous
 62
     7
100
AcDbLine
 10
178.0295031102
 20
344.937622286
 30
0.0
 11
178.0295031102
 21
334.937622286
 31
0.0
  0
LINE
  5
256
330
231
100
AcDbEntity
  8
DV2_Default
  6
Continuous
 62
     7
100
AcDbLine
 10
178.0295031102
 20
344.937622286
 30
0.0
 11
167.446497866
 21
344.937622286
 31
0.0
  0
LINE
  5
257
330
231
100
AcDbEntity
  8
DV2_Default
  6
Continuous
 62
     7
100
AcDbLine
 10
181.7835921281
 20
344.937622286
 30
0.0
 11
178.0295031102
 21
344.937622286
 31
0.0
  0
LINE
  5
258
330
231
100
AcDbEntity
  8
DV2_Default
  6
Continuous
 62
     7
100
AcDbLine
 10
187.0750947502
 20
334.937622286
 30
0.0
 11
181.7835921281
 21
334.937622286
 31
0.0
  0
LINE
  5
259
330
231
100
AcDbEntity
  8
DV2_Default
  6
Continuous
 62
     7
100
AcDbLine
 10
187.0750947502
 20
334.937622286
 30
0.0
 11
187.0750947502
 21
344.937622286
 31
0.0
  0
LINE
  5
25A
330
231
100
AcDbEntity
  8
DV2_Default
  6
Continuous
 62
     7
100
AcDbLine
 10
181.7835921281
 20
344.937622286
 30
0.0
 11
181.7835921281
 21
334.937622286
 31
0.0
  0
LINE
  5
25B
330
231
100
AcDbEntity
  8
DV2_Default
  6
Continuous
 62
     7
100
AcDbLine
 10
181.7835921281
 20
344.937622286
 30
0.0
 11
187.0750947502
 21
344.937622286
 31
0.0
  0
LINE
  5
25C
330
231
100
AcDbEntity
  8
DV2_Default
  6
Continuous
 62
     7
100
AcDbLine
 10
158.2380004881
 20
344.937622286
 30
0.0
 11
158.4009062259
 21
344.937622286
 31
0.0
  0
LINE
  5
25D
330
231
100
AcDbEntity
  8
DV2_Default
  6
Continuous
 62
     7
100
AcDbLine
 10
163.6924088481
 20
334.937622286
 30
0.0
 11
158.4009062259
 21
334.937622286
 31
0.0
  0
LINE
  5
25E
330
231
100
AcDbEntity
  8
DV2_Default
  6
Continuous
 62
     7
100
AcDbLine
 10
163.6924088481
 20
334.937622286
 30
0.0
 11
163.6924088481
 21
344.937622286
 31
0.0
  0
LINE
  5
25F
330
231
100
AcDbEntity
  8
DV2_Default
  6
Continuous
 62
     7
100
AcDbLine
 10
158.4009062259
 20
344.937622286
 30
0.0
 11
158.4009062259
 21
334.937622286
 31
0.0
  0
LINE
  5
260
330
231
100
AcDbEntity
  8
DV2_Default
  6
Continuous
 62
     7
100
AcDbLine
 10
158.4009062259
 20
344.937622286
 30
0.0
 11
163.6924088481
 21
344.937622286
 31
0.0
  0
LINE
  5
261
330
231
100
AcDbEntity
  8
DV2_Default
  6
Continuous
 62
     7
100
AcDbLine
 10
187.2380004881
 20
344.937622286
 30
0.0
 11
187.0750947502
 21
344.937622286
 31
0.0
  0
ARC
  5
262
330
231
100
AcDbEntity
  8
DV2_Default
  6
Continuous
 62
     7
100
AcDbCircle
 10
159.7380004881
 20
251.937622286
 30
0.0
 40
2.000000000000002
100
AcDbArc
 50
221.4096221093
 51
270.0
  0
ARC
  5
263
330
231
100
AcDbEntity
  8
DV2_Default
  6
Continuous
 62
     7
100
AcDbCircle
 10
185.7380004881
 20
251.937622286
 30
0.0
 40
2.000000000000002
100
AcDbArc
 50
270.0
 51
318.5903778907
  0
LINE
  5
264
330
231
100
AcDbEntity
  8
DV2_Default
  6
Continuous
 62
     7
100
AcDbLine
 10
187.2380004881
 20
250.6147466304
 30
0.0
 11
187.2380004881
 21
263.2059487083
 31
0.0
  0
LINE
  5
265
330
231
100
AcDbEntity
  8
DV2_Default
  6
Continuous
 62
     7
100
AcDbLine
 10
158.2380004881
 20
263.0545623144
 30
0.0
 11
158.2380004881
 21
250.6147466304
 31
0.0
  0
LINE
  5
266
330
231
100
AcDbEntity
  8
DV2_Default
  6
Continuous
 62
     7
100
AcDbLine
 10
187.2380004881
 20
331.6692958636
 30
0.0
 11
187.2380004881
 21
344.937622286
 31
0.0
  0
LINE
  5
267
330
231
100
AcDbEntity
  8
DV2_Default
  6
Continuous
 62
     7
100
AcDbLine
 10
158.2380004881
 20
344.937622286
 30
0.0
 11
158.2380004881
 21
331.8206822576
 31
0.0
  0
LINE
  5
268
330
231
100
AcDbEntity
  8
DV2_Default
  6
Continuous
 62
     7
100
AcDbLine
 10
183.7380004881
 20
328.4541265805
 30
0.0
 11
183.6380004881
 21
328.4541265805
 31
0.0
  0
LINE
  5
269
330
231
100
AcDbEntity
  8
DV2_Default
  6
Continuous
 62
     7
100
AcDbLine
 10
183.6380004881
 20
319.4541265805
 30
0.0
 11
183.7380004881
 21
319.4541265805
 31
0.0
  0
ARC
  5
26A
330
231
100
AcDbEntity
  8
DV2_Default
  6
Continuous
 62
     7
100
AcDbCircle
 10
183.6380004881
 20
327.9541265805
 30
0.0
 40
0.5000000000000004
100
AcDbArc
 50
90.0
 51
180.0
  0
ARC
  5
26B
330
231
100
AcDbEntity
  8
DV2_Default
  6
Continuous
 62
     7
100
AcDbCircle
 10
183.6380004881
 20
319.9541265805
 30
0.0
 40
0.5000000000000004
100
AcDbArc
 50
180.0
 51
270.0
  0
LINE
  5
26C
330
231
100
AcDbEntity
  8
DV2_Default
  6
Continuous
 62
     7
100
AcDbLine
 10
214.2380004881
 20
315.3092102075
 30
0.0
 11
214.2380004881
 21
279.5660343644
 31
0.0
  0
LINE
  5
26D
330
231
100
AcDbEntity
  8
DV2_Default
  6
Continuous
 62
     7
100
AcDbLine
 10
266.4380004881
 20
314.4889507191
 30
0.0
 11
266.4380004881
 21
280.3862938529
 31
0.0
  0
LINE
  5
26E
330
231
100
AcDbEntity
  8
DV2_Default
  6
Continuous
 62
     7
100
AcDbLine
 10
265.9380035343
 20
279.8845485272
 30
0.0
 11
265.9380035343
 21
314.9906960448
 31
0.0
  0
LINE
  5
26F
330
231
100
AcDbEntity
  8
DV2_Default
  6
Continuous
 62
     7
100
AcDbLine
 10
264.7004229738
 20
279.8802285385
 30
0.0
 11
265.9380035343
 21
279.8845485272
 31
0.0
  0
LINE
  5
270
330
231
100
AcDbEntity
  8
DV2_Default
  6
Continuous
 62
     7
100
AcDbLine
 10
214.2380004881
 20
279.7040807389
 30
0.0
 11
262.1777547625
 21
279.8714227295
 31
0.0
  0
LINE
  5
271
330
231
100
AcDbEntity
  8
DV2_Default
  6
Continuous
 62
     7
100
AcDbLine
 10
262.1777547625
 20
315.0038218424
 30
0.0
 11
214.2380004881
 21
315.171163833
 31
0.0
  0
LINE
  5
272
330
231
100
AcDbEntity
  8
DV2_Default
  6
Continuous
 62
     7
100
AcDbLine
 10
265.9380035343
 20
314.9906960448
 30
0.0
 11
264.7004229738
 21
314.9950160334
 31
0.0
  0
LINE
  5
273
330
231
100
AcDbEntity
  8
DV2_Default
  6
Continuous
 62
     7
100
AcDbLine
 10
197.7380004881
 20
279.5084382652
 30
0.0
 11
214.2380004881
 21
279.5660343644
 31
0.0
  0
LINE
  5
274
330
231
100
AcDbEntity
  8
DV2_Default
  6
Continuous
 62
     7
100
AcDbLine
 10
214.2380004881
 20
315.3092102075
 30
0.0
 11
197.7380004881
 21
315.3668063068
 31
0.0
  0
ARC
  5
275
330
231
100
AcDbEntity
  8
DV2_Default
  6
Continuous
 62
     7
100
AcDbCircle
 10
263.4380004881
 20
314.687622286
 30
0.0
 40
1.000000000000146
100
AcDbArc
 50
32.5652996664
 51
147.0347003336
  0
ARC
  5
276
330
231
100
AcDbEntity
  8
DV2_Default
  6
Continuous
 62
     7
100
AcDbCircle
 10
263.4380004881
 20
280.187622286
 30
0.0
 40
1.000000000000089
100
AcDbArc
 50
212.9652996664
 51
327.4347003336
  0
LINE
  5
277
330
231
100
AcDbEntity
  8
DV2_Default
  6
Continuous
 62
     7
100
AcDbLine
 10
265.9380035343
 20
279.8845485272
 30
0.0
 11
266.4380004881
 21
280.3862938529
 31
0.0
  0
LINE
  5
278
330
231
100
AcDbEntity
  8
DV2_Default
  6
Continuous
 62
     7
100
AcDbLine
 10
266.4380004881
 20
314.4889507191
 30
0.0
 11
265.9380035343
 21
314.9906960448
 31
0.0
  0
ARC
  5
279
330
231
100
AcDbEntity
  8
DV2_Default
  6
Continuous
 62
     7
100
AcDbCircle
 10
262.1795000882
 20
279.3714257757
 30
0.0
 40
0.4999999999999986
100
AcDbArc
 50
32.9652996664
 51
90.1999999999
  0
ARC
  5
27A
330
231
100
AcDbEntity
  8
DV2_Default
  6
Continuous
 62
     7
100
AcDbCircle
 10
264.7021682995
 20
279.3802315847
 30
0.0
 40
0.4999999999998536
100
AcDbArc
 50
90.2
 51
147.4347003336
  0
ARC
  5
27B
330
231
100
AcDbEntity
  8
DV2_Default
  6
Continuous
 62
     7
100
AcDbCircle
 10
262.1795000882
 20
315.5038187963
 30
0.0
 40
0.4999999999999212
100
AcDbArc
 50
269.8000000001
 51
327.0347003336
  0
ARC
  5
27C
330
231
100
AcDbEntity
  8
DV2_Default
  6
Continuous
 62
     7
100
AcDbCircle
 10
264.7021682995
 20
315.4950129872
 30
0.0
 40
0.5
100
AcDbArc
 50
212.5652996664
 51
269.8
  0
LINE
  5
27D
330
231
100
AcDbEntity
  8
DV2_Default
  6
Continuous
 62
     7
100
AcDbLine
 10
189.3380004881
 20
242.437622286
 30
0.0
 11
189.3380004881
 21
247.437622286
 31
0.0
  0
LINE
  5
27E
330
231
100
AcDbEntity
  8
DV2_Default
  6
Continuous
 62
     7
100
AcDbLine
 10
189.3380004881
 20
247.437622286
 30
0.0
 11
189.3380004881
 21
270.1873557474
 31
0.0
  0
LINE
  5
27F
330
231
100
AcDbEntity
  8
DV2_Default
  6
Continuous
 62
     7
100
AcDbLine
 10
205.7380004881
 20
242.5807429177
 30
0.0
 11
205.7380004881
 21
247.437622286
 31
0.0
  0
LINE
  5
280
330
231
100
AcDbEntity
  8
DV2_Default
  6
Continuous
 62
     7
100
AcDbLine
 10
205.7380004881
 20
247.437622286
 30
0.0
 11
205.7380004881
 21
251.437622286
 31
0.0
  0
LINE
  5
281
330
231
100
AcDbEntity
  8
DV2_Default
  6
Continuous
 62
     7
100
AcDbLine
 10
197.7380004881
 20
252.3643165965
 30
0.0
 11
205.7380004881
 21
252.2945016542
 31
0.0
  0
LINE
  5
282
330
231
100
AcDbEntity
  8
DV2_Default
  6
Continuous
 62
     7
100
AcDbLine
 10
205.7380004881
 20
252.2945016542
 30
0.0
 11
205.7380004881
 21
251.437622286
 31
0.0
  0
LINE
  5
283
330
231
100
AcDbEntity
  8
DV2_Default
  6
Continuous
 62
     7
100
AcDbLine
 10
189.3380004881
 20
324.6878888245
 30
0.0
 11
189.3380004881
 21
347.437622286
 31
0.0
  0
LINE
  5
284
330
231
100
AcDbEntity
  8
DV2_Default
  6
Continuous
 62
     7
100
AcDbLine
 10
189.3380004881
 20
347.437622286
 30
0.0
 11
189.3380004881
 21
352.437622286
 31
0.0
  0
LINE
  5
285
330
231
100
AcDbEntity
  8
DV2_Default
  6
Continuous
 62
     7
100
AcDbLine
 10
205.7380004881
 20
347.437622286
 30
0.0
 11
205.7380004881
 21
352.2945016542
 31
0.0
  0
LINE
  5
286
330
231
100
AcDbEntity
  8
DV2_Default
  6
Continuous
 62
     7
100
AcDbLine
 10
205.7380004881
 20
342.5807429177
 30
0.0
 11
198.2336372203
 21
342.5152533317
 31
0.0
  0
LINE
  5
287
330
231
100
AcDbEntity
  8
DV2_Default
  6
Continuous
 62
     7
100
AcDbLine
 10
205.7380004881
 20
343.437622286
 30
0.0
 11
205.7380004881
 21
347.437622286
 31
0.0
  0
LINE
  5
288
330
231
100
AcDbEntity
  8
DV2_Default
  6
Continuous
 62
     7
100
AcDbLine
 10
205.7380004881
 20
343.437622286
 30
0.0
 11
205.7380004881
 21
342.5807429177
 31
0.0
  0
LINE
  5
289
330
231
100
AcDbEntity
  8
DV2_Default
  6
Continuous
 62
     7
100
AcDbLine
 10
198.0380004881
 20
326.2543261396
 30
0.0
 11
197.7380004881
 21
326.2606466963
 31
0.0
  0
LINE
  5
28A
330
231
100
AcDbEntity
  8
DV2_Default
  6
Continuous
 62
     7
100
AcDbLine
 10
198.0380004881
 20
323.6633440865
 30
0.0
 11
197.7380004881
 21
323.6624571279
 31
0.0
  0
LINE
  5
28B
330
231
100
AcDbEntity
  8
DV2_Default
  6
Continuous
 62
     7
100
AcDbLine
 10
198.0380004881
 20
322.748814037
 30
0.0
 11
197.7380004881
 21
322.7479270783
 31
0.0
  0
LINE
  5
28C
330
231
100
AcDbEntity
  8
DV2_Default
  6
Continuous
 62
     7
100
AcDbLine
 10
198.0380004881
 20
320.7616985362
 30
0.0
 11
197.7380004881
 21
320.7643165965
 31
0.0
  0
LINE
  5
28D
330
231
100
AcDbEntity
  8
DV2_Default
  6
Continuous
 62
     7
100
AcDbLine
 10
198.0380004881
 20
318.6350240354
 30
0.0
 11
197.7380004881
 21
318.6282170785
 31
0.0
  0
LINE
  5
28E
330
231
100
AcDbEntity
  8
DV2_Default
  6
Continuous
 62
     7
100
AcDbLine
 10
198.0380004881
 20
326.2543261396
 30
0.0
 11
198.0380004881
 21
323.6633440865
 31
0.0
  0
LINE
  5
28F
330
231
100
AcDbEntity
  8
DV2_Default
  6
Continuous
 62
     7
100
AcDbLine
 10
198.0380004881
 20
323.6633440865
 30
0.0
 11
198.0380004881
 21
322.748814037
 31
0.0
  0
LINE
  5
290
330
231
100
AcDbEntity
  8
DV2_Default
  6
Continuous
 62
     7
100
AcDbLine
 10
198.0380004881
 20
322.748814037
 30
0.0
 11
198.0380004881
 21
320.7616985362
 31
0.0
  0
LINE
  5
291
330
231
100
AcDbEntity
  8
DV2_Default
  6
Continuous
 62
     7
100
AcDbLine
 10
198.0380004881
 20
320.7616985362
 30
0.0
 11
198.0380004881
 21
318.6350240354
 31
0.0
  0
LINE
  5
292
330
231
100
AcDbEntity
  8
DV2_Default
  6
Continuous
 62
     7
100
AcDbLine
 10
183.7380004881
 20
331.6387518263
 30
0.0
 11
189.3380004881
 21
331.687622286
 31
0.0
  0
LINE
  5
293
330
231
100
AcDbEntity
  8
DV2_Default
  6
Continuous
 62
     7
100
AcDbLine
 10
189.3380004881
 20
324.6878888245
 30
0.0
 11
189.3380004881
 21
270.1873557474
 31
0.0
  0
LINE
  5
294
330
231
100
AcDbEntity
  8
DV2_Default
  6
Continuous
 62
     7
100
AcDbLine
 10
183.7380004881
 20
324.6390183649
 30
0.0
 11
183.7380004881
 21
306.0336559101
 31
0.0
  0
LINE
  5
295
330
231
100
AcDbEntity
  8
DV2_Default
  6
Continuous
 62
     7
100
AcDbLine
 10
183.7380004881
 20
324.6390183649
 30
0.0
 11
183.7380004881
 21
331.6387518263
 31
0.0
  0
LINE
  5
296
330
231
100
AcDbEntity
  8
DV2_Default
  6
Continuous
 62
     7
100
AcDbLine
 10
189.3380004881
 20
263.187622286
 30
0.0
 11
183.7380004881
 21
263.2364927456
 31
0.0
  0
LINE
  5
297
330
231
100
AcDbEntity
  8
DV2_Default
  6
Continuous
 62
     7
100
AcDbLine
 10
183.7380004881
 20
263.2364927456
 30
0.0
 11
183.7380004881
 21
270.2362262071
 31
0.0
  0
LINE
  5
298
330
231
100
AcDbEntity
  8
DV2_Default
  6
Continuous
 62
     7
100
AcDbLine
 10
186.5467270236
 20
305.0178333143
 30
0.0
 11
184.7292739526
 21
305.033693987
 31
0.0
  0
ARC
  5
299
330
231
100
AcDbEntity
  8
DV2_Default
  6
Continuous
 62
     7
100
AcDbCircle
 10
186.5380004881
 20
304.0178713913
 30
0.0
 40
0.9999999999999986
100
AcDbArc
 50
0.0
 51
89.5
  0
LINE
  5
29A
330
231
100
AcDbEntity
  8
DV2_Default
  6
Continuous
 62
     7
100
AcDbLine
 10
187.5380004881
 20
290.8573731807
 30
0.0
 11
187.5380004881
 21
304.0178713913
 31
0.0
  0
ARC
  5
29B
330
231
100
AcDbEntity
  8
DV2_Default
  6
Continuous
 62
     7
100
AcDbCircle
 10
186.5380004881
 20
290.8573731807
 30
0.0
 40
1.000000000000001
100
AcDbArc
 50
270.5
 51
0.0
  0
ARC
  5
29C
330
231
100
AcDbEntity
  8
DV2_Default
  6
Continuous
 62
     7
100
AcDbCircle
 10
184.7380004881
 20
306.0336559101
 30
0.0
 40
0.999999999999994
100
AcDbArc
 50
180.0
 51
269.5
  0
LINE
  5
29D
330
231
100
AcDbEntity
  8
DV2_Default
  6
Continuous
 62
     7
100
AcDbLine
 10
184.7292739526
 20
289.841550585
 30
0.0
 11
186.5467270236
 21
289.8574112576
 31
0.0
  0
LINE
  5
29E
330
231
100
AcDbEntity
  8
DV2_Default
  6
Continuous
 62
     7
100
AcDbLine
 10
183.7380004881
 20
288.8415886619
 30
0.0
 11
183.7380004881
 21
270.2362262071
 31
0.0
  0
ARC
  5
29F
330
231
100
AcDbEntity
  8
DV2_Default
  6
Continuous
 62
     7
100
AcDbCircle
 10
184.7380004881
 20
288.8415886619
 30
0.0
 40
1.0
100
AcDbArc
 50
90.5
 51
180.0
  0
LINE
  5
2A0
330
231
100
AcDbEntity
  8
DV2_Default
  6
Continuous
 62
     7
100
AcDbLine
 10
181.4115817543
 20
263.2567950943
 30
0.0
 11
182.7467270236
 21
263.2451434581
 31
0.0
  0
LINE
  5
2A1
330
231
100
AcDbEntity
  8
DV2_Default
  6
Continuous
 62
     7
100
AcDbLine
 10
183.7380004881
 20
263.2364927456
 30
0.0
 11
182.7467270236
 21
263.2451434581
 31
0.0
  0
LINE
  5
2A2
330
231
100
AcDbEntity
  8
DV2_Default
  6
Continuous
 62
     7
100
AcDbLine
 10
182.7467270236
 20
331.6301011139
 30
0.0
 11
183.7380004881
 21
331.6387518263
 31
0.0
  0
LINE
  5
2A3
330
231
100
AcDbEntity
  8
DV2_Default
  6
Continuous
 62
     7
100
AcDbLine
 10
181.4115817543
 20
331.6184494776
 30
0.0
 11
182.7467270236
 21
331.6301011139
 31
0.0
  0
SPLINE
  5
2A4
330
231
100
AcDbEntity
  8
DV2_Default
  6
Continuous
 62
     7
100
AcDbSpline
210
0.0
220
0.0
230
1.0
 70
     8
 71
     3
 72
    12
 73
     8
 74
     0
 42
0.0000000103298015
 43
0.0000000001
 40
0.0
 40
0.0
 40
0.0
 40
0.0
 40
0.2500000000000016
 40
0.2500000000000016
 40
0.5000000000000031
 40
0.5000000000000031
 40
1.0
 40
1.0
 40
1.0
 40
1.0
 10
197.7380004880868
 20
252.2579685420103
 30
0.0
 10
197.7380004880868
 20
252.2130858394666
 30
0.0
 10
197.7165796197754
 20
252.1561513721551
 30
0.0
 10
197.6527145359146
 20
252.0299454932097
 30
0.0
 10
197.609888241448
 20
251.9603070900628
 30
0.0
 10
197.4681808747354
 20
251.7452091010514
 30
0.0
 10
197.3545407769795
 20
251.5907018088921
 30
0.0
 10
197.242363755836
 20
251.4376222859772
 30
0.0
  0
LINE
  5
2A5
330
231
100
AcDbEntity
  8
DV2_Default
  6
Continuous
 62
     7
100
AcDbLine
 10
183.7380004881
 20
329.7923446995
 30
0.0
 11
183.1380004881
 21
329.7975808201
 31
0.0
  0
LINE
  5
2A6
330
231
100
AcDbEntity
  8
DV2_Default
  6
Continuous
 62
     7
100
AcDbLine
 10
183.1380004881
 20
266.1320998256
 30
0.0
 11
183.7380004881
 21
266.1635444931
 31
0.0
  0
LINE
  5
2A7
330
231
100
AcDbEntity
  8
DV2_Default
  6
Continuous
 62
     7
100
AcDbLine
 10
183.7380004881
 20
328.7117000788
 30
0.0
 11
183.1380004881
 21
328.7431447464
 31
0.0
  0
LINE
  5
2A8
330
231
100
AcDbEntity
  8
DV2_Default
  6
Continuous
 62
     7
100
AcDbLine
 10
197.7380004881
 20
342.0821574514
 30
0.0
 11
197.7380004881
 21
252.257968542
 31
0.0
  0
ARC
  5
2A9
330
231
100
AcDbEntity
  8
DV2_Default
  6
Continuous
 62
     7
100
AcDbCircle
 10
198.2380004881
 20
342.0152723701
 30
0.0
 40
0.5000000000000004
100
AcDbArc
 50
90.5
 51
180.0
  0
ARC
  5
2AA
330
231
100
AcDbEntity
  8
DV2_Default
  6
Continuous
 62
     7
100
AcDbCircle
 10
198.2380004881
 20
252.8599722018
 30
0.0
 40
0.5000000000000004
100
AcDbArc
 50
180.0
 51
269.5
  0
LINE
  5
2AB
330
231
100
AcDbEntity
  8
DV2_Default
  6
Continuous
 62
     7
100
AcDbLine
 10
189.3380004881
 20
242.437622286
 30
0.0
 11
205.7380004881
 21
242.5807429177
 31
0.0
  0
LINE
  5
2AC
330
231
100
AcDbEntity
  8
DV2_Default
  6
Continuous
 62
     7
100
AcDbLine
 10
205.7380004881
 20
352.2945016542
 30
0.0
 11
189.3380004881
 21
352.437622286
 31
0.0
  0
SPLINE
  5
2AD
330
231
100
AcDbEntity
  8
DV2_Default
  6
Continuous
 62
     7
100
AcDbSpline
210
0.0
220
0.0
230
1.0
 70
     8
 71
     3
 72
    11
 73
     7
 74
     0
 42
0.0000000196972677
 43
0.0000000001
 40
0.0
 40
0.0
 40
0.0
 40
0.0
 40
0.2871539781845031
 40
0.585092046242049
 40
0.8906355230331766
 40
0.9999999999999999
 40
0.9999999999999999
 40
0.9999999999999999
 40
0.9999999999999999
 10
198.0366361824082
 20
252.3658157254665
 30
0.0
 10
198.0034988016232
 20
252.3702758597705
 30
0.0
 10
197.9140513328394
 20
252.4020888128987
 30
0.0
 10
197.7920156979421
 20
252.5133709875507
 30
0.0
 10
197.7389266315769
 20
252.6489775606665
 30
0.0
 10
197.7407450736985
 20
252.7012414403267
 30
0.0
 10
197.7416130132536
 20
252.7174507801109
 30
0.0
  0
LINE
  5
2AE
330
231
100
AcDbEntity
  8
DV2_Default
  6
Continuous
 62
     7
100
AcDbLine
 10
198.1256263345
 20
252.3639677342
 30
0.0
 11
198.079998102
 21
252.3649152613
 31
0.0
  0
LINE
  5
2AF
330
231
100
AcDbEntity
  8
DV2_Default
  6
Continuous
 62
     7
100
AcDbLine
 10
145.3380004881
 20
297.937622286
 30
0.0
 11
145.3380004881
 21
296.937622286
 31
0.0
  0
LINE
  5
2B0
330
231
100
AcDbEntity
  8
DV2_Default
  6
Continuous
 62
     7
100
AcDbLine
 10
152.3380004881
 20
296.9987103605
 30
0.0
 11
147.3554535591
 21
296.9552283322
 31
0.0
  0
LINE
  5
2B1
330
231
100
AcDbEntity
  8
DV2_Default
  6
Continuous
 62
     7
100
AcDbLine
 10
152.3380004881
 20
296.9987103605
 30
0.0
 11
152.3380004881
 21
297.8765342114
 31
0.0
  0
LINE
  5
2B2
330
231
100
AcDbEntity
  8
DV2_Default
  6
Continuous
 62
     7
100
AcDbLine
 10
146.3380004881
 20
296.9463491538
 30
0.0
 11
146.3380004881
 21
297.9288954182
 31
0.0
  0
LINE
  5
2B3
330
231
100
AcDbEntity
  8
DV2_Default
  6
Continuous
 62
     7
100
AcDbLine
 10
183.1380004881
 20
324.6036497881
 30
0.0
 11
183.1380004881
 21
305.1789334966
 31
0.0
  0
LINE
  5
2B4
330
231
100
AcDbEntity
  8
DV2_Default
  6
Continuous
 62
     7
100
AcDbLine
 10
183.1380004881
 20
324.6036497881
 30
0.0
 11
155.8292739526
 21
324.8419694342
 31
0.0
  0
LINE
  5
2B5
330
231
100
AcDbEntity
  8
DV2_Default
  6
Continuous
 62
     7
100
AcDbLine
 10
183.1380004881
 20
331.6033832496
 30
0.0
 11
183.1380004881
 21
324.6036497881
 31
0.0
  0
LINE
  5
2B6
330
231
100
AcDbEntity
  8
DV2_Default
  6
Continuous
 62
     7
100
AcDbLine
 10
183.1380004881
 20
263.2718613224
 30
0.0
 11
155.8292739526
 21
263.0335416764
 31
0.0
  0
LINE
  5
2B7
330
231
100
AcDbEntity
  8
DV2_Default
  6
Continuous
 62
     7
100
AcDbLine
 10
183.1380004881
 20
270.2715947838
 30
0.0
 11
183.1380004881
 21
263.2718613224
 31
0.0
  0
LINE
  5
2B8
330
231
100
AcDbEntity
  8
DV2_Default
  6
Continuous
 62
     7
100
AcDbLine
 10
147.3554535591
 20
296.9552283322
 30
0.0
 11
147.3554535591
 21
292.5073859389
 31
0.0
  0
LINE
  5
2B9
330
231
100
AcDbEntity
  8
DV2_Default
  6
Continuous
 62
     7
100
AcDbLine
 10
145.3380004881
 20
296.937622286
 30
0.0
 11
147.3554535591
 21
296.9552283322
 31
0.0
  0
LINE
  5
2BA
330
231
100
AcDbEntity
  8
DV2_Default
  6
Continuous
 62
     7
100
AcDbLine
 10
147.3554535591
 20
297.9200162398
 30
0.0
 11
152.3380004881
 21
297.8765342114
 31
0.0
  0
LINE
  5
2BB
330
231
100
AcDbEntity
  8
DV2_Default
  6
Continuous
 62
     7
100
AcDbLine
 10
147.3554535591
 20
297.9200162398
 30
0.0
 11
145.3380004881
 21
297.937622286
 31
0.0
  0
LINE
  5
2BC
330
231
100
AcDbEntity
  8
DV2_Default
  6
Continuous
 62
     7
100
AcDbLine
 10
145.3380004881
 20
297.937622286
 30
0.0
 11
145.3380004881
 21
302.8506328603
 31
0.0
  0
LINE
  5
2BD
330
231
100
AcDbEntity
  8
DV2_Default
  6
Continuous
 62
     7
100
AcDbLine
 10
154.8380004881
 20
256.937622286
 30
0.0
 11
154.8380004881
 21
251.5162021745
 31
0.0
  0
LINE
  5
2BE
330
231
100
AcDbEntity
  8
DV2_Default
  6
Continuous
 62
     7
100
AcDbLine
 10
154.8380004881
 20
264.7615787359
 30
0.0
 11
154.8380004881
 21
256.937622286
 31
0.0
  0
LINE
  5
2BF
330
231
100
AcDbEntity
  8
DV2_Default
  6
Continuous
 62
     7
100
AcDbLine
 10
155.8292739526
 20
270.0332751378
 30
0.0
 11
183.1380004881
 21
270.2715947838
 31
0.0
  0
LINE
  5
2C0
330
231
100
AcDbEntity
  8
DV2_Default
  6
Continuous
 62
     7
100
AcDbLine
 10
153.8467270236
 20
256.937622286
 30
0.0
 11
145.1406184487
 21
256.937622286
 31
0.0
  0
ARC
  5
2C1
330
231
100
AcDbEntity
  8
DV2_Default
  6
Continuous
 62
     7
100
AcDbCircle
 10
179.4103094596
 20
262.8701240566
 30
0.0
 40
24.64499886375356
100
AcDbArc
 50
163.1029257931
 51
175.5983344105
  0
ARC
  5
2C2
330
231
100
AcDbEntity
  8
DV2_Default
  6
Continuous
 62
     7
100
AcDbCircle
 10
155.8380004881
 20
262.0335797533
 30
0.0
 40
1.000000000000003
100
AcDbArc
 50
90.5
 51
180.0
  0
LINE
  5
2C3
330
231
100
AcDbEntity
  8
DV2_Default
  6
Continuous
 62
     7
100
AcDbLine
 10
154.8380004881
 20
337.937622286
 30
0.0
 11
154.8380004881
 21
330.1136658361
 31
0.0
  0
LINE
  5
2C4
330
231
100
AcDbEntity
  8
DV2_Default
  6
Continuous
 62
     7
100
AcDbLine
 10
154.8380004881
 20
343.3590423975
 30
0.0
 11
154.8380004881
 21
337.937622286
 31
0.0
  0
LINE
  5
2C5
330
231
100
AcDbEntity
  8
DV2_Default
  6
Continuous
 62
     7
100
AcDbLine
 10
155.8292739526
 20
331.8417028956
 30
0.0
 11
183.1380004881
 21
331.6033832496
 31
0.0
  0
ELLIPSE
  5
2C6
330
231
100
AcDbEntity
  8
DV2_Default
  6
Continuous
 62
     7
100
AcDbEllipse
 10
155.8380004881
 20
324.8413601916
 30
0.0
 11
0.008726643976253098
 21
-7.000342704427443
 31
0.0
210
0.0
220
0.0
230
0.9999999999999999
 40
0.0012464765
 41
3.141580222278764
 42
4.71230039613162
  0
ARC
  5
2C7
330
231
100
AcDbEntity
  8
DV2_Default
  6
Continuous
 62
     7
100
AcDbCircle
 10
155.8380004881
 20
332.8416648187
 30
0.0
 40
1.000000000000003
100
AcDbArc
 50
180.0
 51
269.5
  0
ARC
  5
2C8
330
231
100
AcDbEntity
  8
DV2_Default
  6
Continuous
 62
     7
100
AcDbCircle
 10
179.4103094596
 20
332.0051205154
 30
0.0
 40
24.64499886375416
100
AcDbArc
 50
184.4016655895
 51
196.8970742069
  0
LINE
  5
2C9
330
231
100
AcDbEntity
  8
DV2_Default
  6
Continuous
 62
     7
100
AcDbLine
 10
145.3380004881
 20
292.0246117117
 30
0.0
 11
145.3380004881
 21
296.937622286
 31
0.0
  0
LINE
  5
2CA
330
231
100
AcDbEntity
  8
DV2_Default
  6
Continuous
 62
     7
100
AcDbLine
 10
145.3380004881
 20
286.8506328603
 30
0.0
 11
145.3380004881
 21
292.0246117117
 31
0.0
  0
LINE
  5
2CB
330
231
100
AcDbEntity
  8
DV2_Default
  6
Continuous
 62
     7
100
AcDbLine
 10
159.8380004881
 20
291.871075192
 30
0.0
 11
159.8380004881
 21
287.0041693799
 31
0.0
  0
LINE
  5
2CC
330
231
100
AcDbEntity
  8
DV2_Default
  6
Continuous
 62
     7
100
AcDbLine
 10
147.3554535591
 20
286.367858633
 30
0.0
 11
147.3554535591
 21
257.8859125559
 31
0.0
  0
LINE
  5
2CD
330
231
100
AcDbEntity
  8
DV2_Default
  6
Continuous
 62
     7
100
AcDbLine
 10
147.3554535591
 20
302.367858633
 30
0.0
 11
147.3554535591
 21
297.9200162398
 31
0.0
  0
LINE
  5
2CE
330
231
100
AcDbEntity
  8
DV2_Default
  6
Continuous
 62
     7
100
AcDbLine
 10
159.8380004881
 20
307.871075192
 30
0.0
 11
159.8380004881
 21
303.0041693799
 31
0.0
  0
LINE
  5
2CF
330
231
100
AcDbEntity
  8
DV2_Default
  6
Continuous
 62
     7
100
AcDbLine
 10
145.3380004881
 20
308.0246117117
 30
0.0
 11
145.3380004881
 21
332.8245963191
 31
0.0
  0
LINE
  5
2D0
330
231
100
AcDbEntity
  8
DV2_Default
  6
Continuous
 62
     7
100
AcDbLine
 10
145.3380004881
 20
302.8506328603
 30
0.0
 11
145.3380004881
 21
308.0246117117
 31
0.0
  0
LINE
  5
2D1
330
231
100
AcDbEntity
  8
DV2_Default
  6
Continuous
 62
     7
100
AcDbLine
 10
183.1380004881
 20
289.6963110754
 30
0.0
 11
183.1380004881
 21
270.2715947838
 31
0.0
  0
ARC
  5
2D2
330
231
100
AcDbEntity
  8
DV2_Default
  6
Continuous
 62
     7
100
AcDbCircle
 10
184.1380004881
 20
289.6963110754
 30
0.0
 40
1.000000000000001
100
AcDbArc
 50
90.5
 51
180.0
  0
LINE
  5
2D3
330
231
100
AcDbEntity
  8
DV2_Default
  6
Continuous
 62
     7
100
AcDbLine
 10
185.9467270236
 20
290.7121336711
 30
0.0
 11
184.1292739526
 21
290.6962729984
 31
0.0
  0
ARC
  5
2D4
330
231
100
AcDbEntity
  8
DV2_Default
  6
Continuous
 62
     7
100
AcDbCircle
 10
185.9380004881
 20
291.7120955942
 30
0.0
 40
1.000000000000003
100
AcDbArc
 50
270.5
 51
360.0
  0
ARC
  5
2D5
330
231
100
AcDbEntity
  8
DV2_Default
  6
Continuous
 62
     7
100
AcDbCircle
 10
184.1380004881
 20
305.1789334966
 30
0.0
 40
1.0
100
AcDbArc
 50
180.0
 51
269.5
  0
LINE
  5
2D6
330
231
100
AcDbEntity
  8
DV2_Default
  6
Continuous
 62
     7
100
AcDbLine
 10
186.9380004881
 20
303.1631489778
 30
0.0
 11
186.9380004881
 21
291.7120955942
 31
0.0
  0
LINE
  5
2D7
330
231
100
AcDbEntity
  8
DV2_Default
  6
Continuous
 62
     7
100
AcDbLine
 10
185.9467270236
 20
304.1631109008
 30
0.0
 11
184.1292739526
 21
304.1789715735
 31
0.0
  0
ARC
  5
2D8
330
231
100
AcDbEntity
  8
DV2_Default
  6
Continuous
 62
     7
100
AcDbCircle
 10
185.9380004881
 20
303.1631489778
 30
0.0
 40
1.000000000000001
100
AcDbArc
 50
0.0
 51
89.5
  0
ARC
  5
2D9
330
231
100
AcDbEntity
  8
DV2_Default
  6
Continuous
 62
     7
100
AcDbCircle
 10
148.433970129
 20
249.4881965016
 30
0.0
 40
8.439502993095015
100
AcDbArc
 50
98.0921358132
 51
112.9688440724
  0
LINE
  5
2DA
330
231
100
AcDbEntity
  8
DV2_Default
  6
Continuous
 62
     7
100
AcDbLine
 10
145.3380004881
 20
262.0596016301
 30
0.0
 11
145.3380004881
 21
286.8506328603
 31
0.0
  0
SPLINE
  5
2DB
330
231
100
AcDbEntity
  8
DV2_Default
  6
Continuous
 62
     7
100
AcDbSpline
210
0.0
220
0.0
230
1.0
 70
     8
 71
     3
 72
    16
 73
    12
 74
     0
 42
0.0000000020677814
 43
0.0000000001
 40
0.0
 40
0.0
 40
0.0
 40
0.0
 40
0.5
 40
0.5
 40
0.7499999999999983
 40
0.7499999999999983
 40
0.8749999999999992
 40
0.8749999999999992
 40
0.9374999999999996
 40
0.9374999999999996
 40
1.0
 40
1.0
 40
1.0
 40
1.0
 10
145.3380004880868
 20
262.0596016301226
 30
0.0
 10
145.3380004880868
 20
261.4250243399769
 30
0.0
 10
145.6043638915391
 20
260.6894827451049
 30
0.0
 10
146.1005785331375
 20
259.5687528232838
 30
0.0
 10
146.2878523696573
 20
259.1855820563692
 30
0.0
 10
146.6044641482678
 20
258.6177370873139
 30
0.0
 10
146.7150399048193
 20
258.4287227232817
 30
0.0
 10
146.9068840671932
 20
258.1607545731745
 30
0.0
 10
146.9744849471582
 20
258.0734527934289
 30
0.0
 10
147.13830469098
 20
257.9240793752473
 30
0.0
 10
147.2456890356674
 20
257.8621368256008
 30
0.0
 10
147.3554535590835
 20
257.8859125559314
 30
0.0
  0
ARC
  5
2DC
330
231
100
AcDbEntity
  8
DV2_Default
  6
Continuous
 62
     7
100
AcDbCircle
 10
147.1812375977
 20
258.1744048236
 30
0.0
 40
0.3370148212017428
100
AcDbArc
 50
281.0757863368
 51
301.1271202843
  0
ARC
  5
2DD
330
231
100
AcDbEntity
  8
DV2_Default
  6
Continuous
 62
     7
100
AcDbCircle
 10
145.1324050503
 20
257.2736423531
 30
0.0
 40
0.0171456828681766
100
AcDbArc
 50
271.2021518026
 51
298.6224571961
  0
LINE
  5
2DE
330
231
100
AcDbEntity
  8
DV2_Default
  6
Continuous
 62
     7
100
AcDbLine
 10
144.8380004881
 20
256.937622286
 30
0.0
 11
144.8380004881
 21
257.2490573698
 31
0.0
  0
LINE
  5
2DF
330
231
100
AcDbEntity
  8
DV2_Default
  6
Continuous
 62
     7
100
AcDbLine
 10
144.8380004881
 20
250.7402517698
 30
0.0
 11
144.8380004881
 21
256.937622286
 31
0.0
  0
LINE
  5
2E0
330
231
100
AcDbEntity
  8
DV2_Default
  6
Continuous
 62
     7
100
AcDbLine
 10
144.8380004881
 20
263.1495510191
 30
0.0
 11
144.8380004881
 21
261.6142150653
 31
0.0
  0
LINE
  5
2E1
330
231
100
AcDbEntity
  8
DV2_Default
  6
Continuous
 62
     7
100
AcDbLine
 10
144.8380004881
 20
261.0318701309
 30
0.0
 11
144.8380004881
 21
261.6142150653
 31
0.0
  0
LINE
  5
2E2
330
231
100
AcDbEntity
  8
DV2_Default
  6
Continuous
 62
     7
100
AcDbLine
 10
144.8380004881
 20
257.2490573698
 30
0.0
 11
144.8380004881
 21
261.0318701309
 31
0.0
  0
ARC
  5
2E3
330
231
100
AcDbEntity
  8
DV2_Default
  6
Continuous
 62
     7
100
AcDbCircle
 10
145.0594386594
 20
254.3199756155
 30
0.0
 40
2.937440175945254
100
AcDbArc
 50
88.5696005224
 51
94.3233290096
  0
ARC
  5
2E4
330
231
100
AcDbEntity
  8
DV2_Default
  6
Continuous
 62
     7
100
AcDbCircle
 10
148.432999155
 20
345.3835540726
 30
0.0
 40
8.435907118634889
100
AcDbArc
 50
247.0279673227
 51
261.9110527918
  0
ARC
  5
2E5
330
231
100
AcDbEntity
  8
DV2_Default
  6
Continuous
 62
     7
100
AcDbCircle
 10
145.1326336525
 20
337.6024606273
 30
0.0
 40
0.0162840283529309
100
AcDbArc
 50
60.6367226568
 51
89.5386683449
  0
LINE
  5
2E6
330
231
100
AcDbEntity
  8
DV2_Default
  6
Continuous
 62
     7
100
AcDbLine
 10
144.8380004881
 20
337.937622286
 30
0.0
 11
144.8380004881
 21
344.1349928021
 31
0.0
  0
LINE
  5
2E7
330
231
100
AcDbEntity
  8
DV2_Default
  6
Continuous
 62
     7
100
AcDbLine
 10
144.8380004881
 20
337.6261872022
 30
0.0
 11
144.8380004881
 21
337.937622286
 31
0.0
  0
LINE
  5
2E8
330
231
100
AcDbEntity
  8
DV2_Default
  6
Continuous
 62
     7
100
AcDbLine
 10
144.8380004881
 20
337.6261872022
 30
0.0
 11
144.8380004881
 21
331.7324314649
 31
0.0
  0
ARC
  5
2E9
330
231
100
AcDbEntity
  8
DV2_Default
  6
Continuous
 62
     7
100
AcDbCircle
 10
145.0594386594
 20
340.5552689565
 30
0.0
 40
2.937440175898787
100
AcDbArc
 50
265.6766709903
 51
271.4303994776
  0
LINE
  5
2EA
330
231
100
AcDbEntity
  8
DV2_Default
  6
Continuous
 62
     7
100
AcDbLine
 10
147.3554535591
 20
336.989332016
 30
0.0
 11
147.3554535591
 21
308.5073859389
 31
0.0
  0
ARC
  5
2EB
330
231
100
AcDbEntity
  8
DV2_Default
  6
Continuous
 62
     7
100
AcDbCircle
 10
148.2215680113
 20
332.7805749836
 30
0.0
 40
2.883903524521882
100
AcDbArc
 50
166.6278749416
 51
179.1253748006
  0
SPLINE
  5
2EC
330
231
100
AcDbEntity
  8
DV2_Default
  6
Continuous
 62
     7
100
AcDbSpline
210
0.0
220
0.0
230
1.0
 70
     8
 71
     3
 72
    20
 73
    16
 74
     0
 42
0.0000000023994808
 43
0.0000000001
 40
0.0
 40
0.0
 40
0.0
 40
0.0
 40
0.0312499999999998
 40
0.0312499999999998
 40
0.0624999999999995
 40
0.0624999999999995
 40
0.1249999999999991
 40
0.1249999999999991
 40
0.2499999999999988
 40
0.2499999999999988
 40
0.4999999999999992
 40
0.4999999999999992
 40
0.7499999999999996
 40
0.7499999999999996
 40
1.0
 40
1.0
 40
1.0
 40
1.0
 10
147.3554535590835
 20
336.9893320160231
 30
0.0
 10
147.3087808730465
 20
336.9994416321584
 30
0.0
 10
147.2603520358295
 20
336.9952889521059
 30
0.0
 10
147.1715932081003
 20
336.9638951692671
 30
0.0
 10
147.1311747462219
 20
336.9381148414182
 30
0.0
 10
147.0211819668684
 20
336.8508139936447
 30
0.0
 10
146.9599065406837
 20
336.7791015049298
 30
0.0
 10
146.7897395798422
 20
336.5601064397481
 30
0.0
 10
146.6921927718016
 20
336.4021652688156
 30
0.0
 10
146.4146354947399
 20
335.9292196715086
 30
0.0
 10
146.2518911633616
 20
335.6105467532961
 30
0.0
 10
145.9506684899298
 20
334.9780165768821
 30
0.0
 10
145.8129939774098
 20
334.6616998319399
 30
0.0
 10
145.5769337538965
 20
334.0394085850643
 30
0.0
 10
145.4801108220104
 20
333.7383448784117
 30
0.0
 10
145.4158514064701
 20
333.4475486504356
 30
0.0
  0
ARC
  5
2ED
330
231
100
AcDbEntity
  8
DV2_Default
  6
Continuous
 62
     7
100
AcDbCircle
 10
147.1809977563
 20
336.7002182318
 30
0.0
 40
0.3376708565943022
100
AcDbArc
 50
58.8925584963
 51
78.9045348766
  0
LINE
  5
2EE
330
231
100
AcDbEntity
  8
DV2_Default
  6
Continuous
 62
     7
100
AcDbLine
 10
144.8380004881
 20
331.7256935529
 30
0.0
 11
144.8380004881
 21
331.7324314649
 31
0.0
  0
LINE
  5
2EF
330
231
100
AcDbEntity
  8
DV2_Default
  6
Continuous
 62
     7
100
AcDbLine
 10
145.1406184487
 20
250.4402631929
 30
0.0
 11
153.8467270236
 21
250.5162402514
 31
0.0
  0
LINE
  5
2F0
330
231
100
AcDbEntity
  8
DV2_Default
  6
Continuous
 62
     7
100
AcDbLine
 10
153.8467270236
 20
344.3590043205
 30
0.0
 11
145.1406184487
 21
344.434981379
 31
0.0
  0
ARC
  5
2F1
330
231
100
AcDbEntity
  8
DV2_Default
  6
Continuous
 62
     7
100
AcDbCircle
 10
153.8380004881
 20
251.5162021745
 30
0.0
 40
1.000000000000003
100
AcDbArc
 50
270.5
 51
0.0
  0
ARC
  5
2F2
330
231
100
AcDbEntity
  8
DV2_Default
  6
Continuous
 62
     7
100
AcDbCircle
 10
153.8380004881
 20
343.3590423975
 30
0.0
 40
1.000000000000001
100
AcDbArc
 50
0.0
 51
89.5
  0
ARC
  5
2F3
330
231
100
AcDbEntity
  8
DV2_Default
  6
Continuous
 62
     7
100
AcDbCircle
 10
159.3380004881
 20
287.0041693799
 30
0.0
 40
0.5000000000000026
100
AcDbArc
 50
270.6516011348
 51
0.0
  0
LINE
  5
2F4
330
231
100
AcDbEntity
  8
DV2_Default
  6
Continuous
 62
     7
100
AcDbLine
 10
145.8436866581
 20
286.3506651939
 30
0.0
 11
159.3436866581
 21
286.5042017135
 31
0.0
  0
ARC
  5
2F5
330
231
100
AcDbEntity
  8
DV2_Default
  6
Continuous
 62
     7
100
AcDbCircle
 10
159.3380004881
 20
291.871075192
 30
0.0
 40
0.5000000000000004
100
AcDbArc
 50
0.0
 51
89.3483988652
  0
ARC
  5
2F6
330
231
100
AcDbEntity
  8
DV2_Default
  6
Continuous
 62
     7
100
AcDbCircle
 10
145.8380004881
 20
286.8506328603
 30
0.0
 40
0.5
100
AcDbArc
 50
180.0
 51
270.6516011348
  0
LINE
  5
2F7
330
231
100
AcDbEntity
  8
DV2_Default
  6
Continuous
 62
     7
100
AcDbLine
 10
159.3436866581
 20
292.3710428584
 30
0.0
 11
145.8436866581
 21
292.5245793781
 31
0.0
  0
ARC
  5
2F8
330
231
100
AcDbEntity
  8
DV2_Default
  6
Continuous
 62
     7
100
AcDbCircle
 10
145.8380004881
 20
292.0246117117
 30
0.0
 40
0.5000000000000008
100
AcDbArc
 50
89.3483988652
 51
180.0
  0
LINE
  5
2F9
330
231
100
AcDbEntity
  8
DV2_Default
  6
Continuous
 62
     7
100
AcDbLine
 10
145.8436866581
 20
302.3506651939
 30
0.0
 11
159.3436866581
 21
302.5042017135
 31
0.0
  0
ARC
  5
2FA
330
231
100
AcDbEntity
  8
DV2_Default
  6
Continuous
 62
     7
100
AcDbCircle
 10
145.8380004881
 20
302.8506328603
 30
0.0
 40
0.4999999999999999
100
AcDbArc
 50
180.0
 51
270.6516011348
  0
ARC
  5
2FB
330
231
100
AcDbEntity
  8
DV2_Default
  6
Continuous
 62
     7
100
AcDbCircle
 10
159.3380004881
 20
303.0041693799
 30
0.0
 40
0.4999999999999998
100
AcDbArc
 50
270.6516011348
 51
0.0
  0
LINE
  5
2FC
330
231
100
AcDbEntity
  8
DV2_Default
  6
Continuous
 62
     7
100
AcDbLine
 10
159.3436866581
 20
308.3710428584
 30
0.0
 11
145.8436866581
 21
308.5245793781
 31
0.0
  0
ARC
  5
2FD
330
231
100
AcDbEntity
  8
DV2_Default
  6
Continuous
 62
     7
100
AcDbCircle
 10
145.8380004881
 20
308.0246117117
 30
0.0
 40
0.5000000000000026
100
AcDbArc
 50
89.3483988652
 51
180.0
  0
ARC
  5
2FE
330
231
100
AcDbEntity
  8
DV2_Default
  6
Continuous
 62
     7
100
AcDbCircle
 10
159.3380004881
 20
307.871075192
 30
0.0
 40
0.5000000000000004
100
AcDbArc
 50
0.0
 51
89.3483988652
  0
ARC
  5
2FF
330
231
100
AcDbEntity
  8
DV2_Default
  6
Continuous
 62
     7
100
AcDbCircle
 10
145.0380004881
 20
331.1340855746
 30
0.0
 40
0.3000000000000039
100
AcDbArc
 50
0.0
 51
80.4059317731
  0
ARC
  5
300
330
231
100
AcDbEntity
  8
DV2_Default
  6
Continuous
 62
     7
100
AcDbCircle
 10
145.0380004881
 20
263.7411589974
 30
0.0
 40
0.2999999999999999
100
AcDbArc
 50
279.5940682269
 51
0.0
  0
ARC
  5
301
330
231
100
AcDbEntity
  8
DV2_Default
  6
Continuous
 62
     7
100
AcDbCircle
 10
145.1380004881
 20
250.7402517698
 30
0.0
 40
0.3
100
AcDbArc
 50
180.0
 51
270.5
  0
ARC
  5
302
330
231
100
AcDbEntity
  8
DV2_Default
  6
Continuous
 62
     7
100
AcDbCircle
 10
145.1380004881
 20
263.1495510191
 30
0.0
 40
0.3000000000000037
100
AcDbArc
 50
99.5940682269
 51
180.0
  0
ARC
  5
303
330
231
100
AcDbEntity
  8
DV2_Default
  6
Continuous
 62
     7
100
AcDbCircle
 10
145.1380004881
 20
344.1349928021
 30
0.0
 40
0.2999999999999976
100
AcDbArc
 50
89.5
 51
180.0
  0
ARC
  5
304
330
231
100
AcDbEntity
  8
DV2_Default
  6
Continuous
 62
     7
100
AcDbCircle
 10
145.1380004881
 20
331.7324314649
 30
0.0
 40
0.3
100
AcDbArc
 50
180.0
 51
260.4059317731
  0
ARC
  5
305
330
231
100
AcDbEntity
  8
DV2_Default
  6
Continuous
 62
     7
100
AcDbCircle
 10
145.0380004881
 20
331.1408234866
 30
0.0
 40
0.3000000000000109
100
AcDbArc
 50
0.0
 51
80.4059317731
  0
ARC
  5
306
330
231
100
AcDbEntity
  8
DV2_Default
  6
Continuous
 62
     7
100
AcDbCircle
 10
145.1380004881
 20
331.7256935529
 30
0.0
 40
0.3
100
AcDbArc
 50
180.0
 51
260.4059317731
  0
ENDBLK
  5
308
330
231
100
AcDbEntity
  8
0
100
AcDbBlockEnd
  0
BLOCK
  5
3D4
330
309
100
AcDbEntity
  8
0
100
AcDbBlockBegin
  2
SE2
 70
     0
 10
0.0
 20
0.0
 30
0.0
  3
SE2
  1

  0
LINE
  5
30C
330
309
100
AcDbEntity
  8
DV3_Default
  6
Continuous
 62
     7
100
AcDbLine
 10
89.2207618032
 20
173.0214466079
 30
0.0
 11
89.2207618032
 21
172.8661069853
 31
0.0
  0
LINE
  5
30D
330
309
100
AcDbEntity
  8
DV3_Default
  6
Continuous
 62
     7
100
AcDbLine
 10
89.2207618032
 20
173.5686138204
 30
0.0
 11
89.2207618032
 21
173.0214466079
 31
0.0
  0
LINE
  5
30E
330
309
100
AcDbEntity
  8
DV3_Default
  6
Continuous
 62
     7
100
AcDbLine
 10
55.2207618032
 20
173.0214466079
 30
0.0
 11
55.2207618032
 21
173.5661135279
 31
0.0
  0
LINE
  5
30F
330
309
100
AcDbEntity
  8
DV3_Default
  6
Continuous
 62
     7
100
AcDbLine
 10
55.2207618032
 20
172.8661069853
 30
0.0
 11
55.2207618032
 21
173.0214466079
 31
0.0
  0
ELLIPSE
  5
310
330
309
100
AcDbEntity
  8
DV3_Default
  6
Continuous
 62
     7
100
AcDbEllipse
 10
86.9428997372
 20
167.6655979032
 30
0.0
 11
1.732016227521905
 21
-1.000059892006168
 31
0.0
210
0.0
220
0.0
230
1.0
 40
0.99983031
 41
3.141592653589793
 42
4.069731519013074
  0
ELLIPSE
  5
311
330
309
100
AcDbEntity
  8
DV3_Default
  6
Continuous
 62
     7
100
AcDbEllipse
 10
57.4986238693
 20
167.6655979032
 30
0.0
 11
1.732016227551605
 21
1.000059891954758
 31
0.0
210
0.0
220
0.0
230
1.0
 40
0.99983031
 41
5.355046441786046
 42
6.283185307179586
  0
LINE
  5
312
330
309
100
AcDbEntity
  8
DV3_Default
  6
Continuous
 62
     7
100
AcDbLine
 10
72.2207618032
 20
169.6658023756
 30
0.0
 11
72.2207618032
 21
185.4816069853
 31
0.0
  0
LINE
  5
313
330
309
100
AcDbEntity
  8
DV3_Default
  6
Continuous
 62
     7
100
AcDbLine
 10
72.2207618032
 20
167.6661069853
 30
0.0
 11
72.2207618032
 21
169.6658023756
 31
0.0
  0
ARC
  5
314
330
309
100
AcDbEntity
  8
DV3_Default
  6
Continuous
 62
     7
100
AcDbCircle
 10
72.2207618032
 20
176.1661069853
 30
0.0
 40
14.49999999999999
100
AcDbArc
 50
321.4033496394
 51
338.5966503606
  0
SPLINE
  5
315
330
309
100
AcDbEntity
  8
DV3_Default
  6
Continuous
 62
     7
100
AcDbSpline
210
0.0
220
0.0
230
1.0
 70
     8
 71
     3
 72
    12
 73
     8
 74
     0
 42
0.0000000015215181
 43
0.0000000001
 40
0.0
 40
0.0
 40
0.0
 40
0.0
 40
0.4146291517274662
 40
0.4146291517274662
 40
0.8292583034549321
 40
0.8292583034549321
 40
1.0
 40
1.0
 40
1.0
 40
1.0
 10
62.79981040438988
 20
187.8385392399792
 30
0.0
 10
63.50717578148693
 20
188.4094617943748
 30
0.0
 10
64.2247621340852
 20
188.9666307302267
 30
0.0
 10
65.69892082402191
 20
190.0285080160882
 30
0.0
 10
66.45657930959034
 20
190.5340634050691
 30
0.0
 10
67.55721971431527
 20
191.1884869899316
 30
0.0
 10
67.88212948236243
 20
191.3723961472988
 30
0.0
 10
68.21143955068588
 20
191.5483831342518
 30
0.0
  0
SPLINE
  5
316
330
309
100
AcDbEntity
  8
DV3_Default
  6
Continuous
 62
     7
100
AcDbSpline
210
0.0
220
0.0
230
1.0
 70
     8
 71
     3
 72
    12
 73
     8
 74
     0
 42
0.0000000015121992
 43
0.0000000001
 40
0.0
 40
0.0
 40
0.0
 40
0.0
 40
0.1758282816176555
 40
0.1758282816176555
 40
0.5879141408088279
 40
0.5879141408088279
 40
1.0
 40
1.0
 40
1.0
 40
1.0
 10
76.19435633664659
 20
191.5674360986617
 30
0.0
 10
76.5359002117412
 20
191.3856824644939
 30
0.0
 10
76.87269948479889
 20
191.1953867892096
 30
0.0
 10
77.9849442968913
 20
190.5340634050694
 30
0.0
 10
78.74260278245882
 20
190.028508016087
 30
0.0
 10
80.21676147239839
 20
188.966630730229
 30
0.0
 10
80.93434782499509
 20
188.4094617943749
 30
0.0
 10
81.64171320209222
 20
187.8385392399792
 30
0.0
  0
SPLINE
  5
317
330
309
100
AcDbEntity
  8
DV3_Default
  6
Continuous
 62
     7
100
AcDbSpline
210
0.0
220
0.0
230
1.0
 70
     8
 71
     3
 72
    12
 73
     8
 74
     0
 42
0.0000000040374934
 43
0.0000000001
 40
0.0
 40
0.0
 40
0.0
 40
0.0
 40
0.4749593736975363
 40
0.4749593736975363
 40
0.9499187473950726
 40
0.9499187473950726
 40
1.0
 40
1.0
 40
1.0
 40
1.0
 10
84.9264156117997
 20
168.1932554692276
 30
0.0
 10
84.71667769163508
 20
167.8590140251505
 30
0.0
 10
84.57949244385388
 20
167.4954327713598
 30
0.0
 10
84.3799696268509
 20
166.7380023690989
 30
0.0
 10
84.31872291163556
 20
166.3493291903113
 30
0.0
 10
84.25127028723637
 20
165.9205562133418
 30
0.0
 10
84.24482734674656
 20
165.8796593929686
 30
0.0
 10
84.23835253204928
 20
165.8387693336389
 30
0.0
  0
SPLINE
  5
318
330
309
100
AcDbEntity
  8
DV3_Default
  6
Continuous
 62
     7
100
AcDbSpline
210
0.0
220
0.0
230
1.0
 70
     8
 71
     3
 72
    12
 73
     8
 74
     0
 42
0.0000000040438159
 43
0.0000000001
 40
0.0
 40
0.0
 40
0.0
 40
0.0
 40
0.0485956402569261
 40
0.0485956402569261
 40
0.524297820128463
 40
0.524297820128463
 40
1.0
 40
1.0
 40
1.0
 40
1.0
 10
60.2025655277726
 20
165.8425941130971
 30
0.0
 10
60.19629449676891
 20
165.8822096563451
 30
0.0
 10
60.19005271214306
 20
165.9218314032307
 30
0.0
 10
60.12280069484655
 20
166.3493291903113
 30
0.0
 10
60.06155397963123
 20
166.7380023690989
 30
0.0
 10
59.86203116262823
 20
167.4954327713598
 30
0.0
 10
59.72484591484702
 20
167.8590140251505
 30
0.0
 10
59.5151079946824
 20
168.1932554692276
 30
0.0
  0
ARC
  5
319
330
309
100
AcDbEntity
  8
DV3_Default
  6
Continuous
 62
     7
100
AcDbCircle
 10
72.2207618032
 20
176.1661069853
 30
0.0
 40
15.0
100
AcDbArc
 50
327.8915549479
 51
51.0926102581
  0
ARC
  5
31A
330
309
100
AcDbEntity
  8
DV3_Default
  6
Continuous
 62
     7
100
AcDbCircle
 10
72.2207618032
 20
176.1661069853
 30
0.0
 40
15.0
100
AcDbArc
 50
128.9073897419
 51
212.1084450521
  0
LINE
  5
31B
330
309
100
AcDbEntity
  8
DV3_Default
  6
Continuous
 62
     7
100
AcDbLine
 10
72.2207618032
 20
167.6661069853
 30
0.0
 11
76.1830215704
 21
167.7352684868
 31
0.0
  0
LINE
  5
31C
330
309
100
AcDbEntity
  8
DV3_Default
  6
Continuous
 62
     7
100
AcDbLine
 10
68.2585020361
 20
167.7352684868
 30
0.0
 11
72.2207618032
 21
167.6661069853
 31
0.0
  0
CIRCLE
  5
31D
330
309
100
AcDbEntity
  8
DV3_Default
  6
Continuous
 62
     7
100
AcDbCircle
 10
72.2207618032
 20
176.1661069853
 30
0.0
 40
10.8155
  0
CIRCLE
  5
31E
330
309
100
AcDbEntity
  8
DV3_Default
  6
Continuous
 62
     7
100
AcDbCircle
 10
72.2207618032
 20
176.1661069853
 30
0.0
 40
9.3155
  0
LINE
  5
31F
330
309
100
AcDbEntity
  8
DV3_Default
  6
Continuous
 62
     7
100
AcDbLine
 10
65.9033256144
 20
161.6661069853
 30
0.0
 11
72.2207618032
 21
161.6661069853
 31
0.0
  0
LINE
  5
320
330
309
100
AcDbEntity
  8
DV3_Default
  6
Continuous
 62
     7
100
AcDbLine
 10
72.2207618032
 20
161.6661069853
 30
0.0
 11
78.5381979921
 21
161.6661069853
 31
0.0
  0
LINE
  5
321
330
309
100
AcDbEntity
  8
DV3_Default
  6
Continuous
 62
     7
100
AcDbLine
 10
50.0042575087
 20
165.6661069853
 30
0.0
 11
50.0954759964
 21
165.6661069853
 31
0.0
  0
LINE
  5
322
330
309
100
AcDbEntity
  8
DV3_Default
  6
Continuous
 62
     7
100
AcDbLine
 10
94.4372660977
 20
165.6661069853
 30
0.0
 11
94.3460476101
 21
165.6661069853
 31
0.0
  0
ARC
  5
323
330
309
100
AcDbEntity
  8
DV3_Default
  6
Continuous
 62
     7
100
AcDbCircle
 10
72.2207618032
 20
176.1661069853
 30
0.0
 40
14.49999999999999
100
AcDbArc
 50
338.5966503606
 51
21.4033496394
  0
LINE
  5
324
330
309
100
AcDbEntity
  8
DV3_Default
  6
Continuous
 62
     7
100
AcDbLine
 10
85.7207618032
 20
170.8746043632
 30
0.0
 11
85.7207618032
 21
181.4576096074
 31
0.0
  0
ARC
  5
325
330
309
100
AcDbEntity
  8
DV3_Default
  6
Continuous
 62
     7
100
AcDbCircle
 10
72.2207618032
 20
176.1661069853
 30
0.0
 40
14.49999999999999
100
AcDbArc
 50
141.4033496394
 51
158.5966503606
  0
ARC
  5
326
330
309
100
AcDbEntity
  8
DV3_Default
  6
Continuous
 62
     7
100
AcDbCircle
 10
72.2207618032
 20
176.1661069853
 30
0.0
 40
14.5
100
AcDbArc
 50
158.5966503606
 51
201.4033496394
  0
LINE
  5
327
330
309
100
AcDbEntity
  8
DV3_Default
  6
Continuous
 62
     7
100
AcDbLine
 10
58.7207618032
 20
170.8746043632
 30
0.0
 11
58.7207618032
 21
181.4576096074
 31
0.0
  0
ARC
  5
328
330
309
100
AcDbEntity
  8
DV3_Default
  6
Continuous
 62
     7
100
AcDbCircle
 10
72.2207618032
 20
176.1661069853
 30
0.0
 40
14.49999999999999
100
AcDbArc
 50
201.4033496394
 51
218.5966503606
  0
ARC
  5
329
330
309
100
AcDbEntity
  8
DV3_Default
  6
Continuous
 62
     7
100
AcDbCircle
 10
72.2207618032
 20
176.1661069853
 30
0.0
 40
14.5
100
AcDbArc
 50
218.5966503606
 51
261.4033496394
  0
LINE
  5
32A
330
309
100
AcDbEntity
  8
DV3_Default
  6
Continuous
 62
     7
100
AcDbLine
 10
60.8881861083
 20
167.1205153453
 30
0.0
 11
70.0533374982
 21
161.8290127231
 31
0.0
  0
ARC
  5
32B
330
309
100
AcDbEntity
  8
DV3_Default
  6
Continuous
 62
     7
100
AcDbCircle
 10
72.2207618032
 20
176.1661069853
 30
0.0
 40
14.49999999999999
100
AcDbArc
 50
21.4033496394
 51
38.5966503606
  0
ARC
  5
32C
330
309
100
AcDbEntity
  8
DV3_Default
  6
Continuous
 62
     7
100
AcDbCircle
 10
72.2207618032
 20
176.1661069853
 30
0.0
 40
14.49999999999999
100
AcDbArc
 50
38.5966503606
 51
81.4033496394
  0
LINE
  5
32D
330
309
100
AcDbEntity
  8
DV3_Default
  6
Continuous
 62
     7
100
AcDbLine
 10
74.3881861083
 20
190.5032012474
 30
0.0
 11
83.5533374982
 21
185.2116986253
 31
0.0
  0
ARC
  5
32E
330
309
100
AcDbEntity
  8
DV3_Default
  6
Continuous
 62
     7
100
AcDbCircle
 10
72.2207618032
 20
176.1661069853
 30
0.0
 40
14.49999999999999
100
AcDbArc
 50
81.4033496394
 51
98.5966503606
  0
ARC
  5
32F
330
309
100
AcDbEntity
  8
DV3_Default
  6
Continuous
 62
     7
100
AcDbCircle
 10
72.2207618032
 20
176.1661069853
 30
0.0
 40
14.49999999999999
100
AcDbArc
 50
98.5966503606
 51
141.4033496394
  0
LINE
  5
330
330
309
100
AcDbEntity
  8
DV3_Default
  6
Continuous
 62
     7
100
AcDbLine
 10
70.0533374982
 20
190.5032012474
 30
0.0
 11
60.8881861083
 21
185.2116986253
 31
0.0
  0
ARC
  5
331
330
309
100
AcDbEntity
  8
DV3_Default
  6
Continuous
 62
     7
100
AcDbCircle
 10
72.2207618032
 20
176.1661069853
 30
0.0
 40
14.49999999999999
100
AcDbArc
 50
261.4033496394
 51
278.5966503606
  0
ARC
  5
332
330
309
100
AcDbEntity
  8
DV3_Default
  6
Continuous
 62
     7
100
AcDbCircle
 10
72.2207618032
 20
176.1661069853
 30
0.0
 40
14.5
100
AcDbArc
 50
278.5966503606
 51
321.4033496394
  0
LINE
  5
333
330
309
100
AcDbEntity
  8
DV3_Default
  6
Continuous
 62
     7
100
AcDbLine
 10
83.5533374982
 20
167.1205153453
 30
0.0
 11
74.3881861083
 21
161.8290127231
 31
0.0
  0
ARC
  5
334
330
309
100
AcDbEntity
  8
DV3_Default
  6
Continuous
 62
     7
100
AcDbCircle
 10
86.2519903081
 20
168.0443981864
 30
0.0
 40
1.209932983078742
100
AcDbArc
 50
150.1135204066
 51
151.3155724162
  0
ARC
  5
335
330
309
100
AcDbEntity
  8
DV3_Default
  6
Continuous
 62
     7
100
AcDbCircle
 10
58.2844259003
 20
168.0977486989
 30
0.0
 40
1.101072828210029
100
AcDbArc
 50
28.5524830695
 51
29.9687907522
  0
ARC
  5
336
330
309
100
AcDbEntity
  8
DV3_Default
  6
Continuous
 62
     7
100
AcDbCircle
 10
72.2207618032
 20
176.1661069853
 30
0.0
 40
10.4775
100
AcDbArc
 50
255.0
 51
195.0
  0
LINE
  5
337
330
309
100
AcDbEntity
  8
DV3_Default
  6
Continuous
 62
     7
100
AcDbLine
 10
41.2042575087
 20
165.2661069853
 30
0.0
 11
41.2042575087
 21
165.1661069853
 31
0.0
  0
ARC
  5
338
330
309
100
AcDbEntity
  8
DV3_Default
  6
Continuous
 62
     7
100
AcDbCircle
 10
49.7042575087
 20
165.2661069853
 30
0.0
 40
0.5000000000000004
100
AcDbArc
 50
44.1053630046
 51
90.0
  0
ARC
  5
339
330
309
100
AcDbEntity
  8
DV3_Default
  6
Continuous
 62
     7
100
AcDbCircle
 10
41.7042575087
 20
165.2661069853
 30
0.0
 40
0.5000000000000004
100
AcDbArc
 50
90.0
 51
180.0
  0
LINE
  5
33A
330
309
100
AcDbEntity
  8
DV3_Default
  6
Continuous
 62
     7
100
AcDbLine
 10
54.3491738817
 20
134.6661069853
 30
0.0
 11
90.0923497248
 21
134.6661069853
 31
0.0
  0
LINE
  5
33B
330
309
100
AcDbEntity
  8
DV3_Default
  6
Continuous
 62
     7
100
AcDbLine
 10
55.1694333702
 20
82.4661069853
 30
0.0
 11
89.2720902363
 21
82.4661069853
 31
0.0
  0
LINE
  5
33C
330
309
100
AcDbEntity
  8
DV3_Default
  6
Continuous
 62
     7
100
AcDbLine
 10
54.6676880445
 20
82.9661039391
 30
0.0
 11
89.773835562
 21
82.9661039391
 31
0.0
  0
LINE
  5
33D
330
309
100
AcDbEntity
  8
DV3_Default
  6
Continuous
 62
     7
100
AcDbLine
 10
54.6633680558
 20
84.2036844995
 30
0.0
 11
54.6676880445
 21
82.9661039391
 31
0.0
  0
LINE
  5
33E
330
309
100
AcDbEntity
  8
DV3_Default
  6
Continuous
 62
     7
100
AcDbLine
 10
54.4872202562
 20
134.6661069853
 30
0.0
 11
54.6545622468
 21
86.7263527109
 31
0.0
  0
LINE
  5
33F
330
309
100
AcDbEntity
  8
DV3_Default
  6
Continuous
 62
     7
100
AcDbLine
 10
89.7869613597
 20
86.7263527109
 30
0.0
 11
89.9543033503
 21
134.6661069853
 31
0.0
  0
LINE
  5
340
330
309
100
AcDbEntity
  8
DV3_Default
  6
Continuous
 62
     7
100
AcDbLine
 10
89.773835562
 20
82.9661039391
 30
0.0
 11
89.7781555507
 21
84.2036844995
 31
0.0
  0
LINE
  5
341
330
309
100
AcDbEntity
  8
DV3_Default
  6
Continuous
 62
     7
100
AcDbLine
 10
54.2915777824
 20
151.1661069853
 30
0.0
 11
54.3491738817
 21
134.6661069853
 31
0.0
  0
LINE
  5
342
330
309
100
AcDbEntity
  8
DV3_Default
  6
Continuous
 62
     7
100
AcDbLine
 10
90.0923497248
 20
134.6661069853
 30
0.0
 11
90.149945824
 21
151.1661069853
 31
0.0
  0
ARC
  5
343
330
309
100
AcDbEntity
  8
DV3_Default
  6
Continuous
 62
     7
100
AcDbCircle
 10
89.4707618032
 20
85.4661069853
 30
0.0
 40
1.000000000000146
100
AcDbArc
 50
302.5652996664
 51
57.0347003336
  0
ARC
  5
344
330
309
100
AcDbEntity
  8
DV3_Default
  6
Continuous
 62
     7
100
AcDbCircle
 10
54.9707618032
 20
85.4661069853
 30
0.0
 40
1.000000000000019
100
AcDbArc
 50
122.9652996664
 51
237.4347003336
  0
LINE
  5
345
330
309
100
AcDbEntity
  8
DV3_Default
  6
Continuous
 62
     7
100
AcDbLine
 10
54.6676880445
 20
82.9661039391
 30
0.0
 11
55.1694333702
 21
82.4661069853
 31
0.0
  0
LINE
  5
346
330
309
100
AcDbEntity
  8
DV3_Default
  6
Continuous
 62
     7
100
AcDbLine
 10
89.2720902363
 20
82.4661069853
 30
0.0
 11
89.773835562
 21
82.9661039391
 31
0.0
  0
ARC
  5
347
330
309
100
AcDbEntity
  8
DV3_Default
  6
Continuous
 62
     7
100
AcDbCircle
 10
54.154565293
 20
86.7246073852
 30
0.0
 40
0.4999999999999982
100
AcDbArc
 50
302.9652996664
 51
0.2
  0
ARC
  5
348
330
309
100
AcDbEntity
  8
DV3_Default
  6
Continuous
 62
     7
100
AcDbCircle
 10
54.163371102
 20
84.2019391738
 30
0.0
 40
0.499999999999951
100
AcDbArc
 50
0.1999999999
 51
57.4347003336
  0
ARC
  5
349
330
309
100
AcDbEntity
  8
DV3_Default
  6
Continuous
 62
     7
100
AcDbCircle
 10
90.2869583135
 20
86.7246073852
 30
0.0
 40
0.4999999999999212
100
AcDbArc
 50
179.8
 51
237.0347003336
  0
ARC
  5
34A
330
309
100
AcDbEntity
  8
DV3_Default
  6
Continuous
 62
     7
100
AcDbCircle
 10
90.2781525045
 20
84.2019391738
 30
0.0
 40
0.5
100
AcDbArc
 50
122.5652996664
 51
179.8000000001
  0
LINE
  5
34B
330
309
100
AcDbEntity
  8
DV3_Default
  6
Continuous
 62
     7
100
AcDbLine
 10
106.4707618032
 20
159.5661069853
 30
0.0
 11
106.3276411715
 21
143.1661069853
 31
0.0
  0
LINE
  5
34C
330
309
100
AcDbEntity
  8
DV3_Default
  6
Continuous
 62
     7
100
AcDbLine
 10
96.7722986993
 20
159.5661069853
 30
0.0
 11
106.4707618032
 21
159.5661069853
 31
0.0
  0
LINE
  5
34D
330
309
100
AcDbEntity
  8
DV3_Default
  6
Continuous
 62
     7
100
AcDbLine
 10
96.9067881009
 20
143.1661069853
 30
0.0
 11
106.3276411715
 21
143.1661069853
 31
0.0
  0
LINE
  5
34E
330
309
100
AcDbEntity
  8
DV3_Default
  6
Continuous
 62
     7
100
AcDbLine
 10
94.952966557
 20
143.1661069853
 30
0.0
 11
96.9067881009
 21
143.1661069853
 31
0.0
  0
LINE
  5
34F
330
309
100
AcDbEntity
  8
DV3_Default
  6
Continuous
 62
     7
100
AcDbLine
 10
94.901290408
 20
143.1661069853
 30
0.0
 11
94.952966557
 21
143.1661069853
 31
0.0
  0
LINE
  5
350
330
309
100
AcDbEntity
  8
DV3_Default
  6
Continuous
 62
     7
100
AcDbLine
 10
37.9707618032
 20
159.5661069853
 30
0.0
 11
38.113882435
 21
143.1661069853
 31
0.0
  0
LINE
  5
351
330
309
100
AcDbEntity
  8
DV3_Default
  6
Continuous
 62
     7
100
AcDbLine
 10
37.9707618032
 20
159.5661069853
 30
0.0
 11
47.6692249072
 21
159.5661069853
 31
0.0
  0
LINE
  5
352
330
309
100
AcDbEntity
  8
DV3_Default
  6
Continuous
 62
     7
100
AcDbLine
 10
47.6692249072
 20
159.5661069853
 30
0.0
 11
53.9044438735
 21
159.5661069853
 31
0.0
  0
LINE
  5
353
330
309
100
AcDbEntity
  8
DV3_Default
  6
Continuous
 62
     7
100
AcDbLine
 10
38.113882435
 20
143.1661069853
 30
0.0
 11
47.5347355056
 21
143.1661069853
 31
0.0
  0
LINE
  5
354
330
309
100
AcDbEntity
  8
DV3_Default
  6
Continuous
 62
     7
100
AcDbLine
 10
47.5347355056
 20
143.1661069853
 30
0.0
 11
49.4885570494
 21
143.1661069853
 31
0.0
  0
LINE
  5
355
330
309
100
AcDbEntity
  8
DV3_Default
  6
Continuous
 62
     7
100
AcDbLine
 10
49.4885570494
 20
143.1661069853
 30
0.0
 11
49.5402331984
 21
143.1661069853
 31
0.0
  0
LINE
  5
356
330
309
100
AcDbEntity
  8
DV3_Default
  6
Continuous
 62
     7
100
AcDbLine
 10
73.1448380535
 20
150.8661069853
 30
0.0
 11
73.1474561138
 21
151.1661069853
 31
0.0
  0
LINE
  5
357
330
309
100
AcDbEntity
  8
DV3_Default
  6
Continuous
 62
     7
100
AcDbLine
 10
72.2207618032
 20
150.8661069853
 30
0.0
 11
72.2207618032
 21
151.1661069853
 31
0.0
  0
LINE
  5
358
330
309
100
AcDbEntity
  8
DV3_Default
  6
Continuous
 62
     7
100
AcDbLine
 10
71.296685553
 20
150.8661069853
 30
0.0
 11
71.2940674927
 21
151.1661069853
 31
0.0
  0
LINE
  5
359
330
309
100
AcDbEntity
  8
DV3_Default
  6
Continuous
 62
     7
100
AcDbLine
 10
73.1448380535
 20
150.8661069853
 30
0.0
 11
72.2207618032
 21
150.8661069853
 31
0.0
  0
LINE
  5
35A
330
309
100
AcDbEntity
  8
DV3_Default
  6
Continuous
 62
     7
100
AcDbLine
 10
72.2207618032
 20
150.8661069853
 30
0.0
 11
71.296685553
 21
150.8661069853
 31
0.0
  0
LINE
  5
35B
330
309
100
AcDbEntity
  8
DV3_Default
  6
Continuous
 62
     7
100
AcDbLine
 10
106.4218913436
 20
165.1661069853
 30
0.0
 11
106.4707618032
 21
159.5661069853
 31
0.0
  0
LINE
  5
35C
330
309
100
AcDbEntity
  8
DV3_Default
  6
Continuous
 62
     7
100
AcDbLine
 10
99.4221578822
 20
165.1661069853
 30
0.0
 11
95.2120730138
 21
165.1661069853
 31
0.0
  0
LINE
  5
35D
330
309
100
AcDbEntity
  8
DV3_Default
  6
Continuous
 62
     7
100
AcDbLine
 10
99.4221578822
 20
165.1661069853
 30
0.0
 11
106.4218913436
 21
165.1661069853
 31
0.0
  0
LINE
  5
35E
330
309
100
AcDbEntity
  8
DV3_Default
  6
Continuous
 62
     7
100
AcDbLine
 10
37.9707618032
 20
159.5661069853
 30
0.0
 11
38.0196322629
 21
165.1661069853
 31
0.0
  0
LINE
  5
35F
330
309
100
AcDbEntity
  8
DV3_Default
  6
Continuous
 62
     7
100
AcDbLine
 10
38.0196322629
 20
165.1661069853
 30
0.0
 11
45.0193657243
 21
165.1661069853
 31
0.0
  0
LINE
  5
360
330
309
100
AcDbEntity
  8
DV3_Default
  6
Continuous
 62
     7
100
AcDbLine
 10
49.2294505926
 20
165.1661069853
 30
0.0
 11
45.0193657243
 21
165.1661069853
 31
0.0
  0
ARC
  5
361
330
309
100
AcDbEntity
  8
DV3_Default
  6
Continuous
 62
     7
100
AcDbCircle
 10
49.2294505926
 20
166.1661069853
 30
0.0
 40
0.9999999999999996
100
AcDbArc
 50
270.0
 51
359.5
  0
LINE
  5
362
330
309
100
AcDbEntity
  8
DV3_Default
  6
Continuous
 62
     7
100
AcDbLine
 10
51.2792698958
 20
172.8661069853
 30
0.0
 11
55.8271654925
 21
172.8661069853
 31
0.0
  0
LINE
  5
363
330
309
100
AcDbEntity
  8
DV3_Default
  6
Continuous
 62
     7
100
AcDbLine
 10
50.2793079728
 20
171.8748335208
 30
0.0
 11
50.2294125157
 21
166.1573804498
 31
0.0
  0
ARC
  5
364
330
309
100
AcDbEntity
  8
DV3_Default
  6
Continuous
 62
     7
100
AcDbCircle
 10
51.2792698958
 20
171.8661069853
 30
0.0
 40
1.000000000000004
100
AcDbArc
 50
90.0
 51
179.5
  0
ARC
  5
365
330
309
100
AcDbEntity
  8
DV3_Default
  6
Continuous
 62
     7
100
AcDbCircle
 10
95.2120730138
 20
166.1661069853
 30
0.0
 40
0.999999999999994
100
AcDbArc
 50
180.5
 51
270.0
  0
LINE
  5
366
330
309
100
AcDbEntity
  8
DV3_Default
  6
Continuous
 62
     7
100
AcDbLine
 10
94.1622156337
 20
171.8748335208
 30
0.0
 11
94.2121110908
 21
166.1573804498
 31
0.0
  0
ARC
  5
367
330
309
100
AcDbEntity
  8
DV3_Default
  6
Continuous
 62
     7
100
AcDbCircle
 10
93.1622537107
 20
171.8661069853
 30
0.0
 40
0.9999999999999996
100
AcDbArc
 50
0.5
 51
90.0
  0
LINE
  5
368
330
309
100
AcDbEntity
  8
DV3_Default
  6
Continuous
 62
     7
100
AcDbLine
 10
88.614358114
 20
172.8661069853
 30
0.0
 11
93.1622537107
 21
172.8661069853
 31
0.0
  0
ARC
  5
369
330
309
100
AcDbEntity
  8
DV3_Default
  6
Continuous
 62
     7
100
AcDbCircle
 10
72.2207618032
 20
176.3661069853
 30
0.0
 40
16.00000000000001
100
AcDbArc
 50
195.349477017
 51
344.650522983
  0
ARC
  5
36A
330
309
100
AcDbEntity
  8
DV3_Default
  6
Continuous
 62
     7
100
AcDbCircle
 10
88.614358114
 20
171.8661069853
 30
0.0
 40
1.000000000000004
100
AcDbArc
 50
90.0
 51
164.650522983
  0
ARC
  5
36B
330
309
100
AcDbEntity
  8
DV3_Default
  6
Continuous
 62
     7
100
AcDbCircle
 10
55.8271654925
 20
171.8661069853
 30
0.0
 40
1.000000000000001
100
AcDbArc
 50
15.349477017
 51
90.0
  0
LINE
  5
36C
330
309
100
AcDbEntity
  8
DV3_Default
  6
Continuous
 62
     7
100
AcDbLine
 10
90.537079733
 20
159.5661069853
 30
0.0
 11
96.7722986993
 21
159.5661069853
 31
0.0
  0
LINE
  5
36D
330
309
100
AcDbEntity
  8
DV3_Default
  6
Continuous
 62
     7
100
AcDbLine
 10
53.3863149041
 20
151.1661069853
 30
0.0
 11
49.6100481408
 21
151.1661069853
 31
0.0
  0
LINE
  5
36E
330
309
100
AcDbEntity
  8
DV3_Default
  6
Continuous
 62
     7
100
AcDbLine
 10
53.3863149041
 20
151.1661069853
 30
0.0
 11
54.3259717442
 21
151.1661069853
 31
0.0
  0
LINE
  5
36F
330
309
100
AcDbEntity
  8
DV3_Default
  6
Continuous
 62
     7
100
AcDbLine
 10
90.1155518622
 20
151.1661069853
 30
0.0
 11
54.3259717442
 21
151.1661069853
 31
0.0
  0
LINE
  5
370
330
309
100
AcDbEntity
  8
DV3_Default
  6
Continuous
 62
     7
100
AcDbLine
 10
90.1155518622
 20
151.1661069853
 30
0.0
 11
91.0552087024
 21
151.1661069853
 31
0.0
  0
LINE
  5
371
330
309
100
AcDbEntity
  8
DV3_Default
  6
Continuous
 62
     7
100
AcDbLine
 10
90.0672513129
 20
159.5661069853
 30
0.0
 11
54.3742722935
 21
159.5661069853
 31
0.0
  0
LINE
  5
372
330
309
100
AcDbEntity
  8
DV3_Default
  6
Continuous
 62
     7
100
AcDbLine
 10
90.0672513129
 20
159.5661069853
 30
0.0
 11
90.537079733
 21
159.5661069853
 31
0.0
  0
LINE
  5
373
330
309
100
AcDbEntity
  8
DV3_Default
  6
Continuous
 62
     7
100
AcDbLine
 10
53.9044438735
 20
159.5661069853
 30
0.0
 11
54.3742722935
 21
159.5661069853
 31
0.0
  0
LINE
  5
374
330
309
100
AcDbEntity
  8
DV3_Default
  6
Continuous
 62
     7
100
AcDbLine
 10
94.8314754657
 20
151.1661069853
 30
0.0
 11
91.0552087024
 21
151.1661069853
 31
0.0
  0
LINE
  5
375
330
309
100
AcDbEntity
  8
DV3_Default
  6
Continuous
 62
     7
100
AcDbLine
 10
94.8306843401
 20
151.2567609988
 30
0.0
 11
94.901290408
 21
143.1661069853
 31
0.0
  0
LINE
  5
376
330
309
100
AcDbEntity
  8
DV3_Default
  6
Continuous
 62
     7
100
AcDbLine
 10
49.5402331984
 20
143.1661069853
 30
0.0
 11
49.6108419539
 21
151.2570689586
 31
0.0
  0
LINE
  5
377
330
309
100
AcDbEntity
  8
DV3_Default
  6
Continuous
 62
     7
100
AcDbLine
 10
103.2372660977
 20
165.1661069853
 30
0.0
 11
103.2372660977
 21
165.2661069853
 31
0.0
  0
ARC
  5
378
330
309
100
AcDbEntity
  8
DV3_Default
  6
Continuous
 62
     7
100
AcDbCircle
 10
102.7372660977
 20
165.2661069853
 30
0.0
 40
0.5000000000000004
100
AcDbArc
 50
0.0
 51
90.0
  0
ARC
  5
379
330
309
100
AcDbEntity
  8
DV3_Default
  6
Continuous
 62
     7
100
AcDbCircle
 10
94.7372660977
 20
165.2661069853
 30
0.0
 40
0.5000000000000004
100
AcDbArc
 50
90.0
 51
135.8946369954
  0
LINE
  5
37A
330
309
100
AcDbEntity
  8
DV3_Default
  6
Continuous
 62
     7
100
AcDbLine
 10
88.2201525723
 20
176.2057315533
 30
0.0
 11
88.2345375144
 21
174.5573804498
 31
0.0
  0
ARC
  5
37B
330
309
100
AcDbEntity
  8
DV3_Default
  6
Continuous
 62
     7
100
AcDbCircle
 10
72.2207618032
 20
176.0661069853
 30
0.0
 40
16.0
100
AcDbArc
 50
0.5
 51
179.5
  0
LINE
  5
37C
330
309
100
AcDbEntity
  8
DV3_Default
  6
Continuous
 62
     7
100
AcDbLine
 10
72.7207618032
 20
203.5661069853
 30
0.0
 11
71.7207618032
 21
203.5661069853
 31
0.0
  0
LINE
  5
37D
330
309
100
AcDbEntity
  8
DV3_Default
  6
Continuous
 62
     7
100
AcDbLine
 10
71.7818498778
 20
196.5661069853
 30
0.0
 11
71.7383678495
 21
201.5486539143
 31
0.0
  0
LINE
  5
37E
330
309
100
AcDbEntity
  8
DV3_Default
  6
Continuous
 62
     7
100
AcDbLine
 10
71.7818498778
 20
196.5661069853
 30
0.0
 11
72.6596737287
 21
196.5661069853
 31
0.0
  0
LINE
  5
37F
330
309
100
AcDbEntity
  8
DV3_Default
  6
Continuous
 62
     7
100
AcDbLine
 10
71.729488671
 20
202.5661069853
 30
0.0
 11
72.7120349355
 21
202.5661069853
 31
0.0
  0
LINE
  5
380
330
309
100
AcDbEntity
  8
DV3_Default
  6
Continuous
 62
     7
100
AcDbLine
 10
99.3867893054
 20
165.7661069853
 30
0.0
 11
96.1799564166
 21
165.7661069853
 31
0.0
  0
LINE
  5
381
330
309
100
AcDbEntity
  8
DV3_Default
  6
Continuous
 62
     7
100
AcDbLine
 10
106.3865227669
 20
165.7661069853
 30
0.0
 11
99.3867893054
 21
165.7661069853
 31
0.0
  0
LINE
  5
382
330
309
100
AcDbEntity
  8
DV3_Default
  6
Continuous
 62
     7
100
AcDbLine
 10
38.0550008396
 20
165.7661069853
 30
0.0
 11
37.8166811936
 21
193.0748335208
 31
0.0
  0
LINE
  5
383
330
309
100
AcDbEntity
  8
DV3_Default
  6
Continuous
 62
     7
100
AcDbLine
 10
45.0547343011
 20
165.7661069853
 30
0.0
 11
38.0550008396
 21
165.7661069853
 31
0.0
  0
LINE
  5
384
330
309
100
AcDbEntity
  8
DV3_Default
  6
Continuous
 62
     7
100
AcDbLine
 10
58.2076216695
 20
201.5486539143
 30
0.0
 11
58.1679559731
 21
195.0573804498
 31
0.0
  0
LINE
  5
385
330
309
100
AcDbEntity
  8
DV3_Default
  6
Continuous
 62
     7
100
AcDbLine
 10
71.7383678495
 20
201.5486539143
 30
0.0
 11
58.2076216695
 21
201.5486539143
 31
0.0
  0
LINE
  5
386
330
309
100
AcDbEntity
  8
DV3_Default
  6
Continuous
 62
     7
100
AcDbLine
 10
58.2076216695
 20
203.5661069853
 30
0.0
 11
71.7207618032
 21
203.5661069853
 31
0.0
  0
LINE
  5
387
330
309
100
AcDbEntity
  8
DV3_Default
  6
Continuous
 62
     7
100
AcDbLine
 10
71.7207618032
 20
203.5661069853
 30
0.0
 11
71.7383678495
 21
201.5486539143
 31
0.0
  0
ELLIPSE
  5
388
330
309
100
AcDbEntity
  8
DV3_Default
  6
Continuous
 62
     7
100
AcDbEllipse
 10
58.2081015903
 20
201.5661069853
 30
0.0
 11
-7.000205366260889
 21
-0.01222135090287942
 31
0.0
210
0.0
220
0.0
230
1.0
 40
0.0024930954
 41
0.3490462627329555
 42
1.570723416110166
  0
LINE
  5
389
330
309
100
AcDbEntity
  8
DV3_Default
  6
Continuous
 62
     7
100
AcDbLine
 10
58.2076216695
 20
203.5661069853
 30
0.0
 11
58.2076216695
 21
201.5486539143
 31
0.0
  0
LINE
  5
38A
330
309
100
AcDbEntity
  8
DV3_Default
  6
Continuous
 62
     7
100
AcDbLine
 10
72.703155757
 20
201.5486539143
 30
0.0
 11
72.6596737287
 21
196.5661069853
 31
0.0
  0
LINE
  5
38B
330
309
100
AcDbEntity
  8
DV3_Default
  6
Continuous
 62
     7
100
AcDbLine
 10
86.233901937
 20
201.5486539143
 30
0.0
 11
72.703155757
 21
201.5486539143
 31
0.0
  0
LINE
  5
38C
330
309
100
AcDbEntity
  8
DV3_Default
  6
Continuous
 62
     7
100
AcDbLine
 10
72.703155757
 20
201.5486539143
 30
0.0
 11
72.7207618032
 21
203.5661069853
 31
0.0
  0
LINE
  5
38D
330
309
100
AcDbEntity
  8
DV3_Default
  6
Continuous
 62
     7
100
AcDbLine
 10
86.233901937
 20
203.5661069853
 30
0.0
 11
93.7120342708
 21
203.5661069853
 31
0.0
  0
LINE
  5
38E
330
309
100
AcDbEntity
  8
DV3_Default
  6
Continuous
 62
     7
100
AcDbLine
 10
72.7207618032
 20
203.5661069853
 30
0.0
 11
86.233901937
 21
203.5661069853
 31
0.0
  0
ELLIPSE
  5
38F
330
309
100
AcDbEntity
  8
DV3_Default
  6
Continuous
 62
     7
100
AcDbEllipse
 10
86.2334220162
 20
201.5661069853
 30
0.0
 11
7.000205366260892
 21
-0.01222135090287683
 31
0.0
210
0.0
220
0.0
230
1.0
 40
0.0024930954
 41
4.71246189106942
 42
5.93413904444738
  0
LINE
  5
390
330
309
100
AcDbEntity
  8
DV3_Default
  6
Continuous
 62
     7
100
AcDbLine
 10
86.233901937
 20
201.5486539143
 30
0.0
 11
86.233901937
 21
203.5661069853
 31
0.0
  0
LINE
  5
391
330
309
100
AcDbEntity
  8
DV3_Default
  6
Continuous
 62
     7
100
AcDbLine
 10
106.6421438378
 20
195.0573804498
 30
0.0
 11
106.7181208963
 21
203.7634890246
 31
0.0
  0
LINE
  5
392
330
309
100
AcDbEntity
  8
DV3_Default
  6
Continuous
 62
     7
100
AcDbLine
 10
106.6248424129
 20
193.0748335208
 30
0.0
 11
106.3865227669
 21
165.7661069853
 31
0.0
  0
LINE
  5
393
330
309
100
AcDbEntity
  8
DV3_Default
  6
Continuous
 62
     7
100
AcDbLine
 10
93.7908223548
 20
194.0661069853
 30
0.0
 11
91.5452069903
 21
194.0661069853
 31
0.0
  0
LINE
  5
394
330
309
100
AcDbEntity
  8
DV3_Default
  6
Continuous
 62
     7
100
AcDbLine
 10
95.1262933303
 20
194.0661069853
 30
0.0
 11
93.7908223548
 21
194.0661069853
 31
0.0
  0
LINE
  5
395
330
309
100
AcDbEntity
  8
DV3_Default
  6
Continuous
 62
     7
100
AcDbLine
 10
105.6421819147
 20
194.0661069853
 30
0.0
 11
95.1262933303
 21
194.0661069853
 31
0.0
  0
LINE
  5
396
330
309
100
AcDbEntity
  8
DV3_Default
  6
Continuous
 62
     7
100
AcDbLine
 10
86.2735676334
 20
195.0573804498
 30
0.0
 11
86.233901937
 21
201.5486539143
 31
0.0
  0
LINE
  5
397
330
309
100
AcDbEntity
  8
DV3_Default
  6
Continuous
 62
     7
100
AcDbLine
 10
106.6421438378
 20
195.0573804498
 30
0.0
 11
106.6248424129
 21
193.0748335208
 31
0.0
  0
ARC
  5
398
330
309
100
AcDbEntity
  8
DV3_Default
  6
Continuous
 62
     7
100
AcDbCircle
 10
93.4365805832
 20
218.6375725173
 30
0.0
 40
24.6441516887594
100
AcDbArc
 50
253.1026631223
 51
265.5983718766
  0
ARC
  5
399
330
309
100
AcDbEntity
  8
DV3_Default
  6
Continuous
 62
     7
100
AcDbCircle
 10
105.6421819147
 20
195.0661069853
 30
0.0
 40
1.00000000000001
100
AcDbArc
 50
270.0
 51
359.5
  0
LINE
  5
39A
330
309
100
AcDbEntity
  8
DV3_Default
  6
Continuous
 62
     7
100
AcDbLine
 10
52.8963166162
 20
194.0661069853
 30
0.0
 11
50.6507012517
 21
194.0661069853
 31
0.0
  0
LINE
  5
39B
330
309
100
AcDbEntity
  8
DV3_Default
  6
Continuous
 62
     7
100
AcDbLine
 10
50.6507012517
 20
194.0661069853
 30
0.0
 11
49.3152302762
 21
194.0661069853
 31
0.0
  0
LINE
  5
39C
330
309
100
AcDbEntity
  8
DV3_Default
  6
Continuous
 62
     7
100
AcDbLine
 10
49.3152302762
 20
194.0661069853
 30
0.0
 11
38.7993416917
 21
194.0661069853
 31
0.0
  0
LINE
  5
39D
330
309
100
AcDbEntity
  8
DV3_Default
  6
Continuous
 62
     7
100
AcDbLine
 10
37.7993797687
 20
195.0573804498
 30
0.0
 11
37.7234027102
 21
203.7634890246
 31
0.0
  0
LINE
  5
39E
330
309
100
AcDbEntity
  8
DV3_Default
  6
Continuous
 62
     7
100
AcDbLine
 10
37.8166811936
 20
193.0748335208
 30
0.0
 11
37.7993797687
 21
195.0573804498
 31
0.0
  0
ARC
  5
39F
330
309
100
AcDbEntity
  8
DV3_Default
  6
Continuous
 62
     7
100
AcDbCircle
 10
51.0049430233
 20
218.6375725173
 30
0.0
 40
24.64415168875929
100
AcDbArc
 50
274.4016281234
 51
286.8973368777
  0
ARC
  5
3A0
330
309
100
AcDbEntity
  8
DV3_Default
  6
Continuous
 62
     7
100
AcDbCircle
 10
38.7993416917
 20
195.0661069853
 30
0.0
 40
0.9999999999999961
100
AcDbArc
 50
180.5
 51
270.0
  0
LINE
  5
3A1
330
309
100
AcDbEntity
  8
DV3_Default
  6
Continuous
 62
     7
100
AcDbLine
 10
37.3560092148
 20
189.0661069853
 30
0.0
 11
33.3473204254
 21
189.0661069853
 31
0.0
  0
LINE
  5
3A2
330
309
100
AcDbEntity
  8
DV3_Default
  6
Continuous
 62
     7
100
AcDbLine
 10
32.8473394639
 20
189.5617437175
 30
0.0
 11
32.7295267487
 21
203.0617437175
 31
0.0
  0
LINE
  5
3A3
330
309
100
AcDbEntity
  8
DV3_Default
  6
Continuous
 62
     7
100
AcDbLine
 10
33.2295077102
 20
203.5661069853
 30
0.0
 11
37.477330688
 21
203.5661069853
 31
0.0
  0
LINE
  5
3A4
330
309
100
AcDbEntity
  8
DV3_Default
  6
Continuous
 62
     7
100
AcDbLine
 10
37.477330688
 20
203.5661069853
 30
0.0
 11
37.7246114441
 21
203.5661069853
 31
0.0
  0
ARC
  5
3A5
330
309
100
AcDbEntity
  8
DV3_Default
  6
Continuous
 62
     7
100
AcDbCircle
 10
33.2295077102
 20
203.0661069853
 30
0.0
 40
0.4999999999999998
100
AcDbArc
 50
90.0
 51
180.5
  0
ARC
  5
3A6
330
309
100
AcDbEntity
  8
DV3_Default
  6
Continuous
 62
     7
100
AcDbCircle
 10
33.3473204254
 20
189.5661069853
 30
0.0
 40
0.5000000000000014
100
AcDbArc
 50
180.5
 51
270.0
  0
ARC
  5
3A7
330
309
100
AcDbEntity
  8
DV3_Default
  6
Continuous
 62
     7
100
AcDbCircle
 10
37.3560092148
 20
188.5661069853
 30
0.0
 40
0.5000000000000004
100
AcDbArc
 50
0.5
 51
90.0
  0
LINE
  5
3A8
330
309
100
AcDbEntity
  8
DV3_Default
  6
Continuous
 62
     7
100
AcDbLine
 10
106.3865227669
 20
165.7661069853
 30
0.0
 11
106.3812866462
 21
165.1661069853
 31
0.0
  0
LINE
  5
3A9
330
309
100
AcDbEntity
  8
DV3_Default
  6
Continuous
 62
     7
100
AcDbLine
 10
38.0602369603
 20
165.1661069853
 30
0.0
 11
38.0550008396
 21
165.7661069853
 31
0.0
  0
ARC
  5
3AA
330
309
100
AcDbEntity
  8
DV3_Default
  6
Continuous
 62
     7
100
AcDbCircle
 10
115.8655219226
 20
200.8044088669
 30
0.0
 40
22.05942695566334
100
AcDbArc
 50
172.2910317638
 51
177.7820521799
  0
ARC
  5
3AB
330
309
100
AcDbEntity
  8
DV3_Default
  6
Continuous
 62
     7
100
AcDbCircle
 10
93.0110165158
 20
201.7030153321
 30
0.0
 40
0.8128448406821344
100
AcDbArc
 50
349.0528949309
 51
356.83429429
  0
ARC
  5
3AC
330
309
100
AcDbEntity
  8
DV3_Default
  6
Continuous
 62
     7
100
AcDbCircle
 10
50.4864032512
 20
203.7722432563
 30
0.0
 40
0.0510984381983267
100
AcDbArc
 50
181.00982207
 51
189.8646292164
  0
LINE
  5
3AD
330
309
100
AcDbEntity
  8
DV3_Default
  6
Continuous
 62
     7
100
AcDbLine
 10
50.0443851455
 20
204.0661069853
 30
0.0
 11
50.1509022175
 21
204.0661069853
 31
0.0
  0
LINE
  5
3AE
330
309
100
AcDbEntity
  8
DV3_Default
  6
Continuous
 62
     7
100
AcDbLine
 10
38.0233912871
 20
204.0661069853
 30
0.0
 11
50.0443851455
 21
204.0661069853
 31
0.0
  0
LINE
  5
3AF
330
309
100
AcDbEntity
  8
DV3_Default
  6
Continuous
 62
     7
100
AcDbLine
 10
50.4259526243
 20
204.0661069853
 30
0.0
 11
50.1509022175
 21
204.0661069853
 31
0.0
  0
ARC
  5
3B0
330
309
100
AcDbEntity
  8
DV3_Default
  6
Continuous
 62
     7
100
AcDbCircle
 10
38.0233912871
 20
203.7661069853
 30
0.0
 40
0.2999999999999982
100
AcDbArc
 50
90.0
 51
180.5
  0
ARC
  5
3B1
330
309
100
AcDbEntity
  8
DV3_Default
  6
Continuous
 62
     7
100
AcDbCircle
 10
50.1431232095
 20
203.7740088469
 30
0.0
 40
0.2922017032552321
100
AcDbArc
 50
359.4772081333
 51
88.4744887308
  0
ARC
  5
3B2
330
309
100
AcDbEntity
  8
DV3_Default
  6
Continuous
 62
     7
100
AcDbCircle
 10
28.5760016842
 20
200.804408867
 30
0.0
 40
22.05942695531566
100
AcDbArc
 50
2.2179478201
 51
7.7089682363
  0
SPLINE
  5
3B3
330
309
100
AcDbEntity
  8
DV3_Default
  6
Continuous
 62
     7
100
AcDbSpline
210
0.0
220
0.0
230
1.0
 70
     8
 71
     3
 72
    10
 73
     6
 74
     0
 42
0.0000003580985791
 43
0.0000000001
 40
0.0
 40
0.0
 40
0.0
 40
0.0
 40
0.1028819809751998
 40
0.1028819809751998
 40
0.9999999999999999
 40
0.9999999999999999
 40
0.9999999999999999
 40
0.9999999999999999
 10
50.74275711075192
 20
202.8059243718611
 30
0.0
 10
50.74274139046006
 20
202.8068854818864
 30
0.0
 10
50.74272501337353
 20
202.807846235958
 30
0.0
 10
50.74255943713107
 20
202.8171812111806
 30
0.0
 10
50.74236089826237
 20
202.8255265052798
 30
0.0
 10
50.7421120545692
 20
202.8338418228474
 30
0.0
  0
LINE
  5
3B4
330
309
100
AcDbEntity
  8
DV3_Default
  6
Continuous
 62
     7
100
AcDbLine
 10
50.7294893357
 20
203.5661069853
 30
0.0
 11
58.2076216695
 21
203.5661069853
 31
0.0
  0
ARC
  5
3B5
330
309
100
AcDbEntity
  8
DV3_Default
  6
Continuous
 62
     7
100
AcDbCircle
 10
51.4305070916
 20
201.7030153322
 30
0.0
 40
0.8128448416242763
100
AcDbArc
 50
183.1657057121
 51
190.9471050646
  0
ARC
  5
3B6
330
309
100
AcDbEntity
  8
DV3_Default
  6
Continuous
 62
     7
100
AcDbCircle
 10
93.9555632953
 20
203.7722010957
 30
0.0
 40
0.0506548355707856
100
AcDbArc
 50
350.0965200384
 51
359.0290286753
  0
LINE
  5
3B7
330
309
100
AcDbEntity
  8
DV3_Default
  6
Continuous
 62
     7
100
AcDbLine
 10
94.3971384609
 20
204.0661069853
 30
0.0
 11
106.4181323194
 21
204.0661069853
 31
0.0
  0
LINE
  5
3B8
330
309
100
AcDbEntity
  8
DV3_Default
  6
Continuous
 62
     7
100
AcDbLine
 10
94.2906213889
 20
204.0661069853
 30
0.0
 11
94.3971384609
 21
204.0661069853
 31
0.0
  0
LINE
  5
3B9
330
309
100
AcDbEntity
  8
DV3_Default
  6
Continuous
 62
     7
100
AcDbLine
 10
94.2906213889
 20
204.0661069853
 30
0.0
 11
94.0155709822
 21
204.0661069853
 31
0.0
  0
ARC
  5
3BA
330
309
100
AcDbEntity
  8
DV3_Default
  6
Continuous
 62
     7
100
AcDbCircle
 10
106.4181323194
 20
203.7661069853
 30
0.0
 40
0.2999999999999982
100
AcDbArc
 50
359.5
 51
90.0
  0
ARC
  5
3BB
330
309
100
AcDbEntity
  8
DV3_Default
  6
Continuous
 62
     7
100
AcDbCircle
 10
94.2984003969
 20
203.7740088469
 30
0.0
 40
0.2922017032552552
100
AcDbArc
 50
91.5255112692
 51
180.5227918667
  0
LINE
  5
3BC
330
309
100
AcDbEntity
  8
DV3_Default
  6
Continuous
 62
     7
100
AcDbLine
 10
40.4170668041
 20
165.7661069853
 30
0.0
 11
40.4118306834
 21
165.1661069853
 31
0.0
  0
LINE
  5
3BD
330
309
100
AcDbEntity
  8
DV3_Default
  6
Continuous
 62
     7
100
AcDbLine
 10
104.029692923
 20
165.1661069853
 30
0.0
 11
104.0244568024
 21
165.7661069853
 31
0.0
  0
ARC
  5
3BE
330
309
100
AcDbEntity
  8
DV3_Default
  6
Continuous
 62
     7
100
AcDbCircle
 10
90.965076023
 20
172.5661069853
 30
0.0
 40
0.9999999999999996
100
AcDbArc
 50
17.4576031237
 51
90.0
  0
ARC
  5
3BF
330
309
100
AcDbEntity
  8
DV3_Default
  6
Continuous
 62
     7
100
AcDbCircle
 10
53.4764475835
 20
172.5661069853
 30
0.0
 40
0.9999999999999974
100
AcDbArc
 50
90.0
 51
162.5423968763
  0
LINE
  5
3C0
330
309
100
AcDbEntity
  8
DV3_Default
  6
Continuous
 62
     7
100
AcDbLine
 10
89.2344994375
 20
173.5661069853
 30
0.0
 11
94.078412384
 21
173.5661069853
 31
0.0
  0
LINE
  5
3C1
330
309
100
AcDbEntity
  8
DV3_Default
  6
Continuous
 62
     7
100
AcDbLine
 10
56.2069860921
 20
174.5573804498
 30
0.0
 11
56.2213710342
 21
176.2057315533
 31
0.0
  0
ARC
  5
3C2
330
309
100
AcDbEntity
  8
DV3_Default
  6
Continuous
 62
     7
100
AcDbCircle
 10
55.207024169
 20
174.5661069853
 30
0.0
 40
1.000000000000001
100
AcDbArc
 50
270.0
 51
359.5
  0
ARC
  5
3C3
330
309
100
AcDbEntity
  8
DV3_Default
  6
Continuous
 62
     7
100
AcDbCircle
 10
89.2344994375
 20
174.5661069853
 30
0.0
 40
0.9999999999999996
100
AcDbArc
 50
180.5
 51
270.0
  0
LINE
  5
3C4
330
309
100
AcDbEntity
  8
DV3_Default
  6
Continuous
 62
     7
100
AcDbLine
 10
50.3631112225
 20
173.5661069853
 30
0.0
 11
55.207024169
 21
173.5661069853
 31
0.0
  0
LINE
  5
3C5
330
309
100
AcDbEntity
  8
DV3_Default
  6
Continuous
 62
     7
100
AcDbLine
 10
48.2615671898
 20
165.7661069853
 30
0.0
 11
45.0547343011
 21
165.7661069853
 31
0.0
  0
LINE
  5
3C6
330
309
100
AcDbEntity
  8
DV3_Default
  6
Continuous
 62
     7
100
AcDbLine
 10
48.2615671898
 20
165.7661069853
 30
0.0
 11
50.1459657316
 21
165.7661069853
 31
0.0
  0
LINE
  5
3C7
330
309
100
AcDbEntity
  8
DV3_Default
  6
Continuous
 62
     7
100
AcDbLine
 10
49.3632635274
 20
172.5835593917
 30
0.0
 11
49.261414885
 21
166.7486545788
 31
0.0
  0
ARC
  5
3C8
330
309
100
AcDbEntity
  8
DV3_Default
  6
Continuous
 62
     7
100
AcDbCircle
 10
48.2615671898
 20
166.7661069853
 30
0.0
 40
1.000000000000008
100
AcDbArc
 50
270.0
 51
359.0
  0
LINE
  5
3C9
330
309
100
AcDbEntity
  8
DV3_Default
  6
Continuous
 62
     7
100
AcDbLine
 10
52.4851363729
 20
173.5661069853
 30
0.0
 11
52.4790275654
 21
172.8661069853
 31
0.0
  0
ARC
  5
3CA
330
309
100
AcDbEntity
  8
DV3_Default
  6
Continuous
 62
     7
100
AcDbCircle
 10
50.3631112225
 20
172.5661069853
 30
0.0
 40
1.000000000000005
100
AcDbArc
 50
90.0
 51
179.0
  0
LINE
  5
3CB
330
309
100
AcDbEntity
  8
DV3_Default
  6
Continuous
 62
     7
100
AcDbLine
 10
94.2955578748
 20
165.7661069853
 30
0.0
 11
96.1799564166
 21
165.7661069853
 31
0.0
  0
LINE
  5
3CC
330
309
100
AcDbEntity
  8
DV3_Default
  6
Continuous
 62
     7
100
AcDbLine
 10
95.1801087215
 20
166.7486545788
 30
0.0
 11
95.0782600791
 21
172.5835593917
 31
0.0
  0
ARC
  5
3CD
330
309
100
AcDbEntity
  8
DV3_Default
  6
Continuous
 62
     7
100
AcDbCircle
 10
96.1799564166
 20
166.7661069853
 30
0.0
 40
0.9999999999999977
100
AcDbArc
 50
181.0
 51
270.0
  0
LINE
  5
3CE
330
309
100
AcDbEntity
  8
DV3_Default
  6
Continuous
 62
     7
100
AcDbLine
 10
91.962496041
 20
172.8661069853
 30
0.0
 11
91.9563872336
 21
173.5661069853
 31
0.0
  0
ARC
  5
3CF
330
309
100
AcDbEntity
  8
DV3_Default
  6
Continuous
 62
     7
100
AcDbCircle
 10
94.078412384
 20
172.5661069853
 30
0.0
 40
1.000000000000004
100
AcDbArc
 50
1.0
 51
90.0
  0
LINE
  5
3D0
330
309
100
AcDbEntity
  8
DV3_Default
  6
Continuous
 62
     7
100
AcDbLine
 10
93.7156166736
 20
203.7713427072
 30
0.0
 11
93.6987047965
 21
202.8024619143
 31
0.0
  0
ARC
  5
3D1
330
309
100
AcDbEntity
  8
DV3_Default
  6
Continuous
 62
     7
100
AcDbCircle
 10
50.4259526243
 20
203.7661069853
 30
0.0
 40
0.3000000000000008
100
AcDbArc
 50
1.0
 51
90.0
  0
LINE
  5
3D2
330
309
100
AcDbEntity
  8
DV3_Default
  6
Continuous
 62
     7
100
AcDbLine
 10
50.7428801892
 20
202.7989455013
 30
0.0
 11
50.7259069329
 21
203.7713427072
 31
0.0
  0
ARC
  5
3D3
330
309
100
AcDbEntity
  8
DV3_Default
  6
Continuous
 62
     7
100
AcDbCircle
 10
94.0155709822
 20
203.7661069853
 30
0.0
 40
0.3
100
AcDbArc
 50
90.0
 51
179.0
  0
ENDBLK
  5
3D5
330
309
100
AcDbEntity
  8
0
100
AcDbBlockEnd
  0
ENDSEC
  0
SECTION
  2
ENTITIES
  0
INSERT
  5
5F
330
1F
100
AcDbEntity
  8
Default
100
AcDbBlockReference
  2
SEANNOT_GROUP
 10
0.0
 20
0.0
 30
0.0
  0
INSERT
  5
66
330
1F
100
AcDbEntity
  8
Default
100
AcDbBlockReference
  2
SEANNOT_GROUP1
 10
0.0
 20
0.0
 30
0.0
  0
INSERT
  5
6C
330
1F
100
AcDbEntity
  8
Default
100
AcDbBlockReference
  2
SEANNOT_GROUP2
 10
0.0
 20
0.0
 30
0.0
  0
INSERT
  5
72
330
1F
100
AcDbEntity
  8
Default
100
AcDbBlockReference
  2
SEANNOT_GROUP3
 10
0.0
 20
0.0
 30
0.0
  0
INSERT
  5
78
330
1F
100
AcDbEntity
  8
Default
100
AcDbBlockReference
  2
SEANNOT_GROUP4
 10
0.0
 20
0.0
 30
0.0
  0
INSERT
  5
82
330
1F
100
AcDbEntity
  8
Default
100
AcDbBlockReference
  2
SE
 10
0.0
 20
0.0
 30
0.0
  0
INSERT
  5
232
330
1F
100
AcDbEntity
  8
Default
100
AcDbBlockReference
  2
SE1
 10
0.0
 20
0.0
 30
0.0
  0
INSERT
  5
30A
330
1F
100
AcDbEntity
  8
Default
100
AcDbBlockReference
  2
SE2
 10
0.0
 20
0.0
 30
0.0
  0
TEXT
  5
3D7
330
1F
100
AcDbEntity
  8
Default
  6
Continuous
 62
     7
100
AcDbText
 10
5.9362635081
 20
53.4225120485
 30
0.0
 40
10.0
  1
Grohe AG^J
  7
SEACAD_seiso_ttf
 11
5.9362635081
 21
63.4225120485
 31
0.0
100
AcDbText
 73
     3
  0
TEXT
  5
3D8
330
1F
100
AcDbEntity
  8
Default
  6
Continuous
 62
     7
100
AcDbText
 10
5.9362635081
 20
37.0588756849
 30
0.0
 40
10.0
  1
 
  7
SEACAD_seiso_ttf
 11
5.9362635081
 21
47.0588756849
 31
0.0
100
AcDbText
 73
     3
  0
TEXT
  5
3D9
330
1F
100
AcDbEntity
  8
Default
  6
Continuous
 62
     7
100
AcDbText
 10
5.9362635081
 20
20.6952393213
 30
0.0
 40
10.0
  1
ecn:
  7
SEACAD_seiso_ttf
 11
5.9362635081
 21
30.6952393213
 31
0.0
100
AcDbText
 73
     3
  0
TEXT
  5
3DA
330
1F
100
AcDbEntity
  8
Default
  6
Continuous
 62
     7
100
AcDbText
 10
5.9362635081
 20
4.3316029576
 30
0.0
 40
10.0
  1
unit: mm
  7
SEACAD_seiso_ttf
 11
5.9362635081
 21
14.3316029576
 31
0.0
100
AcDbText
 73
     3
  0
LINE
  5
3DB
330
1F
100
AcDbEntity
  8
Default
  6
Continuous
 62
     7
100
AcDbLine
 10
0.0
 20
0.0
 30
0.0
 11
100.0
 21
0.0
 31
0.0
  0
LINE
  5
3DC
330
1F
100
AcDbEntity
  8
Default
  6
Continuous
 62
     7
100
AcDbLine
 10
0.0
 20
0.0
 30
0.0
 11
0.0
 21
100.0
 31
0.0
  0
TEXT
  5
3DD
330
1F
100
AcDbEntity
  8
Default
  6
Continuous
 62
     7
100
AcDbText
 10
24.3923665681
 20
-18.2375342018
 30
0.0
 40
10.0
  1
100 mm
  7
SEACAD_seiso_ttf
 11
24.3923665681
 21
-8.2375342018
 31
0.0
100
AcDbText
 73
     3
  0
TEXT
  5
3DE
330
1F
100
AcDbEntity
  8
Default
  6
Continuous
 62
     7
100
AcDbText
 10
-7.6150308803
 20
24.6231930421
 30
0.0
 40
10.0
  1
100 mm
 50
90.0
  7
SEACAD_seiso_ttf
 11
-17.6150308803
 21
24.6231930421
 31
0.0
100
AcDbText
 73
     3
  0
TEXT
  5
3DF
330
1F
100
AcDbEntity
  8
Default
  6
Continuous
 62
     7
100
AcDbText
 10
28.4878128572
 20
20.0907663715
 30
0.0
 40
10.0
  1
220233
  7
SEACAD_seiso_ttf
 11
28.4878128572
 21
30.0907663715
 31
0.0
100
AcDbText
 73
     3
  0
TEXT
  5
3E0
330
1F
100
AcDbEntity
  8
Default
  6
Continuous
 62
     7
100
AcDbText
 10
5.9012241913
 20
36.7242780188
 30
0.0
 40
10.0
  1
35034000
  7
SEACAD_seiso_ttf
 11
5.9012241913
 21
46.7242780188
 31
0.0
100
AcDbText
 73
     3
  0
ENDSEC
  0
SECTION
  2
OBJECTS
  0
DICTIONARY
  5
C
330
0
100
AcDbDictionary
281
     1
  3
ACAD_GROUP
350
D
  3
ACAD_LAYOUT
350
1A
  3
ACAD_MLEADERSTYLE
350
3E4
  3
ACAD_MLINESTYLE
350
17
  3
ACAD_PLOTSETTINGS
350
19
  3
ACAD_PLOTSTYLENAME
350
E
  3
ACAD_SCALELIST
350
3B
  3
ACAD_TABLESTYLE
350
3E3
  3
ACAD_VISUALSTYLE
350
2A
  3
AcDbVariableDictionary
350
3E1
  0
DICTIONARY
  5
D
102
{ACAD_REACTORS
330
C
102
}
330
C
100
AcDbDictionary
281
     1
  0
DICTIONARY
  5
1A
102
{ACAD_REACTORS
330
C
102
}
330
C
100
AcDbDictionary
281
     1
  3
Layout1
350
1E
  3
Model
350
22
  0
DICTIONARY
  5
3E4
102
{ACAD_REACTORS
330
C
102
}
330
C
100
AcDbDictionary
281
     1
  0
DICTIONARY
  5
17
102
{ACAD_REACTORS
330
C
102
}
330
C
100
AcDbDictionary
281
     1
  3
Standard
350
18
  0
DICTIONARY
  5
19
102
{ACAD_REACTORS
330
C
102
}
330
C
100
AcDbDictionary
281
     1
  0
ACDBDICTIONARYWDFLT
  5
E
102
{ACAD_REACTORS
330
C
102
}
330
C
100
AcDbDictionary
281
     1
  3
Normal
350
F
100
AcDbDictionaryWithDefault
340
F
  0
DICTIONARY
  5
3B
102
{ACAD_REACTORS
330
C
102
}
330
C
100
AcDbDictionary
281
     1
  3
A0
350
3C
  3
A1
350
3D
  3
A2
350
3E
  3
A3
350
3F
  3
A4
350
40
  3
A5
350
41
  3
A6
350
42
  3
A7
350
43
  3
A8
350
44
  3
A9
350
45
  3
B0
350
46
  3
B1
350
47
  3
B2
350
48
  3
B3
350
49
  3
B4
350
4A
  3
B5
350
4B
  3
B6
350
4C
  3
B7
350
4D
  3
B8
350
4E
  3
B9
350
4F
  3
C0
350
50
  3
C1
350
51
  3
C2
350
52
  3
C3
350
53
  3
C4
350
54
  3
C5
350
55
  3
C6
350
56
  3
C7
350
57
  3
C8
350
58
  3
C9
350
59
  3
D0
350
5A
  3
D1
350
5B
  3
D2
350
5C
  0
DICTIONARY
  5
3E3
102
{ACAD_REACTORS
330
C
102
}
330
C
100
AcDbDictionary
281
     1
  0
DICTIONARY
  5
2A
102
{ACAD_REACTORS
330
C
102
}
330
C
100
AcDbDictionary
281
     1
  3
2dWireframe
350
2F
  3
3D Hidden
350
31
  3
3dWireframe
350
30
  3
Basic
350
32
  3
Brighten
350
36
  3
ColorChange
350
3A
  3
Conceptual
350
34
  3
Dim
350
35
  3
Facepattern
350
39
  3
Flat
350
2B
  3
FlatWithEdges
350
2C
  3
Gouraud
350
2D
  3
GouraudWithEdges
350
2E
  3
Linepattern
350
38
  3
Realistic
350
33
  3
Thicken
350
37
  0
DICTIONARY
  5
3E1
102
{ACAD_REACTORS
330
C
102
}
330
C
100
AcDbDictionary
281
     1
  3
CANNOSCALE
350
3E2
  3
PSOLHEIGHT
350
3E6
  3
PSOLWIDTH
350
3E5
  0
LAYOUT
  5
1E
102
{ACAD_REACTORS
330
1A
102
}
330
1A
100
AcDbPlotSettings
  1

  2
none_device
  4

  6

 40
0.0
 41
0.0
 42
0.0
 43
0.0
 44
0.0
 45
0.0
 46
0.0
 47
0.0
 48
0.0
 49
0.0
140
0.0
141
0.0
142
1.0
143
1.0
 70
   688
 72
     0
 73
     0
 74
     5
  7

 75
    16
147
1.0
148
0.0
149
0.0
100
AcDbLayout
  1
Layout1
 70
     1
 71
     1
 10
0.0
 20
0.0
 11
3000.0
 21
4500.0
 12
0.0
 22
0.0
 32
0.0
 14
0.0
 24
0.0
 34
0.0
 15
3000.0
 25
4500.0
 35
0.0
146
0.0
 13
0.0
 23
0.0
 33
0.0
 16
1.0
 26
0.0
 36
0.0
 17
0.0
 27
1.0
 37
0.0
 76
     0
330
1B
  0
LAYOUT
  5
22
102
{ACAD_REACTORS
330
1A
102
}
330
1A
100
AcDbPlotSettings
  1

  2
none_device
  4

  6

 40
0.0
 41
0.0
 42
0.0
 43
0.0
 44
0.0
 45
0.0
 46
0.0
 47
0.0
 48
0.0
 49
0.0
140
0.0
141
0.0
142
1.0
143
1.0
 70
  1712
 72
     0
 73
     0
 74
     0
  7

 75
     0
147
1.0
148
0.0
149
0.0
100
AcDbLayout
  1
Model
 70
     1
 71
     0
 10
0.0
 20
0.0
 11
3000.0
 21
4500.0
 12
0.0
 22
0.0
 32
0.0
 14
0.0
 24
0.0
 34
0.0
 15
3000.0
 25
4500.0
 35
0.0
146
0.0
 13
0.0
 23
0.0
 33
0.0
 16
1.0
 26
0.0
 36
0.0
 17
0.0
 27
1.0
 37
0.0
 76
     0
330
1F
331
29
  0
MLINESTYLE
  5
18
102
{ACAD_REACTORS
330
17
102
}
330
17
100
AcDbMlineStyle
  2
Standard
 70
     0
  3

 62
   256
 51
90.0
 52
90.0
 71
     2
 49
0.5
 62
   256
  6
BYLAYER
 49
-0.5
 62
   256
  6
BYLAYER
  0
ACDBPLACEHOLDER
  5
F
102
{ACAD_REACTORS
330
E
102
}
330
E
  0
SCALE
  5
3C
102
{ACAD_REACTORS
330
3B
102
}
330
3B
100
AcDbScale
 70
     0
300
1:1
140
1.0
141
1.0
290
     1
  0
SCALE
  5
3D
102
{ACAD_REACTORS
330
3B
102
}
330
3B
100
AcDbScale
 70
     0
300
1:2
140
1.0
141
2.0
290
     0
  0
SCALE
  5
3E
102
{ACAD_REACTORS
330
3B
102
}
330
3B
100
AcDbScale
 70
     0
300
1:4
140
1.0
141
4.0
290
     0
  0
SCALE
  5
3F
102
{ACAD_REACTORS
330
3B
102
}
330
3B
100
AcDbScale
 70
     0
300
1:5
140
1.0
141
5.0
290
     0
  0
SCALE
  5
40
102
{ACAD_REACTORS
330
3B
102
}
330
3B
100
AcDbScale
 70
     0
300
1:8
140
1.0
141
8.0
290
     0
  0
SCALE
  5
41
102
{ACAD_REACTORS
330
3B
102
}
330
3B
100
AcDbScale
 70
     0
300
1:10
140
1.0
141
10.0
290
     0
  0
SCALE
  5
42
102
{ACAD_REACTORS
330
3B
102
}
330
3B
100
AcDbScale
 70
     0
300
1:16
140
1.0
141
16.0
290
     0
  0
SCALE
  5
43
102
{ACAD_REACTORS
330
3B
102
}
330
3B
100
AcDbScale
 70
     0
300
1:20
140
1.0
141
20.0
290
     0
  0
SCALE
  5
44
102
{ACAD_REACTORS
330
3B
102
}
330
3B
100
AcDbScale
 70
     0
300
1:30
140
1.0
141
30.0
290
     0
  0
SCALE
  5
45
102
{ACAD_REACTORS
330
3B
102
}
330
3B
100
AcDbScale
 70
     0
300
1:40
140
1.0
141
40.0
290
     0
  0
SCALE
  5
46
102
{ACAD_REACTORS
330
3B
102
}
330
3B
100
AcDbScale
 70
     0
300
1:50
140
1.0
141
50.0
290
     0
  0
SCALE
  5
47
102
{ACAD_REACTORS
330
3B
102
}
330
3B
100
AcDbScale
 70
     0
300
1:100
140
1.0
141
100.0
290
     0
  0
SCALE
  5
48
102
{ACAD_REACTORS
330
3B
102
}
330
3B
100
AcDbScale
 70
     0
300
2:1
140
2.0
141
1.0
290
     0
  0
SCALE
  5
49
102
{ACAD_REACTORS
330
3B
102
}
330
3B
100
AcDbScale
 70
     0
300
4:1
140
4.0
141
1.0
290
     0
  0
SCALE
  5
4A
102
{ACAD_REACTORS
330
3B
102
}
330
3B
100
AcDbScale
 70
     0
300
8:1
140
8.0
141
1.0
290
     0
  0
SCALE
  5
4B
102
{ACAD_REACTORS
330
3B
102
}
330
3B
100
AcDbScale
 70
     0
300
10:1
140
10.0
141
1.0
290
     0
  0
SCALE
  5
4C
102
{ACAD_REACTORS
330
3B
102
}
330
3B
100
AcDbScale
 70
     0
300
100:1
140
100.0
141
1.0
290
     0
  0
SCALE
  5
4D
102
{ACAD_REACTORS
330
3B
102
}
330
3B
100
AcDbScale
 70
     0
300
1/128" = 1'-0"
140
0.0078125
141
12.0
290
     0
  0
SCALE
  5
4E
102
{ACAD_REACTORS
330
3B
102
}
330
3B
100
AcDbScale
 70
     0
300
1/64" = 1'-0"
140
0.015625
141
12.0
290
     0
  0
SCALE
  5
4F
102
{ACAD_REACTORS
330
3B
102
}
330
3B
100
AcDbScale
 70
     0
300
1/32" = 1'-0"
140
0.03125
141
12.0
290
     0
  0
SCALE
  5
50
102
{ACAD_REACTORS
330
3B
102
}
330
3B
100
AcDbScale
 70
     0
300
1/16" = 1'-0"
140
0.0625
141
12.0
290
     0
  0
SCALE
  5
51
102
{ACAD_REACTORS
330
3B
102
}
330
3B
100
AcDbScale
 70
     0
300
3/32" = 1'-0"
140
0.09375
141
12.0
290
     0
  0
SCALE
  5
52
102
{ACAD_REACTORS
330
3B
102
}
330
3B
100
AcDbScale
 70
     0
300
1/8" = 1'-0"
140
0.125
141
12.0
290
     0
  0
SCALE
  5
53
102
{ACAD_REACTORS
330
3B
102
}
330
3B
100
AcDbScale
 70
     0
300
3/16" = 1'-0"
140
0.1875
141
12.0
290
     0
  0
SCALE
  5
54
102
{ACAD_REACTORS
330
3B
102
}
330
3B
100
AcDbScale
 70
     0
300
1/4" = 1'-0"
140
0.25
141
12.0
290
     0
  0
SCALE
  5
55
102
{ACAD_REACTORS
330
3B
102
}
330
3B
100
AcDbScale
 70
     0
300
3/8" = 1'-0"
140
0.375
141
12.0
290
     0
  0
SCALE
  5
56
102
{ACAD_REACTORS
330
3B
102
}
330
3B
100
AcDbScale
 70
     0
300
1/2" = 1'-0"
140
0.5
141
12.0
290
     0
  0
SCALE
  5
57
102
{ACAD_REACTORS
330
3B
102
}
330
3B
100
AcDbScale
 70
     0
300
3/4" = 1'-0"
140
0.75
141
12.0
290
     0
  0
SCALE
  5
58
102
{ACAD_REACTORS
330
3B
102
}
330
3B
100
AcDbScale
 70
     0
300
1" = 1'-0"
140
1.0
141
12.0
290
     0
  0
SCALE
  5
59
102
{ACAD_REACTORS
330
3B
102
}
330
3B
100
AcDbScale
 70
     0
300
1-1/2" = 1'-0"
140
1.5
141
12.0
290
     0
  0
SCALE
  5
5A
102
{ACAD_REACTORS
330
3B
102
}
330
3B
100
AcDbScale
 70
     0
300
3" = 1'-0"
140
3.0
141
12.0
290
     0
  0
SCALE
  5
5B
102
{ACAD_REACTORS
330
3B
102
}
330
3B
100
AcDbScale
 70
     0
300
6" = 1'-0"
140
6.0
141
12.0
290
     0
  0
SCALE
  5
5C
102
{ACAD_REACTORS
330
3B
102
}
330
3B
100
AcDbScale
 70
     0
300
1'-0" = 1'-0"
140
12.0
141
12.0
290
     0
  0
VISUALSTYLE
  5
2F
102
{ACAD_REACTORS
330
2A
102
}
330
2A
100
AcDbVisualStyle
  2
2dWireframe
 70
     4
 71
     0
 72
     2
 73
     0
 90
        0
 40
-0.6
 41
-30.0
 62
     5
 63
     7
 74
     1
 91
        4
 64
     7
 65
   257
 75
     1
175
     1
 42
1.0
 92
        0
 66
   257
 43
1.0
 76
     1
 77
     6
 78
     2
 67
     7
 79
     5
170
     0
171
     0
290
     0
174
     0
 93
        1
 44
0.0
173
     0
291
     0
 45
0.0
1001
ACAD
1000
AcDbSavedByObjectVersion
1070
     0
  0
VISUALSTYLE
  5
31
102
{ACAD_REACTORS
330
2A
102
}
330
2A
100
AcDbVisualStyle
  2
3D Hidden
 70
     6
 71
     1
 72
     2
 73
     2
 90
        0
 40
-0.6
 41
-30.0
 62
     5
 63
     7
 74
     2
 91
        2
 64
     7
 65
   257
 75
     2
175
     1
 42
40.0
 92
        0
 66
   257
 43
1.0
 76
     1
 77
     6
 78
     2
 67
     7
 79
     3
170
     0
171
     0
290
     0
174
     0
 93
        1
 44
0.0
173
     0
291
     0
 45
0.0
1001
ACAD
1000
AcDbSavedByObjectVersion
1070
     0
  0
VISUALSTYLE
  5
30
102
{ACAD_REACTORS
330
2A
102
}
330
2A
100
AcDbVisualStyle
  2
3dWireframe
 70
     5
 71
     0
 72
     2
 73
     0
 90
        0
 40
-0.6
 41
-30.0
 62
     5
 63
     7
 74
     1
 91
        4
 64
     7
 65
   257
 75
     1
175
     1
 42
1.0
 92
        0
 66
   257
 43
1.0
 76
     1
 77
     6
 78
     2
 67
     7
 79
     5
170
     0
171
     0
290
     0
174
     0
 93
        1
 44
0.0
173
     0
291
     0
 45
0.0
1001
ACAD
1000
AcDbSavedByObjectVersion
1070
     0
  0
VISUALSTYLE
  5
32
102
{ACAD_REACTORS
330
2A
102
}
330
2A
100
AcDbVisualStyle
  2
Basic
 70
     7
 71
     1
 72
     0
 73
     1
 90
        0
 40
-0.6
 41
-30.0
 62
     5
 63
     7
 74
     0
 91
        4
 64
     7
 65
   257
 75
     1
175
     1
 42
1.0
 92
        8
 66
     7
 43
1.0
 76
     1
 77
     6
 78
     2
 67
     7
 79
     5
170
     0
171
     0
290
     0
174
     0
 93
        1
 44
0.0
173
     0
291
     1
 45
0.0
1001
ACAD
1000
AcDbSavedByObjectVersion
1070
     0
  0
VISUALSTYLE
  5
36
102
{ACAD_REACTORS
330
2A
102
}
330
2A
100
AcDbVisualStyle
  2
Brighten
 70
    12
 71
     2
 72
     2
 73
     0
 90
        0
 40
-0.6
 41
-30.0
 62
     5
 63
     7
 74
     1
 91
        4
 64
     7
 65
   257
 75
     1
175
     1
 42
1.0
 92
        8
 66
     7
 43
1.0
 76
     1
 77
     6
 78
     2
 67
     7
 79
     5
170
     0
171
     0
290
     0
174
     0
 93
        1
 44
50.0
173
     0
291
     1
 45
0.0
1001
ACAD
1000
AcDbSavedByObjectVersion
1070
     0
  0
VISUALSTYLE
  5
3A
102
{ACAD_REACTORS
330
2A
102
}
330
2A
100
AcDbVisualStyle
  2
ColorChange
 70
    16
 71
     2
 72
     2
 73
     3
 90
        0
 40
-0.6
 41
-30.0
 62
     5
 63
     8
 74
     1
 91
        4
 64
     7
 65
   257
 75
     1
175
     1
 42
1.0
 92
        8
 66
     8
 43
1.0
 76
     1
 77
     6
 78
     2
 67
     7
 79
     5
170
     0
171
     0
290
     0
174
     0
 93
        1
 44
0.0
173
     0
291
     1
 45
0.0
1001
ACAD
1000
AcDbSavedByObjectVersion
1070
     0
  0
VISUALSTYLE
  5
34
102
{ACAD_REACTORS
330
2A
102
}
330
2A
100
AcDbVisualStyle
  2
Conceptual
 70
     9
 71
     3
 72
     2
 73
     0
 90
        0
 40
-0.6
 41
-30.0
 62
     5
 63
     7
 74
     2
 91
        2
 64
     7
 65
   257
 75
     1
175
     1
 42
40.0
 92
        8
 66
     7
 43
1.0
 76
     1
 77
     6
 78
     2
 67
     7
 79
     3
170
     0
171
     0
290
     0
174
     0
 93
        1
 44
0.0
173
     0
291
     0
 45
0.0
1001
ACAD
1000
AcDbSavedByObjectVersion
1070
     0
  0
VISUALSTYLE
  5
35
102
{ACAD_REACTORS
330
2A
102
}
330
2A
100
AcDbVisualStyle
  2
Dim
 70
    11
 71
     2
 72
     2
 73
     0
 90
        0
 40
-0.6
 41
-30.0
 62
     5
 63
     7
 74
     1
 91
        4
 64
     7
 65
   257
 75
     1
175
     1
 42
1.0
 92
        8
 66
     7
 43
1.0
 76
     1
 77
     6
 78
     2
 67
     7
 79
     5
170
     0
171
     0
290
     0
174
     0
 93
        1
 44
-50.0
173
     0
291
     1
 45
0.0
1001
ACAD
1000
AcDbSavedByObjectVersion
1070
     0
  0
VISUALSTYLE
  5
39
102
{ACAD_REACTORS
330
2A
102
}
330
2A
100
AcDbVisualStyle
  2
Facepattern
 70
    15
 71
     2
 72
     2
 73
     0
 90
        0
 40
-0.6
 41
-30.0
 62
     5
 63
     7
 74
     1
 91
        4
 64
     7
 65
   257
 75
     1
175
     1
 42
1.0
 92
        8
 66
     7
 43
1.0
 76
     1
 77
     6
 78
     2
 67
     7
 79
     5
170
     0
171
     0
290
     0
174
     0
 93
        1
 44
0.0
173
     0
291
     1
 45
0.0
1001
ACAD
1000
AcDbSavedByObjectVersion
1070
     0
  0
VISUALSTYLE
  5
2B
102
{ACAD_REACTORS
330
2A
102
}
330
2A
100
AcDbVisualStyle
  2
Flat
 70
     0
 71
     2
 72
     1
 73
     1
 90
        2
 40
-0.6
 41
30.0
 62
     5
 63
     7
 74
     0
 91
        4
 64
     7
 65
   257
 75
     1
175
     1
 42
1.0
 92
        8
 66
     7
 43
1.0
 76
     1
 77
     6
 78
     2
 67
     7
 79
     5
170
     0
171
     0
290
     0
174
     0
 93
       13
 44
0.0
173
     0
291
     1
 45
0.0
1001
ACAD
1000
AcDbSavedByObjectVersion
1070
     0
  0
VISUALSTYLE
  5
2C
102
{ACAD_REACTORS
330
2A
102
}
330
2A
100
AcDbVisualStyle
  2
FlatWithEdges
 70
     1
 71
     2
 72
     1
 73
     1
 90
        2
 40
-0.6
 41
30.0
 62
     5
 63
     7
 74
     1
 91
        4
 64
     7
 65
   257
 75
     1
175
     1
 42
1.0
 92
        0
 66
   257
 43
1.0
 76
     1
 77
     6
 78
     2
 67
     7
 79
     5
170
     0
171
     0
290
     0
174
     0
 93
       13
 44
0.0
173
     0
291
     1
 45
0.0
1001
ACAD
1000
AcDbSavedByObjectVersion
1070
     0
  0
VISUALSTYLE
  5
2D
102
{ACAD_REACTORS
330
2A
102
}
330
2A
100
AcDbVisualStyle
  2
Gouraud
 70
     2
 71
     2
 72
     2
 73
     1
 90
        2
 40
-0.6
 41
30.0
 62
     5
 63
     7
 74
     0
 91
        4
 64
     7
 65
   257
 75
     1
175
     1
 42
1.0
 92
        0
 66
     7
 43
1.0
 76
     1
 77
     6
 78
     2
 67
     7
 79
     5
170
     0
171
     0
290
     0
174
     0
 93
       13
 44
0.0
173
     0
291
     1
 45
0.0
1001
ACAD
1000
AcDbSavedByObjectVersion
1070
     0
  0
VISUALSTYLE
  5
2E
102
{ACAD_REACTORS
330
2A
102
}
330
2A
100
AcDbVisualStyle
  2
GouraudWithEdges
 70
     3
 71
     2
 72
     2
 73
     1
 90
        2
 40
-0.6
 41
30.0
 62
     5
 63
     7
 74
     1
 91
        4
 64
     7
 65
   257
 75
     1
175
     1
 42
1.0
 92
        0
 66
   257
 43
1.0
 76
     1
 77
     6
 78
     2
 67
     7
 79
     5
170
     0
171
     0
290
     0
174
     0
 93
       13
 44
0.0
173
     0
291
     1
 45
0.0
1001
ACAD
1000
AcDbSavedByObjectVersion
1070
     0
  0
VISUALSTYLE
  5
38
102
{ACAD_REACTORS
330
2A
102
}
330
2A
100
AcDbVisualStyle
  2
Linepattern
 70
    14
 71
     2
 72
     2
 73
     0
 90
        0
 40
-0.6
 41
-30.0
 62
     5
 63
     7
 74
     1
 91
        4
 64
     7
 65
   257
 75
     7
175
     7
 42
1.0
 92
        8
 66
     7
 43
1.0
 76
     1
 77
     6
 78
     2
 67
     7
 79
     5
170
     0
171
     0
290
     0
174
     0
 93
        1
 44
0.0
173
     0
291
     1
 45
0.0
1001
ACAD
1000
AcDbSavedByObjectVersion
1070
     0
  0
VISUALSTYLE
  5
33
102
{ACAD_REACTORS
330
2A
102
}
330
2A
100
AcDbVisualStyle
  2
Realistic
 70
     8
 71
     2
 72
     2
 73
     0
 90
        0
 40
-0.6
 41
-30.0
 62
     5
 63
     7
 74
     1
 91
        0
 64
     7
 65
   257
 75
     1
175
     1
 42
1.0
 92
        8
 66
     8
 43
1.0
 76
     1
 77
     6
 78
     2
 67
     7
 79
     5
170
     0
171
     0
290
     0
174
     0
 93
       13
 44
0.0
173
     0
291
     0
 45
0.0
1001
ACAD
1000
AcDbSavedByObjectVersion
1070
     0
  0
VISUALSTYLE
  5
37
102
{ACAD_REACTORS
330
2A
102
}
330
2A
100
AcDbVisualStyle
  2
Thicken
 70
    13
 71
     2
 72
     2
 73
     0
 90
        0
 40
-0.6
 41
-30.0
 62
     5
 63
     7
 74
     1
 91
        4
 64
     7
 65
   257
 75
     1
175
     1
 42
1.0
 92
       12
 66
     7
 43
1.0
 76
     1
 77
     6
 78
     2
 67
     7
 79
     5
170
     0
171
     0
290
     0
174
     0
 93
        1
 44
0.0
173
     0
291
     1
 45
0.0
1001
ACAD
1000
AcDbSavedByObjectVersion
1070
     0
  0
DICTIONARYVAR
  5
3E2
102
{ACAD_REACTORS
330
3E1
102
}
330
3E1
100
DictionaryVariables
280
     0
  1
1:1
  0
DICTIONARYVAR
  5
3E6
102
{ACAD_REACTORS
330
3E1
102
}
330
3E1
100
DictionaryVariables
280
     0
  1
80.000000
  0
DICTIONARYVAR
  5
3E5
102
{ACAD_REACTORS
330
3E1
102
}
330
3E1
100
DictionaryVariables
280
     0
  1
5.000000
  0
ENDSEC
  0
EOF
