  0
SECTION
  2
HEADER
  9
$ACADVER
  1
AC1009
  9
$DWGCODEPAGE
  3
ansi_1252
  9
$INSBASE
 10
0.0
 20
0.0
 30
0.0
  9
$EXTMIN
 10
1.000000000000000E+20
 20
1.000000000000000E+20
 30
1.000000000000000E+20
  9
$EXTMAX
 10
-1.000000000000000E+20
 20
-1.000000000000000E+20
 30
-1.000000000000000E+20
  9
$LIMMIN
 10
0.0
 20
0.0
  9
$LIMMAX
 10
12.0
 20
9.0
  9
$ORTHOMODE
 70
     0
  9
$REGENMODE
 70
     1
  9
$FILLMODE
 70
     1
  9
$QTEXTMODE
 70
     0
  9
$MIRRTEXT
 70
     1
  9
$DRAGMODE
 70
     2
  9
$LTSCALE
 40
1.0
  9
$OSMODE
 70
    37
  9
$ATTMODE
 70
     1
  9
$TEXTSIZE
 40
0.2
  9
$TRACEWID
 40
0.05
  9
$TEXTSTYLE
  7
STANDARD
  9
$CLAYER
  8
0
  9
$CELTYPE
  6
BYLAYER
  9
$CECOLOR
 62
   256
  9
$DIMSCALE
 40
1.0
  9
$DIMASZ
 40
0.18
  9
$DIMEXO
 40
0.0625
  9
$DIMDLI
 40
0.38
  9
$DIMRND
 40
0.0
  9
$DIMDLE
 40
0.0
  9
$DIMEXE
 40
0.18
  9
$DIMTP
 40
0.0
  9
$DIMTM
 40
0.0
  9
$DIMTXT
 40
0.18
  9
$DIMCEN
 40
0.09
  9
$DIMTSZ
 40
0.0
  9
$DIMTOL
 70
     0
  9
$DIMLIM
 70
     0
  9
$DIMTIH
 70
     1
  9
$DIMTOH
 70
     1
  9
$DIMSE1
 70
     0
  9
$DIMSE2
 70
     0
  9
$DIMTAD
 70
     0
  9
$DIMZIN
 70
     0
  9
$DIMBLK
  1

  9
$DIMASO
 70
     1
  9
$DIMSHO
 70
     1
  9
$DIMPOST
  1

  9
$DIMAPOST
  1

  9
$DIMALT
 70
     0
  9
$DIMALTD
 70
     2
  9
$DIMALTF
 40
25.4
  9
$DIMLFAC
 40
1.0
  9
$DIMTOFL
 70
     0
  9
$DIMTVP
 40
0.0
  9
$DIMTIX
 70
     0
  9
$DIMSOXD
 70
     0
  9
$DIMSAH
 70
     0
  9
$DIMBLK1
  1

  9
$DIMBLK2
  1

  9
$DIMSTYLE
  2
STANDARD
  9
$DIMCLRD
 70
     0
  9
$DIMCLRE
 70
     0
  9
$DIMCLRT
 70
     0
  9
$DIMTFAC
 40
1.0
  9
$DIMGAP
 40
0.09
  9
$LUNITS
 70
     2
  9
$LUPREC
 70
     4
  9
$SKETCHINC
 40
0.1
  9
$FILLETRAD
 40
0.5
  9
$AUNITS
 70
     0
  9
$AUPREC
 70
     0
  9
$MENU
  1
.
  9
$ELEVATION
 40
0.0
  9
$PELEVATION
 40
0.0
  9
$THICKNESS
 40
0.0
  9
$LIMCHECK
 70
     0
  9
$CHAMFERA
 40
0.5
  9
$CHAMFERB
 40
0.5
  9
$SKPOLY
 70
     0
  9
$TDCREATE
 40
2455992.337915602
  9
$TDUPDATE
 40
2455992.337915602
  9
$TDINDWG
 40
0.0000000116
  9
$TDUSRTIMER
 40
0.0000000116
  9
$USRTIMER
 70
     1
  9
$ANGBASE
 50
0.0
  9
$ANGDIR
 70
     0
  9
$PDMODE
 70
     0
  9
$PDSIZE
 40
0.0
  9
$PLINEWID
 40
0.0
  9
$COORDS
 70
     1
  9
$SPLFRAME
 70
     0
  9
$SPLINETYPE
 70
     6
  9
$SPLINESEGS
 70
     8
  9
$ATTDIA
 70
     0
  9
$ATTREQ
 70
     1
  9
$HANDLING
 70
     1
  9
$HANDSEED
  5
7AC
  9
$SURFTAB1
 70
     6
  9
$SURFTAB2
 70
     6
  9
$SURFTYPE
 70
     6
  9
$SURFU
 70
     6
  9
$SURFV
 70
     6
  9
$UCSNAME
  2

  9
$UCSORG
 10
0.0
 20
0.0
 30
0.0
  9
$UCSXDIR
 10
1.0
 20
0.0
 30
0.0
  9
$UCSYDIR
 10
0.0
 20
1.0
 30
0.0
  9
$PUCSNAME
  2

  9
$PUCSORG
 10
0.0
 20
0.0
 30
0.0
  9
$PUCSXDIR
 10
1.0
 20
0.0
 30
0.0
  9
$PUCSYDIR
 10
0.0
 20
1.0
 30
0.0
  9
$USERI1
 70
     0
  9
$USERI2
 70
     0
  9
$USERI3
 70
     0
  9
$USERI4
 70
     0
  9
$USERI5
 70
     0
  9
$USERR1
 40
0.0
  9
$USERR2
 40
0.0
  9
$USERR3
 40
0.0
  9
$USERR4
 40
0.0
  9
$USERR5
 40
0.0
  9
$WORLDVIEW
 70
     1
  9
$SHADEDGE
 70
     3
  9
$SHADEDIF
 70
    70
  9
$TILEMODE
 70
     1
  9
$MAXACTVP
 70
    64
  9
$PLIMCHECK
 70
     0
  9
$PEXTMIN
 10
1.000000000000000E+20
 20
1.000000000000000E+20
 30
1.000000000000000E+20
  9
$PEXTMAX
 10
-1.000000000000000E+20
 20
-1.000000000000000E+20
 30
-1.000000000000000E+20
  9
$PLIMMIN
 10
0.0
 20
0.0
  9
$PLIMMAX
 10
12.0
 20
9.0
  9
$UNITMODE
 70
     0
  9
$VISRETAIN
 70
     1
  9
$PLINEGEN
 70
     0
  9
$PSLTSCALE
 70
     1
  0
ENDSEC
  0
SECTION
  2
TABLES
  0
TABLE
  2
VPORT
 70
     1
  0
VPORT
  2
*ACTIVE
 70
     0
 10
0.0
 20
0.0
 11
1.0
 21
1.0
 12
0.0
 22
0.0
 13
0.0
 23
0.0
 14
0.5
 24
0.5
 15
0.5
 25
0.5
 16
142.5796508789062
 26
-420.4795837402344
 36
281.4920349121094
 17
42.09849548339844
 27
-112.2680358886719
 37
47.84857177734375
 40
238.7719822862199
 41
1.972972972850329
 42
50.0
 43
0.0
 44
0.0
 50
0.0
 51
0.0
 71
     0
 72
   100
 73
     1
 74
     3
 75
     0
 76
     0
 77
     0
 78
     0
  0
ENDTAB
  0
TABLE
  2
LTYPE
 70
     1
  0
LTYPE
  2
CONTINUOUS
 70
     0
  3
Solid line
 72
    65
 73
     0
 40
0.0
  0
ENDTAB
  0
TABLE
  2
LAYER
 70
     2
  0
LAYER
  2
0
 70
     0
 62
     7
  6
CONTINUOUS
  0
LAYER
  2
LAYER_1
 70
     0
 62
     7
  6
CONTINUOUS
  0
ENDTAB
  0
TABLE
  2
STYLE
 70
     1
  0
STYLE
  2
STANDARD
 70
     0
 40
0.0
 41
1.0
 50
0.0
 71
     0
 42
0.2
  3
txt
  4

  0
ENDTAB
  0
TABLE
  2
VIEW
 70
     0
  0
ENDTAB
  0
TABLE
  2
UCS
 70
     0
  0
ENDTAB
  0
TABLE
  2
APPID
 70
     1
  0
APPID
  2
ACAD
 70
     0
  0
ENDTAB
  0
TABLE
  2
DIMSTYLE
 70
     1
  0
DIMSTYLE
  2
STANDARD
 70
     0
  3

  4

  5

  6

  7

 40
1.0
 41
0.18
 42
0.0625
 43
0.38
 44
0.18
 45
0.0
 46
0.0
 47
0.0
 48
0.0
140
0.18
141
0.09
142
0.0
143
25.4
144
1.0
145
0.0
146
1.0
147
0.09
 71
     0
 72
     0
 73
     1
 74
     1
 75
     0
 76
     0
 77
     0
 78
     0
170
     0
171
     2
172
     0
173
     0
174
     0
175
     0
176
     0
177
     0
178
     0
  0
ENDTAB
  0
ENDSEC
  0
SECTION
  2
BLOCKS
  0
BLOCK
  8
0
  2
$MODEL_SPACE
 70
     0
 10
0.0
 20
0.0
 30
0.0
  3
$MODEL_SPACE
  1

  0
ENDBLK
  5
21
  8
0
  0
BLOCK
 67
     1
  8
0
  2
$PAPER_SPACE
 70
     0
 10
0.0
 20
0.0
 30
0.0
  3
$PAPER_SPACE
  1

  0
ENDBLK
  5
1D
 67
     1
  8
0
  0
BLOCK
  8
0
  2
CNET_SRF
 70
     0
 10
0.0
 20
0.0
 30
0.0
  3
CNET_SRF
  1

  0
POLYLINE
  5
3C
  8
0
 62
     9
 66
     1
 10
0.0
 20
0.0
 30
0.0
 70
    64
 71
   225
 72
   418
  0
VERTEX
  5
3D
  8
0
 10
72.20000457763672
 20
19.00861549377441
 30
-56.85348510742188
 70
   192
  0
VERTEX
  5
3E
  8
0
 10
72.20000457763672
 20
13.8679141998291
 30
-61.03777694702148
 70
   192
  0
VERTEX
  5
3F
  8
0
 10
16.90000152587891
 20
9.239985466003418
 30
-63.32004165649414
 70
   192
  0
VERTEX
  5
40
  8
0
 10
16.90000152587891
 20
25.94117736816406
 30
-34.73530960083008
 70
   192
  0
VERTEX
  5
41
  8
0
 10
72.20000457763672
 20
26.25000190734863
 30
-38.75001907348633
 70
   192
  0
VERTEX
  5
42
  8
0
 10
16.90000152587891
 20
25.94117736816406
 30
-42.76472854614258
 70
   192
  0
VERTEX
  5
43
  8
0
 10
58.70000076293945
 20
5.192301750183105
 30
-64.48139190673828
 70
   192
  0
VERTEX
  5
44
  8
0
 10
16.90000152587891
 20
4.344808578491211
 30
-64.63797760009766
 70
   192
  0
VERTEX
  5
45
  8
0
 10
72.20000457763672
 20
7.349983692169189
 30
-63.95004272460938
 70
   192
  0
VERTEX
  5
46
  8
0
 10
30.70000267028809
 20
4.83141040802002
 30
-64.4171371459961
 70
   192
  0
VERTEX
  5
47
  8
0
 10
72.20000457763672
 20
-0.0000232349848375
 30
-65.00004577636719
 70
   192
  0
VERTEX
  5
48
  8
0
 10
16.90000152587891
 20
14.44953155517578
 30
-60.66517639160156
 70
   192
  0
VERTEX
  5
49
  8
0
 10
72.20000457763672
 20
22.61538314819336
 30
-52.07695388793945
 70
   192
  0
VERTEX
  5
4A
  8
0
 10
16.90000152587891
 20
-0.0000232349848375
 30
-65.00004577636719
 70
   192
  0
VERTEX
  5
4B
  8
0
 10
16.90000152587891
 20
19.48453140258789
 30
-56.34024047851562
 70
   192
  0
VERTEX
  5
4C
  8
0
 10
16.90000152587891
 20
23.59550476074219
 30
-50.25283813476562
 70
   192
  0
VERTEX
  5
4D
  8
0
 10
72.20000457763672
 20
24.83108139038086
 30
-47.26354217529297
 70
   192
  0
VERTEX
  5
4E
  8
0
 10
72.20000457763672
 20
25.94117736816406
 30
-42.76472854614258
 70
   192
  0
VERTEX
  5
4F
  8
0
 10
16.90000152587891
 20
14.44953155517578
 30
-16.83486175537109
 70
   192
  0
VERTEX
  5
50
  8
0
 10
72.20000457763672
 20
22.61538314819336
 30
-25.4230842590332
 70
   192
  0
VERTEX
  5
51
  8
0
 10
16.90000152587891
 20
19.48453140258789
 30
-21.15979766845703
 70
   192
  0
VERTEX
  5
52
  8
0
 10
16.90000152587891
 20
23.59550476074219
 30
-27.24720001220703
 70
   192
  0
VERTEX
  5
53
  8
0
 10
72.20000457763672
 20
24.83108139038086
 30
-30.23649787902832
 70
   192
  0
VERTEX
  5
54
  8
0
 10
72.20000457763672
 20
25.94117736816406
 30
-34.73530960083008
 70
   192
  0
VERTEX
  5
55
  8
0
 10
16.90000152587891
 20
4.344808578491211
 30
-12.86206436157227
 70
   192
  0
VERTEX
  5
56
  8
0
 10
28.43155097961426
 20
6.204020023345947
 30
-13.24367427825928
 70
   192
  0
VERTEX
  5
57
  8
0
 10
16.90000152587891
 20
9.239985466003418
 30
-14.17999649047852
 70
   192
  0
VERTEX
  5
58
  8
0
 10
72.20000457763672
 20
19.00861549377441
 30
-20.64655494689941
 70
   192
  0
VERTEX
  5
59
  8
0
 10
54.60000228881836
 20
8.49998950958252
 30
-13.91428756713867
 70
   192
  0
VERTEX
  5
5A
  8
0
 10
26.54951286315918
 20
3.369131803512573
 30
-12.71710586547852
 70
   192
  0
VERTEX
  5
5B
  8
0
 10
16.90000152587891
 20
-0.0000232349848375
 30
-12.49999523162842
 70
   192
  0
VERTEX
  5
5C
  8
0
 10
72.20000457763672
 20
13.8679141998291
 30
-16.4622631072998
 70
   192
  0
VERTEX
  5
5D
  8
0
 10
31.23970222473145
 20
8.112492561340332
 30
-13.78502655029297
 70
   192
  0
VERTEX
  5
5E
  8
0
 10
34.68432235717773
 20
8.49998950958252
 30
-13.91428756713867
 70
   192
  0
VERTEX
  5
5F
  8
0
 10
61.60359573364258
 20
5.36004114151001
 30
-13.05316925048828
 70
   192
  0
VERTEX
  5
60
  8
0
 10
72.20000457763672
 20
7.349983692169189
 30
-13.54999542236328
 70
   192
  0
VERTEX
  5
61
  8
0
 10
58.52993392944336
 20
7.895459175109863
 30
-13.71552181243896
 70
   192
  0
VERTEX
  5
62
  8
0
 10
72.20000457763672
 20
-0.0000232349848375
 30
-12.49999523162842
 70
   192
  0
VERTEX
  5
63
  8
0
 10
63.23076629638672
 20
1.813734173774719
 30
-12.56273078918457
 70
   192
  0
VERTEX
  5
64
  8
0
 10
63.41890335083008
 20
-0.0000231852754951
 30
-12.50027084350586
 70
   192
  0
VERTEX
  5
65
  8
0
 10
30.69605827331543
 20
-7.85786247253418
 30
-16.35000038146973
 70
   192
  0
VERTEX
  5
66
  8
0
 10
28.96715354919434
 20
-6.702027797698975
 30
-13.37243747711182
 70
   192
  0
VERTEX
  5
67
  8
0
 10
30.69590759277344
 20
-7.856206893920898
 30
-13.7097339630127
 70
   192
  0
VERTEX
  5
68
  8
0
 10
27.56511116027832
 20
-5.183807373046875
 30
-13.01693534851074
 70
   192
  0
VERTEX
  5
69
  8
0
 10
28.97234153747559
 20
-6.706117630004883
 30
-16.35000038146973
 70
   192
  0
VERTEX
  5
6A
  8
0
 10
27.56511116027832
 20
-5.183807373046875
 30
-16.35000038146973
 70
   192
  0
VERTEX
  5
6B
  8
0
 10
21.5275707244873
 20
0.6702505946159363
 30
-12.82578754425049
 70
   192
  0
VERTEX
  5
6C
  8
0
 10
20.75322341918945
 20
0.6702505946159363
 30
-12.82578754425049
 70
   192
  0
VERTEX
  5
6D
  8
0
 10
73.70000457763672
 20
3.012682199478149
 30
-14.18489265441895
 70
   192
  0
VERTEX
  5
6E
  8
0
 10
73.26066589355469
 20
-3.947539806365967
 30
-13.2429895401001
 70
   192
  0
VERTEX
  5
6F
  8
0
 10
73.70000457763672
 20
-2.987195730209351
 30
-14.18489265441895
 70
   192
  0
VERTEX
  5
70
  8
0
 10
73.70000457763672
 20
-24.75004768371582
 30
-38.75001907348633
 70
   192
  0
VERTEX
  5
71
  8
0
 10
73.70000457763672
 20
-24.02197074890137
 30
-32.79758453369141
 70
   192
  0
VERTEX
  5
72
  8
0
 10
73.26066589355469
 20
-25.81070899963379
 30
-38.75001907348633
 70
   192
  0
VERTEX
  5
73
  8
0
 10
73.70000457763672
 20
-18.49481964111328
 30
-22.31189918518066
 70
   192
  0
VERTEX
  5
74
  8
0
 10
73.26066589355469
 20
-21.54839324951172
 30
-24.54230308532715
 70
   192
  0
VERTEX
  5
75
  8
0
 10
73.26066589355469
 20
-24.1588249206543
 30
-29.66465759277344
 70
   192
  0
VERTEX
  5
76
  8
0
 10
73.26066589355469
 20
3.947493314743042
 30
-13.2429895401001
 70
   192
  0
VERTEX
  5
77
  8
0
 10
73.70000457763672
 20
8.79531478881836
 30
-15.61605834960938
 70
   192
  0
VERTEX
  5
78
  8
0
 10
73.26066589355469
 20
-25.45469856262207
 30
-34.4779052734375
 70
   192
  0
VERTEX
  5
79
  8
0
 10
73.70000457763672
 20
-21.91245460510254
 30
-27.24032592773438
 70
   192
  0
VERTEX
  5
7A
  8
0
 10
73.70000457763672
 20
-14.01493263244629
 30
-18.35724258422852
 70
   192
  0
VERTEX
  5
7B
  8
0
 10
72.20000457763672
 20
-26.25004768371582
 30
-38.75001907348633
 70
   192
  0
VERTEX
  5
7C
  8
0
 10
73.26066589355469
 20
-17.29584312438965
 30
-19.59157371520996
 70
   192
  0
VERTEX
  5
7D
  8
0
 10
73.26066589355469
 20
-11.31032371520996
 30
-15.54940414428711
 70
   192
  0
VERTEX
  5
7E
  8
0
 10
73.70000457763672
 20
-8.75515079498291
 30
-15.60197162628174
 70
   192
  0
VERTEX
  5
7F
  8
0
 10
73.26066589355469
 20
17.29579734802246
 30
-19.59157371520996
 70
   192
  0
VERTEX
  5
80
  8
0
 10
73.70000457763672
 20
14.07027530670166
 30
-18.3888111114502
 70
   192
  0
VERTEX
  5
81
  8
0
 10
73.70000457763672
 20
18.55031967163086
 30
-22.3780574798584
 70
   192
  0
VERTEX
  5
82
  8
0
 10
73.26066589355469
 20
11.31027698516846
 30
-15.54940414428711
 70
   192
  0
VERTEX
  5
83
  8
0
 10
73.26066589355469
 20
25.81066131591797
 30
-38.75001907348633
 70
   192
  0
VERTEX
  5
84
  8
0
 10
73.70000457763672
 20
24.02192497253418
 30
-32.79758453369141
 70
   192
  0
VERTEX
  5
85
  8
0
 10
73.26066589355469
 20
24.15877723693848
 30
-29.66465759277344
 70
   192
  0
VERTEX
  5
86
  8
0
 10
73.70000457763672
 20
21.93111610412598
 30
-27.28384780883789
 70
   192
  0
VERTEX
  5
87
  8
0
 10
73.70000457763672
 20
24.75000190734863
 30
-38.75001907348633
 70
   192
  0
VERTEX
  5
88
  8
0
 10
73.26066589355469
 20
25.45465278625488
 30
-34.4779052734375
 70
   192
  0
VERTEX
  5
89
  8
0
 10
73.26066589355469
 20
21.54834747314453
 30
-24.54230308532715
 70
   192
  0
VERTEX
  5
8A
  8
0
 10
72.20000457763672
 20
-5.508562088012695
 30
-13.07638931274414
 70
   192
  0
VERTEX
  5
8B
  8
0
 10
72.20000457763672
 20
-11.10259342193604
 30
-14.95527076721191
 70
   192
  0
VERTEX
  5
8C
  8
0
 10
72.20000457763672
 20
-16.31059265136719
 30
-18.18651962280273
 70
   192
  0
VERTEX
  5
8D
  8
0
 10
72.20000457763672
 20
-20.66201019287109
 30
-22.58777236938477
 70
   192
  0
VERTEX
  5
8E
  8
0
 10
72.20000457763672
 20
-23.82199096679688
 30
-27.78275680541992
 70
   192
  0
VERTEX
  5
8F
  8
0
 10
72.20000457763672
 20
-25.68191337585449
 30
-33.27915573120117
 70
   192
  0
VERTEX
  5
90
  8
0
 10
27.80872917175293
 20
-3.866217613220215
 30
-64.57280731201172
 70
   192
  0
VERTEX
  5
91
  8
0
 10
27.74177932739258
 20
-4.030801296234131
 30
-64.65218353271484
 70
   192
  0
VERTEX
  5
92
  8
0
 10
26.99421691894531
 20
-3.084065675735474
 30
-64.67241668701172
 70
   192
  0
VERTEX
  5
93
  8
0
 10
28.85202026367188
 20
-4.461385250091553
 30
-64.48724365234375
 70
   192
  0
VERTEX
  5
94
  8
0
 10
26.85836791992188
 20
-3.204995393753052
 30
-64.73045349121094
 70
   192
  0
VERTEX
  5
95
  8
0
 10
26.72252082824707
 20
-3.32592511177063
 30
-64.78849792480469
 70
   192
  0
VERTEX
  5
96
  8
0
 10
27.62733459472656
 20
-4.182621002197266
 30
-64.66436767578125
 70
   192
  0
VERTEX
  5
97
  8
0
 10
26.17524528503418
 20
-1.644810914993286
 30
-64.8099594116211
 70
   192
  0
VERTEX
  5
98
  8
0
 10
26.02321624755859
 20
-1.699643731117249
 30
-64.9090576171875
 70
   192
  0
VERTEX
  5
99
  8
0
 10
25.8493595123291
 20
-1.768368124961853
 30
-64.94041442871094
 70
   192
  0
VERTEX
  5
9A
  8
0
 10
73.26066589355469
 20
-24.1588249206543
 30
-47.83538055419922
 70
   192
  0
VERTEX
  5
9B
  8
0
 10
73.70000457763672
 20
-24.02197074890137
 30
-44.70245361328125
 70
   192
  0
VERTEX
  5
9C
  8
0
 10
73.26066589355469
 20
-25.45469856262207
 30
-43.02213287353516
 70
   192
  0
VERTEX
  5
9D
  8
0
 10
73.70000457763672
 20
-21.93116188049316
 30
-50.21619033813477
 70
   192
  0
VERTEX
  5
9E
  8
0
 10
73.26066589355469
 20
-21.54839324951172
 30
-52.95773696899414
 70
   192
  0
VERTEX
  5
9F
  8
0
 10
73.70000457763672
 20
-18.55036735534668
 30
-55.12198257446289
 70
   192
  0
VERTEX
  5
A0
  8
0
 10
72.20000457763672
 20
-23.8238697052002
 30
-49.79158782958984
 70
   192
  0
VERTEX
  5
A1
  8
0
 10
72.20000457763672
 20
-25.68191337585449
 30
-44.22088241577148
 70
   192
  0
VERTEX
  5
A2
  8
0
 10
73.26066589355469
 20
-11.31032371520996
 30
-61.95063400268555
 70
   192
  0
VERTEX
  5
A3
  8
0
 10
73.70000457763672
 20
-14.07032203674316
 30
-59.11122894287109
 70
   192
  0
VERTEX
  5
A4
  8
0
 10
73.26066589355469
 20
-17.29584312438965
 30
-57.90846633911133
 70
   192
  0
VERTEX
  5
A5
  8
0
 10
73.26066589355469
 20
3.947493314743042
 30
-64.25704956054688
 70
   192
  0
VERTEX
  5
A6
  8
0
 10
73.70000457763672
 20
2.987149238586426
 30
-63.31514739990234
 70
   192
  0
VERTEX
  5
A7
  8
0
 10
73.70000457763672
 20
-3.012728691101074
 30
-63.31514739990234
 70
   192
  0
VERTEX
  5
A8
  8
0
 10
73.26066589355469
 20
-3.947539806365967
 30
-64.25704956054688
 70
   192
  0
VERTEX
  5
A9
  8
0
 10
73.70000457763672
 20
-8.795361518859863
 30
-61.88397979736328
 70
   192
  0
VERTEX
  5
AA
  8
0
 10
73.70000457763672
 20
8.755104064941406
 30
-61.89806747436523
 70
   192
  0
VERTEX
  5
AB
  8
0
 10
73.26066589355469
 20
11.31027698516846
 30
-61.95063400268555
 70
   192
  0
VERTEX
  5
AC
  8
0
 10
73.26066589355469
 20
17.29579734802246
 30
-57.90846633911133
 70
   192
  0
VERTEX
  5
AD
  8
0
 10
73.70000457763672
 20
18.49477386474609
 30
-55.18814086914062
 70
   192
  0
VERTEX
  5
AE
  8
0
 10
73.26066589355469
 20
21.54834747314453
 30
-52.95773696899414
 70
   192
  0
VERTEX
  5
AF
  8
0
 10
73.26066589355469
 20
24.15877723693848
 30
-47.83538055419922
 70
   192
  0
VERTEX
  5
B0
  8
0
 10
73.70000457763672
 20
14.0148868560791
 30
-59.14279556274414
 70
   192
  0
VERTEX
  5
B1
  8
0
 10
73.70000457763672
 20
21.91240882873535
 30
-50.25971221923828
 70
   192
  0
VERTEX
  5
B2
  8
0
 10
73.26066589355469
 20
25.45465278625488
 30
-43.02213287353516
 70
   192
  0
VERTEX
  5
B3
  8
0
 10
73.70000457763672
 20
24.02192497253418
 30
-44.70245361328125
 70
   192
  0
VERTEX
  5
B4
  8
0
 10
72.20000457763672
 20
-20.6157054901123
 30
-54.99624252319336
 70
   192
  0
VERTEX
  5
B5
  8
0
 10
72.20000457763672
 20
-16.22751998901367
 30
-59.36197280883789
 70
   192
  0
VERTEX
  5
B6
  8
0
 10
72.20000457763672
 20
-11.02764892578125
 30
-62.54457473754883
 70
   192
  0
VERTEX
  5
B7
  8
0
 10
72.20000457763672
 20
-5.508562564849854
 30
-64.42365264892578
 70
   192
  0
VERTEX
  5
B8
  8
0
 10
59.87430572509766
 20
-6.62798023223877
 30
-13.33353614807129
 70
   192
  0
VERTEX
  5
B9
  8
0
 10
62.28713226318359
 20
-3.614471912384033
 30
-12.74083709716797
 70
   192
  0
VERTEX
  5
BA
  8
0
 10
28.29150009155273
 20
-5.572343349456787
 30
-13.10804176330566
 70
   192
  0
VERTEX
  5
BB
  8
0
 10
54.59999465942383
 20
-8.500011444091797
 30
-16.35000038146973
 70
   192
  0
VERTEX
  5
BC
  8
0
 10
32.28461456298828
 20
-8.148029327392578
 30
-13.78141403198242
 70
   192
  0
VERTEX
  5
BD
  8
0
 10
34.70000839233398
 20
-8.500011444091797
 30
-16.35000038146973
 70
   192
  0
VERTEX
  5
BE
  8
0
 10
26.99091911315918
 20
-3.568979024887085
 30
-12.76591968536377
 70
   192
  0
VERTEX
  5
BF
  8
0
 10
26.41437911987305
 20
-1.21388304233551
 30
-12.56864833831787
 70
   192
  0
VERTEX
  5
C0
  8
0
 10
62.55606460571289
 20
2.985789775848389
 30
-12.66345882415771
 70
   192
  0
VERTEX
  5
C1
  8
0
 10
26.94616889953613
 20
3.469242811203003
 30
-12.72176551818848
 70
   192
  0
VERTEX
  5
C2
  8
0
 10
26.41109466552734
 20
1.1912442445755
 30
-12.5676097869873
 70
   192
  0
VERTEX
  5
C3
  8
0
 10
30.06462669372559
 20
7.107658863067627
 30
-13.46253871917725
 70
   192
  0
VERTEX
  5
C4
  8
0
 10
57.959716796875
 20
7.806531429290771
 30
-13.68265438079834
 70
   192
  0
VERTEX
  5
C5
  8
0
 10
32.26617813110352
 20
8.142430305480957
 30
-13.77949333190918
 70
   192
  0
VERTEX
  5
C6
  8
0
 10
60.74762344360352
 20
5.868758201599121
 30
-13.15329456329346
 70
   192
  0
VERTEX
  5
C7
  8
0
 10
28.24825096130371
 20
5.531864643096924
 30
-13.08455276489258
 70
   192
  0
VERTEX
  5
C8
  8
0
 10
63.08303833007812
 20
-0.3956263959407806
 30
-12.51188850402832
 70
   192
  0
VERTEX
  5
C9
  8
0
 10
30.14844512939453
 20
-7.172140121459961
 30
-13.51266860961914
 70
   192
  0
VERTEX
  5
CA
  8
0
 10
58.23995590209961
 20
-7.68150806427002
 30
-13.64851379394531
 70
   192
  0
VERTEX
  5
CB
  8
0
 10
62.967041015625
 20
-1.523953676223755
 30
-16.35000038146973
 70
   192
  0
VERTEX
  5
CC
  8
0
 10
62.86909484863281
 20
1.95209538936615
 30
-16.35000038146973
 70
   192
  0
VERTEX
  5
CD
  8
0
 10
61.20408630371094
 20
5.349644660949707
 30
-16.35000038146973
 70
   192
  0
VERTEX
  5
CE
  8
0
 10
58.12921905517578
 20
7.733931541442871
 30
-16.35000038146973
 70
   192
  0
VERTEX
  5
CF
  8
0
 10
26.86959457397461
 20
3.294908761978149
 30
-16.35000038146973
 70
   192
  0
VERTEX
  5
D0
  8
0
 10
26.20000076293945
 20
-0.0000285857440758
 30
-16.35000038146973
 70
   192
  0
VERTEX
  5
D1
  8
0
 10
28.75165557861328
 20
6.052097797393799
 30
-16.35000038146973
 70
   192
  0
VERTEX
  5
D2
  8
0
 10
31.40502738952637
 20
7.830380439758301
 30
-16.35000038146973
 70
   192
  0
VERTEX
  5
D3
  8
0
 10
26.84079551696777
 20
-3.188036441802979
 30
-16.35000038146973
 70
   192
  0
VERTEX
  5
D4
  8
0
 10
28.64789009094238
 20
-5.948338985443115
 30
-16.35000038146973
 70
   192
  0
VERTEX
  5
D5
  8
0
 10
31.40507316589355
 20
-7.83040714263916
 30
-16.35000038146973
 70
   192
  0
VERTEX
  5
D6
  8
0
 10
25.88064575195312
 20
-0.0000092957234301
 30
-16.35000038146973
 70
   192
  0
VERTEX
  5
D7
  8
0
 10
26.31230545043945
 20
-2.724895477294922
 30
-16.35000038146973
 70
   192
  0
VERTEX
  5
D8
  8
0
 10
32.64102172851562
 20
-8.575384140014648
 30
-16.35000038146973
 70
   192
  0
VERTEX
  5
D9
  8
0
 10
63.23076629638672
 20
1.813734173774719
 30
-16.35000038146973
 70
   192
  0
VERTEX
  5
DA
  8
0
 10
61.60433959960938
 20
5.359071254730225
 30
-16.35000038146973
 70
   192
  0
VERTEX
  5
DB
  8
0
 10
31.38065147399902
 20
8.171185493469238
 30
-16.35000038146973
 70
   192
  0
VERTEX
  5
DC
  8
0
 10
26.49308204650879
 20
3.229230165481567
 30
-16.35000038146973
 70
   192
  0
VERTEX
  5
DD
  8
0
 10
63.22458648681641
 20
-1.842589497566223
 30
-16.35000038146973
 70
   192
  0
VERTEX
  5
DE
  8
0
 10
58.41122055053711
 20
7.953449726104736
 30
-16.35000038146973
 70
   192
  0
VERTEX
  5
DF
  8
0
 10
28.43089294433594
 20
6.203354835510254
 30
-16.35000038146973
 70
   192
  0
VERTEX
  5
E0
  8
0
 10
20.75322151184082
 20
-0.6702700257301331
 30
-12.82578754425049
 70
   192
  0
VERTEX
  5
E1
  8
0
 10
21.5275707244873
 20
-0.6702715158462524
 30
-12.82578754425049
 70
   192
  0
VERTEX
  5
E2
  8
0
 10
26.31659507751465
 20
-2.738059997558594
 30
-12.6431827545166
 70
   192
  0
VERTEX
  5
E3
  8
0
 10
32.6198616027832
 20
-8.569538116455078
 30
-13.93659782409668
 70
   192
  0
VERTEX
  5
E4
  8
0
 10
63.04513931274414
 20
-2.541527032852173
 30
-12.62235736846924
 70
   192
  0
VERTEX
  5
E5
  8
0
 10
63.32487106323242
 20
-1.281476259231567
 30
-12.53139972686768
 70
   192
  0
VERTEX
  5
E6
  8
0
 10
26.52422332763672
 20
-1.395849347114563
 30
-64.47576904296875
 70
   192
  0
VERTEX
  5
E7
  8
0
 10
27.15757179260254
 20
-2.15286660194397
 30
-64.24311828613281
 70
   192
  0
VERTEX
  5
E8
  8
0
 10
27.0651683807373
 20
-2.624746561050415
 30
-64.43992614746094
 70
   192
  0
VERTEX
  5
E9
  8
0
 10
26.31463813781738
 20
-0.0000097754546005
 30
-64.50874328613281
 70
   192
  0
VERTEX
  5
EA
  8
0
 10
26.86935615539551
 20
-1.093382835388184
 30
-64.19874572753906
 70
   192
  0
VERTEX
  5
EB
  8
0
 10
26.77777862548828
 20
-0.0000090878293122
 30
-64.1934585571289
 70
   192
  0
VERTEX
  5
EC
  8
0
 10
26.87112426757812
 20
1.092471480369568
 30
-64.1976547241211
 70
   192
  0
VERTEX
  5
ED
  8
0
 10
26.52524948120117
 20
1.395366191864014
 30
-64.47502136230469
 70
   192
  0
VERTEX
  5
EE
  8
0
 10
27.37348747253418
 20
-0.0000079817791629
 30
-63.85109329223633
 70
   192
  0
VERTEX
  5
EF
  8
0
 10
27.46844291687012
 20
1.309129118919373
 30
-63.90826416015625
 70
   192
  0
VERTEX
  5
F0
  8
0
 10
28.00718307495117
 20
-0.0000067091814344
 30
-63.57230758666992
 70
   192
  0
VERTEX
  5
F1
  8
0
 10
28.0937385559082
 20
1.477160453796387
 30
-63.66605377197266
 70
   192
  0
VERTEX
  5
F2
  8
0
 10
28.09374809265137
 20
-1.477177500724792
 30
-63.66605377197266
 70
   192
  0
VERTEX
  5
F3
  8
0
 10
28.35115051269531
 20
-2.91157865524292
 30
-63.94482803344727
 70
   192
  0
VERTEX
  5
F4
  8
0
 10
27.74088668823242
 20
-2.541519641876221
 30
-64.06432342529297
 70
   192
  0
VERTEX
  5
F5
  8
0
 10
27.46764945983887
 20
-1.309496760368347
 30
-63.90535736083984
 70
   192
  0
VERTEX
  5
F6
  8
0
 10
27.75445747375488
 20
-3.233432292938232
 30
-64.30091094970703
 70
   192
  0
VERTEX
  5
F7
  8
0
 10
28.57444953918457
 20
-3.702009439468384
 30
-64.1866683959961
 70
   192
  0
VERTEX
  5
F8
  8
0
 10
59.71487426757812
 20
-5.084173679351807
 30
-64.50357055664062
 70
   192
  0
VERTEX
  5
F9
  8
0
 10
16.90000152587891
 20
-24.05391502380371
 30
-49.26068496704102
 70
   192
  0
VERTEX
  5
FA
  8
0
 10
16.90000152587891
 20
-19.93232536315918
 30
-55.83121109008789
 70
   192
  0
VERTEX
  5
FB
  8
0
 10
16.90000152587891
 20
-13.98582077026367
 30
-60.96400833129883
 70
   192
  0
VERTEX
  5
FC
  8
0
 10
16.90000152587891
 20
-19.93232536315918
 30
-21.66882705688477
 70
   192
  0
VERTEX
  5
FD
  8
0
 10
16.90000152587891
 20
-24.05391502380371
 30
-28.23935508728027
 70
   192
  0
VERTEX
  5
FE
  8
0
 10
16.90000152587891
 20
-26.02371788024902
 30
-35.31038284301758
 70
   192
  0
VERTEX
  5
FF
  8
0
 10
16.90000152587891
 20
-26.02371788024902
 30
-42.18965530395508
 70
   192
  0
VERTEX
  5
100
  8
0
 10
16.90000152587891
 20
-7.023046970367432
 30
-13.45691871643066
 70
   192
  0
VERTEX
  5
101
  8
0
 10
16.90000152587891
 20
-13.98582077026367
 30
-16.53603172302246
 70
   192
  0
VERTEX
  5
102
  8
0
 10
16.90000152587891
 20
-7.023046970367432
 30
-64.04312133789062
 70
   192
  0
VERTEX
  5
103
  8
0
 10
30.70000267028809
 20
-5.19231128692627
 30
-64.48139953613281
 70
   192
  0
VERTEX
  5
104
  8
0
 10
29.75723838806152
 20
-4.738488674163818
 30
-64.43958282470703
 70
   192
  0
VERTEX
  5
105
  8
0
 10
58.70000076293945
 20
-5.192304134368896
 30
-64.48139953613281
 70
   192
  0
VERTEX
  5
106
  8
0
 10
30.70000267028809
 20
-0.0000034561069242
 30
-63.05000686645508
 70
   192
  0
VERTEX
  5
107
  8
0
 10
29.46073722839355
 20
2.472249984741211
 30
-63.50773239135742
 70
   192
  0
VERTEX
  5
108
  8
0
 10
30.70000267028809
 20
2.512242317199707
 30
-63.39911270141602
 70
   192
  0
VERTEX
  5
109
  8
0
 10
29.34222984313965
 20
-0.000004349273695
 30
-63.18356323242188
 70
   192
  0
VERTEX
  5
10A
  8
0
 10
29.45742797851562
 20
-2.475066423416138
 30
-63.51182556152344
 70
   192
  0
VERTEX
  5
10B
  8
0
 10
30.70000267028809
 20
-3.306760549545288
 30
-63.66413497924805
 70
   192
  0
VERTEX
  5
10C
  8
0
 10
30.70000267028809
 20
-1.674835205078125
 30
-63.20516586303711
 70
   192
  0
VERTEX
  5
10D
  8
0
 10
61.93239212036133
 20
1.309528112411499
 30
-63.90888214111328
 70
   192
  0
VERTEX
  5
10E
  8
0
 10
62.02651596069336
 20
-0.0000079825185821
 30
-63.85109329223633
 70
   192
  0
VERTEX
  5
10F
  8
0
 10
61.392822265625
 20
-0.0000067091818892
 30
-63.57230758666992
 70
   192
  0
VERTEX
  5
110
  8
0
 10
61.30626678466797
 20
1.477160334587097
 30
-63.66605758666992
 70
   192
  0
VERTEX
  5
111
  8
0
 10
58.70000076293945
 20
-0.0000035270400076
 30
-63.05000686645508
 70
   192
  0
VERTEX
  5
112
  8
0
 10
58.70000076293945
 20
2.512242317199707
 30
-63.39911270141602
 70
   192
  0
VERTEX
  5
113
  8
0
 10
58.70000076293945
 20
-1.696288347244263
 30
-63.20841979980469
 70
   192
  0
VERTEX
  5
114
  8
0
 10
58.70000076293945
 20
-3.306760549545288
 30
-63.66413497924805
 70
   192
  0
VERTEX
  5
115
  8
0
 10
60.05777359008789
 20
-0.0000043581412683
 30
-63.18356323242188
 70
   192
  0
VERTEX
  5
116
  8
0
 10
59.93926620483398
 20
2.472234964370728
 30
-63.5076904296875
 70
   192
  0
VERTEX
  5
117
  8
0
 10
61.65786743164062
 20
-2.540601253509521
 30
-64.06361389160156
 70
   192
  0
VERTEX
  5
118
  8
0
 10
61.64482116699219
 20
-3.232852458953857
 30
-64.30066680908203
 70
   192
  0
VERTEX
  5
119
  8
0
 10
61.04885482788086
 20
-2.911578416824341
 30
-63.94482803344727
 70
   192
  0
VERTEX
  5
11A
  8
0
 10
60.82555389404297
 20
-3.702002763748169
 30
-64.1866683959961
 70
   192
  0
VERTEX
  5
11B
  8
0
 10
61.93152236938477
 20
-1.309095859527588
 30
-63.90474319458008
 70
   192
  0
VERTEX
  5
11C
  8
0
 10
61.30625534057617
 20
-1.477177500724792
 30
-63.66605377197266
 70
   192
  0
VERTEX
  5
11D
  8
0
 10
59.94256591796875
 20
-2.475076913833618
 30
-63.51186752319336
 70
   192
  0
VERTEX
  5
11E
  8
0
 62
     9
 10
0.0
 20
0.0
 30
0.0
 70
   128
 71
     3
 72
     2
 73
     1
  0
VERTEX
  5
11F
  8
0
 62
     9
 10
0.0
 20
0.0
 30
0.0
 70
   128
 71
     6
 72
     5
 73
     4
  0
VERTEX
  5
120
  8
0
 62
     9
 10
0.0
 20
0.0
 30
0.0
 70
   128
 71
     8
 72
     7
 73
     3
  0
VERTEX
  5
121
  8
0
 62
     9
 10
0.0
 20
0.0
 30
0.0
 70
   128
 71
     2
 72
     3
 73
     7
  0
VERTEX
  5
122
  8
0
 62
     9
 10
0.0
 20
0.0
 30
0.0
 70
   128
 71
     7
 72
     9
 73
     2
  0
VERTEX
  5
123
  8
0
 62
     9
 10
0.0
 20
0.0
 30
0.0
 70
   128
 71
     8
 72
     7
 73
    10
  0
VERTEX
  5
124
  8
0
 62
     9
 10
0.0
 20
0.0
 30
0.0
 70
   128
 71
     7
 72
    11
 73
     9
  0
VERTEX
  5
125
  8
0
 62
     9
 10
0.0
 20
0.0
 30
0.0
 70
   128
 71
    13
 72
    12
 73
     1
  0
VERTEX
  5
126
  8
0
 62
     9
 10
0.0
 20
0.0
 30
0.0
 70
   128
 71
     1
 72
    12
 73
     3
  0
VERTEX
  5
127
  8
0
 62
     9
 10
0.0
 20
0.0
 30
0.0
 70
   128
 71
    10
 72
     8
 73
    14
  0
VERTEX
  5
128
  8
0
 62
     9
 10
0.0
 20
0.0
 30
0.0
 70
   128
 71
    12
 72
    13
 73
    15
  0
VERTEX
  5
129
  8
0
 62
     9
 10
0.0
 20
0.0
 30
0.0
 70
   128
 71
    17
 72
    16
 73
    15
  0
VERTEX
  5
12A
  8
0
 62
     9
 10
0.0
 20
0.0
 30
0.0
 70
   128
 71
    15
 72
    13
 73
    17
  0
VERTEX
  5
12B
  8
0
 62
     9
 10
0.0
 20
0.0
 30
0.0
 70
   128
 71
     6
 72
    16
 73
    18
  0
VERTEX
  5
12C
  8
0
 62
     9
 10
0.0
 20
0.0
 30
0.0
 70
   128
 71
    17
 72
    18
 73
    16
  0
VERTEX
  5
12D
  8
0
 62
     9
 10
0.0
 20
0.0
 30
0.0
 70
   128
 71
     5
 72
     6
 73
    18
  0
VERTEX
  5
12E
  8
0
 62
     9
 10
0.0
 20
0.0
 30
0.0
 70
   128
 71
    21
 72
    20
 73
    19
  0
VERTEX
  5
12F
  8
0
 62
     9
 10
0.0
 20
0.0
 30
0.0
 70
   128
 71
    24
 72
    23
 73
    22
  0
VERTEX
  5
130
  8
0
 62
     9
 10
0.0
 20
0.0
 30
0.0
 70
   128
 71
    27
 72
    26
 73
    25
  0
VERTEX
  5
131
  8
0
 62
     9
 10
0.0
 20
0.0
 30
0.0
 70
   128
 71
    29
 72
    27
 73
    28
  0
VERTEX
  5
132
  8
0
 62
     9
 10
0.0
 20
0.0
 30
0.0
 70
   128
 71
    25
 72
    26
 73
    30
  0
VERTEX
  5
133
  8
0
 62
     9
 10
0.0
 20
0.0
 30
0.0
 70
   128
 71
    25
 72
    30
 73
    31
  0
VERTEX
  5
134
  8
0
 62
     9
 10
0.0
 20
0.0
 30
0.0
 70
   128
 71
    27
 72
    19
 73
    28
  0
VERTEX
  5
135
  8
0
 62
     9
 10
0.0
 20
0.0
 30
0.0
 70
   128
 71
    29
 72
    28
 73
    32
  0
VERTEX
  5
136
  8
0
 62
     9
 10
0.0
 20
0.0
 30
0.0
 70
   128
 71
    27
 72
    33
 73
    26
  0
VERTEX
  5
137
  8
0
 62
     9
 10
0.0
 20
0.0
 30
0.0
 70
   128
 71
    27
 72
    29
 73
    34
  0
VERTEX
  5
138
  8
0
 62
     9
 10
0.0
 20
0.0
 30
0.0
 70
   128
 71
    27
 72
    34
 73
    33
  0
VERTEX
  5
139
  8
0
 62
     9
 10
0.0
 20
0.0
 30
0.0
 70
   128
 71
    32
 72
    36
 73
    35
  0
VERTEX
  5
13A
  8
0
 62
     9
 10
0.0
 20
0.0
 30
0.0
 70
   128
 71
    32
 72
    37
 73
    29
  0
VERTEX
  5
13B
  8
0
 62
     9
 10
0.0
 20
0.0
 30
0.0
 70
   128
 71
    39
 72
    36
 73
    38
  0
VERTEX
  5
13C
  8
0
 62
     9
 10
0.0
 20
0.0
 30
0.0
 70
   128
 71
    39
 72
    38
 73
    40
  0
VERTEX
  5
13D
  8
0
 62
     9
 10
0.0
 20
0.0
 30
0.0
 70
   128
 71
    32
 72
    35
 73
    37
  0
VERTEX
  5
13E
  8
0
 62
     9
 10
0.0
 20
0.0
 30
0.0
 70
   128
 71
    35
 72
    36
 73
    39
  0
VERTEX
  5
13F
  8
0
 62
     9
 10
0.0
 20
0.0
 30
0.0
 70
   128
 71
    23
 72
    20
 73
    21
  0
VERTEX
  5
140
  8
0
 62
     9
 10
0.0
 20
0.0
 30
0.0
 70
   128
 71
    19
 72
    20
 73
    28
  0
VERTEX
  5
141
  8
0
 62
     9
 10
0.0
 20
0.0
 30
0.0
 70
   128
 71
     4
 72
    24
 73
    22
  0
VERTEX
  5
142
  8
0
 62
     9
 10
0.0
 20
0.0
 30
0.0
 70
   128
 71
    22
 72
    23
 73
    21
  0
VERTEX
  5
143
  8
0
 62
     9
 10
0.0
 20
0.0
 30
0.0
 70
   128
 71
    24
 72
     4
 73
     5
  0
VERTEX
  5
144
  8
0
 62
     9
 10
0.0
 20
0.0
 30
0.0
 70
   128
 71
    43
 72
    42
 73
    41
  0
VERTEX
  5
145
  8
0
 62
     9
 10
0.0
 20
0.0
 30
0.0
 70
   128
 71
    46
 72
    45
 73
    44
  0
VERTEX
  5
146
  8
0
 62
     9
 10
0.0
 20
0.0
 30
0.0
 70
   128
 71
    42
 72
    45
 73
    41
  0
VERTEX
  5
147
  8
0
 62
     9
 10
0.0
 20
0.0
 30
0.0
 70
   128
 71
    45
 72
    42
 73
    44
  0
VERTEX
  5
148
  8
0
 62
     9
 10
0.0
 20
0.0
 30
0.0
 70
   128
 71
    31
 72
    48
 73
    47
  0
VERTEX
  5
149
  8
0
 62
     9
 10
0.0
 20
0.0
 30
0.0
 70
   128
 71
    51
 72
    50
 73
    49
  0
VERTEX
  5
14A
  8
0
 62
     9
 10
0.0
 20
0.0
 30
0.0
 70
   128
 71
    54
 72
    53
 73
    52
  0
VERTEX
  5
14B
  8
0
 62
     9
 10
0.0
 20
0.0
 30
0.0
 70
   128
 71
    57
 72
    56
 73
    55
  0
VERTEX
  5
14C
  8
0
 62
     9
 10
0.0
 20
0.0
 30
0.0
 70
   128
 71
    59
 72
    49
 73
    58
  0
VERTEX
  5
14D
  8
0
 62
     9
 10
0.0
 20
0.0
 30
0.0
 70
   128
 71
    61
 72
    53
 73
    60
  0
VERTEX
  5
14E
  8
0
 62
     9
 10
0.0
 20
0.0
 30
0.0
 70
   128
 71
    60
 72
    57
 73
    61
  0
VERTEX
  5
14F
  8
0
 62
     9
 10
0.0
 20
0.0
 30
0.0
 70
   128
 71
    55
 72
    61
 73
    57
  0
VERTEX
  5
150
  8
0
 62
     9
 10
0.0
 20
0.0
 30
0.0
 70
   128
 71
    60
 72
    53
 73
    54
  0
VERTEX
  5
151
  8
0
 62
     9
 10
0.0
 20
0.0
 30
0.0
 70
   128
 71
    62
 72
    55
 73
    56
  0
VERTEX
  5
152
  8
0
 62
     9
 10
0.0
 20
0.0
 30
0.0
 70
   128
 71
    60
 72
    54
 73
    63
  0
VERTEX
  5
153
  8
0
 62
     9
 10
0.0
 20
0.0
 30
0.0
 70
   128
 71
    56
 72
    64
 73
    62
  0
VERTEX
  5
154
  8
0
 62
     9
 10
0.0
 20
0.0
 30
0.0
 70
   128
 71
    66
 72
    64
 73
    65
  0
VERTEX
  5
155
  8
0
 62
     9
 10
0.0
 20
0.0
 30
0.0
 70
   128
 71
    64
 72
    66
 73
    62
  0
VERTEX
  5
156
  8
0
 62
     9
 10
0.0
 20
0.0
 30
0.0
 70
   128
 71
    65
 72
    50
 73
    51
  0
VERTEX
  5
157
  8
0
 62
     9
 10
0.0
 20
0.0
 30
0.0
 70
   128
 71
    51
 72
    66
 73
    65
  0
VERTEX
  5
158
  8
0
 62
     9
 10
0.0
 20
0.0
 30
0.0
 70
   128
 71
    49
 72
    50
 73
    58
  0
VERTEX
  5
159
  8
0
 62
     9
 10
0.0
 20
0.0
 30
0.0
 70
   128
 71
    69
 72
    68
 73
    67
  0
VERTEX
  5
15A
  8
0
 62
     9
 10
0.0
 20
0.0
 30
0.0
 70
   128
 71
    70
 72
    59
 73
    58
  0
VERTEX
  5
15B
  8
0
 62
     9
 10
0.0
 20
0.0
 30
0.0
 70
   128
 71
    24
 72
     5
 73
    71
  0
VERTEX
  5
15C
  8
0
 62
     9
 10
0.0
 20
0.0
 30
0.0
 70
   128
 71
    74
 72
    73
 73
    72
  0
VERTEX
  5
15D
  8
0
 62
     9
 10
0.0
 20
0.0
 30
0.0
 70
   128
 71
    76
 72
    71
 73
    75
  0
VERTEX
  5
15E
  8
0
 62
     9
 10
0.0
 20
0.0
 30
0.0
 70
   128
 71
    71
 72
    76
 73
    24
  0
VERTEX
  5
15F
  8
0
 62
     9
 10
0.0
 20
0.0
 30
0.0
 70
   128
 71
    75
 72
    72
 73
    76
  0
VERTEX
  5
160
  8
0
 62
     9
 10
0.0
 20
0.0
 30
0.0
 70
   128
 71
    73
 72
    76
 73
    72
  0
VERTEX
  5
161
  8
0
 62
     9
 10
0.0
 20
0.0
 30
0.0
 70
   128
 71
    77
 72
    73
 73
    74
  0
VERTEX
  5
162
  8
0
 62
     9
 10
0.0
 20
0.0
 30
0.0
 70
   128
 71
    77
 72
    69
 73
    67
  0
VERTEX
  5
163
  8
0
 62
     9
 10
0.0
 20
0.0
 30
0.0
 70
   128
 71
    77
 72
    74
 73
    69
  0
VERTEX
  5
164
  8
0
 62
     9
 10
0.0
 20
0.0
 30
0.0
 70
   128
 71
    68
 72
    59
 73
    70
  0
VERTEX
  5
165
  8
0
 62
     9
 10
0.0
 20
0.0
 30
0.0
 70
   128
 71
    67
 72
    68
 73
    70
  0
VERTEX
  5
166
  8
0
 62
     9
 10
0.0
 20
0.0
 30
0.0
 70
   128
 71
    76
 72
    23
 73
    24
  0
VERTEX
  5
167
  8
0
 62
     9
 10
0.0
 20
0.0
 30
0.0
 70
   128
 71
    73
 72
    23
 73
    76
  0
VERTEX
  5
168
  8
0
 62
     9
 10
0.0
 20
0.0
 30
0.0
 70
   128
 71
    73
 72
    20
 73
    23
  0
VERTEX
  5
169
  8
0
 62
     9
 10
0.0
 20
0.0
 30
0.0
 70
   128
 71
    77
 72
    20
 73
    73
  0
VERTEX
  5
16A
  8
0
 62
     9
 10
0.0
 20
0.0
 30
0.0
 70
   128
 71
    77
 72
    28
 73
    20
  0
VERTEX
  5
16B
  8
0
 62
     9
 10
0.0
 20
0.0
 30
0.0
 70
   128
 71
    67
 72
    28
 73
    77
  0
VERTEX
  5
16C
  8
0
 62
     9
 10
0.0
 20
0.0
 30
0.0
 70
   128
 71
    67
 72
    32
 73
    28
  0
VERTEX
  5
16D
  8
0
 62
     9
 10
0.0
 20
0.0
 30
0.0
 70
   128
 71
    70
 72
    36
 73
    32
  0
VERTEX
  5
16E
  8
0
 62
     9
 10
0.0
 20
0.0
 30
0.0
 70
   128
 71
    67
 72
    70
 73
    32
  0
VERTEX
  5
16F
  8
0
 62
     9
 10
0.0
 20
0.0
 30
0.0
 70
   128
 71
    58
 72
    38
 73
    36
  0
VERTEX
  5
170
  8
0
 62
     9
 10
0.0
 20
0.0
 30
0.0
 70
   128
 71
    70
 72
    58
 73
    36
  0
VERTEX
  5
171
  8
0
 62
     9
 10
0.0
 20
0.0
 30
0.0
 70
   128
 71
    50
 72
    78
 73
    38
  0
VERTEX
  5
172
  8
0
 62
     9
 10
0.0
 20
0.0
 30
0.0
 70
   128
 71
    58
 72
    50
 73
    38
  0
VERTEX
  5
173
  8
0
 62
     9
 10
0.0
 20
0.0
 30
0.0
 70
   128
 71
    65
 72
    79
 73
    78
  0
VERTEX
  5
174
  8
0
 62
     9
 10
0.0
 20
0.0
 30
0.0
 70
   128
 71
    50
 72
    65
 73
    78
  0
VERTEX
  5
175
  8
0
 62
     9
 10
0.0
 20
0.0
 30
0.0
 70
   128
 71
    64
 72
    80
 73
    79
  0
VERTEX
  5
176
  8
0
 62
     9
 10
0.0
 20
0.0
 30
0.0
 70
   128
 71
    65
 72
    64
 73
    79
  0
VERTEX
  5
177
  8
0
 62
     9
 10
0.0
 20
0.0
 30
0.0
 70
   128
 71
    56
 72
    81
 73
    80
  0
VERTEX
  5
178
  8
0
 62
     9
 10
0.0
 20
0.0
 30
0.0
 70
   128
 71
    64
 72
    56
 73
    80
  0
VERTEX
  5
179
  8
0
 62
     9
 10
0.0
 20
0.0
 30
0.0
 70
   128
 71
    82
 72
    81
 73
    57
  0
VERTEX
  5
17A
  8
0
 62
     9
 10
0.0
 20
0.0
 30
0.0
 70
   128
 71
    56
 72
    57
 73
    81
  0
VERTEX
  5
17B
  8
0
 62
     9
 10
0.0
 20
0.0
 30
0.0
 70
   128
 71
    83
 72
    82
 73
    60
  0
VERTEX
  5
17C
  8
0
 62
     9
 10
0.0
 20
0.0
 30
0.0
 70
   128
 71
    57
 72
    60
 73
    82
  0
VERTEX
  5
17D
  8
0
 62
     9
 10
0.0
 20
0.0
 30
0.0
 70
   128
 71
    63
 72
    83
 73
    60
  0
VERTEX
  5
17E
  8
0
 62
     9
 10
0.0
 20
0.0
 30
0.0
 70
   128
 71
    86
 72
    85
 73
    84
  0
VERTEX
  5
17F
  8
0
 62
     9
 10
0.0
 20
0.0
 30
0.0
 70
   128
 71
    87
 72
    84
 73
    85
  0
VERTEX
  5
180
  8
0
 62
     9
 10
0.0
 20
0.0
 30
0.0
 70
   128
 71
    85
 72
    86
 73
    88
  0
VERTEX
  5
181
  8
0
 62
     9
 10
0.0
 20
0.0
 30
0.0
 70
   128
 71
    90
 72
    88
 73
    89
  0
VERTEX
  5
182
  8
0
 62
     9
 10
0.0
 20
0.0
 30
0.0
 70
   128
 71
    85
 72
    90
 73
    87
  0
VERTEX
  5
183
  8
0
 62
     9
 10
0.0
 20
0.0
 30
0.0
 70
   128
 71
    90
 72
    85
 73
    88
  0
VERTEX
  5
184
  8
0
 62
     9
 10
0.0
 20
0.0
 30
0.0
 70
   128
 71
    10
 72
    92
 73
    91
  0
VERTEX
  5
185
  8
0
 62
     9
 10
0.0
 20
0.0
 30
0.0
 70
   128
 71
    91
 72
    88
 73
    86
  0
VERTEX
  5
186
  8
0
 62
     9
 10
0.0
 20
0.0
 30
0.0
 70
   128
 71
    88
 72
    92
 73
    89
  0
VERTEX
  5
187
  8
0
 62
     9
 10
0.0
 20
0.0
 30
0.0
 70
   128
 71
    92
 72
    93
 73
    89
  0
VERTEX
  5
188
  8
0
 62
     9
 10
0.0
 20
0.0
 30
0.0
 70
   128
 71
    10
 72
    93
 73
    92
  0
VERTEX
  5
189
  8
0
 62
     9
 10
0.0
 20
0.0
 30
0.0
 70
   128
 71
    92
 72
    88
 73
    91
  0
VERTEX
  5
18A
  8
0
 62
     9
 10
0.0
 20
0.0
 30
0.0
 70
   128
 71
    96
 72
    95
 73
    94
  0
VERTEX
  5
18B
  8
0
 62
     9
 10
0.0
 20
0.0
 30
0.0
 70
   128
 71
    99
 72
    98
 73
    97
  0
VERTEX
  5
18C
  8
0
 62
     9
 10
0.0
 20
0.0
 30
0.0
 70
   128
 71
   100
 72
    96
 73
    94
  0
VERTEX
  5
18D
  8
0
 62
     9
 10
0.0
 20
0.0
 30
0.0
 70
   128
 71
   101
 72
    63
 73
    54
  0
VERTEX
  5
18E
  8
0
 62
     9
 10
0.0
 20
0.0
 30
0.0
 70
   128
 71
   104
 72
   103
 73
   102
  0
VERTEX
  5
18F
  8
0
 62
     9
 10
0.0
 20
0.0
 30
0.0
 70
   128
 71
   107
 72
   106
 73
   105
  0
VERTEX
  5
190
  8
0
 62
     9
 10
0.0
 20
0.0
 30
0.0
 70
   128
 71
   102
 72
   109
 73
   108
  0
VERTEX
  5
191
  8
0
 62
     9
 10
0.0
 20
0.0
 30
0.0
 70
   128
 71
   112
 72
   111
 73
   110
  0
VERTEX
  5
192
  8
0
 62
     9
 10
0.0
 20
0.0
 30
0.0
 70
   128
 71
   115
 72
   114
 73
   113
  0
VERTEX
  5
193
  8
0
 62
     9
 10
0.0
 20
0.0
 30
0.0
 70
   128
 71
   113
 72
   114
 73
   116
  0
VERTEX
  5
194
  8
0
 62
     9
 10
0.0
 20
0.0
 30
0.0
 70
   128
 71
   118
 72
   115
 73
   117
  0
VERTEX
  5
195
  8
0
 62
     9
 10
0.0
 20
0.0
 30
0.0
 70
   128
 71
   117
 72
   119
 73
   118
  0
VERTEX
  5
196
  8
0
 62
     9
 10
0.0
 20
0.0
 30
0.0
 70
   128
 71
   118
 72
   119
 73
    71
  0
VERTEX
  5
197
  8
0
 62
     9
 10
0.0
 20
0.0
 30
0.0
 70
   128
 71
    71
 72
   119
 73
    75
  0
VERTEX
  5
198
  8
0
 62
     9
 10
0.0
 20
0.0
 30
0.0
 70
   128
 71
     5
 72
   118
 73
    71
  0
VERTEX
  5
199
  8
0
 62
     9
 10
0.0
 20
0.0
 30
0.0
 70
   128
 71
   116
 72
   114
 73
   112
  0
VERTEX
  5
19A
  8
0
 62
     9
 10
0.0
 20
0.0
 30
0.0
 70
   128
 71
   115
 72
   113
 73
   117
  0
VERTEX
  5
19B
  8
0
 62
     9
 10
0.0
 20
0.0
 30
0.0
 70
   128
 71
    98
 72
    94
 73
    97
  0
VERTEX
  5
19C
  8
0
 62
     9
 10
0.0
 20
0.0
 30
0.0
 70
   128
 71
   112
 72
   110
 73
   116
  0
VERTEX
  5
19D
  8
0
 62
     9
 10
0.0
 20
0.0
 30
0.0
 70
   128
 71
   105
 72
   106
 73
   111
  0
VERTEX
  5
19E
  8
0
 62
     9
 10
0.0
 20
0.0
 30
0.0
 70
   128
 71
   111
 72
   106
 73
   110
  0
VERTEX
  5
19F
  8
0
 62
     9
 10
0.0
 20
0.0
 30
0.0
 70
   128
 71
   107
 72
   108
 73
   109
  0
VERTEX
  5
1A0
  8
0
 62
     9
 10
0.0
 20
0.0
 30
0.0
 70
   128
 71
   108
 72
   107
 73
   105
  0
VERTEX
  5
1A1
  8
0
 62
     9
 10
0.0
 20
0.0
 30
0.0
 70
   128
 71
   102
 72
   103
 73
   109
  0
VERTEX
  5
1A2
  8
0
 62
     9
 10
0.0
 20
0.0
 30
0.0
 70
   128
 71
    99
 72
   104
 73
    98
  0
VERTEX
  5
1A3
  8
0
 62
     9
 10
0.0
 20
0.0
 30
0.0
 70
   128
 71
    99
 72
   103
 73
   104
  0
VERTEX
  5
1A4
  8
0
 62
     9
 10
0.0
 20
0.0
 30
0.0
 70
   128
 71
    97
 72
    94
 73
    95
  0
VERTEX
  5
1A5
  8
0
 62
     9
 10
0.0
 20
0.0
 30
0.0
 70
   128
 71
    54
 72
    52
 73
    96
  0
VERTEX
  5
1A6
  8
0
 62
     9
 10
0.0
 20
0.0
 30
0.0
 70
   128
 71
   101
 72
    54
 73
    96
  0
VERTEX
  5
1A7
  8
0
 62
     9
 10
0.0
 20
0.0
 30
0.0
 70
   128
 71
    52
 72
    95
 73
    96
  0
VERTEX
  5
1A8
  8
0
 62
     9
 10
0.0
 20
0.0
 30
0.0
 70
   128
 71
    96
 72
   100
 73
   101
  0
VERTEX
  5
1A9
  8
0
 62
     9
 10
0.0
 20
0.0
 30
0.0
 70
   128
 71
    94
 72
   120
 73
   100
  0
VERTEX
  5
1AA
  8
0
 62
     9
 10
0.0
 20
0.0
 30
0.0
 70
   128
 71
    98
 72
   120
 73
    94
  0
VERTEX
  5
1AB
  8
0
 62
     9
 10
0.0
 20
0.0
 30
0.0
 70
   128
 71
    98
 72
   121
 73
   120
  0
VERTEX
  5
1AC
  8
0
 62
     9
 10
0.0
 20
0.0
 30
0.0
 70
   128
 71
   104
 72
   121
 73
    98
  0
VERTEX
  5
1AD
  8
0
 62
     9
 10
0.0
 20
0.0
 30
0.0
 70
   128
 71
   104
 72
   122
 73
   121
  0
VERTEX
  5
1AE
  8
0
 62
     9
 10
0.0
 20
0.0
 30
0.0
 70
   128
 71
   102
 72
   123
 73
   122
  0
VERTEX
  5
1AF
  8
0
 62
     9
 10
0.0
 20
0.0
 30
0.0
 70
   128
 71
   104
 72
   102
 73
   122
  0
VERTEX
  5
1B0
  8
0
 62
     9
 10
0.0
 20
0.0
 30
0.0
 70
   128
 71
   108
 72
    11
 73
   123
  0
VERTEX
  5
1B1
  8
0
 62
     9
 10
0.0
 20
0.0
 30
0.0
 70
   128
 71
   102
 72
   108
 73
   123
  0
VERTEX
  5
1B2
  8
0
 62
     9
 10
0.0
 20
0.0
 30
0.0
 70
   128
 71
   105
 72
     9
 73
    11
  0
VERTEX
  5
1B3
  8
0
 62
     9
 10
0.0
 20
0.0
 30
0.0
 70
   128
 71
   108
 72
   105
 73
    11
  0
VERTEX
  5
1B4
  8
0
 62
     9
 10
0.0
 20
0.0
 30
0.0
 70
   128
 71
   111
 72
     2
 73
     9
  0
VERTEX
  5
1B5
  8
0
 62
     9
 10
0.0
 20
0.0
 30
0.0
 70
   128
 71
   105
 72
   111
 73
     9
  0
VERTEX
  5
1B6
  8
0
 62
     9
 10
0.0
 20
0.0
 30
0.0
 70
   128
 71
   112
 72
     1
 73
     2
  0
VERTEX
  5
1B7
  8
0
 62
     9
 10
0.0
 20
0.0
 30
0.0
 70
   128
 71
   111
 72
   112
 73
     2
  0
VERTEX
  5
1B8
  8
0
 62
     9
 10
0.0
 20
0.0
 30
0.0
 70
   128
 71
   114
 72
    13
 73
     1
  0
VERTEX
  5
1B9
  8
0
 62
     9
 10
0.0
 20
0.0
 30
0.0
 70
   128
 71
   112
 72
   114
 73
     1
  0
VERTEX
  5
1BA
  8
0
 62
     9
 10
0.0
 20
0.0
 30
0.0
 70
   128
 71
    17
 72
    13
 73
   115
  0
VERTEX
  5
1BB
  8
0
 62
     9
 10
0.0
 20
0.0
 30
0.0
 70
   128
 71
   114
 72
   115
 73
    13
  0
VERTEX
  5
1BC
  8
0
 62
     9
 10
0.0
 20
0.0
 30
0.0
 70
   128
 71
    18
 72
    17
 73
   118
  0
VERTEX
  5
1BD
  8
0
 62
     9
 10
0.0
 20
0.0
 30
0.0
 70
   128
 71
   115
 72
   118
 73
    17
  0
VERTEX
  5
1BE
  8
0
 62
     9
 10
0.0
 20
0.0
 30
0.0
 70
   128
 71
     5
 72
    18
 73
   118
  0
VERTEX
  5
1BF
  8
0
 62
     9
 10
0.0
 20
0.0
 30
0.0
 70
   128
 71
   126
 72
   125
 73
   124
  0
VERTEX
  5
1C0
  8
0
 62
     9
 10
0.0
 20
0.0
 30
0.0
 70
   128
 71
   129
 72
   128
 73
   127
  0
VERTEX
  5
1C1
  8
0
 62
     9
 10
0.0
 20
0.0
 30
0.0
 70
   128
 71
   131
 72
   125
 73
   130
  0
VERTEX
  5
1C2
  8
0
 62
     9
 10
0.0
 20
0.0
 30
0.0
 70
   128
 71
   134
 72
   133
 73
   132
  0
VERTEX
  5
1C3
  8
0
 62
     9
 10
0.0
 20
0.0
 30
0.0
 70
   128
 71
   137
 72
   136
 73
   135
  0
VERTEX
  5
1C4
  8
0
 62
     9
 10
0.0
 20
0.0
 30
0.0
 70
   128
 71
   139
 72
   135
 73
   138
  0
VERTEX
  5
1C5
  8
0
 62
     9
 10
0.0
 20
0.0
 30
0.0
 70
   128
 71
   136
 72
   137
 73
    29
  0
VERTEX
  5
1C6
  8
0
 62
     9
 10
0.0
 20
0.0
 30
0.0
 70
   128
 71
    29
 72
   137
 73
    34
  0
VERTEX
  5
1C7
  8
0
 62
     9
 10
0.0
 20
0.0
 30
0.0
 70
   128
 71
   135
 72
   136
 73
   138
  0
VERTEX
  5
1C8
  8
0
 62
     9
 10
0.0
 20
0.0
 30
0.0
 70
   128
 71
   133
 72
   139
 73
   138
  0
VERTEX
  5
1C9
  8
0
 62
     9
 10
0.0
 20
0.0
 30
0.0
 70
   128
 71
   132
 72
   133
 73
   138
  0
VERTEX
  5
1CA
  8
0
 62
     9
 10
0.0
 20
0.0
 30
0.0
 70
   128
 71
   134
 72
   140
 73
   131
  0
VERTEX
  5
1CB
  8
0
 62
     9
 10
0.0
 20
0.0
 30
0.0
 70
   128
 71
   132
 72
   140
 73
   134
  0
VERTEX
  5
1CC
  8
0
 62
     9
 10
0.0
 20
0.0
 30
0.0
 70
   128
 71
   126
 72
   130
 73
   125
  0
VERTEX
  5
1CD
  8
0
 62
     9
 10
0.0
 20
0.0
 30
0.0
 70
   128
 71
   131
 72
   140
 73
   125
  0
VERTEX
  5
1CE
  8
0
 62
     9
 10
0.0
 20
0.0
 30
0.0
 70
   128
 71
   126
 72
   124
 73
   141
  0
VERTEX
  5
1CF
  8
0
 62
     9
 10
0.0
 20
0.0
 30
0.0
 70
   128
 71
   128
 72
   141
 73
   142
  0
VERTEX
  5
1D0
  8
0
 62
     9
 10
0.0
 20
0.0
 30
0.0
 70
   128
 71
   124
 72
   142
 73
   141
  0
VERTEX
  5
1D1
  8
0
 62
     9
 10
0.0
 20
0.0
 30
0.0
 70
   128
 71
   127
 72
   128
 73
   142
  0
VERTEX
  5
1D2
  8
0
 62
     9
 10
0.0
 20
0.0
 30
0.0
 70
   128
 71
   143
 72
   125
 73
   140
  0
VERTEX
  5
1D3
  8
0
 62
     9
 10
0.0
 20
0.0
 30
0.0
 70
   128
 71
   140
 72
   144
 73
   143
  0
VERTEX
  5
1D4
  8
0
 62
     9
 10
0.0
 20
0.0
 30
0.0
 70
   128
 71
   144
 72
   132
 73
   145
  0
VERTEX
  5
1D5
  8
0
 62
     9
 10
0.0
 20
0.0
 30
0.0
 70
   128
 71
   132
 72
   144
 73
   140
  0
VERTEX
  5
1D6
  8
0
 62
     9
 10
0.0
 20
0.0
 30
0.0
 70
   128
 71
   138
 72
   146
 73
   145
  0
VERTEX
  5
1D7
  8
0
 62
     9
 10
0.0
 20
0.0
 30
0.0
 70
   128
 71
   145
 72
   132
 73
   138
  0
VERTEX
  5
1D8
  8
0
 62
     9
 10
0.0
 20
0.0
 30
0.0
 70
   128
 71
   146
 72
   136
 73
    29
  0
VERTEX
  5
1D9
  8
0
 62
     9
 10
0.0
 20
0.0
 30
0.0
 70
   128
 71
   138
 72
   136
 73
   146
  0
VERTEX
  5
1DA
  8
0
 62
     9
 10
0.0
 20
0.0
 30
0.0
 70
   128
 71
   134
 72
   148
 73
   147
  0
VERTEX
  5
1DB
  8
0
 62
     9
 10
0.0
 20
0.0
 30
0.0
 70
   128
 71
   139
 72
   133
 73
   147
  0
VERTEX
  5
1DC
  8
0
 62
     9
 10
0.0
 20
0.0
 30
0.0
 70
   128
 71
   133
 72
   134
 73
   147
  0
VERTEX
  5
1DD
  8
0
 62
     9
 10
0.0
 20
0.0
 30
0.0
 70
   128
 71
   147
 72
   149
 73
   139
  0
VERTEX
  5
1DE
  8
0
 62
     9
 10
0.0
 20
0.0
 30
0.0
 70
   128
 71
   135
 72
   139
 73
   149
  0
VERTEX
  5
1DF
  8
0
 62
     9
 10
0.0
 20
0.0
 30
0.0
 70
   128
 71
   135
 72
   150
 73
   137
  0
VERTEX
  5
1E0
  8
0
 62
     9
 10
0.0
 20
0.0
 30
0.0
 70
   128
 71
   150
 72
   135
 73
   149
  0
VERTEX
  5
1E1
  8
0
 62
     9
 10
0.0
 20
0.0
 30
0.0
 70
   128
 71
   134
 72
   131
 73
   148
  0
VERTEX
  5
1E2
  8
0
 62
     9
 10
0.0
 20
0.0
 30
0.0
 70
   128
 71
   150
 72
    34
 73
   137
  0
VERTEX
  5
1E3
  8
0
 62
     9
 10
0.0
 20
0.0
 30
0.0
 70
   128
 71
   131
 72
   130
 73
   151
  0
VERTEX
  5
1E4
  8
0
 62
     9
 10
0.0
 20
0.0
 30
0.0
 70
   128
 71
   131
 72
   151
 73
   148
  0
VERTEX
  5
1E5
  8
0
 62
     9
 10
0.0
 20
0.0
 30
0.0
 70
   128
 71
   151
 72
   126
 73
   152
  0
VERTEX
  5
1E6
  8
0
 62
     9
 10
0.0
 20
0.0
 30
0.0
 70
   128
 71
   126
 72
   151
 73
   130
  0
VERTEX
  5
1E7
  8
0
 62
     9
 10
0.0
 20
0.0
 30
0.0
 70
   128
 71
   141
 72
   153
 73
   152
  0
VERTEX
  5
1E8
  8
0
 62
     9
 10
0.0
 20
0.0
 30
0.0
 70
   128
 71
   152
 72
   126
 73
   141
  0
VERTEX
  5
1E9
  8
0
 62
     9
 10
0.0
 20
0.0
 30
0.0
 70
   128
 71
   153
 72
   128
 73
   129
  0
VERTEX
  5
1EA
  8
0
 62
     9
 10
0.0
 20
0.0
 30
0.0
 70
   128
 71
   141
 72
   128
 73
   153
  0
VERTEX
  5
1EB
  8
0
 62
     9
 10
0.0
 20
0.0
 30
0.0
 70
   128
 71
   155
 72
   154
 73
   148
  0
VERTEX
  5
1EC
  8
0
 62
     9
 10
0.0
 20
0.0
 30
0.0
 70
   128
 71
   151
 72
   155
 73
   148
  0
VERTEX
  5
1ED
  8
0
 62
     9
 10
0.0
 20
0.0
 30
0.0
 70
   128
 71
    45
 72
   152
 73
   153
  0
VERTEX
  5
1EE
  8
0
 62
     9
 10
0.0
 20
0.0
 30
0.0
 70
   128
 71
   156
 72
    41
 73
   153
  0
VERTEX
  5
1EF
  8
0
 62
     9
 10
0.0
 20
0.0
 30
0.0
 70
   128
 71
   152
 72
    46
 73
   151
  0
VERTEX
  5
1F0
  8
0
 62
     9
 10
0.0
 20
0.0
 30
0.0
 70
   128
 71
   144
 72
   158
 73
   157
  0
VERTEX
  5
1F1
  8
0
 62
     9
 10
0.0
 20
0.0
 30
0.0
 70
   128
 71
   159
 72
    34
 73
   150
  0
VERTEX
  5
1F2
  8
0
 62
     9
 10
0.0
 20
0.0
 30
0.0
 70
   128
 71
   143
 72
   144
 73
   157
  0
VERTEX
  5
1F3
  8
0
 62
     9
 10
0.0
 20
0.0
 30
0.0
 70
   128
 71
   147
 72
   160
 73
   149
  0
VERTEX
  5
1F4
  8
0
 62
     9
 10
0.0
 20
0.0
 30
0.0
 70
   128
 71
   145
 72
   146
 73
   158
  0
VERTEX
  5
1F5
  8
0
 62
     9
 10
0.0
 20
0.0
 30
0.0
 70
   128
 71
   161
 72
   125
 73
   143
  0
VERTEX
  5
1F6
  8
0
 62
     9
 10
0.0
 20
0.0
 30
0.0
 70
   128
 71
   154
 72
   147
 73
   148
  0
VERTEX
  5
1F7
  8
0
 62
     9
 10
0.0
 20
0.0
 30
0.0
 70
   128
 71
   161
 72
   143
 73
   157
  0
VERTEX
  5
1F8
  8
0
 62
     9
 10
0.0
 20
0.0
 30
0.0
 70
   128
 71
   144
 72
   145
 73
   158
  0
VERTEX
  5
1F9
  8
0
 62
     9
 10
0.0
 20
0.0
 30
0.0
 70
   128
 71
   146
 72
   162
 73
   158
  0
VERTEX
  5
1FA
  8
0
 62
     9
 10
0.0
 20
0.0
 30
0.0
 70
   128
 71
   146
 72
    29
 73
   162
  0
VERTEX
  5
1FB
  8
0
 62
     9
 10
0.0
 20
0.0
 30
0.0
 70
   128
 71
   149
 72
   163
 73
   150
  0
VERTEX
  5
1FC
  8
0
 62
     9
 10
0.0
 20
0.0
 30
0.0
 70
   128
 71
   159
 72
   150
 73
   163
  0
VERTEX
  5
1FD
  8
0
 62
     9
 10
0.0
 20
0.0
 30
0.0
 70
   128
 71
   163
 72
   149
 73
   160
  0
VERTEX
  5
1FE
  8
0
 62
     9
 10
0.0
 20
0.0
 30
0.0
 70
   128
 71
   160
 72
   147
 73
   154
  0
VERTEX
  5
1FF
  8
0
 62
     9
 10
0.0
 20
0.0
 30
0.0
 70
   128
 71
   155
 72
   151
 73
    46
  0
VERTEX
  5
200
  8
0
 62
     9
 10
0.0
 20
0.0
 30
0.0
 70
   128
 71
   153
 72
    41
 73
    45
  0
VERTEX
  5
201
  8
0
 62
     9
 10
0.0
 20
0.0
 30
0.0
 70
   128
 71
    46
 72
   152
 73
    45
  0
VERTEX
  5
202
  8
0
 62
     9
 10
0.0
 20
0.0
 30
0.0
 70
   128
 71
   153
 72
   129
 73
   156
  0
VERTEX
  5
203
  8
0
 62
     9
 10
0.0
 20
0.0
 30
0.0
 70
   128
 71
   162
 72
    37
 73
   158
  0
VERTEX
  5
204
  8
0
 62
     9
 10
0.0
 20
0.0
 30
0.0
 70
   128
 71
    29
 72
    37
 73
   162
  0
VERTEX
  5
205
  8
0
 62
     9
 10
0.0
 20
0.0
 30
0.0
 70
   128
 71
   158
 72
    37
 73
    35
  0
VERTEX
  5
206
  8
0
 62
     9
 10
0.0
 20
0.0
 30
0.0
 70
   128
 71
    35
 72
   157
 73
   158
  0
VERTEX
  5
207
  8
0
 62
     9
 10
0.0
 20
0.0
 30
0.0
 70
   128
 71
    35
 72
    39
 73
   157
  0
VERTEX
  5
208
  8
0
 62
     9
 10
0.0
 20
0.0
 30
0.0
 70
   128
 71
    26
 72
   163
 73
    30
  0
VERTEX
  5
209
  8
0
 62
     9
 10
0.0
 20
0.0
 30
0.0
 70
   128
 71
    31
 72
    30
 73
   160
  0
VERTEX
  5
20A
  8
0
 62
     9
 10
0.0
 20
0.0
 30
0.0
 70
   128
 71
   163
 72
   160
 73
    30
  0
VERTEX
  5
20B
  8
0
 62
     9
 10
0.0
 20
0.0
 30
0.0
 70
   128
 71
    31
 72
   160
 73
   154
  0
VERTEX
  5
20C
  8
0
 62
     9
 10
0.0
 20
0.0
 30
0.0
 70
   128
 71
   163
 72
    26
 73
    33
  0
VERTEX
  5
20D
  8
0
 62
     9
 10
0.0
 20
0.0
 30
0.0
 70
   128
 71
   159
 72
    33
 73
    34
  0
VERTEX
  5
20E
  8
0
 62
     9
 10
0.0
 20
0.0
 30
0.0
 70
   128
 71
   159
 72
   163
 73
    33
  0
VERTEX
  5
20F
  8
0
 62
     9
 10
0.0
 20
0.0
 30
0.0
 70
   128
 71
    31
 72
   165
 73
   164
  0
VERTEX
  5
210
  8
0
 62
     9
 10
0.0
 20
0.0
 30
0.0
 70
   128
 71
   166
 72
   155
 73
    46
  0
VERTEX
  5
211
  8
0
 62
     9
 10
0.0
 20
0.0
 30
0.0
 70
   128
 71
   166
 72
    46
 73
    44
  0
VERTEX
  5
212
  8
0
 62
     9
 10
0.0
 20
0.0
 30
0.0
 70
   128
 71
   155
 72
   166
 73
    31
  0
VERTEX
  5
213
  8
0
 62
     9
 10
0.0
 20
0.0
 30
0.0
 70
   128
 71
    31
 72
   154
 73
   155
  0
VERTEX
  5
214
  8
0
 62
     9
 10
0.0
 20
0.0
 30
0.0
 70
   128
 71
   129
 72
   167
 73
   156
  0
VERTEX
  5
215
  8
0
 62
     9
 10
0.0
 20
0.0
 30
0.0
 70
   128
 71
    41
 72
   156
 73
   167
  0
VERTEX
  5
216
  8
0
 62
     9
 10
0.0
 20
0.0
 30
0.0
 70
   128
 71
   167
 72
    43
 73
    41
  0
VERTEX
  5
217
  8
0
 62
     9
 10
0.0
 20
0.0
 30
0.0
 70
   128
 71
   157
 72
    40
 73
   161
  0
VERTEX
  5
218
  8
0
 62
     9
 10
0.0
 20
0.0
 30
0.0
 70
   128
 71
    39
 72
    40
 73
   157
  0
VERTEX
  5
219
  8
0
 62
     9
 10
0.0
 20
0.0
 30
0.0
 70
   128
 71
   169
 72
   168
 73
   161
  0
VERTEX
  5
21A
  8
0
 62
     9
 10
0.0
 20
0.0
 30
0.0
 70
   128
 71
   169
 72
   161
 73
    40
  0
VERTEX
  5
21B
  8
0
 62
     9
 10
0.0
 20
0.0
 30
0.0
 70
   128
 71
   125
 72
   161
 73
   168
  0
VERTEX
  5
21C
  8
0
 62
     9
 10
0.0
 20
0.0
 30
0.0
 70
   128
 71
    53
 72
    61
 73
    55
  0
VERTEX
  5
21D
  8
0
 62
     9
 10
0.0
 20
0.0
 30
0.0
 70
   128
 71
    74
 72
    72
 73
    99
  0
VERTEX
  5
21E
  8
0
 62
     9
 10
0.0
 20
0.0
 30
0.0
 70
   128
 71
    51
 72
    62
 73
    66
  0
VERTEX
  5
21F
  8
0
 62
     9
 10
0.0
 20
0.0
 30
0.0
 70
   128
 71
    53
 72
    55
 73
    49
  0
VERTEX
  5
220
  8
0
 62
     9
 10
0.0
 20
0.0
 30
0.0
 70
   128
 71
    55
 72
    62
 73
    51
  0
VERTEX
  5
221
  8
0
 62
     9
 10
0.0
 20
0.0
 30
0.0
 70
   128
 71
    59
 72
    53
 73
    49
  0
VERTEX
  5
222
  8
0
 62
     9
 10
0.0
 20
0.0
 30
0.0
 70
   128
 71
    55
 72
    51
 73
    49
  0
VERTEX
  5
223
  8
0
 62
     9
 10
0.0
 20
0.0
 30
0.0
 70
   128
 71
    59
 72
    68
 73
    52
  0
VERTEX
  5
224
  8
0
 62
     9
 10
0.0
 20
0.0
 30
0.0
 70
   128
 71
    52
 72
    53
 73
    59
  0
VERTEX
  5
225
  8
0
 62
     9
 10
0.0
 20
0.0
 30
0.0
 70
   128
 71
    52
 72
    68
 73
    95
  0
VERTEX
  5
226
  8
0
 62
     9
 10
0.0
 20
0.0
 30
0.0
 70
   128
 71
    95
 72
    69
 73
    97
  0
VERTEX
  5
227
  8
0
 62
     9
 10
0.0
 20
0.0
 30
0.0
 70
   128
 71
    69
 72
    95
 73
    68
  0
VERTEX
  5
228
  8
0
 62
     9
 10
0.0
 20
0.0
 30
0.0
 70
   128
 71
    74
 72
    99
 73
    97
  0
VERTEX
  5
229
  8
0
 62
     9
 10
0.0
 20
0.0
 30
0.0
 70
   128
 71
    97
 72
    69
 73
    74
  0
VERTEX
  5
22A
  8
0
 62
     9
 10
0.0
 20
0.0
 30
0.0
 70
   128
 71
    99
 72
    72
 73
   103
  0
VERTEX
  5
22B
  8
0
 62
     9
 10
0.0
 20
0.0
 30
0.0
 70
   128
 71
   109
 72
   103
 73
    75
  0
VERTEX
  5
22C
  8
0
 62
     9
 10
0.0
 20
0.0
 30
0.0
 70
   128
 71
    72
 72
    75
 73
   103
  0
VERTEX
  5
22D
  8
0
 62
     9
 10
0.0
 20
0.0
 30
0.0
 70
   128
 71
   113
 72
   106
 73
   107
  0
VERTEX
  5
22E
  8
0
 62
     9
 10
0.0
 20
0.0
 30
0.0
 70
   128
 71
   113
 72
   107
 73
   119
  0
VERTEX
  5
22F
  8
0
 62
     9
 10
0.0
 20
0.0
 30
0.0
 70
   128
 71
   116
 72
   110
 73
   106
  0
VERTEX
  5
230
  8
0
 62
     9
 10
0.0
 20
0.0
 30
0.0
 70
   128
 71
   113
 72
   119
 73
   117
  0
VERTEX
  5
231
  8
0
 62
     9
 10
0.0
 20
0.0
 30
0.0
 70
   128
 71
   106
 72
   113
 73
   116
  0
VERTEX
  5
232
  8
0
 62
     9
 10
0.0
 20
0.0
 30
0.0
 70
   128
 71
   119
 72
   109
 73
    75
  0
VERTEX
  5
233
  8
0
 62
     9
 10
0.0
 20
0.0
 30
0.0
 70
   128
 71
   119
 72
   107
 73
   109
  0
VERTEX
  5
234
  8
0
 62
     9
 10
0.0
 20
0.0
 30
0.0
 70
   128
 71
   172
 72
   171
 73
   170
  0
VERTEX
  5
235
  8
0
 62
     9
 10
0.0
 20
0.0
 30
0.0
 70
   128
 71
   174
 72
   173
 73
   170
  0
VERTEX
  5
236
  8
0
 62
     9
 10
0.0
 20
0.0
 30
0.0
 70
   128
 71
    91
 72
    86
 73
   172
  0
VERTEX
  5
237
  8
0
 62
     9
 10
0.0
 20
0.0
 30
0.0
 70
   128
 71
   170
 72
    10
 73
   173
  0
VERTEX
  5
238
  8
0
 62
     9
 10
0.0
 20
0.0
 30
0.0
 70
   128
 71
   171
 72
   174
 73
   170
  0
VERTEX
  5
239
  8
0
 62
     9
 10
0.0
 20
0.0
 30
0.0
 70
   128
 71
   174
 72
   175
 73
   173
  0
VERTEX
  5
23A
  8
0
 62
     9
 10
0.0
 20
0.0
 30
0.0
 70
   128
 71
   170
 72
    91
 73
   172
  0
VERTEX
  5
23B
  8
0
 62
     9
 10
0.0
 20
0.0
 30
0.0
 70
   128
 71
    10
 72
    91
 73
   170
  0
VERTEX
  5
23C
  8
0
 62
     9
 10
0.0
 20
0.0
 30
0.0
 70
   128
 71
   177
 72
   173
 73
   176
  0
VERTEX
  5
23D
  8
0
 62
     9
 10
0.0
 20
0.0
 30
0.0
 70
   128
 71
   176
 72
   173
 73
   175
  0
VERTEX
  5
23E
  8
0
 62
     9
 10
0.0
 20
0.0
 30
0.0
 70
   128
 71
   173
 72
    10
 73
   177
  0
VERTEX
  5
23F
  8
0
 62
     9
 10
0.0
 20
0.0
 30
0.0
 70
   128
 71
   177
 72
   176
 73
    10
  0
VERTEX
  5
240
  8
0
 62
     9
 10
0.0
 20
0.0
 30
0.0
 70
   128
 71
   176
 72
   175
 73
   178
  0
VERTEX
  5
241
  8
0
 62
     9
 10
0.0
 20
0.0
 30
0.0
 70
   128
 71
   180
 72
   179
 73
   178
  0
VERTEX
  5
242
  8
0
 62
     9
 10
0.0
 20
0.0
 30
0.0
 70
   128
 71
   178
 72
   179
 73
   176
  0
VERTEX
  5
243
  8
0
 62
     9
 10
0.0
 20
0.0
 30
0.0
 70
   128
 71
   179
 72
    10
 73
   176
  0
VERTEX
  5
244
  8
0
 62
     9
 10
0.0
 20
0.0
 30
0.0
 70
   128
 71
   181
 72
    10
 73
   179
  0
VERTEX
  5
245
  8
0
 62
     9
 10
0.0
 20
0.0
 30
0.0
 70
   128
 71
   180
 72
   181
 73
   179
  0
VERTEX
  5
246
  8
0
 62
     9
 10
0.0
 20
0.0
 30
0.0
 70
   128
 71
   184
 72
   183
 73
   182
  0
VERTEX
  5
247
  8
0
 62
     9
 10
0.0
 20
0.0
 30
0.0
 70
   128
 71
   182
 72
   185
 73
   184
  0
VERTEX
  5
248
  8
0
 62
     9
 10
0.0
 20
0.0
 30
0.0
 70
   128
 71
   171
 72
   184
 73
   185
  0
VERTEX
  5
249
  8
0
 62
     9
 10
0.0
 20
0.0
 30
0.0
 70
   128
 71
   185
 72
   182
 73
   180
  0
VERTEX
  5
24A
  8
0
 62
     9
 10
0.0
 20
0.0
 30
0.0
 70
   128
 71
   175
 72
   174
 73
   178
  0
VERTEX
  5
24B
  8
0
 62
     9
 10
0.0
 20
0.0
 30
0.0
 70
   128
 71
   178
 72
   174
 73
   185
  0
VERTEX
  5
24C
  8
0
 62
     9
 10
0.0
 20
0.0
 30
0.0
 70
   128
 71
   171
 72
   185
 73
   174
  0
VERTEX
  5
24D
  8
0
 62
     9
 10
0.0
 20
0.0
 30
0.0
 70
   128
 71
   185
 72
   180
 73
   178
  0
VERTEX
  5
24E
  8
0
 62
     9
 10
0.0
 20
0.0
 30
0.0
 70
   128
 71
   183
 72
   184
 73
   186
  0
VERTEX
  5
24F
  8
0
 62
     9
 10
0.0
 20
0.0
 30
0.0
 70
   128
 71
   187
 72
    84
 73
    87
  0
VERTEX
  5
250
  8
0
 62
     9
 10
0.0
 20
0.0
 30
0.0
 70
   128
 71
   184
 72
   172
 73
   186
  0
VERTEX
  5
251
  8
0
 62
     9
 10
0.0
 20
0.0
 30
0.0
 70
   128
 71
   172
 72
    86
 73
   186
  0
VERTEX
  5
252
  8
0
 62
     9
 10
0.0
 20
0.0
 30
0.0
 70
   128
 71
   186
 72
   187
 73
   183
  0
VERTEX
  5
253
  8
0
 62
     9
 10
0.0
 20
0.0
 30
0.0
 70
   128
 71
   184
 72
   171
 73
   172
  0
VERTEX
  5
254
  8
0
 62
     9
 10
0.0
 20
0.0
 30
0.0
 70
   128
 71
   186
 72
    86
 73
    84
  0
VERTEX
  5
255
  8
0
 62
     9
 10
0.0
 20
0.0
 30
0.0
 70
   128
 71
   186
 72
    84
 73
   187
  0
VERTEX
  5
256
  8
0
 62
     9
 10
0.0
 20
0.0
 30
0.0
 70
   128
 71
   123
 72
     7
 73
   188
  0
VERTEX
  5
257
  8
0
 62
     9
 10
0.0
 20
0.0
 30
0.0
 70
   128
 71
   100
 72
   120
 73
   189
  0
VERTEX
  5
258
  8
0
 62
     9
 10
0.0
 20
0.0
 30
0.0
 70
   128
 71
   121
 72
   191
 73
   190
  0
VERTEX
  5
259
  8
0
 62
     9
 10
0.0
 20
0.0
 30
0.0
 70
   128
 71
   193
 72
   192
 73
    81
  0
VERTEX
  5
25A
  8
0
 62
     9
 10
0.0
 20
0.0
 30
0.0
 70
   128
 71
    63
 72
   195
 73
   194
  0
VERTEX
  5
25B
  8
0
 62
     9
 10
0.0
 20
0.0
 30
0.0
 70
   128
 71
   167
 72
   197
 73
   196
  0
VERTEX
  5
25C
  8
0
 62
     9
 10
0.0
 20
0.0
 30
0.0
 70
   128
 71
   192
 72
    80
 73
    81
  0
VERTEX
  5
25D
  8
0
 62
     9
 10
0.0
 20
0.0
 30
0.0
 70
   128
 71
    78
 72
   142
 73
   124
  0
VERTEX
  5
25E
  8
0
 62
     9
 10
0.0
 20
0.0
 30
0.0
 70
   128
 71
   142
 72
    78
 73
    79
  0
VERTEX
  5
25F
  8
0
 62
     9
 10
0.0
 20
0.0
 30
0.0
 70
   128
 71
   168
 72
    78
 73
   125
  0
VERTEX
  5
260
  8
0
 62
     9
 10
0.0
 20
0.0
 30
0.0
 70
   128
 71
    78
 72
   124
 73
   125
  0
VERTEX
  5
261
  8
0
 62
     9
 10
0.0
 20
0.0
 30
0.0
 70
   128
 71
    38
 72
   168
 73
   169
  0
VERTEX
  5
262
  8
0
 62
     9
 10
0.0
 20
0.0
 30
0.0
 70
   128
 71
   168
 72
    38
 73
    78
  0
VERTEX
  5
263
  8
0
 62
     9
 10
0.0
 20
0.0
 30
0.0
 70
   128
 71
    38
 72
   169
 73
    40
  0
VERTEX
  5
264
  8
0
 62
     9
 10
0.0
 20
0.0
 30
0.0
 70
   128
 71
    79
 72
   127
 73
   142
  0
VERTEX
  5
265
  8
0
 62
     9
 10
0.0
 20
0.0
 30
0.0
 70
   128
 71
   129
 72
   127
 73
    79
  0
VERTEX
  5
266
  8
0
 62
     9
 10
0.0
 20
0.0
 30
0.0
 70
   128
 71
   197
 72
   129
 73
    79
  0
VERTEX
  5
267
  8
0
 62
     9
 10
0.0
 20
0.0
 30
0.0
 70
   128
 71
    80
 72
   197
 73
    79
  0
VERTEX
  5
268
  8
0
 62
     9
 10
0.0
 20
0.0
 30
0.0
 70
   128
 71
   197
 72
   167
 73
   129
  0
VERTEX
  5
269
  8
0
 62
     9
 10
0.0
 20
0.0
 30
0.0
 70
   128
 71
   192
 72
   197
 73
    80
  0
VERTEX
  5
26A
  8
0
 62
     9
 10
0.0
 20
0.0
 30
0.0
 70
   128
 71
    81
 72
    82
 73
   193
  0
VERTEX
  5
26B
  8
0
 62
     9
 10
0.0
 20
0.0
 30
0.0
 70
   128
 71
   167
 72
   196
 73
    43
  0
VERTEX
  5
26C
  8
0
 62
     9
 10
0.0
 20
0.0
 30
0.0
 70
   128
 71
    83
 72
   193
 73
    82
  0
VERTEX
  5
26D
  8
0
 62
     9
 10
0.0
 20
0.0
 30
0.0
 70
   128
 71
   194
 72
   193
 73
    83
  0
VERTEX
  5
26E
  8
0
 62
     9
 10
0.0
 20
0.0
 30
0.0
 70
   128
 71
    44
 72
    42
 73
   196
  0
VERTEX
  5
26F
  8
0
 62
     9
 10
0.0
 20
0.0
 30
0.0
 70
   128
 71
   166
 72
    44
 73
   196
  0
VERTEX
  5
270
  8
0
 62
     9
 10
0.0
 20
0.0
 30
0.0
 70
   128
 71
   166
 72
   196
 73
    31
  0
VERTEX
  5
271
  8
0
 62
     9
 10
0.0
 20
0.0
 30
0.0
 70
   128
 71
    42
 72
    43
 73
   196
  0
VERTEX
  5
272
  8
0
 62
     9
 10
0.0
 20
0.0
 30
0.0
 70
   128
 71
    63
 72
   194
 73
    83
  0
VERTEX
  5
273
  8
0
 62
     9
 10
0.0
 20
0.0
 30
0.0
 70
   128
 71
   189
 72
   195
 73
   101
  0
VERTEX
  5
274
  8
0
 62
     9
 10
0.0
 20
0.0
 30
0.0
 70
   128
 71
   195
 72
    63
 73
   101
  0
VERTEX
  5
275
  8
0
 62
     9
 10
0.0
 20
0.0
 30
0.0
 70
   128
 71
   190
 72
   189
 73
   120
  0
VERTEX
  5
276
  8
0
 62
     9
 10
0.0
 20
0.0
 30
0.0
 70
   128
 71
   100
 72
   189
 73
   101
  0
VERTEX
  5
277
  8
0
 62
     9
 10
0.0
 20
0.0
 30
0.0
 70
   128
 71
   191
 72
   121
 73
   122
  0
VERTEX
  5
278
  8
0
 62
     9
 10
0.0
 20
0.0
 30
0.0
 70
   128
 71
   190
 72
   120
 73
   121
  0
VERTEX
  5
279
  8
0
 62
     9
 10
0.0
 20
0.0
 30
0.0
 70
   128
 71
   123
 72
   198
 73
   122
  0
VERTEX
  5
27A
  8
0
 62
     9
 10
0.0
 20
0.0
 30
0.0
 70
   128
 71
   191
 72
   122
 73
   198
  0
VERTEX
  5
27B
  8
0
 62
     9
 10
0.0
 20
0.0
 30
0.0
 70
   128
 71
    93
 72
    10
 73
    14
  0
VERTEX
  5
27C
  8
0
 62
     9
 10
0.0
 20
0.0
 30
0.0
 70
   128
 71
    89
 72
    14
 73
   198
  0
VERTEX
  5
27D
  8
0
 62
     9
 10
0.0
 20
0.0
 30
0.0
 70
   128
 71
    89
 72
    93
 73
    14
  0
VERTEX
  5
27E
  8
0
 62
     9
 10
0.0
 20
0.0
 30
0.0
 70
   128
 71
    90
 72
   198
 73
    87
  0
VERTEX
  5
27F
  8
0
 62
     9
 10
0.0
 20
0.0
 30
0.0
 70
   128
 71
    90
 72
    89
 73
   198
  0
VERTEX
  5
280
  8
0
 62
     9
 10
0.0
 20
0.0
 30
0.0
 70
   128
 71
   200
 72
   198
 73
   199
  0
VERTEX
  5
281
  8
0
 62
     9
 10
0.0
 20
0.0
 30
0.0
 70
   128
 71
   200
 72
    87
 73
   198
  0
VERTEX
  5
282
  8
0
 62
     9
 10
0.0
 20
0.0
 30
0.0
 70
   128
 71
   199
 72
   198
 73
   123
  0
VERTEX
  5
283
  8
0
 62
     9
 10
0.0
 20
0.0
 30
0.0
 70
   128
 71
   199
 72
   123
 73
   201
  0
VERTEX
  5
284
  8
0
 62
     9
 10
0.0
 20
0.0
 30
0.0
 70
   128
 71
   188
 72
   201
 73
   123
  0
VERTEX
  5
285
  8
0
 62
     9
 10
0.0
 20
0.0
 30
0.0
 70
   128
 71
    11
 72
     7
 73
   123
  0
VERTEX
  5
286
  8
0
 62
     9
 10
0.0
 20
0.0
 30
0.0
 70
   128
 71
   204
 72
   203
 73
   202
  0
VERTEX
  5
287
  8
0
 62
     9
 10
0.0
 20
0.0
 30
0.0
 70
   128
 71
   203
 72
   181
 73
   205
  0
VERTEX
  5
288
  8
0
 62
     9
 10
0.0
 20
0.0
 30
0.0
 70
   128
 71
   205
 72
   181
 73
   180
  0
VERTEX
  5
289
  8
0
 62
     9
 10
0.0
 20
0.0
 30
0.0
 70
   128
 71
   203
 72
   204
 73
    10
  0
VERTEX
  5
28A
  8
0
 62
     9
 10
0.0
 20
0.0
 30
0.0
 70
   128
 71
   203
 72
    10
 73
   181
  0
VERTEX
  5
28B
  8
0
 62
     9
 10
0.0
 20
0.0
 30
0.0
 70
   128
 71
   203
 72
   205
 73
   202
  0
VERTEX
  5
28C
  8
0
 62
     9
 10
0.0
 20
0.0
 30
0.0
 70
   128
 71
   206
 72
   205
 73
   182
  0
VERTEX
  5
28D
  8
0
 62
     9
 10
0.0
 20
0.0
 30
0.0
 70
   128
 71
   180
 72
   182
 73
   205
  0
VERTEX
  5
28E
  8
0
 62
     9
 10
0.0
 20
0.0
 30
0.0
 70
   128
 71
   183
 72
   206
 73
   182
  0
VERTEX
  5
28F
  8
0
 62
     9
 10
0.0
 20
0.0
 30
0.0
 70
   128
 71
   207
 72
   206
 73
   200
  0
VERTEX
  5
290
  8
0
 62
     9
 10
0.0
 20
0.0
 30
0.0
 70
   128
 71
   206
 72
   187
 73
   200
  0
VERTEX
  5
291
  8
0
 62
     9
 10
0.0
 20
0.0
 30
0.0
 70
   128
 71
   200
 72
   187
 73
    87
  0
VERTEX
  5
292
  8
0
 62
     9
 10
0.0
 20
0.0
 30
0.0
 70
   128
 71
   208
 72
   206
 73
   207
  0
VERTEX
  5
293
  8
0
 62
     9
 10
0.0
 20
0.0
 30
0.0
 70
   128
 71
   199
 72
   207
 73
   200
  0
VERTEX
  5
294
  8
0
 62
     9
 10
0.0
 20
0.0
 30
0.0
 70
   128
 71
   206
 72
   202
 73
   205
  0
VERTEX
  5
295
  8
0
 62
     9
 10
0.0
 20
0.0
 30
0.0
 70
   128
 71
   208
 72
   202
 73
   206
  0
VERTEX
  5
296
  8
0
 62
     9
 10
0.0
 20
0.0
 30
0.0
 70
   128
 71
   206
 72
   183
 73
   187
  0
VERTEX
  5
297
  8
0
 62
     9
 10
0.0
 20
0.0
 30
0.0
 70
   128
 71
   211
 72
   210
 73
   209
  0
VERTEX
  5
298
  8
0
 62
     9
 10
0.0
 20
0.0
 30
0.0
 70
   128
 71
   212
 72
   209
 73
     7
  0
VERTEX
  5
299
  8
0
 62
     9
 10
0.0
 20
0.0
 30
0.0
 70
   128
 71
   209
 72
   212
 73
   211
  0
VERTEX
  5
29A
  8
0
 62
     9
 10
0.0
 20
0.0
 30
0.0
 70
   128
 71
   210
 72
   209
 73
     7
  0
VERTEX
  5
29B
  8
0
 62
     9
 10
0.0
 20
0.0
 30
0.0
 70
   128
 71
   208
 72
   213
 73
   202
  0
VERTEX
  5
29C
  8
0
 62
     9
 10
0.0
 20
0.0
 30
0.0
 70
   128
 71
   213
 72
   214
 73
   202
  0
VERTEX
  5
29D
  8
0
 62
     9
 10
0.0
 20
0.0
 30
0.0
 70
   128
 71
     7
 72
   204
 73
   214
  0
VERTEX
  5
29E
  8
0
 62
     9
 10
0.0
 20
0.0
 30
0.0
 70
   128
 71
   202
 72
   214
 73
   204
  0
VERTEX
  5
29F
  8
0
 62
     9
 10
0.0
 20
0.0
 30
0.0
 70
   128
 71
    10
 72
   204
 73
     7
  0
VERTEX
  5
2A0
  8
0
 62
     9
 10
0.0
 20
0.0
 30
0.0
 70
   128
 71
   208
 72
   215
 73
   213
  0
VERTEX
  5
2A1
  8
0
 62
     9
 10
0.0
 20
0.0
 30
0.0
 70
   128
 71
   207
 72
   216
 73
   215
  0
VERTEX
  5
2A2
  8
0
 62
     9
 10
0.0
 20
0.0
 30
0.0
 70
   128
 71
   215
 72
   208
 73
   207
  0
VERTEX
  5
2A3
  8
0
 62
     9
 10
0.0
 20
0.0
 30
0.0
 70
   128
 71
   199
 72
   216
 73
   207
  0
VERTEX
  5
2A4
  8
0
 62
     9
 10
0.0
 20
0.0
 30
0.0
 70
   128
 71
   199
 72
   201
 73
   216
  0
VERTEX
  5
2A5
  8
0
 62
     9
 10
0.0
 20
0.0
 30
0.0
 70
   128
 71
   212
 72
   218
 73
   217
  0
VERTEX
  5
2A6
  8
0
 62
     9
 10
0.0
 20
0.0
 30
0.0
 70
   128
 71
   218
 72
   212
 73
     7
  0
VERTEX
  5
2A7
  8
0
 62
     9
 10
0.0
 20
0.0
 30
0.0
 70
   128
 71
   218
 72
   214
 73
   213
  0
VERTEX
  5
2A8
  8
0
 62
     9
 10
0.0
 20
0.0
 30
0.0
 70
   128
 71
   217
 72
   211
 73
   212
  0
VERTEX
  5
2A9
  8
0
 62
     9
 10
0.0
 20
0.0
 30
0.0
 70
   128
 71
   217
 72
   218
 73
   213
  0
VERTEX
  5
2AA
  8
0
 62
     9
 10
0.0
 20
0.0
 30
0.0
 70
   128
 71
   214
 72
   218
 73
     7
  0
VERTEX
  5
2AB
  8
0
 62
     9
 10
0.0
 20
0.0
 30
0.0
 70
   128
 71
     7
 72
   220
 73
   219
  0
VERTEX
  5
2AC
  8
0
 62
     9
 10
0.0
 20
0.0
 30
0.0
 70
   128
 71
   222
 72
   220
 73
   221
  0
VERTEX
  5
2AD
  8
0
 62
     9
 10
0.0
 20
0.0
 30
0.0
 70
   128
 71
   220
 72
   219
 73
   221
  0
VERTEX
  5
2AE
  8
0
 62
     9
 10
0.0
 20
0.0
 30
0.0
 70
   128
 71
   222
 72
   220
 73
     7
  0
VERTEX
  5
2AF
  8
0
 62
     9
 10
0.0
 20
0.0
 30
0.0
 70
   128
 71
   210
 72
   211
 73
   223
  0
VERTEX
  5
2B0
  8
0
 62
     9
 10
0.0
 20
0.0
 30
0.0
 70
   128
 71
   223
 72
     7
 73
   219
  0
VERTEX
  5
2B1
  8
0
 62
     9
 10
0.0
 20
0.0
 30
0.0
 70
   128
 71
   221
 72
   219
 73
   224
  0
VERTEX
  5
2B2
  8
0
 62
     9
 10
0.0
 20
0.0
 30
0.0
 70
   128
 71
   223
 72
   210
 73
     7
  0
VERTEX
  5
2B3
  8
0
 62
     9
 10
0.0
 20
0.0
 30
0.0
 70
   128
 71
   224
 72
   223
 73
   211
  0
VERTEX
  5
2B4
  8
0
 62
     9
 10
0.0
 20
0.0
 30
0.0
 70
   128
 71
   223
 72
   224
 73
   219
  0
VERTEX
  5
2B5
  8
0
 62
     9
 10
0.0
 20
0.0
 30
0.0
 70
   128
 71
   216
 72
   201
 73
   188
  0
VERTEX
  5
2B6
  8
0
 62
     9
 10
0.0
 20
0.0
 30
0.0
 70
   128
 71
   225
 72
   188
 73
   222
  0
VERTEX
  5
2B7
  8
0
 62
     9
 10
0.0
 20
0.0
 30
0.0
 70
   128
 71
   216
 72
   225
 73
   215
  0
VERTEX
  5
2B8
  8
0
 62
     9
 10
0.0
 20
0.0
 30
0.0
 70
   128
 71
   188
 72
   222
 73
     7
  0
VERTEX
  5
2B9
  8
0
 62
     9
 10
0.0
 20
0.0
 30
0.0
 70
   128
 71
   216
 72
   188
 73
   225
  0
VERTEX
  5
2BA
  8
0
 62
     9
 10
0.0
 20
0.0
 30
0.0
 70
   128
 71
   224
 72
   217
 73
   225
  0
VERTEX
  5
2BB
  8
0
 62
     9
 10
0.0
 20
0.0
 30
0.0
 70
   128
 71
   213
 72
   225
 73
   217
  0
VERTEX
  5
2BC
  8
0
 62
     9
 10
0.0
 20
0.0
 30
0.0
 70
   128
 71
   217
 72
   224
 73
   211
  0
VERTEX
  5
2BD
  8
0
 62
     9
 10
0.0
 20
0.0
 30
0.0
 70
   128
 71
   224
 72
   225
 73
   221
  0
VERTEX
  5
2BE
  8
0
 62
     9
 10
0.0
 20
0.0
 30
0.0
 70
   128
 71
   213
 72
   215
 73
   225
  0
VERTEX
  5
2BF
  8
0
 62
     9
 10
0.0
 20
0.0
 30
0.0
 70
   128
 71
   221
 72
   225
 73
   222
  0
SEQEND
  5
2C0
  8
0
 62
     9
  0
ENDBLK
  5
2C4
  8
0
  0
BLOCK
  8
0
  2
CNET_SRF_1_
 70
     0
 10
0.0
 20
0.0
 30
0.0
  3
CNET_SRF_1_
  1

  0
POLYLINE
  5
2C6
  8
0
 66
     1
 10
0.0
 20
0.0
 30
0.0
 70
    64
 71
   302
 72
   542
  0
VERTEX
  5
2C7
  8
0
 10
28.46514892578125
 20
-6.238517284393311
 30
-13.25207901000977
 70
   192
  0
VERTEX
  5
2C8
  8
0
 10
29.55652236938477
 20
-7.164992332458496
 30
-31.77371406555176
 70
   192
  0
VERTEX
  5
2C9
  8
0
 10
27.67097663879395
 20
-5.327785491943359
 30
-30.2875862121582
 70
   192
  0
VERTEX
  5
2CA
  8
0
 10
34.70000457763672
 20
-8.820008277893066
 30
-14.02611255645752
 70
   192
  0
VERTEX
  5
2CB
  8
0
 10
31.92718696594238
 20
-8.372814178466797
 30
-33.28155899047852
 70
   192
  0
VERTEX
  5
2CC
  8
0
 10
31.30736541748047
 20
-8.141408920288086
 30
-13.79442691802979
 70
   192
  0
VERTEX
  5
2CD
  8
0
 10
25.8799991607666
 20
-0.0000005675806847
 30
-28.75
 70
   192
  0
VERTEX
  5
2CE
  8
0
 10
25.8799991607666
 20
-0.0000005675806847
 30
-12.49999523162842
 70
   192
  0
VERTEX
  5
2CF
  8
0
 10
26.36788368225098
 20
-2.892795562744141
 30
-29.17769622802734
 70
   192
  0
VERTEX
  5
2D0
  8
0
 10
26.55748176574707
 20
-3.389961719512939
 30
-12.71980476379395
 70
   192
  0
VERTEX
  5
2D1
  8
0
 10
34.70000839233398
 20
-8.820008277893066
 30
-34.03752136230469
 70
   192
  0
VERTEX
  5
2D2
  8
0
 10
16.89999961853027
 20
-10.9823579788208
 30
-14.93488311767578
 70
   192
  0
VERTEX
  5
2D3
  8
0
 10
16.89999961853027
 20
-5.480281352996826
 30
-13.0701847076416
 70
   192
  0
VERTEX
  5
2D4
  8
0
 10
16.75857925415039
 20
-7.333624839782715
 30
-13.60623168945312
 70
   192
  0
VERTEX
  5
2D5
  8
0
 10
16.75857925415039
 20
-0.0000199973255803
 30
-12.55857372283936
 70
   192
  0
VERTEX
  5
2D6
  8
0
 10
16.75857925415039
 20
-13.83701038360596
 30
-16.51199913024902
 70
   192
  0
VERTEX
  5
2D7
  8
0
 10
16.89999961853027
 20
-16.1785831451416
 30
-18.10051536560059
 70
   192
  0
VERTEX
  5
2D8
  8
0
 10
16.75857925415039
 20
-18.96623992919922
 30
-20.68695259094238
 70
   192
  0
VERTEX
  5
2D9
  8
0
 10
16.89999961853027
 20
-20.57658958435059
 30
-22.45552825927734
 70
   192
  0
VERTEX
  5
2DA
  8
0
 10
19.51240348815918
 20
-0.0000199973255803
 30
-12.49999523162842
 70
   192
  0
VERTEX
  5
2DB
  8
0
 10
16.75857925415039
 20
-24.77571296691895
 30
-30.25549697875977
 70
   192
  0
VERTEX
  5
2DC
  8
0
 10
16.89999961853027
 20
-23.80206871032715
 30
-27.66271209716797
 70
   192
  0
VERTEX
  5
2DD
  8
0
 10
16.75857925415039
 20
-22.5649585723877
 30
-25.45282363891602
 70
   192
  0
VERTEX
  5
2DE
  8
0
 10
16.89999961853027
 20
-25.67572593688965
 30
-33.25091934204102
 70
   192
  0
VERTEX
  5
2DF
  8
0
 10
16.70000076293945
 20
-26.05004501342773
 30
-38.75001907348633
 70
   192
  0
VERTEX
  5
2E0
  8
0
 10
16.75857925415039
 20
-25.88333129882812
 30
-34.74427032470703
 70
   192
  0
VERTEX
  5
2E1
  8
0
 10
16.75857925415039
 20
7.333584785461426
 30
-13.60623168945312
 70
   192
  0
VERTEX
  5
2E2
  8
0
 10
16.89999961853027
 20
3.484496593475342
 30
-12.73229598999023
 70
   192
  0
VERTEX
  5
2E3
  8
0
 10
16.89999961853027
 20
7.349987030029297
 30
-13.54999542236328
 70
   192
  0
VERTEX
  5
2E4
  8
0
 10
16.75857925415039
 20
13.83697032928467
 30
-16.51199913024902
 70
   192
  0
VERTEX
  5
2E5
  8
0
 10
16.89999961853027
 20
11.50279998779297
 30
-15.15449142456055
 70
   192
  0
VERTEX
  5
2E6
  8
0
 10
16.75857925415039
 20
18.96619987487793
 30
-20.68695259094238
 70
   192
  0
VERTEX
  5
2E7
  8
0
 10
16.89999961853027
 20
15.74999523162842
 30
-17.75
 70
   192
  0
VERTEX
  5
2E8
  8
0
 10
16.75857925415039
 20
22.56491851806641
 30
-25.45282363891602
 70
   192
  0
VERTEX
  5
2E9
  8
0
 10
16.89999961853027
 20
19.77739524841309
 30
-21.4897289276123
 70
   192
  0
VERTEX
  5
2EA
  8
0
 10
16.75857925415039
 20
24.77567291259766
 30
-30.25549697875977
 70
   192
  0
VERTEX
  5
2EB
  8
0
 10
16.70000076293945
 20
25.74353408813477
 30
-34.76589965820312
 70
   192
  0
VERTEX
  5
2EC
  8
0
 10
16.75857925415039
 20
25.88329124450684
 30
-34.74427032470703
 70
   192
  0
VERTEX
  5
2ED
  8
0
 10
16.89999961853027
 20
23.16176605224609
 30
-26.39706611633301
 70
   192
  0
VERTEX
  5
2EE
  8
0
 10
16.70000076293945
 20
26.05000495910645
 30
-38.75001907348633
 70
   192
  0
VERTEX
  5
2EF
  8
0
 10
16.89999961853027
 20
25.44231224060059
 30
-32.28847503662109
 70
   192
  0
VERTEX
  5
2F0
  8
0
 10
16.70000076293945
 20
24.64189529418945
 30
-30.30136299133301
 70
   192
  0
VERTEX
  5
2F1
  8
0
 10
16.70000076293945
 20
22.44307899475098
 30
-25.52462196350098
 70
   192
  0
VERTEX
  5
2F2
  8
0
 10
16.70000076293945
 20
18.86379051208496
 30
-20.78448486328125
 70
   192
  0
VERTEX
  5
2F3
  8
0
 10
16.70000076293945
 20
13.76225757598877
 30
-16.6320743560791
 70
   192
  0
VERTEX
  5
2F4
  8
0
 10
16.70000076293945
 20
7.293986797332764
 30
-13.7419958114624
 70
   192
  0
VERTEX
  5
2F5
  8
0
 10
16.70000076293945
 20
-0.0000199973255803
 30
-12.69999504089355
 70
   192
  0
VERTEX
  5
2F6
  8
0
 10
16.70000076293945
 20
-7.294026851654053
 30
-13.7419958114624
 70
   192
  0
VERTEX
  5
2F7
  8
0
 10
16.70000076293945
 20
-13.76229763031006
 30
-16.6320743560791
 70
   192
  0
VERTEX
  5
2F8
  8
0
 10
16.70000076293945
 20
-18.86383056640625
 30
-20.78448486328125
 70
   192
  0
VERTEX
  5
2F9
  8
0
 10
16.70000076293945
 20
-22.44311904907227
 30
-25.52462196350098
 70
   192
  0
VERTEX
  5
2FA
  8
0
 10
16.70000076293945
 20
-24.64193534851074
 30
-30.30136299133301
 70
   192
  0
VERTEX
  5
2FB
  8
0
 10
16.70000076293945
 20
-25.74357414245605
 30
-34.76589965820312
 70
   192
  0
VERTEX
  5
2FC
  8
0
 10
16.89999961853027
 20
17.2602710723877
 30
-58.52743530273438
 70
   192
  0
VERTEX
  5
2FD
  8
0
 10
73.69999694824219
 20
16.32774543762207
 30
-59.29616165161133
 70
   192
  0
VERTEX
  5
2FE
  8
0
 10
73.69999694824219
 20
11.36229515075684
 30
-62.41221618652344
 70
   192
  0
VERTEX
  5
2FF
  8
0
 10
16.89999961853027
 20
12.35293292999268
 30
-61.91180419921875
 70
   192
  0
VERTEX
  5
300
  8
0
 10
29.69312477111816
 20
5.086560249328613
 30
-64.50250244140625
 70
   192
  0
VERTEX
  5
301
  8
0
 10
28.72357940673828
 20
4.791849613189697
 30
-64.55896759033203
 70
   192
  0
VERTEX
  5
302
  8
0
 10
58.70000076293945
 20
5.192305088043213
 30
-64.48139190673828
 70
   192
  0
VERTEX
  5
303
  8
0
 10
30.70000076293945
 20
5.192295074462891
 30
-64.48139190673828
 70
   192
  0
VERTEX
  5
304
  8
0
 10
59.70732498168945
 20
5.086471557617188
 30
-64.50252532958984
 70
   192
  0
VERTEX
  5
305
  8
0
 10
73.69999694824219
 20
5.870823860168457
 30
-64.3337631225586
 70
   192
  0
VERTEX
  5
306
  8
0
 10
60.67641448974609
 20
4.79185152053833
 30
-64.55896759033203
 70
   192
  0
VERTEX
  5
307
  8
0
 10
62.67759323120117
 20
3.325781106948853
 30
-64.78850555419922
 70
   192
  0
VERTEX
  5
308
  8
0
 10
61.76836395263672
 20
4.186409950256348
 30
-64.6640625
 70
   192
  0
VERTEX
  5
309
  8
0
 10
73.69999694824219
 20
-0.0000199973255803
 30
-65.00004577636719
 70
   192
  0
VERTEX
  5
30A
  8
0
 10
63.54803085327148
 20
1.775742769241333
 30
-64.93991088867188
 70
   192
  0
VERTEX
  5
30B
  8
0
 10
63.84896469116211
 20
-0.0000040536606321
 30
-65.00004577636719
 70
   192
  0
VERTEX
  5
30C
  8
0
 10
16.89999961853027
 20
21.0
 30
-54.50003433227539
 70
   192
  0
VERTEX
  5
30D
  8
0
 10
73.69999694824219
 20
20.50922203063965
 30
-55.13030242919922
 70
   192
  0
VERTEX
  5
30E
  8
0
 10
16.89999961853027
 20
6.461524486541748
 30
-64.19235229492188
 70
   192
  0
VERTEX
  5
30F
  8
0
 10
73.69999694824219
 20
23.64837265014648
 30
-50.14566421508789
 70
   192
  0
VERTEX
  5
310
  8
0
 10
16.89999961853027
 20
23.59550857543945
 30
-50.25283813476562
 70
   192
  0
VERTEX
  5
311
  8
0
 10
27.63207626342773
 20
4.186615467071533
 30
-64.66403198242188
 70
   192
  0
VERTEX
  5
312
  8
0
 10
16.89999961853027
 20
25.20000457763672
 30
-46.10002517700195
 70
   192
  0
VERTEX
  5
313
  8
0
 10
73.69999694824219
 20
25.58372116088867
 30
-44.62086486816406
 70
   192
  0
VERTEX
  5
314
  8
0
 10
26.72300338745117
 20
3.326330184936523
 30
-64.78843688964844
 70
   192
  0
VERTEX
  5
315
  8
0
 10
16.89999961853027
 20
26.01770401000977
 30
-42.23453521728516
 70
   192
  0
VERTEX
  5
316
  8
0
 10
25.85206413269043
 20
1.776093244552612
 30
-64.93988800048828
 70
   192
  0
VERTEX
  5
317
  8
0
 10
73.69999694824219
 20
26.25000381469727
 30
-38.75001907348633
 70
   192
  0
VERTEX
  5
318
  8
0
 10
16.89999961853027
 20
-0.0000199973255803
 30
-65.00004577636719
 70
   192
  0
VERTEX
  5
319
  8
0
 10
25.55103302001953
 20
-0.0000199973255803
 30
-65.00004577636719
 70
   192
  0
VERTEX
  5
31A
  8
0
 10
73.69999694824219
 20
25.58924293518066
 30
-32.91078948974609
 70
   192
  0
VERTEX
  5
31B
  8
0
 10
73.69999694824219
 20
23.66217803955078
 30
-27.38770484924316
 70
   192
  0
VERTEX
  5
31C
  8
0
 10
73.69999694824219
 20
20.54612159729004
 30
-22.42225456237793
 70
   192
  0
VERTEX
  5
31D
  8
0
 10
73.69999694824219
 20
16.38026428222656
 30
-18.24077796936035
 70
   192
  0
VERTEX
  5
31E
  8
0
 10
73.69999694824219
 20
11.39562511444092
 30
-15.1016263961792
 70
   192
  0
VERTEX
  5
31F
  8
0
 10
28.46081352233887
 20
6.23418140411377
 30
-13.2510290145874
 70
   192
  0
VERTEX
  5
320
  8
0
 10
31.30666732788086
 20
8.14111614227295
 30
-13.79434490203857
 70
   192
  0
VERTEX
  5
321
  8
0
 10
20.33328247070312
 20
1.366753578186035
 30
-12.53560161590576
 70
   192
  0
VERTEX
  5
322
  8
0
 10
21.94620513916016
 20
1.367470741271973
 30
-12.5356388092041
 70
   192
  0
VERTEX
  5
323
  8
0
 10
26.55678367614746
 20
3.388283729553223
 30
-12.71959114074707
 70
   192
  0
VERTEX
  5
324
  8
0
 10
63.10503768920898
 20
2.320101499557495
 30
-12.61181735992432
 70
   192
  0
VERTEX
  5
325
  8
0
 10
73.69999694824219
 20
5.870823860168457
 30
-13.16627883911133
 70
   192
  0
VERTEX
  5
326
  8
0
 10
62.21047973632812
 20
4.444527149200439
 30
-12.8961124420166
 70
   192
  0
VERTEX
  5
327
  8
0
 10
22.76838493347168
 20
-0.0000199973255803
 30
-12.49999523162842
 70
   192
  0
VERTEX
  5
328
  8
0
 10
60.83486175537109
 20
6.238497257232666
 30
-13.25208473205566
 70
   192
  0
VERTEX
  5
329
  8
0
 10
59.0012092590332
 20
7.643130779266357
 30
-13.64817142486572
 70
   192
  0
VERTEX
  5
32A
  8
0
 10
56.92292022705078
 20
8.503631591796875
 30
-13.90618419647217
 70
   192
  0
VERTEX
  5
32B
  8
0
 10
34.70000457763672
 20
8.820000648498535
 30
-14.026123046875
 70
   192
  0
VERTEX
  5
32C
  8
0
 10
54.59999465942383
 20
8.820000648498535
 30
-14.026123046875
 70
   192
  0
VERTEX
  5
32D
  8
0
 10
73.69999694824219
 20
-0.0000199973255803
 30
-12.49999523162842
 70
   192
  0
VERTEX
  5
32E
  8
0
 10
63.41999816894531
 20
-0.0000199973255803
 30
-12.49999523162842
 70
   192
  0
VERTEX
  5
32F
  8
0
 10
59.63930511474609
 20
-4.739174365997314
 30
-64.43944549560547
 70
   192
  0
VERTEX
  5
330
  8
0
 10
58.70000076293945
 20
-4.831408500671387
 30
-64.41714477539062
 70
   192
  0
VERTEX
  5
331
  8
0
 10
58.70000076293945
 20
-3.317001819610596
 30
-63.66501235961914
 70
   192
  0
VERTEX
  5
332
  8
0
 10
60.82555389404297
 20
-3.701999664306641
 30
-64.1866683959961
 70
   192
  0
VERTEX
  5
333
  8
0
 10
59.94256591796875
 20
-2.47507381439209
 30
-63.51186752319336
 70
   192
  0
VERTEX
  5
334
  8
0
 10
58.70000076293945
 20
-1.714580774307251
 30
-63.21318817138672
 70
   192
  0
VERTEX
  5
335
  8
0
 10
60.54802703857422
 20
-4.461355686187744
 30
-64.48723602294922
 70
   192
  0
VERTEX
  5
336
  8
0
 10
60.05777359008789
 20
-0.0000011204820112
 30
-63.18356323242188
 70
   192
  0
VERTEX
  5
337
  8
0
 10
61.30625152587891
 20
-1.477174282073975
 30
-63.66605377197266
 70
   192
  0
VERTEX
  5
338
  8
0
 10
58.70000076293945
 20
-0.0000089136874522
 30
-63.06116485595703
 70
   192
  0
VERTEX
  5
339
  8
0
 10
61.39281845092773
 20
-0.000003471522632
 30
-63.57230758666992
 70
   192
  0
VERTEX
  5
33A
  8
0
 10
61.04885101318359
 20
-2.911575317382812
 30
-63.94482803344727
 70
   192
  0
VERTEX
  5
33B
  8
0
 10
62.52886962890625
 20
-1.092490553855896
 30
-64.1976547241211
 70
   192
  0
VERTEX
  5
33C
  8
0
 10
61.93152236938477
 20
-1.30909264087677
 30
-63.90474319458008
 70
   192
  0
VERTEX
  5
33D
  8
0
 10
62.02651596069336
 20
-0.000004744859325
 30
-63.85109329223633
 70
   192
  0
VERTEX
  5
33E
  8
0
 10
61.65786743164062
 20
-2.540597915649414
 30
-64.06361389160156
 70
   192
  0
VERTEX
  5
33F
  8
0
 10
62.23994827270508
 20
-2.151034593582153
 30
-64.2416000366211
 70
   192
  0
VERTEX
  5
340
  8
0
 10
62.62222290039062
 20
-0.0000058501696003
 30
-64.19346618652344
 70
   192
  0
VERTEX
  5
341
  8
0
 10
61.56412506103516
 20
-3.886234283447266
 30
-64.57001495361328
 70
   192
  0
VERTEX
  5
342
  8
0
 10
61.64482116699219
 20
-3.232849359512329
 30
-64.30066680908203
 70
   192
  0
VERTEX
  5
343
  8
0
 10
62.40543365478516
 20
-3.084625482559204
 30
-64.67253112792969
 70
   192
  0
VERTEX
  5
344
  8
0
 10
62.33344650268555
 20
-2.624131202697754
 30
-64.4391860961914
 70
   192
  0
VERTEX
  5
345
  8
0
 10
60.82559967041016
 20
3.701935529708862
 30
-64.18665313720703
 70
   192
  0
VERTEX
  5
346
  8
0
 10
59.63982391357422
 20
4.738988399505615
 30
-64.43936920166016
 70
   192
  0
VERTEX
  5
347
  8
0
 10
60.54811477661133
 20
4.461212635040283
 30
-64.4871826171875
 70
   192
  0
VERTEX
  5
348
  8
0
 10
61.04887390136719
 20
2.911561965942383
 30
-63.94482803344727
 70
   192
  0
VERTEX
  5
349
  8
0
 10
61.3062629699707
 20
1.477163672447205
 30
-63.66605758666992
 70
   192
  0
VERTEX
  5
34A
  8
0
 10
59.93926239013672
 20
2.472238063812256
 30
-63.5076904296875
 70
   192
  0
VERTEX
  5
34B
  8
0
 10
58.70000076293945
 20
3.308337926864624
 30
-63.66166687011719
 70
   192
  0
VERTEX
  5
34C
  8
0
 10
58.70000076293945
 20
4.83140230178833
 30
-64.4171371459961
 70
   192
  0
VERTEX
  5
34D
  8
0
 10
58.70000076293945
 20
1.694900274276733
 30
-63.21000289916992
 70
   192
  0
VERTEX
  5
34E
  8
0
 10
30.70000076293945
 20
-0.0000088428305389
 30
-63.06116485595703
 70
   192
  0
VERTEX
  5
34F
  8
0
 10
30.70000076293945
 20
1.696276068687439
 30
-63.2098503112793
 70
   192
  0
VERTEX
  5
350
  8
0
 10
30.70000076293945
 20
3.308337926864624
 30
-63.66166687011719
 70
   192
  0
VERTEX
  5
351
  8
0
 10
30.70000076293945
 20
4.83140230178833
 30
-64.4171371459961
 70
   192
  0
VERTEX
  5
352
  8
0
 10
30.70000076293945
 20
-1.713185667991638
 30
-63.21334075927734
 70
   192
  0
VERTEX
  5
353
  8
0
 10
30.70000076293945
 20
-3.317001819610596
 30
-63.66501235961914
 70
   192
  0
VERTEX
  5
354
  8
0
 10
30.70000076293945
 20
-4.831417083740234
 30
-64.41714477539062
 70
   192
  0
VERTEX
  5
355
  8
0
 10
61.64559555053711
 20
3.233389377593994
 30
-64.30082702636719
 70
   192
  0
VERTEX
  5
356
  8
0
 10
62.40580368041992
 20
3.08403205871582
 30
-64.67240905761719
 70
   192
  0
VERTEX
  5
357
  8
0
 10
62.33484649658203
 20
2.624722242355347
 30
-64.4399185180664
 70
   192
  0
VERTEX
  5
358
  8
0
 10
61.56464767456055
 20
3.885821580886841
 30
-64.57012176513672
 70
   192
  0
VERTEX
  5
359
  8
0
 10
61.65913391113281
 20
2.541504859924316
 30
-64.06432342529297
 70
   192
  0
VERTEX
  5
35A
  8
0
 10
62.24243927001953
 20
2.152854919433594
 30
-64.24311828613281
 70
   192
  0
VERTEX
  5
35B
  8
0
 10
62.5306510925293
 20
1.093369603157043
 30
-64.19874572753906
 70
   192
  0
VERTEX
  5
35C
  8
0
 10
61.93239212036133
 20
1.309531331062317
 30
-63.90888214111328
 70
   192
  0
VERTEX
  5
35D
  8
0
 10
28.09374618530273
 20
-1.477174282073975
 30
-63.66605377197266
 70
   192
  0
VERTEX
  5
35E
  8
0
 10
29.34222793579102
 20
-0.0000011116153473
 30
-63.18356323242188
 70
   192
  0
VERTEX
  5
35F
  8
0
 10
29.45742607116699
 20
-2.475063323974609
 30
-63.51182556152344
 70
   192
  0
VERTEX
  5
360
  8
0
 10
28.00718116760254
 20
-0.0000034715219499
 30
-63.57230758666992
 70
   192
  0
VERTEX
  5
361
  8
0
 10
28.35114860534668
 20
-2.911575317382812
 30
-63.94482803344727
 70
   192
  0
VERTEX
  5
362
  8
0
 10
29.76029968261719
 20
-4.739098072052002
 30
-64.43946075439453
 70
   192
  0
VERTEX
  5
363
  8
0
 10
28.57444763183594
 20
-3.702006340026855
 30
-64.1866683959961
 70
   192
  0
VERTEX
  5
364
  8
0
 10
28.85197830200195
 20
-4.461367607116699
 30
-64.48724365234375
 70
   192
  0
VERTEX
  5
365
  8
0
 10
29.46073532104492
 20
2.472253322601318
 30
-63.50773239135742
 70
   192
  0
VERTEX
  5
366
  8
0
 10
28.57440185546875
 20
3.701934099197388
 30
-64.18665313720703
 70
   192
  0
VERTEX
  5
367
  8
0
 10
29.76059341430664
 20
4.739074230194092
 30
-64.4393539428711
 70
   192
  0
VERTEX
  5
368
  8
0
 10
28.85188484191895
 20
4.461209774017334
 30
-64.4871826171875
 70
   192
  0
VERTEX
  5
369
  8
0
 10
28.09373664855957
 20
1.477163791656494
 30
-63.66605377197266
 70
   192
  0
VERTEX
  5
36A
  8
0
 10
28.35112571716309
 20
2.911562204360962
 30
-63.94482803344727
 70
   192
  0
VERTEX
  5
36B
  8
0
 10
25.8480281829834
 20
-1.764592051506042
 30
-64.94066619873047
 70
   192
  0
VERTEX
  5
36C
  8
0
 10
16.89999961853027
 20
-6.461564540863037
 30
-64.19235229492188
 70
   192
  0
VERTEX
  5
36D
  8
0
 10
26.72251892089844
 20
-3.325921773910522
 30
-64.78849792480469
 70
   192
  0
VERTEX
  5
36E
  8
0
 10
73.69999694824219
 20
-25.35067367553711
 30
-45.56245422363281
 70
   192
  0
VERTEX
  5
36F
  8
0
 10
73.69999694824219
 20
-26.25004386901855
 30
-38.75001907348633
 70
   192
  0
VERTEX
  5
370
  8
0
 10
16.89999961853027
 20
-26.01774406433105
 30
-42.23453521728516
 70
   192
  0
VERTEX
  5
371
  8
0
 10
16.89999961853027
 20
-23.59554862976074
 30
-50.25283813476562
 70
   192
  0
VERTEX
  5
372
  8
0
 10
16.89999961853027
 20
-21.00004005432129
 30
-54.50003433227539
 70
   192
  0
VERTEX
  5
373
  8
0
 10
73.69999694824219
 20
-18.56159019470215
 30
-57.31158828735352
 70
   192
  0
VERTEX
  5
374
  8
0
 10
73.69999694824219
 20
-13.1085205078125
 30
-16.00728225708008
 70
   192
  0
VERTEX
  5
375
  8
0
 10
73.69999694824219
 20
-18.56159019470215
 30
-20.18844985961914
 70
   192
  0
VERTEX
  5
376
  8
0
 10
73.69999694824219
 20
-25.35067367553711
 30
-31.93758583068848
 70
   192
  0
VERTEX
  5
377
  8
0
 10
73.69999694824219
 20
-22.74275779724121
 30
-25.64151954650879
 70
   192
  0
VERTEX
  5
378
  8
0
 10
59.04659271240234
 20
-7.609804153442383
 30
-13.61190891265869
 70
   192
  0
VERTEX
  5
379
  8
0
 10
56.92304992675781
 20
-8.503864288330078
 30
-13.90620708465576
 70
   192
  0
VERTEX
  5
37A
  8
0
 10
73.69999694824219
 20
-6.812454223632812
 30
-13.39936542510986
 70
   192
  0
VERTEX
  5
37B
  8
0
 10
54.59999465942383
 20
-8.82000732421875
 30
-14.0261116027832
 70
   192
  0
VERTEX
  5
37C
  8
0
 10
60.83917999267578
 20
-6.234188556671143
 30
-13.25102043151855
 70
   192
  0
VERTEX
  5
37D
  8
0
 10
62.24489212036133
 20
-4.39719295501709
 30
-12.86208343505859
 70
   192
  0
VERTEX
  5
37E
  8
0
 10
63.10516738891602
 20
-2.31913685798645
 30
-12.611741065979
 70
   192
  0
VERTEX
  5
37F
  8
0
 10
16.89999961853027
 20
-25.20004463195801
 30
-46.10002517700195
 70
   192
  0
VERTEX
  5
380
  8
0
 10
73.69999694824219
 20
-22.74275779724121
 30
-51.8585205078125
 70
   192
  0
VERTEX
  5
381
  8
0
 10
16.89999961853027
 20
-17.26031112670898
 30
-58.52743530273438
 70
   192
  0
VERTEX
  5
382
  8
0
 10
73.69999694824219
 20
-13.1085205078125
 30
-61.49275588989258
 70
   192
  0
VERTEX
  5
383
  8
0
 10
16.89999961853027
 20
-12.35297298431396
 30
-61.91180419921875
 70
   192
  0
VERTEX
  5
384
  8
0
 10
73.69999694824219
 20
-6.812454223632812
 30
-64.10066986083984
 70
   192
  0
VERTEX
  5
385
  8
0
 10
58.70000076293945
 20
-5.192300796508789
 30
-64.48139953613281
 70
   192
  0
VERTEX
  5
386
  8
0
 10
30.70000076293945
 20
-5.192307949066162
 30
-64.48139953613281
 70
   192
  0
VERTEX
  5
387
  8
0
 10
29.6854362487793
 20
-5.084340572357178
 30
-64.50354766845703
 70
   192
  0
VERTEX
  5
388
  8
0
 10
63.55183792114258
 20
-1.765066981315613
 30
-64.94063568115234
 70
   192
  0
VERTEX
  5
389
  8
0
 10
62.6768913269043
 20
-3.326467752456665
 30
-64.78842163085938
 70
   192
  0
VERTEX
  5
38A
  8
0
 10
61.77134323120117
 20
-4.183915138244629
 30
-64.6641616821289
 70
   192
  0
VERTEX
  5
38B
  8
0
 10
28.72390556335449
 20
-4.791866779327393
 30
-64.55770111083984
 70
   192
  0
VERTEX
  5
38C
  8
0
 10
27.62733268737793
 20
-4.182617664337158
 30
-64.66436767578125
 70
   192
  0
VERTEX
  5
38D
  8
0
 10
59.71487426757812
 20
-5.084170341491699
 30
-64.50357055664062
 70
   192
  0
VERTEX
  5
38E
  8
0
 10
60.67617416381836
 20
-4.792001724243164
 30
-64.55767822265625
 70
   192
  0
VERTEX
  5
38F
  8
0
 10
27.75445556640625
 20
-3.233429193496704
 30
-64.30091094970703
 70
   192
  0
VERTEX
  5
390
  8
0
 10
27.74088478088379
 20
-2.541516542434692
 30
-64.06432342529297
 70
   192
  0
VERTEX
  5
391
  8
0
 10
27.8355541229248
 20
-3.885911226272583
 30
-64.5699234008789
 70
   192
  0
VERTEX
  5
392
  8
0
 10
27.06516647338867
 20
-2.624744415283203
 30
-64.43992614746094
 70
   192
  0
VERTEX
  5
393
  8
0
 10
26.99421691894531
 20
-3.084033012390137
 30
-64.67239379882812
 70
   192
  0
VERTEX
  5
394
  8
0
 10
27.15756797790527
 20
-2.152866840362549
 30
-64.24311828613281
 70
   192
  0
VERTEX
  5
395
  8
0
 10
27.46764755249023
 20
-1.309493541717529
 30
-63.90535736083984
 70
   192
  0
VERTEX
  5
396
  8
0
 10
27.37348556518555
 20
-0.0000047441199058
 30
-63.85109329223633
 70
   192
  0
VERTEX
  5
397
  8
0
 10
26.86935424804688
 20
-1.093379974365234
 30
-64.19874572753906
 70
   192
  0
VERTEX
  5
398
  8
0
 10
26.77777671813965
 20
-0.0000058501705098
 30
-64.1934585571289
 70
   192
  0
VERTEX
  5
399
  8
0
 10
26.87112236022949
 20
1.092474818229675
 30
-64.1976547241211
 70
   192
  0
VERTEX
  5
39A
  8
0
 10
27.46844100952148
 20
1.30913245677948
 30
-63.90826416015625
 70
   192
  0
VERTEX
  5
39B
  8
0
 10
27.74211502075195
 20
2.540582656860352
 30
-64.06360626220703
 70
   192
  0
VERTEX
  5
39C
  8
0
 10
27.16003608703613
 20
2.151016235351562
 30
-64.2416000366211
 70
   192
  0
VERTEX
  5
39D
  8
0
 10
27.83571624755859
 20
3.88616418838501
 30
-64.57020568847656
 70
   192
  0
VERTEX
  5
39E
  8
0
 10
27.75513648986816
 20
3.232813358306885
 30
-64.30057525634766
 70
   192
  0
VERTEX
  5
39F
  8
0
 10
27.06653785705566
 20
2.624104499816895
 30
-64.43917846679688
 70
   192
  0
VERTEX
  5
3A0
  8
0
 10
26.99454879760742
 20
3.084619998931885
 30
-64.67253875732422
 70
   192
  0
VERTEX
  5
3A1
  8
0
 10
63.22662353515625
 20
-1.63956892490387
 30
-64.81027221679688
 70
   192
  0
VERTEX
  5
3A2
  8
0
 10
63.08536148071289
 20
-0.0000065386452661
 30
-64.50874328613281
 70
   192
  0
VERTEX
  5
3A3
  8
0
 10
63.50958633422852
 20
-0.0000069130014708
 30
-64.86722564697266
 70
   192
  0
VERTEX
  5
3A4
  8
0
 10
62.87474060058594
 20
-1.39538836479187
 30
-64.47502136230469
 70
   192
  0
VERTEX
  5
3A5
  8
0
 10
63.22306060791016
 20
1.649536490440369
 30
-64.80964660644531
 70
   192
  0
VERTEX
  5
3A6
  8
0
 10
62.87577438354492
 20
1.395849227905273
 30
-64.47576904296875
 70
   192
  0
VERTEX
  5
3A7
  8
0
 10
26.17705535888672
 20
1.649852752685547
 30
-64.80960083007812
 70
   192
  0
VERTEX
  5
3A8
  8
0
 10
26.52524757385254
 20
1.395369529724121
 30
-64.47502136230469
 70
   192
  0
VERTEX
  5
3A9
  8
0
 10
25.89041519165039
 20
-0.0000069128864197
 30
-64.86722564697266
 70
   192
  0
VERTEX
  5
3AA
  8
0
 10
26.31463623046875
 20
-0.0000065377948886
 30
-64.50874328613281
 70
   192
  0
VERTEX
  5
3AB
  8
0
 10
26.52422142028809
 20
-1.395846128463745
 30
-64.47576904296875
 70
   192
  0
VERTEX
  5
3AC
  8
0
 10
26.1732177734375
 20
-1.639133095741272
 30
-64.81033325195312
 70
   192
  0
VERTEX
  5
3AD
  8
0
 10
16.70000076293945
 20
-25.74357414245605
 30
-42.7341423034668
 70
   192
  0
VERTEX
  5
3AE
  8
0
 10
16.75857925415039
 20
-25.88333129882812
 30
-42.75577163696289
 70
   192
  0
VERTEX
  5
3AF
  8
0
 10
16.75857925415039
 20
-22.5649585723877
 30
-52.04721450805664
 70
   192
  0
VERTEX
  5
3B0
  8
0
 10
16.75857925415039
 20
-18.96623992919922
 30
-56.81308746337891
 70
   192
  0
VERTEX
  5
3B1
  8
0
 10
16.75857925415039
 20
-7.333624839782715
 30
-63.89380645751953
 70
   192
  0
VERTEX
  5
3B2
  8
0
 10
16.75857925415039
 20
-24.77571296691895
 30
-47.24454116821289
 70
   192
  0
VERTEX
  5
3B3
  8
0
 10
16.75857925415039
 20
7.333584785461426
 30
-63.89380645751953
 70
   192
  0
VERTEX
  5
3B4
  8
0
 10
16.75857925415039
 20
-0.0000199973255803
 30
-64.94146728515625
 70
   192
  0
VERTEX
  5
3B5
  8
0
 10
16.75857925415039
 20
18.96619987487793
 30
-56.81308746337891
 70
   192
  0
VERTEX
  5
3B6
  8
0
 10
16.75857925415039
 20
22.56491851806641
 30
-52.04721450805664
 70
   192
  0
VERTEX
  5
3B7
  8
0
 10
16.75857925415039
 20
13.83697032928467
 30
-60.98804092407227
 70
   192
  0
VERTEX
  5
3B8
  8
0
 10
16.75857925415039
 20
24.77567291259766
 30
-47.24454116821289
 70
   192
  0
VERTEX
  5
3B9
  8
0
 10
16.75857925415039
 20
25.88329124450684
 30
-42.75577163696289
 70
   192
  0
VERTEX
  5
3BA
  8
0
 10
16.75857925415039
 20
-13.83701038360596
 30
-60.98804092407227
 70
   192
  0
VERTEX
  5
3BB
  8
0
 10
16.70000076293945
 20
-0.0000199973255803
 30
-64.80004119873047
 70
   192
  0
VERTEX
  5
3BC
  8
0
 10
16.70000076293945
 20
7.293986797332764
 30
-63.75804138183594
 70
   192
  0
VERTEX
  5
3BD
  8
0
 10
16.70000076293945
 20
-24.64193534851074
 30
-47.19867706298828
 70
   192
  0
VERTEX
  5
3BE
  8
0
 10
16.70000076293945
 20
-22.44311904907227
 30
-51.97541809082031
 70
   192
  0
VERTEX
  5
3BF
  8
0
 10
16.70000076293945
 20
-18.86383056640625
 30
-56.71555328369141
 70
   192
  0
VERTEX
  5
3C0
  8
0
 10
16.70000076293945
 20
-13.76229763031006
 30
-60.86796569824219
 70
   192
  0
VERTEX
  5
3C1
  8
0
 10
16.70000076293945
 20
-7.294026851654053
 30
-63.75804138183594
 70
   192
  0
VERTEX
  5
3C2
  8
0
 10
16.70000076293945
 20
13.76225757598877
 30
-60.86796569824219
 70
   192
  0
VERTEX
  5
3C3
  8
0
 10
16.70000076293945
 20
18.86379051208496
 30
-56.71555328369141
 70
   192
  0
VERTEX
  5
3C4
  8
0
 10
16.70000076293945
 20
22.44307899475098
 30
-51.97541809082031
 70
   192
  0
VERTEX
  5
3C5
  8
0
 10
16.70000076293945
 20
24.64189529418945
 30
-47.19867706298828
 70
   192
  0
VERTEX
  5
3C6
  8
0
 10
16.70000076293945
 20
25.74353408813477
 30
-42.7341423034668
 70
   192
  0
VERTEX
  5
3C7
  8
0
 10
58.70000076293945
 20
5.011848449707031
 30
-64.44926452636719
 70
   192
  0
VERTEX
  5
3C8
  8
0
 10
30.70000076293945
 20
5.011848926544189
 30
-64.44926452636719
 70
   192
  0
VERTEX
  5
3C9
  8
0
 10
59.67120361328125
 20
4.907212257385254
 30
-64.50384521484375
 70
   192
  0
VERTEX
  5
3CA
  8
0
 10
60.61227798461914
 20
4.626526832580566
 30
-64.52307891845703
 70
   192
  0
VERTEX
  5
3CB
  8
0
 10
28.78771781921387
 20
4.626523971557617
 30
-64.5230712890625
 70
   192
  0
VERTEX
  5
3CC
  8
0
 10
29.7292308807373
 20
4.907299518585205
 30
-64.50382995605469
 70
   192
  0
VERTEX
  5
3CD
  8
0
 10
61.65848922729492
 20
4.03055477142334
 30
-64.65226745605469
 70
   192
  0
VERTEX
  5
3CE
  8
0
 10
62.54170227050781
 20
3.204885005950928
 30
-64.73045349121094
 70
   192
  0
VERTEX
  5
3CF
  8
0
 10
27.74190139770508
 20
4.030840396881104
 30
-64.65225982666016
 70
   192
  0
VERTEX
  5
3D0
  8
0
 10
26.85877227783203
 20
3.205453872680664
 30
-64.73048400878906
 70
   192
  0
VERTEX
  5
3D1
  8
0
 10
63.67927551269531
 20
-0.0000054833308241
 30
-64.93363189697266
 70
   192
  0
VERTEX
  5
3D2
  8
0
 10
63.37297058105469
 20
1.710370421409607
 30
-64.9083480834961
 70
   192
  0
VERTEX
  5
3D3
  8
0
 10
25.72072410583496
 20
-0.0000042867736738
 30
-64.93363189697266
 70
   192
  0
VERTEX
  5
3D4
  8
0
 10
26.02713775634766
 20
1.710702419281006
 30
-64.90831756591797
 70
   192
  0
VERTEX
  5
3D5
  8
0
 10
62.54116058349609
 20
-3.205559730529785
 30
-64.73048400878906
 70
   192
  0
VERTEX
  5
3D6
  8
0
 10
63.37663269042969
 20
-1.700090885162354
 30
-64.90901947021484
 70
   192
  0
VERTEX
  5
3D7
  8
0
 10
26.85836601257324
 20
-3.204992055892944
 30
-64.73045349121094
 70
   192
  0
VERTEX
  5
3D8
  8
0
 10
26.02321434020996
 20
-1.699640512466431
 30
-64.9090576171875
 70
   192
  0
VERTEX
  5
3D9
  8
0
 10
61.65787887573242
 20
-4.031060695648193
 30
-64.65217590332031
 70
   192
  0
VERTEX
  5
3DA
  8
0
 10
60.6120491027832
 20
-4.626676082611084
 30
-64.5230941772461
 70
   192
  0
VERTEX
  5
3DB
  8
0
 10
28.78796195983887
 20
-4.626686573028564
 30
-64.5230941772461
 70
   192
  0
VERTEX
  5
3DC
  8
0
 10
27.74177742004395
 20
-4.030797958374023
 30
-64.65218353271484
 70
   192
  0
VERTEX
  5
3DD
  8
0
 10
59.67058181762695
 20
-4.907362461090088
 30
-64.50384521484375
 70
   192
  0
VERTEX
  5
3DE
  8
0
 10
58.70000076293945
 20
-5.011862277984619
 30
-64.44927215576172
 70
   192
  0
VERTEX
  5
3DF
  8
0
 10
30.70000076293945
 20
-5.011862277984619
 30
-64.44927215576172
 70
   192
  0
VERTEX
  5
3E0
  8
0
 10
29.72901153564453
 20
-4.90728235244751
 30
-64.50386047363281
 70
   192
  0
VERTEX
  5
3E1
  8
0
 10
61.62863159179688
 20
5.328292846679688
 30
-41.92499923706055
 70
   192
  0
VERTEX
  5
3E2
  8
0
 10
63.20121002197266
 20
1.952327966690063
 30
-41.92499923706055
 70
   192
  0
VERTEX
  5
3E3
  8
0
 10
59.20494842529297
 20
-7.522430419921875
 30
-41.92499923706055
 70
   192
  0
VERTEX
  5
3E4
  8
0
 10
56.70000076293945
 20
-8.566359519958496
 30
-41.92499923706055
 70
   192
  0
VERTEX
  5
3E5
  8
0
 10
63.20121002197266
 20
-1.952335476875305
 30
-41.92499923706055
 70
   192
  0
VERTEX
  5
3E6
  8
0
 10
59.20494842529297
 20
7.522422790527344
 30
-41.92499923706055
 70
   192
  0
VERTEX
  5
3E7
  8
0
 10
56.70000076293945
 20
8.566351890563965
 30
-41.92499923706055
 70
   192
  0
VERTEX
  5
3E8
  8
0
 10
56.70000076293945
 20
8.566351890563965
 30
-33.59077453613281
 70
   192
  0
VERTEX
  5
3E9
  8
0
 10
61.62863159179688
 20
-5.328299999237061
 30
-41.92499923706055
 70
   192
  0
VERTEX
  5
3EA
  8
0
 10
54.59999465942383
 20
-8.82000732421875
 30
-34.03752136230469
 70
   192
  0
VERTEX
  5
3EB
  8
0
 10
31.93331718444824
 20
8.37484073638916
 30
-33.2846565246582
 70
   192
  0
VERTEX
  5
3EC
  8
0
 10
29.55642127990723
 20
7.164918899536133
 30
-31.77432060241699
 70
   192
  0
VERTEX
  5
3ED
  8
0
 10
34.70000457763672
 20
8.82000732421875
 30
-34.03752136230469
 70
   192
  0
VERTEX
  5
3EE
  8
0
 10
27.66906356811523
 20
5.325258255004883
 30
-30.2859992980957
 70
   192
  0
VERTEX
  5
3EF
  8
0
 10
26.36721801757812
 20
2.890881061553955
 30
-29.17711639404297
 70
   192
  0
VERTEX
  5
3F0
  8
0
 10
21.49668121337891
 20
0.6167839169502258
 30
-12.8433895111084
 70
   192
  0
VERTEX
  5
3F1
  8
0
 10
20.78410720825195
 20
0.6167839169502258
 30
-12.8433895111084
 70
   192
  0
VERTEX
  5
3F2
  8
0
 10
22.51904106140137
 20
-0.0000069604684541
 30
-12.56660461425781
 70
   192
  0
VERTEX
  5
3F3
  8
0
 10
20.78410720825195
 20
-0.6167969703674316
 30
-12.8433895111084
 70
   192
  0
VERTEX
  5
3F4
  8
0
 10
21.49668121337891
 20
-0.6167982816696167
 30
-12.8433895111084
 70
   192
  0
VERTEX
  5
3F5
  8
0
 62
     9
 10
0.0
 20
0.0
 30
0.0
 70
   128
 71
     3
 72
     2
 73
     1
  0
VERTEX
  5
3F6
  8
0
 62
     9
 10
0.0
 20
0.0
 30
0.0
 70
   128
 71
     6
 72
     5
 73
     4
  0
VERTEX
  5
3F7
  8
0
 62
     9
 10
0.0
 20
0.0
 30
0.0
 70
   128
 71
     9
 72
     8
 73
     7
  0
VERTEX
  5
3F8
  8
0
 62
     9
 10
0.0
 20
0.0
 30
0.0
 70
   128
 71
     9
 72
    10
 73
     8
  0
VERTEX
  5
3F9
  8
0
 62
     9
 10
0.0
 20
0.0
 30
0.0
 70
   128
 71
     3
 72
    10
 73
     9
  0
VERTEX
  5
3FA
  8
0
 62
     9
 10
0.0
 20
0.0
 30
0.0
 70
   128
 71
     4
 72
     5
 73
    11
  0
VERTEX
  5
3FB
  8
0
 62
     9
 10
0.0
 20
0.0
 30
0.0
 70
   128
 71
     5
 72
     6
 73
     2
  0
VERTEX
  5
3FC
  8
0
 62
     9
 10
0.0
 20
0.0
 30
0.0
 70
   128
 71
     6
 72
     1
 73
     2
  0
VERTEX
  5
3FD
  8
0
 62
     9
 10
0.0
 20
0.0
 30
0.0
 70
   128
 71
     3
 72
     1
 73
    10
  0
VERTEX
  5
3FE
  8
0
 62
     9
 10
0.0
 20
0.0
 30
0.0
 70
   128
 71
    14
 72
    13
 73
    12
  0
VERTEX
  5
3FF
  8
0
 62
     9
 10
0.0
 20
0.0
 30
0.0
 70
   128
 71
    14
 72
    15
 73
    13
  0
VERTEX
  5
400
  8
0
 62
     9
 10
0.0
 20
0.0
 30
0.0
 70
   128
 71
    17
 72
    16
 73
    12
  0
VERTEX
  5
401
  8
0
 62
     9
 10
0.0
 20
0.0
 30
0.0
 70
   128
 71
    14
 72
    12
 73
    16
  0
VERTEX
  5
402
  8
0
 62
     9
 10
0.0
 20
0.0
 30
0.0
 70
   128
 71
    17
 72
    19
 73
    18
  0
VERTEX
  5
403
  8
0
 62
     9
 10
0.0
 20
0.0
 30
0.0
 70
   128
 71
    13
 72
    15
 73
    20
  0
VERTEX
  5
404
  8
0
 62
     9
 10
0.0
 20
0.0
 30
0.0
 70
   128
 71
    23
 72
    22
 73
    21
  0
VERTEX
  5
405
  8
0
 62
     9
 10
0.0
 20
0.0
 30
0.0
 70
   128
 71
    19
 72
    23
 73
    18
  0
VERTEX
  5
406
  8
0
 62
     9
 10
0.0
 20
0.0
 30
0.0
 70
   128
 71
    24
 72
    21
 73
    22
  0
VERTEX
  5
407
  8
0
 62
     9
 10
0.0
 20
0.0
 30
0.0
 70
   128
 71
    19
 72
    22
 73
    23
  0
VERTEX
  5
408
  8
0
 62
     9
 10
0.0
 20
0.0
 30
0.0
 70
   128
 71
    18
 72
    16
 73
    17
  0
VERTEX
  5
409
  8
0
 62
     9
 10
0.0
 20
0.0
 30
0.0
 70
   128
 71
    26
 72
    24
 73
    25
  0
VERTEX
  5
40A
  8
0
 62
     9
 10
0.0
 20
0.0
 30
0.0
 70
   128
 71
    26
 72
    21
 73
    24
  0
VERTEX
  5
40B
  8
0
 62
     9
 10
0.0
 20
0.0
 30
0.0
 70
   128
 71
    20
 72
    28
 73
    27
  0
VERTEX
  5
40C
  8
0
 62
     9
 10
0.0
 20
0.0
 30
0.0
 70
   128
 71
    15
 72
    27
 73
    20
  0
VERTEX
  5
40D
  8
0
 62
     9
 10
0.0
 20
0.0
 30
0.0
 70
   128
 71
    27
 72
    29
 73
    28
  0
VERTEX
  5
40E
  8
0
 62
     9
 10
0.0
 20
0.0
 30
0.0
 70
   128
 71
    27
 72
    30
 73
    29
  0
VERTEX
  5
40F
  8
0
 62
     9
 10
0.0
 20
0.0
 30
0.0
 70
   128
 71
    31
 72
    29
 73
    30
  0
VERTEX
  5
410
  8
0
 62
     9
 10
0.0
 20
0.0
 30
0.0
 70
   128
 71
    32
 72
    31
 73
    30
  0
VERTEX
  5
411
  8
0
 62
     9
 10
0.0
 20
0.0
 30
0.0
 70
   128
 71
    31
 72
    32
 73
    33
  0
VERTEX
  5
412
  8
0
 62
     9
 10
0.0
 20
0.0
 30
0.0
 70
   128
 71
    33
 72
    32
 73
    34
  0
VERTEX
  5
413
  8
0
 62
     9
 10
0.0
 20
0.0
 30
0.0
 70
   128
 71
    34
 72
    35
 73
    33
  0
VERTEX
  5
414
  8
0
 62
     9
 10
0.0
 20
0.0
 30
0.0
 70
   128
 71
    34
 72
    36
 73
    35
  0
VERTEX
  5
415
  8
0
 62
     9
 10
0.0
 20
0.0
 30
0.0
 70
   128
 71
    38
 72
    36
 73
    37
  0
VERTEX
  5
416
  8
0
 62
     9
 10
0.0
 20
0.0
 30
0.0
 70
   128
 71
    39
 72
    36
 73
    38
  0
VERTEX
  5
417
  8
0
 62
     9
 10
0.0
 20
0.0
 30
0.0
 70
   128
 71
    40
 72
    38
 73
    37
  0
VERTEX
  5
418
  8
0
 62
     9
 10
0.0
 20
0.0
 30
0.0
 70
   128
 71
    38
 72
    41
 73
    39
  0
VERTEX
  5
419
  8
0
 62
     9
 10
0.0
 20
0.0
 30
0.0
 70
   128
 71
    40
 72
    41
 73
    38
  0
VERTEX
  5
41A
  8
0
 62
     9
 10
0.0
 20
0.0
 30
0.0
 70
   128
 71
    42
 72
    37
 73
    36
  0
VERTEX
  5
41B
  8
0
 62
     9
 10
0.0
 20
0.0
 30
0.0
 70
   128
 71
    43
 72
    42
 73
    34
  0
VERTEX
  5
41C
  8
0
 62
     9
 10
0.0
 20
0.0
 30
0.0
 70
   128
 71
    36
 72
    39
 73
    35
  0
VERTEX
  5
41D
  8
0
 62
     9
 10
0.0
 20
0.0
 30
0.0
 70
   128
 71
    36
 72
    34
 73
    42
  0
VERTEX
  5
41E
  8
0
 62
     9
 10
0.0
 20
0.0
 30
0.0
 70
   128
 71
    44
 72
    43
 73
    32
  0
VERTEX
  5
41F
  8
0
 62
     9
 10
0.0
 20
0.0
 30
0.0
 70
   128
 71
    34
 72
    32
 73
    43
  0
VERTEX
  5
420
  8
0
 62
     9
 10
0.0
 20
0.0
 30
0.0
 70
   128
 71
    45
 72
    44
 73
    30
  0
VERTEX
  5
421
  8
0
 62
     9
 10
0.0
 20
0.0
 30
0.0
 70
   128
 71
    32
 72
    30
 73
    44
  0
VERTEX
  5
422
  8
0
 62
     9
 10
0.0
 20
0.0
 30
0.0
 70
   128
 71
    46
 72
    45
 73
    27
  0
VERTEX
  5
423
  8
0
 62
     9
 10
0.0
 20
0.0
 30
0.0
 70
   128
 71
    30
 72
    27
 73
    45
  0
VERTEX
  5
424
  8
0
 62
     9
 10
0.0
 20
0.0
 30
0.0
 70
   128
 71
    15
 72
    47
 73
    46
  0
VERTEX
  5
425
  8
0
 62
     9
 10
0.0
 20
0.0
 30
0.0
 70
   128
 71
    48
 72
    47
 73
    14
  0
VERTEX
  5
426
  8
0
 62
     9
 10
0.0
 20
0.0
 30
0.0
 70
   128
 71
    27
 72
    15
 73
    46
  0
VERTEX
  5
427
  8
0
 62
     9
 10
0.0
 20
0.0
 30
0.0
 70
   128
 71
    49
 72
    48
 73
    16
  0
VERTEX
  5
428
  8
0
 62
     9
 10
0.0
 20
0.0
 30
0.0
 70
   128
 71
    15
 72
    14
 73
    47
  0
VERTEX
  5
429
  8
0
 62
     9
 10
0.0
 20
0.0
 30
0.0
 70
   128
 71
    50
 72
    49
 73
    18
  0
VERTEX
  5
42A
  8
0
 62
     9
 10
0.0
 20
0.0
 30
0.0
 70
   128
 71
    14
 72
    16
 73
    48
  0
VERTEX
  5
42B
  8
0
 62
     9
 10
0.0
 20
0.0
 30
0.0
 70
   128
 71
    51
 72
    50
 73
    23
  0
VERTEX
  5
42C
  8
0
 62
     9
 10
0.0
 20
0.0
 30
0.0
 70
   128
 71
    16
 72
    18
 73
    49
  0
VERTEX
  5
42D
  8
0
 62
     9
 10
0.0
 20
0.0
 30
0.0
 70
   128
 71
    52
 72
    51
 73
    21
  0
VERTEX
  5
42E
  8
0
 62
     9
 10
0.0
 20
0.0
 30
0.0
 70
   128
 71
    18
 72
    23
 73
    50
  0
VERTEX
  5
42F
  8
0
 62
     9
 10
0.0
 20
0.0
 30
0.0
 70
   128
 71
    53
 72
    52
 73
    26
  0
VERTEX
  5
430
  8
0
 62
     9
 10
0.0
 20
0.0
 30
0.0
 70
   128
 71
    23
 72
    21
 73
    51
  0
VERTEX
  5
431
  8
0
 62
     9
 10
0.0
 20
0.0
 30
0.0
 70
   128
 71
    53
 72
    26
 73
    25
  0
VERTEX
  5
432
  8
0
 62
     9
 10
0.0
 20
0.0
 30
0.0
 70
   128
 71
    21
 72
    26
 73
    52
  0
VERTEX
  5
433
  8
0
 62
     9
 10
0.0
 20
0.0
 30
0.0
 70
   128
 71
    56
 72
    55
 73
    54
  0
VERTEX
  5
434
  8
0
 62
     9
 10
0.0
 20
0.0
 30
0.0
 70
   128
 71
    54
 72
    57
 73
    56
  0
VERTEX
  5
435
  8
0
 62
     9
 10
0.0
 20
0.0
 30
0.0
 70
   128
 71
    57
 72
    59
 73
    58
  0
VERTEX
  5
436
  8
0
 62
     9
 10
0.0
 20
0.0
 30
0.0
 70
   128
 71
    56
 72
    57
 73
    60
  0
VERTEX
  5
437
  8
0
 62
     9
 10
0.0
 20
0.0
 30
0.0
 70
   128
 71
    61
 72
    57
 73
    58
  0
VERTEX
  5
438
  8
0
 62
     9
 10
0.0
 20
0.0
 30
0.0
 70
   128
 71
    56
 72
    60
 73
    62
  0
VERTEX
  5
439
  8
0
 62
     9
 10
0.0
 20
0.0
 30
0.0
 70
   128
 71
    57
 72
    61
 73
    60
  0
VERTEX
  5
43A
  8
0
 62
     9
 10
0.0
 20
0.0
 30
0.0
 70
   128
 71
    62
 72
    64
 73
    63
  0
VERTEX
  5
43B
  8
0
 62
     9
 10
0.0
 20
0.0
 30
0.0
 70
   128
 71
    63
 72
    56
 73
    62
  0
VERTEX
  5
43C
  8
0
 62
     9
 10
0.0
 20
0.0
 30
0.0
 70
   128
 71
    63
 72
    66
 73
    65
  0
VERTEX
  5
43D
  8
0
 62
     9
 10
0.0
 20
0.0
 30
0.0
 70
   128
 71
    64
 72
    66
 73
    63
  0
VERTEX
  5
43E
  8
0
 62
     9
 10
0.0
 20
0.0
 30
0.0
 70
   128
 71
    68
 72
    67
 73
    63
  0
VERTEX
  5
43F
  8
0
 62
     9
 10
0.0
 20
0.0
 30
0.0
 70
   128
 71
    63
 72
    65
 73
    68
  0
VERTEX
  5
440
  8
0
 62
     9
 10
0.0
 20
0.0
 30
0.0
 70
   128
 71
    68
 72
    69
 73
    67
  0
VERTEX
  5
441
  8
0
 62
     9
 10
0.0
 20
0.0
 30
0.0
 70
   128
 71
    70
 72
    54
 73
    55
  0
VERTEX
  5
442
  8
0
 62
     9
 10
0.0
 20
0.0
 30
0.0
 70
   128
 71
    55
 72
    71
 73
    70
  0
VERTEX
  5
443
  8
0
 62
     9
 10
0.0
 20
0.0
 30
0.0
 70
   128
 71
    59
 72
    57
 73
    72
  0
VERTEX
  5
444
  8
0
 62
     9
 10
0.0
 20
0.0
 30
0.0
 70
   128
 71
    74
 72
    71
 73
    73
  0
VERTEX
  5
445
  8
0
 62
     9
 10
0.0
 20
0.0
 30
0.0
 70
   128
 71
    71
 72
    74
 73
    70
  0
VERTEX
  5
446
  8
0
 62
     9
 10
0.0
 20
0.0
 30
0.0
 70
   128
 71
    59
 72
    72
 73
    75
  0
VERTEX
  5
447
  8
0
 62
     9
 10
0.0
 20
0.0
 30
0.0
 70
   128
 71
    76
 72
    74
 73
    73
  0
VERTEX
  5
448
  8
0
 62
     9
 10
0.0
 20
0.0
 30
0.0
 70
   128
 71
    73
 72
    77
 73
    76
  0
VERTEX
  5
449
  8
0
 62
     9
 10
0.0
 20
0.0
 30
0.0
 70
   128
 71
    72
 72
    78
 73
    75
  0
VERTEX
  5
44A
  8
0
 62
     9
 10
0.0
 20
0.0
 30
0.0
 70
   128
 71
    77
 72
    79
 73
    76
  0
VERTEX
  5
44B
  8
0
 62
     9
 10
0.0
 20
0.0
 30
0.0
 70
   128
 71
    80
 72
    78
 73
    72
  0
VERTEX
  5
44C
  8
0
 62
     9
 10
0.0
 20
0.0
 30
0.0
 70
   128
 71
    81
 72
    79
 73
    77
  0
VERTEX
  5
44D
  8
0
 62
     9
 10
0.0
 20
0.0
 30
0.0
 70
   128
 71
    72
 72
    82
 73
    80
  0
VERTEX
  5
44E
  8
0
 62
     9
 10
0.0
 20
0.0
 30
0.0
 70
   128
 71
    80
 72
    82
 73
    83
  0
VERTEX
  5
44F
  8
0
 62
     9
 10
0.0
 20
0.0
 30
0.0
 70
   128
 71
    40
 72
    79
 73
    81
  0
VERTEX
  5
450
  8
0
 62
     9
 10
0.0
 20
0.0
 30
0.0
 70
   128
 71
    41
 72
    81
 73
    84
  0
VERTEX
  5
451
  8
0
 62
     9
 10
0.0
 20
0.0
 30
0.0
 70
   128
 71
    81
 72
    41
 73
    40
  0
VERTEX
  5
452
  8
0
 62
     9
 10
0.0
 20
0.0
 30
0.0
 70
   128
 71
    84
 72
    85
 73
    39
  0
VERTEX
  5
453
  8
0
 62
     9
 10
0.0
 20
0.0
 30
0.0
 70
   128
 71
    39
 72
    41
 73
    84
  0
VERTEX
  5
454
  8
0
 62
     9
 10
0.0
 20
0.0
 30
0.0
 70
   128
 71
    86
 72
    35
 73
    85
  0
VERTEX
  5
455
  8
0
 62
     9
 10
0.0
 20
0.0
 30
0.0
 70
   128
 71
    39
 72
    85
 73
    35
  0
VERTEX
  5
456
  8
0
 62
     9
 10
0.0
 20
0.0
 30
0.0
 70
   128
 71
    33
 72
    86
 73
    87
  0
VERTEX
  5
457
  8
0
 62
     9
 10
0.0
 20
0.0
 30
0.0
 70
   128
 71
    86
 72
    33
 73
    35
  0
VERTEX
  5
458
  8
0
 62
     9
 10
0.0
 20
0.0
 30
0.0
 70
   128
 71
    87
 72
    88
 73
    31
  0
VERTEX
  5
459
  8
0
 62
     9
 10
0.0
 20
0.0
 30
0.0
 70
   128
 71
    31
 72
    33
 73
    87
  0
VERTEX
  5
45A
  8
0
 62
     9
 10
0.0
 20
0.0
 30
0.0
 70
   128
 71
    29
 72
    90
 73
    89
  0
VERTEX
  5
45B
  8
0
 62
     9
 10
0.0
 20
0.0
 30
0.0
 70
   128
 71
    93
 72
    92
 73
    91
  0
VERTEX
  5
45C
  8
0
 62
     9
 10
0.0
 20
0.0
 30
0.0
 70
   128
 71
    89
 72
    93
 73
    28
  0
VERTEX
  5
45D
  8
0
 62
     9
 10
0.0
 20
0.0
 30
0.0
 70
   128
 71
    93
 72
     8
 73
    92
  0
VERTEX
  5
45E
  8
0
 62
     9
 10
0.0
 20
0.0
 30
0.0
 70
   128
 71
    91
 72
    20
 73
    28
  0
VERTEX
  5
45F
  8
0
 62
     9
 10
0.0
 20
0.0
 30
0.0
 70
   128
 71
    96
 72
    95
 73
    94
  0
VERTEX
  5
460
  8
0
 62
     9
 10
0.0
 20
0.0
 30
0.0
 70
   128
 71
     8
 72
    97
 73
    92
  0
VERTEX
  5
461
  8
0
 62
     9
 10
0.0
 20
0.0
 30
0.0
 70
   128
 71
    98
 72
    95
 73
    96
  0
VERTEX
  5
462
  8
0
 62
     9
 10
0.0
 20
0.0
 30
0.0
 70
   128
 71
    28
 72
    93
 73
    91
  0
VERTEX
  5
463
  8
0
 62
     9
 10
0.0
 20
0.0
 30
0.0
 70
   128
 71
   100
 72
    88
 73
    99
  0
VERTEX
  5
464
  8
0
 62
     9
 10
0.0
 20
0.0
 30
0.0
 70
   128
 71
    89
 72
    28
 73
    29
  0
VERTEX
  5
465
  8
0
 62
     9
 10
0.0
 20
0.0
 30
0.0
 70
   128
 71
   101
 72
    29
 73
    31
  0
VERTEX
  5
466
  8
0
 62
     9
 10
0.0
 20
0.0
 30
0.0
 70
   128
 71
   101
 72
    90
 73
    29
  0
VERTEX
  5
467
  8
0
 62
     9
 10
0.0
 20
0.0
 30
0.0
 70
   128
 71
   102
 72
    31
 73
    88
  0
VERTEX
  5
468
  8
0
 62
     9
 10
0.0
 20
0.0
 30
0.0
 70
   128
 71
   102
 72
   101
 73
    31
  0
VERTEX
  5
469
  8
0
 62
     9
 10
0.0
 20
0.0
 30
0.0
 70
   128
 71
   100
 72
   102
 73
    88
  0
VERTEX
  5
46A
  8
0
 62
     9
 10
0.0
 20
0.0
 30
0.0
 70
   128
 71
    98
 72
    88
 73
    95
  0
VERTEX
  5
46B
  8
0
 62
     9
 10
0.0
 20
0.0
 30
0.0
 70
   128
 71
    98
 72
    99
 73
    88
  0
VERTEX
  5
46C
  8
0
 62
     9
 10
0.0
 20
0.0
 30
0.0
 70
   128
 71
    94
 72
    95
 73
   103
  0
VERTEX
  5
46D
  8
0
 62
     9
 10
0.0
 20
0.0
 30
0.0
 70
   128
 71
    94
 72
   103
 73
   104
  0
VERTEX
  5
46E
  8
0
 62
     9
 10
0.0
 20
0.0
 30
0.0
 70
   128
 71
   107
 72
   106
 73
   105
  0
VERTEX
  5
46F
  8
0
 62
     9
 10
0.0
 20
0.0
 30
0.0
 70
   128
 71
   109
 72
   105
 73
   108
  0
VERTEX
  5
470
  8
0
 62
     9
 10
0.0
 20
0.0
 30
0.0
 70
   128
 71
   107
 72
   109
 73
   110
  0
VERTEX
  5
471
  8
0
 62
     9
 10
0.0
 20
0.0
 30
0.0
 70
   128
 71
   108
 72
   105
 73
   111
  0
VERTEX
  5
472
  8
0
 62
     9
 10
0.0
 20
0.0
 30
0.0
 70
   128
 71
   107
 72
   105
 73
   109
  0
VERTEX
  5
473
  8
0
 62
     9
 10
0.0
 20
0.0
 30
0.0
 70
   128
 71
   113
 72
   112
 73
   109
  0
VERTEX
  5
474
  8
0
 62
     9
 10
0.0
 20
0.0
 30
0.0
 70
   128
 71
   114
 72
   109
 73
   112
  0
VERTEX
  5
475
  8
0
 62
     9
 10
0.0
 20
0.0
 30
0.0
 70
   128
 71
   112
 72
   113
 73
   115
  0
VERTEX
  5
476
  8
0
 62
     9
 10
0.0
 20
0.0
 30
0.0
 70
   128
 71
   113
 72
   109
 73
   116
  0
VERTEX
  5
477
  8
0
 62
     9
 10
0.0
 20
0.0
 30
0.0
 70
   128
 71
   114
 72
   110
 73
   109
  0
VERTEX
  5
478
  8
0
 62
     9
 10
0.0
 20
0.0
 30
0.0
 70
   128
 71
   116
 72
   109
 73
   108
  0
VERTEX
  5
479
  8
0
 62
     9
 10
0.0
 20
0.0
 30
0.0
 70
   128
 71
   119
 72
   118
 73
   117
  0
VERTEX
  5
47A
  8
0
 62
     9
 10
0.0
 20
0.0
 30
0.0
 70
   128
 71
   121
 72
   118
 73
   120
  0
VERTEX
  5
47B
  8
0
 62
     9
 10
0.0
 20
0.0
 30
0.0
 70
   128
 71
   116
 72
   120
 73
   113
  0
VERTEX
  5
47C
  8
0
 62
     9
 10
0.0
 20
0.0
 30
0.0
 70
   128
 71
   118
 72
   119
 73
   115
  0
VERTEX
  5
47D
  8
0
 62
     9
 10
0.0
 20
0.0
 30
0.0
 70
   128
 71
   118
 72
   121
 73
   117
  0
VERTEX
  5
47E
  8
0
 62
     9
 10
0.0
 20
0.0
 30
0.0
 70
   128
 71
   122
 72
   119
 73
   117
  0
VERTEX
  5
47F
  8
0
 62
     9
 10
0.0
 20
0.0
 30
0.0
 70
   128
 71
   113
 72
   118
 73
   115
  0
VERTEX
  5
480
  8
0
 62
     9
 10
0.0
 20
0.0
 30
0.0
 70
   128
 71
   118
 72
   113
 73
   120
  0
VERTEX
  5
481
  8
0
 62
     9
 10
0.0
 20
0.0
 30
0.0
 70
   128
 71
   125
 72
   124
 73
   123
  0
VERTEX
  5
482
  8
0
 62
     9
 10
0.0
 20
0.0
 30
0.0
 70
   128
 71
   111
 72
   123
 73
   108
  0
VERTEX
  5
483
  8
0
 62
     9
 10
0.0
 20
0.0
 30
0.0
 70
   128
 71
   108
 72
   123
 73
   124
  0
VERTEX
  5
484
  8
0
 62
     9
 10
0.0
 20
0.0
 30
0.0
 70
   128
 71
   108
 72
   124
 73
   116
  0
VERTEX
  5
485
  8
0
 62
     9
 10
0.0
 20
0.0
 30
0.0
 70
   128
 71
   124
 72
   126
 73
   120
  0
VERTEX
  5
486
  8
0
 62
     9
 10
0.0
 20
0.0
 30
0.0
 70
   128
 71
   120
 72
   126
 73
   121
  0
VERTEX
  5
487
  8
0
 62
     9
 10
0.0
 20
0.0
 30
0.0
 70
   128
 71
   124
 72
   120
 73
   116
  0
VERTEX
  5
488
  8
0
 62
     9
 10
0.0
 20
0.0
 30
0.0
 70
   128
 71
   124
 72
   125
 73
   126
  0
VERTEX
  5
489
  8
0
 62
     9
 10
0.0
 20
0.0
 30
0.0
 70
   128
 71
   129
 72
   128
 73
   127
  0
VERTEX
  5
48A
  8
0
 62
     9
 10
0.0
 20
0.0
 30
0.0
 70
   128
 71
   132
 72
   131
 73
   130
  0
VERTEX
  5
48B
  8
0
 62
     9
 10
0.0
 20
0.0
 30
0.0
 70
   128
 71
   132
 72
   128
 73
   133
  0
VERTEX
  5
48C
  8
0
 62
     9
 10
0.0
 20
0.0
 30
0.0
 70
   128
 71
   128
 72
   134
 73
   133
  0
VERTEX
  5
48D
  8
0
 62
     9
 10
0.0
 20
0.0
 30
0.0
 70
   128
 71
   112
 72
   131
 73
   132
  0
VERTEX
  5
48E
  8
0
 62
     9
 10
0.0
 20
0.0
 30
0.0
 70
   128
 71
   130
 72
   127
 73
   132
  0
VERTEX
  5
48F
  8
0
 62
     9
 10
0.0
 20
0.0
 30
0.0
 70
   128
 71
   127
 72
   128
 73
   132
  0
VERTEX
  5
490
  8
0
 62
     9
 10
0.0
 20
0.0
 30
0.0
 70
   128
 71
   135
 72
   114
 73
   112
  0
VERTEX
  5
491
  8
0
 62
     9
 10
0.0
 20
0.0
 30
0.0
 70
   128
 71
   112
 72
   115
 73
   131
  0
VERTEX
  5
492
  8
0
 62
     9
 10
0.0
 20
0.0
 30
0.0
 70
   128
 71
   132
 72
   135
 73
   112
  0
VERTEX
  5
493
  8
0
 62
     9
 10
0.0
 20
0.0
 30
0.0
 70
   128
 71
   135
 72
   132
 73
   133
  0
VERTEX
  5
494
  8
0
 62
     9
 10
0.0
 20
0.0
 30
0.0
 70
   128
 71
   114
 72
   135
 73
   136
  0
VERTEX
  5
495
  8
0
 62
     9
 10
0.0
 20
0.0
 30
0.0
 70
   128
 71
   135
 72
   137
 73
   136
  0
VERTEX
  5
496
  8
0
 62
     9
 10
0.0
 20
0.0
 30
0.0
 70
   128
 71
   138
 72
   137
 73
   133
  0
VERTEX
  5
497
  8
0
 62
     9
 10
0.0
 20
0.0
 30
0.0
 70
   128
 71
   135
 72
   133
 73
   137
  0
VERTEX
  5
498
  8
0
 62
     9
 10
0.0
 20
0.0
 30
0.0
 70
   128
 71
   138
 72
   133
 73
   134
  0
VERTEX
  5
499
  8
0
 62
     9
 10
0.0
 20
0.0
 30
0.0
 70
   128
 71
   139
 72
   138
 73
   134
  0
VERTEX
  5
49A
  8
0
 62
     9
 10
0.0
 20
0.0
 30
0.0
 70
   128
 71
   114
 72
   136
 73
   140
  0
VERTEX
  5
49B
  8
0
 62
     9
 10
0.0
 20
0.0
 30
0.0
 70
   128
 71
   114
 72
   140
 73
   110
  0
VERTEX
  5
49C
  8
0
 62
     9
 10
0.0
 20
0.0
 30
0.0
 70
   128
 71
   141
 72
   107
 73
   110
  0
VERTEX
  5
49D
  8
0
 62
     9
 10
0.0
 20
0.0
 30
0.0
 70
   128
 71
   110
 72
   140
 73
   141
  0
VERTEX
  5
49E
  8
0
 62
     9
 10
0.0
 20
0.0
 30
0.0
 70
   128
 71
   142
 72
   107
 73
   141
  0
VERTEX
  5
49F
  8
0
 62
     9
 10
0.0
 20
0.0
 30
0.0
 70
   128
 71
   142
 72
   106
 73
   107
  0
VERTEX
  5
4A0
  8
0
 62
     9
 10
0.0
 20
0.0
 30
0.0
 70
   128
 71
   145
 72
   144
 73
   143
  0
VERTEX
  5
4A1
  8
0
 62
     9
 10
0.0
 20
0.0
 30
0.0
 70
   128
 71
   146
 72
   127
 73
   143
  0
VERTEX
  5
4A2
  8
0
 62
     9
 10
0.0
 20
0.0
 30
0.0
 70
   128
 71
   148
 72
   145
 73
   147
  0
VERTEX
  5
4A3
  8
0
 62
     9
 10
0.0
 20
0.0
 30
0.0
 70
   128
 71
   130
 72
   143
 73
   127
  0
VERTEX
  5
4A4
  8
0
 62
     9
 10
0.0
 20
0.0
 30
0.0
 70
   128
 71
   147
 72
   145
 73
   143
  0
VERTEX
  5
4A5
  8
0
 62
     9
 10
0.0
 20
0.0
 30
0.0
 70
   128
 71
   129
 72
   127
 73
   146
  0
VERTEX
  5
4A6
  8
0
 62
     9
 10
0.0
 20
0.0
 30
0.0
 70
   128
 71
   143
 72
   130
 73
   147
  0
VERTEX
  5
4A7
  8
0
 62
     9
 10
0.0
 20
0.0
 30
0.0
 70
   128
 71
   146
 72
   143
 73
   144
  0
VERTEX
  5
4A8
  8
0
 62
     9
 10
0.0
 20
0.0
 30
0.0
 70
   128
 71
   148
 72
   150
 73
   149
  0
VERTEX
  5
4A9
  8
0
 62
     9
 10
0.0
 20
0.0
 30
0.0
 70
   128
 71
   147
 72
   150
 73
   148
  0
VERTEX
  5
4AA
  8
0
 62
     9
 10
0.0
 20
0.0
 30
0.0
 70
   128
 71
   122
 72
   149
 73
   119
  0
VERTEX
  5
4AB
  8
0
 62
     9
 10
0.0
 20
0.0
 30
0.0
 70
   128
 71
   149
 72
   150
 73
   119
  0
VERTEX
  5
4AC
  8
0
 62
     9
 10
0.0
 20
0.0
 30
0.0
 70
   128
 71
   119
 72
   150
 73
   115
  0
VERTEX
  5
4AD
  8
0
 62
     9
 10
0.0
 20
0.0
 30
0.0
 70
   128
 71
   130
 72
   131
 73
   147
  0
VERTEX
  5
4AE
  8
0
 62
     9
 10
0.0
 20
0.0
 30
0.0
 70
   128
 71
   150
 72
   131
 73
   115
  0
VERTEX
  5
4AF
  8
0
 62
     9
 10
0.0
 20
0.0
 30
0.0
 70
   128
 71
   131
 72
   150
 73
   147
  0
VERTEX
  5
4B0
  8
0
 62
     9
 10
0.0
 20
0.0
 30
0.0
 70
   128
 71
   153
 72
   152
 73
   151
  0
VERTEX
  5
4B1
  8
0
 62
     9
 10
0.0
 20
0.0
 30
0.0
 70
   128
 71
   154
 72
   151
 73
   152
  0
VERTEX
  5
4B2
  8
0
 62
     9
 10
0.0
 20
0.0
 30
0.0
 70
   128
 71
   155
 72
   153
 73
   151
  0
VERTEX
  5
4B3
  8
0
 62
     9
 10
0.0
 20
0.0
 30
0.0
 70
   128
 71
   141
 72
   153
 73
   156
  0
VERTEX
  5
4B4
  8
0
 62
     9
 10
0.0
 20
0.0
 30
0.0
 70
   128
 71
   153
 72
   157
 73
   156
  0
VERTEX
  5
4B5
  8
0
 62
     9
 10
0.0
 20
0.0
 30
0.0
 70
   128
 71
   156
 72
   157
 73
   158
  0
VERTEX
  5
4B6
  8
0
 62
     9
 10
0.0
 20
0.0
 30
0.0
 70
   128
 71
   140
 72
   153
 73
   141
  0
VERTEX
  5
4B7
  8
0
 62
     9
 10
0.0
 20
0.0
 30
0.0
 70
   128
 71
   142
 72
   141
 73
   156
  0
VERTEX
  5
4B8
  8
0
 62
     9
 10
0.0
 20
0.0
 30
0.0
 70
   128
 71
   153
 72
   136
 73
   152
  0
VERTEX
  5
4B9
  8
0
 62
     9
 10
0.0
 20
0.0
 30
0.0
 70
   128
 71
   140
 72
   136
 73
   153
  0
VERTEX
  5
4BA
  8
0
 62
     9
 10
0.0
 20
0.0
 30
0.0
 70
   128
 71
   153
 72
   155
 73
   157
  0
VERTEX
  5
4BB
  8
0
 62
     9
 10
0.0
 20
0.0
 30
0.0
 70
   128
 71
   161
 72
   160
 73
   159
  0
VERTEX
  5
4BC
  8
0
 62
     9
 10
0.0
 20
0.0
 30
0.0
 70
   128
 71
   160
 72
   161
 73
   162
  0
VERTEX
  5
4BD
  8
0
 62
     9
 10
0.0
 20
0.0
 30
0.0
 70
   128
 71
   152
 72
   159
 73
   163
  0
VERTEX
  5
4BE
  8
0
 62
     9
 10
0.0
 20
0.0
 30
0.0
 70
   128
 71
   137
 72
   152
 73
   136
  0
VERTEX
  5
4BF
  8
0
 62
     9
 10
0.0
 20
0.0
 30
0.0
 70
   128
 71
   152
 72
   163
 73
   154
  0
VERTEX
  5
4C0
  8
0
 62
     9
 10
0.0
 20
0.0
 30
0.0
 70
   128
 71
   161
 72
   159
 73
   138
  0
VERTEX
  5
4C1
  8
0
 62
     9
 10
0.0
 20
0.0
 30
0.0
 70
   128
 71
   139
 72
   161
 73
   138
  0
VERTEX
  5
4C2
  8
0
 62
     9
 10
0.0
 20
0.0
 30
0.0
 70
   128
 71
   163
 72
   159
 73
   164
  0
VERTEX
  5
4C3
  8
0
 62
     9
 10
0.0
 20
0.0
 30
0.0
 70
   128
 71
   159
 72
   160
 73
   164
  0
VERTEX
  5
4C4
  8
0
 62
     9
 10
0.0
 20
0.0
 30
0.0
 70
   128
 71
   137
 72
   159
 73
   152
  0
VERTEX
  5
4C5
  8
0
 62
     9
 10
0.0
 20
0.0
 30
0.0
 70
   128
 71
   159
 72
   137
 73
   138
  0
VERTEX
  5
4C6
  8
0
 62
     9
 10
0.0
 20
0.0
 30
0.0
 70
   128
 71
    82
 72
   166
 73
   165
  0
VERTEX
  5
4C7
  8
0
 62
     9
 10
0.0
 20
0.0
 30
0.0
 70
   128
 71
   166
 72
   167
 73
   165
  0
VERTEX
  5
4C8
  8
0
 62
     9
 10
0.0
 20
0.0
 30
0.0
 70
   128
 71
   170
 72
   169
 73
   168
  0
VERTEX
  5
4C9
  8
0
 62
     9
 10
0.0
 20
0.0
 30
0.0
 70
   128
 71
   173
 72
   172
 73
   171
  0
VERTEX
  5
4CA
  8
0
 62
     9
 10
0.0
 20
0.0
 30
0.0
 70
   128
 71
   175
 72
    17
 73
   174
  0
VERTEX
  5
4CB
  8
0
 62
     9
 10
0.0
 20
0.0
 30
0.0
 70
   128
 71
   177
 72
   176
 73
    22
  0
VERTEX
  5
4CC
  8
0
 62
     9
 10
0.0
 20
0.0
 30
0.0
 70
   128
 71
   180
 72
   179
 73
   178
  0
VERTEX
  5
4CD
  8
0
 62
     9
 10
0.0
 20
0.0
 30
0.0
 70
   128
 71
     4
 72
   181
 73
    12
  0
VERTEX
  5
4CE
  8
0
 62
     9
 10
0.0
 20
0.0
 30
0.0
 70
   128
 71
   183
 72
   180
 73
   182
  0
VERTEX
  5
4CF
  8
0
 62
     9
 10
0.0
 20
0.0
 30
0.0
 70
   128
 71
   180
 72
   178
 73
   182
  0
VERTEX
  5
4D0
  8
0
 62
     9
 10
0.0
 20
0.0
 30
0.0
 70
   128
 71
   180
 72
   184
 73
   103
  0
VERTEX
  5
4D1
  8
0
 62
     9
 10
0.0
 20
0.0
 30
0.0
 70
   128
 71
   184
 72
   180
 73
   183
  0
VERTEX
  5
4D2
  8
0
 62
     9
 10
0.0
 20
0.0
 30
0.0
 70
   128
 71
   103
 72
   184
 73
   104
  0
VERTEX
  5
4D3
  8
0
 62
     9
 10
0.0
 20
0.0
 30
0.0
 70
   128
 71
   179
 72
   180
 73
   174
  0
VERTEX
  5
4D4
  8
0
 62
     9
 10
0.0
 20
0.0
 30
0.0
 70
   128
 71
   179
 72
   174
 73
   181
  0
VERTEX
  5
4D5
  8
0
 62
     9
 10
0.0
 20
0.0
 30
0.0
 70
   128
 71
    12
 72
   174
 73
    17
  0
VERTEX
  5
4D6
  8
0
 62
     9
 10
0.0
 20
0.0
 30
0.0
 70
   128
 71
   181
 72
   174
 73
    12
  0
VERTEX
  5
4D7
  8
0
 62
     9
 10
0.0
 20
0.0
 30
0.0
 70
   128
 71
    12
 72
    13
 73
     6
  0
VERTEX
  5
4D8
  8
0
 62
     9
 10
0.0
 20
0.0
 30
0.0
 70
   128
 71
     4
 72
    12
 73
     6
  0
VERTEX
  5
4D9
  8
0
 62
     9
 10
0.0
 20
0.0
 30
0.0
 70
   128
 71
    19
 72
   175
 73
   177
  0
VERTEX
  5
4DA
  8
0
 62
     9
 10
0.0
 20
0.0
 30
0.0
 70
   128
 71
   175
 72
    19
 73
    17
  0
VERTEX
  5
4DB
  8
0
 62
     9
 10
0.0
 20
0.0
 30
0.0
 70
   128
 71
    22
 72
    19
 73
   177
  0
VERTEX
  5
4DC
  8
0
 62
     9
 10
0.0
 20
0.0
 30
0.0
 70
   128
 71
    91
 72
    13
 73
    20
  0
VERTEX
  5
4DD
  8
0
 62
     9
 10
0.0
 20
0.0
 30
0.0
 70
   128
 71
    92
 72
    10
 73
    91
  0
VERTEX
  5
4DE
  8
0
 62
     9
 10
0.0
 20
0.0
 30
0.0
 70
   128
 71
     8
 72
    10
 73
    92
  0
VERTEX
  5
4DF
  8
0
 62
     9
 10
0.0
 20
0.0
 30
0.0
 70
   128
 71
    13
 72
    91
 73
    10
  0
VERTEX
  5
4E0
  8
0
 62
     9
 10
0.0
 20
0.0
 30
0.0
 70
   128
 71
     1
 72
     6
 73
    13
  0
VERTEX
  5
4E1
  8
0
 62
     9
 10
0.0
 20
0.0
 30
0.0
 70
   128
 71
    10
 72
     1
 73
    13
  0
VERTEX
  5
4E2
  8
0
 62
     9
 10
0.0
 20
0.0
 30
0.0
 70
   128
 71
    22
 72
   176
 73
    24
  0
VERTEX
  5
4E3
  8
0
 62
     9
 10
0.0
 20
0.0
 30
0.0
 70
   128
 71
    25
 72
    24
 73
   169
  0
VERTEX
  5
4E4
  8
0
 62
     9
 10
0.0
 20
0.0
 30
0.0
 70
   128
 71
   176
 72
   169
 73
    24
  0
VERTEX
  5
4E5
  8
0
 62
     9
 10
0.0
 20
0.0
 30
0.0
 70
   128
 71
   168
 72
   185
 73
   170
  0
VERTEX
  5
4E6
  8
0
 62
     9
 10
0.0
 20
0.0
 30
0.0
 70
   128
 71
   169
 72
   170
 73
    25
  0
VERTEX
  5
4E7
  8
0
 62
     9
 10
0.0
 20
0.0
 30
0.0
 70
   128
 71
   186
 72
   185
 73
   168
  0
VERTEX
  5
4E8
  8
0
 62
     9
 10
0.0
 20
0.0
 30
0.0
 70
   128
 71
   186
 72
   173
 73
   171
  0
VERTEX
  5
4E9
  8
0
 62
     9
 10
0.0
 20
0.0
 30
0.0
 70
   128
 71
   171
 72
   185
 73
   186
  0
VERTEX
  5
4EA
  8
0
 62
     9
 10
0.0
 20
0.0
 30
0.0
 70
   128
 71
   173
 72
   188
 73
   187
  0
VERTEX
  5
4EB
  8
0
 62
     9
 10
0.0
 20
0.0
 30
0.0
 70
   128
 71
   173
 72
   187
 73
   172
  0
VERTEX
  5
4EC
  8
0
 62
     9
 10
0.0
 20
0.0
 30
0.0
 70
   128
 71
   190
 72
   189
 73
   188
  0
VERTEX
  5
4ED
  8
0
 62
     9
 10
0.0
 20
0.0
 30
0.0
 70
   128
 71
   187
 72
   188
 73
   189
  0
VERTEX
  5
4EE
  8
0
 62
     9
 10
0.0
 20
0.0
 30
0.0
 70
   128
 71
   192
 72
   190
 73
   191
  0
VERTEX
  5
4EF
  8
0
 62
     9
 10
0.0
 20
0.0
 30
0.0
 70
   128
 71
   166
 72
   192
 73
   193
  0
VERTEX
  5
4F0
  8
0
 62
     9
 10
0.0
 20
0.0
 30
0.0
 70
   128
 71
   165
 72
    83
 73
    82
  0
VERTEX
  5
4F1
  8
0
 62
     9
 10
0.0
 20
0.0
 30
0.0
 70
   128
 71
    67
 72
    69
 73
   194
  0
VERTEX
  5
4F2
  8
0
 62
     9
 10
0.0
 20
0.0
 30
0.0
 70
   128
 71
   196
 72
   190
 73
   195
  0
VERTEX
  5
4F3
  8
0
 62
     9
 10
0.0
 20
0.0
 30
0.0
 70
   128
 71
   198
 72
   166
 73
   197
  0
VERTEX
  5
4F4
  8
0
 62
     9
 10
0.0
 20
0.0
 30
0.0
 70
   128
 71
   198
 72
   167
 73
   166
  0
VERTEX
  5
4F5
  8
0
 62
     9
 10
0.0
 20
0.0
 30
0.0
 70
   128
 71
   189
 72
   192
 73
   166
  0
VERTEX
  5
4F6
  8
0
 62
     9
 10
0.0
 20
0.0
 30
0.0
 70
   128
 71
   193
 72
   197
 73
   166
  0
VERTEX
  5
4F7
  8
0
 62
     9
 10
0.0
 20
0.0
 30
0.0
 70
   128
 71
   192
 72
   189
 73
   190
  0
VERTEX
  5
4F8
  8
0
 62
     9
 10
0.0
 20
0.0
 30
0.0
 70
   128
 71
   199
 72
   191
 73
   190
  0
VERTEX
  5
4F9
  8
0
 62
     9
 10
0.0
 20
0.0
 30
0.0
 70
   128
 71
   196
 72
   200
 73
   190
  0
VERTEX
  5
4FA
  8
0
 62
     9
 10
0.0
 20
0.0
 30
0.0
 70
   128
 71
   200
 72
   199
 73
   190
  0
VERTEX
  5
4FB
  8
0
 62
     9
 10
0.0
 20
0.0
 30
0.0
 70
   128
 71
    67
 72
   195
 73
   190
  0
VERTEX
  5
4FC
  8
0
 62
     9
 10
0.0
 20
0.0
 30
0.0
 70
   128
 71
   194
 72
   195
 73
    67
  0
VERTEX
  5
4FD
  8
0
 62
     9
 10
0.0
 20
0.0
 30
0.0
 70
   128
 71
   155
 72
   202
 73
   201
  0
VERTEX
  5
4FE
  8
0
 62
     9
 10
0.0
 20
0.0
 30
0.0
 70
   128
 71
   157
 72
   203
 73
   158
  0
VERTEX
  5
4FF
  8
0
 62
     9
 10
0.0
 20
0.0
 30
0.0
 70
   128
 71
   202
 72
   204
 73
   201
  0
VERTEX
  5
500
  8
0
 62
     9
 10
0.0
 20
0.0
 30
0.0
 70
   128
 71
   204
 72
   205
 73
   201
  0
VERTEX
  5
501
  8
0
 62
     9
 10
0.0
 20
0.0
 30
0.0
 70
   128
 71
   201
 72
   157
 73
   155
  0
VERTEX
  5
502
  8
0
 62
     9
 10
0.0
 20
0.0
 30
0.0
 70
   128
 71
   202
 72
   206
 73
   204
  0
VERTEX
  5
503
  8
0
 62
     9
 10
0.0
 20
0.0
 30
0.0
 70
   128
 71
   201
 72
   205
 73
   203
  0
VERTEX
  5
504
  8
0
 62
     9
 10
0.0
 20
0.0
 30
0.0
 70
   128
 71
   201
 72
   203
 73
   157
  0
VERTEX
  5
505
  8
0
 62
     9
 10
0.0
 20
0.0
 30
0.0
 70
   128
 71
   202
 72
   155
 73
   151
  0
VERTEX
  5
506
  8
0
 62
     9
 10
0.0
 20
0.0
 30
0.0
 70
   128
 71
   151
 72
   207
 73
   202
  0
VERTEX
  5
507
  8
0
 62
     9
 10
0.0
 20
0.0
 30
0.0
 70
   128
 71
   206
 72
   202
 73
   207
  0
VERTEX
  5
508
  8
0
 62
     9
 10
0.0
 20
0.0
 30
0.0
 70
   128
 71
   207
 72
   151
 73
   154
  0
VERTEX
  5
509
  8
0
 62
     9
 10
0.0
 20
0.0
 30
0.0
 70
   128
 71
   210
 72
   209
 73
   208
  0
VERTEX
  5
50A
  8
0
 62
     9
 10
0.0
 20
0.0
 30
0.0
 70
   128
 71
   208
 72
   209
 73
   207
  0
VERTEX
  5
50B
  8
0
 62
     9
 10
0.0
 20
0.0
 30
0.0
 70
   128
 71
   206
 72
   207
 73
   209
  0
VERTEX
  5
50C
  8
0
 62
     9
 10
0.0
 20
0.0
 30
0.0
 70
   128
 71
   207
 72
   154
 73
   208
  0
VERTEX
  5
50D
  8
0
 62
     9
 10
0.0
 20
0.0
 30
0.0
 70
   128
 71
   211
 72
   210
 73
   208
  0
VERTEX
  5
50E
  8
0
 62
     9
 10
0.0
 20
0.0
 30
0.0
 70
   128
 71
   154
 72
   212
 73
   208
  0
VERTEX
  5
50F
  8
0
 62
     9
 10
0.0
 20
0.0
 30
0.0
 70
   128
 71
   208
 72
   212
 73
   211
  0
VERTEX
  5
510
  8
0
 62
     9
 10
0.0
 20
0.0
 30
0.0
 70
   128
 71
   214
 72
   212
 73
   213
  0
VERTEX
  5
511
  8
0
 62
     9
 10
0.0
 20
0.0
 30
0.0
 70
   128
 71
   164
 72
   213
 73
   163
  0
VERTEX
  5
512
  8
0
 62
     9
 10
0.0
 20
0.0
 30
0.0
 70
   128
 71
   211
 72
   212
 73
   214
  0
VERTEX
  5
513
  8
0
 62
     9
 10
0.0
 20
0.0
 30
0.0
 70
   128
 71
   212
 72
   163
 73
   213
  0
VERTEX
  5
514
  8
0
 62
     9
 10
0.0
 20
0.0
 30
0.0
 70
   128
 71
   154
 72
   163
 73
   212
  0
VERTEX
  5
515
  8
0
 62
     9
 10
0.0
 20
0.0
 30
0.0
 70
   128
 71
   160
 72
   162
 73
   215
  0
VERTEX
  5
516
  8
0
 62
     9
 10
0.0
 20
0.0
 30
0.0
 70
   128
 71
   164
 72
   216
 73
   213
  0
VERTEX
  5
517
  8
0
 62
     9
 10
0.0
 20
0.0
 30
0.0
 70
   128
 71
   216
 72
   217
 73
   213
  0
VERTEX
  5
518
  8
0
 62
     9
 10
0.0
 20
0.0
 30
0.0
 70
   128
 71
   216
 72
   164
 73
   160
  0
VERTEX
  5
519
  8
0
 62
     9
 10
0.0
 20
0.0
 30
0.0
 70
   128
 71
   216
 72
   218
 73
   217
  0
VERTEX
  5
51A
  8
0
 62
     9
 10
0.0
 20
0.0
 30
0.0
 70
   128
 71
   213
 72
   217
 73
   214
  0
VERTEX
  5
51B
  8
0
 62
     9
 10
0.0
 20
0.0
 30
0.0
 70
   128
 71
   216
 72
   215
 73
   218
  0
VERTEX
  5
51C
  8
0
 62
     9
 10
0.0
 20
0.0
 30
0.0
 70
   128
 71
   215
 72
   216
 73
   160
  0
VERTEX
  5
51D
  8
0
 62
     9
 10
0.0
 20
0.0
 30
0.0
 70
   128
 71
   126
 72
   125
 73
   219
  0
VERTEX
  5
51E
  8
0
 62
     9
 10
0.0
 20
0.0
 30
0.0
 70
   128
 71
   222
 72
   221
 73
   220
  0
VERTEX
  5
51F
  8
0
 62
     9
 10
0.0
 20
0.0
 30
0.0
 70
   128
 71
   221
 72
   222
 73
   219
  0
VERTEX
  5
520
  8
0
 62
     9
 10
0.0
 20
0.0
 30
0.0
 70
   128
 71
   126
 72
   222
 73
   121
  0
VERTEX
  5
521
  8
0
 62
     9
 10
0.0
 20
0.0
 30
0.0
 70
   128
 71
   220
 72
   117
 73
   222
  0
VERTEX
  5
522
  8
0
 62
     9
 10
0.0
 20
0.0
 30
0.0
 70
   128
 71
   117
 72
   220
 73
   122
  0
VERTEX
  5
523
  8
0
 62
     9
 10
0.0
 20
0.0
 30
0.0
 70
   128
 71
   222
 72
   117
 73
   121
  0
VERTEX
  5
524
  8
0
 62
     9
 10
0.0
 20
0.0
 30
0.0
 70
   128
 71
   219
 72
   222
 73
   126
  0
VERTEX
  5
525
  8
0
 62
     9
 10
0.0
 20
0.0
 30
0.0
 70
   128
 71
   223
 72
   144
 73
   145
  0
VERTEX
  5
526
  8
0
 62
     9
 10
0.0
 20
0.0
 30
0.0
 70
   128
 71
   122
 72
   220
 73
   149
  0
VERTEX
  5
527
  8
0
 62
     9
 10
0.0
 20
0.0
 30
0.0
 70
   128
 71
   221
 72
   224
 73
   220
  0
VERTEX
  5
528
  8
0
 62
     9
 10
0.0
 20
0.0
 30
0.0
 70
   128
 71
   220
 72
   224
 73
   149
  0
VERTEX
  5
529
  8
0
 62
     9
 10
0.0
 20
0.0
 30
0.0
 70
   128
 71
   221
 72
   223
 73
   224
  0
VERTEX
  5
52A
  8
0
 62
     9
 10
0.0
 20
0.0
 30
0.0
 70
   128
 71
   145
 72
   148
 73
   224
  0
VERTEX
  5
52B
  8
0
 62
     9
 10
0.0
 20
0.0
 30
0.0
 70
   128
 71
   149
 72
   224
 73
   148
  0
VERTEX
  5
52C
  8
0
 62
     9
 10
0.0
 20
0.0
 30
0.0
 70
   128
 71
   224
 72
   223
 73
   145
  0
VERTEX
  5
52D
  8
0
 62
     9
 10
0.0
 20
0.0
 30
0.0
 70
   128
 71
   217
 72
   218
 73
   225
  0
VERTEX
  5
52E
  8
0
 62
     9
 10
0.0
 20
0.0
 30
0.0
 70
   128
 71
   217
 72
   226
 73
   214
  0
VERTEX
  5
52F
  8
0
 62
     9
 10
0.0
 20
0.0
 30
0.0
 70
   128
 71
   226
 72
   225
 73
   227
  0
VERTEX
  5
530
  8
0
 62
     9
 10
0.0
 20
0.0
 30
0.0
 70
   128
 71
   211
 72
   226
 73
   228
  0
VERTEX
  5
531
  8
0
 62
     9
 10
0.0
 20
0.0
 30
0.0
 70
   128
 71
   227
 72
   228
 73
   226
  0
VERTEX
  5
532
  8
0
 62
     9
 10
0.0
 20
0.0
 30
0.0
 70
   128
 71
   211
 72
   228
 73
   210
  0
VERTEX
  5
533
  8
0
 62
     9
 10
0.0
 20
0.0
 30
0.0
 70
   128
 71
   226
 72
   211
 73
   214
  0
VERTEX
  5
534
  8
0
 62
     9
 10
0.0
 20
0.0
 30
0.0
 70
   128
 71
   225
 72
   226
 73
   217
  0
VERTEX
  5
535
  8
0
 62
     9
 10
0.0
 20
0.0
 30
0.0
 70
   128
 71
   204
 72
   206
 73
   229
  0
VERTEX
  5
536
  8
0
 62
     9
 10
0.0
 20
0.0
 30
0.0
 70
   128
 71
   209
 72
   228
 73
   229
  0
VERTEX
  5
537
  8
0
 62
     9
 10
0.0
 20
0.0
 30
0.0
 70
   128
 71
   230
 72
   205
 73
   204
  0
VERTEX
  5
538
  8
0
 62
     9
 10
0.0
 20
0.0
 30
0.0
 70
   128
 71
   227
 72
   229
 73
   228
  0
VERTEX
  5
539
  8
0
 62
     9
 10
0.0
 20
0.0
 30
0.0
 70
   128
 71
   206
 72
   209
 73
   229
  0
VERTEX
  5
53A
  8
0
 62
     9
 10
0.0
 20
0.0
 30
0.0
 70
   128
 71
   209
 72
   210
 73
   228
  0
VERTEX
  5
53B
  8
0
 62
     9
 10
0.0
 20
0.0
 30
0.0
 70
   128
 71
   229
 72
   230
 73
   204
  0
VERTEX
  5
53C
  8
0
 62
     9
 10
0.0
 20
0.0
 30
0.0
 70
   128
 71
   227
 72
   230
 73
   229
  0
VERTEX
  5
53D
  8
0
 62
     9
 10
0.0
 20
0.0
 30
0.0
 70
   128
 71
   177
 72
   175
 73
   174
  0
VERTEX
  5
53E
  8
0
 62
     9
 10
0.0
 20
0.0
 30
0.0
 70
   128
 71
    85
 72
   188
 73
    86
  0
VERTEX
  5
53F
  8
0
 62
     9
 10
0.0
 20
0.0
 30
0.0
 70
   128
 71
   176
 72
   174
 73
   180
  0
VERTEX
  5
540
  8
0
 62
     9
 10
0.0
 20
0.0
 30
0.0
 70
   128
 71
   174
 72
   176
 73
   177
  0
VERTEX
  5
541
  8
0
 62
     9
 10
0.0
 20
0.0
 30
0.0
 70
   128
 71
   176
 72
   180
 73
   169
  0
VERTEX
  5
542
  8
0
 62
     9
 10
0.0
 20
0.0
 30
0.0
 70
   128
 71
    95
 72
   168
 73
   169
  0
VERTEX
  5
543
  8
0
 62
     9
 10
0.0
 20
0.0
 30
0.0
 70
   128
 71
   180
 72
   103
 73
   169
  0
VERTEX
  5
544
  8
0
 62
     9
 10
0.0
 20
0.0
 30
0.0
 70
   128
 71
   173
 72
    86
 73
   188
  0
VERTEX
  5
545
  8
0
 62
     9
 10
0.0
 20
0.0
 30
0.0
 70
   128
 71
   186
 72
    88
 73
    87
  0
VERTEX
  5
546
  8
0
 62
     9
 10
0.0
 20
0.0
 30
0.0
 70
   128
 71
    77
 72
    63
 73
    81
  0
VERTEX
  5
547
  8
0
 62
     9
 10
0.0
 20
0.0
 30
0.0
 70
   128
 71
    84
 72
    67
 73
   190
  0
VERTEX
  5
548
  8
0
 62
     9
 10
0.0
 20
0.0
 30
0.0
 70
   128
 71
    63
 72
    55
 73
    56
  0
VERTEX
  5
549
  8
0
 62
     9
 10
0.0
 20
0.0
 30
0.0
 70
   128
 71
    55
 72
    77
 73
    71
  0
VERTEX
  5
54A
  8
0
 62
     9
 10
0.0
 20
0.0
 30
0.0
 70
   128
 71
    77
 72
    73
 73
    71
  0
VERTEX
  5
54B
  8
0
 62
     9
 10
0.0
 20
0.0
 30
0.0
 70
   128
 71
    67
 72
    81
 73
    63
  0
VERTEX
  5
54C
  8
0
 62
     9
 10
0.0
 20
0.0
 30
0.0
 70
   128
 71
    63
 72
    77
 73
    55
  0
VERTEX
  5
54D
  8
0
 62
     9
 10
0.0
 20
0.0
 30
0.0
 70
   128
 71
    85
 72
    84
 73
   190
  0
VERTEX
  5
54E
  8
0
 62
     9
 10
0.0
 20
0.0
 30
0.0
 70
   128
 71
    84
 72
    81
 73
    67
  0
VERTEX
  5
54F
  8
0
 62
     9
 10
0.0
 20
0.0
 30
0.0
 70
   128
 71
   173
 72
    87
 73
    86
  0
VERTEX
  5
550
  8
0
 62
     9
 10
0.0
 20
0.0
 30
0.0
 70
   128
 71
    85
 72
   190
 73
   188
  0
VERTEX
  5
551
  8
0
 62
     9
 10
0.0
 20
0.0
 30
0.0
 70
   128
 71
    87
 72
   173
 73
   186
  0
VERTEX
  5
552
  8
0
 62
     9
 10
0.0
 20
0.0
 30
0.0
 70
   128
 71
    95
 72
    88
 73
   168
  0
VERTEX
  5
553
  8
0
 62
     9
 10
0.0
 20
0.0
 30
0.0
 70
   128
 71
    88
 72
   186
 73
   168
  0
VERTEX
  5
554
  8
0
 62
     9
 10
0.0
 20
0.0
 30
0.0
 70
   128
 71
   169
 72
   103
 73
    95
  0
VERTEX
  5
555
  8
0
 62
     9
 10
0.0
 20
0.0
 30
0.0
 70
   128
 71
   232
 72
   231
 73
    25
  0
VERTEX
  5
556
  8
0
 62
     9
 10
0.0
 20
0.0
 30
0.0
 70
   128
 71
   172
 72
   234
 73
   233
  0
VERTEX
  5
557
  8
0
 62
     9
 10
0.0
 20
0.0
 30
0.0
 70
   128
 71
   189
 72
   166
 73
   235
  0
VERTEX
  5
558
  8
0
 62
     9
 10
0.0
 20
0.0
 30
0.0
 70
   128
 71
   236
 72
   232
 73
   185
  0
VERTEX
  5
559
  8
0
 62
     9
 10
0.0
 20
0.0
 30
0.0
 70
   128
 71
   238
 72
    72
 73
   237
  0
VERTEX
  5
55A
  8
0
 62
     9
 10
0.0
 20
0.0
 30
0.0
 70
   128
 71
   238
 72
   235
 73
    82
  0
VERTEX
  5
55B
  8
0
 62
     9
 10
0.0
 20
0.0
 30
0.0
 70
   128
 71
    70
 72
   240
 73
   239
  0
VERTEX
  5
55C
  8
0
 62
     9
 10
0.0
 20
0.0
 30
0.0
 70
   128
 71
   241
 72
    54
 73
   239
  0
VERTEX
  5
55D
  8
0
 62
     9
 10
0.0
 20
0.0
 30
0.0
 70
   128
 71
   242
 72
   240
 73
    74
  0
VERTEX
  5
55E
  8
0
 62
     9
 10
0.0
 20
0.0
 30
0.0
 70
   128
 71
   242
 72
    74
 73
    76
  0
VERTEX
  5
55F
  8
0
 62
     9
 10
0.0
 20
0.0
 30
0.0
 70
   128
 71
   242
 72
    76
 73
   243
  0
VERTEX
  5
560
  8
0
 62
     9
 10
0.0
 20
0.0
 30
0.0
 70
   128
 71
    76
 72
    79
 73
   243
  0
VERTEX
  5
561
  8
0
 62
     9
 10
0.0
 20
0.0
 30
0.0
 70
   128
 71
    79
 72
    40
 73
   243
  0
VERTEX
  5
562
  8
0
 62
     9
 10
0.0
 20
0.0
 30
0.0
 70
   128
 71
    70
 72
    74
 73
   240
  0
VERTEX
  5
563
  8
0
 62
     9
 10
0.0
 20
0.0
 30
0.0
 70
   128
 71
   189
 72
   244
 73
   187
  0
VERTEX
  5
564
  8
0
 62
     9
 10
0.0
 20
0.0
 30
0.0
 70
   128
 71
   239
 72
    54
 73
    70
  0
VERTEX
  5
565
  8
0
 62
     9
 10
0.0
 20
0.0
 30
0.0
 70
   128
 71
   237
 72
    57
 73
   241
  0
VERTEX
  5
566
  8
0
 62
     9
 10
0.0
 20
0.0
 30
0.0
 70
   128
 71
   238
 72
   237
 73
   245
  0
VERTEX
  5
567
  8
0
 62
     9
 10
0.0
 20
0.0
 30
0.0
 70
   128
 71
   241
 72
   246
 73
   237
  0
VERTEX
  5
568
  8
0
 62
     9
 10
0.0
 20
0.0
 30
0.0
 70
   128
 71
   235
 72
   166
 73
    82
  0
VERTEX
  5
569
  8
0
 62
     9
 10
0.0
 20
0.0
 30
0.0
 70
   128
 71
    72
 72
   238
 73
    82
  0
VERTEX
  5
56A
  8
0
 62
     9
 10
0.0
 20
0.0
 30
0.0
 70
   128
 71
   187
 72
   234
 73
   172
  0
VERTEX
  5
56B
  8
0
 62
     9
 10
0.0
 20
0.0
 30
0.0
 70
   128
 71
   244
 72
   234
 73
   187
  0
VERTEX
  5
56C
  8
0
 62
     9
 10
0.0
 20
0.0
 30
0.0
 70
   128
 71
   244
 72
   189
 73
   235
  0
VERTEX
  5
56D
  8
0
 62
     9
 10
0.0
 20
0.0
 30
0.0
 70
   128
 71
   171
 72
   172
 73
   233
  0
VERTEX
  5
56E
  8
0
 62
     9
 10
0.0
 20
0.0
 30
0.0
 70
   128
 71
   171
 72
   233
 73
   236
  0
VERTEX
  5
56F
  8
0
 62
     9
 10
0.0
 20
0.0
 30
0.0
 70
   128
 71
   232
 72
   236
 73
   231
  0
VERTEX
  5
570
  8
0
 62
     9
 10
0.0
 20
0.0
 30
0.0
 70
   128
 71
   170
 72
   185
 73
   232
  0
VERTEX
  5
571
  8
0
 62
     9
 10
0.0
 20
0.0
 30
0.0
 70
   128
 71
    25
 72
   170
 73
   232
  0
VERTEX
  5
572
  8
0
 62
     9
 10
0.0
 20
0.0
 30
0.0
 70
   128
 71
   247
 72
   231
 73
   236
  0
VERTEX
  5
573
  8
0
 62
     9
 10
0.0
 20
0.0
 30
0.0
 70
   128
 71
   248
 72
   247
 73
   233
  0
VERTEX
  5
574
  8
0
 62
     9
 10
0.0
 20
0.0
 30
0.0
 70
   128
 71
   236
 72
   185
 73
   171
  0
VERTEX
  5
575
  8
0
 62
     9
 10
0.0
 20
0.0
 30
0.0
 70
   128
 71
   236
 72
   233
 73
   247
  0
VERTEX
  5
576
  8
0
 62
     9
 10
0.0
 20
0.0
 30
0.0
 70
   128
 71
   249
 72
   248
 73
   234
  0
VERTEX
  5
577
  8
0
 62
     9
 10
0.0
 20
0.0
 30
0.0
 70
   128
 71
   233
 72
   234
 73
   248
  0
VERTEX
  5
578
  8
0
 62
     9
 10
0.0
 20
0.0
 30
0.0
 70
   128
 71
   250
 72
   249
 73
   244
  0
VERTEX
  5
579
  8
0
 62
     9
 10
0.0
 20
0.0
 30
0.0
 70
   128
 71
   234
 72
   244
 73
   249
  0
VERTEX
  5
57A
  8
0
 62
     9
 10
0.0
 20
0.0
 30
0.0
 70
   128
 71
   251
 72
   250
 73
   235
  0
VERTEX
  5
57B
  8
0
 62
     9
 10
0.0
 20
0.0
 30
0.0
 70
   128
 71
   244
 72
   235
 73
   250
  0
VERTEX
  5
57C
  8
0
 62
     9
 10
0.0
 20
0.0
 30
0.0
 70
   128
 71
   238
 72
   245
 73
   251
  0
VERTEX
  5
57D
  8
0
 62
     9
 10
0.0
 20
0.0
 30
0.0
 70
   128
 71
   246
 72
   245
 73
   237
  0
VERTEX
  5
57E
  8
0
 62
     9
 10
0.0
 20
0.0
 30
0.0
 70
   128
 71
   235
 72
   238
 73
   251
  0
VERTEX
  5
57F
  8
0
 62
     9
 10
0.0
 20
0.0
 30
0.0
 70
   128
 71
   252
 72
   246
 73
   241
  0
VERTEX
  5
580
  8
0
 62
     9
 10
0.0
 20
0.0
 30
0.0
 70
   128
 71
   237
 72
    72
 73
    57
  0
VERTEX
  5
581
  8
0
 62
     9
 10
0.0
 20
0.0
 30
0.0
 70
   128
 71
   253
 72
   252
 73
   239
  0
VERTEX
  5
582
  8
0
 62
     9
 10
0.0
 20
0.0
 30
0.0
 70
   128
 71
   241
 72
    57
 73
    54
  0
VERTEX
  5
583
  8
0
 62
     9
 10
0.0
 20
0.0
 30
0.0
 70
   128
 71
   241
 72
   239
 73
   252
  0
VERTEX
  5
584
  8
0
 62
     9
 10
0.0
 20
0.0
 30
0.0
 70
   128
 71
   254
 72
   253
 73
   240
  0
VERTEX
  5
585
  8
0
 62
     9
 10
0.0
 20
0.0
 30
0.0
 70
   128
 71
   239
 72
   240
 73
   253
  0
VERTEX
  5
586
  8
0
 62
     9
 10
0.0
 20
0.0
 30
0.0
 70
   128
 71
   255
 72
   254
 73
   242
  0
VERTEX
  5
587
  8
0
 62
     9
 10
0.0
 20
0.0
 30
0.0
 70
   128
 71
   240
 72
   242
 73
   254
  0
VERTEX
  5
588
  8
0
 62
     9
 10
0.0
 20
0.0
 30
0.0
 70
   128
 71
   256
 72
   255
 73
   243
  0
VERTEX
  5
589
  8
0
 62
     9
 10
0.0
 20
0.0
 30
0.0
 70
   128
 71
   242
 72
   243
 73
   255
  0
VERTEX
  5
58A
  8
0
 62
     9
 10
0.0
 20
0.0
 30
0.0
 70
   128
 71
    40
 72
   256
 73
   243
  0
VERTEX
  5
58B
  8
0
 62
     9
 10
0.0
 20
0.0
 30
0.0
 70
   128
 71
   258
 72
   257
 73
    61
  0
VERTEX
  5
58C
  8
0
 62
     9
 10
0.0
 20
0.0
 30
0.0
 70
   128
 71
    61
 72
   257
 73
    60
  0
VERTEX
  5
58D
  8
0
 62
     9
 10
0.0
 20
0.0
 30
0.0
 70
   128
 71
   257
 72
   258
 73
   134
  0
VERTEX
  5
58E
  8
0
 62
     9
 10
0.0
 20
0.0
 30
0.0
 70
   128
 71
   139
 72
   134
 73
   258
  0
VERTEX
  5
58F
  8
0
 62
     9
 10
0.0
 20
0.0
 30
0.0
 70
   128
 71
   260
 72
   259
 73
   129
  0
VERTEX
  5
590
  8
0
 62
     9
 10
0.0
 20
0.0
 30
0.0
 70
   128
 71
   260
 72
    62
 73
   259
  0
VERTEX
  5
591
  8
0
 62
     9
 10
0.0
 20
0.0
 30
0.0
 70
   128
 71
    62
 72
   260
 73
    64
  0
VERTEX
  5
592
  8
0
 62
     9
 10
0.0
 20
0.0
 30
0.0
 70
   128
 71
   259
 72
    62
 73
    60
  0
VERTEX
  5
593
  8
0
 62
     9
 10
0.0
 20
0.0
 30
0.0
 70
   128
 71
   128
 72
   129
 73
   259
  0
VERTEX
  5
594
  8
0
 62
     9
 10
0.0
 20
0.0
 30
0.0
 70
   128
 71
   128
 72
   257
 73
   134
  0
VERTEX
  5
595
  8
0
 62
     9
 10
0.0
 20
0.0
 30
0.0
 70
   128
 71
   257
 72
   259
 73
    60
  0
VERTEX
  5
596
  8
0
 62
     9
 10
0.0
 20
0.0
 30
0.0
 70
   128
 71
   259
 72
   257
 73
   128
  0
VERTEX
  5
597
  8
0
 62
     9
 10
0.0
 20
0.0
 30
0.0
 70
   128
 71
   261
 72
   162
 73
   161
  0
VERTEX
  5
598
  8
0
 62
     9
 10
0.0
 20
0.0
 30
0.0
 70
   128
 71
   139
 72
   262
 73
   161
  0
VERTEX
  5
599
  8
0
 62
     9
 10
0.0
 20
0.0
 30
0.0
 70
   128
 71
   262
 72
   261
 73
   161
  0
VERTEX
  5
59A
  8
0
 62
     9
 10
0.0
 20
0.0
 30
0.0
 70
   128
 71
    59
 72
   262
 73
    58
  0
VERTEX
  5
59B
  8
0
 62
     9
 10
0.0
 20
0.0
 30
0.0
 70
   128
 71
    61
 72
    58
 73
   258
  0
VERTEX
  5
59C
  8
0
 62
     9
 10
0.0
 20
0.0
 30
0.0
 70
   128
 71
   261
 72
   262
 73
    59
  0
VERTEX
  5
59D
  8
0
 62
     9
 10
0.0
 20
0.0
 30
0.0
 70
   128
 71
   258
 72
   262
 73
   139
  0
VERTEX
  5
59E
  8
0
 62
     9
 10
0.0
 20
0.0
 30
0.0
 70
   128
 71
   262
 72
   258
 73
    58
  0
VERTEX
  5
59F
  8
0
 62
     9
 10
0.0
 20
0.0
 30
0.0
 70
   128
 71
   144
 72
   264
 73
   263
  0
VERTEX
  5
5A0
  8
0
 62
     9
 10
0.0
 20
0.0
 30
0.0
 70
   128
 71
   263
 72
    66
 73
    64
  0
VERTEX
  5
5A1
  8
0
 62
     9
 10
0.0
 20
0.0
 30
0.0
 70
   128
 71
   264
 72
    65
 73
    66
  0
VERTEX
  5
5A2
  8
0
 62
     9
 10
0.0
 20
0.0
 30
0.0
 70
   128
 71
   264
 72
    66
 73
   263
  0
VERTEX
  5
5A3
  8
0
 62
     9
 10
0.0
 20
0.0
 30
0.0
 70
   128
 71
   146
 72
   144
 73
   263
  0
VERTEX
  5
5A4
  8
0
 62
     9
 10
0.0
 20
0.0
 30
0.0
 70
   128
 71
   129
 72
   146
 73
   260
  0
VERTEX
  5
5A5
  8
0
 62
     9
 10
0.0
 20
0.0
 30
0.0
 70
   128
 71
   263
 72
   260
 73
   146
  0
VERTEX
  5
5A6
  8
0
 62
     9
 10
0.0
 20
0.0
 30
0.0
 70
   128
 71
    64
 72
   260
 73
   263
  0
VERTEX
  5
5A7
  8
0
 62
     9
 10
0.0
 20
0.0
 30
0.0
 70
   128
 71
   265
 72
   215
 73
   162
  0
VERTEX
  5
5A8
  8
0
 62
     9
 10
0.0
 20
0.0
 30
0.0
 70
   128
 71
   266
 72
   218
 73
   215
  0
VERTEX
  5
5A9
  8
0
 62
     9
 10
0.0
 20
0.0
 30
0.0
 70
   128
 71
   265
 72
    78
 73
   266
  0
VERTEX
  5
5AA
  8
0
 62
     9
 10
0.0
 20
0.0
 30
0.0
 70
   128
 71
    78
 72
   265
 73
    75
  0
VERTEX
  5
5AB
  8
0
 62
     9
 10
0.0
 20
0.0
 30
0.0
 70
   128
 71
    59
 72
    75
 73
   261
  0
VERTEX
  5
5AC
  8
0
 62
     9
 10
0.0
 20
0.0
 30
0.0
 70
   128
 71
   265
 72
   261
 73
    75
  0
VERTEX
  5
5AD
  8
0
 62
     9
 10
0.0
 20
0.0
 30
0.0
 70
   128
 71
   261
 72
   265
 73
   162
  0
VERTEX
  5
5AE
  8
0
 62
     9
 10
0.0
 20
0.0
 30
0.0
 70
   128
 71
   265
 72
   266
 73
   215
  0
VERTEX
  5
5AF
  8
0
 62
     9
 10
0.0
 20
0.0
 30
0.0
 70
   128
 71
   268
 72
   267
 73
    69
  0
VERTEX
  5
5B0
  8
0
 62
     9
 10
0.0
 20
0.0
 30
0.0
 70
   128
 71
    68
 72
   268
 73
    69
  0
VERTEX
  5
5B1
  8
0
 62
     9
 10
0.0
 20
0.0
 30
0.0
 70
   128
 71
    68
 72
    65
 73
   264
  0
VERTEX
  5
5B2
  8
0
 62
     9
 10
0.0
 20
0.0
 30
0.0
 70
   128
 71
   264
 72
   268
 73
    68
  0
VERTEX
  5
5B3
  8
0
 62
     9
 10
0.0
 20
0.0
 30
0.0
 70
   128
 71
   267
 72
   223
 73
   221
  0
VERTEX
  5
5B4
  8
0
 62
     9
 10
0.0
 20
0.0
 30
0.0
 70
   128
 71
   268
 72
   264
 73
   144
  0
VERTEX
  5
5B5
  8
0
 62
     9
 10
0.0
 20
0.0
 30
0.0
 70
   128
 71
   223
 72
   268
 73
   144
  0
VERTEX
  5
5B6
  8
0
 62
     9
 10
0.0
 20
0.0
 30
0.0
 70
   128
 71
   268
 72
   223
 73
   267
  0
VERTEX
  5
5B7
  8
0
 62
     9
 10
0.0
 20
0.0
 30
0.0
 70
   128
 71
   269
 72
   227
 73
   225
  0
VERTEX
  5
5B8
  8
0
 62
     9
 10
0.0
 20
0.0
 30
0.0
 70
   128
 71
   218
 72
   270
 73
   225
  0
VERTEX
  5
5B9
  8
0
 62
     9
 10
0.0
 20
0.0
 30
0.0
 70
   128
 71
   269
 72
   270
 73
    83
  0
VERTEX
  5
5BA
  8
0
 62
     9
 10
0.0
 20
0.0
 30
0.0
 70
   128
 71
    83
 72
   270
 73
    80
  0
VERTEX
  5
5BB
  8
0
 62
     9
 10
0.0
 20
0.0
 30
0.0
 70
   128
 71
    78
 72
    80
 73
   266
  0
VERTEX
  5
5BC
  8
0
 62
     9
 10
0.0
 20
0.0
 30
0.0
 70
   128
 71
   266
 72
   270
 73
   218
  0
VERTEX
  5
5BD
  8
0
 62
     9
 10
0.0
 20
0.0
 30
0.0
 70
   128
 71
    80
 72
   270
 73
   266
  0
VERTEX
  5
5BE
  8
0
 62
     9
 10
0.0
 20
0.0
 30
0.0
 70
   128
 71
   270
 72
   269
 73
   225
  0
VERTEX
  5
5BF
  8
0
 62
     9
 10
0.0
 20
0.0
 30
0.0
 70
   128
 71
   272
 72
   271
 73
   195
  0
VERTEX
  5
5C0
  8
0
 62
     9
 10
0.0
 20
0.0
 30
0.0
 70
   128
 71
   194
 72
   272
 73
   195
  0
VERTEX
  5
5C1
  8
0
 62
     9
 10
0.0
 20
0.0
 30
0.0
 70
   128
 71
   194
 72
    69
 73
   267
  0
VERTEX
  5
5C2
  8
0
 62
     9
 10
0.0
 20
0.0
 30
0.0
 70
   128
 71
   219
 72
   271
 73
   272
  0
VERTEX
  5
5C3
  8
0
 62
     9
 10
0.0
 20
0.0
 30
0.0
 70
   128
 71
   271
 72
   219
 73
   125
  0
VERTEX
  5
5C4
  8
0
 62
     9
 10
0.0
 20
0.0
 30
0.0
 70
   128
 71
   272
 72
   267
 73
   221
  0
VERTEX
  5
5C5
  8
0
 62
     9
 10
0.0
 20
0.0
 30
0.0
 70
   128
 71
   219
 72
   272
 73
   221
  0
VERTEX
  5
5C6
  8
0
 62
     9
 10
0.0
 20
0.0
 30
0.0
 70
   128
 71
   267
 72
   272
 73
   194
  0
VERTEX
  5
5C7
  8
0
 62
     9
 10
0.0
 20
0.0
 30
0.0
 70
   128
 71
   273
 72
   205
 73
   230
  0
VERTEX
  5
5C8
  8
0
 62
     9
 10
0.0
 20
0.0
 30
0.0
 70
   128
 71
   227
 72
   274
 73
   230
  0
VERTEX
  5
5C9
  8
0
 62
     9
 10
0.0
 20
0.0
 30
0.0
 70
   128
 71
   273
 72
   274
 73
   167
  0
VERTEX
  5
5CA
  8
0
 62
     9
 10
0.0
 20
0.0
 30
0.0
 70
   128
 71
   167
 72
   274
 73
   165
  0
VERTEX
  5
5CB
  8
0
 62
     9
 10
0.0
 20
0.0
 30
0.0
 70
   128
 71
    83
 72
   165
 73
   269
  0
VERTEX
  5
5CC
  8
0
 62
     9
 10
0.0
 20
0.0
 30
0.0
 70
   128
 71
   274
 72
   269
 73
   165
  0
VERTEX
  5
5CD
  8
0
 62
     9
 10
0.0
 20
0.0
 30
0.0
 70
   128
 71
   269
 72
   274
 73
   227
  0
VERTEX
  5
5CE
  8
0
 62
     9
 10
0.0
 20
0.0
 30
0.0
 70
   128
 71
   274
 72
   273
 73
   230
  0
VERTEX
  5
5CF
  8
0
 62
     9
 10
0.0
 20
0.0
 30
0.0
 70
   128
 71
   275
 72
   200
 73
   196
  0
VERTEX
  5
5D0
  8
0
 62
     9
 10
0.0
 20
0.0
 30
0.0
 70
   128
 71
   275
 72
   276
 73
   200
  0
VERTEX
  5
5D1
  8
0
 62
     9
 10
0.0
 20
0.0
 30
0.0
 70
   128
 71
   196
 72
   195
 73
   271
  0
VERTEX
  5
5D2
  8
0
 62
     9
 10
0.0
 20
0.0
 30
0.0
 70
   128
 71
   276
 72
   275
 73
   123
  0
VERTEX
  5
5D3
  8
0
 62
     9
 10
0.0
 20
0.0
 30
0.0
 70
   128
 71
   123
 72
   111
 73
   276
  0
VERTEX
  5
5D4
  8
0
 62
     9
 10
0.0
 20
0.0
 30
0.0
 70
   128
 71
   271
 72
   125
 73
   275
  0
VERTEX
  5
5D5
  8
0
 62
     9
 10
0.0
 20
0.0
 30
0.0
 70
   128
 71
   123
 72
   275
 73
   125
  0
VERTEX
  5
5D6
  8
0
 62
     9
 10
0.0
 20
0.0
 30
0.0
 70
   128
 71
   271
 72
   275
 73
   196
  0
VERTEX
  5
5D7
  8
0
 62
     9
 10
0.0
 20
0.0
 30
0.0
 70
   128
 71
   277
 72
   158
 73
   203
  0
VERTEX
  5
5D8
  8
0
 62
     9
 10
0.0
 20
0.0
 30
0.0
 70
   128
 71
   205
 72
   278
 73
   203
  0
VERTEX
  5
5D9
  8
0
 62
     9
 10
0.0
 20
0.0
 30
0.0
 70
   128
 71
   277
 72
   278
 73
   197
  0
VERTEX
  5
5DA
  8
0
 62
     9
 10
0.0
 20
0.0
 30
0.0
 70
   128
 71
   197
 72
   278
 73
   198
  0
VERTEX
  5
5DB
  8
0
 62
     9
 10
0.0
 20
0.0
 30
0.0
 70
   128
 71
   167
 72
   198
 73
   273
  0
VERTEX
  5
5DC
  8
0
 62
     9
 10
0.0
 20
0.0
 30
0.0
 70
   128
 71
   278
 72
   273
 73
   198
  0
VERTEX
  5
5DD
  8
0
 62
     9
 10
0.0
 20
0.0
 30
0.0
 70
   128
 71
   273
 72
   278
 73
   205
  0
VERTEX
  5
5DE
  8
0
 62
     9
 10
0.0
 20
0.0
 30
0.0
 70
   128
 71
   278
 72
   277
 73
   203
  0
VERTEX
  5
5DF
  8
0
 62
     9
 10
0.0
 20
0.0
 30
0.0
 70
   128
 71
   280
 72
   199
 73
   279
  0
VERTEX
  5
5E0
  8
0
 62
     9
 10
0.0
 20
0.0
 30
0.0
 70
   128
 71
   280
 72
   191
 73
   199
  0
VERTEX
  5
5E1
  8
0
 62
     9
 10
0.0
 20
0.0
 30
0.0
 70
   128
 71
   280
 72
   279
 73
   106
  0
VERTEX
  5
5E2
  8
0
 62
     9
 10
0.0
 20
0.0
 30
0.0
 70
   128
 71
   279
 72
   199
 73
   200
  0
VERTEX
  5
5E3
  8
0
 62
     9
 10
0.0
 20
0.0
 30
0.0
 70
   128
 71
   106
 72
   279
 73
   105
  0
VERTEX
  5
5E4
  8
0
 62
     9
 10
0.0
 20
0.0
 30
0.0
 70
   128
 71
   105
 72
   276
 73
   111
  0
VERTEX
  5
5E5
  8
0
 62
     9
 10
0.0
 20
0.0
 30
0.0
 70
   128
 71
   279
 72
   276
 73
   105
  0
VERTEX
  5
5E6
  8
0
 62
     9
 10
0.0
 20
0.0
 30
0.0
 70
   128
 71
   276
 72
   279
 73
   200
  0
VERTEX
  5
5E7
  8
0
 62
     9
 10
0.0
 20
0.0
 30
0.0
 70
   128
 71
   282
 72
   281
 73
   156
  0
VERTEX
  5
5E8
  8
0
 62
     9
 10
0.0
 20
0.0
 30
0.0
 70
   128
 71
   158
 72
   282
 73
   156
  0
VERTEX
  5
5E9
  8
0
 62
     9
 10
0.0
 20
0.0
 30
0.0
 70
   128
 71
   142
 72
   156
 73
   281
  0
VERTEX
  5
5EA
  8
0
 62
     9
 10
0.0
 20
0.0
 30
0.0
 70
   128
 71
   193
 72
   192
 73
   282
  0
VERTEX
  5
5EB
  8
0
 62
     9
 10
0.0
 20
0.0
 30
0.0
 70
   128
 71
   197
 72
   193
 73
   277
  0
VERTEX
  5
5EC
  8
0
 62
     9
 10
0.0
 20
0.0
 30
0.0
 70
   128
 71
   282
 72
   158
 73
   277
  0
VERTEX
  5
5ED
  8
0
 62
     9
 10
0.0
 20
0.0
 30
0.0
 70
   128
 71
   282
 72
   277
 73
   193
  0
VERTEX
  5
5EE
  8
0
 62
     9
 10
0.0
 20
0.0
 30
0.0
 70
   128
 71
   281
 72
   282
 73
   192
  0
VERTEX
  5
5EF
  8
0
 62
     9
 10
0.0
 20
0.0
 30
0.0
 70
   128
 71
   280
 72
   281
 73
   191
  0
VERTEX
  5
5F0
  8
0
 62
     9
 10
0.0
 20
0.0
 30
0.0
 70
   128
 71
   191
 72
   281
 73
   192
  0
VERTEX
  5
5F1
  8
0
 62
     9
 10
0.0
 20
0.0
 30
0.0
 70
   128
 71
   281
 72
   280
 73
   142
  0
VERTEX
  5
5F2
  8
0
 62
     9
 10
0.0
 20
0.0
 30
0.0
 70
   128
 71
   106
 72
   142
 73
   280
  0
VERTEX
  5
5F3
  8
0
 62
     9
 10
0.0
 20
0.0
 30
0.0
 70
   128
 71
    96
 72
   284
 73
   283
  0
VERTEX
  5
5F4
  8
0
 62
     9
 10
0.0
 20
0.0
 30
0.0
 70
   128
 71
   286
 72
   285
 73
   178
  0
VERTEX
  5
5F5
  8
0
 62
     9
 10
0.0
 20
0.0
 30
0.0
 70
   128
 71
   283
 72
    98
 73
    96
  0
VERTEX
  5
5F6
  8
0
 62
     9
 10
0.0
 20
0.0
 30
0.0
 70
   128
 71
   184
 72
   287
 73
   104
  0
VERTEX
  5
5F7
  8
0
 62
     9
 10
0.0
 20
0.0
 30
0.0
 70
   128
 71
   289
 72
   100
 73
   288
  0
VERTEX
  5
5F8
  8
0
 62
     9
 10
0.0
 20
0.0
 30
0.0
 70
   128
 71
    99
 72
    98
 73
   288
  0
VERTEX
  5
5F9
  8
0
 62
     9
 10
0.0
 20
0.0
 30
0.0
 70
   128
 71
   290
 72
   100
 73
   289
  0
VERTEX
  5
5FA
  8
0
 62
     9
 10
0.0
 20
0.0
 30
0.0
 70
   128
 71
   100
 72
   290
 73
   102
  0
VERTEX
  5
5FB
  8
0
 62
     9
 10
0.0
 20
0.0
 30
0.0
 70
   128
 71
   100
 72
    99
 73
   288
  0
VERTEX
  5
5FC
  8
0
 62
     9
 10
0.0
 20
0.0
 30
0.0
 70
   128
 71
   288
 72
    98
 73
   283
  0
VERTEX
  5
5FD
  8
0
 62
     9
 10
0.0
 20
0.0
 30
0.0
 70
   128
 71
    96
 72
    94
 73
   284
  0
VERTEX
  5
5FE
  8
0
 62
     9
 10
0.0
 20
0.0
 30
0.0
 70
   128
 71
   284
 72
   104
 73
   287
  0
VERTEX
  5
5FF
  8
0
 62
     9
 10
0.0
 20
0.0
 30
0.0
 70
   128
 71
   104
 72
   284
 73
    94
  0
VERTEX
  5
600
  8
0
 62
     9
 10
0.0
 20
0.0
 30
0.0
 70
   128
 71
   287
 72
   183
 73
   291
  0
VERTEX
  5
601
  8
0
 62
     9
 10
0.0
 20
0.0
 30
0.0
 70
   128
 71
   287
 72
   184
 73
   183
  0
VERTEX
  5
602
  8
0
 62
     9
 10
0.0
 20
0.0
 30
0.0
 70
   128
 71
   285
 72
   291
 73
   182
  0
VERTEX
  5
603
  8
0
 62
     9
 10
0.0
 20
0.0
 30
0.0
 70
   128
 71
   183
 72
   182
 73
   291
  0
VERTEX
  5
604
  8
0
 62
     9
 10
0.0
 20
0.0
 30
0.0
 70
   128
 71
   286
 72
   178
 73
   179
  0
VERTEX
  5
605
  8
0
 62
     9
 10
0.0
 20
0.0
 30
0.0
 70
   128
 71
   285
 72
   182
 73
   178
  0
VERTEX
  5
606
  8
0
 62
     9
 10
0.0
 20
0.0
 30
0.0
 70
   128
 71
   179
 72
   181
 73
   292
  0
VERTEX
  5
607
  8
0
 62
     9
 10
0.0
 20
0.0
 30
0.0
 70
   128
 71
   292
 72
   286
 73
   179
  0
VERTEX
  5
608
  8
0
 62
     9
 10
0.0
 20
0.0
 30
0.0
 70
   128
 71
   294
 72
    90
 73
   293
  0
VERTEX
  5
609
  8
0
 62
     9
 10
0.0
 20
0.0
 30
0.0
 70
   128
 71
    89
 72
    90
 73
   294
  0
VERTEX
  5
60A
  8
0
 62
     9
 10
0.0
 20
0.0
 30
0.0
 70
   128
 71
   101
 72
   293
 73
    90
  0
VERTEX
  5
60B
  8
0
 62
     9
 10
0.0
 20
0.0
 30
0.0
 70
   128
 71
   293
 72
   101
 73
   295
  0
VERTEX
  5
60C
  8
0
 62
     9
 10
0.0
 20
0.0
 30
0.0
 70
   128
 71
   294
 72
   296
 73
    89
  0
VERTEX
  5
60D
  8
0
 62
     9
 10
0.0
 20
0.0
 30
0.0
 70
   128
 71
   296
 72
   297
 73
    93
  0
VERTEX
  5
60E
  8
0
 62
     9
 10
0.0
 20
0.0
 30
0.0
 70
   128
 71
    93
 72
    89
 73
   296
  0
VERTEX
  5
60F
  8
0
 62
     9
 10
0.0
 20
0.0
 30
0.0
 70
   128
 71
   297
 72
     8
 73
    93
  0
VERTEX
  5
610
  8
0
 62
     9
 10
0.0
 20
0.0
 30
0.0
 70
   128
 71
   297
 72
     7
 73
     8
  0
VERTEX
  5
611
  8
0
 62
     9
 10
0.0
 20
0.0
 30
0.0
 70
   128
 71
   300
 72
   299
 73
   298
  0
VERTEX
  5
612
  8
0
 62
     9
 10
0.0
 20
0.0
 30
0.0
 70
   128
 71
   300
 72
   302
 73
   301
  0
SEQEND
  5
613
  8
0
  0
ENDBLK
  5
616
  8
0
  0
BLOCK
  8
0
  2
40
 70
     0
 10
0.0
 20
0.0
 30
0.0
  3
40
  1

  0
POLYLINE
  5
618
  8
0
 62
     9
 66
     1
 10
0.0
 20
0.0
 30
0.0
 70
    64
 71
    39
 72
    76
  0
VERTEX
  5
619
  8
0
 10
13.20955657958984
 20
-22.86213493347168
 30
-19.67916488647461
 70
   192
  0
VERTEX
  5
61A
  8
0
 10
13.20955562591553
 20
-27.64722442626953
 30
-28.10801315307617
 70
   192
  0
VERTEX
  5
61B
  8
0
 10
12.35476779937744
 20
-28.55752563476562
 30
-38.75192642211914
 70
   192
  0
VERTEX
  5
61C
  8
0
 10
11.49997997283936
 20
-19.33038139343262
 30
-19.42157173156738
 70
   192
  0
VERTEX
  5
61D
  8
0
 10
12.35476779937744
 20
0.0001966522831935
 30
-10.19383144378662
 70
   192
  0
VERTEX
  5
61E
  8
0
 10
12.35476779937744
 20
-20.19358444213867
 30
-18.55835342407227
 70
   192
  0
VERTEX
  5
61F
  8
0
 10
13.20955657958984
 20
-15.42132472991943
 30
-13.46526432037354
 70
   192
  0
VERTEX
  5
620
  8
0
 10
13.29998016357422
 20
-29.73769760131836
 30
-38.79212188720703
 70
   192
  0
VERTEX
  5
621
  8
0
 10
13.20955657958984
 20
4.46980619430542
 30
-9.409128189086914
 70
   192
  0
VERTEX
  5
622
  8
0
 10
13.20955657958984
 20
-5.883029460906982
 30
-9.792623519897461
 70
   192
  0
VERTEX
  5
623
  8
0
 10
11.49997997283936
 20
19.32967376708984
 30
-19.42228126525879
 70
   192
  0
VERTEX
  5
624
  8
0
 10
12.35476779937744
 20
20.19284439086914
 30
-18.55903244018555
 70
   192
  0
VERTEX
  5
625
  8
0
 10
11.49997997283936
 20
0.0003218736674171
 30
-11.41459465026855
 70
   192
  0
VERTEX
  5
626
  8
0
 10
12.35476779937744
 20
28.55749320983887
 30
-38.75192642211914
 70
   192
  0
VERTEX
  5
627
  8
0
 10
13.29998016357422
 20
29.74670791625977
 30
-38.71243286132812
 70
   192
  0
VERTEX
  5
628
  8
0
 10
13.20955657958984
 20
27.77448081970215
 30
-28.21461296081543
 70
   192
  0
VERTEX
  5
629
  8
0
 10
13.20955657958984
 20
22.16375160217285
 30
-19.09089088439941
 70
   192
  0
VERTEX
  5
62A
  8
0
 10
13.20955657958984
 20
14.17548847198486
 30
-12.78480339050293
 70
   192
  0
VERTEX
  5
62B
  8
0
 10
11.49997997283936
 20
27.33672904968262
 30
-38.75192642211914
 70
   192
  0
VERTEX
  5
62C
  8
0
 10
11.49997997283936
 20
-27.33676147460938
 30
-38.75192642211914
 70
   192
  0
VERTEX
  5
62D
  8
0
 10
11.49997997283936
 20
0.0003221061779186
 30
-66.08926391601562
 70
   192
  0
VERTEX
  5
62E
  8
0
 10
11.49997997283936
 20
19.32967376708984
 30
-58.08157348632812
 70
   192
  0
VERTEX
  5
62F
  8
0
 10
11.49997997283936
 20
-19.33038139343262
 30
-58.08228302001953
 70
   192
  0
VERTEX
  5
630
  8
0
 10
-0.999435544013977
 20
-83.70124053955078
 30
107.2311401367188
 70
   192
  0
VERTEX
  5
631
  8
0
 10
11.2078332901001
 20
83.70764923095703
 30
106.6377563476562
 70
   192
  0
VERTEX
  5
632
  8
0
 10
5.731835842132568
 20
-0.2364922612905502
 30
-99.62103271484375
 70
   192
  0
VERTEX
  5
633
  8
0
 10
-0.999435544013977
 20
-84.00113677978516
 30
-99.47123718261719
 70
   192
  0
VERTEX
  5
634
  8
0
 10
-0.999435544013977
 20
83.70124053955078
 30
-99.7711410522461
 70
   192
  0
VERTEX
  5
635
  8
0
 10
2.000513792037964
 20
3.312968015670776
 30
-99.71875
 70
   192
  0
VERTEX
  5
636
  8
0
 10
-0.0000199999994948
 20
5.0
 30
-99.7711410522461
 70
   192
  0
VERTEX
  5
637
  8
0
 10
2.000513792037964
 20
-3.312968015670776
 30
-99.71875
 70
   192
  0
VERTEX
  5
638
  8
0
 10
-0.0000199999994948
 20
-5.0
 30
-99.7711410522461
 70
   192
  0
VERTEX
  5
639
  8
0
 10
12.35476779937744
 20
20.19284439086914
 30
-58.94482421875
 70
   192
  0
VERTEX
  5
63A
  8
0
 10
12.35476779937744
 20
-20.19358444213867
 30
-58.94550323486328
 70
   192
  0
VERTEX
  5
63B
  8
0
 10
12.35476779937744
 20
0.0001968313881662
 30
-67.31002807617188
 70
   192
  0
VERTEX
  5
63C
  8
0
 10
13.29998016357422
 20
6.292493343353271
 30
-68.06254577636719
 70
   192
  0
VERTEX
  5
63D
  8
0
 10
13.29998016357422
 20
23.80657958984375
 30
-56.86232376098633
 70
   192
  0
VERTEX
  5
63E
  8
0
 10
13.29998016357422
 20
-14.33779811859131
 30
-65.1229019165039
 70
   192
  0
VERTEX
  5
63F
  8
0
 10
13.20955657958984
 20
-27.77705764770508
 30
-49.28034973144531
 70
   192
  0
VERTEX
  5
640
  8
0
 62
     9
 10
0.0
 20
0.0
 30
0.0
 70
   128
 71
     3
 72
     2
 73
     1
  0
VERTEX
  5
641
  8
0
 62
     9
 10
0.0
 20
0.0
 30
0.0
 70
   128
 71
     6
 72
     5
 73
     4
  0
VERTEX
  5
642
  8
0
 62
     9
 10
0.0
 20
0.0
 30
0.0
 70
   128
 71
     6
 72
     1
 73
     7
  0
VERTEX
  5
643
  8
0
 62
     9
 10
0.0
 20
0.0
 30
0.0
 70
   128
 71
     8
 72
     2
 73
     3
  0
VERTEX
  5
644
  8
0
 62
     9
 10
0.0
 20
0.0
 30
0.0
 70
   128
 71
     5
 72
    10
 73
     9
  0
VERTEX
  5
645
  8
0
 62
     9
 10
0.0
 20
0.0
 30
0.0
 70
   128
 71
     6
 72
     7
 73
    10
  0
VERTEX
  5
646
  8
0
 62
     9
 10
0.0
 20
0.0
 30
0.0
 70
   128
 71
    13
 72
    12
 73
    11
  0
VERTEX
  5
647
  8
0
 62
     9
 10
0.0
 20
0.0
 30
0.0
 70
   128
 71
    11
 72
    12
 73
    14
  0
VERTEX
  5
648
  8
0
 62
     9
 10
0.0
 20
0.0
 30
0.0
 70
   128
 71
    12
 72
    16
 73
    15
  0
VERTEX
  5
649
  8
0
 62
     9
 10
0.0
 20
0.0
 30
0.0
 70
   128
 71
    12
 72
    15
 73
    14
  0
VERTEX
  5
64A
  8
0
 62
     9
 10
0.0
 20
0.0
 30
0.0
 70
   128
 71
    12
 72
    18
 73
    17
  0
VERTEX
  5
64B
  8
0
 62
     9
 10
0.0
 20
0.0
 30
0.0
 70
   128
 71
    13
 72
     5
 73
    12
  0
VERTEX
  5
64C
  8
0
 62
     9
 10
0.0
 20
0.0
 30
0.0
 70
   128
 71
    19
 72
    11
 73
    14
  0
VERTEX
  5
64D
  8
0
 62
     9
 10
0.0
 20
0.0
 30
0.0
 70
   128
 71
     6
 72
    20
 73
     3
  0
VERTEX
  5
64E
  8
0
 62
     9
 10
0.0
 20
0.0
 30
0.0
 70
   128
 71
     5
 72
     6
 73
    10
  0
VERTEX
  5
64F
  8
0
 62
     9
 10
0.0
 20
0.0
 30
0.0
 70
   128
 71
     6
 72
     4
 73
    20
  0
VERTEX
  5
650
  8
0
 62
     9
 10
0.0
 20
0.0
 30
0.0
 70
   128
 71
     6
 72
     3
 73
     1
  0
VERTEX
  5
651
  8
0
 62
     9
 10
0.0
 20
0.0
 30
0.0
 70
   128
 71
     5
 72
     9
 73
    18
  0
VERTEX
  5
652
  8
0
 62
     9
 10
0.0
 20
0.0
 30
0.0
 70
   128
 71
     5
 72
    13
 73
     4
  0
VERTEX
  5
653
  8
0
 62
     9
 10
0.0
 20
0.0
 30
0.0
 70
   128
 71
    12
 72
     5
 73
    18
  0
VERTEX
  5
654
  8
0
 62
     9
 10
0.0
 20
0.0
 30
0.0
 70
   128
 71
    12
 72
    17
 73
    16
  0
VERTEX
  5
655
  8
0
 62
     9
 10
0.0
 20
0.0
 30
0.0
 70
   128
 71
    22
 72
    21
 73
    19
  0
VERTEX
  5
656
  8
0
 62
     9
 10
0.0
 20
0.0
 30
0.0
 70
   128
 71
    19
 72
    21
 73
    11
  0
VERTEX
  5
657
  8
0
 62
     9
 10
0.0
 20
0.0
 30
0.0
 70
   128
 71
    23
 72
    11
 73
    21
  0
VERTEX
  5
658
  8
0
 62
     9
 10
0.0
 20
0.0
 30
0.0
 70
   128
 71
    11
 72
    23
 73
    13
  0
VERTEX
  5
659
  8
0
 62
     9
 10
0.0
 20
0.0
 30
0.0
 70
   128
 71
    13
 72
    20
 73
     4
  0
VERTEX
  5
65A
  8
0
 62
     9
 10
0.0
 20
0.0
 30
0.0
 70
   128
 71
    20
 72
    13
 73
    23
  0
VERTEX
  5
65B
  8
0
 62
     9
 10
0.0
 20
0.0
 30
0.0
 70
   128
 71
    26
 72
    25
 73
    24
  0
VERTEX
  5
65C
  8
0
 62
     9
 10
0.0
 20
0.0
 30
0.0
 70
   128
 71
    24
 72
    27
 73
    26
  0
VERTEX
  5
65D
  8
0
 62
     9
 10
0.0
 20
0.0
 30
0.0
 70
   128
 71
    28
 72
    25
 73
    26
  0
VERTEX
  5
65E
  8
0
 62
     9
 10
0.0
 20
0.0
 30
0.0
 70
   128
 71
    27
 72
    29
 73
    26
  0
VERTEX
  5
65F
  8
0
 62
     9
 10
0.0
 20
0.0
 30
0.0
 70
   128
 71
    29
 72
    30
 73
    28
  0
VERTEX
  5
660
  8
0
 62
     9
 10
0.0
 20
0.0
 30
0.0
 70
   128
 71
    31
 72
    27
 73
    29
  0
VERTEX
  5
661
  8
0
 62
     9
 10
0.0
 20
0.0
 30
0.0
 70
   128
 71
    26
 72
    29
 73
    28
  0
VERTEX
  5
662
  8
0
 62
     9
 10
0.0
 20
0.0
 30
0.0
 70
   128
 71
    31
 72
    27
 73
    32
  0
VERTEX
  5
663
  8
0
 62
     9
 10
0.0
 20
0.0
 30
0.0
 70
   128
 71
    29
 72
    31
 73
    26
  0
VERTEX
  5
664
  8
0
 62
     9
 10
0.0
 20
0.0
 30
0.0
 70
   128
 71
    27
 72
    31
 73
    32
  0
VERTEX
  5
665
  8
0
 62
     9
 10
0.0
 20
0.0
 30
0.0
 70
   128
 71
    31
 72
    27
 73
    26
  0
VERTEX
  5
666
  8
0
 62
     9
 10
0.0
 20
0.0
 30
0.0
 70
   128
 71
    28
 72
    29
 73
    26
  0
VERTEX
  5
667
  8
0
 62
     9
 10
0.0
 20
0.0
 30
0.0
 70
   128
 71
    30
 72
    29
 73
    28
  0
VERTEX
  5
668
  8
0
 62
     9
 10
0.0
 20
0.0
 30
0.0
 70
   128
 71
    33
 72
    19
 73
    14
  0
VERTEX
  5
669
  8
0
 62
     9
 10
0.0
 20
0.0
 30
0.0
 70
   128
 71
    23
 72
    34
 73
     3
  0
VERTEX
  5
66A
  8
0
 62
     9
 10
0.0
 20
0.0
 30
0.0
 70
   128
 71
     3
 72
    20
 73
    23
  0
VERTEX
  5
66B
  8
0
 62
     9
 10
0.0
 20
0.0
 30
0.0
 70
   128
 71
    34
 72
    21
 73
    35
  0
VERTEX
  5
66C
  8
0
 62
     9
 10
0.0
 20
0.0
 30
0.0
 70
   128
 71
     3
 72
    34
 73
     8
  0
VERTEX
  5
66D
  8
0
 62
     9
 10
0.0
 20
0.0
 30
0.0
 70
   128
 71
    22
 72
    35
 73
    21
  0
VERTEX
  5
66E
  8
0
 62
     9
 10
0.0
 20
0.0
 30
0.0
 70
   128
 71
    34
 72
    23
 73
    21
  0
VERTEX
  5
66F
  8
0
 62
     9
 10
0.0
 20
0.0
 30
0.0
 70
   128
 71
    22
 72
    33
 73
    35
  0
VERTEX
  5
670
  8
0
 62
     9
 10
0.0
 20
0.0
 30
0.0
 70
   128
 71
    33
 72
    37
 73
    36
  0
VERTEX
  5
671
  8
0
 62
     9
 10
0.0
 20
0.0
 30
0.0
 70
   128
 71
    22
 72
    19
 73
    33
  0
VERTEX
  5
672
  8
0
 62
     9
 10
0.0
 20
0.0
 30
0.0
 70
   128
 71
    37
 72
    14
 73
    15
  0
VERTEX
  5
673
  8
0
 62
     9
 10
0.0
 20
0.0
 30
0.0
 70
   128
 71
    33
 72
    14
 73
    37
  0
VERTEX
  5
674
  8
0
 62
     9
 10
0.0
 20
0.0
 30
0.0
 70
   128
 71
    38
 72
    35
 73
    36
  0
VERTEX
  5
675
  8
0
 62
     9
 10
0.0
 20
0.0
 30
0.0
 70
   128
 71
    35
 72
    33
 73
    36
  0
VERTEX
  5
676
  8
0
 62
     9
 10
0.0
 20
0.0
 30
0.0
 70
   128
 71
    38
 72
    39
 73
    34
  0
VERTEX
  5
677
  8
0
 62
     9
 10
0.0
 20
0.0
 30
0.0
 70
   128
 71
    34
 72
    35
 73
    38
  0
VERTEX
  5
678
  8
0
 62
     9
 10
0.0
 20
0.0
 30
0.0
 70
   128
 71
    39
 72
     8
 73
    34
  0
VERTEX
  5
679
  8
0
 62
     9
 10
0.0
 20
0.0
 30
0.0
 70
   128
 71
    10
 72
     7
 73
    24
  0
VERTEX
  5
67A
  8
0
 62
     9
 10
0.0
 20
0.0
 30
0.0
 70
   128
 71
    28
 72
    16
 73
    25
  0
VERTEX
  5
67B
  8
0
 62
     9
 10
0.0
 20
0.0
 30
0.0
 70
   128
 71
    26
 72
    36
 73
    37
  0
VERTEX
  5
67C
  8
0
 62
     9
 10
0.0
 20
0.0
 30
0.0
 70
   128
 71
     8
 72
    39
 73
    27
  0
VERTEX
  5
67D
  8
0
 62
     9
 10
0.0
 20
0.0
 30
0.0
 70
   128
 71
    27
 72
    38
 73
    26
  0
VERTEX
  5
67E
  8
0
 62
     9
 10
0.0
 20
0.0
 30
0.0
 70
   128
 71
     2
 72
    27
 73
    24
  0
VERTEX
  5
67F
  8
0
 62
     9
 10
0.0
 20
0.0
 30
0.0
 70
   128
 71
    27
 72
     2
 73
     8
  0
VERTEX
  5
680
  8
0
 62
     9
 10
0.0
 20
0.0
 30
0.0
 70
   128
 71
     7
 72
     1
 73
    24
  0
VERTEX
  5
681
  8
0
 62
     9
 10
0.0
 20
0.0
 30
0.0
 70
   128
 71
     1
 72
     2
 73
    24
  0
VERTEX
  5
682
  8
0
 62
     9
 10
0.0
 20
0.0
 30
0.0
 70
   128
 71
     9
 72
    24
 73
    25
  0
VERTEX
  5
683
  8
0
 62
     9
 10
0.0
 20
0.0
 30
0.0
 70
   128
 71
    24
 72
     9
 73
    10
  0
VERTEX
  5
684
  8
0
 62
     9
 10
0.0
 20
0.0
 30
0.0
 70
   128
 71
    18
 72
    25
 73
    17
  0
VERTEX
  5
685
  8
0
 62
     9
 10
0.0
 20
0.0
 30
0.0
 70
   128
 71
    18
 72
     9
 73
    25
  0
VERTEX
  5
686
  8
0
 62
     9
 10
0.0
 20
0.0
 30
0.0
 70
   128
 71
    16
 72
    17
 73
    25
  0
VERTEX
  5
687
  8
0
 62
     9
 10
0.0
 20
0.0
 30
0.0
 70
   128
 71
    16
 72
    28
 73
    15
  0
VERTEX
  5
688
  8
0
 62
     9
 10
0.0
 20
0.0
 30
0.0
 70
   128
 71
    37
 72
    28
 73
    26
  0
VERTEX
  5
689
  8
0
 62
     9
 10
0.0
 20
0.0
 30
0.0
 70
   128
 71
    37
 72
    15
 73
    28
  0
VERTEX
  5
68A
  8
0
 62
     9
 10
0.0
 20
0.0
 30
0.0
 70
   128
 71
    39
 72
    38
 73
    27
  0
VERTEX
  5
68B
  8
0
 62
     9
 10
0.0
 20
0.0
 30
0.0
 70
   128
 71
    38
 72
    36
 73
    26
  0
SEQEND
  5
68C
  8
0
 62
     9
  0
ENDBLK
  5
68F
  8
0
  0
BLOCK
  8
0
  2
081107_GTM1000C_HANDLES_UP
 70
     0
 10
0.0
 20
0.0
 30
0.0
  3
081107_GTM1000C_HANDLES_UP
  1

  0
POLYLINE
  5
691
  8
0
 62
   131
 66
     1
 10
0.0
 20
0.0
 30
0.0
 70
    64
 71
    61
 72
    88
  0
VERTEX
  5
692
  8
0
 10
73.40239715576172
 20
7.447924613952637
 30
-62.15102386474609
 70
   192
  0
VERTEX
  5
693
  8
0
 10
73.62848663330078
 20
2.560198307037354
 30
-50.75725936889648
 70
   192
  0
VERTEX
  5
694
  8
0
 10
73.40239715576172
 20
2.608904838562012
 30
-63.16347122192383
 70
   192
  0
VERTEX
  5
695
  8
0
 10
73.62848663330078
 20
5.162769794464111
 30
-49.88887405395508
 70
   192
  0
VERTEX
  5
696
  8
0
 10
73.62848663330078
 20
7.596841812133789
 30
-48.39450836181641
 70
   192
  0
VERTEX
  5
697
  8
0
 10
73.703857421875
 20
-0.0000199973255803
 30
-38.75001907348633
 70
   192
  0
VERTEX
  5
698
  8
0
 10
73.62848663330078
 20
9.644469261169434
 30
-46.34688186645508
 70
   192
  0
VERTEX
  5
699
  8
0
 10
73.40239715576172
 20
20.0319995880127
 30
-52.94691848754883
 70
   192
  0
VERTEX
  5
69A
  8
0
 10
73.62848663330078
 20
11.13883495330811
 30
-43.91280746459961
 70
   192
  0
VERTEX
  5
69B
  8
0
 10
73.40239715576172
 20
12.14973258972168
 30
-60.06679916381836
 70
   192
  0
VERTEX
  5
69C
  8
0
 10
73.40239715576172
 20
24.55243492126465
 30
-38.75001907348633
 70
   192
  0
VERTEX
  5
69D
  8
0
 10
73.62848663330078
 20
12.27713298797607
 30
-38.75001907348633
 70
   192
  0
VERTEX
  5
69E
  8
0
 10
73.62848663330078
 20
12.00721836090088
 30
-41.31023788452148
 70
   192
  0
VERTEX
  5
69F
  8
0
 10
73.62931823730469
 20
-0.0000199973255803
 30
-50.95931243896484
 70
   192
  0
VERTEX
  5
6A0
  8
0
 10
73.40239715576172
 20
24.09553337097168
 30
-43.49644088745117
 70
   192
  0
VERTEX
  5
6A1
  8
0
 10
73.40489196777344
 20
1.303323864936829
 30
-63.16595458984375
 70
   192
  0
VERTEX
  5
6A2
  8
0
 10
73.40572357177734
 20
-0.0000199973255803
 30
-63.16679382324219
 70
   192
  0
VERTEX
  5
6A3
  8
0
 10
73.40239715576172
 20
16.46424674987793
 30
-56.95060729980469
 70
   192
  0
VERTEX
  5
6A4
  8
0
 10
73.40239715576172
 20
22.60835456848145
 30
-48.34265518188477
 70
   192
  0
VERTEX
  5
6A5
  8
0
 10
73.62848663330078
 20
-9.644509315490723
 30
-46.34688186645508
 70
   192
  0
VERTEX
  5
6A6
  8
0
 10
73.62848663330078
 20
-11.13887500762939
 30
-43.91280746459961
 70
   192
  0
VERTEX
  5
6A7
  8
0
 10
73.40239715576172
 20
-20.06084442138672
 30
-52.88170623779297
 70
   192
  0
VERTEX
  5
6A8
  8
0
 10
73.40239715576172
 20
-2.608944892883301
 30
-63.16347122192383
 70
   192
  0
VERTEX
  5
6A9
  8
0
 10
73.40489196777344
 20
-1.303363919258118
 30
-63.16595458984375
 70
   192
  0
VERTEX
  5
6AA
  8
0
 10
73.62848663330078
 20
-12.00725841522217
 30
-41.31023788452148
 70
   192
  0
VERTEX
  5
6AB
  8
0
 10
73.62848663330078
 20
-12.27717304229736
 30
-38.75001907348633
 70
   192
  0
VERTEX
  5
6AC
  8
0
 10
73.40239715576172
 20
-24.09557342529297
 30
-43.49644088745117
 70
   192
  0
VERTEX
  5
6AD
  8
0
 10
73.40239715576172
 20
-22.60432815551758
 30
-48.28766250610352
 70
   192
  0
VERTEX
  5
6AE
  8
0
 10
73.62848663330078
 20
-2.560238361358643
 30
-50.75725936889648
 70
   192
  0
VERTEX
  5
6AF
  8
0
 10
73.40239715576172
 20
-24.55247497558594
 30
-38.75001907348633
 70
   192
  0
VERTEX
  5
6B0
  8
0
 10
73.62848663330078
 20
-5.1628098487854
 30
-49.88887405395508
 70
   192
  0
VERTEX
  5
6B1
  8
0
 10
73.62848663330078
 20
-7.596881866455078
 30
-48.39450836181641
 70
   192
  0
VERTEX
  5
6B2
  8
0
 10
73.40239715576172
 20
-12.20660877227783
 30
-60.0577507019043
 70
   192
  0
VERTEX
  5
6B3
  8
0
 10
73.40239715576172
 20
-16.52167892456055
 30
-56.90657043457031
 70
   192
  0
VERTEX
  5
6B4
  8
0
 10
73.40239715576172
 20
-7.447964191436768
 30
-62.15102386474609
 70
   192
  0
VERTEX
  5
6B5
  8
0
 10
73.62848663330078
 20
-2.560238361358643
 30
-26.7427806854248
 70
   192
  0
VERTEX
  5
6B6
  8
0
 10
73.62848663330078
 20
-5.1628098487854
 30
-27.61116409301758
 70
   192
  0
VERTEX
  5
6B7
  8
0
 10
73.62848663330078
 20
-7.596881866455078
 30
-29.10552978515625
 70
   192
  0
VERTEX
  5
6B8
  8
0
 10
73.40239715576172
 20
-19.28754425048828
 30
-23.55744171142578
 70
   192
  0
VERTEX
  5
6B9
  8
0
 10
73.40239715576172
 20
-15.19259834289551
 30
-19.46249580383301
 70
   192
  0
VERTEX
  5
6BA
  8
0
 10
73.62848663330078
 20
-12.00725841522217
 30
-36.18980026245117
 70
   192
  0
VERTEX
  5
6BB
  8
0
 10
73.40239715576172
 20
-24.01268577575684
 30
-33.62997055053711
 70
   192
  0
VERTEX
  5
6BC
  8
0
 10
73.62848663330078
 20
-9.644509315490723
 30
-31.15315818786621
 70
   192
  0
VERTEX
  5
6BD
  8
0
 10
73.40239715576172
 20
-22.27605056762695
 30
-28.42521858215332
 70
   192
  0
VERTEX
  5
6BE
  8
0
 10
73.62848663330078
 20
-11.13887500762939
 30
-33.58723068237305
 70
   192
  0
VERTEX
  5
6BF
  8
0
 10
73.62848663330078
 20
-0.0000199973255803
 30
-26.47286605834961
 70
   192
  0
VERTEX
  5
6C0
  8
0
 10
73.40239715576172
 20
-5.120070457458496
 30
-14.73735332489014
 70
   192
  0
VERTEX
  5
6C1
  8
0
 10
73.40239715576172
 20
-0.0000199973255803
 30
-14.19756412506104
 70
   192
  0
VERTEX
  5
6C2
  8
0
 10
73.40239715576172
 20
-10.32482147216797
 30
-16.47398948669434
 70
   192
  0
VERTEX
  5
6C3
  8
0
 10
73.62848663330078
 20
12.00721836090088
 30
-36.18980026245117
 70
   192
  0
VERTEX
  5
6C4
  8
0
 10
73.40239715576172
 20
24.01264572143555
 30
-33.62997055053711
 70
   192
  0
VERTEX
  5
6C5
  8
0
 10
73.40239715576172
 20
22.27601051330566
 30
-28.42521858215332
 70
   192
  0
VERTEX
  5
6C6
  8
0
 10
73.40239715576172
 20
19.28750419616699
 30
-23.55744171142578
 70
   192
  0
VERTEX
  5
6C7
  8
0
 10
73.62848663330078
 20
11.13883495330811
 30
-33.58723068237305
 70
   192
  0
VERTEX
  5
6C8
  8
0
 10
73.62848663330078
 20
5.162769794464111
 30
-27.61116409301758
 70
   192
  0
VERTEX
  5
6C9
  8
0
 10
73.62848663330078
 20
7.596841812133789
 30
-29.10552978515625
 70
   192
  0
VERTEX
  5
6CA
  8
0
 10
73.40239715576172
 20
5.120030879974365
 30
-14.73735332489014
 70
   192
  0
VERTEX
  5
6CB
  8
0
 10
73.62848663330078
 20
2.560198307037354
 30
-26.7427806854248
 70
   192
  0
VERTEX
  5
6CC
  8
0
 10
73.40239715576172
 20
15.19255828857422
 30
-19.46249580383301
 70
   192
  0
VERTEX
  5
6CD
  8
0
 10
73.62848663330078
 20
9.644469261169434
 30
-31.15315818786621
 70
   192
  0
VERTEX
  5
6CE
  8
0
 10
73.40239715576172
 20
10.32478141784668
 30
-16.47398948669434
 70
   192
  0
VERTEX
  5
6CF
  8
0
 62
   131
 10
0.0
 20
0.0
 30
0.0
 70
   128
 71
     3
 72
     2
 73
     1
  0
VERTEX
  5
6D0
  8
0
 62
   131
 10
0.0
 20
0.0
 30
0.0
 70
   128
 71
     6
 72
     5
 73
     4
  0
VERTEX
  5
6D1
  8
0
 62
   131
 10
0.0
 20
0.0
 30
0.0
 70
   128
 71
     6
 72
     4
 73
     2
  0
VERTEX
  5
6D2
  8
0
 62
   131
 10
0.0
 20
0.0
 30
0.0
 70
   128
 71
     9
 72
     8
 73
     7
  0
VERTEX
  5
6D3
  8
0
 62
   131
 10
0.0
 20
0.0
 30
0.0
 70
   128
 71
     4
 72
     5
 73
    10
  0
VERTEX
  5
6D4
  8
0
 62
   131
 10
0.0
 20
0.0
 30
0.0
 70
   128
 71
    13
 72
    12
 73
    11
  0
VERTEX
  5
6D5
  8
0
 62
   131
 10
0.0
 20
0.0
 30
0.0
 70
   128
 71
     2
 72
    14
 73
     6
  0
VERTEX
  5
6D6
  8
0
 62
   131
 10
0.0
 20
0.0
 30
0.0
 70
   128
 71
    15
 72
    13
 73
    11
  0
VERTEX
  5
6D7
  8
0
 62
   131
 10
0.0
 20
0.0
 30
0.0
 70
   128
 71
    14
 72
     2
 73
     3
  0
VERTEX
  5
6D8
  8
0
 62
   131
 10
0.0
 20
0.0
 30
0.0
 70
   128
 71
    16
 72
    14
 73
     3
  0
VERTEX
  5
6D9
  8
0
 62
   131
 10
0.0
 20
0.0
 30
0.0
 70
   128
 71
    16
 72
    17
 73
    14
  0
VERTEX
  5
6DA
  8
0
 62
   131
 10
0.0
 20
0.0
 30
0.0
 70
   128
 71
     1
 72
     4
 73
    10
  0
VERTEX
  5
6DB
  8
0
 62
   131
 10
0.0
 20
0.0
 30
0.0
 70
   128
 71
     5
 72
    18
 73
    10
  0
VERTEX
  5
6DC
  8
0
 62
   131
 10
0.0
 20
0.0
 30
0.0
 70
   128
 71
     1
 72
     2
 73
     4
  0
VERTEX
  5
6DD
  8
0
 62
   131
 10
0.0
 20
0.0
 30
0.0
 70
   128
 71
     7
 72
     8
 73
    18
  0
VERTEX
  5
6DE
  8
0
 62
   131
 10
0.0
 20
0.0
 30
0.0
 70
   128
 71
     9
 72
    19
 73
     8
  0
VERTEX
  5
6DF
  8
0
 62
   131
 10
0.0
 20
0.0
 30
0.0
 70
   128
 71
     6
 72
     7
 73
     5
  0
VERTEX
  5
6E0
  8
0
 62
   131
 10
0.0
 20
0.0
 30
0.0
 70
   128
 71
    18
 72
     5
 73
     7
  0
VERTEX
  5
6E1
  8
0
 62
   131
 10
0.0
 20
0.0
 30
0.0
 70
   128
 71
    19
 72
    13
 73
    15
  0
VERTEX
  5
6E2
  8
0
 62
   131
 10
0.0
 20
0.0
 30
0.0
 70
   128
 71
     9
 72
     6
 73
    13
  0
VERTEX
  5
6E3
  8
0
 62
   131
 10
0.0
 20
0.0
 30
0.0
 70
   128
 71
     9
 72
     7
 73
     6
  0
VERTEX
  5
6E4
  8
0
 62
   131
 10
0.0
 20
0.0
 30
0.0
 70
   128
 71
    19
 72
     9
 73
    13
  0
VERTEX
  5
6E5
  8
0
 62
   131
 10
0.0
 20
0.0
 30
0.0
 70
   128
 71
    13
 72
     6
 73
    12
  0
VERTEX
  5
6E6
  8
0
 62
   131
 10
0.0
 20
0.0
 30
0.0
 70
   128
 71
    22
 72
    21
 73
    20
  0
VERTEX
  5
6E7
  8
0
 62
   131
 10
0.0
 20
0.0
 30
0.0
 70
   128
 71
    14
 72
    24
 73
    23
  0
VERTEX
  5
6E8
  8
0
 62
   131
 10
0.0
 20
0.0
 30
0.0
 70
   128
 71
    27
 72
    26
 73
    25
  0
VERTEX
  5
6E9
  8
0
 62
   131
 10
0.0
 20
0.0
 30
0.0
 70
   128
 71
    14
 72
    17
 73
    24
  0
VERTEX
  5
6EA
  8
0
 62
   131
 10
0.0
 20
0.0
 30
0.0
 70
   128
 71
    25
 72
    28
 73
    27
  0
VERTEX
  5
6EB
  8
0
 62
   131
 10
0.0
 20
0.0
 30
0.0
 70
   128
 71
    14
 72
    29
 73
     6
  0
VERTEX
  5
6EC
  8
0
 62
   131
 10
0.0
 20
0.0
 30
0.0
 70
   128
 71
     6
 72
    25
 73
    26
  0
VERTEX
  5
6ED
  8
0
 62
   131
 10
0.0
 20
0.0
 30
0.0
 70
   128
 71
    27
 72
    30
 73
    26
  0
VERTEX
  5
6EE
  8
0
 62
   131
 10
0.0
 20
0.0
 30
0.0
 70
   128
 71
    25
 72
     6
 73
    21
  0
VERTEX
  5
6EF
  8
0
 62
   131
 10
0.0
 20
0.0
 30
0.0
 70
   128
 71
     6
 72
    20
 73
    21
  0
VERTEX
  5
6F0
  8
0
 62
   131
 10
0.0
 20
0.0
 30
0.0
 70
   128
 71
    31
 72
     6
 73
    29
  0
VERTEX
  5
6F1
  8
0
 62
   131
 10
0.0
 20
0.0
 30
0.0
 70
   128
 71
    33
 72
    32
 73
    31
  0
VERTEX
  5
6F2
  8
0
 62
   131
 10
0.0
 20
0.0
 30
0.0
 70
   128
 71
    28
 72
    21
 73
    22
  0
VERTEX
  5
6F3
  8
0
 62
   131
 10
0.0
 20
0.0
 30
0.0
 70
   128
 71
    20
 72
    34
 73
    22
  0
VERTEX
  5
6F4
  8
0
 62
   131
 10
0.0
 20
0.0
 30
0.0
 70
   128
 71
    28
 72
    25
 73
    21
  0
VERTEX
  5
6F5
  8
0
 62
   131
 10
0.0
 20
0.0
 30
0.0
 70
   128
 71
    32
 72
    33
 73
    34
  0
VERTEX
  5
6F6
  8
0
 62
   131
 10
0.0
 20
0.0
 30
0.0
 70
   128
 71
     6
 72
    32
 73
    20
  0
VERTEX
  5
6F7
  8
0
 62
   131
 10
0.0
 20
0.0
 30
0.0
 70
   128
 71
    20
 72
    32
 73
    34
  0
VERTEX
  5
6F8
  8
0
 62
   131
 10
0.0
 20
0.0
 30
0.0
 70
   128
 71
    35
 72
    33
 73
    31
  0
VERTEX
  5
6F9
  8
0
 62
   131
 10
0.0
 20
0.0
 30
0.0
 70
   128
 71
    29
 72
    23
 73
    35
  0
VERTEX
  5
6FA
  8
0
 62
   131
 10
0.0
 20
0.0
 30
0.0
 70
   128
 71
    31
 72
    32
 73
     6
  0
VERTEX
  5
6FB
  8
0
 62
   131
 10
0.0
 20
0.0
 30
0.0
 70
   128
 71
    31
 72
    29
 73
    35
  0
VERTEX
  5
6FC
  8
0
 62
   131
 10
0.0
 20
0.0
 30
0.0
 70
   128
 71
    29
 72
    14
 73
    23
  0
VERTEX
  5
6FD
  8
0
 62
   131
 10
0.0
 20
0.0
 30
0.0
 70
   128
 71
    37
 72
    36
 73
     6
  0
VERTEX
  5
6FE
  8
0
 62
   131
 10
0.0
 20
0.0
 30
0.0
 70
   128
 71
     6
 72
    38
 73
    37
  0
VERTEX
  5
6FF
  8
0
 62
   131
 10
0.0
 20
0.0
 30
0.0
 70
   128
 71
    40
 72
    38
 73
    39
  0
VERTEX
  5
700
  8
0
 62
   131
 10
0.0
 20
0.0
 30
0.0
 70
   128
 71
    42
 72
    41
 73
    30
  0
VERTEX
  5
701
  8
0
 62
   131
 10
0.0
 20
0.0
 30
0.0
 70
   128
 71
    45
 72
    44
 73
    43
  0
VERTEX
  5
702
  8
0
 62
   131
 10
0.0
 20
0.0
 30
0.0
 70
   128
 71
    36
 72
    46
 73
     6
  0
VERTEX
  5
703
  8
0
 62
   131
 10
0.0
 20
0.0
 30
0.0
 70
   128
 71
    41
 72
    26
 73
    30
  0
VERTEX
  5
704
  8
0
 62
   131
 10
0.0
 20
0.0
 30
0.0
 70
   128
 71
    48
 72
    46
 73
    47
  0
VERTEX
  5
705
  8
0
 62
   131
 10
0.0
 20
0.0
 30
0.0
 70
   128
 71
    49
 72
    47
 73
    36
  0
VERTEX
  5
706
  8
0
 62
   131
 10
0.0
 20
0.0
 30
0.0
 70
   128
 71
    49
 72
    37
 73
    40
  0
VERTEX
  5
707
  8
0
 62
   131
 10
0.0
 20
0.0
 30
0.0
 70
   128
 71
    46
 72
    36
 73
    47
  0
VERTEX
  5
708
  8
0
 62
   131
 10
0.0
 20
0.0
 30
0.0
 70
   128
 71
    49
 72
    36
 73
    37
  0
VERTEX
  5
709
  8
0
 62
   131
 10
0.0
 20
0.0
 30
0.0
 70
   128
 71
    40
 72
    37
 73
    38
  0
VERTEX
  5
70A
  8
0
 62
   131
 10
0.0
 20
0.0
 30
0.0
 70
   128
 71
    44
 72
    39
 73
    43
  0
VERTEX
  5
70B
  8
0
 62
   131
 10
0.0
 20
0.0
 30
0.0
 70
   128
 71
     6
 72
    43
 73
    38
  0
VERTEX
  5
70C
  8
0
 62
   131
 10
0.0
 20
0.0
 30
0.0
 70
   128
 71
    38
 72
    43
 73
    39
  0
VERTEX
  5
70D
  8
0
 62
   131
 10
0.0
 20
0.0
 30
0.0
 70
   128
 71
    42
 72
    44
 73
    45
  0
VERTEX
  5
70E
  8
0
 62
   131
 10
0.0
 20
0.0
 30
0.0
 70
   128
 71
    45
 72
     6
 73
    41
  0
VERTEX
  5
70F
  8
0
 62
   131
 10
0.0
 20
0.0
 30
0.0
 70
   128
 71
    45
 72
    43
 73
     6
  0
VERTEX
  5
710
  8
0
 62
   131
 10
0.0
 20
0.0
 30
0.0
 70
   128
 71
    45
 72
    41
 73
    42
  0
VERTEX
  5
711
  8
0
 62
   131
 10
0.0
 20
0.0
 30
0.0
 70
   128
 71
    41
 72
     6
 73
    26
  0
VERTEX
  5
712
  8
0
 62
   131
 10
0.0
 20
0.0
 30
0.0
 70
   128
 71
    52
 72
    51
 73
    50
  0
VERTEX
  5
713
  8
0
 62
   131
 10
0.0
 20
0.0
 30
0.0
 70
   128
 71
    54
 72
    53
 73
    52
  0
VERTEX
  5
714
  8
0
 62
   131
 10
0.0
 20
0.0
 30
0.0
 70
   128
 71
    12
 72
    50
 73
    51
  0
VERTEX
  5
715
  8
0
 62
   131
 10
0.0
 20
0.0
 30
0.0
 70
   128
 71
    51
 72
    11
 73
    12
  0
VERTEX
  5
716
  8
0
 62
   131
 10
0.0
 20
0.0
 30
0.0
 70
   128
 71
    50
 72
    54
 73
    52
  0
VERTEX
  5
717
  8
0
 62
   131
 10
0.0
 20
0.0
 30
0.0
 70
   128
 71
    56
 72
     6
 73
    55
  0
VERTEX
  5
718
  8
0
 62
   131
 10
0.0
 20
0.0
 30
0.0
 70
   128
 71
    58
 72
    48
 73
    57
  0
VERTEX
  5
719
  8
0
 62
   131
 10
0.0
 20
0.0
 30
0.0
 70
   128
 71
    48
 72
    58
 73
    46
  0
VERTEX
  5
71A
  8
0
 62
   131
 10
0.0
 20
0.0
 30
0.0
 70
   128
 71
    54
 72
    50
 73
     6
  0
VERTEX
  5
71B
  8
0
 62
   131
 10
0.0
 20
0.0
 30
0.0
 70
   128
 71
    60
 72
    56
 73
    59
  0
VERTEX
  5
71C
  8
0
 62
   131
 10
0.0
 20
0.0
 30
0.0
 70
   128
 71
    50
 72
    12
 73
     6
  0
VERTEX
  5
71D
  8
0
 62
   131
 10
0.0
 20
0.0
 30
0.0
 70
   128
 71
    60
 72
    59
 73
    53
  0
VERTEX
  5
71E
  8
0
 62
   131
 10
0.0
 20
0.0
 30
0.0
 70
   128
 71
    56
 72
    60
 73
     6
  0
VERTEX
  5
71F
  8
0
 62
   131
 10
0.0
 20
0.0
 30
0.0
 70
   128
 71
     6
 72
    60
 73
    54
  0
VERTEX
  5
720
  8
0
 62
   131
 10
0.0
 20
0.0
 30
0.0
 70
   128
 71
    54
 72
    60
 73
    53
  0
VERTEX
  5
721
  8
0
 62
   131
 10
0.0
 20
0.0
 30
0.0
 70
   128
 71
    61
 72
    59
 73
    56
  0
VERTEX
  5
722
  8
0
 62
   131
 10
0.0
 20
0.0
 30
0.0
 70
   128
 71
    57
 72
    61
 73
    55
  0
VERTEX
  5
723
  8
0
 62
   131
 10
0.0
 20
0.0
 30
0.0
 70
   128
 71
    61
 72
    56
 73
    55
  0
VERTEX
  5
724
  8
0
 62
   131
 10
0.0
 20
0.0
 30
0.0
 70
   128
 71
    57
 72
    55
 73
    58
  0
VERTEX
  5
725
  8
0
 62
   131
 10
0.0
 20
0.0
 30
0.0
 70
   128
 71
    58
 72
     6
 73
    46
  0
VERTEX
  5
726
  8
0
 62
   131
 10
0.0
 20
0.0
 30
0.0
 70
   128
 71
    58
 72
    55
 73
     6
  0
SEQEND
  5
727
  8
0
 62
   131
  0
ENDBLK
  5
72A
  8
0
  0
BLOCK
  8
0
  2
42
 70
     0
 10
0.0
 20
0.0
 30
0.0
  3
42
  1

  0
POLYLINE
  5
72C
  8
0
 62
     9
 66
     1
 10
0.0
 20
0.0
 30
0.0
 70
    64
 71
    48
 72
    70
  0
VERTEX
  5
72D
  8
0
 10
0.2858890295028687
 20
0.0000000000000133
 30
-65.0
 70
   192
  0
VERTEX
  5
72E
  8
0
 10
15.80000019073486
 20
-0.0687932670116425
 30
-64.99093627929688
 70
   192
  0
VERTEX
  5
72F
  8
0
 10
15.80000019073486
 20
-6.849675178527832
 30
-64.0783462524414
 70
   192
  0
VERTEX
  5
730
  8
0
 10
15.80000019073486
 20
-13.12710952758789
 30
-61.48194885253906
 70
   192
  0
VERTEX
  5
731
  8
0
 10
0.2858890295028687
 20
-8.513513565063477
 30
-63.58108139038086
 70
   192
  0
VERTEX
  5
732
  8
0
 10
15.80000019073486
 20
-18.59228706359863
 30
-57.27672958374023
 70
   192
  0
VERTEX
  5
733
  8
0
 10
0.2858890295028687
 20
-15.75
 30
-59.75
 70
   192
  0
VERTEX
  5
734
  8
0
 10
0.2858890295028687
 20
-21.0
 30
-54.5
 70
   192
  0
VERTEX
  5
735
  8
0
 10
15.80000019073486
 20
-22.7611141204834
 30
-51.80826187133789
 70
   192
  0
VERTEX
  5
736
  8
0
 10
15.80000019073486
 20
-25.34224700927734
 30
-45.58303070068359
 70
   192
  0
VERTEX
  5
737
  8
0
 10
0.2858890295028687
 20
-24.23077011108398
 30
-48.84615325927734
 70
   192
  0
VERTEX
  5
738
  8
0
 10
15.80000019073486
 20
-26.25
 30
-38.75
 70
   192
  0
VERTEX
  5
739
  8
0
 10
0.2858890295028687
 20
-25.81967163085938
 30
-43.48360824584961
 70
   192
  0
VERTEX
  5
73A
  8
0
 10
0.2858890295028687
 20
-26.25
 30
-38.75
 70
   192
  0
VERTEX
  5
73B
  8
0
 10
0.2858890295028687
 20
8.513513565063477
 30
-63.58108139038086
 70
   192
  0
VERTEX
  5
73C
  8
0
 10
0.2858890295028687
 20
15.75
 30
-59.75
 70
   192
  0
VERTEX
  5
73D
  8
0
 10
15.80000019073486
 20
6.75273609161377
 30
-64.11368560791016
 70
   192
  0
VERTEX
  5
73E
  8
0
 10
15.80000019073486
 20
13.12710952758789
 30
-61.48194885253906
 70
   192
  0
VERTEX
  5
73F
  8
0
 10
0.2858890295028687
 20
21.0
 30
-54.5
 70
   192
  0
VERTEX
  5
740
  8
0
 10
0.2858890295028687
 20
24.23077011108398
 30
-48.84615325927734
 70
   192
  0
VERTEX
  5
741
  8
0
 10
15.80000019073486
 20
18.51333808898926
 30
-57.34312438964844
 70
   192
  0
VERTEX
  5
742
  8
0
 10
0.2858890295028687
 20
25.81967163085938
 30
-43.48360824584961
 70
   192
  0
VERTEX
  5
743
  8
0
 10
15.80000019073486
 20
22.69256210327148
 30
-51.92743682861328
 70
   192
  0
VERTEX
  5
744
  8
0
 10
15.80000019073486
 20
25.34224700927734
 30
-45.58303070068359
 70
   192
  0
VERTEX
  5
745
  8
0
 10
0.2858890295028687
 20
26.25
 30
-38.75
 70
   192
  0
VERTEX
  5
746
  8
0
 10
15.80000019073486
 20
26.25
 30
-38.75
 70
   192
  0
VERTEX
  5
747
  8
0
 10
15.80000019073486
 20
-25.33810234069824
 30
-31.90732765197754
 70
   192
  0
VERTEX
  5
748
  8
0
 10
15.80000019073486
 20
-13.10848808288574
 30
-16.00728416442871
 70
   192
  0
VERTEX
  5
749
  8
0
 10
0.2858890295028687
 20
-21.0
 30
-23.0
 70
   192
  0
VERTEX
  5
74A
  8
0
 10
15.80000019073486
 20
-18.51020431518555
 30
-20.16035079956055
 70
   192
  0
VERTEX
  5
74B
  8
0
 10
15.80000019073486
 20
-22.7019157409668
 30
-25.58033752441406
 70
   192
  0
VERTEX
  5
74C
  8
0
 10
0.2858890295028687
 20
-24.23077011108398
 30
-28.65384674072266
 70
   192
  0
VERTEX
  5
74D
  8
0
 10
0.2858890295028687
 20
-25.81967163085938
 30
-34.01639175415039
 70
   192
  0
VERTEX
  5
74E
  8
0
 10
0.2858890295028687
 20
0.000000000000008
 30
-12.5
 70
   192
  0
VERTEX
  5
74F
  8
0
 10
15.80000019073486
 20
0.0800126045942307
 30
-12.51503276824951
 70
   192
  0
VERTEX
  5
750
  8
0
 10
15.80000019073486
 20
6.856055736541748
 30
-13.41841602325439
 70
   192
  0
VERTEX
  5
751
  8
0
 10
0.2858890295028687
 20
-15.75
 30
-17.75
 70
   192
  0
VERTEX
  5
752
  8
0
 10
15.80000019073486
 20
-6.774279117584229
 30
-13.38809490203857
 70
   192
  0
VERTEX
  5
753
  8
0
 10
0.2858890295028687
 20
-8.513513565063477
 30
-13.91891860961914
 70
   192
  0
VERTEX
  5
754
  8
0
 10
15.80000019073486
 20
18.60002708435059
 30
-20.23467063903809
 70
   192
  0
VERTEX
  5
755
  8
0
 10
15.80000019073486
 20
22.76276016235352
 30
-25.68990135192871
 70
   192
  0
VERTEX
  5
756
  8
0
 10
0.2858890295028687
 20
21.0
 30
-23.0
 70
   192
  0
VERTEX
  5
757
  8
0
 10
15.80000019073486
 20
13.10848808288574
 30
-16.00728416442871
 70
   192
  0
VERTEX
  5
758
  8
0
 10
0.2858890295028687
 20
15.75
 30
-17.75
 70
   192
  0
VERTEX
  5
759
  8
0
 10
0.2858890295028687
 20
8.513513565063477
 30
-13.91891860961914
 70
   192
  0
VERTEX
  5
75A
  8
0
 10
0.2858890295028687
 20
24.23077011108398
 30
-28.65384674072266
 70
   192
  0
VERTEX
  5
75B
  8
0
 10
15.80000019073486
 20
25.33810234069824
 30
-31.90732765197754
 70
   192
  0
VERTEX
  5
75C
  8
0
 10
0.2858890295028687
 20
25.81967163085938
 30
-34.01639175415039
 70
   192
  0
VERTEX
  5
75D
  8
0
 62
     9
 10
0.0
 20
0.0
 30
0.0
 70
   128
 71
     3
 72
     2
 73
     1
  0
VERTEX
  5
75E
  8
0
 62
     9
 10
0.0
 20
0.0
 30
0.0
 70
   128
 71
     3
 72
     5
 73
     4
  0
VERTEX
  5
75F
  8
0
 62
     9
 10
0.0
 20
0.0
 30
0.0
 70
   128
 71
     5
 72
     3
 73
     1
  0
VERTEX
  5
760
  8
0
 62
     9
 10
0.0
 20
0.0
 30
0.0
 70
   128
 71
     7
 72
     6
 73
     4
  0
VERTEX
  5
761
  8
0
 62
     9
 10
0.0
 20
0.0
 30
0.0
 70
   128
 71
     4
 72
     5
 73
     7
  0
VERTEX
  5
762
  8
0
 62
     9
 10
0.0
 20
0.0
 30
0.0
 70
   128
 71
     9
 72
     6
 73
     8
  0
VERTEX
  5
763
  8
0
 62
     9
 10
0.0
 20
0.0
 30
0.0
 70
   128
 71
     7
 72
     8
 73
     6
  0
VERTEX
  5
764
  8
0
 62
     9
 10
0.0
 20
0.0
 30
0.0
 70
   128
 71
     9
 72
    11
 73
    10
  0
VERTEX
  5
765
  8
0
 62
     9
 10
0.0
 20
0.0
 30
0.0
 70
   128
 71
    11
 72
     9
 73
     8
  0
VERTEX
  5
766
  8
0
 62
     9
 10
0.0
 20
0.0
 30
0.0
 70
   128
 71
    13
 72
    12
 73
    10
  0
VERTEX
  5
767
  8
0
 62
     9
 10
0.0
 20
0.0
 30
0.0
 70
   128
 71
    10
 72
    11
 73
    13
  0
VERTEX
  5
768
  8
0
 62
     9
 10
0.0
 20
0.0
 30
0.0
 70
   128
 71
    13
 72
    14
 73
    12
  0
VERTEX
  5
769
  8
0
 62
     9
 10
0.0
 20
0.0
 30
0.0
 70
   128
 71
     1
 72
     2
 73
    15
  0
VERTEX
  5
76A
  8
0
 62
     9
 10
0.0
 20
0.0
 30
0.0
 70
   128
 71
    17
 72
    16
 73
    15
  0
VERTEX
  5
76B
  8
0
 62
     9
 10
0.0
 20
0.0
 30
0.0
 70
   128
 71
    15
 72
     2
 73
    17
  0
VERTEX
  5
76C
  8
0
 62
     9
 10
0.0
 20
0.0
 30
0.0
 70
   128
 71
    19
 72
    16
 73
    18
  0
VERTEX
  5
76D
  8
0
 62
     9
 10
0.0
 20
0.0
 30
0.0
 70
   128
 71
    17
 72
    18
 73
    16
  0
VERTEX
  5
76E
  8
0
 62
     9
 10
0.0
 20
0.0
 30
0.0
 70
   128
 71
    19
 72
    21
 73
    20
  0
VERTEX
  5
76F
  8
0
 62
     9
 10
0.0
 20
0.0
 30
0.0
 70
   128
 71
    21
 72
    19
 73
    18
  0
VERTEX
  5
770
  8
0
 62
     9
 10
0.0
 20
0.0
 30
0.0
 70
   128
 71
    23
 72
    22
 73
    20
  0
VERTEX
  5
771
  8
0
 62
     9
 10
0.0
 20
0.0
 30
0.0
 70
   128
 71
    20
 72
    21
 73
    23
  0
VERTEX
  5
772
  8
0
 62
     9
 10
0.0
 20
0.0
 30
0.0
 70
   128
 71
    25
 72
    22
 73
    24
  0
VERTEX
  5
773
  8
0
 62
     9
 10
0.0
 20
0.0
 30
0.0
 70
   128
 71
    23
 72
    24
 73
    22
  0
VERTEX
  5
774
  8
0
 62
     9
 10
0.0
 20
0.0
 30
0.0
 70
   128
 71
    26
 72
    25
 73
    24
  0
VERTEX
  5
775
  8
0
 62
     9
 10
0.0
 20
0.0
 30
0.0
 70
   128
 71
    12
 72
    14
 73
    27
  0
VERTEX
  5
776
  8
0
 62
     9
 10
0.0
 20
0.0
 30
0.0
 70
   128
 71
    30
 72
    29
 73
    28
  0
VERTEX
  5
777
  8
0
 62
     9
 10
0.0
 20
0.0
 30
0.0
 70
   128
 71
    33
 72
    32
 73
    31
  0
VERTEX
  5
778
  8
0
 62
     9
 10
0.0
 20
0.0
 30
0.0
 70
   128
 71
    36
 72
    35
 73
    34
  0
VERTEX
  5
779
  8
0
 62
     9
 10
0.0
 20
0.0
 30
0.0
 70
   128
 71
    39
 72
    38
 73
    37
  0
VERTEX
  5
77A
  8
0
 62
     9
 10
0.0
 20
0.0
 30
0.0
 70
   128
 71
    42
 72
    41
 73
    40
  0
VERTEX
  5
77B
  8
0
 62
     9
 10
0.0
 20
0.0
 30
0.0
 70
   128
 71
    45
 72
    44
 73
    43
  0
VERTEX
  5
77C
  8
0
 62
     9
 10
0.0
 20
0.0
 30
0.0
 70
   128
 71
    47
 72
    41
 73
    46
  0
VERTEX
  5
77D
  8
0
 62
     9
 10
0.0
 20
0.0
 30
0.0
 70
   128
 71
    42
 72
    46
 73
    41
  0
VERTEX
  5
77E
  8
0
 62
     9
 10
0.0
 20
0.0
 30
0.0
 70
   128
 71
    47
 72
    48
 73
    26
  0
VERTEX
  5
77F
  8
0
 62
     9
 10
0.0
 20
0.0
 30
0.0
 70
   128
 71
    48
 72
    47
 73
    46
  0
VERTEX
  5
780
  8
0
 62
     9
 10
0.0
 20
0.0
 30
0.0
 70
   128
 71
    26
 72
    48
 73
    25
  0
VERTEX
  5
781
  8
0
 62
     9
 10
0.0
 20
0.0
 30
0.0
 70
   128
 71
    44
 72
    40
 73
    43
  0
VERTEX
  5
782
  8
0
 62
     9
 10
0.0
 20
0.0
 30
0.0
 70
   128
 71
    44
 72
    42
 73
    40
  0
VERTEX
  5
783
  8
0
 62
     9
 10
0.0
 20
0.0
 30
0.0
 70
   128
 71
    45
 72
    36
 73
    34
  0
VERTEX
  5
784
  8
0
 62
     9
 10
0.0
 20
0.0
 30
0.0
 70
   128
 71
    45
 72
    43
 73
    36
  0
VERTEX
  5
785
  8
0
 62
     9
 10
0.0
 20
0.0
 30
0.0
 70
   128
 71
    35
 72
    38
 73
    39
  0
VERTEX
  5
786
  8
0
 62
     9
 10
0.0
 20
0.0
 30
0.0
 70
   128
 71
    34
 72
    35
 73
    39
  0
VERTEX
  5
787
  8
0
 62
     9
 10
0.0
 20
0.0
 30
0.0
 70
   128
 71
    28
 72
    29
 73
    37
  0
VERTEX
  5
788
  8
0
 62
     9
 10
0.0
 20
0.0
 30
0.0
 70
   128
 71
    38
 72
    28
 73
    37
  0
VERTEX
  5
789
  8
0
 62
     9
 10
0.0
 20
0.0
 30
0.0
 70
   128
 71
    31
 72
    32
 73
    30
  0
VERTEX
  5
78A
  8
0
 62
     9
 10
0.0
 20
0.0
 30
0.0
 70
   128
 71
    30
 72
    32
 73
    29
  0
VERTEX
  5
78B
  8
0
 62
     9
 10
0.0
 20
0.0
 30
0.0
 70
   128
 71
    14
 72
    33
 73
    27
  0
VERTEX
  5
78C
  8
0
 62
     9
 10
0.0
 20
0.0
 30
0.0
 70
   128
 71
    27
 72
    33
 73
    31
  0
VERTEX
  5
78D
  8
0
 62
     9
 10
0.0
 20
0.0
 30
0.0
 70
   128
 71
    18
 72
    17
 73
    12
  0
VERTEX
  5
78E
  8
0
 62
     9
 10
0.0
 20
0.0
 30
0.0
 70
   128
 71
     3
 72
     4
 73
     6
  0
VERTEX
  5
78F
  8
0
 62
     9
 10
0.0
 20
0.0
 30
0.0
 70
   128
 71
     9
 72
     3
 73
     6
  0
VERTEX
  5
790
  8
0
 62
     9
 10
0.0
 20
0.0
 30
0.0
 70
   128
 71
     9
 72
    10
 73
     2
  0
VERTEX
  5
791
  8
0
 62
     9
 10
0.0
 20
0.0
 30
0.0
 70
   128
 71
     9
 72
     2
 73
     3
  0
VERTEX
  5
792
  8
0
 62
     9
 10
0.0
 20
0.0
 30
0.0
 70
   128
 71
    12
 72
    17
 73
    10
  0
VERTEX
  5
793
  8
0
 62
     9
 10
0.0
 20
0.0
 30
0.0
 70
   128
 71
     2
 72
    10
 73
    17
  0
VERTEX
  5
794
  8
0
 62
     9
 10
0.0
 20
0.0
 30
0.0
 70
   128
 71
    23
 72
    31
 73
    30
  0
VERTEX
  5
795
  8
0
 62
     9
 10
0.0
 20
0.0
 30
0.0
 70
   128
 71
    21
 72
    18
 73
    12
  0
VERTEX
  5
796
  8
0
 62
     9
 10
0.0
 20
0.0
 30
0.0
 70
   128
 71
    28
 72
    26
 73
    30
  0
VERTEX
  5
797
  8
0
 62
     9
 10
0.0
 20
0.0
 30
0.0
 70
   128
 71
    35
 72
    47
 73
    38
  0
VERTEX
  5
798
  8
0
 62
     9
 10
0.0
 20
0.0
 30
0.0
 70
   128
 71
    36
 72
    43
 73
    40
  0
VERTEX
  5
799
  8
0
 62
     9
 10
0.0
 20
0.0
 30
0.0
 70
   128
 71
    35
 72
    40
 73
    41
  0
VERTEX
  5
79A
  8
0
 62
     9
 10
0.0
 20
0.0
 30
0.0
 70
   128
 71
    40
 72
    35
 73
    36
  0
VERTEX
  5
79B
  8
0
 62
     9
 10
0.0
 20
0.0
 30
0.0
 70
   128
 71
    28
 72
    38
 73
    47
  0
VERTEX
  5
79C
  8
0
 62
     9
 10
0.0
 20
0.0
 30
0.0
 70
   128
 71
    47
 72
    35
 73
    41
  0
VERTEX
  5
79D
  8
0
 62
     9
 10
0.0
 20
0.0
 30
0.0
 70
   128
 71
    30
 72
    26
 73
    24
  0
VERTEX
  5
79E
  8
0
 62
     9
 10
0.0
 20
0.0
 30
0.0
 70
   128
 71
    28
 72
    47
 73
    26
  0
VERTEX
  5
79F
  8
0
 62
     9
 10
0.0
 20
0.0
 30
0.0
 70
   128
 71
    23
 72
    21
 73
    31
  0
VERTEX
  5
7A0
  8
0
 62
     9
 10
0.0
 20
0.0
 30
0.0
 70
   128
 71
    24
 72
    23
 73
    30
  0
VERTEX
  5
7A1
  8
0
 62
     9
 10
0.0
 20
0.0
 30
0.0
 70
   128
 71
    27
 72
    21
 73
    12
  0
VERTEX
  5
7A2
  8
0
 62
     9
 10
0.0
 20
0.0
 30
0.0
 70
   128
 71
    21
 72
    27
 73
    31
  0
SEQEND
  5
7A3
  8
0
 62
     9
  0
ENDBLK
  5
7A6
  8
0
  0
ENDSEC
  0
SECTION
  2
ENTITIES
  0
INSERT
  5
2C1
  8
LAYER_1
  2
CNET_SRF
 10
0.0
 20
0.0
 30
0.0
  0
INSERT
  5
614
  8
LAYER_1
  2
CNET_SRF_1_
 10
0.0
 20
0.0
 30
0.0
  0
INSERT
  5
68D
  8
LAYER_1
  2
40
 10
0.0
 20
0.0
 30
0.0
  0
INSERT
  5
728
  8
LAYER_1
  2
081107_GTM1000C_HANDLES_UP
 10
0.0
 20
0.0
 30
0.0
  0
INSERT
  5
7A4
  8
LAYER_1
  2
42
 10
0.0
 20
0.0
 30
0.0
  0
ENDSEC
  0
EOF
