  0
SECTION
  2
HEADER
  9
$ACADVER
  1
AC1015
  9
$ACADMAINTVER
 70
     6
  9
$DWGCODEPAGE
  3
ANSI_1252
  9
$INSBASE
 10
0.0
 20
0.0
 30
0.0
  9
$EXTMIN
 10
0.0
 20
0.0
 30
0.0
  9
$EXTMAX
 10
3000.0
 20
4500.0
 30
0.0
  9
$LIMMIN
 10
0.0
 20
0.0
  9
$LIMMAX
 10
3000.0
 20
4500.0
  9
$ORTHOMODE
 70
     0
  9
$REGENMODE
 70
     1
  9
$FILLMODE
 70
     1
  9
$QTEXTMODE
 70
     0
  9
$MIRRTEXT
 70
     1
  9
$LTSCALE
 40
1.0
  9
$ATTMODE
 70
     1
  9
$TEXTSIZE
 40
2.5
  9
$TRACEWID
 40
1.0
  9
$TEXTSTYLE
  7
Standard
  9
$CLAYER
  8
0
  9
$CELTYPE
  6
ByLayer
  9
$CECOLOR
 62
   256
  9
$CELTSCALE
 40
1.0
  9
$DISPSILH
 70
     0
  9
$DIMSCALE
 40
1.0
  9
$DIMASZ
 40
2.5
  9
$DIMEXO
 40
0.625
  9
$DIMDLI
 40
3.75
  9
$DIMRND
 40
0.0
  9
$DIMDLE
 40
0.0
  9
$DIMEXE
 40
1.25
  9
$DIMTP
 40
0.0
  9
$DIMTM
 40
0.0
  9
$DIMTXT
 40
2.5
  9
$DIMCEN
 40
2.5
  9
$DIMTSZ
 40
0.0
  9
$DIMTOL
 70
     0
  9
$DIMLIM
 70
     0
  9
$DIMTIH
 70
     0
  9
$DIMTOH
 70
     0
  9
$DIMSE1
 70
     0
  9
$DIMSE2
 70
     0
  9
$DIMTAD
 70
     1
  9
$DIMZIN
 70
     8
  9
$DIMBLK
  1

  9
$DIMASO
 70
     1
  9
$DIMSHO
 70
     1
  9
$DIMPOST
  1

  9
$DIMAPOST
  1

  9
$DIMALT
 70
     0
  9
$DIMALTD
 70
     3
  9
$DIMALTF
 40
0.0393700787
  9
$DIMLFAC
 40
1.0
  9
$DIMTOFL
 70
     1
  9
$DIMTVP
 40
0.0
  9
$DIMTIX
 70
     0
  9
$DIMSOXD
 70
     0
  9
$DIMSAH
 70
     0
  9
$DIMBLK1
  1

  9
$DIMBLK2
  1

  9
$DIMSTYLE
  2
ISO-25
  9
$DIMCLRD
 70
     0
  9
$DIMCLRE
 70
     0
  9
$DIMCLRT
 70
     0
  9
$DIMTFAC
 40
1.0
  9
$DIMGAP
 40
0.625
  9
$DIMJUST
 70
     0
  9
$DIMSD1
 70
     0
  9
$DIMSD2
 70
     0
  9
$DIMTOLJ
 70
     0
  9
$DIMTZIN
 70
     8
  9
$DIMALTZ
 70
     0
  9
$DIMALTTZ
 70
     0
  9
$DIMUPT
 70
     0
  9
$DIMDEC
 70
     2
  9
$DIMTDEC
 70
     2
  9
$DIMALTU
 70
     2
  9
$DIMALTTD
 70
     3
  9
$DIMTXSTY
  7
Standard
  9
$DIMAUNIT
 70
     0
  9
$DIMADEC
 70
     0
  9
$DIMALTRND
 40
0.0
  9
$DIMAZIN
 70
     0
  9
$DIMDSEP
 70
    44
  9
$DIMATFIT
 70
     3
  9
$DIMFRAC
 70
     0
  9
$DIMLDRBLK
  1

  9
$DIMLUNIT
 70
     2
  9
$DIMLWD
 70
    -2
  9
$DIMLWE
 70
    -2
  9
$DIMTMOVE
 70
     0
  9
$LUNITS
 70
     2
  9
$LUPREC
 70
     4
  9
$SKETCHINC
 40
1.0
  9
$FILLETRAD
 40
10.0
  9
$AUNITS
 70
     0
  9
$AUPREC
 70
     0
  9
$MENU
  1
.
  9
$ELEVATION
 40
0.0
  9
$PELEVATION
 40
0.0
  9
$THICKNESS
 40
0.0
  9
$LIMCHECK
 70
     0
  9
$CHAMFERA
 40
10.0
  9
$CHAMFERB
 40
10.0
  9
$CHAMFERC
 40
20.0
  9
$CHAMFERD
 40
0.0
  9
$SKPOLY
 70
     0
  9
$TDCREATE
 40
2455985.474444282
  9
$TDUCREATE
 40
2455985.432777616
  9
$TDUPDATE
 40
2455985.474444294
  9
$TDUUPDATE
 40
2455985.432777627
  9
$TDINDWG
 40
0.0000000116
  9
$TDUSRTIMER
 40
0.0000000116
  9
$USRTIMER
 70
     1
  9
$ANGBASE
 50
0.0
  9
$ANGDIR
 70
     0
  9
$PDMODE
 70
     0
  9
$PDSIZE
 40
0.0
  9
$PLINEWID
 40
0.0
  9
$SPLFRAME
 70
     0
  9
$SPLINETYPE
 70
     6
  9
$SPLINESEGS
 70
     8
  9
$HANDSEED
  5
220
  9
$SURFTAB1
 70
     6
  9
$SURFTAB2
 70
     6
  9
$SURFTYPE
 70
     6
  9
$SURFU
 70
     6
  9
$SURFV
 70
     6
  9
$UCSBASE
  2

  9
$UCSNAME
  2

  9
$UCSORG
 10
0.0
 20
0.0
 30
0.0
  9
$UCSXDIR
 10
1.0
 20
0.0
 30
0.0
  9
$UCSYDIR
 10
0.0
 20
1.0
 30
0.0
  9
$UCSORTHOREF
  2

  9
$UCSORTHOVIEW
 70
     0
  9
$UCSORGTOP
 10
0.0
 20
0.0
 30
0.0
  9
$UCSORGBOTTOM
 10
0.0
 20
0.0
 30
0.0
  9
$UCSORGLEFT
 10
0.0
 20
0.0
 30
0.0
  9
$UCSORGRIGHT
 10
0.0
 20
0.0
 30
0.0
  9
$UCSORGFRONT
 10
0.0
 20
0.0
 30
0.0
  9
$UCSORGBACK
 10
0.0
 20
0.0
 30
0.0
  9
$PUCSBASE
  2

  9
$PUCSNAME
  2

  9
$PUCSORG
 10
0.0
 20
0.0
 30
0.0
  9
$PUCSXDIR
 10
1.0
 20
0.0
 30
0.0
  9
$PUCSYDIR
 10
0.0
 20
1.0
 30
0.0
  9
$PUCSORTHOREF
  2

  9
$PUCSORTHOVIEW
 70
     0
  9
$PUCSORGTOP
 10
0.0
 20
0.0
 30
0.0
  9
$PUCSORGBOTTOM
 10
0.0
 20
0.0
 30
0.0
  9
$PUCSORGLEFT
 10
0.0
 20
0.0
 30
0.0
  9
$PUCSORGRIGHT
 10
0.0
 20
0.0
 30
0.0
  9
$PUCSORGFRONT
 10
0.0
 20
0.0
 30
0.0
  9
$PUCSORGBACK
 10
0.0
 20
0.0
 30
0.0
  9
$USERI1
 70
     0
  9
$USERI2
 70
     0
  9
$USERI3
 70
     0
  9
$USERI4
 70
     0
  9
$USERI5
 70
     0
  9
$USERR1
 40
0.0
  9
$USERR2
 40
0.0
  9
$USERR3
 40
0.0
  9
$USERR4
 40
0.0
  9
$USERR5
 40
0.0
  9
$WORLDVIEW
 70
     1
  9
$SHADEDGE
 70
     3
  9
$SHADEDIF
 70
    70
  9
$TILEMODE
 70
     1
  9
$MAXACTVP
 70
    64
  9
$PINSBASE
 10
0.0
 20
0.0
 30
0.0
  9
$PLIMCHECK
 70
     0
  9
$PEXTMIN
 10
0.0
 20
0.0
 30
0.0
  9
$PEXTMAX
 10
3000.0
 20
4500.0
 30
0.0
  9
$PLIMMIN
 10
0.0
 20
0.0
  9
$PLIMMAX
 10
3000.0
 20
4500.0
  9
$UNITMODE
 70
     0
  9
$VISRETAIN
 70
     1
  9
$PLINEGEN
 70
     0
  9
$PSLTSCALE
 70
     1
  9
$TREEDEPTH
 70
  3020
  9
$CMLSTYLE
  2
Standard
  9
$CMLJUST
 70
     0
  9
$CMLSCALE
 40
20.0
  9
$PROXYGRAPHICS
 70
     1
  9
$MEASUREMENT
 70
     1
  9
$CELWEIGHT
370
    -1
  9
$ENDCAPS
280
     0
  9
$JOINSTYLE
280
     0
  9
$LWDISPLAY
290
     0
  9
$INSUNITS
 70
     4
  9
$HYPERLINKBASE
  1

  9
$STYLESHEET
  1

  9
$XEDIT
290
     1
  9
$CEPSNTYPE
380
     0
  9
$PSTYLEMODE
290
     1
  9
$FINGERPRINTGUID
  2
{F52A6A1F-8D45-470B-8F18-A259DC42BA4B}
  9
$VERSIONGUID
  2
{FAEB1C32-E019-11D5-929B-00C0DF256EC4}
  9
$EXTNAMES
290
     1
  9
$PSVPSCALE
 40
0.0
  9
$OLESTARTUP
290
     0
  0
ENDSEC
  0
SECTION
  2
CLASSES
  0
CLASS
  1
ACDBDICTIONARYWDFLT
  2
AcDbDictionaryWithDefault
  3
ObjectDBX Classes
 90
        0
280
     0
281
     0
  0
CLASS
  1
VISUALSTYLE
  2
AcDbVisualStyle
  3
ObjectDBX Classes
 90
     4095
280
     0
281
     0
  0
CLASS
  1
SCALE
  2
AcDbScale
  3
ObjectDBX Classes
 90
     1153
280
     0
281
     0
  0
CLASS
  1
DICTIONARYVAR
  2
AcDbDictionaryVar
  3
ObjectDBX Classes
 90
        0
280
     0
281
     0
  0
CLASS
  1
ACDBPLACEHOLDER
  2
AcDbPlaceHolder
  3
ObjectDBX Classes
 90
        0
280
     0
281
     0
  0
CLASS
  1
LAYOUT
  2
AcDbLayout
  3
ObjectDBX Classes
 90
        0
280
     0
281
     0
  0
ENDSEC
  0
SECTION
  2
TABLES
  0
TABLE
  2
VPORT
  5
8
330
0
100
AcDbSymbolTable
 70
     1
  0
VPORT
  5
29
330
8
100
AcDbSymbolTableRecord
100
AcDbViewportTableRecord
  2
*Active
 70
     0
 10
0.0
 20
0.0
 11
1.0
 21
1.0
 12
344.1869158879
 22
148.5
 13
0.0
 23
0.0
 14
10.0
 24
10.0
 15
10.0
 25
10.0
 16
0.0
 26
0.0
 36
1.0
 17
0.0
 27
0.0
 37
0.0
 40
297.0
 41
1.9729729729
 42
50.0
 43
0.0
 44
0.0
 50
0.0
 51
0.0
 71
     0
 72
   100
 73
     1
 74
     3
 75
     0
 76
     0
 77
     0
 78
     0
281
     0
 65
     1
110
0.0
120
0.0
130
0.0
111
1.0
121
0.0
131
0.0
112
0.0
122
1.0
132
0.0
 79
     0
146
0.0
  0
ENDTAB
  0
TABLE
  2
LTYPE
  5
5
330
0
100
AcDbSymbolTable
 70
     2
  0
LTYPE
  5
14
330
5
100
AcDbSymbolTableRecord
100
AcDbLinetypeTableRecord
  2
ByBlock
 70
     0
  3

 72
    65
 73
     0
 40
0.0
  0
LTYPE
  5
15
330
5
100
AcDbSymbolTableRecord
100
AcDbLinetypeTableRecord
  2
ByLayer
 70
     0
  3

 72
    65
 73
     0
 40
0.0
  0
LTYPE
  5
16
330
5
100
AcDbSymbolTableRecord
100
AcDbLinetypeTableRecord
  2
Continuous
 70
     0
  3
Solid line
 72
    65
 73
     0
 40
0.0
  0
LTYPE
  5
62
330
5
100
AcDbSymbolTableRecord
100
AcDbLinetypeTableRecord
  2
CENTER2
 70
     0
  3
Center (.5x) ___ _ ___ _ ___ _ ___ _ ___ _ ___
 72
    65
 73
     4
 40
28.575
 49
19.05
 74
     4
 75
     0
340
0
 46
0.0
 50
0.0
 44
0.0
 45
0.0
 49
-3.175
 74
     4
 75
     0
340
0
 46
0.0
 50
0.0
 44
0.0
 45
0.0
 49
3.175
 74
     4
 75
     0
340
0
 46
0.0
 50
0.0
 44
0.0
 45
0.0
 49
-3.175
 74
     4
 75
     0
340
0
 46
0.0
 50
0.0
 44
0.0
 45
0.0
  0
ENDTAB
  0
TABLE
  2
LAYER
  5
2
330
0
100
AcDbSymbolTable
 70
    11
  0
LAYER
  5
10
330
2
100
AcDbSymbolTableRecord
100
AcDbLayerTableRecord
  2
0
 70
     0
 62
     7
  6
Continuous
370
    -3
390
F
  0
LAYER
  5
5D
330
2
100
AcDbSymbolTableRecord
100
AcDbLayerTableRecord
  2
Default
 70
     0
 62
     7
  6
Continuous
370
    -3
390
F
  0
LAYER
  5
79
330
2
100
AcDbSymbolTableRecord
100
AcDbLayerTableRecord
  2
$DDT_AUDIT_GENERATED_(79)
 70
     0
 62
     7
  6
Continuous
370
    -3
390
F
  0
LAYER
  5
83
330
2
100
AcDbSymbolTableRecord
100
AcDbLayerTableRecord
  2
$DDT_AUDIT_GENERATED_(83)
 70
     0
 62
     7
  6
Continuous
370
    -3
390
F
  0
LAYER
  5
86
330
2
100
AcDbSymbolTableRecord
100
AcDbLayerTableRecord
  2
$DDT_AUDIT_GENERATED_(86)
 70
     0
 62
     7
  6
Continuous
370
    -3
390
F
  0
LAYER
  5
A7
330
2
100
AcDbSymbolTableRecord
100
AcDbLayerTableRecord
  2
$DDT_AUDIT_GENERATED_(A7)
 70
     0
 62
     7
  6
Continuous
370
    -3
390
F
  0
LAYER
  5
B2
330
2
100
AcDbSymbolTableRecord
100
AcDbLayerTableRecord
  2
$DDT_AUDIT_GENERATED_(B2)
 70
     0
 62
     7
  6
Continuous
370
    -3
390
F
  0
LAYER
  5
C3
330
2
100
AcDbSymbolTableRecord
100
AcDbLayerTableRecord
  2
$DDT_AUDIT_GENERATED_(C3)
 70
     0
 62
     7
  6
Continuous
370
    -3
390
F
  0
LAYER
  5
C8
330
2
100
AcDbSymbolTableRecord
100
AcDbLayerTableRecord
  2
$DDT_AUDIT_GENERATED_(C8)
 70
     0
 62
     7
  6
Continuous
370
    -3
390
F
  0
LAYER
  5
1B1
330
2
100
AcDbSymbolTableRecord
100
AcDbLayerTableRecord
  2
$DDT_AUDIT_GENERATED_(1B1)
 70
     0
 62
     7
  6
Continuous
370
    -3
390
F
  0
LAYER
  5
1BB
330
2
100
AcDbSymbolTableRecord
100
AcDbLayerTableRecord
  2
$DDT_AUDIT_GENERATED_(1BB)
 70
     0
 62
     7
  6
Continuous
370
    -3
390
F
  0
ENDTAB
  0
TABLE
  2
STYLE
  5
3
330
0
100
AcDbSymbolTable
 70
     2
  0
STYLE
  5
11
330
3
100
AcDbSymbolTableRecord
100
AcDbTextStyleTableRecord
  2
Standard
 70
     0
 40
0.0
 41
1.0
 50
0.0
 71
     0
 42
2.5
  3
txt
  4

  0
STYLE
  5
20F
330
3
100
AcDbSymbolTableRecord
100
AcDbTextStyleTableRecord
  2
SEACAD_seiso_ttf
 70
     0
 40
0.0
 41
1.0
 50
0.0
 71
     0
 42
0.2
  3
seiso.ttf
  4

  0
ENDTAB
  0
TABLE
  2
VIEW
  5
6
330
0
100
AcDbSymbolTable
 70
     0
  0
ENDTAB
  0
TABLE
  2
UCS
  5
7
330
0
100
AcDbSymbolTable
 70
     0
  0
ENDTAB
  0
TABLE
  2
APPID
  5
9
330
0
100
AcDbSymbolTable
 70
     1
  0
APPID
  5
12
330
9
100
AcDbSymbolTableRecord
100
AcDbRegAppTableRecord
  2
ACAD
 70
     0
  0
ENDTAB
  0
TABLE
  2
DIMSTYLE
  5
A
330
0
100
AcDbSymbolTable
 70
     1
100
AcDbDimStyleTable
  0
DIMSTYLE
105
27
330
A
100
AcDbSymbolTableRecord
100
AcDbDimStyleTableRecord
  2
ISO-25
 70
     0
 41
2.5
 42
0.625
 43
3.75
 44
1.25
 73
     0
 74
     0
 77
     1
 78
     8
140
2.5
141
2.5
143
0.0393700787
147
0.625
171
     3
172
     1
271
     2
272
     2
274
     3
278
    44
283
     0
284
     8
340
11
  0
ENDTAB
  0
TABLE
  2
BLOCK_RECORD
  5
1
330
0
100
AcDbSymbolTable
 70
     7
  0
BLOCK_RECORD
  5
1F
330
1
100
AcDbSymbolTableRecord
100
AcDbBlockTableRecord
  2
*Model_Space
340
22
  0
BLOCK_RECORD
  5
1B
330
1
100
AcDbSymbolTableRecord
100
AcDbBlockTableRecord
  2
*Paper_Space
340
1E
  0
BLOCK_RECORD
  5
60
330
1
100
AcDbSymbolTableRecord
100
AcDbBlockTableRecord
  2
SEANNOT_GROUP
340
0
102
{BLKREFS
331
61
102
}
  0
BLOCK_RECORD
  5
6B
330
1
100
AcDbSymbolTableRecord
100
AcDbBlockTableRecord
  2
SEANNOT_GROUP1
340
0
102
{BLKREFS
331
6C
102
}
  0
BLOCK_RECORD
  5
71
330
1
100
AcDbSymbolTableRecord
100
AcDbBlockTableRecord
  2
SEANNOT_GROUP2
340
0
102
{BLKREFS
331
72
102
}
  0
BLOCK_RECORD
  5
77
330
1
100
AcDbSymbolTableRecord
100
AcDbBlockTableRecord
  2
SE
340
0
102
{BLKREFS
331
78
102
}
  0
BLOCK_RECORD
  5
182
330
1
100
AcDbSymbolTableRecord
100
AcDbBlockTableRecord
  2
SE1
340
0
102
{BLKREFS
331
183
102
}
  0
BLOCK_RECORD
  5
1C3
330
1
100
AcDbSymbolTableRecord
100
AcDbBlockTableRecord
  2
SE2
340
0
102
{BLKREFS
331
1C4
102
}
  0
ENDTAB
  0
ENDSEC
  0
SECTION
  2
BLOCKS
  0
BLOCK
  5
20
330
1F
100
AcDbEntity
  8
0
100
AcDbBlockBegin
  2
*Model_Space
 70
     0
 10
0.0
 20
0.0
 30
0.0
  3
*Model_Space
  1

  0
ENDBLK
  5
21
330
1F
100
AcDbEntity
  8
0
100
AcDbBlockEnd
  0
BLOCK
  5
1C
330
1B
100
AcDbEntity
 67
     1
  8
0
100
AcDbBlockBegin
  2
*Paper_Space
 70
     0
 10
0.0
 20
0.0
 30
0.0
  3
*Paper_Space
  1

  0
ENDBLK
  5
1D
330
1B
100
AcDbEntity
 67
     1
  8
0
100
AcDbBlockEnd
  0
BLOCK
  5
69
330
60
100
AcDbEntity
  8
0
100
AcDbBlockBegin
  2
SEANNOT_GROUP
 70
     0
 10
0.0
 20
0.0
 30
0.0
  3
SEANNOT_GROUP
  1

  0
LINE
  5
63
330
60
100
AcDbEntity
  8
Default
  6
CENTER2
 62
     7
100
AcDbLine
 10
52.3325458174
 20
239.0999999947
 30
0.0
 11
12.3325467115
 21
239.0999999947
 31
0.0
  0
LINE
  5
64
330
60
100
AcDbEntity
  8
Default
  6
CENTER2
 62
     7
100
AcDbLine
 10
32.3325462644
 20
259.0999995477
 30
0.0
 11
32.3325462644
 21
219.1000004417
 31
0.0
  0
LINE
  5
65
330
60
100
AcDbEntity
  8
Default
  6
CENTER2
 62
     7
100
AcDbLine
 10
57.3325457056
 20
239.0999999947
 30
0.0
 11
55.8325462644
 21
239.0999999947
 31
0.0
  0
LINE
  5
66
330
60
100
AcDbEntity
  8
Default
  6
CENTER2
 62
     7
100
AcDbLine
 10
32.3325462644
 20
264.0999994359
 30
0.0
 11
32.3325462644
 21
262.5999999947
 31
0.0
  0
LINE
  5
67
330
60
100
AcDbEntity
  8
Default
  6
CENTER2
 62
     7
100
AcDbLine
 10
7.3325468232
 20
239.0999999947
 30
0.0
 11
8.8325462644
 21
239.0999999947
 31
0.0
  0
LINE
  5
68
330
60
100
AcDbEntity
  8
Default
  6
CENTER2
 62
     7
100
AcDbLine
 10
32.3325462644
 20
214.1000005535
 30
0.0
 11
32.3325462644
 21
215.5999999947
 31
0.0
  0
ENDBLK
  5
6A
330
60
100
AcDbEntity
  8
0
100
AcDbBlockEnd
  0
BLOCK
  5
6F
330
6B
100
AcDbEntity
  8
0
100
AcDbBlockBegin
  2
SEANNOT_GROUP1
 70
     0
 10
0.0
 20
0.0
 30
0.0
  3
SEANNOT_GROUP1
  1

  0
LINE
  5
6D
330
6B
100
AcDbEntity
  8
Default
  6
CENTER2
 62
     7
100
AcDbLine
 10
52.3325458174
 20
695.9236712122
 30
0.0
 11
12.3325467115
 21
695.9236712122
 31
0.0
  0
LINE
  5
6E
330
6B
100
AcDbEntity
  8
Default
  6
CENTER2
 62
     7
100
AcDbLine
 10
32.3325462644
 20
715.9236707652
 30
0.0
 11
32.3325462644
 21
675.9236716592
 31
0.0
  0
ENDBLK
  5
70
330
6B
100
AcDbEntity
  8
0
100
AcDbBlockEnd
  0
BLOCK
  5
75
330
71
100
AcDbEntity
  8
0
100
AcDbBlockBegin
  2
SEANNOT_GROUP2
 70
     0
 10
0.0
 20
0.0
 30
0.0
  3
SEANNOT_GROUP2
  1

  0
LINE
  5
73
330
71
100
AcDbEntity
  8
Default
  6
CENTER2
 62
     7
100
AcDbLine
 10
234.1275827089
 20
695.9236712122
 30
0.0
 11
194.127583603
 21
695.9236712122
 31
0.0
  0
LINE
  5
74
330
71
100
AcDbEntity
  8
Default
  6
CENTER2
 62
     7
100
AcDbLine
 10
214.127583156
 20
715.9236707652
 30
0.0
 11
214.127583156
 21
675.9236716592
 31
0.0
  0
ENDBLK
  5
76
330
71
100
AcDbEntity
  8
0
100
AcDbBlockEnd
  0
BLOCK
  5
180
330
77
100
AcDbEntity
  8
0
100
AcDbBlockBegin
  2
SE
 70
     0
 10
0.0
 20
0.0
 30
0.0
  3
SE
  1

  0
LINE
  5
7A
330
77
100
AcDbEntity
  8
$DDT_AUDIT_GENERATED_(79)
  6
Continuous
 62
     7
100
AcDbLine
 10
52.3325462644
 20
809.4236712122
 30
0.0
 11
12.3325462644
 21
809.4236712122
 31
0.0
  0
LINE
  5
7B
330
77
100
AcDbEntity
  8
$DDT_AUDIT_GENERATED_(79)
  6
Continuous
 62
     7
100
AcDbLine
 10
80.3325462644
 20
795.1236712122
 30
0.0
 11
80.3325462644
 21
755.1236712122
 31
0.0
  0
LINE
  5
7C
330
77
100
AcDbEntity
  8
$DDT_AUDIT_GENERATED_(79)
  6
Continuous
 62
     7
100
AcDbLine
 10
57.3325461098
 20
755.1236712122
 30
0.0
 11
80.3325462644
 21
755.1236712122
 31
0.0
  0
LINE
  5
7D
330
77
100
AcDbEntity
  8
$DDT_AUDIT_GENERATED_(79)
  6
Continuous
 62
     7
100
AcDbLine
 10
80.3325462644
 20
795.1236712122
 30
0.0
 11
57.3325461114
 21
795.1236712122
 31
0.0
  0
ARC
  5
7E
330
77
100
AcDbEntity
  8
$DDT_AUDIT_GENERATED_(79)
  6
Continuous
 62
     7
100
AcDbCircle
 10
57.3325461213
 20
800.1236710691
 30
0.0
 40
4.999999856872348
100
AcDbArc
 50
180.0000001133
 51
269.9999998867
  0
ARC
  5
7F
330
77
100
AcDbEntity
  8
$DDT_AUDIT_GENERATED_(79)
  6
Continuous
 62
     7
100
AcDbCircle
 10
57.3325461198
 20
750.1236713568
 30
0.0
 40
4.999999855367511
100
AcDbArc
 50
90.0000001145
 51
179.9999998855
  0
LINE
  5
80
330
77
100
AcDbEntity
  8
$DDT_AUDIT_GENERATED_(79)
  6
Continuous
 62
     7
100
AcDbLine
 10
52.3325462644
 20
800.1236710592
 30
0.0
 11
52.3325462644
 21
809.4236712122
 31
0.0
  0
LINE
  5
81
330
77
100
AcDbEntity
  8
$DDT_AUDIT_GENERATED_(79)
  6
Continuous
 62
     7
100
AcDbLine
 10
52.3325462644
 20
703.9236712122
 30
0.0
 11
52.3325462644
 21
750.1236713668
 31
0.0
  0
LINE
  5
82
330
77
100
AcDbEntity
  8
$DDT_AUDIT_GENERATED_(79)
  6
Continuous
 62
     7
100
AcDbLine
 10
12.3325462644
 20
809.4236712122
 30
0.0
 11
12.3325462644
 21
703.9236712122
 31
0.0
  0
ARC
  5
84
330
77
100
AcDbEntity
  8
$DDT_AUDIT_GENERATED_(83)
  6
Continuous
 62
     7
100
AcDbCircle
 10
71.9325462644
 20
775.1236712122
 30
0.0
 40
20.0
100
AcDbArc
 50
294.8345874897
 51
318.2765194941
  0
ARC
  5
85
330
77
100
AcDbEntity
  8
$DDT_AUDIT_GENERATED_(83)
  6
Continuous
 62
     7
100
AcDbCircle
 10
71.9325462644
 20
775.1236712122
 30
0.0
 40
20.0
100
AcDbArc
 50
61.8900431161
 51
65.1654125103
  0
ARC
  5
87
330
77
100
AcDbEntity
  8
$DDT_AUDIT_GENERATED_(86)
  6
Continuous
 62
     7
100
AcDbCircle
 10
83.6375200391
 20
770.6376079672
 30
0.0
 40
1.841472462904373
100
AcDbArc
 50
181.4440225774
 51
208.7483443924
  0
ELLIPSE
  5
88
330
77
100
AcDbEntity
  8
$DDT_AUDIT_GENERATED_(86)
  6
Continuous
 62
     7
100
AcDbEllipse
 10
81.8684363072
 20
775.3488328205
 30
0.0
 11
0.4776570100128094
 21
-19.67353637034249
 31
0.0
210
0.0
220
0.0
230
1.0
 40
0.0098060574
 41
3.203787042726832
 42
4.956401187100226
  0
SPLINE
  5
89
330
77
100
AcDbEntity
  8
$DDT_AUDIT_GENERATED_(86)
  6
Continuous
 62
     7
100
AcDbSpline
210
0.0
220
0.0
230
1.0
 70
     8
 71
     3
 72
     8
 73
     4
 74
     0
 42
0.0000000007921959
 43
0.0000000001
 40
0.3928321598983119
 40
0.3928321598983119
 40
0.3928321598983119
 40
0.3928321598983119
 40
0.3936358008294992
 40
0.3936358008294992
 40
0.3936358008294992
 40
0.3936358008294992
 10
92.42664714240114
 20
756.2721686449382
 30
0.0
 10
92.43002918931678
 20
756.2724209975337
 30
0.0
 10
92.43339923904794
 20
756.2726981362055
 30
0.0
 10
92.43675729025433
 20
756.2730000637889
 30
0.0
  0
LINE
  5
8A
330
77
100
AcDbEntity
  8
$DDT_AUDIT_GENERATED_(86)
  6
Continuous
 62
     7
100
AcDbLine
 10
103.7608198138
 20
843.7857681627
 30
0.0
 11
105.5704276111
 21
779.7116767325
 31
0.0
  0
ELLIPSE
  5
8B
330
77
100
AcDbEntity
  8
$DDT_AUDIT_GENERATED_(86)
  6
Continuous
 62
     7
100
AcDbEllipse
 10
104.2694882186
 20
853.3035086476
 30
0.0
 11
0.7000000000000339
 21
5.551115123125783E-14
 31
0.0
210
0.0
220
0.0
230
1.0
 40
0.9271838546
 41
3.141592653589793
 42
3.167772592369963
  0
ELLIPSE
  5
8C
330
77
100
AcDbEntity
  8
$DDT_AUDIT_GENERATED_(86)
  6
Continuous
 62
     7
100
AcDbEllipse
 10
103.7608198138
 20
846.5203962947
 30
0.0
 11
-0.1771856791626947
 21
7.297849356837915
 31
0.0
210
0.0
220
0.0
230
1.0
 40
0.0098060574
 41
0.3838534086785033
 42
1.954649735473538
  0
ARC
  5
8D
330
77
100
AcDbEntity
  8
$DDT_AUDIT_GENERATED_(86)
  6
Continuous
 62
     7
100
AcDbCircle
 10
137.7897703717
 20
780.274595467
 30
0.0
 40
32.22425988949462
100
AcDbArc
 50
181.0009386842
 51
181.0859799335
  0
SPLINE
  5
8E
330
77
100
AcDbEntity
  8
$DDT_AUDIT_GENERATED_(86)
  6
Continuous
 62
     7
100
AcDbSpline
210
0.0
220
0.0
230
1.0
 70
     8
 71
     3
 72
    14
 73
    10
 74
     0
 42
0.0000000001875426
 43
0.0000000001
 40
0.7408276491906013
 40
0.7408276491906013
 40
0.7408276491906013
 40
0.7408276491906013
 40
0.7500000000000003
 40
0.7500000000000003
 40
0.8125000000000002
 40
0.8125000000000002
 40
0.8750000000000001
 40
0.8750000000000001
 40
1.0
 40
1.0
 40
1.0
 40
1.0
 10
89.6060379396454
 20
758.2338020179391
 30
0.0
 10
89.5317905431672
 20
758.3155249081875
 30
0.0
 10
89.45655307287294
 20
758.3998377927251
 30
0.0
 10
88.86113457394906
 20
759.0785632471354
 30
0.0
 10
88.30953491348217
 20
759.7747871734183
 30
0.0
 10
87.14734745939315
 20
761.3573477871196
 30
0.0
 10
86.52997095091622
 20
762.254364621575
 30
0.0
 10
84.63784186833823
 20
765.1594458497299
 30
0.0
 10
83.34569632649495
 20
767.3363719608391
 30
0.0
 10
82.02302626787608
 20
769.751927045979
 30
0.0
  0
ELLIPSE
  5
8F
330
77
100
AcDbEntity
  8
$DDT_AUDIT_GENERATED_(86)
  6
Continuous
 62
     7
100
AcDbEllipse
 10
-290.5451715804
 20
847.4633762008
 30
0.0
 11
-400.0904680976658
 21
-11.2995255140769
 31
0.0
210
0.0
220
0.0
230
1.0
 40
0.3744782254
 41
3.105988968475627
 42
3.156044780038023
  0
ELLIPSE
  5
90
330
77
100
AcDbEntity
  8
$DDT_AUDIT_GENERATED_(86)
  6
Continuous
 62
     7
100
AcDbEllipse
 10
111.479861519
 20
776.0677734605
 30
0.0
 11
-0.4223506890706913
 21
17.39560284533113
 31
0.0
210
0.0
220
0.0
230
1.0
 40
0.0098060574
 41
-4.328535571706111
 42
-3.232083986324385
  0
ELLIPSE
  5
91
330
77
100
AcDbEntity
  8
$DDT_AUDIT_GENERATED_(86)
  6
Continuous
 62
     7
100
AcDbEllipse
 10
111.479861519
 20
776.0677734605
 30
0.0
 11
-0.4223506890706913
 21
17.39560284533113
 31
0.0
210
0.0
220
0.0
230
1.0
 40
0.0098060574
 41
3.205537342307244
 42
3.368900686572471
  0
ELLIPSE
  5
92
330
77
100
AcDbEntity
  8
$DDT_AUDIT_GENERATED_(86)
  6
Continuous
 62
     7
100
AcDbEllipse
 10
-284.1883926059
 20
622.3843168017
 30
0.0
 11
388.0040264441619
 21
246.296565345196
 31
0.0
210
0.0
220
0.0
230
1.0
 40
0.2797513805
 41
-0.1891530148984257
 42
-0.1651722438574996
  0
ARC
  5
93
330
77
100
AcDbEntity
  8
$DDT_AUDIT_GENERATED_(86)
  6
Continuous
 62
     7
100
AcDbCircle
 10
236.1881102959
 20
841.5920285243
 30
0.0
 40
126.3582614696868
100
AcDbArc
 50
178.9631397857
 51
181.696654529
  0
ELLIPSE
  5
94
330
77
100
AcDbEntity
  8
$DDT_AUDIT_GENERATED_(86)
  6
Continuous
 62
     7
100
AcDbEllipse
 10
-294.8939252362
 20
1001.4427825602
 30
0.0
 11
400.9347079828797
 21
-225.4277308153402
 31
0.0
210
0.0
220
0.0
230
1.0
 40
0.2878380251
 41
0.1441877692442727
 42
0.1767069470027538
  0
ARC
  5
95
330
77
100
AcDbEntity
  8
$DDT_AUDIT_GENERATED_(86)
  6
Continuous
 62
     7
100
AcDbCircle
 10
428.5654837739
 20
813.4319390514
 30
0.0
 40
317.6538586482641
100
AcDbArc
 50
181.6408488319
 51
182.4573687946
  0
LINE
  5
96
330
77
100
AcDbEntity
  8
$DDT_AUDIT_GENERATED_(86)
  6
Continuous
 62
     7
100
AcDbLine
 10
109.8852454743
 20
845.2898566598
 30
0.0
 11
111.0418777064
 21
804.3361430995
 31
0.0
  0
LINE
  5
97
330
77
100
AcDbEntity
  8
$DDT_AUDIT_GENERATED_(86)
  6
Continuous
 62
     7
100
AcDbLine
 10
103.5694882186
 20
860.7947832631
 30
0.0
 11
103.5694882186
 21
853.3035086476
 31
0.0
  0
ARC
  5
98
330
77
100
AcDbEntity
  8
$DDT_AUDIT_GENERATED_(86)
  6
Continuous
 62
     7
100
AcDbCircle
 10
103.3894011184
 20
796.384915004
 30
0.0
 40
1.962389374222609
100
AcDbArc
 50
266.8405882258
 51
332.3983096346
  0
LINE
  5
99
330
77
100
AcDbEntity
  8
$DDT_AUDIT_GENERATED_(86)
  6
Continuous
 62
     7
100
AcDbLine
 10
108.6619212917
 20
862.133023119
 30
0.0
 11
104.2664038545
 21
862.0263036316
 31
0.0
  0
SPLINE
  5
9A
330
77
100
AcDbEntity
  8
$DDT_AUDIT_GENERATED_(86)
  6
Continuous
 62
     7
100
AcDbSpline
210
0.0
220
0.0
230
1.0
 70
     8
 71
     3
 72
    20
 73
    16
 74
     0
 42
0.0000000061494166
 43
0.0000000001
 40
0.0
 40
0.0
 40
0.0
 40
0.0
 40
0.0116245006499676
 40
0.0747556537111196
 40
0.1273653724590133
 40
0.1731464339466977
 40
0.2133211259841812
 40
0.2482751997519561
 40
0.2776413492844019
 40
0.30900434819772
 40
0.35841802517733
 40
0.4340821199378413
 40
0.5815997785118787
 40
0.7917404570886217
 40
1.0
 40
1.0
 40
1.0
 40
1.0
 10
104.2690175153699
 20
862.0211088181321
 30
0.0
 10
104.2540240832874
 20
862.022652229932
 30
0.0
 10
104.1710328553495
 20
862.0308617616668
 30
0.0
 10
104.0173155367116
 20
861.9823763106968
 30
0.0
 10
103.8534593526944
 20
861.8886327269424
 30
0.0
 10
103.7371896690819
 20
861.7731894354937
 30
0.0
 10
103.6615398280649
 20
861.6571329193803
 30
0.0
 10
103.6189012106165
 20
861.5552996489943
 30
0.0
 10
103.5983266966754
 20
861.48045275889
 30
0.0
 10
103.5874071209916
 20
861.4225845988392
 30
0.0
 10
103.5813033562924
 20
861.3723282273858
 30
0.0
 10
103.5766581723287
 20
861.3116839532001
 30
0.0
 10
103.5729842409856
 20
861.2193811858317
 30
0.0
 10
103.5700643814513
 20
861.0534200004893
 30
0.0
 10
103.5696580396197
 20
860.8916221093526
 30
0.0
 10
103.5694882186225
 20
860.7947832630734
 30
0.0
  0
LINE
  5
9B
330
77
100
AcDbEntity
  8
$DDT_AUDIT_GENERATED_(86)
  6
Continuous
 62
     7
100
AcDbLine
 10
105.5704667439
 20
779.7089045046
 30
0.0
 11
105.5717358776
 21
779.663967367
 31
0.0
  0
SPLINE
  5
9C
330
77
100
AcDbEntity
  8
$DDT_AUDIT_GENERATED_(86)
  6
Continuous
 62
     7
100
AcDbSpline
210
0.0
220
0.0
230
1.0
 70
     8
 71
     3
 72
    15
 73
    11
 74
     0
 42
0.0000000203274069
 43
0.0000000001
 40
0.0
 40
0.0
 40
0.0
 40
0.0
 40
0.0418705737947584
 40
0.1521161203678387
 40
0.2459748203617459
 40
0.341533721575318
 40
0.4676659022699085
 40
0.6432287668509376
 40
0.9300643018824754
 40
1.0
 40
1.0
 40
1.0
 40
1.0
 10
81.70330054396244
 20
795.3227344556018
 30
0.0
 10
81.68553598540237
 20
795.3254947902831
 30
0.0
 10
81.63041646096531
 20
795.3337785742001
 30
0.0
 10
81.53447938399992
 20
795.2929606262807
 30
0.0
 10
81.46044030452623
 20
795.2287661562335
 30
0.0
 10
81.42026056637621
 20
795.1672464058959
 30
0.0
 10
81.40055859882906
 20
795.118754576451
 30
0.0
 10
81.38931695592744
 20
795.0762581428638
 30
0.0
 10
81.38453712743767
 20
795.0505225619296
 30
0.0
 10
81.38288781287655
 20
795.0342585121653
 30
0.0
 10
81.38253681362642
 20
795.0305990419264
 30
0.0
  0
SPLINE
  5
9D
330
77
100
AcDbEntity
  8
$DDT_AUDIT_GENERATED_(86)
  6
Continuous
 62
     7
100
AcDbSpline
210
0.0
220
0.0
230
1.0
 70
     8
 71
     3
 72
    15
 73
    11
 74
     0
 42
0.0000000029050837
 43
0.0000000001
 40
0.0
 40
0.0
 40
0.0
 40
0.0
 40
0.0846769201134037
 40
0.2269452823625989
 40
0.368366774149599
 40
0.5091354714651546
 40
0.6496540093969124
 40
0.7893198252481329
 40
0.9099521173436691
 40
0.9701415569338199
 40
0.9701415569338199
 40
0.9701415569338199
 40
0.9701415569338199
 10
89.67510320429798
 20
758.1400121990505
 30
0.0
 10
89.77701411459108
 20
758.027583333317
 30
0.0
 10
90.0082923248316
 20
757.7733921982051
 30
0.0
 10
90.39598114027362
 20
757.3901826407076
 30
0.0
 10
90.8087422597969
 20
757.02056629616
 30
0.0
 10
91.19893729497345
 20
756.7195810570382
 30
0.0
 10
91.56644072068431
 20
756.489368760495
 30
0.0
 10
91.89709804661084
 20
756.344490842208
 30
0.0
 10
92.16236307369
 20
756.2796364633213
 30
0.0
 10
92.29834420955434
 20
756.2799325625951
 30
0.0
 10
92.3466717059678
 20
756.281838484394
 30
0.0
  0
ARC
  5
9E
330
77
100
AcDbEntity
  8
$DDT_AUDIT_GENERATED_(86)
  6
Continuous
 62
     7
100
AcDbCircle
 10
-288.254688265
 20
766.3625528913
 30
0.0
 40
400.2500000000001
100
AcDbArc
 50
358.963254929
 51
1.6177417926
  0
LINE
  5
9F
330
77
100
AcDbEntity
  8
$DDT_AUDIT_GENERATED_(86)
  6
Continuous
 62
     7
100
AcDbLine
 10
109.8639066533
 20
847.4816423073
 30
0.0
 11
109.5452965172
 21
858.7629017144
 31
0.0
  0
LINE
  5
A0
330
77
100
AcDbEntity
  8
$DDT_AUDIT_GENERATED_(86)
  6
Continuous
 62
     7
100
AcDbLine
 10
111.8357805323
 20
777.6620784222
 30
0.0
 11
111.2347131113
 21
798.9445071048
 31
0.0
  0
ARC
  5
A1
330
77
100
AcDbEntity
  8
$DDT_AUDIT_GENERATED_(86)
  6
Continuous
 62
     7
100
AcDbCircle
 10
111.1985136274
 20
758.6965759982
 30
0.0
 40
0.7108742434282812
100
AcDbArc
 50
275.2304743378
 51
354.6784297806
  0
SPLINE
  5
A2
330
77
100
AcDbEntity
  8
$DDT_AUDIT_GENERATED_(86)
  6
Continuous
 62
     7
100
AcDbSpline
210
0.0
220
0.0
230
1.0
 70
     8
 71
     3
 72
    17
 73
    13
 74
     0
 42
0.0000000066201883
 43
0.0000000001
 40
0.0
 40
0.0
 40
0.0
 40
0.0
 40
0.1203880361618595
 40
0.3698872986577066
 40
0.5108092636119316
 40
0.6234661231219278
 40
0.6973453891902931
 40
0.7494150246792386
 40
0.8044648823736211
 40
0.8667683052627118
 40
0.9349669088697439
 40
1.0
 40
1.0
 40
1.0
 40
1.0
 10
109.4336599791845
 20
861.050005735093
 30
0.0
 10
109.4301090292631
 20
861.1005668201973
 30
0.0
 10
109.4207007325708
 20
861.2322417099297
 30
0.0
 10
109.4065669696102
 20
861.3698855118181
 30
0.0
 10
109.3901054087781
 20
861.4870813915264
 30
0.0
 10
109.3740240609642
 20
861.5697035274202
 30
0.0
 10
109.3452602293754
 20
861.6689676945764
 30
0.0
 10
109.289489732969
 20
861.788627526925
 30
0.0
 10
109.1968870327602
 20
861.9160389363303
 30
0.0
 10
109.054909645697
 20
862.0349480791482
 30
0.0
 10
108.8663071880546
 20
862.1205770397198
 30
0.0
 10
108.7381661656767
 20
862.1275578760824
 30
0.0
 10
108.6647934111235
 20
862.1301242859572
 30
0.0
  0
LINE
  5
A3
330
77
100
AcDbEntity
  8
$DDT_AUDIT_GENERATED_(86)
  6
Continuous
 62
     7
100
AcDbLine
 10
111.0420866449
 20
796.9052386478
 30
0.0
 11
109.8853889704
 21
837.8612693735
 31
0.0
  0
SPLINE
  5
A4
330
77
100
AcDbEntity
  8
$DDT_AUDIT_GENERATED_(86)
  6
Continuous
 62
     7
100
AcDbSpline
210
0.0
220
0.0
230
1.0
 70
     8
 71
     3
 72
    16
 73
    12
 74
     0
 42
0.0000000040300039
 43
0.0000000001
 40
0.1967862978491501
 40
0.1967862978491501
 40
0.1967862978491501
 40
0.1967862978491501
 40
0.2209633116667962
 40
0.2850744617969968
 40
0.3713328537193179
 40
0.4746830058741069
 40
0.5866966973931729
 40
0.7018448990231414
 40
0.8209610317128795
 40
0.943871770319016
 40
1.0
 40
1.0
 40
1.0
 40
1.0
 10
111.1442461414573
 20
794.8247662905246
 30
0.0
 10
111.1442384584084
 20
794.8248291210575
 30
0.0
 10
111.1431235337197
 20
794.8310573832463
 30
0.0
 10
111.1374100500009
 20
794.8745965603777
 30
0.0
 10
111.1267722635745
 20
794.983994891539
 30
0.0
 10
111.1128973403194
 20
795.1694458286869
 30
0.0
 10
111.0973196362954
 20
795.4339863048463
 30
0.0
 10
111.0812637231654
 20
795.766599479798
 30
0.0
 10
111.0657775349383
 20
796.1569142230481
 30
0.0
 10
111.0532634715669
 20
796.5220828053374
 30
0.0
 10
111.0471408712634
 20
796.7359555329458
 30
0.0
 10
111.0448970654812
 20
796.8148568897411
 30
0.0
  0
LINE
  5
A5
330
77
100
AcDbEntity
  8
$DDT_AUDIT_GENERATED_(86)
  6
Continuous
 62
     7
100
AcDbLine
 10
92.4357397944
 20
756.2731432397
 30
0.0
 11
111.2659908672
 21
757.9885133394
 31
0.0
  0
LINE
  5
A6
330
77
100
AcDbEntity
  8
$DDT_AUDIT_GENERATED_(86)
  6
Continuous
 62
     7
100
AcDbLine
 10
103.2779674163
 20
794.4163012051
 30
0.0
 11
81.7034880309
 21
795.3293809867
 31
0.0
  0
LINE
  5
A8
330
77
100
AcDbEntity
  8
$DDT_AUDIT_GENERATED_(A7)
  6
Continuous
 62
     7
100
AcDbLine
 10
56.7325462644
 20
703.9236712122
 30
0.0
 11
57.7496219812
 21
703.9236712122
 31
0.0
  0
LINE
  5
A9
330
77
100
AcDbEntity
  8
$DDT_AUDIT_GENERATED_(A7)
  6
Continuous
 62
     7
100
AcDbLine
 10
6.9154705476
 20
703.9236712122
 30
0.0
 11
7.9325462644
 21
703.9236712122
 31
0.0
  0
LINE
  5
AA
330
77
100
AcDbEntity
  8
$DDT_AUDIT_GENERATED_(A7)
  6
Continuous
 62
     7
100
AcDbLine
 10
7.9325462644
 20
703.9236712122
 30
0.0
 11
56.7325462644
 21
703.9236712122
 31
0.0
  0
LINE
  5
AB
330
77
100
AcDbEntity
  8
$DDT_AUDIT_GENERATED_(A7)
  6
Continuous
 62
     7
100
AcDbLine
 10
6.4154895861
 20
703.4280344799
 30
0.0
 11
6.35
 21
695.9236712122
 31
0.0
  0
LINE
  5
AC
330
77
100
AcDbEntity
  8
$DDT_AUDIT_GENERATED_(A7)
  6
Continuous
 62
     7
100
AcDbLine
 10
58.2496029427
 20
703.4280344799
 30
0.0
 11
58.3150925288
 21
695.9236712122
 31
0.0
  0
ARC
  5
AD
330
77
100
AcDbEntity
  8
$DDT_AUDIT_GENERATED_(A7)
  6
Continuous
 62
     7
100
AcDbCircle
 10
6.9154705476
 20
703.4236712122
 30
0.0
 40
0.5000000000000004
100
AcDbArc
 50
90.0
 51
179.5
  0
ARC
  5
AE
330
77
100
AcDbEntity
  8
$DDT_AUDIT_GENERATED_(A7)
  6
Continuous
 62
     7
100
AcDbCircle
 10
57.7496219812
 20
703.4236712122
 30
0.0
 40
0.5000000000000014
100
AcDbArc
 50
0.5
 51
90.0
  0
LINE
  5
AF
330
77
100
AcDbEntity
  8
$DDT_AUDIT_GENERATED_(A7)
  6
Continuous
 62
     7
100
AcDbLine
 10
7.9325462644
 20
695.9236712122
 30
0.0
 11
6.35
 21
695.9236712122
 31
0.0
  0
LINE
  5
B0
330
77
100
AcDbEntity
  8
$DDT_AUDIT_GENERATED_(A7)
  6
Continuous
 62
     7
100
AcDbLine
 10
58.3150925288
 20
695.9236712122
 30
0.0
 11
56.7325462644
 21
695.9236712122
 31
0.0
  0
LINE
  5
B1
330
77
100
AcDbEntity
  8
$DDT_AUDIT_GENERATED_(A7)
  6
Continuous
 62
     7
100
AcDbLine
 10
56.7325462644
 20
695.9236712122
 30
0.0
 11
7.9325462644
 21
695.9236712122
 31
0.0
  0
LINE
  5
B3
330
77
100
AcDbEntity
  8
$DDT_AUDIT_GENERATED_(B2)
  6
Continuous
 62
     7
100
AcDbLine
 10
18.9675462644
 20
809.4236712122
 30
0.0
 11
18.9675462644
 21
913.8336745254
 31
0.0
  0
LINE
  5
B4
330
77
100
AcDbEntity
  8
$DDT_AUDIT_GENERATED_(B2)
  6
Continuous
 62
     7
100
AcDbLine
 10
18.9675462644
 20
936.5336711943
 30
0.0
 11
18.9675462644
 21
954.1336712122
 31
0.0
  0
LINE
  5
B5
330
77
100
AcDbEntity
  8
$DDT_AUDIT_GENERATED_(B2)
  6
Continuous
 62
     7
100
AcDbLine
 10
18.9675462644
 20
913.8336745254
 30
0.0
 11
18.9675462644
 21
936.5336712122
 31
0.0
  0
LINE
  5
B6
330
77
100
AcDbEntity
  8
$DDT_AUDIT_GENERATED_(B2)
  6
Continuous
 62
     7
100
AcDbLine
 10
45.6975462644
 20
809.4236712122
 30
0.0
 11
45.6975462644
 21
913.8336741572
 31
0.0
  0
LINE
  5
B7
330
77
100
AcDbEntity
  8
$DDT_AUDIT_GENERATED_(B2)
  6
Continuous
 62
     7
100
AcDbLine
 10
45.6975462644
 20
954.1336712122
 30
0.0
 11
45.6975462644
 21
936.5336712122
 31
0.0
  0
LINE
  5
B8
330
77
100
AcDbEntity
  8
$DDT_AUDIT_GENERATED_(B2)
  6
Continuous
 62
     7
100
AcDbLine
 10
45.6975462644
 20
936.5336712122
 30
0.0
 11
45.6975462644
 21
913.8336741572
 31
0.0
  0
ARC
  5
B9
330
77
100
AcDbEntity
  8
$DDT_AUDIT_GENERATED_(B2)
  6
Continuous
 62
     7
100
AcDbCircle
 10
19.6675462644
 20
954.1336712122
 30
0.0
 40
0.6999999999999993
100
AcDbArc
 50
89.9999797611
 51
180.0000007321
  0
ARC
  5
BA
330
77
100
AcDbEntity
  8
$DDT_AUDIT_GENERATED_(B2)
  6
Continuous
 62
     7
100
AcDbCircle
 10
19.6675472088
 20
936.5336712122
 30
0.0
 40
0.699999999999999
100
AcDbArc
 50
180.0000007322
 51
269.9999613527
  0
ARC
  5
BB
330
77
100
AcDbEntity
  8
$DDT_AUDIT_GENERATED_(B2)
  6
Continuous
 62
     7
100
AcDbCircle
 10
44.9975462644
 20
936.5336712122
 30
0.0
 40
0.6999999999999993
100
AcDbArc
 50
270.0
 51
0.0
  0
ARC
  5
BC
330
77
100
AcDbEntity
  8
$DDT_AUDIT_GENERATED_(B2)
  6
Continuous
 62
     7
100
AcDbCircle
 10
44.9975462644
 20
954.1336712122
 30
0.0
 40
0.6999999999999784
100
AcDbArc
 50
0.0
 51
90.0
  0
LINE
  5
BD
330
77
100
AcDbEntity
  8
$DDT_AUDIT_GENERATED_(B2)
  6
Continuous
 62
     7
100
AcDbLine
 10
38.4975460857
 20
954.8336712122
 30
0.0
 11
44.9975462644
 21
954.8336712122
 31
0.0
  0
LINE
  5
BE
330
77
100
AcDbEntity
  8
$DDT_AUDIT_GENERATED_(B2)
  6
Continuous
 62
     7
100
AcDbLine
 10
26.1675459129
 20
954.8336712122
 30
0.0
 11
38.4975460857
 21
954.8336712122
 31
0.0
  0
LINE
  5
BF
330
77
100
AcDbEntity
  8
$DDT_AUDIT_GENERATED_(B2)
  6
Continuous
 62
     7
100
AcDbLine
 10
19.6675465117
 20
954.8336712122
 30
0.0
 11
26.1675459129
 21
954.8336712122
 31
0.0
  0
LINE
  5
C0
330
77
100
AcDbEntity
  8
$DDT_AUDIT_GENERATED_(B2)
  6
Continuous
 62
     7
100
AcDbLine
 10
19.6675467366
 20
935.8336712122
 30
0.0
 11
26.1675464893
 21
935.8336712122
 31
0.0
  0
LINE
  5
C1
330
77
100
AcDbEntity
  8
$DDT_AUDIT_GENERATED_(B2)
  6
Continuous
 62
     7
100
AcDbLine
 10
38.497546103
 20
935.8336712122
 30
0.0
 11
26.1675464893
 21
935.8336712122
 31
0.0
  0
LINE
  5
C2
330
77
100
AcDbEntity
  8
$DDT_AUDIT_GENERATED_(B2)
  6
Continuous
 62
     7
100
AcDbLine
 10
44.9975462644
 20
935.8336712122
 30
0.0
 11
38.497546103
 21
935.8336712122
 31
0.0
  0
ELLIPSE
  5
C4
330
77
100
AcDbEntity
  8
$DDT_AUDIT_GENERATED_(C3)
  6
Continuous
 62
     7
100
AcDbEllipse
 10
32.3325462644
 20
924.8050948682
 30
0.0
 11
10.075
 21
0.0
 31
0.0
210
0.0
220
0.0
230
1.0
 40
0.2588190451
 41
0.0
 42
6.283185307179586
  0
LINE
  5
C5
330
77
100
AcDbEntity
  8
$DDT_AUDIT_GENERATED_(C3)
  6
Continuous
 62
     7
100
AcDbLine
 10
43.9075462644
 20
925.7710206945
 30
0.0
 11
43.9075462644
 21
935.8336712122
 31
0.0
  0
LINE
  5
C6
330
77
100
AcDbEntity
  8
$DDT_AUDIT_GENERATED_(C3)
  6
Continuous
 62
     7
100
AcDbLine
 10
20.7575462644
 20
935.8336712122
 30
0.0
 11
20.7575462644
 21
925.7710206945
 31
0.0
  0
SPLINE
  5
C7
330
77
100
AcDbEntity
  8
$DDT_AUDIT_GENERATED_(C3)
  6
Continuous
 62
     7
100
AcDbSpline
210
0.0
220
0.0
230
1.0
 70
     8
 71
     3
 72
    47
 73
    43
 74
     0
 42
0.0000000003857758
 43
0.0000000001
 40
0.0
 40
0.0
 40
0.0
 40
0.0
 40
0.0181246445569397
 40
0.0371257602563214
 40
0.056622022848453
 40
0.0774707502385234
 40
0.1005321697778915
 40
0.1263834398961574
 40
0.1545780994560156
 40
0.1835151756430513
 40
0.2119675367515451
 40
0.2398638985052091
 40
0.2673264958637238
 40
0.2944754771933232
 40
0.3213997722981981
 40
0.3481620805879821
 40
0.3748068440431938
 40
0.4013663009441646
 40
0.4278645892518192
 40
0.4543204886719751
 40
0.480749291677238
 40
0.507164136996762
 40
0.5335770264838352
 40
0.5599966025517039
 40
0.5864340811562878
 40
0.6129025841344417
 40
0.6394173066223021
 40
0.6659967772212956
 40
0.6926645974170975
 40
0.7194519570918486
 40
0.7464013736907879
 40
0.7735722780294341
 40
0.8010490280996342
 40
0.8289503811552081
 40
0.8574301476316487
 40
0.8866135750557115
 40
0.9122170903903823
 40
0.9349230216399183
 40
0.9553382826842122
 40
0.9743261198048137
 40
0.9926028543679128
 40
1.0
 40
1.0
 40
1.0
 40
1.0
 10
20.75964176195946
 20
925.7583956070808
 30
0.0
 10
20.76633009943943
 20
925.6322759049727
 30
0.0
 10
20.78024047937735
 20
925.4153199868422
 30
0.0
 10
20.89251081173144
 20
925.0724452295461
 30
0.0
 10
21.06213609342847
 20
924.7589183182115
 30
0.0
 10
21.29333960316172
 20
924.4631128045642
 30
0.0
 10
21.59126560361466
 20
924.1803521291607
 30
0.0
 10
21.96831876711777
 20
923.9054197737854
 30
0.0
 10
22.42987850803031
 20
923.6412694148602
 30
0.0
 10
22.96837714172955
 20
923.3943253666112
 30
0.0
 10
23.56821096791977
 20
923.1693874443232
 30
0.0
 10
24.217727392128
 20
922.9670751453241
 30
0.0
 10
24.91291436112926
 20
922.7856907899836
 30
0.0
 10
25.65095123275076
 20
922.6240511437135
 30
0.0
 10
26.42864781758687
 20
922.4816301569579
 30
0.0
 10
27.24217367583545
 20
922.3583332560014
 30
0.0
 10
28.08711138060301
 20
922.2543003417369
 30
0.0
 10
28.95856361453073
 20
922.1697755856311
 30
0.0
 10
29.85125653780377
 20
922.1050256673532
 30
0.0
 10
30.75963130773356
 20
922.0602885406581
 30
0.0
 10
31.67792551078523
 20
922.0357414444707
 30
0.0
 10
32.60024755036581
 20
922.0314815671805
 30
0.0
 10
33.52061096240564
 20
922.0475150711037
 30
0.0
 10
34.43302727645122
 20
922.0837504696722
 30
0.0
 10
35.33158345923006
 20
922.1400009515676
 30
0.0
 10
36.21054296740044
 20
922.2159979100255
 30
0.0
 10
37.06438905650496
 20
922.3114092355661
 30
0.0
 10
37.88789116170823
 20
922.4258680797643
 30
0.0
 10
38.67618890594196
 20
922.5590193479076
 30
0.0
 10
39.42488880925445
 20
922.7105940889369
 30
0.0
 10
40.13017915934928
 20
922.8805313950295
 30
0.0
 10
40.78896642034933
 20
923.069182875668
 30
0.0
 10
41.39902208101038
 20
923.2776681460452
 30
0.0
 10
41.95905143249481
 20
923.5084755647906
 30
0.0
 10
42.4683069287574
 20
923.7664284825762
 30
0.0
 10
42.90327988894963
 20
924.0457905645234
 30
0.0
 10
43.25557417872979
 20
924.3418914315492
 30
0.0
 10
43.52321830374877
 20
924.6444840881028
 30
0.0
 10
43.72140753865171
 20
924.9609155983613
 30
0.0
 10
43.84826975386824
 20
925.2889223195995
 30
0.0
 10
43.90929531204036
 20
925.5741378486099
 30
0.0
 10
43.901252725375
 20
925.7256157306446
 30
0.0
 10
43.89826030477713
 20
925.7769187878401
 30
0.0
  0
ELLIPSE
  5
C9
330
77
100
AcDbEntity
  8
$DDT_AUDIT_GENERATED_(C8)
  6
Continuous
 62
     7
100
AcDbEllipse
 10
32.3325462644
 20
924.5636134117
 30
0.0
 11
9.000000000000005
 21
0.0
 31
0.0
210
0.0
220
0.0
230
1.0
 40
0.2588190451
 41
0.0
 42
6.283185307179586
  0
ELLIPSE
  5
CA
330
77
100
AcDbEntity
  8
$DDT_AUDIT_GENERATED_(C8)
  6
Continuous
 62
     7
100
AcDbEllipse
 10
32.3325462644
 20
924.5636134117
 30
0.0
 11
-5.249999999999998
 21
0.0
 31
0.0
210
0.0
220
0.0
230
1.0
 40
0.2588190451
 41
0.0
 42
6.283185307179586
  0
ELLIPSE
  5
CB
330
77
100
AcDbEntity
  8
$DDT_AUDIT_GENERATED_(C8)
  6
Continuous
 62
     7
100
AcDbEllipse
 10
32.3325462644
 20
924.5636134117
 30
0.0
 11
-6.249999999999999
 21
0.0
 31
0.0
210
0.0
220
0.0
230
1.0
 40
0.2588190451
 41
0.0
 42
6.283185307179586
  0
ELLIPSE
  5
CC
330
77
100
AcDbEntity
  8
$DDT_AUDIT_GENERATED_(C8)
  6
Continuous
 62
     7
100
AcDbEllipse
 10
32.3325462644
 20
924.5636134117
 30
0.0
 11
2.750000000000003
 21
0.0
 31
0.0
210
0.0
220
0.0
230
1.0
 40
0.2588190451
 41
0.0
 42
6.283185307179586
  0
ELLIPSE
  5
CD
330
77
100
AcDbEntity
  8
$DDT_AUDIT_GENERATED_(C8)
  6
Continuous
 62
     7
100
AcDbEllipse
 10
32.3325462644
 20
924.5636134117
 30
0.0
 11
2.150000000000001
 21
0.0
 31
0.0
210
0.0
220
0.0
230
1.0
 40
0.2588190451
 41
0.0
 42
6.283185307179586
  0
ELLIPSE
  5
CE
330
77
100
AcDbEntity
  8
$DDT_AUDIT_GENERATED_(C8)
  6
Continuous
 62
     7
100
AcDbEllipse
 10
32.3325462644
 20
924.7567985769
 30
0.0
 11
0.5196299438963559
 21
0.0
 31
0.0
210
0.0
220
0.0
230
1.0
 40
0.2588190451
 41
0.0
 42
6.283185307179586
  0
ELLIPSE
  5
CF
330
77
100
AcDbEntity
  8
$DDT_AUDIT_GENERATED_(C8)
  6
Continuous
 62
     7
100
AcDbEllipse
 10
32.3325462644
 20
924.5636134117
 30
0.0
 11
-8.699999999999998
 21
0.0
 31
0.0
210
0.0
220
0.0
230
1.0
 40
0.2588190451
 41
0.0
 42
6.283185307179586
  0
ARC
  5
D0
330
77
100
AcDbEntity
  8
$DDT_AUDIT_GENERATED_(C8)
  6
Continuous
 62
     7
100
AcDbCircle
 10
32.3325462644
 20
902.2291560432
 30
0.0
 40
24.14526157799552
100
AcDbArc
 50
89.7627031576
 51
90.2372968424
  0
LINE
  5
D1
330
77
100
AcDbEntity
  8
$DDT_AUDIT_GENERATED_(C8)
  6
Continuous
 62
     7
100
AcDbLine
 10
32.4325462644
 20
926.3742105403
 30
0.0
 11
32.4325462644
 21
926.8151903526
 31
0.0
  0
LINE
  5
D2
330
77
100
AcDbEntity
  8
$DDT_AUDIT_GENERATED_(C8)
  6
Continuous
 62
     7
100
AcDbLine
 10
32.2325462644
 20
926.3742105403
 30
0.0
 11
32.2325462644
 21
926.8151903526
 31
0.0
  0
ELLIPSE
  5
D3
330
77
100
AcDbEntity
  8
$DDT_AUDIT_GENERATED_(C8)
  6
Continuous
 62
     7
100
AcDbEllipse
 10
32.3325462644
 20
924.995670134
 30
0.0
 11
-0.5196299438963587
 21
0.0
 31
0.0
210
0.0
220
0.0
230
1.0
 40
0.2588190451
 41
-1.125627025772283
 42
-1.068874045770558
  0
ELLIPSE
  5
D4
330
77
100
AcDbEntity
  8
$DDT_AUDIT_GENERATED_(C8)
  6
Continuous
 62
     7
100
AcDbEllipse
 10
32.3325462644
 20
924.995670134
 30
0.0
 11
-0.5196299438963587
 21
0.0
 31
0.0
210
0.0
220
0.0
230
1.0
 40
0.2588190451
 41
4.210466699360367
 42
4.267219679362106
  0
LINE
  5
D5
330
77
100
AcDbEntity
  8
$DDT_AUDIT_GENERATED_(C8)
  6
Continuous
 62
     7
100
AcDbLine
 10
32.0825462644
 20
925.1162996512
 30
0.0
 11
32.0825462644
 21
925.1135721604
 31
0.0
  0
LINE
  5
D6
330
77
100
AcDbEntity
  8
$DDT_AUDIT_GENERATED_(C8)
  6
Continuous
 62
     7
100
AcDbLine
 10
32.5825462644
 20
925.1162996512
 30
0.0
 11
32.5825462644
 21
925.1135721604
 31
0.0
  0
LINE
  5
D7
330
77
100
AcDbEntity
  8
$DDT_AUDIT_GENERATED_(C8)
  6
Continuous
 62
     7
100
AcDbLine
 10
34.3068704653
 20
924.7753629812
 30
0.0
 11
32.8521762083
 21
924.9927368463
 31
0.0
  0
LINE
  5
D8
330
77
100
AcDbEntity
  8
$DDT_AUDIT_GENERATED_(C8)
  6
Continuous
 62
     7
100
AcDbLine
 10
34.3068704653
 20
924.7839205644
 30
0.0
 11
34.3068704653
 21
924.7753629812
 31
0.0
  0
LINE
  5
D9
330
77
100
AcDbEntity
  8
$DDT_AUDIT_GENERATED_(C8)
  6
Continuous
 62
     7
100
AcDbLine
 10
34.0568704653
 20
924.6632910472
 30
0.0
 11
32.8521762083
 21
924.8433076009
 31
0.0
  0
ELLIPSE
  5
DA
330
77
100
AcDbEntity
  8
$DDT_AUDIT_GENERATED_(C8)
  6
Continuous
 62
     7
100
AcDbEllipse
 10
32.3325462644
 20
924.995670134
 30
0.0
 11
2.15000000000131
 21
-7.771561172376096E-13
 31
0.0
210
0.0
220
0.0
230
1.0
 40
0.2588190451
 41
-0.6401414840474002
 42
-0.4070560671487105
  0
LINE
  5
DB
330
77
100
AcDbEntity
  8
$DDT_AUDIT_GENERATED_(C8)
  6
Continuous
 62
     7
100
AcDbLine
 10
30.6082220635
 20
924.6632910472
 30
0.0
 11
31.8129163205
 21
924.8433076009
 31
0.0
  0
LINE
  5
DC
330
77
100
AcDbEntity
  8
$DDT_AUDIT_GENERATED_(C8)
  6
Continuous
 62
     7
100
AcDbLine
 10
30.3582220635
 20
924.7753629812
 30
0.0
 11
31.8129163205
 21
924.9927368463
 31
0.0
  0
ELLIPSE
  5
DD
330
77
100
AcDbEntity
  8
$DDT_AUDIT_GENERATED_(C8)
  6
Continuous
 62
     7
100
AcDbEllipse
 10
32.3325462644
 20
924.995670134
 30
0.0
 11
-2.150000000002894
 21
-9.992007221626409E-13
 31
0.0
210
0.0
220
0.0
230
1.0
 40
0.2588190451
 41
0.4070560671486079
 42
0.6401414840470935
  0
LINE
  5
DE
330
77
100
AcDbEntity
  8
$DDT_AUDIT_GENERATED_(C8)
  6
Continuous
 62
     7
100
AcDbLine
 10
30.3582220635
 20
924.7839205644
 30
0.0
 11
30.3582220635
 21
924.7753629812
 31
0.0
  0
ELLIPSE
  5
DF
330
77
100
AcDbEntity
  8
$DDT_AUDIT_GENERATED_(C8)
  6
Continuous
 62
     7
100
AcDbEllipse
 10
32.3325462493
 20
924.7567985623
 30
0.0
 11
6.250000031206222
 21
4.058420266517260E-9
 31
0.0
210
0.0
220
0.0
230
1.0
 40
0.2588190462
 41
1.292996254988387
 42
1.324997620329208
  0
LINE
  5
E0
330
77
100
AcDbEntity
  8
$DDT_AUDIT_GENERATED_(C8)
  6
Continuous
 62
     7
100
AcDbLine
 10
34.0465508104
 20
926.3123998343
 30
0.0
 11
34.4941328316
 21
926.744730868
 31
0.0
  0
LINE
  5
E1
330
77
100
AcDbEntity
  8
$DDT_AUDIT_GENERATED_(C8)
  6
Continuous
 62
     7
100
AcDbLine
 10
33.8533656452
 20
926.3257972939
 30
0.0
 11
34.2997978816
 21
926.7570177208
 31
0.0
  0
LINE
  5
E2
330
77
100
AcDbEntity
  8
$DDT_AUDIT_GENERATED_(C8)
  6
Continuous
 62
     7
100
AcDbLine
 10
33.8533656452
 20
926.3257972939
 30
0.0
 11
33.8533656452
 21
926.7806687189
 31
0.0
  0
ELLIPSE
  5
E3
330
77
100
AcDbEntity
  8
$DDT_AUDIT_GENERATED_(C8)
  6
Continuous
 62
     7
100
AcDbEllipse
 10
32.3325462356
 20
924.756798564
 30
0.0
 11
6.250000035997988
 21
6.918632333707820E-9
 31
0.0
210
0.0
220
0.0
230
1.0
 40
0.2588190457
 41
1.031196866243681
 42
1.063198231586846
  0
LINE
  5
E4
330
77
100
AcDbEntity
  8
$DDT_AUDIT_GENERATED_(C8)
  6
Continuous
 62
     7
100
AcDbLine
 10
35.5437487792
 20
926.1445774734
 30
0.0
 11
36.4437983382
 21
926.5480586525
 31
0.0
  0
LINE
  5
E5
330
77
100
AcDbEntity
  8
$DDT_AUDIT_GENERATED_(C8)
  6
Continuous
 62
     7
100
AcDbLine
 10
35.3705436984
 20
926.1704593779
 30
0.0
 11
36.2662993068
 21
926.5720156316
 31
0.0
  0
LINE
  5
E6
330
77
100
AcDbEntity
  8
$DDT_AUDIT_GENERATED_(C8)
  6
Continuous
 62
     7
100
AcDbLine
 10
35.3705436984
 20
926.1704593779
 30
0.0
 11
35.3705436984
 21
926.6735930612
 31
0.0
  0
ELLIPSE
  5
E7
330
77
100
AcDbEntity
  8
$DDT_AUDIT_GENERATED_(C8)
  6
Continuous
 62
     7
100
AcDbEllipse
 10
32.3325463082
 20
924.7567985883
 30
0.0
 11
6.249999953539148
 21
-8.640754778355131E-9
 31
0.0
210
0.0
220
0.0
230
1.0
 40
0.2588190451
 41
0.7693974834061295
 42
0.8013988490554468
  0
LINE
  5
E8
330
77
100
AcDbEntity
  8
$DDT_AUDIT_GENERATED_(C8)
  6
Continuous
 62
     7
100
AcDbLine
 10
36.8221086033
 20
925.882180274
 30
0.0
 11
38.1744393118
 21
926.2321892167
 31
0.0
  0
LINE
  5
E9
330
77
100
AcDbEntity
  8
$DDT_AUDIT_GENERATED_(C8)
  6
Continuous
 62
     7
100
AcDbLine
 10
36.6806872471
 20
925.9187828144
 30
0.0
 11
38.0244221251
 21
926.2665669924
 31
0.0
  0
LINE
  5
EA
330
77
100
AcDbEntity
  8
$DDT_AUDIT_GENERATED_(C8)
  6
Continuous
 62
     7
100
AcDbLine
 10
36.6806872471
 20
925.9187828144
 30
0.0
 11
36.6806872471
 21
926.5139427761
 31
0.0
  0
ELLIPSE
  5
EB
330
77
100
AcDbEntity
  8
$DDT_AUDIT_GENERATED_(C8)
  6
Continuous
 62
     7
100
AcDbEllipse
 10
32.332546214
 20
924.7567985694
 30
0.0
 11
6.250000050902698
 21
7.026712545155078E-9
 31
0.0
210
0.0
220
0.0
230
1.0
 40
0.2588190445
 41
0.5075980906211038
 42
0.5395994559628078
  0
LINE
  5
EC
330
77
100
AcDbEntity
  8
$DDT_AUDIT_GENERATED_(C8)
  6
Continuous
 62
     7
100
AcDbLine
 10
37.7945121734
 20
925.5430901718
 30
0.0
 11
39.5788875098
 21
925.8097280318
 31
0.0
  0
LINE
  5
ED
330
77
100
AcDbEntity
  8
$DDT_AUDIT_GENERATED_(C8)
  6
Continuous
 62
     7
100
AcDbLine
 10
37.6945121734
 20
925.5879189454
 30
0.0
 11
39.4659818373
 21
925.8526283205
 31
0.0
  0
LINE
  5
EE
330
77
100
AcDbEntity
  8
$DDT_AUDIT_GENERATED_(C8)
  6
Continuous
 62
     7
100
AcDbLine
 10
37.6945121734
 20
925.5879189454
 30
0.0
 11
37.6945121734
 21
926.107974933
 31
0.0
  0
ELLIPSE
  5
EF
330
77
100
AcDbEntity
  8
$DDT_AUDIT_GENERATED_(C8)
  6
Continuous
 62
     7
100
AcDbEllipse
 10
32.3325462336
 20
924.7567985748
 30
0.0
 11
6.250000030813838
 21
2.195882364830481E-9
 31
0.0
210
0.0
220
0.0
230
1.0
 40
0.2588190445
 41
0.2457987043660832
 42
0.2778000697750999
  0
LINE
  5
F0
330
77
100
AcDbEntity
  8
$DDT_AUDIT_GENERATED_(C8)
  6
Continuous
 62
     7
100
AcDbLine
 10
38.3946917931
 20
925.1504155968
 30
0.0
 11
40.5539464985
 21
925.3001606753
 31
0.0
  0
LINE
  5
F1
330
77
100
AcDbEntity
  8
$DDT_AUDIT_GENERATED_(C8)
  6
Continuous
 62
     7
100
AcDbLine
 10
38.3429279841
 20
925.2004155968
 30
0.0
 11
40.4861169266
 21
925.3490465089
 31
0.0
  0
LINE
  5
F2
330
77
100
AcDbEntity
  8
$DDT_AUDIT_GENERATED_(C8)
  6
Continuous
 62
     7
100
AcDbLine
 10
38.3429279841
 20
925.2004155968
 30
0.0
 11
38.3429279841
 21
925.6250395326
 31
0.0
  0
ARC
  5
F3
330
77
100
AcDbEntity
  8
$DDT_AUDIT_GENERATED_(C8)
  6
Continuous
 62
     7
100
AcDbCircle
 10
40.2626053805
 20
924.7567985769
 30
0.0
 40
0.5699406006661336
100
AcDbArc
 50
357.3972128852
 51
2.6027871148
  0
ELLIPSE
  5
F4
330
77
100
AcDbEntity
  8
$DDT_AUDIT_GENERATED_(C8)
  6
Continuous
 62
     7
100
AcDbEllipse
 10
32.3325462644
 20
924.7567985769
 30
0.0
 11
8.50000000002653
 21
1.276756478318930E-12
 31
0.0
210
0.0
220
0.0
230
1.0
 40
0.2588190451
 41
0.0117649772880837
 42
0.2291964447861332
  0
ARC
  5
F5
330
77
100
AcDbEntity
  8
$DDT_AUDIT_GENERATED_(C8)
  6
Continuous
 62
     7
100
AcDbCircle
 10
38.1631291933
 20
924.7567985769
 30
0.0
 40
0.4194163591648773
100
AcDbArc
 50
0.0
 51
3.537932298
  0
LINE
  5
F6
330
77
100
AcDbEntity
  8
$DDT_AUDIT_GENERATED_(C8)
  6
Continuous
 62
     7
100
AcDbLine
 10
38.5825462644
 20
924.7309166724
 30
0.0
 11
40.8319580088
 21
924.7309166724
 31
0.0
  0
LINE
  5
F7
330
77
100
AcDbEntity
  8
$DDT_AUDIT_GENERATED_(C8)
  6
Continuous
 62
     7
100
AcDbLine
 10
38.5817462132
 20
924.7826804814
 30
0.0
 11
40.8319580088
 21
924.7826804814
 31
0.0
  0
LINE
  5
F8
330
77
100
AcDbEntity
  8
$DDT_AUDIT_GENERATED_(C8)
  6
Continuous
 62
     7
100
AcDbLine
 10
38.5817462132
 20
924.7826804814
 30
0.0
 11
38.5817462132
 21
925.1633878871
 31
0.0
  0
ELLIPSE
  5
F9
330
77
100
AcDbEntity
  8
$DDT_AUDIT_GENERATED_(C8)
  6
Continuous
 62
     7
100
AcDbEllipse
 10
32.3325467199
 20
924.7567985454
 30
0.0
 11
8.499999544289805
 21
3.267219828018142E-8
 31
0.0
210
0.0
220
0.0
230
1.0
 40
0.2588190513
 41
-0.2735643733427784
 42
-0.2500344181140104
  0
ELLIPSE
  5
FA
330
77
100
AcDbEntity
  8
$DDT_AUDIT_GENERATED_(C8)
  6
Continuous
 62
     7
100
AcDbEllipse
 10
32.3325462644
 20
924.7567985769
 30
0.0
 11
8.500000000029793
 21
-1.387778780781446E-12
 31
0.0
210
0.0
220
0.0
230
1.0
 40
0.2588190451
 41
6.033150896669008
 42
6.271420329891493
  0
LINE
  5
FB
330
77
100
AcDbEntity
  8
$DDT_AUDIT_GENERATED_(C8)
  6
Continuous
 62
     7
100
AcDbLine
 10
40.5682294811
 20
924.2124459487
 30
0.0
 11
40.5682294811
 21
924.7309166724
 31
0.0
  0
LINE
  5
FC
330
77
100
AcDbEntity
  8
$DDT_AUDIT_GENERATED_(C8)
  6
Continuous
 62
     7
100
AcDbLine
 10
38.5004315842
 20
924.3022586266
 30
0.0
 11
40.516465672
 21
924.1624459487
 31
0.0
  0
LINE
  5
FD
330
77
100
AcDbEntity
  8
$DDT_AUDIT_GENERATED_(C8)
  6
Continuous
 62
     7
100
AcDbLine
 10
38.5297575465
 20
924.3538146992
 30
0.0
 11
40.5682294811
 21
924.2124459487
 31
0.0
  0
ELLIPSE
  5
FE
330
77
100
AcDbEntity
  8
$DDT_AUDIT_GENERATED_(C8)
  6
Continuous
 62
     7
100
AcDbEllipse
 10
32.3325466725
 20
924.7567985158
 30
0.0
 11
8.49999958768786
 21
5.671765834769360E-8
 31
0.0
210
0.0
220
0.0
230
1.0
 40
0.2588190487
 41
-0.5353637669425533
 42
-0.5118338117141619
  0
ELLIPSE
  5
FF
330
77
100
AcDbEntity
  8
$DDT_AUDIT_GENERATED_(C8)
  6
Continuous
 62
     7
100
AcDbEllipse
 10
32.3325462644
 20
924.7567985769
 30
0.0
 11
8.500000000031024
 21
-4.024558464266192E-12
 31
0.0
210
0.0
220
0.0
230
1.0
 40
0.2588190451
 41
-0.5118337983091648
 42
-0.2735643650866555
  0
LINE
  5
100
330
77
100
AcDbEntity
  8
$DDT_AUDIT_GENERATED_(C8)
  6
Continuous
 62
     7
100
AcDbLine
 10
39.7432527522
 20
923.6793081479
 30
0.0
 11
39.7432527522
 21
924.2160685385
 31
0.0
  0
LINE
  5
101
330
77
100
AcDbEntity
  8
$DDT_AUDIT_GENERATED_(C8)
  6
Continuous
 62
     7
100
AcDbLine
 10
37.9976853165
 20
923.8803752744
 30
0.0
 11
39.6432527522
 21
923.6344793743
 31
0.0
  0
LINE
  5
102
330
77
100
AcDbEntity
  8
$DDT_AUDIT_GENERATED_(C8)
  6
Continuous
 62
     7
100
AcDbLine
 10
38.0796725302
 20
923.9278956851
 30
0.0
 11
39.7432527522
 21
923.6793081479
 31
0.0
  0
ELLIPSE
  5
103
330
77
100
AcDbEntity
  8
$DDT_AUDIT_GENERATED_(C8)
  6
Continuous
 62
     7
100
AcDbEllipse
 10
32.3325465983
 20
924.7567984905
 30
0.0
 11
8.499999645908137
 21
6.554037867978479E-8
 31
0.0
210
0.0
220
0.0
230
1.0
 40
0.2588190451
 41
-0.7971631568947881
 42
-0.7736332016651399
  0
ELLIPSE
  5
104
330
77
100
AcDbEntity
  8
$DDT_AUDIT_GENERATED_(C8)
  6
Continuous
 62
     7
100
AcDbEllipse
 10
32.3325462644
 20
924.7567985769
 30
0.0
 11
8.500000000013941
 21
-2.442490654175344E-12
 31
0.0
210
0.0
220
0.0
230
1.0
 40
0.2588190451
 41
-0.7736331861086594
 42
-0.5353637528859228
  0
LINE
  5
105
330
77
100
AcDbEntity
  8
$DDT_AUDIT_GENERATED_(C8)
  6
Continuous
 62
     7
100
AcDbLine
 10
38.4132486231
 20
923.2195995393
 30
0.0
 11
38.4132486231
 21
923.8182779631
 31
0.0
  0
LINE
  5
106
330
77
100
AcDbEntity
  8
$DDT_AUDIT_GENERATED_(C8)
  6
Continuous
 62
     7
100
AcDbLine
 10
37.0440935287
 20
923.5007578727
 30
0.0
 11
38.2718272668
 21
923.1829969989
 31
0.0
  0
LINE
  5
107
330
77
100
AcDbEntity
  8
$DDT_AUDIT_GENERATED_(C8)
  6
Continuous
 62
     7
100
AcDbLine
 10
37.173527954
 20
923.5404628591
 30
0.0
 11
38.4132486231
 21
923.2195995393
 31
0.0
  0
ELLIPSE
  5
108
330
77
100
AcDbEntity
  8
$DDT_AUDIT_GENERATED_(C8)
  6
Continuous
 62
     7
100
AcDbEllipse
 10
32.3325465005
 20
924.7567984711
 30
0.0
 11
8.499999704873341
 21
5.673614356105361E-8
 31
0.0
210
0.0
220
0.0
230
1.0
 40
0.2588190415
 41
-1.058962542568612
 42
-1.035432587338844
  0
ELLIPSE
  5
109
330
77
100
AcDbEntity
  8
$DDT_AUDIT_GENERATED_(C8)
  6
Continuous
 62
     7
100
AcDbEllipse
 10
32.3325462644
 20
924.7567985769
 30
0.0
 11
8.499999999997542
 21
-1.665334536937735E-13
 31
0.0
210
0.0
220
0.0
230
1.0
 40
0.2588190451
 41
-1.035432573908632
 42
-0.797163140685619
  0
LINE
  5
10A
330
77
100
AcDbEntity
  8
$DDT_AUDIT_GENERATED_(C8)
  6
Continuous
 62
     7
100
AcDbLine
 10
36.668854677
 20
922.8646485047
 30
0.0
 11
36.668854677
 21
923.3986709497
 31
0.0
  0
LINE
  5
10B
330
77
100
AcDbEntity
  8
$DDT_AUDIT_GENERATED_(C8)
  6
Continuous
 62
     7
100
AcDbLine
 10
35.6911617365
 20
923.1994086415
 30
0.0
 11
36.4956495962
 21
922.8387666002
 31
0.0
  0
LINE
  5
10C
330
77
100
AcDbEntity
  8
$DDT_AUDIT_GENERATED_(C8)
  6
Continuous
 62
     7
100
AcDbLine
 10
35.8583840905
 20
923.2279725291
 30
0.0
 11
36.668854677
 21
922.8646485047
 31
0.0
  0
ELLIPSE
  5
10D
330
77
100
AcDbEntity
  8
$DDT_AUDIT_GENERATED_(C8)
  6
Continuous
 62
     7
100
AcDbEllipse
 10
32.3325463779
 20
924.7567984674
 30
0.0
 11
8.499999766326363
 21
3.041444873730370E-8
 31
0.0
210
0.0
220
0.0
230
1.0
 40
0.2588190393
 41
-1.320761923963651
 42
-1.297231968781232
  0
ELLIPSE
  5
10E
330
77
100
AcDbEntity
  8
$DDT_AUDIT_GENERATED_(C8)
  6
Continuous
 62
     7
100
AcDbEllipse
 10
32.3325462644
 20
924.7567985769
 30
0.0
 11
8.500000000017456
 21
-3.136380044566067E-12
 31
0.0
210
0.0
220
0.0
230
1.0
 40
0.2588190451
 41
-1.297231961706704
 42
-1.05896252848416
  0
LINE
  5
10F
330
77
100
AcDbEntity
  8
$DDT_AUDIT_GENERATED_(C8)
  6
Continuous
 62
     7
100
AcDbLine
 10
34.6289484787
 20
922.6386443707
 30
0.0
 11
34.6289484787
 21
923.0591413163
 31
0.0
  0
LINE
  5
110
330
77
100
AcDbEntity
  8
$DDT_AUDIT_GENERATED_(C8)
  6
Continuous
 62
     7
100
AcDbLine
 10
34.0399954482
 20
923.0075293133
 30
0.0
 11
34.4357633134
 21
922.625246911
 31
0.0
  0
LINE
  5
111
330
77
100
AcDbEntity
  8
$DDT_AUDIT_GENERATED_(C8)
  6
Continuous
 62
     7
100
AcDbLine
 10
34.2315796432
 20
923.0224731914
 30
0.0
 11
34.6289484787
 21
922.6386443707
 31
0.0
  0
ARC
  5
112
330
77
100
AcDbEntity
  8
$DDT_AUDIT_GENERATED_(C8)
  6
Continuous
 62
     7
100
AcDbCircle
 10
32.3325462644
 20
955.3961941945
 30
0.0
 40
32.83935750582594
100
AcDbArc
 50
269.82552683
 51
270.17447317
  0
ELLIPSE
  5
113
330
77
100
AcDbEntity
  8
$DDT_AUDIT_GENERATED_(C8)
  6
Continuous
 62
     7
100
AcDbEllipse
 10
32.3325462644
 20
924.7567985769
 30
0.0
 11
8.499999999995264
 21
1.665334536937735E-13
 31
0.0
210
0.0
220
0.0
230
1.0
 40
0.2588190451
 41
4.724153957672645
 42
4.962423390895751
  0
LINE
  5
114
330
77
100
AcDbEntity
  8
$DDT_AUDIT_GENERATED_(C8)
  6
Continuous
 62
     7
100
AcDbLine
 10
32.2325462644
 20
922.9462014483
 30
0.0
 11
32.2325462644
 21
922.5569889453
 31
0.0
  0
LINE
  5
115
330
77
100
AcDbEntity
  8
$DDT_AUDIT_GENERATED_(C8)
  6
Continuous
 62
     7
100
AcDbLine
 10
32.4325462644
 20
922.9462014483
 30
0.0
 11
32.4325462644
 21
922.5569889453
 31
0.0
  0
ELLIPSE
  5
116
330
77
100
AcDbEntity
  8
$DDT_AUDIT_GENERATED_(C8)
  6
Continuous
 62
     7
100
AcDbEllipse
 10
32.3325461426
 20
924.7567984592
 30
0.0
 11
-8.49999974891011
 21
3.265471226754357E-8
 31
0.0
210
0.0
220
0.0
230
1.0
 40
0.2588190389
 41
1.29723196929879
 42
1.320761924526461
  0
ELLIPSE
  5
117
330
77
100
AcDbEntity
  8
$DDT_AUDIT_GENERATED_(C8)
  6
Continuous
 62
     7
100
AcDbEllipse
 10
32.3325462644
 20
924.7567985769
 30
0.0
 11
-8.500000000006271
 21
-5.273559366969494E-13
 31
0.0
210
0.0
220
0.0
230
1.0
 40
0.2588190451
 41
1.320761916283799
 42
1.5590313495066
  0
LINE
  5
118
330
77
100
AcDbEntity
  8
$DDT_AUDIT_GENERATED_(C8)
  6
Continuous
 62
     7
100
AcDbLine
 10
30.0361440502
 20
922.6386443707
 30
0.0
 11
30.0361440502
 21
923.0591413163
 31
0.0
  0
LINE
  5
119
330
77
100
AcDbEntity
  8
$DDT_AUDIT_GENERATED_(C8)
  6
Continuous
 62
     7
100
AcDbLine
 10
30.4335128856
 20
923.0224731914
 30
0.0
 11
30.0361440502
 21
922.6386443707
 31
0.0
  0
LINE
  5
11A
330
77
100
AcDbEntity
  8
$DDT_AUDIT_GENERATED_(C8)
  6
Continuous
 62
     7
100
AcDbLine
 10
30.6250970807
 20
923.0075293133
 30
0.0
 11
30.2293292154
 21
922.625246911
 31
0.0
  0
ELLIPSE
  5
11B
330
77
100
AcDbEntity
  8
$DDT_AUDIT_GENERATED_(C8)
  6
Continuous
 62
     7
100
AcDbEllipse
 10
32.3325460283
 20
924.7567984711
 30
0.0
 11
-8.499999704861105
 21
5.674372083319668E-8
 31
0.0
210
0.0
220
0.0
230
1.0
 40
0.2588190415
 41
1.03543258733952
 42
1.058962542569312
  0
ELLIPSE
  5
11C
330
77
100
AcDbEntity
  8
$DDT_AUDIT_GENERATED_(C8)
  6
Continuous
 62
     7
100
AcDbEllipse
 10
32.3325462644
 20
924.7567985769
 30
0.0
 11
-8.499999999996291
 21
4.996003610813204E-13
 31
0.0
210
0.0
220
0.0
230
1.0
 40
0.2588190451
 41
1.058962528484802
 42
1.297231961707853
  0
LINE
  5
11D
330
77
100
AcDbEntity
  8
$DDT_AUDIT_GENERATED_(C8)
  6
Continuous
 62
     7
100
AcDbLine
 10
27.9962378519
 20
922.8646485047
 30
0.0
 11
27.9962378519
 21
923.3986709497
 31
0.0
  0
LINE
  5
11E
330
77
100
AcDbEntity
  8
$DDT_AUDIT_GENERATED_(C8)
  6
Continuous
 62
     7
100
AcDbLine
 10
28.8067084384
 20
923.2279725291
 30
0.0
 11
27.9962378519
 21
922.8646485047
 31
0.0
  0
LINE
  5
11F
330
77
100
AcDbEntity
  8
$DDT_AUDIT_GENERATED_(C8)
  6
Continuous
 62
     7
100
AcDbLine
 10
28.9739307923
 20
923.1994086415
 30
0.0
 11
28.1694429326
 21
922.8387666002
 31
0.0
  0
ELLIPSE
  5
120
330
77
100
AcDbEntity
  8
$DDT_AUDIT_GENERATED_(C8)
  6
Continuous
 62
     7
100
AcDbEllipse
 10
32.3325459541
 20
924.7567984965
 30
0.0
 11
-8.499999670801902
 21
6.093234250492685E-8
 31
0.0
210
0.0
220
0.0
230
1.0
 40
0.2588190451
 41
0.7736332005686902
 42
0.7971631557524771
  0
ELLIPSE
  5
121
330
77
100
AcDbEntity
  8
$DDT_AUDIT_GENERATED_(C8)
  6
Continuous
 62
     7
100
AcDbEllipse
 10
32.3325462644
 20
924.7567985769
 30
0.0
 11
-8.499999999995739
 21
7.216449660063518E-13
 31
0.0
210
0.0
220
0.0
230
1.0
 40
0.2588190451
 41
0.7971631406856791
 42
1.035432573908747
  0
LINE
  5
122
330
77
100
AcDbEntity
  8
$DDT_AUDIT_GENERATED_(C8)
  6
Continuous
 62
     7
100
AcDbLine
 10
26.2518439058
 20
923.2195995393
 30
0.0
 11
26.2518439058
 21
923.8182779631
 31
0.0
  0
LINE
  5
123
330
77
100
AcDbEntity
  8
$DDT_AUDIT_GENERATED_(C8)
  6
Continuous
 62
     7
100
AcDbLine
 10
27.4915645748
 20
923.5404628591
 30
0.0
 11
26.2518439058
 21
923.2195995393
 31
0.0
  0
LINE
  5
124
330
77
100
AcDbEntity
  8
$DDT_AUDIT_GENERATED_(C8)
  6
Continuous
 62
     7
100
AcDbLine
 10
27.6209990002
 20
923.5007578727
 30
0.0
 11
26.393265262
 21
923.1829969989
 31
0.0
  0
ELLIPSE
  5
125
330
77
100
AcDbEntity
  8
$DDT_AUDIT_GENERATED_(C8)
  6
Continuous
 62
     7
100
AcDbEllipse
 10
32.3325458551
 20
924.7567985158
 30
0.0
 11
-8.499999586400858
 21
5.670869329676975E-8
 31
0.0
210
0.0
220
0.0
230
1.0
 40
0.2588190487
 41
0.5118338117509298
 42
0.5353637669813456
  0
ELLIPSE
  5
126
330
77
100
AcDbEntity
  8
$DDT_AUDIT_GENERATED_(C8)
  6
Continuous
 62
     7
100
AcDbEllipse
 10
32.3325462644
 20
924.7567985769
 30
0.0
 11
-8.500000000021302
 21
-3.691491556878645E-12
 31
0.0
210
0.0
220
0.0
230
1.0
 40
0.2588190451
 41
0.5353637528856928
 42
0.7736331861082998
  0
LINE
  5
127
330
77
100
AcDbEntity
  8
$DDT_AUDIT_GENERATED_(C8)
  6
Continuous
 62
     7
100
AcDbLine
 10
24.9218397766
 20
923.6793081479
 30
0.0
 11
24.9218397766
 21
924.2160685385
 31
0.0
  0
LINE
  5
128
330
77
100
AcDbEntity
  8
$DDT_AUDIT_GENERATED_(C8)
  6
Continuous
 62
     7
100
AcDbLine
 10
26.5854199986
 20
923.9278956851
 30
0.0
 11
24.9218397766
 21
923.6793081479
 31
0.0
  0
LINE
  5
129
330
77
100
AcDbEntity
  8
$DDT_AUDIT_GENERATED_(C8)
  6
Continuous
 62
     7
100
AcDbLine
 10
26.6674072123
 20
923.8803752744
 30
0.0
 11
25.0218397766
 21
923.6344793743
 31
0.0
  0
ELLIPSE
  5
12A
330
77
100
AcDbEntity
  8
$DDT_AUDIT_GENERATED_(C8)
  6
Continuous
 62
     7
100
AcDbEllipse
 10
32.3325458738
 20
924.7567985499
 30
0.0
 11
-8.499999609127951
 21
2.801933685070424E-8
 31
0.0
210
0.0
220
0.0
230
1.0
 40
0.2588190504
 41
0.2500344170313021
 42
0.2735643721672689
  0
ELLIPSE
  5
12B
330
77
100
AcDbEntity
  8
$DDT_AUDIT_GENERATED_(C8)
  6
Continuous
 62
     7
100
AcDbEllipse
 10
32.3325462644
 20
924.7567985769
 30
0.0
 11
-8.500000000024654
 21
-2.442490654175344E-12
 31
0.0
210
0.0
220
0.0
230
1.0
 40
0.2588190451
 41
0.2735643650867957
 42
0.5118337983093936
  0
LINE
  5
12C
330
77
100
AcDbEntity
  8
$DDT_AUDIT_GENERATED_(C8)
  6
Continuous
 62
     7
100
AcDbLine
 10
24.0968630478
 20
924.2124459487
 30
0.0
 11
24.0968630478
 21
924.7309166724
 31
0.0
  0
LINE
  5
12D
330
77
100
AcDbEntity
  8
$DDT_AUDIT_GENERATED_(C8)
  6
Continuous
 62
     7
100
AcDbLine
 10
26.1353349824
 20
924.3538146992
 30
0.0
 11
24.0968630478
 21
924.2124459487
 31
0.0
  0
LINE
  5
12E
330
77
100
AcDbEntity
  8
$DDT_AUDIT_GENERATED_(C8)
  6
Continuous
 62
     7
100
AcDbLine
 10
26.1646609446
 20
924.3022586266
 30
0.0
 11
24.1486268568
 21
924.1624459487
 31
0.0
  0
ARC
  5
12F
330
77
100
AcDbEntity
  8
$DDT_AUDIT_GENERATED_(C8)
  6
Continuous
 62
     7
100
AcDbCircle
 10
24.4024871483
 20
924.7567985769
 30
0.0
 40
0.5699406006652947
100
AcDbArc
 50
177.3972128852
 51
182.6027871148
  0
ELLIPSE
  5
130
330
77
100
AcDbEntity
  8
$DDT_AUDIT_GENERATED_(C8)
  6
Continuous
 62
     7
100
AcDbEllipse
 10
32.3325462644
 20
924.7567985769
 30
0.0
 11
-8.500000000031136
 21
-1.443289932012704E-12
 31
0.0
210
0.0
220
0.0
230
1.0
 40
0.2588190451
 41
0.0117649772880931
 42
0.250034410510561
  0
ARC
  5
131
330
77
100
AcDbEntity
  8
$DDT_AUDIT_GENERATED_(C8)
  6
Continuous
 62
     7
100
AcDbCircle
 10
26.5019633355
 20
924.7567985769
 30
0.0
 40
0.419416359164763
100
AcDbArc
 50
176.462067702
 51
180.0
  0
LINE
  5
132
330
77
100
AcDbEntity
  8
$DDT_AUDIT_GENERATED_(C8)
  6
Continuous
 62
     7
100
AcDbLine
 10
26.0833463156
 20
924.7826804814
 30
0.0
 11
26.0833463156
 21
925.1633878871
 31
0.0
  0
LINE
  5
133
330
77
100
AcDbEntity
  8
$DDT_AUDIT_GENERATED_(C8)
  6
Continuous
 62
     7
100
AcDbLine
 10
26.0833463156
 20
924.7826804814
 30
0.0
 11
23.8331345201
 21
924.7826804814
 31
0.0
  0
LINE
  5
134
330
77
100
AcDbEntity
  8
$DDT_AUDIT_GENERATED_(C8)
  6
Continuous
 62
     7
100
AcDbLine
 10
26.0825462644
 20
924.7309166724
 30
0.0
 11
23.8331345201
 21
924.7309166724
 31
0.0
  0
ELLIPSE
  5
135
330
77
100
AcDbEntity
  8
$DDT_AUDIT_GENERATED_(C8)
  6
Continuous
 62
     7
100
AcDbEllipse
 10
32.3325462644
 20
924.7567985769
 30
0.0
 11
-8.500000000029511
 21
1.387778780781445E-12
 31
0.0
210
0.0
220
0.0
230
1.0
 40
0.2588190451
 41
6.05398886239351
 42
6.271420329891541
  0
ELLIPSE
  5
136
330
77
100
AcDbEntity
  8
$DDT_AUDIT_GENERATED_(C8)
  6
Continuous
 62
     7
100
AcDbEllipse
 10
32.3325462951
 20
924.7567985748
 30
0.0
 11
-6.250000030745602
 21
2.190997383522131E-9
 31
0.0
210
0.0
220
0.0
230
1.0
 40
0.2588190445
 41
-0.277800069776684
 42
-0.245798704367477
  0
LINE
  5
137
330
77
100
AcDbEntity
  8
$DDT_AUDIT_GENERATED_(C8)
  6
Continuous
 62
     7
100
AcDbLine
 10
26.3221645447
 20
925.2004155968
 30
0.0
 11
26.3221645447
 21
925.6250395326
 31
0.0
  0
LINE
  5
138
330
77
100
AcDbEntity
  8
$DDT_AUDIT_GENERATED_(C8)
  6
Continuous
 62
     7
100
AcDbLine
 10
26.3221645447
 20
925.2004155968
 30
0.0
 11
24.1789756023
 21
925.3490465089
 31
0.0
  0
LINE
  5
139
330
77
100
AcDbEntity
  8
$DDT_AUDIT_GENERATED_(C8)
  6
Continuous
 62
     7
100
AcDbLine
 10
26.2704007357
 20
925.1504155968
 30
0.0
 11
24.1111460303
 21
925.3001606753
 31
0.0
  0
ELLIPSE
  5
13A
330
77
100
AcDbEntity
  8
$DDT_AUDIT_GENERATED_(C8)
  6
Continuous
 62
     7
100
AcDbEllipse
 10
32.3325463147
 20
924.7567985694
 30
0.0
 11
-6.250000050794158
 21
7.011807801049486E-9
 31
0.0
210
0.0
220
0.0
230
1.0
 40
0.2588190445
 41
-0.5395994559675694
 42
-0.507598090625538
  0
LINE
  5
13B
330
77
100
AcDbEntity
  8
$DDT_AUDIT_GENERATED_(C8)
  6
Continuous
 62
     7
100
AcDbLine
 10
26.9705803554
 20
925.5879189454
 30
0.0
 11
26.9705803554
 21
926.107974933
 31
0.0
  0
LINE
  5
13C
330
77
100
AcDbEntity
  8
$DDT_AUDIT_GENERATED_(C8)
  6
Continuous
 62
     7
100
AcDbLine
 10
26.9705803554
 20
925.5879189454
 30
0.0
 11
25.1991106915
 21
925.8526283205
 31
0.0
  0
LINE
  5
13D
330
77
100
AcDbEntity
  8
$DDT_AUDIT_GENERATED_(C8)
  6
Continuous
 62
     7
100
AcDbLine
 10
26.8705803554
 20
925.5430901718
 30
0.0
 11
25.086205019
 21
925.8097280318
 31
0.0
  0
ELLIPSE
  5
13E
330
77
100
AcDbEntity
  8
$DDT_AUDIT_GENERATED_(C8)
  6
Continuous
 62
     7
100
AcDbEllipse
 10
32.3325463053
 20
924.7567985663
 30
0.0
 11
-6.250000043322268
 21
8.046008304063434E-9
 31
0.0
210
0.0
220
0.0
230
1.0
 40
0.2588190451
 41
-0.8013988434243098
 42
-0.76939747808155
  0
LINE
  5
13F
330
77
100
AcDbEntity
  8
$DDT_AUDIT_GENERATED_(C8)
  6
Continuous
 62
     7
100
AcDbLine
 10
27.9844052818
 20
925.9187828144
 30
0.0
 11
27.9844052818
 21
926.5139427761
 31
0.0
  0
LINE
  5
140
330
77
100
AcDbEntity
  8
$DDT_AUDIT_GENERATED_(C8)
  6
Continuous
 62
     7
100
AcDbLine
 10
27.9844052818
 20
925.9187828144
 30
0.0
 11
26.6406704037
 21
926.2665669924
 31
0.0
  0
LINE
  5
141
330
77
100
AcDbEntity
  8
$DDT_AUDIT_GENERATED_(C8)
  6
Continuous
 62
     7
100
AcDbLine
 10
27.8429839255
 20
925.882180274
 30
0.0
 11
26.490653217
 21
926.2321892167
 31
0.0
  0
ELLIPSE
  5
142
330
77
100
AcDbEntity
  8
$DDT_AUDIT_GENERATED_(C8)
  6
Continuous
 62
     7
100
AcDbEllipse
 10
32.3325462403
 20
924.7567985877
 30
0.0
 11
-6.249999969877453
 21
-5.791644941410823E-9
 31
0.0
210
0.0
220
0.0
230
1.0
 40
0.2588190446
 41
-1.063198235912058
 42
-1.031196870298019
  0
LINE
  5
143
330
77
100
AcDbEntity
  8
$DDT_AUDIT_GENERATED_(C8)
  6
Continuous
 62
     7
100
AcDbLine
 10
29.2945488304
 20
926.1704593779
 30
0.0
 11
29.2945488304
 21
926.6735930612
 31
0.0
  0
LINE
  5
144
330
77
100
AcDbEntity
  8
$DDT_AUDIT_GENERATED_(C8)
  6
Continuous
 62
     7
100
AcDbLine
 10
29.2945488304
 20
926.1704593779
 30
0.0
 11
28.398793222
 21
926.5720156316
 31
0.0
  0
LINE
  5
145
330
77
100
AcDbEntity
  8
$DDT_AUDIT_GENERATED_(C8)
  6
Continuous
 62
     7
100
AcDbLine
 10
29.1213437496
 20
926.1445774734
 30
0.0
 11
28.2212941906
 21
926.5480586525
 31
0.0
  0
ELLIPSE
  5
146
330
77
100
AcDbEntity
  8
$DDT_AUDIT_GENERATED_(C8)
  6
Continuous
 62
     7
100
AcDbEllipse
 10
32.3325462794
 20
924.7567985625
 30
0.0
 11
-6.250000030840031
 21
4.019673482957842E-9
 31
0.0
210
0.0
220
0.0
230
1.0
 40
0.2588190461
 41
-1.324997620342981
 42
-1.292996255000284
  0
LINE
  5
147
330
77
100
AcDbEntity
  8
$DDT_AUDIT_GENERATED_(C8)
  6
Continuous
 62
     7
100
AcDbLine
 10
30.8117268836
 20
926.3257972939
 30
0.0
 11
30.8117268836
 21
926.7806687189
 31
0.0
  0
LINE
  5
148
330
77
100
AcDbEntity
  8
$DDT_AUDIT_GENERATED_(C8)
  6
Continuous
 62
     7
100
AcDbLine
 10
30.8117268836
 20
926.3257972939
 30
0.0
 11
30.3652946473
 21
926.7570177208
 31
0.0
  0
LINE
  5
149
330
77
100
AcDbEntity
  8
$DDT_AUDIT_GENERATED_(C8)
  6
Continuous
 62
     7
100
AcDbLine
 10
30.6185417184
 20
926.3123998343
 30
0.0
 11
30.1709596972
 21
926.744730868
 31
0.0
  0
ARC
  5
14A
330
77
100
AcDbEntity
  8
$DDT_AUDIT_GENERATED_(C8)
  6
Continuous
 62
     7
100
AcDbCircle
 10
32.3325462644
 20
914.8634598755
 30
0.0
 40
10.60509244207737
100
AcDbArc
 50
89.0544904184
 51
90.9455095816
  0
LINE
  5
14B
330
77
100
AcDbEntity
  8
$DDT_AUDIT_GENERATED_(C8)
  6
Continuous
 62
     7
100
AcDbLine
 10
32.5075462644
 20
925.4671083375
 30
0.0
 11
32.5075462644
 21
925.9216582998
 31
0.0
  0
LINE
  5
14C
330
77
100
AcDbEntity
  8
$DDT_AUDIT_GENERATED_(C8)
  6
Continuous
 62
     7
100
AcDbLine
 10
32.1575462644
 20
925.4671083375
 30
0.0
 11
32.1575462644
 21
925.9216582998
 31
0.0
  0
ELLIPSE
  5
14D
330
77
100
AcDbEntity
  8
$DDT_AUDIT_GENERATED_(C8)
  6
Continuous
 62
     7
100
AcDbEllipse
 10
32.3325462645
 20
924.756798577
 30
0.0
 11
2.749999999900639
 21
-1.990074771640593E-11
 31
0.0
210
0.0
220
0.0
230
1.0
 40
0.2588190451
 41
0.9835181589521791
 42
1.110876943469906
  0
LINE
  5
14E
330
77
100
AcDbEntity
  8
$DDT_AUDIT_GENERATED_(C8)
  6
Continuous
 62
     7
100
AcDbLine
 10
33.5532049035
 20
925.8851753007
 30
0.0
 11
33.5532049035
 21
925.3945915406
 31
0.0
  0
LINE
  5
14F
330
77
100
AcDbEntity
  8
$DDT_AUDIT_GENERATED_(C8)
  6
Continuous
 62
     7
100
AcDbLine
 10
33.8563137948
 20
925.3492982077
 30
0.0
 11
34.7840242359
 21
925.765179421
 31
0.0
  0
LINE
  5
150
330
77
100
AcDbEntity
  8
$DDT_AUDIT_GENERATED_(C8)
  6
Continuous
 62
     7
100
AcDbLine
 10
33.5532049035
 20
925.3945915406
 30
0.0
 11
34.4684366183
 21
925.804878694
 31
0.0
  0
ELLIPSE
  5
151
330
77
100
AcDbEntity
  8
$DDT_AUDIT_GENERATED_(C8)
  6
Continuous
 62
     7
100
AcDbEllipse
 10
32.3325462644
 20
924.7567985769
 30
0.0
 11
2.749999999995287
 21
-6.106226635438361E-13
 31
0.0
210
0.0
220
0.0
230
1.0
 40
0.2588190451
 41
0.4599193833417471
 42
0.587278167855904
  0
LINE
  5
152
330
77
100
AcDbEntity
  8
$DDT_AUDIT_GENERATED_(C8)
  6
Continuous
 62
     7
100
AcDbLine
 10
34.621789046
 20
925.6924513751
 30
0.0
 11
34.621789046
 21
925.1511786341
 31
0.0
  0
LINE
  5
153
330
77
100
AcDbEntity
  8
$DDT_AUDIT_GENERATED_(C8)
  6
Continuous
 62
     7
100
AcDbLine
 10
34.796789046
 20
925.0727282803
 30
0.0
 11
36.62510844
 21
925.3459326676
 31
0.0
  0
LINE
  5
154
330
77
100
AcDbEntity
  8
$DDT_AUDIT_GENERATED_(C8)
  6
Continuous
 62
     7
100
AcDbLine
 10
34.621789046
 20
925.1511786341
 30
0.0
 11
36.4124802262
 21
925.4187602658
 31
0.0
  0
ELLIPSE
  5
155
330
77
100
AcDbEntity
  8
$DDT_AUDIT_GENERATED_(C8)
  6
Continuous
 62
     7
100
AcDbEllipse
 10
32.3325462644
 20
924.7567985769
 30
0.0
 11
-2.750000000001379
 21
0.0
 31
0.0
210
0.0
220
0.0
230
1.0
 40
0.2588190451
 41
3.141592653589793
 42
3.205272045846773
  0
LINE
  5
156
330
77
100
AcDbEntity
  8
$DDT_AUDIT_GENERATED_(C8)
  6
Continuous
 62
     7
100
AcDbLine
 10
35.0769724339
 20
925.1145958725
 30
0.0
 11
35.0769724339
 21
924.8020919098
 31
0.0
  0
LINE
  5
157
330
77
100
AcDbEntity
  8
$DDT_AUDIT_GENERATED_(C8)
  6
Continuous
 62
     7
100
AcDbLine
 10
35.0825462644
 20
924.711505244
 30
0.0
 11
37.5513574727
 21
924.711505244
 31
0.0
  0
LINE
  5
158
330
77
100
AcDbEntity
  8
$DDT_AUDIT_GENERATED_(C8)
  6
Continuous
 62
     7
100
AcDbLine
 10
35.0769724339
 20
924.8020919098
 30
0.0
 11
37.5010570087
 21
924.8020919098
 31
0.0
  0
ELLIPSE
  5
159
330
77
100
AcDbEntity
  8
$DDT_AUDIT_GENERATED_(C8)
  6
Continuous
 62
     7
100
AcDbEllipse
 10
32.3325462628
 20
924.7567985772
 30
0.0
 11
5.250000001607113
 21
-2.203237592368623E-10
 31
0.0
210
0.0
220
0.0
230
1.0
 40
0.2588190451
 41
-0.5569382847670523
 42
-0.4902592662561016
  0
LINE
  5
15A
330
77
100
AcDbEntity
  8
$DDT_AUDIT_GENERATED_(C8)
  6
Continuous
 62
     7
100
AcDbLine
 10
34.9145685328
 20
924.318668702
 30
0.0
 11
36.7891530248
 21
924.038550956
 31
0.0
  0
LINE
  5
15B
330
77
100
AcDbEntity
  8
$DDT_AUDIT_GENERATED_(C8)
  6
Continuous
 62
     7
100
AcDbLine
 10
35.0160995605
 20
924.4080974689
 30
0.0
 11
36.9641530248
 21
924.1170013098
 31
0.0
  0
LINE
  5
15C
330
77
100
AcDbEntity
  8
$DDT_AUDIT_GENERATED_(C8)
  6
Continuous
 62
     7
100
AcDbLine
 10
36.9641530248
 20
924.711505244
 30
0.0
 11
36.9641530248
 21
924.1170013098
 31
0.0
  0
ELLIPSE
  5
15D
330
77
100
AcDbEntity
  8
$DDT_AUDIT_GENERATED_(C8)
  6
Continuous
 62
     7
100
AcDbEllipse
 10
32.3325462662
 20
924.7567985761
 30
0.0
 11
5.249999997805351
 21
4.245492846166598E-10
 31
0.0
210
0.0
220
0.0
230
1.0
 40
0.2588190451
 41
-1.080537060634896
 42
-1.013858042090015
  0
LINE
  5
15E
330
77
100
AcDbEntity
  8
$DDT_AUDIT_GENERATED_(C8)
  6
Continuous
 62
     7
100
AcDbLine
 10
33.8756208626
 20
923.9744704929
 30
0.0
 11
34.8045330801
 21
923.5580505379
 31
0.0
  0
LINE
  5
15F
330
77
100
AcDbEntity
  8
$DDT_AUDIT_GENERATED_(C8)
  6
Continuous
 62
     7
100
AcDbLine
 10
34.1547080312
 20
924.0305324695
 30
0.0
 11
35.1076419714
 21
923.6033438708
 31
0.0
  0
LINE
  5
160
330
77
100
AcDbEntity
  8
$DDT_AUDIT_GENERATED_(C8)
  6
Continuous
 62
     7
100
AcDbLine
 10
35.1076419714
 20
924.2898178838
 30
0.0
 11
35.1076419714
 21
923.6033438708
 31
0.0
  0
ARC
  5
161
330
77
100
AcDbEntity
  8
$DDT_AUDIT_GENERATED_(C8)
  6
Continuous
 62
     7
100
AcDbCircle
 10
32.3325462644
 20
943.6719237742
 30
0.0
 40
20.27392537993508
100
AcDbArc
 50
269.5054294744
 51
270.4945705256
  0
LINE
  5
162
330
77
100
AcDbEntity
  8
$DDT_AUDIT_GENERATED_(C8)
  6
Continuous
 62
     7
100
AcDbLine
 10
32.1575462644
 20
923.8533036511
 30
0.0
 11
32.1575462644
 21
923.3987536888
 31
0.0
  0
LINE
  5
163
330
77
100
AcDbEntity
  8
$DDT_AUDIT_GENERATED_(C8)
  6
Continuous
 62
     7
100
AcDbLine
 10
32.5075462644
 20
923.8533036511
 30
0.0
 11
32.5075462644
 21
923.3987536888
 31
0.0
  0
ELLIPSE
  5
164
330
77
100
AcDbEntity
  8
$DDT_AUDIT_GENERATED_(C8)
  6
Continuous
 62
     7
100
AcDbEllipse
 10
32.3325462626
 20
924.7567985761
 30
0.0
 11
-5.249999997668008
 21
4.518330154468230E-10
 31
0.0
210
0.0
220
0.0
230
1.0
 40
0.2588190451
 41
1.013858042100239
 42
1.080537060646519
  0
LINE
  5
165
330
77
100
AcDbEntity
  8
$DDT_AUDIT_GENERATED_(C8)
  6
Continuous
 62
     7
100
AcDbLine
 10
30.5103844976
 20
924.0305324695
 30
0.0
 11
29.5574505574
 21
923.6033438708
 31
0.0
  0
LINE
  5
166
330
77
100
AcDbEntity
  8
$DDT_AUDIT_GENERATED_(C8)
  6
Continuous
 62
     7
100
AcDbLine
 10
30.7894716663
 20
923.9744704929
 30
0.0
 11
29.8605594487
 21
923.5580505379
 31
0.0
  0
LINE
  5
167
330
77
100
AcDbEntity
  8
$DDT_AUDIT_GENERATED_(C8)
  6
Continuous
 62
     7
100
AcDbLine
 10
29.5574505574
 20
924.2898178838
 30
0.0
 11
29.5574505574
 21
923.6033438708
 31
0.0
  0
ELLIPSE
  5
168
330
77
100
AcDbEntity
  8
$DDT_AUDIT_GENERATED_(C8)
  6
Continuous
 62
     7
100
AcDbEllipse
 10
32.332546266
 20
924.7567985772
 30
0.0
 11
-5.250000001581082
 21
-2.166600232555993E-10
 31
0.0
210
0.0
220
0.0
230
1.0
 40
0.2588190451
 41
0.4902592662576147
 42
0.5569382847686932
  0
LINE
  5
169
330
77
100
AcDbEntity
  8
$DDT_AUDIT_GENERATED_(C8)
  6
Continuous
 62
     7
100
AcDbLine
 10
29.6489929683
 20
924.4080974689
 30
0.0
 11
27.700939504
 21
924.1170013098
 31
0.0
  0
LINE
  5
16A
330
77
100
AcDbEntity
  8
$DDT_AUDIT_GENERATED_(C8)
  6
Continuous
 62
     7
100
AcDbLine
 10
29.7505239961
 20
924.318668702
 30
0.0
 11
27.875939504
 21
924.038550956
 31
0.0
  0
LINE
  5
16B
330
77
100
AcDbEntity
  8
$DDT_AUDIT_GENERATED_(C8)
  6
Continuous
 62
     7
100
AcDbLine
 10
27.700939504
 20
924.711505244
 30
0.0
 11
27.700939504
 21
924.1170013098
 31
0.0
  0
LINE
  5
16C
330
77
100
AcDbEntity
  8
$DDT_AUDIT_GENERATED_(C8)
  6
Continuous
 62
     7
100
AcDbLine
 10
29.5881200949
 20
925.1145958725
 30
0.0
 11
29.5881200949
 21
924.8020919098
 31
0.0
  0
ELLIPSE
  5
16D
330
77
100
AcDbEntity
  8
$DDT_AUDIT_GENERATED_(C8)
  6
Continuous
 62
     7
100
AcDbEllipse
 10
32.3325462644
 20
924.7567985769
 30
0.0
 11
2.749999999993642
 21
0.0
 31
0.0
210
0.0
220
0.0
230
1.0
 40
0.2588190451
 41
3.077913261332721
 42
3.141592653589793
  0
LINE
  5
16E
330
77
100
AcDbEntity
  8
$DDT_AUDIT_GENERATED_(C8)
  6
Continuous
 62
     7
100
AcDbLine
 10
29.5881200949
 20
924.8020919098
 30
0.0
 11
27.1640355201
 21
924.8020919098
 31
0.0
  0
LINE
  5
16F
330
77
100
AcDbEntity
  8
$DDT_AUDIT_GENERATED_(C8)
  6
Continuous
 62
     7
100
AcDbLine
 10
29.5825462644
 20
924.711505244
 30
0.0
 11
27.1137350562
 21
924.711505244
 31
0.0
  0
LINE
  5
170
330
77
100
AcDbEntity
  8
$DDT_AUDIT_GENERATED_(C8)
  6
Continuous
 62
     7
100
AcDbLine
 10
30.0433034828
 20
925.6924513751
 30
0.0
 11
30.0433034828
 21
925.1511786341
 31
0.0
  0
ELLIPSE
  5
171
330
77
100
AcDbEntity
  8
$DDT_AUDIT_GENERATED_(C8)
  6
Continuous
 62
     7
100
AcDbEllipse
 10
32.3325462644
 20
924.7567985769
 30
0.0
 11
-2.749999999995423
 21
-5.828670879282072E-13
 31
0.0
210
0.0
220
0.0
230
1.0
 40
0.2588190451
 41
-0.587278167855871
 42
-0.4599193833417097
  0
LINE
  5
172
330
77
100
AcDbEntity
  8
$DDT_AUDIT_GENERATED_(C8)
  6
Continuous
 62
     7
100
AcDbLine
 10
30.0433034828
 20
925.1511786341
 30
0.0
 11
28.2526123027
 21
925.4187602658
 31
0.0
  0
LINE
  5
173
330
77
100
AcDbEntity
  8
$DDT_AUDIT_GENERATED_(C8)
  6
Continuous
 62
     7
100
AcDbLine
 10
29.8683034828
 20
925.0727282803
 30
0.0
 11
28.0399840888
 21
925.3459326676
 31
0.0
  0
LINE
  5
174
330
77
100
AcDbEntity
  8
$DDT_AUDIT_GENERATED_(C8)
  6
Continuous
 62
     7
100
AcDbLine
 10
31.1118876253
 20
925.8851753007
 30
0.0
 11
31.1118876253
 21
925.3945915406
 31
0.0
  0
ELLIPSE
  5
175
330
77
100
AcDbEntity
  8
$DDT_AUDIT_GENERATED_(C8)
  6
Continuous
 62
     7
100
AcDbEllipse
 10
32.3325462644
 20
924.7567985769
 30
0.0
 11
-2.749999999963051
 21
-7.771561172376096E-12
 31
0.0
210
0.0
220
0.0
230
1.0
 40
0.2588190451
 41
-1.110876943459678
 42
-0.983518158944265
  0
LINE
  5
176
330
77
100
AcDbEntity
  8
$DDT_AUDIT_GENERATED_(C8)
  6
Continuous
 62
     7
100
AcDbLine
 10
31.1118876253
 20
925.3945915406
 30
0.0
 11
30.1966559106
 21
925.804878694
 31
0.0
  0
LINE
  5
177
330
77
100
AcDbEntity
  8
$DDT_AUDIT_GENERATED_(C8)
  6
Continuous
 62
     7
100
AcDbLine
 10
30.808778734
 20
925.3492982077
 30
0.0
 11
29.881068293
 21
925.765179421
 31
0.0
  0
LINE
  5
178
330
77
100
AcDbEntity
  8
$DDT_AUDIT_GENERATED_(C8)
  6
Continuous
 62
     7
100
AcDbLine
 10
23.3325462644
 20
925.977108697
 30
0.0
 11
23.3325462644
 21
924.5636134117
 31
0.0
  0
LINE
  5
179
330
77
100
AcDbEntity
  8
$DDT_AUDIT_GENERATED_(C8)
  6
Continuous
 62
     7
100
AcDbLine
 10
41.3325462644
 20
924.5636134117
 30
0.0
 11
41.3325462644
 21
925.977108697
 31
0.0
  0
LINE
  5
17A
330
77
100
AcDbEntity
  8
$DDT_AUDIT_GENERATED_(C8)
  6
Continuous
 62
     7
100
AcDbLine
 10
26.0825462644
 20
924.7567985769
 30
0.0
 11
26.0825462644
 21
924.5636134117
 31
0.0
  0
LINE
  5
17B
330
77
100
AcDbEntity
  8
$DDT_AUDIT_GENERATED_(C8)
  6
Continuous
 62
     7
100
AcDbLine
 10
38.5825462644
 20
924.5636134117
 30
0.0
 11
38.5825462644
 21
924.7567985769
 31
0.0
  0
LINE
  5
17C
330
77
100
AcDbEntity
  8
$DDT_AUDIT_GENERATED_(C8)
  6
Continuous
 62
     7
100
AcDbLine
 10
29.5825462644
 20
924.7567985769
 30
0.0
 11
29.5825462644
 21
924.5636134117
 31
0.0
  0
LINE
  5
17D
330
77
100
AcDbEntity
  8
$DDT_AUDIT_GENERATED_(C8)
  6
Continuous
 62
     7
100
AcDbLine
 10
35.0825462644
 20
924.5636134117
 30
0.0
 11
35.0825462644
 21
924.7567985769
 31
0.0
  0
LINE
  5
17E
330
77
100
AcDbEntity
  8
$DDT_AUDIT_GENERATED_(C8)
  6
Continuous
 62
     7
100
AcDbLine
 10
31.8129163205
 20
925.1035774767
 30
0.0
 11
31.8129163205
 21
924.7567985769
 31
0.0
  0
LINE
  5
17F
330
77
100
AcDbEntity
  8
$DDT_AUDIT_GENERATED_(C8)
  6
Continuous
 62
     7
100
AcDbLine
 10
32.8521762083
 20
924.7567985769
 30
0.0
 11
32.8521762083
 21
925.1035774767
 31
0.0
  0
ENDBLK
  5
181
330
77
100
AcDbEntity
  8
0
100
AcDbBlockEnd
  0
BLOCK
  5
1C1
330
182
100
AcDbEntity
  8
0
100
AcDbBlockBegin
  2
SE1
 70
     0
 10
0.0
 20
0.0
 30
0.0
  3
SE1
  1

  0
LINE
  5
184
330
182
100
AcDbEntity
  8
$DDT_AUDIT_GENERATED_(79)
  6
Continuous
 62
     7
100
AcDbLine
 10
194.127583156
 20
809.4236712122
 30
0.0
 11
234.127583156
 21
809.4236712122
 31
0.0
  0
ARC
  5
185
330
182
100
AcDbEntity
  8
$DDT_AUDIT_GENERATED_(79)
  6
Continuous
 62
     7
100
AcDbCircle
 10
-14.3047110745
 20
727.5451394128
 30
0.0
 40
208.6020443705872
100
AcDbArc
 50
357.6883989883
 51
2.3115995156
  0
ARC
  5
186
330
182
100
AcDbEntity
  8
$DDT_AUDIT_GENERATED_(79)
  6
Continuous
 62
     7
100
AcDbCircle
 10
174.3837243451
 20
802.4236712138
 30
0.0
 40
20.00955923385717
100
AcDbArc
 50
351.7449530904
 51
9.3475271988
  0
LINE
  5
187
330
182
100
AcDbEntity
  8
$DDT_AUDIT_GENERATED_(79)
  6
Continuous
 62
     7
100
AcDbLine
 10
234.127583156
 20
775.1236712122
 30
0.0
 11
234.127583156
 21
809.4236712122
 31
0.0
  0
LINE
  5
188
330
182
100
AcDbEntity
  8
$DDT_AUDIT_GENERATED_(79)
  6
Continuous
 62
     7
100
AcDbLine
 10
234.127583156
 20
703.9236712122
 30
0.0
 11
234.127583156
 21
775.1236712122
 31
0.0
  0
LINE
  5
189
330
182
100
AcDbEntity
  8
$DDT_AUDIT_GENERATED_(79)
  6
Continuous
 62
     7
100
AcDbLine
 10
194.127583156
 20
719.1313627681
 30
0.0
 11
194.127583156
 21
703.9236712122
 31
0.0
  0
LINE
  5
18A
330
182
100
AcDbEntity
  8
$DDT_AUDIT_GENERATED_(79)
  6
Continuous
 62
     7
100
AcDbLine
 10
194.127583156
 20
775.1236712122
 30
0.0
 11
194.127583156
 21
735.9559430726
 31
0.0
  0
LINE
  5
18B
330
182
100
AcDbEntity
  8
$DDT_AUDIT_GENERATED_(79)
  6
Continuous
 62
     7
100
AcDbLine
 10
194.127583156
 20
799.0736712122
 30
0.0
 11
194.127583156
 21
775.1236712122
 31
0.0
  0
LINE
  5
18C
330
182
100
AcDbEntity
  8
$DDT_AUDIT_GENERATED_(79)
  6
Continuous
 62
     7
100
AcDbLine
 10
194.127583156
 20
809.4236712122
 30
0.0
 11
194.127583156
 21
805.7736712122
 31
0.0
  0
ELLIPSE
  5
18D
330
182
100
AcDbEntity
  8
$DDT_AUDIT_GENERATED_(86)
  6
Continuous
 62
     7
100
AcDbEllipse
 10
214.2216918548
 20
775.3565984154
 30
0.0
 11
-18.5238999075393
 21
7.48414136638785
 31
0.0
210
0.0
220
0.0
230
0.9999999999999998
 40
0.999657325
 41
3.440628029978402
 42
3.610264094464625
  0
LINE
  5
18E
330
182
100
AcDbEntity
  8
$DDT_AUDIT_GENERATED_(86)
  6
Continuous
 62
     7
100
AcDbLine
 10
227.8056839784
 20
857.0255132481
 30
0.0
 11
227.8471179054
 21
857.1280658161
 31
0.0
  0
LINE
  5
18F
330
182
100
AcDbEntity
  8
$DDT_AUDIT_GENERATED_(86)
  6
Continuous
 62
     7
100
AcDbLine
 10
223.627583156
 20
846.6843508302
 30
0.0
 11
227.8056839784
 21
857.0255132481
 31
0.0
  0
ELLIPSE
  5
190
330
182
100
AcDbEntity
  8
$DDT_AUDIT_GENERATED_(86)
  6
Continuous
 62
     7
100
AcDbEllipse
 10
235.223154815
 20
854.0286605008
 30
0.0
 11
-7.417470836526912
 21
2.996852747349066
 31
0.0
210
0.0
220
0.0
230
1.0
 40
0.999657325
 41
4.712388980387564
 42
6.283185307179586
  0
LINE
  5
191
330
182
100
AcDbEntity
  8
$DDT_AUDIT_GENERATED_(86)
  6
Continuous
 62
     7
100
AcDbLine
 10
261.1821809676
 20
843.540533138
 30
0.0
 11
261.2236148946
 21
843.643085706
 31
0.0
  0
LINE
  5
192
330
182
100
AcDbEntity
  8
$DDT_AUDIT_GENERATED_(86)
  6
Continuous
 62
     7
100
AcDbLine
 10
234.1570883035
 20
776.6510815727
 30
0.0
 11
261.1821809676
 21
843.540533138
 31
0.0
  0
ELLIPSE
  5
193
330
182
100
AcDbEntity
  8
$DDT_AUDIT_GENERATED_(86)
  6
Continuous
 62
     7
100
AcDbEllipse
 10
253.7647101311
 20
846.5373858853
 30
0.0
 11
7.417470836533637
 21
-2.996852747332412
 31
0.0
210
0.0
220
0.0
230
1.0
 40
0.999657325
 41
0.0
 42
1.570796326795526
  0
ARC
  5
194
330
182
100
AcDbEntity
  8
$DDT_AUDIT_GENERATED_(86)
  6
Continuous
 62
     7
100
AcDbCircle
 10
253.8001199302
 20
846.640294503
 30
0.0
 40
8.005719084489908
100
AcDbArc
 50
338.0137880738
 51
67.9590709908
  0
ARC
  5
195
330
182
100
AcDbEntity
  8
$DDT_AUDIT_GENERATED_(86)
  6
Continuous
 62
     7
100
AcDbCircle
 10
-5468.4569135079
 20
-13289.7665099078
 30
0.0
 40
15258.65235770597
100
AcDbArc
 50
67.9624545953
 51
68.0375454047
  0
ARC
  5
196
330
182
100
AcDbEntity
  8
$DDT_AUDIT_GENERATED_(86)
  6
Continuous
 62
     7
100
AcDbCircle
 10
235.2692316341
 20
854.1271381252
 30
0.0
 40
8.005831574969621
100
AcDbArc
 50
68.041733302
 51
157.9854076334
  0
LINE
  5
197
330
182
100
AcDbEntity
  8
$DDT_AUDIT_GENERATED_(86)
  6
Continuous
 62
     7
100
AcDbLine
 10
234.127583156
 20
806.7617321155
 30
0.0
 11
246.1439208178
 21
836.5032114885
 31
0.0
  0
ARC
  5
198
330
182
100
AcDbEntity
  8
$DDT_AUDIT_GENERATED_(86)
  6
Continuous
 62
     7
100
AcDbCircle
 10
242.4415323743
 20
838.0032802657
 30
0.0
 40
3.994732346850597
100
AcDbArc
 50
337.9440567936
 51
68.0755804036
  0
ARC
  5
199
330
182
100
AcDbEntity
  8
$DDT_AUDIT_GENERATED_(86)
  6
Continuous
 62
     7
100
AcDbCircle
 10
237.4400788684
 20
840.0239995679
 30
0.0
 40
3.994731496413063
100
AcDbArc
 50
67.9244073707
 51
158.0559554316
  0
LINE
  5
19A
330
182
100
AcDbEntity
  8
$DDT_AUDIT_GENERATED_(86)
  6
Continuous
 62
     7
100
AcDbLine
 10
233.7347686426
 20
841.5168344077
 30
0.0
 11
223.627583156
 21
816.5006724846
 31
0.0
  0
LINE
  5
19B
330
182
100
AcDbEntity
  8
$DDT_AUDIT_GENERATED_(86)
  6
Continuous
 62
     7
100
AcDbLine
 10
238.9413912876
 20
843.7258090167
 30
0.0
 11
243.9330726262
 21
841.7090388449
 31
0.0
  0
LINE
  5
19C
330
182
100
AcDbEntity
  8
$DDT_AUDIT_GENERATED_(A7)
  6
Continuous
 62
     7
100
AcDbLine
 10
188.7105074392
 20
703.9236712122
 30
0.0
 11
189.727583156
 21
703.9236712122
 31
0.0
  0
LINE
  5
19D
330
182
100
AcDbEntity
  8
$DDT_AUDIT_GENERATED_(A7)
  6
Continuous
 62
     7
100
AcDbLine
 10
189.727583156
 20
703.9236712122
 30
0.0
 11
238.527583156
 21
703.9236712122
 31
0.0
  0
LINE
  5
19E
330
182
100
AcDbEntity
  8
$DDT_AUDIT_GENERATED_(A7)
  6
Continuous
 62
     7
100
AcDbLine
 10
238.527583156
 20
703.9236712122
 30
0.0
 11
239.5446588728
 21
703.9236712122
 31
0.0
  0
LINE
  5
19F
330
182
100
AcDbEntity
  8
$DDT_AUDIT_GENERATED_(A7)
  6
Continuous
 62
     7
100
AcDbLine
 10
240.0446398343
 20
703.4280344799
 30
0.0
 11
240.1101294204
 21
695.9236712122
 31
0.0
  0
LINE
  5
1A0
330
182
100
AcDbEntity
  8
$DDT_AUDIT_GENERATED_(A7)
  6
Continuous
 62
     7
100
AcDbLine
 10
188.2105264776
 20
703.4280344799
 30
0.0
 11
188.1450368915
 21
695.9236712122
 31
0.0
  0
ARC
  5
1A1
330
182
100
AcDbEntity
  8
$DDT_AUDIT_GENERATED_(A7)
  6
Continuous
 62
     7
100
AcDbCircle
 10
188.7105074392
 20
703.4236712122
 30
0.0
 40
0.5000000000000004
100
AcDbArc
 50
90.0
 51
179.5
  0
ARC
  5
1A2
330
182
100
AcDbEntity
  8
$DDT_AUDIT_GENERATED_(A7)
  6
Continuous
 62
     7
100
AcDbCircle
 10
239.5446588728
 20
703.4236712122
 30
0.0
 40
0.5000000000000004
100
AcDbArc
 50
0.5
 51
90.0
  0
LINE
  5
1A3
330
182
100
AcDbEntity
  8
$DDT_AUDIT_GENERATED_(A7)
  6
Continuous
 62
     7
100
AcDbLine
 10
240.1101294204
 20
695.9236712122
 30
0.0
 11
238.527583156
 21
695.9236712122
 31
0.0
  0
LINE
  5
1A4
330
182
100
AcDbEntity
  8
$DDT_AUDIT_GENERATED_(A7)
  6
Continuous
 62
     7
100
AcDbLine
 10
238.527583156
 20
695.9236712122
 30
0.0
 11
189.727583156
 21
695.9236712122
 31
0.0
  0
LINE
  5
1A5
330
182
100
AcDbEntity
  8
$DDT_AUDIT_GENERATED_(A7)
  6
Continuous
 62
     7
100
AcDbLine
 10
189.727583156
 20
695.9236712122
 30
0.0
 11
188.1450368915
 21
695.9236712122
 31
0.0
  0
LINE
  5
1A6
330
182
100
AcDbEntity
  8
$DDT_AUDIT_GENERATED_(B2)
  6
Continuous
 62
     7
100
AcDbLine
 10
204.627583156
 20
809.4236712122
 30
0.0
 11
204.627583156
 21
913.8336712122
 31
0.0
  0
LINE
  5
1A7
330
182
100
AcDbEntity
  8
$DDT_AUDIT_GENERATED_(B2)
  6
Continuous
 62
     7
100
AcDbLine
 10
223.627583156
 20
809.4236712122
 30
0.0
 11
223.627583156
 21
913.8336745501
 31
0.0
  0
SPLINE
  5
1A8
330
182
100
AcDbEntity
  8
$DDT_AUDIT_GENERATED_(B2)
  6
Continuous
 62
     7
100
AcDbSpline
210
0.0
220
0.0
230
1.0
 70
     8
 71
     3
 72
    22
 73
    18
 74
     0
 42
0.000000000155004
 43
0.0000000001
 40
0.0
 40
0.0
 40
0.0
 40
0.0
 40
0.1249999999999996
 40
0.1249999999999996
 40
0.2499999999999992
 40
0.2499999999999992
 40
0.3749999999999993
 40
0.3749999999999993
 40
0.4999999999999994
 40
0.4999999999999994
 40
0.6249999999999996
 40
0.6249999999999996
 40
0.7499999999999997
 40
0.7499999999999997
 40
0.8749999999999999
 40
0.8749999999999999
 40
1.0
 40
1.0
 40
1.0
 40
1.0
 10
204.6275831559636
 20
913.8336712121887
 30
0.0
 10
204.6275831559636
 20
916.5373091887734
 30
0.0
 10
204.891427572034
 20
919.2402259512207
 30
0.0
 10
205.9440110785568
 20
924.5264805963182
 30
0.0
 10
206.7242598451341
 20
927.0884620769367
 30
0.0
 10
208.7889290528969
 20
932.0513291326931
 30
0.0
 10
210.0747757856191
 20
934.4398459598873
 30
0.0
 10
213.0476029063774
 20
938.8688053147008
 30
0.0
 10
214.7459568387626
 20
940.9367525199469
 30
0.0
 10
218.5704469345014
 20
944.7555939578593
 30
0.0
 10
220.6373736238588
 20
946.448155268472
 30
0.0
 10
225.0698812880865
 20
949.4145727930053
 30
0.0
 10
227.4641246407388
 20
950.6987229296826
 30
0.0
 10
232.4193420625494
 20
952.7524318401477
 30
0.0
 10
234.9700872862926
 20
953.52532083455
 30
0.0
 10
240.2164960398858
 20
954.5678721453905
 30
0.0
 10
242.923673754551
 20
954.8336712121887
 30
0.0
 10
245.6275831559636
 20
954.8336712121887
 30
0.0
  0
LINE
  5
1A9
330
182
100
AcDbEntity
  8
$DDT_AUDIT_GENERATED_(B2)
  6
Continuous
 62
     7
100
AcDbLine
 10
339.6775835008
 20
954.8336712122
 30
0.0
 11
245.627583156
 21
954.8336712122
 31
0.0
  0
LINE
  5
1AA
330
182
100
AcDbEntity
  8
$DDT_AUDIT_GENERATED_(B2)
  6
Continuous
 62
     7
100
AcDbLine
 10
346.8775831507
 20
936.5336712032
 30
0.0
 11
346.8775831507
 21
954.1336712032
 31
0.0
  0
LINE
  5
1AB
330
182
100
AcDbEntity
  8
$DDT_AUDIT_GENERATED_(B2)
  6
Continuous
 62
     7
100
AcDbLine
 10
245.627583156
 20
935.8336712122
 30
0.0
 11
339.6775831663
 21
935.8336712122
 31
0.0
  0
SPLINE
  5
1AC
330
182
100
AcDbEntity
  8
$DDT_AUDIT_GENERATED_(B2)
  6
Continuous
 62
     7
100
AcDbSpline
210
0.0
220
0.0
230
1.0
 70
     8
 71
     3
 72
    20
 73
    16
 74
     0
 42
0.0000000002884975
 43
0.0000000001
 40
0.0
 40
0.0
 40
0.0
 40
0.0
 40
0.1249999999999998
 40
0.1249999999999998
 40
0.2499999999999997
 40
0.2499999999999997
 40
0.3749999999999995
 40
0.3749999999999995
 40
0.4999999999999993
 40
0.4999999999999993
 40
0.7499999999999999
 40
0.7499999999999999
 40
0.8749999999999999
 40
0.8749999999999999
 40
1.0
 40
1.0
 40
1.0
 40
1.0
 10
223.6275831559636
 20
913.833674550063
 30
0.0
 10
223.6275852548603
 20
915.2844607683542
 30
0.0
 10
223.7669565450162
 20
916.7317656936019
 30
0.0
 10
224.3253031931029
 20
919.5560613430737
 30
0.0
 10
224.7498416834817
 20
920.9544109871529
 30
0.0
 10
225.8555560972238
 20
923.6083618716325
 30
0.0
 10
226.5334790857851
 20
924.8686858808346
 30
0.0
 10
228.1363811042644
 20
927.2576700742139
 30
0.0
 10
229.0648141072576
 20
928.3844846404844
 30
0.0
 10
232.1047115449187
 20
931.421720727804
 30
0.0
 10
234.5528986037151
 20
933.0663805743434
 30
0.0
 10
238.51530032576
 20
934.7137756876197
 30
0.0
 10
239.9043012552231
 20
935.1361366747315
 30
0.0
 10
242.740968991083
 20
935.6962042634535
 30
0.0
 10
244.1761525846452
 20
935.8336712121887
 30
0.0
 10
245.6275831559636
 20
935.8336712121887
 30
0.0
  0
LINE
  5
1AD
330
182
100
AcDbEntity
  8
$DDT_AUDIT_GENERATED_(B2)
  6
Continuous
 62
     7
100
AcDbLine
 10
339.6775835008
 20
954.8336712122
 30
0.0
 11
346.1775826385
 21
954.8336712122
 31
0.0
  0
ARC
  5
1AE
330
182
100
AcDbEntity
  8
$DDT_AUDIT_GENERATED_(B2)
  6
Continuous
 62
     7
100
AcDbCircle
 10
346.1775821264
 20
954.1336712122
 30
0.0
 40
0.7000000000000063
100
AcDbArc
 50
0.0
 51
89.9999580824
  0
ARC
  5
1AF
330
182
100
AcDbEntity
  8
$DDT_AUDIT_GENERATED_(B2)
  6
Continuous
 62
     7
100
AcDbCircle
 10
346.1775831507
 20
936.5336712122
 30
0.0
 40
0.7000000000000055
100
AcDbArc
 50
269.9999396737
 51
359.9999992678
  0
LINE
  5
1B0
330
182
100
AcDbEntity
  8
$DDT_AUDIT_GENERATED_(B2)
  6
Continuous
 62
     7
100
AcDbLine
 10
339.6775831663
 20
935.8336712122
 30
0.0
 11
346.1775824136
 21
935.8336712122
 31
0.0
  0
LINE
  5
1B2
330
182
100
AcDbEntity
  8
$DDT_AUDIT_GENERATED_(1B1)
  6
Continuous
 62
     7
100
AcDbLine
 10
194.127583156
 20
805.7736712122
 30
0.0
 11
194.127583156
 21
799.0736712122
 31
0.0
  0
LINE
  5
1B3
330
182
100
AcDbEntity
  8
$DDT_AUDIT_GENERATED_(C3)
  6
Continuous
 62
     7
100
AcDbLine
 10
320.8005602781
 20
922.0680834663
 30
0.0
 11
341.2298915041
 21
927.5421062702
 31
0.0
  0
LINE
  5
1B4
330
182
100
AcDbEntity
  8
$DDT_AUDIT_GENERATED_(C3)
  6
Continuous
 62
     7
100
AcDbLine
 10
341.9369982853
 20
928.7668511416
 30
0.0
 11
340.0434495543
 21
935.8336712122
 31
0.0
  0
LINE
  5
1B5
330
182
100
AcDbEntity
  8
$DDT_AUDIT_GENERATED_(C3)
  6
Continuous
 62
     7
100
AcDbLine
 10
316.0768059778
 20
935.8336712122
 30
0.0
 11
319.5758154067
 21
922.7751902475
 31
0.0
  0
ARC
  5
1B6
330
182
100
AcDbEntity
  8
$DDT_AUDIT_GENERATED_(C3)
  6
Continuous
 62
     7
100
AcDbCircle
 10
340.971072459
 20
928.5080320965
 30
0.0
 40
1.000000000000004
100
AcDbArc
 50
285.0
 51
15.0
  0
ARC
  5
1B7
330
182
100
AcDbEntity
  8
$DDT_AUDIT_GENERATED_(C3)
  6
Continuous
 62
     7
100
AcDbCircle
 10
320.541741233
 20
923.0340092926
 30
0.0
 40
1.000000000000004
100
AcDbArc
 50
195.0
 51
285.0
  0
LINE
  5
1B8
330
182
100
AcDbEntity
  8
$DDT_AUDIT_GENERATED_(C8)
  6
Continuous
 62
     7
100
AcDbLine
 10
339.773263089
 20
926.8929848176
 30
0.0
 11
322.3865982158
 21
922.2342420058
 31
0.0
  0
LINE
  5
1B9
330
182
100
AcDbEntity
  8
$DDT_AUDIT_GENERATED_(C8)
  6
Continuous
 62
     7
100
AcDbLine
 10
322.3218934545
 20
922.4757234623
 30
0.0
 11
322.3865982158
 21
922.2342420058
 31
0.0
  0
LINE
  5
1BA
330
182
100
AcDbEntity
  8
$DDT_AUDIT_GENERATED_(C8)
  6
Continuous
 62
     7
100
AcDbLine
 10
339.773263089
 20
926.8929848176
 30
0.0
 11
339.7085583277
 21
927.1344662742
 31
0.0
  0
LINE
  5
1BC
330
182
100
AcDbEntity
  8
$DDT_AUDIT_GENERATED_(1BB)
  6
Continuous
 62
     7
100
AcDbLine
 10
174.6621005422
 20
737.2974823626
 30
0.0
 11
174.6621005422
 21
741.2974823626
 31
0.0
  0
LINE
  5
1BD
330
182
100
AcDbEntity
  8
$DDT_AUDIT_GENERATED_(1BB)
  6
Continuous
 62
     7
100
AcDbLine
 10
188.1293879021
 20
741.2974823626
 30
0.0
 11
174.6621005422
 21
741.2974823626
 31
0.0
  0
LINE
  5
1BE
330
182
100
AcDbEntity
  8
$DDT_AUDIT_GENERATED_(1BB)
  6
Continuous
 62
     7
100
AcDbLine
 10
174.6621005422
 20
737.2974823626
 30
0.0
 11
188.1293879021
 21
737.2974823626
 31
0.0
  0
ARC
  5
1BF
330
182
100
AcDbEntity
  8
$DDT_AUDIT_GENERATED_(1BB)
  6
Continuous
 62
     7
100
AcDbCircle
 10
188.1293879021
 20
736.2974823626
 30
0.0
 40
0.9999999999999454
100
AcDbArc
 50
18.0
 51
90.0
  0
ARC
  5
1C0
330
182
100
AcDbEntity
  8
$DDT_AUDIT_GENERATED_(1BB)
  6
Continuous
 62
     7
100
AcDbCircle
 10
188.1293879021
 20
736.2974823626
 30
0.0
 40
4.999999999999967
100
AcDbArc
 50
18.0
 51
90.0
  0
ENDBLK
  5
1C2
330
182
100
AcDbEntity
  8
0
100
AcDbBlockEnd
  0
BLOCK
  5
20D
330
1C3
100
AcDbEntity
  8
0
100
AcDbBlockBegin
  2
SE2
 70
     0
 10
0.0
 20
0.0
 30
0.0
  3
SE2
  1

  0
ARC
  5
1C5
330
1C3
100
AcDbEntity
  8
$DDT_AUDIT_GENERATED_(79)
  6
Continuous
 62
     7
100
AcDbCircle
 10
32.3325462644
 20
239.0999999947
 30
0.0
 40
20.0
100
AcDbArc
 50
312.0387627165
 51
0.0
  0
ARC
  5
1C6
330
1C3
100
AcDbEntity
  8
$DDT_AUDIT_GENERATED_(79)
  6
Continuous
 62
     7
100
AcDbCircle
 10
32.3325462644
 20
239.0999999947
 30
0.0
 40
20.0
100
AcDbArc
 50
0.0
 51
227.9671496606
  0
LINE
  5
1C7
330
1C3
100
AcDbEntity
  8
$DDT_AUDIT_GENERATED_(79)
  6
Continuous
 62
     7
100
AcDbLine
 10
80.3325462644
 20
219.0999999947
 30
0.0
 11
80.3325462644
 21
259.0999999947
 31
0.0
  0
LINE
  5
1C8
330
1C3
100
AcDbEntity
  8
$DDT_AUDIT_GENERATED_(79)
  6
Continuous
 62
     7
100
AcDbLine
 10
45.6975462644
 20
219.0999999947
 30
0.0
 11
80.3325462644
 21
219.0999999947
 31
0.0
  0
LINE
  5
1C9
330
1C3
100
AcDbEntity
  8
$DDT_AUDIT_GENERATED_(79)
  6
Continuous
 62
     7
100
AcDbLine
 10
80.3325462644
 20
259.0999999947
 30
0.0
 11
35.6825462644
 21
259.0999999947
 31
0.0
  0
ARC
  5
1CA
330
1C3
100
AcDbEntity
  8
$DDT_AUDIT_GENERATED_(83)
  6
Continuous
 62
     7
100
AcDbCircle
 10
71.9325462644
 20
239.0999999947
 30
0.0
 40
20.0
100
AcDbArc
 50
60.0508920747
 51
65.1654125103
  0
ARC
  5
1CB
330
1C3
100
AcDbEntity
  8
$DDT_AUDIT_GENERATED_(83)
  6
Continuous
 62
     7
100
AcDbCircle
 10
71.9325462644
 20
239.0999999947
 30
0.0
 40
20.0
100
AcDbArc
 50
294.8345874897
 51
298.5069075496
  0
ELLIPSE
  5
1CC
330
1C3
100
AcDbEntity
  8
$DDT_AUDIT_GENERATED_(86)
  6
Continuous
 62
     7
100
AcDbEllipse
 10
81.8684363072
 20
239.0090287999
 30
0.0
 11
0.0
 21
17.0411920667089
 31
0.0
210
0.0
220
0.0
230
1.0
 40
1.0
 41
0.0042135628183371
 42
3.128876825721964
  0
SPLINE
  5
1CD
330
1C3
100
AcDbEntity
  8
$DDT_AUDIT_GENERATED_(86)
  6
Continuous
 62
     7
100
AcDbSpline
210
0.0
220
0.0
230
1.0
 70
     8
 71
     3
 72
     8
 73
     4
 74
     0
 42
0.0000000003305546
 43
0.0000000001
 40
0.846217033240007
 40
0.846217033240007
 40
0.846217033240007
 40
0.846217033240007
 40
0.8862772981782536
 40
0.8862772981782536
 40
0.8862772981782536
 40
0.8862772981782536
 10
87.09336495413389
 20
258.6221760887932
 30
0.0
 10
86.70092344629613
 20
258.6518918195039
 30
0.0
 10
86.29902496049527
 20
258.6279454577389
 30
0.0
 10
85.89036243194285
 20
258.5515912422125
 30
0.0
  0
ELLIPSE
  5
1CE
330
1C3
100
AcDbEntity
  8
$DDT_AUDIT_GENERATED_(86)
  6
Continuous
 62
     7
100
AcDbEllipse
 10
103.7608198138
 20
218.0112925759
 30
0.0
 11
-0.07160531276682869
 21
-7.299648805194927
 31
0.0
210
0.0
220
0.0
230
1.0
 40
0.0242708438
 41
3.525684145137424
 42
5.09648047193232
  0
ELLIPSE
  5
1CF
330
1C3
100
AcDbEntity
  8
$DDT_AUDIT_GENERATED_(86)
  6
Continuous
 62
     7
100
AcDbEllipse
 10
104.2694882186
 20
215.2707372925
 30
0.0
 11
0.7000000000000062
 21
-6.938893903907228E-15
 31
0.0
210
0.0
220
0.0
230
1.0
 40
0.3746065934
 41
3.115412714810289
 42
3.141592653589793
  0
ELLIPSE
  5
1D0
330
1C3
100
AcDbEntity
  8
$DDT_AUDIT_GENERATED_(86)
  6
Continuous
 62
     7
100
AcDbEllipse
 10
104.4605799413
 20
224.772870474
 30
0.0
 11
0.6982960183960357
 21
-0.04881260792302319
 31
0.0
210
0.0
220
0.0
230
0.9999999999999999
 40
0.9268661318
 41
3.141592653589746
 42
3.206292443657493
  0
ELLIPSE
  5
1D1
330
1C3
100
AcDbEntity
  8
$DDT_AUDIT_GENERATED_(86)
  6
Continuous
 62
     7
100
AcDbEllipse
 10
104.2694882186
 20
196.7291819764
 30
0.0
 11
0.7000000000000339
 21
-4.248847104521535E-31
 31
0.0
210
0.0
220
0.0
230
1.0
 40
0.3746065934
 41
3.115412714808766
 42
3.141592653589793
  0
ELLIPSE
  5
1D2
330
1C3
100
AcDbEntity
  8
$DDT_AUDIT_GENERATED_(86)
  6
Continuous
 62
     7
100
AcDbEllipse
 10
103.7608198138
 20
199.4697372598
 30
0.0
 11
0.0
 21
2.740361794726031
 31
0.0
210
0.0
220
0.0
230
1.0
 40
1.0
 41
3.071803719237773
 42
3.124903413647218
  0
ELLIPSE
  5
1D3
330
1C3
100
AcDbEntity
  8
$DDT_AUDIT_GENERATED_(86)
  6
Continuous
 62
     7
100
AcDbEllipse
 10
82.2889643832
 20
256.3984664575
 30
0.0
 11
0.1932410288047123
 21
-0.2294731025338052
 31
0.0
210
0.0
220
0.0
230
0.9999999999999999
 40
0.7970770531
 41
3.141033963445093
 42
3.163062643113873
  0
ELLIPSE
  5
1D4
330
1C3
100
AcDbEntity
  8
$DDT_AUDIT_GENERATED_(86)
  6
Continuous
 62
     7
100
AcDbEllipse
 10
-290.5451715804
 20
209.8728620108
 30
0.0
 11
399.2756869433863
 21
-27.91035213904398
 31
0.0
210
0.0
220
0.0
230
0.9999999999999998
 40
0.9268661326
 41
0.0396718850407819
 42
0.0897276966031637
  0
SPLINE
  5
1D5
330
1C3
100
AcDbEntity
  8
$DDT_AUDIT_GENERATED_(86)
  6
Continuous
 62
     7
100
AcDbSpline
210
0.0
220
0.0
230
1.0
 70
     8
 71
     3
 72
    12
 73
     8
 74
     0
 42
0.0000000015791572
 43
0.0000000001
 40
0.0
 40
0.0
 40
0.0
 40
0.0
 40
0.2500000000000001
 40
0.2500000000000001
 40
0.5000000000000001
 40
0.5000000000000001
 40
0.7197913747984828
 40
0.7197913747984828
 40
0.7197913747984828
 40
0.7197913747984828
 10
109.442364026266
 20
196.6621969375323
 30
0.0
 10
109.4182203890832
 20
195.7678887581254
 30
0.0
 10
109.3958994805321
 20
194.9614198685746
 30
0.0
 10
109.3583804124101
 20
193.5950664330728
 30
0.0
 10
109.3435602092937
 20
193.0463036699584
 30
0.0
 10
109.3285151199093
 20
192.3441259359682
 30
0.0
 10
109.327179991889
 20
192.1541987285268
 30
0.0
 10
109.3321863058933
 20
192.1058983771465
 30
0.0
  0
LINE
  5
1D6
330
1C3
100
AcDbEntity
  8
$DDT_AUDIT_GENERATED_(86)
  6
Continuous
 62
     7
100
AcDbLine
 10
111.4390643964
 20
222.0231335263
 30
0.0
 11
111.4439975688
 21
222.0910744459
 31
0.0
  0
LINE
  5
1D7
330
1C3
100
AcDbEntity
  8
$DDT_AUDIT_GENERATED_(86)
  6
Continuous
 62
     7
100
AcDbLine
 10
111.4439976197
 20
222.0910755166
 30
0.0
 11
111.4798615185
 21
222.5848827075
 31
0.0
  0
ELLIPSE
  5
1D8
330
1C3
100
AcDbEntity
  8
$DDT_AUDIT_GENERATED_(86)
  6
Continuous
 62
     7
100
AcDbEllipse
 10
111.479861519
 20
238.7185579265
 30
0.0
 11
-0.1706828301875629
 21
-17.39989212117505
 31
0.0
210
0.0
220
0.0
230
1.0
 40
0.0242708438
 41
0.3840914915476648
 42
0.5918680274605729
  0
ELLIPSE
  5
1D9
330
1C3
100
AcDbEntity
  8
$DDT_AUDIT_GENERATED_(86)
  6
Continuous
 62
     7
100
AcDbEllipse
 10
111.479861519
 20
238.7185579265
 30
0.0
 11
-0.1706828301875629
 21
-17.39989212117505
 31
0.0
210
0.0
220
0.0
230
1.0
 40
0.0242708438
 41
-3.733460681050365
 42
-3.343386225462747
  0
ELLIPSE
  5
1DA
330
1C3
100
AcDbEntity
  8
$DDT_AUDIT_GENERATED_(86)
  6
Continuous
 62
     7
100
AcDbEllipse
 10
108.6844720529
 20
192.6529969542
 30
0.0
 11
-0.6982960183960218
 21
0.04881260792307525
 31
0.0
210
0.0
220
0.0
230
0.9999999999999997
 40
0.9268661318
 41
3.141592653589782
 42
3.162983058353555
  0
ELLIPSE
  5
1DB
330
1C3
100
AcDbEntity
  8
$DDT_AUDIT_GENERATED_(86)
  6
Continuous
 62
     7
100
AcDbEllipse
 10
-284.1883926059
 20
300.8107048934
 30
0.0
 11
324.7688781536289
 21
-284.6207393091992
 31
0.0
210
0.0
220
0.0
230
1.0
 40
0.7842134173
 41
0.5887251026847733
 42
0.6155350860989559
  0
ARC
  5
1DC
330
1C3
100
AcDbEntity
  8
$DDT_AUDIT_GENERATED_(86)
  6
Continuous
 62
     7
100
AcDbCircle
 10
215.2583086213
 20
217.8597623854
 30
0.0
 40
105.4345464860931
100
AcDbArc
 50
178.0432020137
 51
181.2913157278
  0
SPLINE
  5
1DD
330
1C3
100
AcDbEntity
  8
$DDT_AUDIT_GENERATED_(86)
  6
Continuous
 62
     7
100
AcDbSpline
210
0.0
220
0.0
230
1.0
 70
     8
 71
     3
 72
    10
 73
     6
 74
     0
 42
0.0000000023821174
 43
0.0000000001
 40
0.3344269220771474
 40
0.3344269220771474
 40
0.3344269220771474
 40
0.3344269220771474
 40
0.5
 40
0.5
 40
1.0
 40
1.0
 40
1.0
 40
1.0
 10
109.8391881422502
 20
202.7410859914487
 30
0.0
 10
109.8345979306384
 20
202.7912594218392
 30
0.0
 10
109.8315288419978
 20
202.8915448608688
 30
0.0
 10
109.8254886348301
 20
203.4974318454125
 30
0.0
 10
109.834458132059
 20
204.4087600904161
 30
0.0
 10
109.8505386575415
 20
205.5346802272663
 30
0.0
  0
ARC
  5
1DE
330
1C3
100
AcDbEntity
  8
$DDT_AUDIT_GENERATED_(86)
  6
Continuous
 62
     7
100
AcDbCircle
 10
2.7522836007
 20
225.7486067155
 30
0.0
 40
108.4643475453592
100
AcDbArc
 50
356.7471403925
 51
359.1166108841
  0
LINE
  5
1DF
330
1C3
100
AcDbEntity
  8
$DDT_AUDIT_GENERATED_(86)
  6
Continuous
 62
     7
100
AcDbLine
 10
103.5694882186
 20
215.2707372925
 30
0.0
 11
103.5694882186
 21
196.7291819764
 31
0.0
  0
LINE
  5
1E0
330
1C3
100
AcDbEntity
  8
$DDT_AUDIT_GENERATED_(86)
  6
Continuous
 62
     7
100
AcDbLine
 10
105.5796858468
 20
250.8207964525
 30
0.0
 11
103.7622839229
 21
224.821683082
 31
0.0
  0
LINE
  5
1E1
330
1C3
100
AcDbEntity
  8
$DDT_AUDIT_GENERATED_(86)
  6
Continuous
 62
     7
100
AcDbLine
 10
104.3821083656
 20
191.4632578906
 30
0.0
 11
108.629407279
 21
191.4215943565
 31
0.0
  0
SPLINE
  5
1E2
330
1C3
100
AcDbEntity
  8
$DDT_AUDIT_GENERATED_(86)
  6
Continuous
 62
     7
100
AcDbSpline
210
0.0
220
0.0
230
1.0
 70
     8
 71
     3
 72
    16
 73
    12
 74
     0
 42
0.0000000074924779
 43
0.0000000001
 40
0.0
 40
0.0
 40
0.0
 40
0.0
 40
0.2086658694296568
 40
0.4182771146702283
 40
0.5372448341300226
 40
0.6288356955490189
 40
0.6985810347472744
 40
0.7691116350232131
 40
0.8469994587526487
 40
0.9312180260788879
 40
1.0
 40
1.0
 40
1.0
 40
1.0
 10
103.6459026044383
 20
192.392795171607
 30
0.0
 10
103.6501795437883
 20
192.3336264618804
 30
0.0
 10
103.6581852725542
 20
192.2322220257869
 30
0.0
 10
103.6724334046344
 20
192.124431456991
 30
0.0
 10
103.6920135640465
 20
192.0265601944468
 30
0.0
 10
103.7199217345686
 20
191.9313960237912
 30
0.0
 10
103.7743902390225
 20
191.8127113494454
 30
0.0
 10
103.8688517243988
 20
191.6816645097891
 30
0.0
 10
104.013519713796
 20
191.5609045400927
 30
0.0
 10
104.1961985843647
 20
191.4775206206414
 30
0.0
 10
104.3168922213829
 20
191.4712936090924
 30
0.0
 10
104.380532260293
 20
191.4690749638014
 30
0.0
  0
ARC
  5
1E3
330
1C3
100
AcDbEntity
  8
$DDT_AUDIT_GENERATED_(86)
  6
Continuous
 62
     7
100
AcDbCircle
 10
82.5193447717
 20
256.0512130001
 30
0.0
 40
0.7132306577731601
100
AcDbArc
 50
126.2531117241
 51
179.1365272788
  0
SPLINE
  5
1E4
330
1C3
100
AcDbEntity
  8
$DDT_AUDIT_GENERATED_(86)
  6
Continuous
 62
     7
100
AcDbSpline
210
0.0
220
0.0
230
1.0
 70
     8
 71
     3
 72
    13
 73
     9
 74
     0
 42
0.0000000165148769
 43
0.0000000001
 40
0.0
 40
0.0
 40
0.0
 40
0.0
 40
0.2954020441293964
 40
0.6055608379429571
 40
0.7677640212638626
 40
0.880723653007811
 40
0.9919666796709997
 40
1.0
 40
1.0
 40
1.0
 40
1.0
 10
81.62699054418127
 20
219.4167190373279
 30
0.0
 10
81.63299779243286
 20
219.378456714912
 30
0.0
 10
81.64728795786704
 20
219.3083143809432
 30
0.0
 10
81.6720829817581
 20
219.2321222266206
 30
0.0
 10
81.73215833795732
 20
219.1329746435292
 30
0.0
 10
81.83048939952212
 20
219.054365993232
 30
0.0
 10
81.94683853870244
 20
219.0163171017988
 30
0.0
 10
81.99210082854339
 20
219.0295048248029
 30
0.0
 10
81.99565399819281
 20
219.0305378054687
 30
0.0
  0
ARC
  5
1E5
330
1C3
100
AcDbEntity
  8
$DDT_AUDIT_GENERATED_(86)
  6
Continuous
 62
     7
100
AcDbCircle
 10
87.521309476
 20
250.6885911399
 30
0.0
 40
8.03847704962617
100
AcDbArc
 50
102.2654552081
 51
132.4440032068
  0
ARC
  5
1E6
330
1C3
100
AcDbEntity
  8
$DDT_AUDIT_GENERATED_(86)
  6
Continuous
 62
     7
100
AcDbCircle
 10
-288.254688265
 20
242.639721564
 30
0.0
 40
400.2500000000001
100
AcDbArc
 50
357.3703215709
 51
1.5056378797
  0
LINE
  5
1E7
330
1C3
100
AcDbEntity
  8
$DDT_AUDIT_GENERATED_(86)
  6
Continuous
 62
     7
100
AcDbLine
 10
109.3827680713
 20
192.6041843463
 30
0.0
 11
111.4387862449
 21
222.0168579455
 31
0.0
  0
SPLINE
  5
1E8
330
1C3
100
AcDbEntity
  8
$DDT_AUDIT_GENERATED_(86)
  6
Continuous
 62
     7
100
AcDbSpline
210
0.0
220
0.0
230
1.0
 70
     8
 71
     3
 72
    20
 73
    16
 74
     0
 42
0.0000000062380008
 43
0.0000000001
 40
0.0
 40
0.0
 40
0.0
 40
0.0
 40
0.0260621754614393
 40
0.085217625841885
 40
0.1352623102023018
 40
0.1789997737174987
 40
0.2171240321713847
 40
0.2498957166680375
 40
0.2765672796275709
 40
0.3067820444530532
 40
0.3565607108598974
 40
0.435582440547486
 40
0.6009028633150212
 40
0.8098281209171874
 40
1.0
 40
1.0
 40
1.0
 40
1.0
 10
108.629250273051
 20
191.4301966320348
 30
0.0
 10
108.6629175094947
 20
191.4274224732902
 30
0.0
 10
108.7574065620416
 20
191.4205648517064
 30
0.0
 10
108.9174430853529
 20
191.4725853816525
 30
0.0
 10
109.0710796789246
 20
191.5649112249791
 30
0.0
 10
109.1809353912902
 20
191.6747665413513
 30
0.0
 10
109.2530116193547
 20
191.783987389122
 30
0.0
 10
109.2935572575553
 20
191.8762805825406
 30
0.0
 10
109.3138696408979
 20
191.9416335508671
 30
0.0
 10
109.3258383145902
 20
191.992665071916
 30
0.0
 10
109.3337510928141
 20
192.0382570469846
 30
0.0
 10
109.3417799497564
 20
192.0980295208632
 30
0.0
 10
109.3513592330769
 20
192.1928879375184
 30
0.0
 10
109.3653335685461
 20
192.3600937532283
 30
0.0
 10
109.3765912313616
 20
192.5183932730067
 30
0.0
 10
109.3829845592039
 20
192.6089138650358
 30
0.0
  0
SPLINE
  5
1E9
330
1C3
100
AcDbEntity
  8
$DDT_AUDIT_GENERATED_(86)
  6
Continuous
 62
     7
100
AcDbSpline
210
0.0
220
0.0
230
1.0
 70
     8
 71
     3
 72
    16
 73
    12
 74
     0
 42
0.0000000074208293
 43
0.0000000001
 40
0.0
 40
0.0
 40
0.0
 40
0.0
 40
0.0493105963040393
 40
0.3763541268150208
 40
0.5739337747518235
 40
0.7001307540531599
 40
0.7698129497356206
 40
0.8353609283465209
 40
0.9003908072060666
 40
0.9666564670355805
 40
1.0
 40
1.0
 40
1.0
 40
1.0
 10
111.7278030501477
 20
255.813279292978
 30
0.0
 10
111.7262117333626
 20
255.8302829877513
 30
0.0
 10
111.7156601472156
 20
255.9417829181497
 30
0.0
 10
111.6950910782231
 20
256.0736174113634
 30
0.0
 10
111.6621861985053
 20
256.2234346380054
 30
0.0
 10
111.6205620870845
 20
256.3457898409499
 30
0.0
 10
111.5560985606875
 20
256.4668818730582
 30
0.0
 10
111.4640988766814
 20
256.5862781294342
 30
0.0
 10
111.3180881565546
 20
256.7023139618051
 30
0.0
 10
111.1500713340579
 20
256.7789754044542
 30
0.0
 10
111.0472945352361
 20
256.7827882608451
 30
0.0
 10
111.006831377277
 20
256.7839989450373
 30
0.0
  0
LINE
  5
1EA
330
1C3
100
AcDbEntity
  8
$DDT_AUDIT_GENERATED_(86)
  6
Continuous
 62
     7
100
AcDbLine
 10
109.883963994
 20
221.4014036761
 30
0.0
 11
111.0406616685
 21
237.9487141954
 31
0.0
  0
SPLINE
  5
1EB
330
1C3
100
AcDbEntity
  8
$DDT_AUDIT_GENERATED_(86)
  6
Continuous
 62
     7
100
AcDbSpline
210
0.0
220
0.0
230
1.0
 70
     8
 71
     3
 72
    11
 73
     7
 74
     0
 42
0.0000000271081472
 43
0.0000000001
 40
0.0
 40
0.0
 40
0.0
 40
0.0
 40
0.0264471959207649
 40
0.2741687252272889
 40
0.4282838218439834
 40
0.4999891338591759
 40
0.4999891338591759
 40
0.4999891338591759
 40
0.4999891338591759
 10
111.0404335186605
 20
237.9405217442937
 30
0.0
 10
111.0408517922182
 20
237.946412726464
 30
0.0
 10
111.0445734609357
 20
237.9987308493919
 30
0.0
 10
111.0506962291208
 20
238.0674821593644
 30
0.0
 10
111.0563875371829
 20
238.1172302202608
 30
0.0
 10
111.0574981802372
 20
238.1239791512579
 30
0.0
 10
111.0574623380893
 20
238.1238329024515
 30
0.0
  0
LINE
  5
1EC
330
1C3
100
AcDbEntity
  8
$DDT_AUDIT_GENERATED_(86)
  6
Continuous
 62
     7
100
AcDbLine
 10
81.9930977033
 20
219.0282012965
 30
0.0
 11
103.6142461107
 21
220.2571429956
 31
0.0
  0
LINE
  5
1ED
330
1C3
100
AcDbEntity
  8
$DDT_AUDIT_GENERATED_(86)
  6
Continuous
 62
     7
100
AcDbLine
 10
111.0052552529
 20
256.7928057843
 30
0.0
 11
87.0919179061
 21
258.6232734798
 31
0.0
  0
LINE
  5
1EE
330
1C3
100
AcDbEntity
  8
$DDT_AUDIT_GENERATED_(A7)
  6
Continuous
 62
     7
100
AcDbLine
 10
7.9325462644
 20
265.0825462591
 30
0.0
 11
30.3325462644
 21
265.0825462591
 31
0.0
  0
LINE
  5
1EF
330
1C3
100
AcDbEntity
  8
$DDT_AUDIT_GENERATED_(A7)
  6
Continuous
 62
     7
100
AcDbLine
 10
34.3325462644
 20
265.0825462591
 30
0.0
 11
56.7325462644
 21
265.0825462591
 31
0.0
  0
ARC
  5
1F0
330
1C3
100
AcDbEntity
  8
$DDT_AUDIT_GENERATED_(A7)
  6
Continuous
 62
     7
100
AcDbCircle
 10
7.9325462644
 20
214.6999999947
 30
0.0
 40
1.582546264418481
100
AcDbArc
 50
180.0
 51
270.0
  0
LINE
  5
1F1
330
1C3
100
AcDbEntity
  8
$DDT_AUDIT_GENERATED_(A7)
  6
Continuous
 62
     7
100
AcDbLine
 10
6.35
 20
214.6999999947
 30
0.0
 11
6.35
 21
263.4999999947
 31
0.0
  0
ARC
  5
1F2
330
1C3
100
AcDbEntity
  8
$DDT_AUDIT_GENERATED_(A7)
  6
Continuous
 62
     7
100
AcDbCircle
 10
7.9325462644
 20
263.4999999947
 30
0.0
 40
1.582546264418481
100
AcDbArc
 50
90.0
 51
180.0
  0
ARC
  5
1F3
330
1C3
100
AcDbEntity
  8
$DDT_AUDIT_GENERATED_(A7)
  6
Continuous
 62
     7
100
AcDbCircle
 10
56.7325462644
 20
263.4999999947
 30
0.0
 40
1.582546264418481
100
AcDbArc
 50
0.0
 51
90.0
  0
LINE
  5
1F4
330
1C3
100
AcDbEntity
  8
$DDT_AUDIT_GENERATED_(A7)
  6
Continuous
 62
     7
100
AcDbLine
 10
58.3150925288
 20
263.4999999947
 30
0.0
 11
58.3150925288
 21
259.0999999947
 31
0.0
  0
LINE
  5
1F5
330
1C3
100
AcDbEntity
  8
$DDT_AUDIT_GENERATED_(A7)
  6
Continuous
 62
     7
100
AcDbLine
 10
58.3150925288
 20
219.0999999947
 30
0.0
 11
58.3150925288
 21
214.6999999947
 31
0.0
  0
ARC
  5
1F6
330
1C3
100
AcDbEntity
  8
$DDT_AUDIT_GENERATED_(A7)
  6
Continuous
 62
     7
100
AcDbCircle
 10
56.7325462644
 20
214.6999999947
 30
0.0
 40
1.582546264418488
100
AcDbArc
 50
270.0
 51
0.0
  0
LINE
  5
1F7
330
1C3
100
AcDbEntity
  8
$DDT_AUDIT_GENERATED_(A7)
  6
Continuous
 62
     7
100
AcDbLine
 10
56.7325462644
 20
213.1174537303
 30
0.0
 11
45.6975462644
 21
213.1174537303
 31
0.0
  0
LINE
  5
1F8
330
1C3
100
AcDbEntity
  8
$DDT_AUDIT_GENERATED_(A7)
  6
Continuous
 62
     7
100
AcDbLine
 10
18.9675462644
 20
213.1174537303
 30
0.0
 11
7.9325462644
 21
213.1174537303
 31
0.0
  0
ARC
  5
1F9
330
1C3
100
AcDbEntity
  8
$DDT_AUDIT_GENERATED_(B2)
  6
Continuous
 62
     7
100
AcDbCircle
 10
44.9975462644
 20
247.8999999947
 30
0.0
 40
0.6999999999999993
100
AcDbArc
 50
0.0
 51
90.0
  0
LINE
  5
1FA
330
1C3
100
AcDbEntity
  8
$DDT_AUDIT_GENERATED_(B2)
  6
Continuous
 62
     7
100
AcDbLine
 10
19.6675462644
 20
248.5999999947
 30
0.0
 11
44.9975462644
 21
248.5999999947
 31
0.0
  0
ARC
  5
1FB
330
1C3
100
AcDbEntity
  8
$DDT_AUDIT_GENERATED_(B2)
  6
Continuous
 62
     7
100
AcDbCircle
 10
19.6675462644
 20
247.8999999947
 30
0.0
 40
0.6999999999999993
100
AcDbArc
 50
90.0
 51
180.0
  0
LINE
  5
1FC
330
1C3
100
AcDbEntity
  8
$DDT_AUDIT_GENERATED_(B2)
  6
Continuous
 62
     7
100
AcDbLine
 10
18.9675462644
 20
207.5999999947
 30
0.0
 11
18.9675462644
 21
247.8999999947
 31
0.0
  0
LINE
  5
1FD
330
1C3
100
AcDbEntity
  8
$DDT_AUDIT_GENERATED_(B2)
  6
Continuous
 62
     7
100
AcDbLine
 10
18.9675462644
 20
113.5499996498
 30
0.0
 11
18.9675462644
 21
207.5999999947
 31
0.0
  0
LINE
  5
1FE
330
1C3
100
AcDbEntity
  8
$DDT_AUDIT_GENERATED_(B2)
  6
Continuous
 62
     7
100
AcDbLine
 10
45.6975462644
 20
207.5999999947
 30
0.0
 11
45.6975462644
 21
113.5500002141
 31
0.0
  0
LINE
  5
1FF
330
1C3
100
AcDbEntity
  8
$DDT_AUDIT_GENERATED_(B2)
  6
Continuous
 62
     7
100
AcDbLine
 10
45.6975462644
 20
247.8999999947
 30
0.0
 11
45.6975462644
 21
207.5999999947
 31
0.0
  0
SPLINE
  5
200
330
1C3
100
AcDbEntity
  8
$DDT_AUDIT_GENERATED_(B2)
  6
Continuous
 62
     7
100
AcDbSpline
210
0.0
220
0.0
230
1.0
 70
     8
 71
     3
 72
    12
 73
     8
 74
     0
 42
0.0000000008702961
 43
0.0000000001
 40
0.0
 40
0.0
 40
0.0
 40
0.0
 40
0.5000000000000002
 40
0.5000000000000002
 40
0.7500000000000001
 40
0.7500000000000001
 40
1.0
 40
1.0
 40
1.0
 40
1.0
 10
26.16754603951645
 20
106.3500005121195
 30
0.0
 10
24.27402302780161
 20
106.3500006816833
 30
0.0
 10
22.40365098427199
 20
107.1297389117465
 30
0.0
 10
20.40740769478464
 20
109.1287134856795
 30
0.0
 10
19.87448522287675
 20
109.9227789011155
 30
0.0
 10
19.14978173919751
 20
111.6735363944416
 30
0.0
 10
18.9675466023824
 20
112.598959395365
 30
0.0
 10
18.96754651168297
 20
113.5499996498213
 30
0.0
  0
SPLINE
  5
201
330
1C3
100
AcDbEntity
  8
$DDT_AUDIT_GENERATED_(B2)
  6
Continuous
 62
     7
100
AcDbSpline
210
0.0
220
0.0
230
1.0
 70
     8
 71
     3
 72
    12
 73
     8
 74
     0
 42
0.0000000008702963
 43
0.0000000001
 40
0.0
 40
0.0
 40
0.0
 40
0.0
 40
0.5000000000000002
 40
0.5000000000000002
 40
0.7500000000000001
 40
0.7500000000000001
 40
1.0
 40
1.0
 40
1.0
 40
1.0
 10
45.69754626441843
 20
113.5500002140592
 30
0.0
 10
45.69754626441839
 20
111.6564485405367
 30
0.0
 10
44.91774541561989
 20
109.786029873813
 30
0.0
 10
42.91889833780206
 20
107.7899342120742
 30
0.0
 10
42.12478625102327
 20
107.2569442743658
 30
0.0
 10
40.37399074372316
 20
106.5322305362716
 30
0.0
 10
39.4485945341446
 20
106.3500001904522
 30
0.0
 10
38.49754608567039
 20
106.3500001070312
 30
0.0
  0
LINE
  5
202
330
1C3
100
AcDbEntity
  8
$DDT_AUDIT_GENERATED_(B2)
  6
Continuous
 62
     7
100
AcDbLine
 10
38.4975460857
 20
106.35
 30
0.0
 11
26.1675460395
 21
106.35
 31
0.0
  0
LINE
  5
203
330
1C3
100
AcDbEntity
  8
$DDT_AUDIT_GENERATED_(1B1)
  6
Continuous
 62
     7
100
AcDbLine
 10
35.6825462644
 20
259.0999999947
 30
0.0
 11
28.9825462644
 21
259.0999999947
 31
0.0
  0
LINE
  5
204
330
1C3
100
AcDbEntity
  8
$DDT_AUDIT_GENERATED_(1B1)
  6
Continuous
 62
     7
100
AcDbLine
 10
28.9825462644
 20
259.0999999947
 30
0.0
 11
28.9825462644
 21
258.8174415123
 31
0.0
  0
LINE
  5
205
330
1C3
100
AcDbEntity
  8
$DDT_AUDIT_GENERATED_(1B1)
  6
Continuous
 62
     7
100
AcDbLine
 10
35.6825462644
 20
258.8174415123
 30
0.0
 11
35.6825462644
 21
259.0999999947
 31
0.0
  0
LINE
  5
206
330
1C3
100
AcDbEntity
  8
$DDT_AUDIT_GENERATED_(1BB)
  6
Continuous
 62
     7
100
AcDbLine
 10
30.3325462644
 20
278.5654826085
 30
0.0
 11
34.3325462644
 21
278.5654826085
 31
0.0
  0
LINE
  5
207
330
1C3
100
AcDbEntity
  8
$DDT_AUDIT_GENERATED_(1BB)
  6
Continuous
 62
     7
100
AcDbLine
 10
34.3325462644
 20
265.0981952485
 30
0.0
 11
34.3325462644
 21
278.5654826085
 31
0.0
  0
LINE
  5
208
330
1C3
100
AcDbEntity
  8
$DDT_AUDIT_GENERATED_(1BB)
  6
Continuous
 62
     7
100
AcDbLine
 10
30.3325462644
 20
278.5654826085
 30
0.0
 11
30.3325462644
 21
265.0981952485
 31
0.0
  0
LINE
  5
209
330
1C3
100
AcDbEntity
  8
$DDT_AUDIT_GENERATED_(1BB)
  6
Continuous
 62
     7
100
AcDbLine
 10
30.3325462644
 20
265.0981952485
 30
0.0
 11
30.3325462644
 21
262.2450256996
 31
0.0
  0
LINE
  5
20A
330
1C3
100
AcDbEntity
  8
$DDT_AUDIT_GENERATED_(1BB)
  6
Continuous
 62
     7
100
AcDbLine
 10
34.3325462644
 20
262.2450256996
 30
0.0
 11
34.3325462644
 21
265.0981952485
 31
0.0
  0
LINE
  5
20B
330
1C3
100
AcDbEntity
  8
$DDT_AUDIT_GENERATED_(1BB)
  6
Continuous
 62
     7
100
AcDbLine
 10
34.3325462644
 20
259.0999999947
 30
0.0
 11
34.3325462644
 21
262.2450256996
 31
0.0
  0
LINE
  5
20C
330
1C3
100
AcDbEntity
  8
$DDT_AUDIT_GENERATED_(1BB)
  6
Continuous
 62
     7
100
AcDbLine
 10
30.3325462644
 20
262.2450256996
 30
0.0
 11
30.3325462644
 21
259.0999999947
 31
0.0
  0
ENDBLK
  5
20E
330
1C3
100
AcDbEntity
  8
0
100
AcDbBlockEnd
  0
ENDSEC
  0
SECTION
  2
ENTITIES
  0
LINE
  5
5E
330
1F
100
AcDbEntity
  8
Default
  6
Continuous
 62
     7
100
AcDbLine
 10
192.8846704836
 20
737.8425673344
 30
0.0
 11
194.2040813107
 21
733.7818383532
 31
0.0
  0
LINE
  5
5F
330
1F
100
AcDbEntity
  8
Default
  6
Continuous
 62
     7
100
AcDbLine
 10
189.0804444184
 20
736.6064993569
 30
0.0
 11
194.1907780024
 21
720.878509816
 31
0.0
  0
INSERT
  5
61
330
1F
100
AcDbEntity
  8
Default
100
AcDbBlockReference
  2
SEANNOT_GROUP
 10
0.0
 20
0.0
 30
0.0
  0
INSERT
  5
6C
330
1F
100
AcDbEntity
  8
Default
100
AcDbBlockReference
  2
SEANNOT_GROUP1
 10
0.0
 20
0.0
 30
0.0
  0
INSERT
  5
72
330
1F
100
AcDbEntity
  8
Default
100
AcDbBlockReference
  2
SEANNOT_GROUP2
 10
0.0
 20
0.0
 30
0.0
  0
INSERT
  5
78
330
1F
100
AcDbEntity
  8
Default
100
AcDbBlockReference
  2
SE
 10
0.0
 20
0.0
 30
0.0
  0
INSERT
  5
183
330
1F
100
AcDbEntity
  8
Default
100
AcDbBlockReference
  2
SE1
 10
0.0
 20
0.0
 30
0.0
  0
INSERT
  5
1C4
330
1F
100
AcDbEntity
  8
Default
100
AcDbBlockReference
  2
SE2
 10
0.0
 20
0.0
 30
0.0
  0
TEXT
  5
210
330
1F
100
AcDbEntity
  8
Default
  6
Continuous
 62
     7
100
AcDbText
 10
5.9362635081
 20
53.4225120485
 30
0.0
 40
10.0
  1
Grohe AG^J
  7
SEACAD_seiso_ttf
 11
5.9362635081
 21
63.4225120485
 31
0.0
100
AcDbText
 73
     3
  0
TEXT
  5
211
330
1F
100
AcDbEntity
  8
Default
  6
Continuous
 62
     7
100
AcDbText
 10
5.9362635081
 20
37.0588756849
 30
0.0
 40
10.0
  1
 
  7
SEACAD_seiso_ttf
 11
5.9362635081
 21
47.0588756849
 31
0.0
100
AcDbText
 73
     3
  0
TEXT
  5
212
330
1F
100
AcDbEntity
  8
Default
  6
Continuous
 62
     7
100
AcDbText
 10
5.9362635081
 20
20.6952393213
 30
0.0
 40
10.0
  1
ecn:
  7
SEACAD_seiso_ttf
 11
5.9362635081
 21
30.6952393213
 31
0.0
100
AcDbText
 73
     3
  0
TEXT
  5
213
330
1F
100
AcDbEntity
  8
Default
  6
Continuous
 62
     7
100
AcDbText
 10
5.9362635081
 20
4.3316029576
 30
0.0
 40
10.0
  1
unit: mm
  7
SEACAD_seiso_ttf
 11
5.9362635081
 21
14.3316029576
 31
0.0
100
AcDbText
 73
     3
  0
LINE
  5
214
330
1F
100
AcDbEntity
  8
Default
  6
Continuous
 62
     7
100
AcDbLine
 10
0.0
 20
0.0
 30
0.0
 11
100.0
 21
0.0
 31
0.0
  0
LINE
  5
215
330
1F
100
AcDbEntity
  8
Default
  6
Continuous
 62
     7
100
AcDbLine
 10
0.0
 20
0.0
 30
0.0
 11
0.0
 21
100.0
 31
0.0
  0
TEXT
  5
216
330
1F
100
AcDbEntity
  8
Default
  6
Continuous
 62
     7
100
AcDbText
 10
24.3923665681
 20
-18.2375342018
 30
0.0
 40
10.0
  1
100 mm
  7
SEACAD_seiso_ttf
 11
24.3923665681
 21
-8.2375342018
 31
0.0
100
AcDbText
 73
     3
  0
TEXT
  5
217
330
1F
100
AcDbEntity
  8
Default
  6
Continuous
 62
     7
100
AcDbText
 10
-7.6150308803
 20
24.6231930421
 30
0.0
 40
10.0
  1
100 mm
 50
90.0
  7
SEACAD_seiso_ttf
 11
-17.6150308803
 21
24.6231930421
 31
0.0
100
AcDbText
 73
     3
  0
TEXT
  5
218
330
1F
100
AcDbEntity
  8
Default
  6
Continuous
 62
     7
100
AcDbText
 10
28.4878128572
 20
20.0907663715
 30
0.0
 40
10.0
  1
223777
  7
SEACAD_seiso_ttf
 11
28.4878128572
 21
30.0907663715
 31
0.0
100
AcDbText
 73
     3
  0
TEXT
  5
219
330
1F
100
AcDbEntity
  8
Default
  6
Continuous
 62
     7
100
AcDbText
 10
5.9012241913
 20
36.7242780188
 30
0.0
 40
10.0
  1
23297000
  7
SEACAD_seiso_ttf
 11
5.9012241913
 21
46.7242780188
 31
0.0
100
AcDbText
 73
     3
  0
ENDSEC
  0
SECTION
  2
OBJECTS
  0
DICTIONARY
  5
C
330
0
100
AcDbDictionary
281
     1
  3
ACAD_GROUP
350
D
  3
ACAD_LAYOUT
350
1A
  3
ACAD_MLEADERSTYLE
350
21D
  3
ACAD_MLINESTYLE
350
17
  3
ACAD_PLOTSETTINGS
350
19
  3
ACAD_PLOTSTYLENAME
350
E
  3
ACAD_SCALELIST
350
3B
  3
ACAD_TABLESTYLE
350
21C
  3
ACAD_VISUALSTYLE
350
2A
  3
AcDbVariableDictionary
350
21A
  0
DICTIONARY
  5
D
102
{ACAD_REACTORS
330
C
102
}
330
C
100
AcDbDictionary
281
     1
  0
DICTIONARY
  5
1A
102
{ACAD_REACTORS
330
C
102
}
330
C
100
AcDbDictionary
281
     1
  3
Layout1
350
1E
  3
Model
350
22
  0
DICTIONARY
  5
21D
102
{ACAD_REACTORS
330
C
102
}
330
C
100
AcDbDictionary
281
     1
  0
DICTIONARY
  5
17
102
{ACAD_REACTORS
330
C
102
}
330
C
100
AcDbDictionary
281
     1
  3
Standard
350
18
  0
DICTIONARY
  5
19
102
{ACAD_REACTORS
330
C
102
}
330
C
100
AcDbDictionary
281
     1
  0
ACDBDICTIONARYWDFLT
  5
E
102
{ACAD_REACTORS
330
C
102
}
330
C
100
AcDbDictionary
281
     1
  3
Normal
350
F
100
AcDbDictionaryWithDefault
340
F
  0
DICTIONARY
  5
3B
102
{ACAD_REACTORS
330
C
102
}
330
C
100
AcDbDictionary
281
     1
  3
A0
350
3C
  3
A1
350
3D
  3
A2
350
3E
  3
A3
350
3F
  3
A4
350
40
  3
A5
350
41
  3
A6
350
42
  3
A7
350
43
  3
A8
350
44
  3
A9
350
45
  3
B0
350
46
  3
B1
350
47
  3
B2
350
48
  3
B3
350
49
  3
B4
350
4A
  3
B5
350
4B
  3
B6
350
4C
  3
B7
350
4D
  3
B8
350
4E
  3
B9
350
4F
  3
C0
350
50
  3
C1
350
51
  3
C2
350
52
  3
C3
350
53
  3
C4
350
54
  3
C5
350
55
  3
C6
350
56
  3
C7
350
57
  3
C8
350
58
  3
C9
350
59
  3
D0
350
5A
  3
D1
350
5B
  3
D2
350
5C
  0
DICTIONARY
  5
21C
102
{ACAD_REACTORS
330
C
102
}
330
C
100
AcDbDictionary
281
     1
  0
DICTIONARY
  5
2A
102
{ACAD_REACTORS
330
C
102
}
330
C
100
AcDbDictionary
281
     1
  3
2dWireframe
350
2F
  3
3D Hidden
350
31
  3
3dWireframe
350
30
  3
Basic
350
32
  3
Brighten
350
36
  3
ColorChange
350
3A
  3
Conceptual
350
34
  3
Dim
350
35
  3
Facepattern
350
39
  3
Flat
350
2B
  3
FlatWithEdges
350
2C
  3
Gouraud
350
2D
  3
GouraudWithEdges
350
2E
  3
Linepattern
350
38
  3
Realistic
350
33
  3
Thicken
350
37
  0
DICTIONARY
  5
21A
102
{ACAD_REACTORS
330
C
102
}
330
C
100
AcDbDictionary
281
     1
  3
CANNOSCALE
350
21B
  3
PSOLHEIGHT
350
21F
  3
PSOLWIDTH
350
21E
  0
LAYOUT
  5
1E
102
{ACAD_REACTORS
330
1A
102
}
330
1A
100
AcDbPlotSettings
  1

  2
none_device
  4

  6

 40
0.0
 41
0.0
 42
0.0
 43
0.0
 44
0.0
 45
0.0
 46
0.0
 47
0.0
 48
0.0
 49
0.0
140
0.0
141
0.0
142
1.0
143
1.0
 70
   688
 72
     0
 73
     0
 74
     5
  7

 75
    16
147
1.0
148
0.0
149
0.0
100
AcDbLayout
  1
Layout1
 70
     1
 71
     1
 10
0.0
 20
0.0
 11
3000.0
 21
4500.0
 12
0.0
 22
0.0
 32
0.0
 14
0.0
 24
0.0
 34
0.0
 15
3000.0
 25
4500.0
 35
0.0
146
0.0
 13
0.0
 23
0.0
 33
0.0
 16
1.0
 26
0.0
 36
0.0
 17
0.0
 27
1.0
 37
0.0
 76
     0
330
1B
  0
LAYOUT
  5
22
102
{ACAD_REACTORS
330
1A
102
}
330
1A
100
AcDbPlotSettings
  1

  2
none_device
  4

  6

 40
0.0
 41
0.0
 42
0.0
 43
0.0
 44
0.0
 45
0.0
 46
0.0
 47
0.0
 48
0.0
 49
0.0
140
0.0
141
0.0
142
1.0
143
1.0
 70
  1712
 72
     0
 73
     0
 74
     0
  7

 75
     0
147
1.0
148
0.0
149
0.0
100
AcDbLayout
  1
Model
 70
     1
 71
     0
 10
0.0
 20
0.0
 11
3000.0
 21
4500.0
 12
0.0
 22
0.0
 32
0.0
 14
0.0
 24
0.0
 34
0.0
 15
3000.0
 25
4500.0
 35
0.0
146
0.0
 13
0.0
 23
0.0
 33
0.0
 16
1.0
 26
0.0
 36
0.0
 17
0.0
 27
1.0
 37
0.0
 76
     0
330
1F
331
29
  0
MLINESTYLE
  5
18
102
{ACAD_REACTORS
330
17
102
}
330
17
100
AcDbMlineStyle
  2
Standard
 70
     0
  3

 62
   256
 51
90.0
 52
90.0
 71
     2
 49
0.5
 62
   256
  6
BYLAYER
 49
-0.5
 62
   256
  6
BYLAYER
  0
ACDBPLACEHOLDER
  5
F
102
{ACAD_REACTORS
330
E
102
}
330
E
  0
SCALE
  5
3C
102
{ACAD_REACTORS
330
3B
102
}
330
3B
100
AcDbScale
 70
     0
300
1:1
140
1.0
141
1.0
290
     1
  0
SCALE
  5
3D
102
{ACAD_REACTORS
330
3B
102
}
330
3B
100
AcDbScale
 70
     0
300
1:2
140
1.0
141
2.0
290
     0
  0
SCALE
  5
3E
102
{ACAD_REACTORS
330
3B
102
}
330
3B
100
AcDbScale
 70
     0
300
1:4
140
1.0
141
4.0
290
     0
  0
SCALE
  5
3F
102
{ACAD_REACTORS
330
3B
102
}
330
3B
100
AcDbScale
 70
     0
300
1:5
140
1.0
141
5.0
290
     0
  0
SCALE
  5
40
102
{ACAD_REACTORS
330
3B
102
}
330
3B
100
AcDbScale
 70
     0
300
1:8
140
1.0
141
8.0
290
     0
  0
SCALE
  5
41
102
{ACAD_REACTORS
330
3B
102
}
330
3B
100
AcDbScale
 70
     0
300
1:10
140
1.0
141
10.0
290
     0
  0
SCALE
  5
42
102
{ACAD_REACTORS
330
3B
102
}
330
3B
100
AcDbScale
 70
     0
300
1:16
140
1.0
141
16.0
290
     0
  0
SCALE
  5
43
102
{ACAD_REACTORS
330
3B
102
}
330
3B
100
AcDbScale
 70
     0
300
1:20
140
1.0
141
20.0
290
     0
  0
SCALE
  5
44
102
{ACAD_REACTORS
330
3B
102
}
330
3B
100
AcDbScale
 70
     0
300
1:30
140
1.0
141
30.0
290
     0
  0
SCALE
  5
45
102
{ACAD_REACTORS
330
3B
102
}
330
3B
100
AcDbScale
 70
     0
300
1:40
140
1.0
141
40.0
290
     0
  0
SCALE
  5
46
102
{ACAD_REACTORS
330
3B
102
}
330
3B
100
AcDbScale
 70
     0
300
1:50
140
1.0
141
50.0
290
     0
  0
SCALE
  5
47
102
{ACAD_REACTORS
330
3B
102
}
330
3B
100
AcDbScale
 70
     0
300
1:100
140
1.0
141
100.0
290
     0
  0
SCALE
  5
48
102
{ACAD_REACTORS
330
3B
102
}
330
3B
100
AcDbScale
 70
     0
300
2:1
140
2.0
141
1.0
290
     0
  0
SCALE
  5
49
102
{ACAD_REACTORS
330
3B
102
}
330
3B
100
AcDbScale
 70
     0
300
4:1
140
4.0
141
1.0
290
     0
  0
SCALE
  5
4A
102
{ACAD_REACTORS
330
3B
102
}
330
3B
100
AcDbScale
 70
     0
300
8:1
140
8.0
141
1.0
290
     0
  0
SCALE
  5
4B
102
{ACAD_REACTORS
330
3B
102
}
330
3B
100
AcDbScale
 70
     0
300
10:1
140
10.0
141
1.0
290
     0
  0
SCALE
  5
4C
102
{ACAD_REACTORS
330
3B
102
}
330
3B
100
AcDbScale
 70
     0
300
100:1
140
100.0
141
1.0
290
     0
  0
SCALE
  5
4D
102
{ACAD_REACTORS
330
3B
102
}
330
3B
100
AcDbScale
 70
     0
300
1/128" = 1'-0"
140
0.0078125
141
12.0
290
     0
  0
SCALE
  5
4E
102
{ACAD_REACTORS
330
3B
102
}
330
3B
100
AcDbScale
 70
     0
300
1/64" = 1'-0"
140
0.015625
141
12.0
290
     0
  0
SCALE
  5
4F
102
{ACAD_REACTORS
330
3B
102
}
330
3B
100
AcDbScale
 70
     0
300
1/32" = 1'-0"
140
0.03125
141
12.0
290
     0
  0
SCALE
  5
50
102
{ACAD_REACTORS
330
3B
102
}
330
3B
100
AcDbScale
 70
     0
300
1/16" = 1'-0"
140
0.0625
141
12.0
290
     0
  0
SCALE
  5
51
102
{ACAD_REACTORS
330
3B
102
}
330
3B
100
AcDbScale
 70
     0
300
3/32" = 1'-0"
140
0.09375
141
12.0
290
     0
  0
SCALE
  5
52
102
{ACAD_REACTORS
330
3B
102
}
330
3B
100
AcDbScale
 70
     0
300
1/8" = 1'-0"
140
0.125
141
12.0
290
     0
  0
SCALE
  5
53
102
{ACAD_REACTORS
330
3B
102
}
330
3B
100
AcDbScale
 70
     0
300
3/16" = 1'-0"
140
0.1875
141
12.0
290
     0
  0
SCALE
  5
54
102
{ACAD_REACTORS
330
3B
102
}
330
3B
100
AcDbScale
 70
     0
300
1/4" = 1'-0"
140
0.25
141
12.0
290
     0
  0
SCALE
  5
55
102
{ACAD_REACTORS
330
3B
102
}
330
3B
100
AcDbScale
 70
     0
300
3/8" = 1'-0"
140
0.375
141
12.0
290
     0
  0
SCALE
  5
56
102
{ACAD_REACTORS
330
3B
102
}
330
3B
100
AcDbScale
 70
     0
300
1/2" = 1'-0"
140
0.5
141
12.0
290
     0
  0
SCALE
  5
57
102
{ACAD_REACTORS
330
3B
102
}
330
3B
100
AcDbScale
 70
     0
300
3/4" = 1'-0"
140
0.75
141
12.0
290
     0
  0
SCALE
  5
58
102
{ACAD_REACTORS
330
3B
102
}
330
3B
100
AcDbScale
 70
     0
300
1" = 1'-0"
140
1.0
141
12.0
290
     0
  0
SCALE
  5
59
102
{ACAD_REACTORS
330
3B
102
}
330
3B
100
AcDbScale
 70
     0
300
1-1/2" = 1'-0"
140
1.5
141
12.0
290
     0
  0
SCALE
  5
5A
102
{ACAD_REACTORS
330
3B
102
}
330
3B
100
AcDbScale
 70
     0
300
3" = 1'-0"
140
3.0
141
12.0
290
     0
  0
SCALE
  5
5B
102
{ACAD_REACTORS
330
3B
102
}
330
3B
100
AcDbScale
 70
     0
300
6" = 1'-0"
140
6.0
141
12.0
290
     0
  0
SCALE
  5
5C
102
{ACAD_REACTORS
330
3B
102
}
330
3B
100
AcDbScale
 70
     0
300
1'-0" = 1'-0"
140
12.0
141
12.0
290
     0
  0
VISUALSTYLE
  5
2F
102
{ACAD_REACTORS
330
2A
102
}
330
2A
100
AcDbVisualStyle
  2
2dWireframe
 70
     4
 71
     0
 72
     2
 73
     0
 90
        0
 40
-0.6
 41
-30.0
 62
     5
 63
     7
 74
     1
 91
        4
 64
     7
 65
   257
 75
     1
175
     1
 42
1.0
 92
        0
 66
   257
 43
1.0
 76
     1
 77
     6
 78
     2
 67
     7
 79
     5
170
     0
171
     0
290
     0
174
     0
 93
        1
 44
0.0
173
     0
291
     0
 45
0.0
1001
ACAD
1000
AcDbSavedByObjectVersion
1070
     0
  0
VISUALSTYLE
  5
31
102
{ACAD_REACTORS
330
2A
102
}
330
2A
100
AcDbVisualStyle
  2
3D Hidden
 70
     6
 71
     1
 72
     2
 73
     2
 90
        0
 40
-0.6
 41
-30.0
 62
     5
 63
     7
 74
     2
 91
        2
 64
     7
 65
   257
 75
     2
175
     1
 42
40.0
 92
        0
 66
   257
 43
1.0
 76
     1
 77
     6
 78
     2
 67
     7
 79
     3
170
     0
171
     0
290
     0
174
     0
 93
        1
 44
0.0
173
     0
291
     0
 45
0.0
1001
ACAD
1000
AcDbSavedByObjectVersion
1070
     0
  0
VISUALSTYLE
  5
30
102
{ACAD_REACTORS
330
2A
102
}
330
2A
100
AcDbVisualStyle
  2
3dWireframe
 70
     5
 71
     0
 72
     2
 73
     0
 90
        0
 40
-0.6
 41
-30.0
 62
     5
 63
     7
 74
     1
 91
        4
 64
     7
 65
   257
 75
     1
175
     1
 42
1.0
 92
        0
 66
   257
 43
1.0
 76
     1
 77
     6
 78
     2
 67
     7
 79
     5
170
     0
171
     0
290
     0
174
     0
 93
        1
 44
0.0
173
     0
291
     0
 45
0.0
1001
ACAD
1000
AcDbSavedByObjectVersion
1070
     0
  0
VISUALSTYLE
  5
32
102
{ACAD_REACTORS
330
2A
102
}
330
2A
100
AcDbVisualStyle
  2
Basic
 70
     7
 71
     1
 72
     0
 73
     1
 90
        0
 40
-0.6
 41
-30.0
 62
     5
 63
     7
 74
     0
 91
        4
 64
     7
 65
   257
 75
     1
175
     1
 42
1.0
 92
        8
 66
     7
 43
1.0
 76
     1
 77
     6
 78
     2
 67
     7
 79
     5
170
     0
171
     0
290
     0
174
     0
 93
        1
 44
0.0
173
     0
291
     1
 45
0.0
1001
ACAD
1000
AcDbSavedByObjectVersion
1070
     0
  0
VISUALSTYLE
  5
36
102
{ACAD_REACTORS
330
2A
102
}
330
2A
100
AcDbVisualStyle
  2
Brighten
 70
    12
 71
     2
 72
     2
 73
     0
 90
        0
 40
-0.6
 41
-30.0
 62
     5
 63
     7
 74
     1
 91
        4
 64
     7
 65
   257
 75
     1
175
     1
 42
1.0
 92
        8
 66
     7
 43
1.0
 76
     1
 77
     6
 78
     2
 67
     7
 79
     5
170
     0
171
     0
290
     0
174
     0
 93
        1
 44
50.0
173
     0
291
     1
 45
0.0
1001
ACAD
1000
AcDbSavedByObjectVersion
1070
     0
  0
VISUALSTYLE
  5
3A
102
{ACAD_REACTORS
330
2A
102
}
330
2A
100
AcDbVisualStyle
  2
ColorChange
 70
    16
 71
     2
 72
     2
 73
     3
 90
        0
 40
-0.6
 41
-30.0
 62
     5
 63
     8
 74
     1
 91
        4
 64
     7
 65
   257
 75
     1
175
     1
 42
1.0
 92
        8
 66
     8
 43
1.0
 76
     1
 77
     6
 78
     2
 67
     7
 79
     5
170
     0
171
     0
290
     0
174
     0
 93
        1
 44
0.0
173
     0
291
     1
 45
0.0
1001
ACAD
1000
AcDbSavedByObjectVersion
1070
     0
  0
VISUALSTYLE
  5
34
102
{ACAD_REACTORS
330
2A
102
}
330
2A
100
AcDbVisualStyle
  2
Conceptual
 70
     9
 71
     3
 72
     2
 73
     0
 90
        0
 40
-0.6
 41
-30.0
 62
     5
 63
     7
 74
     2
 91
        2
 64
     7
 65
   257
 75
     1
175
     1
 42
40.0
 92
        8
 66
     7
 43
1.0
 76
     1
 77
     6
 78
     2
 67
     7
 79
     3
170
     0
171
     0
290
     0
174
     0
 93
        1
 44
0.0
173
     0
291
     0
 45
0.0
1001
ACAD
1000
AcDbSavedByObjectVersion
1070
     0
  0
VISUALSTYLE
  5
35
102
{ACAD_REACTORS
330
2A
102
}
330
2A
100
AcDbVisualStyle
  2
Dim
 70
    11
 71
     2
 72
     2
 73
     0
 90
        0
 40
-0.6
 41
-30.0
 62
     5
 63
     7
 74
     1
 91
        4
 64
     7
 65
   257
 75
     1
175
     1
 42
1.0
 92
        8
 66
     7
 43
1.0
 76
     1
 77
     6
 78
     2
 67
     7
 79
     5
170
     0
171
     0
290
     0
174
     0
 93
        1
 44
-50.0
173
     0
291
     1
 45
0.0
1001
ACAD
1000
AcDbSavedByObjectVersion
1070
     0
  0
VISUALSTYLE
  5
39
102
{ACAD_REACTORS
330
2A
102
}
330
2A
100
AcDbVisualStyle
  2
Facepattern
 70
    15
 71
     2
 72
     2
 73
     0
 90
        0
 40
-0.6
 41
-30.0
 62
     5
 63
     7
 74
     1
 91
        4
 64
     7
 65
   257
 75
     1
175
     1
 42
1.0
 92
        8
 66
     7
 43
1.0
 76
     1
 77
     6
 78
     2
 67
     7
 79
     5
170
     0
171
     0
290
     0
174
     0
 93
        1
 44
0.0
173
     0
291
     1
 45
0.0
1001
ACAD
1000
AcDbSavedByObjectVersion
1070
     0
  0
VISUALSTYLE
  5
2B
102
{ACAD_REACTORS
330
2A
102
}
330
2A
100
AcDbVisualStyle
  2
Flat
 70
     0
 71
     2
 72
     1
 73
     1
 90
        2
 40
-0.6
 41
30.0
 62
     5
 63
     7
 74
     0
 91
        4
 64
     7
 65
   257
 75
     1
175
     1
 42
1.0
 92
        8
 66
     7
 43
1.0
 76
     1
 77
     6
 78
     2
 67
     7
 79
     5
170
     0
171
     0
290
     0
174
     0
 93
       13
 44
0.0
173
     0
291
     1
 45
0.0
1001
ACAD
1000
AcDbSavedByObjectVersion
1070
     0
  0
VISUALSTYLE
  5
2C
102
{ACAD_REACTORS
330
2A
102
}
330
2A
100
AcDbVisualStyle
  2
FlatWithEdges
 70
     1
 71
     2
 72
     1
 73
     1
 90
        2
 40
-0.6
 41
30.0
 62
     5
 63
     7
 74
     1
 91
        4
 64
     7
 65
   257
 75
     1
175
     1
 42
1.0
 92
        0
 66
   257
 43
1.0
 76
     1
 77
     6
 78
     2
 67
     7
 79
     5
170
     0
171
     0
290
     0
174
     0
 93
       13
 44
0.0
173
     0
291
     1
 45
0.0
1001
ACAD
1000
AcDbSavedByObjectVersion
1070
     0
  0
VISUALSTYLE
  5
2D
102
{ACAD_REACTORS
330
2A
102
}
330
2A
100
AcDbVisualStyle
  2
Gouraud
 70
     2
 71
     2
 72
     2
 73
     1
 90
        2
 40
-0.6
 41
30.0
 62
     5
 63
     7
 74
     0
 91
        4
 64
     7
 65
   257
 75
     1
175
     1
 42
1.0
 92
        0
 66
     7
 43
1.0
 76
     1
 77
     6
 78
     2
 67
     7
 79
     5
170
     0
171
     0
290
     0
174
     0
 93
       13
 44
0.0
173
     0
291
     1
 45
0.0
1001
ACAD
1000
AcDbSavedByObjectVersion
1070
     0
  0
VISUALSTYLE
  5
2E
102
{ACAD_REACTORS
330
2A
102
}
330
2A
100
AcDbVisualStyle
  2
GouraudWithEdges
 70
     3
 71
     2
 72
     2
 73
     1
 90
        2
 40
-0.6
 41
30.0
 62
     5
 63
     7
 74
     1
 91
        4
 64
     7
 65
   257
 75
     1
175
     1
 42
1.0
 92
        0
 66
   257
 43
1.0
 76
     1
 77
     6
 78
     2
 67
     7
 79
     5
170
     0
171
     0
290
     0
174
     0
 93
       13
 44
0.0
173
     0
291
     1
 45
0.0
1001
ACAD
1000
AcDbSavedByObjectVersion
1070
     0
  0
VISUALSTYLE
  5
38
102
{ACAD_REACTORS
330
2A
102
}
330
2A
100
AcDbVisualStyle
  2
Linepattern
 70
    14
 71
     2
 72
     2
 73
     0
 90
        0
 40
-0.6
 41
-30.0
 62
     5
 63
     7
 74
     1
 91
        4
 64
     7
 65
   257
 75
     7
175
     7
 42
1.0
 92
        8
 66
     7
 43
1.0
 76
     1
 77
     6
 78
     2
 67
     7
 79
     5
170
     0
171
     0
290
     0
174
     0
 93
        1
 44
0.0
173
     0
291
     1
 45
0.0
1001
ACAD
1000
AcDbSavedByObjectVersion
1070
     0
  0
VISUALSTYLE
  5
33
102
{ACAD_REACTORS
330
2A
102
}
330
2A
100
AcDbVisualStyle
  2
Realistic
 70
     8
 71
     2
 72
     2
 73
     0
 90
        0
 40
-0.6
 41
-30.0
 62
     5
 63
     7
 74
     1
 91
        0
 64
     7
 65
   257
 75
     1
175
     1
 42
1.0
 92
        8
 66
     8
 43
1.0
 76
     1
 77
     6
 78
     2
 67
     7
 79
     5
170
     0
171
     0
290
     0
174
     0
 93
       13
 44
0.0
173
     0
291
     0
 45
0.0
1001
ACAD
1000
AcDbSavedByObjectVersion
1070
     0
  0
VISUALSTYLE
  5
37
102
{ACAD_REACTORS
330
2A
102
}
330
2A
100
AcDbVisualStyle
  2
Thicken
 70
    13
 71
     2
 72
     2
 73
     0
 90
        0
 40
-0.6
 41
-30.0
 62
     5
 63
     7
 74
     1
 91
        4
 64
     7
 65
   257
 75
     1
175
     1
 42
1.0
 92
       12
 66
     7
 43
1.0
 76
     1
 77
     6
 78
     2
 67
     7
 79
     5
170
     0
171
     0
290
     0
174
     0
 93
        1
 44
0.0
173
     0
291
     1
 45
0.0
1001
ACAD
1000
AcDbSavedByObjectVersion
1070
     0
  0
DICTIONARYVAR
  5
21B
102
{ACAD_REACTORS
330
21A
102
}
330
21A
100
DictionaryVariables
280
     0
  1
1:1
  0
DICTIONARYVAR
  5
21F
102
{ACAD_REACTORS
330
21A
102
}
330
21A
100
DictionaryVariables
280
     0
  1
80.000000
  0
DICTIONARYVAR
  5
21E
102
{ACAD_REACTORS
330
21A
102
}
330
21A
100
DictionaryVariables
280
     0
  1
5.000000
  0
ENDSEC
  0
EOF
