  0
SECTION
  2
HEADER
  9
$ACADVER
  1
AC1015
  9
$ACADMAINTVER
 70
     6
  9
$DWGCODEPAGE
  3
ANSI_1252
  9
$INSBASE
 10
0.0
 20
0.0
 30
0.0
  9
$EXTMIN
 10
0.0
 20
0.0
 30
0.0
  9
$EXTMAX
 10
3000.0
 20
4500.0
 30
0.0
  9
$LIMMIN
 10
0.0
 20
0.0
  9
$LIMMAX
 10
3000.0
 20
4500.0
  9
$ORTHOMODE
 70
     0
  9
$REGENMODE
 70
     1
  9
$FILLMODE
 70
     1
  9
$QTEXTMODE
 70
     0
  9
$MIRRTEXT
 70
     1
  9
$LTSCALE
 40
1.0
  9
$ATTMODE
 70
     1
  9
$TEXTSIZE
 40
2.5
  9
$TRACEWID
 40
1.0
  9
$TEXTSTYLE
  7
Standard
  9
$CLAYER
  8
0
  9
$CELTYPE
  6
ByLayer
  9
$CECOLOR
 62
   256
  9
$CELTSCALE
 40
1.0
  9
$DISPSILH
 70
     0
  9
$DIMSCALE
 40
1.0
  9
$DIMASZ
 40
2.5
  9
$DIMEXO
 40
0.625
  9
$DIMDLI
 40
3.75
  9
$DIMRND
 40
0.0
  9
$DIMDLE
 40
0.0
  9
$DIMEXE
 40
1.25
  9
$DIMTP
 40
0.0
  9
$DIMTM
 40
0.0
  9
$DIMTXT
 40
2.5
  9
$DIMCEN
 40
2.5
  9
$DIMTSZ
 40
0.0
  9
$DIMTOL
 70
     0
  9
$DIMLIM
 70
     0
  9
$DIMTIH
 70
     0
  9
$DIMTOH
 70
     0
  9
$DIMSE1
 70
     0
  9
$DIMSE2
 70
     0
  9
$DIMTAD
 70
     1
  9
$DIMZIN
 70
     8
  9
$DIMBLK
  1

  9
$DIMASO
 70
     1
  9
$DIMSHO
 70
     1
  9
$DIMPOST
  1

  9
$DIMAPOST
  1

  9
$DIMALT
 70
     0
  9
$DIMALTD
 70
     3
  9
$DIMALTF
 40
0.0393700787
  9
$DIMLFAC
 40
1.0
  9
$DIMTOFL
 70
     1
  9
$DIMTVP
 40
0.0
  9
$DIMTIX
 70
     0
  9
$DIMSOXD
 70
     0
  9
$DIMSAH
 70
     0
  9
$DIMBLK1
  1

  9
$DIMBLK2
  1

  9
$DIMSTYLE
  2
ISO-25
  9
$DIMCLRD
 70
     0
  9
$DIMCLRE
 70
     0
  9
$DIMCLRT
 70
     0
  9
$DIMTFAC
 40
1.0
  9
$DIMGAP
 40
0.625
  9
$DIMJUST
 70
     0
  9
$DIMSD1
 70
     0
  9
$DIMSD2
 70
     0
  9
$DIMTOLJ
 70
     0
  9
$DIMTZIN
 70
     8
  9
$DIMALTZ
 70
     0
  9
$DIMALTTZ
 70
     0
  9
$DIMUPT
 70
     0
  9
$DIMDEC
 70
     2
  9
$DIMTDEC
 70
     2
  9
$DIMALTU
 70
     2
  9
$DIMALTTD
 70
     3
  9
$DIMTXSTY
  7
Standard
  9
$DIMAUNIT
 70
     0
  9
$DIMADEC
 70
     0
  9
$DIMALTRND
 40
0.0
  9
$DIMAZIN
 70
     0
  9
$DIMDSEP
 70
    44
  9
$DIMATFIT
 70
     3
  9
$DIMFRAC
 70
     0
  9
$DIMLDRBLK
  1

  9
$DIMLUNIT
 70
     2
  9
$DIMLWD
 70
    -2
  9
$DIMLWE
 70
    -2
  9
$DIMTMOVE
 70
     0
  9
$LUNITS
 70
     2
  9
$LUPREC
 70
     4
  9
$SKETCHINC
 40
1.0
  9
$FILLETRAD
 40
10.0
  9
$AUNITS
 70
     0
  9
$AUPREC
 70
     0
  9
$MENU
  1
.
  9
$ELEVATION
 40
0.0
  9
$PELEVATION
 40
0.0
  9
$THICKNESS
 40
0.0
  9
$LIMCHECK
 70
     0
  9
$CHAMFERA
 40
10.0
  9
$CHAMFERB
 40
10.0
  9
$CHAMFERC
 40
20.0
  9
$CHAMFERD
 40
0.0
  9
$SKPOLY
 70
     0
  9
$TDCREATE
 40
2455985.435546493
  9
$TDUCREATE
 40
2455985.393879826
  9
$TDUPDATE
 40
2455985.435546505
  9
$TDUUPDATE
 40
2455985.393879838
  9
$TDINDWG
 40
0.0000000116
  9
$TDUSRTIMER
 40
0.0000000116
  9
$USRTIMER
 70
     1
  9
$ANGBASE
 50
0.0
  9
$ANGDIR
 70
     0
  9
$PDMODE
 70
     0
  9
$PDSIZE
 40
0.0
  9
$PLINEWID
 40
0.0
  9
$SPLFRAME
 70
     0
  9
$SPLINETYPE
 70
     6
  9
$SPLINESEGS
 70
     8
  9
$HANDSEED
  5
357
  9
$SURFTAB1
 70
     6
  9
$SURFTAB2
 70
     6
  9
$SURFTYPE
 70
     6
  9
$SURFU
 70
     6
  9
$SURFV
 70
     6
  9
$UCSBASE
  2

  9
$UCSNAME
  2

  9
$UCSORG
 10
0.0
 20
0.0
 30
0.0
  9
$UCSXDIR
 10
1.0
 20
0.0
 30
0.0
  9
$UCSYDIR
 10
0.0
 20
1.0
 30
0.0
  9
$UCSORTHOREF
  2

  9
$UCSORTHOVIEW
 70
     0
  9
$UCSORGTOP
 10
0.0
 20
0.0
 30
0.0
  9
$UCSORGBOTTOM
 10
0.0
 20
0.0
 30
0.0
  9
$UCSORGLEFT
 10
0.0
 20
0.0
 30
0.0
  9
$UCSORGRIGHT
 10
0.0
 20
0.0
 30
0.0
  9
$UCSORGFRONT
 10
0.0
 20
0.0
 30
0.0
  9
$UCSORGBACK
 10
0.0
 20
0.0
 30
0.0
  9
$PUCSBASE
  2

  9
$PUCSNAME
  2

  9
$PUCSORG
 10
0.0
 20
0.0
 30
0.0
  9
$PUCSXDIR
 10
1.0
 20
0.0
 30
0.0
  9
$PUCSYDIR
 10
0.0
 20
1.0
 30
0.0
  9
$PUCSORTHOREF
  2

  9
$PUCSORTHOVIEW
 70
     0
  9
$PUCSORGTOP
 10
0.0
 20
0.0
 30
0.0
  9
$PUCSORGBOTTOM
 10
0.0
 20
0.0
 30
0.0
  9
$PUCSORGLEFT
 10
0.0
 20
0.0
 30
0.0
  9
$PUCSORGRIGHT
 10
0.0
 20
0.0
 30
0.0
  9
$PUCSORGFRONT
 10
0.0
 20
0.0
 30
0.0
  9
$PUCSORGBACK
 10
0.0
 20
0.0
 30
0.0
  9
$USERI1
 70
     0
  9
$USERI2
 70
     0
  9
$USERI3
 70
     0
  9
$USERI4
 70
     0
  9
$USERI5
 70
     0
  9
$USERR1
 40
0.0
  9
$USERR2
 40
0.0
  9
$USERR3
 40
0.0
  9
$USERR4
 40
0.0
  9
$USERR5
 40
0.0
  9
$WORLDVIEW
 70
     1
  9
$SHADEDGE
 70
     3
  9
$SHADEDIF
 70
    70
  9
$TILEMODE
 70
     1
  9
$MAXACTVP
 70
    64
  9
$PINSBASE
 10
0.0
 20
0.0
 30
0.0
  9
$PLIMCHECK
 70
     0
  9
$PEXTMIN
 10
0.0
 20
0.0
 30
0.0
  9
$PEXTMAX
 10
3000.0
 20
4500.0
 30
0.0
  9
$PLIMMIN
 10
0.0
 20
0.0
  9
$PLIMMAX
 10
3000.0
 20
4500.0
  9
$UNITMODE
 70
     0
  9
$VISRETAIN
 70
     1
  9
$PLINEGEN
 70
     0
  9
$PSLTSCALE
 70
     1
  9
$TREEDEPTH
 70
  3020
  9
$CMLSTYLE
  2
Standard
  9
$CMLJUST
 70
     0
  9
$CMLSCALE
 40
20.0
  9
$PROXYGRAPHICS
 70
     1
  9
$MEASUREMENT
 70
     1
  9
$CELWEIGHT
370
    -1
  9
$ENDCAPS
280
     0
  9
$JOINSTYLE
280
     0
  9
$LWDISPLAY
290
     0
  9
$INSUNITS
 70
     4
  9
$HYPERLINKBASE
  1

  9
$STYLESHEET
  1

  9
$XEDIT
290
     1
  9
$CEPSNTYPE
380
     0
  9
$PSTYLEMODE
290
     1
  9
$FINGERPRINTGUID
  2
{52C96075-F70D-4D5C-B9CD-B13ADB49ECFA}
  9
$VERSIONGUID
  2
{FAEB1C32-E019-11D5-929B-00C0DF256EC4}
  9
$EXTNAMES
290
     1
  9
$PSVPSCALE
 40
0.0
  9
$OLESTARTUP
290
     0
  0
ENDSEC
  0
SECTION
  2
CLASSES
  0
CLASS
  1
ACDBDICTIONARYWDFLT
  2
AcDbDictionaryWithDefault
  3
ObjectDBX Classes
 90
        0
280
     0
281
     0
  0
CLASS
  1
VISUALSTYLE
  2
AcDbVisualStyle
  3
ObjectDBX Classes
 90
     4095
280
     0
281
     0
  0
CLASS
  1
SCALE
  2
AcDbScale
  3
ObjectDBX Classes
 90
     1153
280
     0
281
     0
  0
CLASS
  1
DICTIONARYVAR
  2
AcDbDictionaryVar
  3
ObjectDBX Classes
 90
        0
280
     0
281
     0
  0
CLASS
  1
ACDBPLACEHOLDER
  2
AcDbPlaceHolder
  3
ObjectDBX Classes
 90
        0
280
     0
281
     0
  0
CLASS
  1
LAYOUT
  2
AcDbLayout
  3
ObjectDBX Classes
 90
        0
280
     0
281
     0
  0
ENDSEC
  0
SECTION
  2
TABLES
  0
TABLE
  2
VPORT
  5
8
330
0
100
AcDbSymbolTable
 70
     1
  0
VPORT
  5
29
330
8
100
AcDbSymbolTableRecord
100
AcDbViewportTableRecord
  2
*Active
 70
     0
 10
0.0
 20
0.0
 11
1.0
 21
1.0
 12
344.1869158879
 22
148.5
 13
0.0
 23
0.0
 14
10.0
 24
10.0
 15
10.0
 25
10.0
 16
0.0
 26
0.0
 36
1.0
 17
0.0
 27
0.0
 37
0.0
 40
297.0
 41
1.9729729729
 42
50.0
 43
0.0
 44
0.0
 50
0.0
 51
0.0
 71
     0
 72
   100
 73
     1
 74
     3
 75
     0
 76
     0
 77
     0
 78
     0
281
     0
 65
     1
110
0.0
120
0.0
130
0.0
111
1.0
121
0.0
131
0.0
112
0.0
122
1.0
132
0.0
 79
     0
146
0.0
  0
ENDTAB
  0
TABLE
  2
LTYPE
  5
5
330
0
100
AcDbSymbolTable
 70
     2
  0
LTYPE
  5
14
330
5
100
AcDbSymbolTableRecord
100
AcDbLinetypeTableRecord
  2
ByBlock
 70
     0
  3

 72
    65
 73
     0
 40
0.0
  0
LTYPE
  5
15
330
5
100
AcDbSymbolTableRecord
100
AcDbLinetypeTableRecord
  2
ByLayer
 70
     0
  3

 72
    65
 73
     0
 40
0.0
  0
LTYPE
  5
16
330
5
100
AcDbSymbolTableRecord
100
AcDbLinetypeTableRecord
  2
Continuous
 70
     0
  3
Solid line
 72
    65
 73
     0
 40
0.0
  0
LTYPE
  5
60
330
5
100
AcDbSymbolTableRecord
100
AcDbLinetypeTableRecord
  2
CENTER2
 70
     0
  3
Center (.5x) ___ _ ___ _ ___ _ ___ _ ___ _ ___
 72
    65
 73
     4
 40
28.575
 49
19.05
 74
     4
 75
     0
340
0
 46
0.0
 50
0.0
 44
0.0
 45
0.0
 49
-3.175
 74
     4
 75
     0
340
0
 46
0.0
 50
0.0
 44
0.0
 45
0.0
 49
3.175
 74
     4
 75
     0
340
0
 46
0.0
 50
0.0
 44
0.0
 45
0.0
 49
-3.175
 74
     4
 75
     0
340
0
 46
0.0
 50
0.0
 44
0.0
 45
0.0
  0
ENDTAB
  0
TABLE
  2
LAYER
  5
2
330
0
100
AcDbSymbolTable
 70
    19
  0
LAYER
  5
10
330
2
100
AcDbSymbolTableRecord
100
AcDbLayerTableRecord
  2
0
 70
     0
 62
     7
  6
Continuous
370
    -3
390
F
  0
LAYER
  5
5D
330
2
100
AcDbSymbolTableRecord
100
AcDbLayerTableRecord
  2
Default
 70
     0
 62
     7
  6
Continuous
370
    -3
390
F
  0
LAYER
  5
97
330
2
100
AcDbSymbolTableRecord
100
AcDbLayerTableRecord
  2
$DDT_AUDIT_GENERATED_(97)
 70
     0
 62
     7
  6
Continuous
370
    -3
390
F
  0
LAYER
  5
9D
330
2
100
AcDbSymbolTableRecord
100
AcDbLayerTableRecord
  2
$DDT_AUDIT_GENERATED_(9D)
 70
     0
 62
     7
  6
Continuous
370
    -3
390
F
  0
LAYER
  5
AB
330
2
100
AcDbSymbolTableRecord
100
AcDbLayerTableRecord
  2
$DDT_AUDIT_GENERATED_(AB)
 70
     0
 62
     7
  6
Continuous
370
    -3
390
F
  0
LAYER
  5
B6
330
2
100
AcDbSymbolTableRecord
100
AcDbLayerTableRecord
  2
$DDT_AUDIT_GENERATED_(B6)
 70
     0
 62
     7
  6
Continuous
370
    -3
390
F
  0
LAYER
  5
B9
330
2
100
AcDbSymbolTableRecord
100
AcDbLayerTableRecord
  2
$DDT_AUDIT_GENERATED_(B9)
 70
     0
 62
     7
  6
Continuous
370
    -3
390
F
  0
LAYER
  5
C7
330
2
100
AcDbSymbolTableRecord
100
AcDbLayerTableRecord
  2
$DDT_AUDIT_GENERATED_(C7)
 70
     0
 62
     7
  6
Continuous
370
    -3
390
F
  0
LAYER
  5
D2
330
2
100
AcDbSymbolTableRecord
100
AcDbLayerTableRecord
  2
$DDT_AUDIT_GENERATED_(D2)
 70
     0
 62
     7
  6
Continuous
370
    -3
390
F
  0
LAYER
  5
DA
330
2
100
AcDbSymbolTableRecord
100
AcDbLayerTableRecord
  2
$DDT_AUDIT_GENERATED_(DA)
 70
     0
 62
     7
  6
Continuous
370
    -3
390
F
  0
LAYER
  5
E6
330
2
100
AcDbSymbolTableRecord
100
AcDbLayerTableRecord
  2
$DDT_AUDIT_GENERATED_(E6)
 70
     0
 62
     7
  6
Continuous
370
    -3
390
F
  0
LAYER
  5
F4
330
2
100
AcDbSymbolTableRecord
100
AcDbLayerTableRecord
  2
$DDT_AUDIT_GENERATED_(F4)
 70
     0
 62
     7
  6
Continuous
370
    -3
390
F
  0
LAYER
  5
256
330
2
100
AcDbSymbolTableRecord
100
AcDbLayerTableRecord
  2
08013038_FÜHRUNG
 70
     0
 62
     7
  6
Continuous
370
    -3
390
F
  0
LAYER
  5
25E
330
2
100
AcDbSymbolTableRecord
100
AcDbLayerTableRecord
  2
$DDT_AUDIT_GENERATED_(25E)
 70
     0
 62
     7
  6
Continuous
370
    -3
390
F
  0
LAYER
  5
296
330
2
100
AcDbSymbolTableRecord
100
AcDbLayerTableRecord
  2
$DDT_AUDIT_GENERATED_(296)
 70
     0
 62
     7
  6
Continuous
370
    -3
390
F
  0
LAYER
  5
29A
330
2
100
AcDbSymbolTableRecord
100
AcDbLayerTableRecord
  2
$DDT_AUDIT_GENERATED_(29A)
 70
     0
 62
     7
  6
Continuous
370
    -3
390
F
  0
LAYER
  5
2BB
330
2
100
AcDbSymbolTableRecord
100
AcDbLayerTableRecord
  2
$DDT_AUDIT_GENERATED_(2BB)
 70
     0
 62
     7
  6
Continuous
370
    -3
390
F
  0
LAYER
  5
2FE
330
2
100
AcDbSymbolTableRecord
100
AcDbLayerTableRecord
  2
$DDT_AUDIT_GENERATED_(2FE)
 70
     0
 62
     7
  6
Continuous
370
    -3
390
F
  0
LAYER
  5
30B
330
2
100
AcDbSymbolTableRecord
100
AcDbLayerTableRecord
  2
$DDT_AUDIT_GENERATED_(30B)
 70
     0
 62
     7
  6
Continuous
370
    -3
390
F
  0
ENDTAB
  0
TABLE
  2
STYLE
  5
3
330
0
100
AcDbSymbolTable
 70
     2
  0
STYLE
  5
11
330
3
100
AcDbSymbolTableRecord
100
AcDbTextStyleTableRecord
  2
Standard
 70
     0
 40
0.0
 41
1.0
 50
0.0
 71
     0
 42
2.5
  3
txt
  4

  0
STYLE
  5
346
330
3
100
AcDbSymbolTableRecord
100
AcDbTextStyleTableRecord
  2
SEACAD_seiso_ttf
 70
     0
 40
0.0
 41
1.0
 50
0.0
 71
     0
 42
0.2
  3
seiso.ttf
  4

  0
ENDTAB
  0
TABLE
  2
VIEW
  5
6
330
0
100
AcDbSymbolTable
 70
     0
  0
ENDTAB
  0
TABLE
  2
UCS
  5
7
330
0
100
AcDbSymbolTable
 70
     0
  0
ENDTAB
  0
TABLE
  2
APPID
  5
9
330
0
100
AcDbSymbolTable
 70
     1
  0
APPID
  5
12
330
9
100
AcDbSymbolTableRecord
100
AcDbRegAppTableRecord
  2
ACAD
 70
     0
  0
ENDTAB
  0
TABLE
  2
DIMSTYLE
  5
A
330
0
100
AcDbSymbolTable
 70
     1
100
AcDbDimStyleTable
  0
DIMSTYLE
105
27
330
A
100
AcDbSymbolTableRecord
100
AcDbDimStyleTableRecord
  2
ISO-25
 70
     0
 41
2.5
 42
0.625
 43
3.75
 44
1.25
 73
     0
 74
     0
 77
     1
 78
     8
140
2.5
141
2.5
143
0.0393700787
147
0.625
171
     3
172
     1
271
     2
272
     2
274
     3
278
    44
283
     0
284
     8
340
11
  0
ENDTAB
  0
TABLE
  2
BLOCK_RECORD
  5
1
330
0
100
AcDbSymbolTable
 70
    11
  0
BLOCK_RECORD
  5
1F
330
1
100
AcDbSymbolTableRecord
100
AcDbBlockTableRecord
  2
*Model_Space
340
22
  0
BLOCK_RECORD
  5
1B
330
1
100
AcDbSymbolTableRecord
100
AcDbBlockTableRecord
  2
*Paper_Space
340
1E
  0
BLOCK_RECORD
  5
5E
330
1
100
AcDbSymbolTableRecord
100
AcDbBlockTableRecord
  2
SEANNOT_GROUP
340
0
102
{BLKREFS
331
5F
102
}
  0
BLOCK_RECORD
  5
69
330
1
100
AcDbSymbolTableRecord
100
AcDbBlockTableRecord
  2
SEANNOT_GROUP1
340
0
102
{BLKREFS
331
6A
102
}
  0
BLOCK_RECORD
  5
73
330
1
100
AcDbSymbolTableRecord
100
AcDbBlockTableRecord
  2
SEANNOT_GROUP2
340
0
102
{BLKREFS
331
74
102
}
  0
BLOCK_RECORD
  5
7D
330
1
100
AcDbSymbolTableRecord
100
AcDbBlockTableRecord
  2
SEANNOT_GROUP3
340
0
102
{BLKREFS
331
7E
102
}
  0
BLOCK_RECORD
  5
83
330
1
100
AcDbSymbolTableRecord
100
AcDbBlockTableRecord
  2
SEANNOT_GROUP4
340
0
102
{BLKREFS
331
84
102
}
  0
BLOCK_RECORD
  5
89
330
1
100
AcDbSymbolTableRecord
100
AcDbBlockTableRecord
  2
SEANNOT_GROUP5
340
0
102
{BLKREFS
331
8A
102
}
  0
BLOCK_RECORD
  5
8F
330
1
100
AcDbSymbolTableRecord
100
AcDbBlockTableRecord
  2
SEANNOT_GROUP6
340
0
102
{BLKREFS
331
90
102
}
  0
BLOCK_RECORD
  5
95
330
1
100
AcDbSymbolTableRecord
100
AcDbBlockTableRecord
  2
SE
340
0
102
{BLKREFS
331
96
102
}
  0
BLOCK_RECORD
  5
28A
330
1
100
AcDbSymbolTableRecord
100
AcDbBlockTableRecord
  2
SE1
340
0
102
{BLKREFS
331
28B
102
}
  0
BLOCK_RECORD
  5
2ED
330
1
100
AcDbSymbolTableRecord
100
AcDbBlockTableRecord
  2
SE2
340
0
102
{BLKREFS
331
2EE
102
}
  0
ENDTAB
  0
ENDSEC
  0
SECTION
  2
BLOCKS
  0
BLOCK
  5
20
330
1F
100
AcDbEntity
  8
0
100
AcDbBlockBegin
  2
*Model_Space
 70
     0
 10
0.0
 20
0.0
 30
0.0
  3
*Model_Space
  1

  0
ENDBLK
  5
21
330
1F
100
AcDbEntity
  8
0
100
AcDbBlockEnd
  0
BLOCK
  5
1C
330
1B
100
AcDbEntity
 67
     1
  8
0
100
AcDbBlockBegin
  2
*Paper_Space
 70
     0
 10
0.0
 20
0.0
 30
0.0
  3
*Paper_Space
  1

  0
ENDBLK
  5
1D
330
1B
100
AcDbEntity
 67
     1
  8
0
100
AcDbBlockEnd
  0
BLOCK
  5
67
330
5E
100
AcDbEntity
  8
0
100
AcDbBlockBegin
  2
SEANNOT_GROUP
 70
     0
 10
0.0
 20
0.0
 30
0.0
  3
SEANNOT_GROUP
  1

  0
LINE
  5
61
330
5E
100
AcDbEntity
  8
Default
  6
CENTER2
 62
     7
100
AcDbLine
 10
286.349999553
 20
266.4370123684
 30
0.0
 11
246.350000447
 21
266.4370123684
 31
0.0
  0
LINE
  5
62
330
5E
100
AcDbEntity
  8
Default
  6
CENTER2
 62
     7
100
AcDbLine
 10
266.35
 20
286.4370119213
 30
0.0
 11
266.35
 21
246.4370128154
 31
0.0
  0
LINE
  5
63
330
5E
100
AcDbEntity
  8
Default
  6
CENTER2
 62
     7
100
AcDbLine
 10
291.3499994412
 20
266.4370123684
 30
0.0
 11
297.35
 21
266.4370123684
 31
0.0
  0
LINE
  5
64
330
5E
100
AcDbEntity
  8
Default
  6
CENTER2
 62
     7
100
AcDbLine
 10
266.35
 20
291.4370118096
 30
0.0
 11
266.35
 21
297.4370123684
 31
0.0
  0
LINE
  5
65
330
5E
100
AcDbEntity
  8
Default
  6
CENTER2
 62
     7
100
AcDbLine
 10
241.3500005588
 20
266.4370123684
 30
0.0
 11
235.35
 21
266.4370123684
 31
0.0
  0
LINE
  5
66
330
5E
100
AcDbEntity
  8
Default
  6
CENTER2
 62
     7
100
AcDbLine
 10
266.35
 20
241.4370129272
 30
0.0
 11
266.35
 21
235.4370123684
 31
0.0
  0
ENDBLK
  5
68
330
5E
100
AcDbEntity
  8
0
100
AcDbBlockEnd
  0
BLOCK
  5
71
330
69
100
AcDbEntity
  8
0
100
AcDbBlockBegin
  2
SEANNOT_GROUP1
 70
     0
 10
0.0
 20
0.0
 30
0.0
  3
SEANNOT_GROUP1
  1

  0
LINE
  5
6B
330
69
100
AcDbEntity
  8
Default
  6
CENTER2
 62
     7
100
AcDbLine
 10
186.349999553
 20
266.4370123684
 30
0.0
 11
146.350000447
 21
266.4370123684
 31
0.0
  0
LINE
  5
6C
330
69
100
AcDbEntity
  8
Default
  6
CENTER2
 62
     7
100
AcDbLine
 10
166.35
 20
286.4370119213
 30
0.0
 11
166.35
 21
246.4370128154
 31
0.0
  0
LINE
  5
6D
330
69
100
AcDbEntity
  8
Default
  6
CENTER2
 62
     7
100
AcDbLine
 10
191.3499994412
 20
266.4370123684
 30
0.0
 11
197.35
 21
266.4370123684
 31
0.0
  0
LINE
  5
6E
330
69
100
AcDbEntity
  8
Default
  6
CENTER2
 62
     7
100
AcDbLine
 10
166.35
 20
291.4370118096
 30
0.0
 11
166.35
 21
297.4370123684
 31
0.0
  0
LINE
  5
6F
330
69
100
AcDbEntity
  8
Default
  6
CENTER2
 62
     7
100
AcDbLine
 10
141.3500005588
 20
266.4370123684
 30
0.0
 11
135.35
 21
266.4370123684
 31
0.0
  0
LINE
  5
70
330
69
100
AcDbEntity
  8
Default
  6
CENTER2
 62
     7
100
AcDbLine
 10
166.35
 20
241.4370129272
 30
0.0
 11
166.35
 21
235.4370123684
 31
0.0
  0
ENDBLK
  5
72
330
69
100
AcDbEntity
  8
0
100
AcDbBlockEnd
  0
BLOCK
  5
7B
330
73
100
AcDbEntity
  8
0
100
AcDbBlockBegin
  2
SEANNOT_GROUP2
 70
     0
 10
0.0
 20
0.0
 30
0.0
  3
SEANNOT_GROUP2
  1

  0
LINE
  5
75
330
73
100
AcDbEntity
  8
Default
  6
CENTER2
 62
     7
100
AcDbLine
 10
86.349999553
 20
266.4370123684
 30
0.0
 11
46.350000447
 21
266.4370123684
 31
0.0
  0
LINE
  5
76
330
73
100
AcDbEntity
  8
Default
  6
CENTER2
 62
     7
100
AcDbLine
 10
66.35
 20
286.4370119213
 30
0.0
 11
66.35
 21
246.4370128154
 31
0.0
  0
LINE
  5
77
330
73
100
AcDbEntity
  8
Default
  6
CENTER2
 62
     7
100
AcDbLine
 10
91.3499994412
 20
266.4370123684
 30
0.0
 11
97.35
 21
266.4370123684
 31
0.0
  0
LINE
  5
78
330
73
100
AcDbEntity
  8
Default
  6
CENTER2
 62
     7
100
AcDbLine
 10
66.35
 20
291.4370118096
 30
0.0
 11
66.35
 21
297.4370123684
 31
0.0
  0
LINE
  5
79
330
73
100
AcDbEntity
  8
Default
  6
CENTER2
 62
     7
100
AcDbLine
 10
41.3500005588
 20
266.4370123684
 30
0.0
 11
35.35
 21
266.4370123684
 31
0.0
  0
LINE
  5
7A
330
73
100
AcDbEntity
  8
Default
  6
CENTER2
 62
     7
100
AcDbLine
 10
66.35
 20
241.4370129272
 30
0.0
 11
66.35
 21
235.4370123684
 31
0.0
  0
ENDBLK
  5
7C
330
73
100
AcDbEntity
  8
0
100
AcDbBlockEnd
  0
BLOCK
  5
81
330
7D
100
AcDbEntity
  8
0
100
AcDbBlockBegin
  2
SEANNOT_GROUP3
 70
     0
 10
0.0
 20
0.0
 30
0.0
  3
SEANNOT_GROUP3
  1

  0
LINE
  5
7F
330
7D
100
AcDbEntity
  8
Default
  6
CENTER2
 62
     7
100
AcDbLine
 10
86.349999553
 20
795.6100946109
 30
0.0
 11
46.350000447
 21
795.6100946109
 31
0.0
  0
LINE
  5
80
330
7D
100
AcDbEntity
  8
Default
  6
CENTER2
 62
     7
100
AcDbLine
 10
66.35
 20
815.6100941639
 30
0.0
 11
66.35
 21
775.6100950579
 31
0.0
  0
ENDBLK
  5
82
330
7D
100
AcDbEntity
  8
0
100
AcDbBlockEnd
  0
BLOCK
  5
87
330
83
100
AcDbEntity
  8
0
100
AcDbBlockBegin
  2
SEANNOT_GROUP4
 70
     0
 10
0.0
 20
0.0
 30
0.0
  3
SEANNOT_GROUP4
  1

  0
LINE
  5
85
330
83
100
AcDbEntity
  8
Default
  6
CENTER2
 62
     7
100
AcDbLine
 10
186.349999553
 20
795.6100946109
 30
0.0
 11
146.350000447
 21
795.6100946109
 31
0.0
  0
LINE
  5
86
330
83
100
AcDbEntity
  8
Default
  6
CENTER2
 62
     7
100
AcDbLine
 10
166.35
 20
815.6100941639
 30
0.0
 11
166.35
 21
775.6100950579
 31
0.0
  0
ENDBLK
  5
88
330
83
100
AcDbEntity
  8
0
100
AcDbBlockEnd
  0
BLOCK
  5
8D
330
89
100
AcDbEntity
  8
0
100
AcDbBlockBegin
  2
SEANNOT_GROUP5
 70
     0
 10
0.0
 20
0.0
 30
0.0
  3
SEANNOT_GROUP5
  1

  0
LINE
  5
8B
330
89
100
AcDbEntity
  8
Default
  6
CENTER2
 62
     7
100
AcDbLine
 10
286.349999553
 20
795.6100946109
 30
0.0
 11
246.350000447
 21
795.6100946109
 31
0.0
  0
LINE
  5
8C
330
89
100
AcDbEntity
  8
Default
  6
CENTER2
 62
     7
100
AcDbLine
 10
266.35
 20
815.6100941639
 30
0.0
 11
266.35
 21
775.6100950579
 31
0.0
  0
ENDBLK
  5
8E
330
89
100
AcDbEntity
  8
0
100
AcDbBlockEnd
  0
BLOCK
  5
93
330
8F
100
AcDbEntity
  8
0
100
AcDbBlockBegin
  2
SEANNOT_GROUP6
 70
     0
 10
0.0
 20
0.0
 30
0.0
  3
SEANNOT_GROUP6
  1

  0
LINE
  5
91
330
8F
100
AcDbEntity
  8
Default
  6
CENTER2
 62
     7
100
AcDbLine
 10
437.0907791933
 20
795.6100946109
 30
0.0
 11
397.0907800873
 21
795.6100946109
 31
0.0
  0
LINE
  5
92
330
8F
100
AcDbEntity
  8
Default
  6
CENTER2
 62
     7
100
AcDbLine
 10
417.0907796403
 20
815.6100941639
 30
0.0
 11
417.0907796403
 21
775.6100950579
 31
0.0
  0
ENDBLK
  5
94
330
8F
100
AcDbEntity
  8
0
100
AcDbBlockEnd
  0
BLOCK
  5
288
330
95
100
AcDbEntity
  8
0
100
AcDbBlockBegin
  2
SE
 70
     0
 10
0.0
 20
0.0
 30
0.0
  3
SE
  1

  0
LINE
  5
98
330
95
100
AcDbEntity
  8
$DDT_AUDIT_GENERATED_(97)
  6
Continuous
 62
     7
100
AcDbLine
 10
148.85
 20
893.6100946109
 30
0.0
 11
183.85
 21
893.6100946109
 31
0.0
  0
LINE
  5
99
330
95
100
AcDbEntity
  8
$DDT_AUDIT_GENERATED_(97)
  6
Continuous
 62
     7
100
AcDbLine
 10
184.35
 20
805.6100946109
 30
0.0
 11
184.35
 21
893.1100946109
 31
0.0
  0
LINE
  5
9A
330
95
100
AcDbEntity
  8
$DDT_AUDIT_GENERATED_(97)
  6
Continuous
 62
     7
100
AcDbLine
 10
148.35
 20
893.1100946109
 30
0.0
 11
148.35
 21
805.6100946109
 31
0.0
  0
ARC
  5
9B
330
95
100
AcDbEntity
  8
$DDT_AUDIT_GENERATED_(97)
  6
Continuous
 62
     7
100
AcDbCircle
 10
183.85
 20
893.1100946109
 30
0.0
 40
0.5000000000000004
100
AcDbArc
 50
0.0
 51
90.0
  0
ARC
  5
9C
330
95
100
AcDbEntity
  8
$DDT_AUDIT_GENERATED_(97)
  6
Continuous
 62
     7
100
AcDbCircle
 10
148.85
 20
893.1100946109
 30
0.0
 40
0.5000000000000004
100
AcDbArc
 50
90.0
 51
180.0
  0
LINE
  5
9E
330
95
100
AcDbEntity
  8
$DDT_AUDIT_GENERATED_(9D)
  6
Continuous
 62
     7
100
AcDbLine
 10
188.35
 20
805.6100946109
 30
0.0
 11
144.35
 21
805.6100946109
 31
0.0
  0
LINE
  5
9F
330
95
100
AcDbEntity
  8
$DDT_AUDIT_GENERATED_(9D)
  6
Continuous
 62
     7
100
AcDbLine
 10
193.85
 20
795.6100946109
 30
0.0
 11
138.85
 21
795.6100946109
 31
0.0
  0
LINE
  5
A0
330
95
100
AcDbEntity
  8
$DDT_AUDIT_GENERATED_(9D)
  6
Continuous
 62
     7
100
AcDbLine
 10
193.35
 20
801.6100946109
 30
0.0
 11
139.35
 21
801.6100946109
 31
0.0
  0
LINE
  5
A1
330
95
100
AcDbEntity
  8
$DDT_AUDIT_GENERATED_(9D)
  6
Continuous
 62
     7
100
AcDbLine
 10
193.85
 20
795.6100946109
 30
0.0
 11
193.85
 21
801.1100946109
 31
0.0
  0
LINE
  5
A2
330
95
100
AcDbEntity
  8
$DDT_AUDIT_GENERATED_(9D)
  6
Continuous
 62
     7
100
AcDbLine
 10
138.85
 20
801.1100946109
 30
0.0
 11
138.85
 21
795.6100946109
 31
0.0
  0
ARC
  5
A3
330
95
100
AcDbEntity
  8
$DDT_AUDIT_GENERATED_(9D)
  6
Continuous
 62
     7
100
AcDbCircle
 10
193.35
 20
801.1100946109
 30
0.0
 40
0.5000000000000004
100
AcDbArc
 50
0.0
 51
90.0
  0
ARC
  5
A4
330
95
100
AcDbEntity
  8
$DDT_AUDIT_GENERATED_(9D)
  6
Continuous
 62
     7
100
AcDbCircle
 10
139.35
 20
801.1100946109
 30
0.0
 40
0.5000000000000004
100
AcDbArc
 50
90.0
 51
180.0
  0
ARC
  5
A5
330
95
100
AcDbEntity
  8
$DDT_AUDIT_GENERATED_(9D)
  6
Continuous
 62
     7
100
AcDbCircle
 10
189.35
 20
802.1100946109
 30
0.0
 40
0.5000000000000004
100
AcDbArc
 50
180.0
 51
270.0
  0
ARC
  5
A6
330
95
100
AcDbEntity
  8
$DDT_AUDIT_GENERATED_(9D)
  6
Continuous
 62
     7
100
AcDbCircle
 10
143.35
 20
802.1100946109
 30
0.0
 40
0.5000000000000004
100
AcDbArc
 50
270.0
 51
0.0
  0
LINE
  5
A7
330
95
100
AcDbEntity
  8
$DDT_AUDIT_GENERATED_(9D)
  6
Continuous
 62
     7
100
AcDbLine
 10
188.85
 20
802.1100946109
 30
0.0
 11
188.85
 21
805.1100946109
 31
0.0
  0
LINE
  5
A8
330
95
100
AcDbEntity
  8
$DDT_AUDIT_GENERATED_(9D)
  6
Continuous
 62
     7
100
AcDbLine
 10
143.85
 20
805.1100946109
 30
0.0
 11
143.85
 21
802.1100946109
 31
0.0
  0
ARC
  5
A9
330
95
100
AcDbEntity
  8
$DDT_AUDIT_GENERATED_(9D)
  6
Continuous
 62
     7
100
AcDbCircle
 10
188.35
 20
805.1100946109
 30
0.0
 40
0.5000000000000004
100
AcDbArc
 50
0.0
 51
90.0
  0
ARC
  5
AA
330
95
100
AcDbEntity
  8
$DDT_AUDIT_GENERATED_(9D)
  6
Continuous
 62
     7
100
AcDbCircle
 10
144.35
 20
805.1100946109
 30
0.0
 40
0.5000000000000004
100
AcDbArc
 50
90.0
 51
180.0
  0
LINE
  5
AC
330
95
100
AcDbEntity
  8
$DDT_AUDIT_GENERATED_(AB)
  6
Continuous
 62
     7
100
AcDbLine
 10
248.85
 20
840.6100946109
 30
0.0
 11
283.85
 21
840.6100946109
 31
0.0
  0
LINE
  5
AD
330
95
100
AcDbEntity
  8
$DDT_AUDIT_GENERATED_(AB)
  6
Continuous
 62
     7
100
AcDbLine
 10
248.35
 20
840.1100946109
 30
0.0
 11
248.35
 21
805.6100946109
 31
0.0
  0
LINE
  5
AE
330
95
100
AcDbEntity
  8
$DDT_AUDIT_GENERATED_(AB)
  6
Continuous
 62
     7
100
AcDbLine
 10
284.35
 20
805.6100946109
 30
0.0
 11
284.35
 21
840.1100946109
 31
0.0
  0
ARC
  5
AF
330
95
100
AcDbEntity
  8
$DDT_AUDIT_GENERATED_(AB)
  6
Continuous
 62
     7
100
AcDbCircle
 10
248.85
 20
840.1100946109
 30
0.0
 40
0.5000000000000004
100
AcDbArc
 50
90.0
 51
180.0
  0
ARC
  5
B0
330
95
100
AcDbEntity
  8
$DDT_AUDIT_GENERATED_(AB)
  6
Continuous
 62
     7
100
AcDbCircle
 10
283.85
 20
840.1100946109
 30
0.0
 40
0.5000000000000004
100
AcDbArc
 50
0.0
 51
90.0
  0
LINE
  5
B1
330
95
100
AcDbEntity
  8
$DDT_AUDIT_GENERATED_(AB)
  6
Continuous
 62
     7
100
AcDbLine
 10
48.85
 20
840.6100946109
 30
0.0
 11
83.85
 21
840.6100946109
 31
0.0
  0
LINE
  5
B2
330
95
100
AcDbEntity
  8
$DDT_AUDIT_GENERATED_(AB)
  6
Continuous
 62
     7
100
AcDbLine
 10
48.35
 20
840.1100946109
 30
0.0
 11
48.35
 21
805.6100946109
 31
0.0
  0
LINE
  5
B3
330
95
100
AcDbEntity
  8
$DDT_AUDIT_GENERATED_(AB)
  6
Continuous
 62
     7
100
AcDbLine
 10
84.35
 20
805.6100946109
 30
0.0
 11
84.35
 21
840.1100946109
 31
0.0
  0
ARC
  5
B4
330
95
100
AcDbEntity
  8
$DDT_AUDIT_GENERATED_(AB)
  6
Continuous
 62
     7
100
AcDbCircle
 10
48.85
 20
840.1100946109
 30
0.0
 40
0.5000000000000004
100
AcDbArc
 50
90.0
 51
180.0
  0
ARC
  5
B5
330
95
100
AcDbEntity
  8
$DDT_AUDIT_GENERATED_(AB)
  6
Continuous
 62
     7
100
AcDbCircle
 10
83.85
 20
840.1100946109
 30
0.0
 40
0.5000000000000004
100
AcDbArc
 50
0.0
 51
90.0
  0
LINE
  5
B7
330
95
100
AcDbEntity
  8
$DDT_AUDIT_GENERATED_(B6)
  6
Continuous
 62
     7
100
AcDbLine
 10
180.85
 20
893.6100946109
 30
0.0
 11
180.85
 21
894.1100946109
 31
0.0
  0
LINE
  5
B8
330
95
100
AcDbEntity
  8
$DDT_AUDIT_GENERATED_(B6)
  6
Continuous
 62
     7
100
AcDbLine
 10
151.85
 20
894.1100946109
 30
0.0
 11
151.85
 21
893.6100946109
 31
0.0
  0
LINE
  5
BA
330
95
100
AcDbEntity
  8
$DDT_AUDIT_GENERATED_(B9)
  6
Continuous
 62
     7
100
AcDbLine
 10
238.85
 20
795.6100946109
 30
0.0
 11
293.85
 21
795.6100946109
 31
0.0
  0
LINE
  5
BB
330
95
100
AcDbEntity
  8
$DDT_AUDIT_GENERATED_(B9)
  6
Continuous
 62
     7
100
AcDbLine
 10
239.35
 20
801.6100946109
 30
0.0
 11
293.35
 21
801.6100946109
 31
0.0
  0
LINE
  5
BC
330
95
100
AcDbEntity
  8
$DDT_AUDIT_GENERATED_(B9)
  6
Continuous
 62
     7
100
AcDbLine
 10
244.35
 20
805.6100946109
 30
0.0
 11
288.35
 21
805.6100946109
 31
0.0
  0
LINE
  5
BD
330
95
100
AcDbEntity
  8
$DDT_AUDIT_GENERATED_(B9)
  6
Continuous
 62
     7
100
AcDbLine
 10
238.85
 20
801.1100946109
 30
0.0
 11
238.85
 21
795.6100946109
 31
0.0
  0
LINE
  5
BE
330
95
100
AcDbEntity
  8
$DDT_AUDIT_GENERATED_(B9)
  6
Continuous
 62
     7
100
AcDbLine
 10
293.85
 20
795.6100946109
 30
0.0
 11
293.85
 21
801.1100946109
 31
0.0
  0
ARC
  5
BF
330
95
100
AcDbEntity
  8
$DDT_AUDIT_GENERATED_(B9)
  6
Continuous
 62
     7
100
AcDbCircle
 10
239.35
 20
801.1100946109
 30
0.0
 40
0.5000000000000004
100
AcDbArc
 50
90.0
 51
180.0
  0
ARC
  5
C0
330
95
100
AcDbEntity
  8
$DDT_AUDIT_GENERATED_(B9)
  6
Continuous
 62
     7
100
AcDbCircle
 10
293.35
 20
801.1100946109
 30
0.0
 40
0.5000000000000004
100
AcDbArc
 50
0.0
 51
90.0
  0
ARC
  5
C1
330
95
100
AcDbEntity
  8
$DDT_AUDIT_GENERATED_(B9)
  6
Continuous
 62
     7
100
AcDbCircle
 10
243.35
 20
802.1100946109
 30
0.0
 40
0.5000000000000004
100
AcDbArc
 50
270.0
 51
0.0
  0
ARC
  5
C2
330
95
100
AcDbEntity
  8
$DDT_AUDIT_GENERATED_(B9)
  6
Continuous
 62
     7
100
AcDbCircle
 10
289.35
 20
802.1100946109
 30
0.0
 40
0.5000000000000004
100
AcDbArc
 50
180.0
 51
270.0
  0
LINE
  5
C3
330
95
100
AcDbEntity
  8
$DDT_AUDIT_GENERATED_(B9)
  6
Continuous
 62
     7
100
AcDbLine
 10
243.85
 20
805.1100946109
 30
0.0
 11
243.85
 21
802.1100946109
 31
0.0
  0
LINE
  5
C4
330
95
100
AcDbEntity
  8
$DDT_AUDIT_GENERATED_(B9)
  6
Continuous
 62
     7
100
AcDbLine
 10
288.85
 20
802.1100946109
 30
0.0
 11
288.85
 21
805.1100946109
 31
0.0
  0
ARC
  5
C5
330
95
100
AcDbEntity
  8
$DDT_AUDIT_GENERATED_(B9)
  6
Continuous
 62
     7
100
AcDbCircle
 10
244.35
 20
805.1100946109
 30
0.0
 40
0.5000000000000004
100
AcDbArc
 50
90.0
 51
180.0
  0
ARC
  5
C6
330
95
100
AcDbEntity
  8
$DDT_AUDIT_GENERATED_(B9)
  6
Continuous
 62
     7
100
AcDbCircle
 10
288.35
 20
805.1100946109
 30
0.0
 40
0.5000000000000004
100
AcDbArc
 50
0.0
 51
90.0
  0
LINE
  5
C8
330
95
100
AcDbEntity
  8
$DDT_AUDIT_GENERATED_(C7)
  6
Continuous
 62
     7
100
AcDbLine
 10
154.85
 20
902.1100946109
 30
0.0
 11
177.85
 21
902.1100946109
 31
0.0
  0
ELLIPSE
  5
C9
330
95
100
AcDbEntity
  8
$DDT_AUDIT_GENERATED_(C7)
  6
Continuous
 62
     7
100
AcDbEllipse
 10
166.35
 20
1065.565812891
 30
0.0
 11
11.4999999999999
 21
7.771561172376096E-12
 31
0.0
210
0.0
220
0.0
230
1.0
 40
0.9925461516
 41
3.141592653589793
 42
3.740260706424652
  0
ELLIPSE
  5
CA
330
95
100
AcDbEntity
  8
$DDT_AUDIT_GENERATED_(C7)
  6
Continuous
 62
     7
100
AcDbEllipse
 10
166.35
 20
1065.565812891
 30
0.0
 11
11.4999999999999
 21
7.771561172376096E-12
 31
0.0
210
0.0
220
0.0
230
1.0
 40
0.9925461516
 41
4.186047491311348
 42
5.238730469456718
  0
ELLIPSE
  5
CB
330
95
100
AcDbEntity
  8
$DDT_AUDIT_GENERATED_(C7)
  6
Continuous
 62
     7
100
AcDbEllipse
 10
166.35
 20
1065.565812891
 30
0.0
 11
11.4999999999999
 21
7.771561172376096E-12
 31
0.0
210
0.0
220
0.0
230
1.0
 40
0.9925461516
 41
5.684517254343385
 42
6.283185307179586
  0
LINE
  5
CC
330
95
100
AcDbEntity
  8
$DDT_AUDIT_GENERATED_(C7)
  6
Continuous
 62
     7
100
AcDbLine
 10
154.85
 20
1058.4229300943
 30
0.0
 11
154.85
 21
1018.7210840287
 31
0.0
  0
LINE
  5
CD
330
95
100
AcDbEntity
  8
$DDT_AUDIT_GENERATED_(C7)
  6
Continuous
 62
     7
100
AcDbLine
 10
177.85
 20
1018.7210840287
 30
0.0
 11
177.85
 21
1058.4229300943
 31
0.0
  0
LINE
  5
CE
330
95
100
AcDbEntity
  8
$DDT_AUDIT_GENERATED_(C7)
  6
Continuous
 62
     7
100
AcDbLine
 10
154.85
 20
1018.7210840287
 30
0.0
 11
154.85
 21
902.1100946109
 31
0.0
  0
LINE
  5
CF
330
95
100
AcDbEntity
  8
$DDT_AUDIT_GENERATED_(C7)
  6
Continuous
 62
     7
100
AcDbLine
 10
177.85
 20
902.1100946109
 30
0.0
 11
177.85
 21
1018.7210840287
 31
0.0
  0
LINE
  5
D0
330
95
100
AcDbEntity
  8
$DDT_AUDIT_GENERATED_(C7)
  6
Continuous
 62
     7
100
AcDbLine
 10
154.85
 20
1065.565812891
 30
0.0
 11
154.85
 21
1058.4229300943
 31
0.0
  0
LINE
  5
D1
330
95
100
AcDbEntity
  8
$DDT_AUDIT_GENERATED_(C7)
  6
Continuous
 62
     7
100
AcDbLine
 10
177.85
 20
1058.4229300943
 30
0.0
 11
177.85
 21
1065.565812891
 31
0.0
  0
ELLIPSE
  5
D3
330
95
100
AcDbEntity
  8
$DDT_AUDIT_GENERATED_(D2)
  6
Continuous
 62
     7
100
AcDbEllipse
 10
166.35
 20
1065.565812891
 30
0.0
 11
11.4999999999999
 21
7.382983113757291E-12
 31
0.0
210
0.0
220
0.0
230
1.0
 40
0.9925461516
 41
3.141592653589793
 42
3.740260706424686
  0
ELLIPSE
  5
D4
330
95
100
AcDbEntity
  8
$DDT_AUDIT_GENERATED_(D2)
  6
Continuous
 62
     7
100
AcDbEllipse
 10
166.35
 20
1065.565812891
 30
0.0
 11
11.4999999999999
 21
7.382983113757291E-12
 31
0.0
210
0.0
220
0.0
230
1.0
 40
0.9925461516
 41
4.186047491312617
 42
5.238730469455465
  0
ELLIPSE
  5
D5
330
95
100
AcDbEntity
  8
$DDT_AUDIT_GENERATED_(D2)
  6
Continuous
 62
     7
100
AcDbEllipse
 10
166.35
 20
1065.565812891
 30
0.0
 11
11.4999999999999
 21
7.382983113757291E-12
 31
0.0
210
0.0
220
0.0
230
1.0
 40
0.9925461516
 41
5.68451725434342
 42
6.283185307179586
  0
ELLIPSE
  5
D6
330
95
100
AcDbEntity
  8
$DDT_AUDIT_GENERATED_(D2)
  6
Continuous
 62
     7
100
AcDbEllipse
 10
166.35
 20
1073.4873202123
 30
0.0
 11
11.49999999999996
 21
-3.108624468950438E-12
 31
0.0
210
0.0
220
0.0
230
1.0
 40
0.9925461516
 41
0.0
 42
3.141592653589793
  0
SPLINE
  5
D7
330
95
100
AcDbEntity
  8
$DDT_AUDIT_GENERATED_(D2)
  6
Continuous
 62
     7
100
AcDbSpline
210
0.0
220
0.0
230
1.0
 70
     8
 71
     3
 72
    32
 73
    28
 74
     0
 42
0.0000000002234902
 43
0.0000000001
 40
0.2176555739777001
 40
0.2176555739777001
 40
0.2176555739777001
 40
0.2176555739777001
 40
0.2499999999999986
 40
0.2499999999999986
 40
0.2812499999999986
 40
0.2812499999999986
 40
0.3124999999999985
 40
0.3124999999999985
 40
0.3749999999999986
 40
0.3749999999999986
 40
0.4374999999999987
 40
0.4374999999999987
 40
0.4999999999999988
 40
0.4999999999999988
 40
0.5624999999999989
 40
0.5624999999999989
 40
0.6249999999999989
 40
0.6249999999999989
 40
0.687499999999999
 40
0.687499999999999
 40
0.7187499999999991
 40
0.7187499999999991
 40
0.7499999999999992
 40
0.7499999999999992
 40
0.7812499999999993
 40
0.7812499999999993
 40
0.7815810177063275
 40
0.7815810177063275
 40
0.7815810177063275
 40
0.7815810177063275
 10
156.3844889074094
 20
1065.45458102586
 30
0.0
 10
156.2337988720946
 20
1065.797236402007
 30
0.0
 10
156.1492226699239
 20
1066.053727397028
 30
0.0
 10
156.1507616452291
 20
1066.233062710422
 30
0.0
 10
156.2321272100728
 20
1066.16062042068
 30
0.0
 10
156.5171926250012
 20
1065.830148335611
 30
0.0
 10
156.7166065659765
 20
1065.582547587238
 30
0.0
 10
157.4675779583461
 20
1064.745360737764
 30
0.0
 10
158.1397123099578
 20
1064.097007393941
 30
0.0
 10
159.8932073111525
 20
1062.87721285392
 30
0.0
 10
160.95658065522
 20
1062.314953496407
 30
0.0
 10
163.458855990693
 20
1061.491506854066
 30
0.0
 10
164.8940801081308
 20
1061.245555168653
 30
0.0
 10
167.7803092926952
 20
1061.242806879327
 30
0.0
 10
169.2333701720115
 20
1061.489865929709
 30
0.0
 10
171.7350600579202
 20
1062.31129124322
 30
0.0
 10
172.8078658799752
 20
1062.878818643866
 30
0.0
 10
174.5463521267484
 20
1064.086460408123
 30
0.0
 10
175.2362551659446
 20
1064.749867130827
 30
0.0
 10
175.9786378782799
 20
1065.577130133277
 30
0.0
 10
176.1823208672549
 20
1065.829564681912
 30
0.0
 10
176.4679102000263
 20
1066.160683411279
 30
0.0
 10
176.5490946657777
 20
1066.2314620152
 30
0.0
 10
176.5508895685361
 20
1066.058937540995
 30
0.0
 10
176.4712727034902
 20
1065.813818454998
 30
0.0
 10
176.3290269771038
 20
1065.484963821643
 30
0.0
 10
176.3275290833915
 20
1065.48150801818
 30
0.0
 10
176.3260242708581
 20
1065.478043392927
 30
0.0
  0
LINE
  5
D8
330
95
100
AcDbEntity
  8
$DDT_AUDIT_GENERATED_(D2)
  6
Continuous
 62
     7
100
AcDbLine
 10
154.85
 20
1073.4873202123
 30
0.0
 11
154.85
 21
1065.565812891
 31
0.0
  0
LINE
  5
D9
330
95
100
AcDbEntity
  8
$DDT_AUDIT_GENERATED_(D2)
  6
Continuous
 62
     7
100
AcDbLine
 10
177.85
 20
1065.565812891
 30
0.0
 11
177.85
 21
1073.4873202123
 31
0.0
  0
LINE
  5
DB
330
95
100
AcDbEntity
  8
$DDT_AUDIT_GENERATED_(DA)
  6
Continuous
 62
     7
100
AcDbLine
 10
151.35
 20
894.1100946109
 30
0.0
 11
181.35
 21
894.1100946109
 31
0.0
  0
LINE
  5
DC
330
95
100
AcDbEntity
  8
$DDT_AUDIT_GENERATED_(DA)
  6
Continuous
 62
     7
100
AcDbLine
 10
177.85
 20
901.4600946109
 30
0.0
 11
154.85
 21
901.4600946109
 31
0.0
  0
LINE
  5
DD
330
95
100
AcDbEntity
  8
$DDT_AUDIT_GENERATED_(DA)
  6
Continuous
 62
     7
100
AcDbLine
 10
151.85
 20
901.1100946109
 30
0.0
 11
180.85
 21
901.1100946109
 31
0.0
  0
LINE
  5
DE
330
95
100
AcDbEntity
  8
$DDT_AUDIT_GENERATED_(DA)
  6
Continuous
 62
     7
100
AcDbLine
 10
151.35
 20
900.6100946109
 30
0.0
 11
151.35
 21
894.1100946109
 31
0.0
  0
LINE
  5
DF
330
95
100
AcDbEntity
  8
$DDT_AUDIT_GENERATED_(DA)
  6
Continuous
 62
     7
100
AcDbLine
 10
181.35
 20
894.1100946109
 30
0.0
 11
181.35
 21
900.6100946109
 31
0.0
  0
LINE
  5
E0
330
95
100
AcDbEntity
  8
$DDT_AUDIT_GENERATED_(DA)
  6
Continuous
 62
     7
100
AcDbLine
 10
154.85
 20
901.4600946109
 30
0.0
 11
154.85
 21
901.1100946109
 31
0.0
  0
LINE
  5
E1
330
95
100
AcDbEntity
  8
$DDT_AUDIT_GENERATED_(DA)
  6
Continuous
 62
     7
100
AcDbLine
 10
177.85
 20
901.1100946109
 30
0.0
 11
177.85
 21
901.4600946109
 31
0.0
  0
LINE
  5
E2
330
95
100
AcDbEntity
  8
$DDT_AUDIT_GENERATED_(DA)
  6
Continuous
 62
     7
100
AcDbLine
 10
177.85
 20
901.4600946109
 30
0.0
 11
177.2
 21
902.1100946109
 31
0.0
  0
LINE
  5
E3
330
95
100
AcDbEntity
  8
$DDT_AUDIT_GENERATED_(DA)
  6
Continuous
 62
     7
100
AcDbLine
 10
155.5
 20
902.1100946109
 30
0.0
 11
154.85
 21
901.4600946109
 31
0.0
  0
ARC
  5
E4
330
95
100
AcDbEntity
  8
$DDT_AUDIT_GENERATED_(DA)
  6
Continuous
 62
     7
100
AcDbCircle
 10
151.85
 20
900.6100946109
 30
0.0
 40
0.5000000000000004
100
AcDbArc
 50
90.0
 51
180.0
  0
ARC
  5
E5
330
95
100
AcDbEntity
  8
$DDT_AUDIT_GENERATED_(DA)
  6
Continuous
 62
     7
100
AcDbCircle
 10
180.85
 20
900.6100946109
 30
0.0
 40
0.5000000000000004
100
AcDbArc
 50
0.0
 51
90.0
  0
ELLIPSE
  5
E7
330
95
100
AcDbEntity
  8
$DDT_AUDIT_GENERATED_(E6)
  6
Continuous
 62
     7
100
AcDbEllipse
 10
166.35
 20
1056.5768234014
 30
0.0
 11
8.125000000000012
 21
0.0
 31
0.0
210
0.0
220
0.0
230
1.0
 40
0.1218693434
 41
0.0
 42
6.283185307179586
  0
ELLIPSE
  5
E8
330
95
100
AcDbEntity
  8
$DDT_AUDIT_GENERATED_(E6)
  6
Continuous
 62
     7
100
AcDbEllipse
 10
166.35
 20
1054.9045542933
 30
0.0
 11
-9.921066271731402
 21
-5.749337626303862
 31
0.0
210
0.0
220
0.0
230
0.9999999999999998
 40
0.0914876479
 41
2.791612974213094
 42
3.385635863047101
  0
LINE
  5
E9
330
95
100
AcDbEntity
  8
$DDT_AUDIT_GENERATED_(E6)
  6
Continuous
 62
     7
100
AcDbLine
 10
175.85
 20
1060.7028479089
 30
0.0
 11
175.85
 21
1057.3237095823
 31
0.0
  0
ELLIPSE
  5
EA
330
95
100
AcDbEntity
  8
$DDT_AUDIT_GENERATED_(E6)
  6
Continuous
 62
     7
100
AcDbEllipse
 10
166.35
 20
1054.9045542933
 30
0.0
 11
9.921066271730581
 21
-5.749337626303086
 31
0.0
210
0.0
220
0.0
230
1.0
 40
0.0914876479
 41
2.897549444132447
 42
3.491572332966463
  0
LINE
  5
EB
330
95
100
AcDbEntity
  8
$DDT_AUDIT_GENERATED_(E6)
  6
Continuous
 62
     7
100
AcDbLine
 10
156.85
 20
1057.3237095823
 30
0.0
 11
156.85
 21
1060.7028479089
 31
0.0
  0
LINE
  5
EC
330
95
100
AcDbEntity
  8
$DDT_AUDIT_GENERATED_(E6)
  6
Continuous
 62
     7
100
AcDbLine
 10
156.85
 20
1056.5957439459
 30
0.0
 11
156.85
 21
1057.3237095823
 31
0.0
  0
LINE
  5
ED
330
95
100
AcDbEntity
  8
$DDT_AUDIT_GENERATED_(E6)
  6
Continuous
 62
     7
100
AcDbLine
 10
175.85
 20
1057.3237095823
 30
0.0
 11
175.85
 21
1056.5957439459
 31
0.0
  0
ELLIPSE
  5
EE
330
95
100
AcDbEntity
  8
$DDT_AUDIT_GENERATED_(E6)
  6
Continuous
 62
     7
100
AcDbEllipse
 10
166.35
 20
1056.5768234014
 30
0.0
 11
9.250000000000005
 21
0.0
 31
0.0
210
0.0
220
0.0
230
1.0
 40
0.1218693434
 41
0.0
 42
6.283185307179586
  0
ELLIPSE
  5
EF
330
95
100
AcDbEntity
  8
$DDT_AUDIT_GENERATED_(E6)
  6
Continuous
 62
     7
100
AcDbEllipse
 10
166.35
 20
1056.9693604511
 30
0.0
 11
9.93499999999999
 21
-5.551115123125782E-14
 31
0.0
210
0.0
220
0.0
230
1.0
 40
0.1218693434
 41
0.2970114444170721
 42
2.844581209172762
  0
LINE
  5
F0
330
95
100
AcDbEntity
  8
$DDT_AUDIT_GENERATED_(E6)
  6
Continuous
 62
     7
100
AcDbLine
 10
176.285
 20
1060.5977741304
 30
0.0
 11
176.285
 21
1065.9375565592
 31
0.0
  0
LINE
  5
F1
330
95
100
AcDbEntity
  8
$DDT_AUDIT_GENERATED_(E6)
  6
Continuous
 62
     7
100
AcDbLine
 10
156.415
 20
1065.9449842863
 30
0.0
 11
156.415
 21
1060.5977741304
 31
0.0
  0
LINE
  5
F2
330
95
100
AcDbEntity
  8
$DDT_AUDIT_GENERATED_(E6)
  6
Continuous
 62
     7
100
AcDbLine
 10
156.85
 20
1056.5955509382
 30
0.0
 11
157.3116004278
 21
1056.3370833507
 31
0.0
  0
LINE
  5
F3
330
95
100
AcDbEntity
  8
$DDT_AUDIT_GENERATED_(E6)
  6
Continuous
 62
     7
100
AcDbLine
 10
175.3883995722
 20
1056.3370833507
 30
0.0
 11
175.85
 21
1056.5955509382
 31
0.0
  0
LINE
  5
F5
330
95
100
AcDbEntity
  8
$DDT_AUDIT_GENERATED_(F4)
  6
Continuous
 62
     7
100
AcDbLine
 10
160.3766960938
 20
1056.8636852761
 30
0.0
 11
160.3766960938
 21
1056.9022598437
 31
0.0
  0
LINE
  5
F6
330
95
100
AcDbEntity
  8
$DDT_AUDIT_GENERATED_(F4)
  6
Continuous
 62
     7
100
AcDbLine
 10
161.1935338387
 20
1056.7159485738
 30
0.0
 11
161.1935338387
 21
1056.7751609598
 31
0.0
  0
LINE
  5
F7
330
95
100
AcDbEntity
  8
$DDT_AUDIT_GENERATED_(F4)
  6
Continuous
 62
     7
100
AcDbLine
 10
162.2474494511
 20
1056.5935499351
 30
0.0
 11
162.2474494511
 21
1056.6382543856
 31
0.0
  0
LINE
  5
F8
330
95
100
AcDbEntity
  8
$DDT_AUDIT_GENERATED_(F4)
  6
Continuous
 62
     7
100
AcDbLine
 10
164.3183184032
 20
1056.4623210069
 30
0.0
 11
164.3183184032
 21
1056.5513847673
 31
0.0
  0
ELLIPSE
  5
F9
330
95
100
AcDbEntity
  8
$DDT_AUDIT_GENERATED_(F4)
  6
Continuous
 62
     7
100
AcDbEllipse
 10
166.3500005065
 20
1056.6760780289
 30
0.0
 11
6.849999999999998
 21
0.0
 31
0.0
210
0.0
220
0.0
230
1.0
 40
0.1218693434
 41
0.1963495408493673
 42
2.994009244738233
  0
ELLIPSE
  5
FA
330
95
100
AcDbEntity
  8
$DDT_AUDIT_GENERATED_(F4)
  6
Continuous
 62
     7
100
AcDbEllipse
 10
166.3500005065
 20
1056.6760780289
 30
0.0
 11
6.849999999999998
 21
0.0
 31
0.0
210
0.0
220
0.0
230
1.0
 40
0.1218693434
 41
3.522760023654424
 42
6.027144223741543
  0
ELLIPSE
  5
FB
330
95
100
AcDbEntity
  8
$DDT_AUDIT_GENERATED_(F4)
  6
Continuous
 62
     7
100
AcDbEllipse
 10
166.3500005065
 20
1056.8034454835
 30
0.0
 11
6.6
 21
0.0
 31
0.0
210
0.0
220
0.0
230
1.0
 40
0.1218693434
 41
3.220850973110777
 42
6.203926987757266
  0
ELLIPSE
  5
FC
330
95
100
AcDbEntity
  8
$DDT_AUDIT_GENERATED_(F4)
  6
Continuous
 62
     7
100
AcDbEllipse
 10
166.3500005065
 20
1056.6760780289
 30
0.0
 11
6.6
 21
0.0
 31
0.0
210
0.0
220
0.0
230
1.0
 40
0.1218693434
 41
0.0
 42
6.283185307179586
  0
ARC
  5
FD
330
95
100
AcDbEntity
  8
$DDT_AUDIT_GENERATED_(F4)
  6
Continuous
 62
     7
100
AcDbCircle
 10
166.2137978025
 20
1056.4339804169
 30
0.0
 40
0.1293013190847737
100
AcDbArc
 50
324.8953474811
 51
349.3694819883
  0
SPLINE
  5
FE
330
95
100
AcDbEntity
  8
$DDT_AUDIT_GENERATED_(F4)
  6
Continuous
 62
     7
100
AcDbSpline
210
0.0
220
0.0
230
1.0
 70
     8
 71
     3
 72
    23
 73
    19
 74
     0
 42
0.0000000250991615
 43
0.0000000001
 40
0.0
 40
0.0
 40
0.0
 40
0.0
 40
0.0901268446314606
 40
0.0901268446314606
 40
0.0901268446314606
 40
0.1798536585434138
 40
0.1798536585434138
 40
0.1798536585434138
 40
0.3084673652064648
 40
0.3084673652064648
 40
0.3084673652064648
 40
0.4390817476533839
 40
0.4390817476533839
 40
0.4390817476533839
 40
0.4433676922618398
 40
0.4433676922618398
 40
0.4433676922618398
 40
0.5720232511643679
 40
0.5720232511643679
 40
0.5720232511643679
 40
0.5720232511643679
 10
164.3192148859243
 20
1056.448239355078
 30
0.0
 10
164.3207308362236
 20
1056.436343268929
 30
0.0
 10
164.3246422462999
 20
1056.424566140794
 30
0.0
 10
164.3302588284074
 20
1056.413929554146
 30
0.0
 10
164.3358733188804
 20
1056.4032969286
 30
0.0
 10
164.3432866736424
 20
1056.393493962258
 30
0.0
 10
164.3516951585537
 20
1056.384904884505
 30
0.0
 10
164.3636917668036
 20
1056.372650619663
 30
0.0
 10
164.3780266958951
 20
1056.362485757777
 30
0.0
 10
164.3931445748614
 20
1056.354662294871
 30
0.0
 10
164.4085251117665
 20
1056.346702907167
 30
0.0
 10
164.4251176971881
 20
1056.340940920776
 30
0.0
 10
164.4418049206853
 20
1056.337592779329
 30
0.0
 10
164.4423582922603
 20
1056.337481750295
 30
0.0
 10
164.4429119748426
 20
1056.337373321129
 30
0.0
 10
164.4434659293261
 20
1056.337267502303
 30
0.0
 10
164.4598149822109
 20
1056.334144434184
 30
0.0
 10
164.4766627362716
 20
1056.333291715965
 30
0.0
 10
164.4928596477686
 20
1056.335007417916
 30
0.0
  0
SPLINE
  5
FF
330
95
100
AcDbEntity
  8
$DDT_AUDIT_GENERATED_(F4)
  6
Continuous
 62
     7
100
AcDbSpline
210
0.0
220
0.0
230
1.0
 70
     8
 71
     3
 72
    29
 73
    25
 74
     0
 42
0.0000000265653699
 43
0.0000000001
 40
0.2888146270205801
 40
0.2888146270205801
 40
0.2888146270205801
 40
0.2888146270205801
 40
0.3060354113958088
 40
0.3060354113958088
 40
0.3060354113958088
 40
0.4180033924943088
 40
0.4180033924943088
 40
0.4180033924943088
 40
0.5151610408726599
 40
0.5151610408726599
 40
0.5151610408726599
 40
0.6250616277462405
 40
0.6250616277462405
 40
0.6250616277462405
 40
0.7750762750539856
 40
0.7750762750539856
 40
0.7750762750539856
 40
0.8822070477659765
 40
0.8822070477659765
 40
0.8822070477659765
 40
0.968290819781785
 40
0.968290819781785
 40
0.968290819781785
 40
1.0
 40
1.0
 40
1.0
 40
1.0
 10
163.8300426686449
 20
1056.379653574774
 30
0.0
 10
163.8319798199177
 20
1056.378468980032
 30
0.0
 10
163.8339392132337
 20
1056.377334033357
 30
0.0
 10
163.8359164143536
 20
1056.376250560943
 30
0.0
 10
163.8487731034077
 20
1056.369205315119
 30
0.0
 10
163.862673928911
 20
1056.364151734513
 30
0.0
 10
163.8765871460039
 20
1056.361127183797
 30
0.0
 10
163.888706155896
 20
1056.358492670168
 30
0.0
 10
163.9010368868973
 20
1056.357332912085
 30
0.0
 10
163.913087503285
 20
1056.357556746814
 30
0.0
 10
163.9267040212428
 20
1056.357809667453
 30
0.0
 10
163.9401731339177
 20
1056.359826952908
 30
0.0
 10
163.9529395836266
 20
1056.363493501296
 30
0.0
 10
163.9702379078072
 20
1056.368461612563
 30
0.0
 10
163.9867249714223
 20
1056.376609347269
 30
0.0
 10
164.0007915943918
 20
1056.387808823809
 30
0.0
 10
164.0108858544799
 20
1056.395845609134
 30
0.0
 10
164.0199708186014
 20
1056.405674811169
 30
0.0
 10
164.0270605765945
 20
1056.41699724684
 30
0.0
 10
164.0327660831293
 20
1056.42610901494
 30
0.0
 10
164.0372863150247
 20
1056.436417248174
 30
0.0
 10
164.0400286585904
 20
1056.447286433305
 30
0.0
 10
164.0410510041678
 20
1056.451338465111
 30
0.0
 10
164.0418380002827
 20
1056.45549162248
 30
0.0
 10
164.0423710465824
 20
1056.459692126594
 30
0.0
  0
SPLINE
  5
100
330
95
100
AcDbEntity
  8
$DDT_AUDIT_GENERATED_(F4)
  6
Continuous
 62
     7
100
AcDbSpline
210
0.0
220
0.0
230
1.0
 70
     8
 71
     3
 72
    23
 73
    19
 74
     0
 42
0.0000000291791278
 43
0.0000000001
 40
0.0
 40
0.0
 40
0.0
 40
0.0
 40
0.1081646982197024
 40
0.1081646982197024
 40
0.1081646982197024
 40
0.2164881428323471
 40
0.2164881428323471
 40
0.2164881428323471
 40
0.33044631598937
 40
0.33044631598937
 40
0.33044631598937
 40
0.4305538066226288
 40
0.4305538066226288
 40
0.4305538066226288
 40
0.547220728930573
 40
0.547220728930573
 40
0.547220728930573
 40
0.5601254072552113
 40
0.5601254072552113
 40
0.5601254072552113
 40
0.5601254072552113
 10
162.248100433567
 20
1056.579442044983
 30
0.0
 10
162.2493167586769
 20
1056.566248523919
 30
0.0
 10
162.2527208997164
 20
1056.553026321998
 30
0.0
 10
162.2578717381031
 20
1056.54087036822
 30
0.0
 10
162.2630377433348
 20
1056.528678620761
 30
0.0
 10
162.2700746362748
 20
1056.517225753373
 30
0.0
 10
162.278250709024
 20
1056.507260669646
 30
0.0
 10
162.2868502784443
 20
1056.496779423708
 30
0.0
 10
162.2969207165768
 20
1056.487663999646
 30
0.0
 10
162.3075621055067
 20
1056.480480966156
 30
0.0
 10
162.3169368742932
 20
1056.474152912684
 30
0.0
 10
162.3269443932106
 20
1056.469186635694
 30
0.0
 10
162.3369613771558
 20
1056.465864274968
 30
0.0
 10
162.348587616027
 20
1056.462008168216
 30
0.0
 10
162.3605119373604
 20
1056.460294229574
 30
0.0
 10
162.3717419636132
 20
1056.460952596368
 30
0.0
 10
162.3729832102694
 20
1056.461025365172
 30
0.0
 10
162.3742197490709
 20
1056.461127513033
 30
0.0
 10
162.375450411871
 20
1056.461258798714
 30
0.0
  0
SPLINE
  5
101
330
95
100
AcDbEntity
  8
$DDT_AUDIT_GENERATED_(F4)
  6
Continuous
 62
     7
100
AcDbSpline
210
0.0
220
0.0
230
1.0
 70
     8
 71
     3
 72
    29
 73
    25
 74
     0
 42
0.0000000276412397
 43
0.0000000001
 40
0.3079644598516162
 40
0.3079644598516162
 40
0.3079644598516162
 40
0.3079644598516162
 40
0.3435922426316328
 40
0.3435922426316328
 40
0.3435922426316328
 40
0.4601389603755916
 40
0.4601389603755916
 40
0.4601389603755916
 40
0.520108127420742
 40
0.520108127420742
 40
0.520108127420742
 40
0.593958346067829
 40
0.593958346067829
 40
0.593958346067829
 40
0.7078887527227489
 40
0.7078887527227489
 40
0.7078887527227489
 40
0.8232768699142331
 40
0.8232768699142331
 40
0.8232768699142331
 40
0.939951276326542
 40
0.939951276326542
 40
0.939951276326542
 40
1.0
 40
1.0
 40
1.0
 40
1.0
 10
167.5999174680964
 20
1056.334409331402
 30
0.0
 10
167.6034258801526
 20
1056.332259656941
 30
0.0
 10
167.6070488787021
 20
1056.330300384552
 30
0.0
 10
167.6107621079084
 20
1056.328549286081
 30
0.0
 10
167.6229024246847
 20
1056.322824110242
 30
0.0
 10
167.6363555827715
 20
1056.319167931932
 30
0.0
 10
167.6500128759892
 20
1056.317892615886
 30
0.0
 10
167.6571171028514
 20
1056.317229224219
 30
0.0
 10
167.6643540823981
 20
1056.317189692151
 30
0.0
 10
167.6715501709185
 20
1056.31777508469
 30
0.0
 10
167.6803937708478
 20
1056.318494500163
 30
0.0
 10
167.6892717296649
 20
1056.320169283601
 30
0.0
 10
167.6978610401579
 20
1056.322738571738
 30
0.0
 10
167.7110070549914
 20
1056.326670889704
 30
0.0
 10
167.7237639439942
 20
1056.332816887439
 30
0.0
 10
167.7350838090752
 20
1056.340694960023
 30
0.0
 10
167.7465467106637
 20
1056.348672579021
 30
0.0
 10
167.7568502072992
 20
1056.35864561341
 30
0.0
 10
167.7651218107552
 20
1056.369855839842
 30
0.0
 10
167.7734803898094
 20
1056.381183941383
 30
0.0
 10
167.7799919970513
 20
1056.394100504034
 30
0.0
 10
167.7840455393413
 20
1056.407549274401
 30
0.0
 10
167.7861542911539
 20
1056.414545653583
 30
0.0
 10
167.7876348059237
 20
1056.421760914907
 30
0.0
 10
167.7884470848592
 20
1056.429022608087
 30
0.0
  0
LINE
  5
102
330
95
100
AcDbEntity
  8
$DDT_AUDIT_GENERATED_(F4)
  6
Continuous
 62
     7
100
AcDbLine
 10
164.3183184032
 20
1056.4623210069
 30
0.0
 11
164.3192148859
 21
1056.4482393551
 31
0.0
  0
ARC
  5
103
330
95
100
AcDbEntity
  8
$DDT_AUDIT_GENERATED_(F4)
  6
Continuous
 62
     7
100
AcDbCircle
 10
163.9317731484
 20
1056.4736990187
 30
0.0
 40
0.1114813352862089
100
AcDbArc
 50
352.7820881441
 51
0.0005787516
  0
LINE
  5
104
330
95
100
AcDbEntity
  8
$DDT_AUDIT_GENERATED_(F4)
  6
Continuous
 62
     7
100
AcDbLine
 10
162.2474494511
 20
1056.5935499351
 30
0.0
 11
162.2481004336
 21
1056.579442045
 31
0.0
  0
LINE
  5
105
330
95
100
AcDbEntity
  8
$DDT_AUDIT_GENERATED_(F4)
  6
Continuous
 62
     7
100
AcDbLine
 10
167.7884470849
 20
1056.4290226081
 30
0.0
 11
167.7892325218
 21
1056.4430906688
 31
0.0
  0
SPLINE
  5
106
330
95
100
AcDbEntity
  8
$DDT_AUDIT_GENERATED_(F4)
  6
Continuous
 62
     7
100
AcDbSpline
210
0.0
220
0.0
230
1.0
 70
     8
 71
     3
 72
    23
 73
    19
 74
     0
 42
0.0000000317567225
 43
0.0000000001
 40
0.0
 40
0.0
 40
0.0
 40
0.0
 40
0.1135960781097399
 40
0.1135960781097399
 40
0.1135960781097399
 40
0.2276182575319565
 40
0.2276182575319565
 40
0.2276182575319565
 40
0.3433718639585875
 40
0.3433718639585875
 40
0.3433718639585875
 40
0.4044905035351407
 40
0.4044905035351407
 40
0.4044905035351407
 40
0.5179387475499472
 40
0.5179387475499472
 40
0.5179387475499472
 40
0.5551571842839823
 40
0.5551571842839823
 40
0.5551571842839823
 40
0.5551571842839823
 10
161.1940526484437
 20
1056.701826557597
 30
0.0
 10
161.1950578237843
 20
1056.688118457061
 30
0.0
 10
161.1980174342414
 20
1056.674316911862
 30
0.0
 10
161.2025784773477
 20
1056.661550423267
 30
0.0
 10
161.2071586418393
 20
1056.648730413374
 30
0.0
 10
161.2134677370774
 20
1056.636601061542
 30
0.0
 10
161.2208201562305
 20
1056.626093127963
 30
0.0
 10
161.2282818452431
 20
1056.615429028038
 30
0.0
 10
161.2370159202827
 20
1056.606139010137
 30
0.0
 10
161.2461299460654
 20
1056.598955421647
 30
0.0
 10
161.2509911517955
 20
1056.595123865498
 30
0.0
 10
161.2560126455571
 20
1056.591837951359
 30
0.0
 10
161.2610522510697
 20
1056.589177311633
 30
0.0
 10
161.2703122914241
 20
1056.584288510086
 30
0.0
 10
161.2798243148575
 20
1056.581449552315
 30
0.0
 10
161.2887549460844
 20
1056.580899522567
 30
0.0
 10
161.2916850298551
 20
1056.580719061275
 30
0.0
 10
161.294578747265
 20
1056.58078324167
 30
0.0
 10
161.297414462746
 20
1056.581086847801
 30
0.0
  0
SPLINE
  5
107
330
95
100
AcDbEntity
  8
$DDT_AUDIT_GENERATED_(F4)
  6
Continuous
 62
     7
100
AcDbSpline
210
0.0
220
0.0
230
1.0
 70
     8
 71
     3
 72
    29
 73
    25
 74
     0
 42
0.0000000282361436
 43
0.0000000001
 40
0.3090249985228155
 40
0.3090249985228155
 40
0.3090249985228155
 40
0.3090249985228155
 40
0.3307082309367802
 40
0.3307082309367802
 40
0.3307082309367802
 40
0.4523706936495306
 40
0.4523706936495306
 40
0.4523706936495306
 40
0.5248158462830543
 40
0.5248158462830543
 40
0.5248158462830543
 40
0.5979819109431647
 40
0.5979819109431647
 40
0.5979819109431647
 40
0.713103125618594
 40
0.713103125618594
 40
0.713103125618594
 40
0.8263697861334103
 40
0.8263697861334103
 40
0.8263697861334103
 40
0.9398970353731932
 40
0.9398970353731932
 40
0.9398970353731932
 40
1.0
 40
1.0
 40
1.0
 40
1.0
 10
168.9941487647749
 20
1056.385975821763
 30
0.0
 10
168.9961449050496
 20
1056.38475382163
 30
0.0
 10
168.9981783264672
 20
1056.383602287856
 30
0.0
 10
169.0002444438119
 20
1056.382524356311
 30
0.0
 10
169.011817975332
 20
1056.376486231348
 30
0.0
 10
169.0247452966217
 20
1056.372596798396
 30
0.0
 10
169.038060395527
 20
1056.371192271974
 30
0.0
 10
169.0460605339405
 20
1056.370348387458
 30
0.0
 10
169.0543052076388
 20
1056.370379116594
 30
0.0
 10
169.0625351294658
 20
1056.371306500983
 30
0.0
 10
169.0708444075916
 20
1056.372242827595
 30
0.0
 10
169.0792312051414
 20
1056.374105356899
 30
0.0
 10
169.0873954359898
 20
1056.376855643578
 30
0.0
 10
169.1001280547506
 20
1056.381144884342
 30
0.0
 10
169.1126057892163
 20
1056.3877352884
 30
0.0
 10
169.1236764941621
 20
1056.396130548463
 30
0.0
 10
169.134574647741
 20
1056.404394957455
 30
0.0
 10
169.1444070132864
 20
1056.414633874212
 30
0.0
 10
169.1522880295221
 20
1056.426036881129
 30
0.0
 10
169.1601874927901
 20
1056.437466578973
 30
0.0
 10
169.1663422166224
 20
1056.450379254199
 30
0.0
 10
169.1702020604867
 20
1056.463737615292
 30
0.0
 10
169.1722661667955
 20
1056.47088118855
 30
0.0
 10
169.1737102151088
 20
1056.478228994331
 30
0.0
 10
169.1744967538669
 20
1056.485608074836
 30
0.0
  0
LINE
  5
108
330
95
100
AcDbEntity
  8
$DDT_AUDIT_GENERATED_(F4)
  6
Continuous
 62
     7
100
AcDbLine
 10
161.1935338387
 20
1056.7159485738
 30
0.0
 11
161.1940526484
 21
1056.7018265576
 31
0.0
  0
SPLINE
  5
109
330
95
100
AcDbEntity
  8
$DDT_AUDIT_GENERATED_(F4)
  6
Continuous
 62
     7
100
AcDbSpline
210
0.0
220
0.0
230
1.0
 70
     8
 71
     3
 72
    23
 73
    19
 74
     0
 42
0.0000000346010704
 43
0.0000000001
 40
0.0
 40
0.0
 40
0.0
 40
0.0
 40
0.1135461180717299
 40
0.1135461180717299
 40
0.1135461180717299
 40
0.2276421109859759
 40
0.2276421109859759
 40
0.2276421109859759
 40
0.3414999809584287
 40
0.3414999809584287
 40
0.3414999809584287
 40
0.3432340044897141
 40
0.3432340044897141
 40
0.3432340044897141
 40
0.4581595134073552
 40
0.4581595134073552
 40
0.4581595134073552
 40
0.5519169495533363
 40
0.5519169495533363
 40
0.5519169495533363
 40
0.5519169495533363
 10
160.377081090893
 20
1056.849548958488
 30
0.0
 10
160.3778364140067
 20
1056.835640411773
 30
0.0
 10
160.380207373906
 20
1056.821595664282
 30
0.0
 10
160.3838935872967
 20
1056.808559003993
 30
0.0
 10
160.3875974827114
 20
1056.795459809467
 30
0.0
 10
160.3927257421417
 20
1056.783016642136
 30
0.0
 10
160.3986526888045
 20
1056.772249032141
 30
0.0
 10
160.4045668200268
 20
1056.761504704228
 30
0.0
 10
160.4114305113178
 20
1056.752131745833
 30
0.0
 10
160.4184534204932
 20
1056.744883513406
 30
0.0
 10
160.4185619403313
 20
1056.744771511814
 30
0.0
 10
160.4186705207406
 20
1056.744659978725
 30
0.0
 10
160.4187791588045
 20
1056.744548916226
 30
0.0
 10
160.4258746290597
 20
1056.737295099002
 30
0.0
 10
160.4333093712019
 20
1056.732007792183
 30
0.0
 10
160.4403350218595
 20
1056.729053561777
 30
0.0
 10
160.446070755786
 20
1056.726641731131
 30
0.0
 10
160.4516596046249
 20
1056.725723260206
 30
0.0
 10
160.4568366928747
 20
1056.726280732367
 30
0.0
  0
LINE
  5
10A
330
95
100
AcDbEntity
  8
$DDT_AUDIT_GENERATED_(F4)
  6
Continuous
 62
     7
100
AcDbLine
 10
160.3766960938
 20
1056.8636852761
 30
0.0
 11
160.3770810909
 21
1056.8495489585
 31
0.0
  0
SPLINE
  5
10B
330
95
100
AcDbEntity
  8
$DDT_AUDIT_GENERATED_(F4)
  6
Continuous
 62
     7
100
AcDbSpline
210
0.0
220
0.0
230
1.0
 70
     8
 71
     3
 72
    23
 73
    19
 74
     0
 42
0.0000000338326744
 43
0.0000000001
 40
0.4509746950936603
 40
0.4509746950936603
 40
0.4509746950936603
 40
0.4509746950936603
 40
0.4546114511210135
 40
0.4546114511210135
 40
0.4546114511210135
 40
0.5674250712216423
 40
0.5674250712216423
 40
0.5674250712216423
 40
0.6816910254042053
 40
0.6816910254042053
 40
0.6816910254042053
 40
0.8039389608869503
 40
0.8039389608869503
 40
0.8039389608869503
 40
0.9252487598335504
 40
0.9252487598335504
 40
0.9252487598335504
 40
1.0
 40
1.0
 40
1.0
 40
1.0
 10
172.1061187868693
 20
1056.69694596987
 30
0.0
 10
172.106338121079
 20
1056.696936916632
 30
0.0
 10
172.1065579424881
 20
1056.696930211135
 30
0.0
 10
172.1067782372112
 20
1056.696925857357
 30
0.0
 10
172.1136166122265
 20
1056.696790707639
 30
0.0
 10
172.121087284817
 20
1056.698905724345
 30
0.0
 10
172.1285866919262
 20
1056.703025575887
 30
0.0
 10
172.1361851413838
 20
1056.707199837033
 30
0.0
 10
172.1440000239796
 20
1056.713527735496
 30
0.0
 10
172.1513222978487
 20
1056.721546237221
 30
0.0
 10
172.1591406252746
 20
1056.730107959041
 30
0.0
 10
172.1666069823496
 20
1056.74084524741
 30
0.0
 10
172.1728140505782
 20
1056.752972800673
 30
0.0
 10
172.178965193992
 20
1056.764991086381
 30
0.0
 10
172.184045444317
 20
1056.778762302627
 30
0.0
 10
172.1872561839302
 20
1056.793077739552
 30
0.0
 10
172.1892543897156
 20
1056.801986960581
 30
0.0
 10
172.1905716312732
 20
1056.811248690854
 30
0.0
 10
172.1911063689174
 20
1056.820473629723
 30
0.0
  0
SPLINE
  5
10C
330
95
100
AcDbEntity
  8
$DDT_AUDIT_GENERATED_(F4)
  6
Continuous
 62
     7
100
AcDbSpline
210
0.0
220
0.0
230
1.0
 70
     8
 71
     3
 72
    29
 73
    25
 74
     0
 42
0.0000000296505652
 43
0.0000000001
 40
0.3034322174249998
 40
0.3034322174249998
 40
0.3034322174249998
 40
0.3034322174249998
 40
0.3084861411677595
 40
0.3084861411677595
 40
0.3084861411677595
 40
0.4391084739208893
 40
0.4391084739208893
 40
0.4391084739208893
 40
0.4766966953042202
 40
0.4766966953042202
 40
0.4766966953042202
 40
0.6365969115923432
 40
0.6365969115923432
 40
0.6365969115923432
 40
0.7535244524024435
 40
0.7535244524024435
 40
0.7535244524024435
 40
0.8711390719008735
 40
0.8711390719008735
 40
0.8711390719008735
 40
0.9779898014692301
 40
0.9779898014692301
 40
0.9779898014692301
 40
1.0
 40
1.0
 40
1.0
 40
1.0
 10
170.957175901539
 20
1056.54195013659
 30
0.0
 10
170.9575761651033
 20
1056.541705297529
 30
0.0
 10
170.9579777250193
 20
1056.541464241063
 30
0.0
 10
170.9583805322129
 20
1056.541226972388
 30
0.0
 10
170.9688100169795
 20
1056.535083611316
 30
0.0
 10
170.9803486152896
 20
1056.531300971534
 30
0.0
 10
170.992388087338
 20
1056.52997407768
 30
0.0
 10
170.9958862094757
 20
1056.52958854277
 30
0.0
 10
170.9994398096618
 20
1056.529407796566
 30
0.0
 10
171.0030322666044
 20
1056.529436218527
 30
0.0
 10
171.0180550765982
 20
1056.529555072486
 30
0.0
 10
171.034184478923
 20
1056.53343128789
 30
0.0
 10
171.049600198323
 20
1056.541291552774
 30
0.0
 10
171.0609496048023
 20
1056.547078460208
 30
0.0
 10
171.0721985813089
 20
1056.555192543479
 30
0.0
 10
171.0821902951346
 20
1056.565289535477
 30
0.0
 10
171.0922172419256
 20
1056.575422131674
 30
0.0
 10
171.1012500488577
 20
1056.587883333904
 30
0.0
 10
171.1080563947336
 20
1056.601607478194
 30
0.0
 10
171.11425205151
 20
1056.614100244374
 30
0.0
 10
171.1187818887985
 20
1056.628010955959
 30
0.0
 10
171.1210580682488
 20
1056.642092598658
 30
0.0
 10
171.1215342593705
 20
1056.645038567278
 30
0.0
 10
171.1219168803185
 20
1056.64800274148
 30
0.0
 10
171.1222034488917
 20
1056.650972515085
 30
0.0
  0
ARC
  5
10D
330
95
100
AcDbEntity
  8
$DDT_AUDIT_GENERATED_(F4)
  6
Continuous
 62
     7
100
AcDbCircle
 10
170.9754265355
 20
1056.6651547667
 30
0.0
 40
0.1474604983678145
100
AcDbArc
 50
354.480954976
 51
359.9798798219
  0
SPLINE
  5
10E
330
95
100
AcDbEntity
  8
$DDT_AUDIT_GENERATED_(F4)
  6
Continuous
 62
     7
100
AcDbSpline
210
0.0
220
0.0
230
1.0
 70
     8
 71
     3
 72
    20
 73
    16
 74
     0
 42
0.0000000274880549
 43
0.0000000001
 40
0.4398627317981511
 40
0.4398627317981511
 40
0.4398627317981511
 40
0.4398627317981511
 40
0.5490076265391984
 40
0.5490076265391984
 40
0.5490076265391984
 40
0.6841506179716713
 40
0.6841506179716713
 40
0.6841506179716713
 40
0.8368675216679388
 40
0.8368675216679388
 40
0.8368675216679388
 40
0.9303323794671946
 40
0.9303323794671946
 40
0.9303323794671946
 40
1.0
 40
1.0
 40
1.0
 40
1.0
 10
170.548026151932
 20
1056.481483488794
 30
0.0
 10
170.5591613497166
 20
1056.4810307363
 30
0.0
 10
170.570772034491
 20
1056.482443509992
 30
0.0
 10
170.5822766570998
 20
1056.485503205752
 30
0.0
 10
170.5965248255148
 20
1056.489292557386
 30
0.0
 10
170.6109593111408
 20
1056.495682455012
 30
0.0
 10
170.6244787838544
 20
1056.504367028578
 30
0.0
 10
170.6396598496739
 20
1056.514118968296
 30
0.0
 10
170.6542241901756
 20
1056.527152018666
 30
0.0
 10
170.6657667548674
 20
1056.542887936952
 30
0.0
 10
170.6728988725447
 20
1056.552611115809
 30
0.0
 10
170.6790231184701
 20
1056.563616016333
 30
0.0
 10
170.6832911196046
 20
1056.575307027352
 30
0.0
 10
170.6864850608041
 20
1056.58405594765
 30
0.0
 10
170.6886893072687
 20
1056.593352699418
 30
0.0
 10
170.6896373060306
 20
1056.602666800999
 30
0.0
  0
LINE
  5
10F
330
95
100
AcDbEntity
  8
$DDT_AUDIT_GENERATED_(F4)
  6
Continuous
 62
     7
100
AcDbLine
 10
172.1911063689
 20
1056.8204736297
 30
0.0
 11
172.1915171519
 21
1056.8346072584
 31
0.0
  0
ARC
  5
110
330
95
100
AcDbEntity
  8
$DDT_AUDIT_GENERATED_(F4)
  6
Continuous
 62
     7
100
AcDbCircle
 10
170.5505936192
 20
1056.6168350697
 30
0.0
 40
0.1397636816117932
100
AcDbArc
 50
354.1817585206
 51
359.9805555526
  0
LINE
  5
111
330
95
100
AcDbEntity
  8
$DDT_AUDIT_GENERATED_(F4)
  6
Continuous
 62
     7
100
AcDbLine
 10
163.342401791
 20
1057.1538382839
 30
0.0
 11
162.7129931639
 21
1057.0865692639
 31
0.0
  0
LINE
  5
112
330
95
100
AcDbEntity
  8
$DDT_AUDIT_GENERATED_(F4)
  6
Continuous
 62
     7
100
AcDbLine
 10
164.1351318205
 20
1057.1210437816
 30
0.0
 11
163.342401791
 21
1057.1538382839
 31
0.0
  0
LINE
  5
113
330
95
100
AcDbEntity
  8
$DDT_AUDIT_GENERATED_(F4)
  6
Continuous
 62
     7
100
AcDbLine
 10
166.9794091336
 20
1057.189992817
 30
0.0
 11
166.1866791041
 21
1057.2227873193
 31
0.0
  0
LINE
  5
114
330
95
100
AcDbEntity
  8
$DDT_AUDIT_GENERATED_(F4)
  6
Continuous
 62
     7
100
AcDbLine
 10
166.1866791041
 20
1057.2227873193
 30
0.0
 11
165.557270477
 21
1057.1555182993
 31
0.0
  0
LINE
  5
115
330
95
100
AcDbEntity
  8
$DDT_AUDIT_GENERATED_(F4)
  6
Continuous
 62
     7
100
AcDbLine
 10
168.8915119974
 20
1056.9242767684
 30
0.0
 11
168.0987819679
 21
1056.9570712706
 31
0.0
  0
LINE
  5
116
330
95
100
AcDbEntity
  8
$DDT_AUDIT_GENERATED_(F4)
  6
Continuous
 62
     7
100
AcDbLine
 10
168.0987819679
 20
1056.9570712706
 30
0.0
 11
167.4693733408
 21
1056.8898022507
 31
0.0
  0
LINE
  5
117
330
95
100
AcDbEntity
  8
$DDT_AUDIT_GENERATED_(F4)
  6
Continuous
 62
     7
100
AcDbLine
 10
165.5291116146
 20
1057.2968388997
 30
0.0
 11
165.5291116146
 21
1057.3422586934
 31
0.0
  0
LINE
  5
118
330
95
100
AcDbEntity
  8
$DDT_AUDIT_GENERATED_(F4)
  6
Continuous
 62
     7
100
AcDbLine
 10
164.106972958
 20
1057.262364382
 30
0.0
 11
164.106972958
 21
1057.3077841757
 31
0.0
  0
LINE
  5
119
330
95
100
AcDbEntity
  8
$DDT_AUDIT_GENERATED_(F4)
  6
Continuous
 62
     7
100
AcDbLine
 10
162.6848343014
 20
1057.2278898643
 30
0.0
 11
162.6848343014
 21
1057.273309658
 31
0.0
  0
LINE
  5
11A
330
95
100
AcDbEntity
  8
$DDT_AUDIT_GENERATED_(F4)
  6
Continuous
 62
     7
100
AcDbLine
 10
164.5730601827
 20
1057.429696924
 30
0.0
 11
164.5730601827
 21
1057.4507154979
 31
0.0
  0
LINE
  5
11B
330
95
100
AcDbEntity
  8
$DDT_AUDIT_GENERATED_(F4)
  6
Continuous
 62
     7
100
AcDbLine
 10
165.9951988392
 20
1057.4641714417
 30
0.0
 11
165.9951988392
 21
1057.4792526251
 31
0.0
  0
LINE
  5
11C
330
95
100
AcDbEntity
  8
$DDT_AUDIT_GENERATED_(F4)
  6
Continuous
 62
     7
100
AcDbLine
 10
162.2187470767
 20
1057.0605573223
 30
0.0
 11
162.2187470767
 21
1057.1059771159
 31
0.0
  0
LINE
  5
11D
330
95
100
AcDbEntity
  8
$DDT_AUDIT_GENERATED_(F4)
  6
Continuous
 62
     7
100
AcDbLine
 10
160.7966084201
 20
1057.0260828046
 30
0.0
 11
160.7966084201
 21
1057.0715025982
 31
0.0
  0
LINE
  5
11E
330
95
100
AcDbEntity
  8
$DDT_AUDIT_GENERATED_(F4)
  6
Continuous
 62
     7
100
AcDbLine
 10
165.0630243899
 20
1057.1295063577
 30
0.0
 11
165.0630243899
 21
1057.1749261513
 31
0.0
  0
LINE
  5
11F
330
95
100
AcDbEntity
  8
$DDT_AUDIT_GENERATED_(F4)
  6
Continuous
 62
     7
100
AcDbLine
 10
166.0190758218
 20
1056.9966483333
 30
0.0
 11
166.0190758218
 21
1057.042068127
 31
0.0
  0
LINE
  5
120
330
95
100
AcDbEntity
  8
$DDT_AUDIT_GENERATED_(F4)
  6
Continuous
 62
     7
100
AcDbLine
 10
164.5969371652
 20
1056.9621738156
 30
0.0
 11
164.5969371652
 21
1057.0075936093
 31
0.0
  0
LINE
  5
121
330
95
100
AcDbEntity
  8
$DDT_AUDIT_GENERATED_(F4)
  6
Continuous
 62
     7
100
AcDbLine
 10
163.1747985086
 20
1056.9276992979
 30
0.0
 11
163.1747985086
 21
1056.9731190916
 31
0.0
  0
LINE
  5
122
330
95
100
AcDbEntity
  8
$DDT_AUDIT_GENERATED_(F4)
  6
Continuous
 62
     7
100
AcDbLine
 10
161.752659852
 20
1056.8932247802
 30
0.0
 11
161.752659852
 21
1056.9386445739
 31
0.0
  0
LINE
  5
123
330
95
100
AcDbEntity
  8
$DDT_AUDIT_GENERATED_(F4)
  6
Continuous
 62
     7
100
AcDbLine
 10
162.7087112839
 20
1056.7603667559
 30
0.0
 11
162.7087112839
 21
1056.8057865496
 31
0.0
  0
LINE
  5
124
330
95
100
AcDbEntity
  8
$DDT_AUDIT_GENERATED_(F4)
  6
Continuous
 62
     7
100
AcDbLine
 10
164.1308499405
 20
1056.7948412736
 30
0.0
 11
164.1308499405
 21
1056.8402610673
 31
0.0
  0
LINE
  5
125
330
95
100
AcDbEntity
  8
$DDT_AUDIT_GENERATED_(F4)
  6
Continuous
 62
     7
100
AcDbLine
 10
165.5529885971
 20
1056.8293157913
 30
0.0
 11
165.5529885971
 21
1056.874735585
 31
0.0
  0
LINE
  5
126
330
95
100
AcDbEntity
  8
$DDT_AUDIT_GENERATED_(F4)
  6
Continuous
 62
     7
100
AcDbLine
 10
166.9751272537
 20
1056.863790309
 30
0.0
 11
166.9751272537
 21
1056.9092101027
 31
0.0
  0
LINE
  5
127
330
95
100
AcDbEntity
  8
$DDT_AUDIT_GENERATED_(F4)
  6
Continuous
 62
     7
100
AcDbLine
 10
166.509040029
 20
1056.6964577669
 30
0.0
 11
166.509040029
 21
1056.7418775606
 31
0.0
  0
LINE
  5
128
330
95
100
AcDbEntity
  8
$DDT_AUDIT_GENERATED_(F4)
  6
Continuous
 62
     7
100
AcDbLine
 10
165.0869013724
 20
1056.6619832492
 30
0.0
 11
165.0869013724
 21
1056.7074030429
 31
0.0
  0
LINE
  5
129
330
95
100
AcDbEntity
  8
$DDT_AUDIT_GENERATED_(F4)
  6
Continuous
 62
     7
100
AcDbLine
 10
163.6647627158
 20
1056.6275087315
 30
0.0
 11
163.6647627158
 21
1056.6729285252
 31
0.0
  0
LINE
  5
12A
330
95
100
AcDbEntity
  8
$DDT_AUDIT_GENERATED_(F4)
  6
Continuous
 62
     7
100
AcDbLine
 10
164.0432544836
 20
1056.4737001448
 30
0.0
 11
164.0432544836
 21
1056.5219868858
 31
0.0
  0
LINE
  5
12B
330
95
100
AcDbEntity
  8
$DDT_AUDIT_GENERATED_(F4)
  6
Continuous
 62
     7
100
AcDbLine
 10
166.0429528043
 20
1056.5291252249
 30
0.0
 11
166.0429528043
 21
1056.5745450186
 31
0.0
  0
LINE
  5
12C
330
95
100
AcDbEntity
  8
$DDT_AUDIT_GENERATED_(F4)
  6
Continuous
 62
     7
100
AcDbLine
 10
167.4650914609
 20
1056.5635997426
 30
0.0
 11
167.4650914609
 21
1056.6090195363
 31
0.0
  0
LINE
  5
12D
330
95
100
AcDbEntity
  8
$DDT_AUDIT_GENERATED_(F4)
  6
Continuous
 62
     7
100
AcDbLine
 10
166.9512502711
 20
1057.3313134174
 30
0.0
 11
166.9512502711
 21
1057.3767332111
 31
0.0
  0
LINE
  5
12E
330
95
100
AcDbEntity
  8
$DDT_AUDIT_GENERATED_(F4)
  6
Continuous
 62
     7
100
AcDbLine
 10
168.3733889277
 20
1057.3657879351
 30
0.0
 11
168.3733889277
 21
1057.4112077288
 31
0.0
  0
LINE
  5
12F
330
95
100
AcDbEntity
  8
$DDT_AUDIT_GENERATED_(F4)
  6
Continuous
 62
     7
100
AcDbLine
 10
171.1228870247
 20
1056.665102984
 30
0.0
 11
171.1228870247
 21
1056.6910398095
 31
0.0
  0
LINE
  5
130
330
95
100
AcDbEntity
  8
$DDT_AUDIT_GENERATED_(F4)
  6
Continuous
 62
     7
100
AcDbLine
 10
170.7515790162
 20
1057.2674044285
 30
0.0
 11
170.7515790162
 21
1057.2754238103
 31
0.0
  0
LINE
  5
131
330
95
100
AcDbEntity
  8
$DDT_AUDIT_GENERATED_(F4)
  6
Continuous
 62
     7
100
AcDbLine
 10
169.3294403596
 20
1057.2329299108
 30
0.0
 11
169.3294403596
 21
1057.2783497044
 31
0.0
  0
LINE
  5
132
330
95
100
AcDbEntity
  8
$DDT_AUDIT_GENERATED_(F4)
  6
Continuous
 62
     7
100
AcDbLine
 10
167.907301703
 20
1057.1984553931
 30
0.0
 11
167.907301703
 21
1057.2438751867
 31
0.0
  0
LINE
  5
133
330
95
100
AcDbEntity
  8
$DDT_AUDIT_GENERATED_(F4)
  6
Continuous
 62
     7
100
AcDbLine
 10
167.4412144783
 20
1057.031122851
 30
0.0
 11
167.4412144783
 21
1057.0765426447
 31
0.0
  0
LINE
  5
134
330
95
100
AcDbEntity
  8
$DDT_AUDIT_GENERATED_(F4)
  6
Continuous
 62
     7
100
AcDbLine
 10
168.8633531349
 20
1057.0655973687
 30
0.0
 11
168.8633531349
 21
1057.1110171624
 31
0.0
  0
LINE
  5
135
330
95
100
AcDbEntity
  8
$DDT_AUDIT_GENERATED_(F4)
  6
Continuous
 62
     7
100
AcDbLine
 10
170.2854917915
 20
1057.1000718864
 30
0.0
 11
170.2854917915
 21
1057.1454916801
 31
0.0
  0
LINE
  5
136
330
95
100
AcDbEntity
  8
$DDT_AUDIT_GENERATED_(F4)
  6
Continuous
 62
     7
100
AcDbLine
 10
171.7076304481
 20
1057.1345464041
 30
0.0
 11
171.7076304481
 21
1057.1458017729
 31
0.0
  0
LINE
  5
137
330
95
100
AcDbEntity
  8
$DDT_AUDIT_GENERATED_(F4)
  6
Continuous
 62
     7
100
AcDbLine
 10
171.2415432234
 20
1056.9672138621
 30
0.0
 11
171.2415432234
 21
1057.0126336558
 31
0.0
  0
LINE
  5
138
330
95
100
AcDbEntity
  8
$DDT_AUDIT_GENERATED_(F4)
  6
Continuous
 62
     7
100
AcDbLine
 10
169.8194045668
 20
1056.9327393444
 30
0.0
 11
169.8194045668
 21
1056.9781591381
 31
0.0
  0
LINE
  5
139
330
95
100
AcDbEntity
  8
$DDT_AUDIT_GENERATED_(F4)
  6
Continuous
 62
     7
100
AcDbLine
 10
167.9311786855
 20
1056.7309322846
 30
0.0
 11
167.9311786855
 21
1056.7763520783
 31
0.0
  0
LINE
  5
13A
330
95
100
AcDbEntity
  8
$DDT_AUDIT_GENERATED_(F4)
  6
Continuous
 62
     7
100
AcDbLine
 10
169.3533173421
 20
1056.7654068023
 30
0.0
 11
169.3533173421
 21
1056.810826596
 31
0.0
  0
LINE
  5
13B
330
95
100
AcDbEntity
  8
$DDT_AUDIT_GENERATED_(F4)
  6
Continuous
 62
     7
100
AcDbLine
 10
170.7754559987
 20
1056.79988132
 30
0.0
 11
170.7754559987
 21
1056.8453011137
 31
0.0
  0
LINE
  5
13C
330
95
100
AcDbEntity
  8
$DDT_AUDIT_GENERATED_(F4)
  6
Continuous
 62
     7
100
AcDbLine
 10
172.1915171519
 20
1056.8346072584
 30
0.0
 11
172.1915171519
 21
1056.8800270521
 31
0.0
  0
LINE
  5
13D
330
95
100
AcDbEntity
  8
$DDT_AUDIT_GENERATED_(F4)
  6
Continuous
 62
     7
100
AcDbLine
 10
170.6903572927
 20
1056.6167876382
 30
0.0
 11
170.6903572927
 21
1056.6622074319
 31
0.0
  0
LINE
  5
13E
330
95
100
AcDbEntity
  8
$DDT_AUDIT_GENERATED_(F4)
  6
Continuous
 62
     7
100
AcDbLine
 10
167.7892325218
 20
1056.4430906688
 30
0.0
 11
167.7892325218
 21
1056.452269081
 31
0.0
  0
LINE
  5
13F
330
95
100
AcDbEntity
  8
$DDT_AUDIT_GENERATED_(F4)
  6
Continuous
 62
     7
100
AcDbLine
 10
168.8872301174
 20
1056.5980742603
 30
0.0
 11
168.8872301174
 21
1056.643494054
 31
0.0
  0
ELLIPSE
  5
140
330
95
100
AcDbEntity
  8
$DDT_AUDIT_GENERATED_(F4)
  6
Continuous
 62
     7
100
AcDbEllipse
 10
165.2783816373
 20
1056.5446673957
 30
0.0
 11
-0.1339551121816646
 21
0.03018132116311412
 31
0.0
210
0.0
220
0.0
230
1.0
 40
0.8993612452
 41
1.20898596128198
 42
1.770723652563236
  0
ELLIPSE
  5
141
330
95
100
AcDbEntity
  8
$DDT_AUDIT_GENERATED_(F4)
  6
Continuous
 62
     7
100
AcDbEllipse
 10
162.9001915488
 20
1056.6430509023
 30
0.0
 11
-0.1339551121816583
 21
0.03018132116316963
 31
0.0
210
0.0
220
0.0
230
0.9999999999999998
 40
0.8993612452
 41
1.20898596128236
 42
1.770723652563179
  0
ELLIPSE
  5
142
330
95
100
AcDbEntity
  8
$DDT_AUDIT_GENERATED_(F4)
  6
Continuous
 62
     7
100
AcDbEllipse
 10
166.0711116668
 20
1056.5118728935
 30
0.0
 11
-0.004080298383258209
 21
0.1252587504957381
 31
0.0
210
0.0
220
0.0
230
1.0
 40
0.2224329296
 41
1.425381578710617
 42
2.996177905520753
  0
ELLIPSE
  5
143
330
95
100
AcDbEntity
  8
$DDT_AUDIT_GENERATED_(F4)
  6
Continuous
 62
     7
100
AcDbEllipse
 10
165.2783816373
 20
1056.5446673957
 30
0.0
 11
-0.03673560541108561
 21
-0.1206694169020306
 31
0.0
210
0.0
220
0.0
230
1.0
 40
0.8462106981
 41
0.3453420738514903
 42
1.91613840064558
  0
ELLIPSE
  5
144
330
95
100
AcDbEntity
  8
$DDT_AUDIT_GENERATED_(F4)
  6
Continuous
 62
     7
100
AcDbEllipse
 10
163.6929215783
 20
1056.6102564001
 30
0.0
 11
-0.004080298383263899
 21
0.1252587504957936
 31
0.0
210
0.0
220
0.0
230
1.0
 40
0.2224329296
 41
1.425381578710675
 42
2.996177905504434
  0
ELLIPSE
  5
145
330
95
100
AcDbEntity
  8
$DDT_AUDIT_GENERATED_(F4)
  6
Continuous
 62
     7
100
AcDbEllipse
 10
162.9001915488
 20
1056.6430509023
 30
0.0
 11
-0.03673560541104116
 21
-0.1206694169020861
 31
0.0
210
0.0
220
0.0
230
1.0
 40
0.8462106981
 41
0.3453420738527589
 42
1.916138400646974
  0
ELLIPSE
  5
146
330
95
100
AcDbEntity
  8
$DDT_AUDIT_GENERATED_(F4)
  6
Continuous
 62
     7
100
AcDbEllipse
 10
167.4932503233
 20
1056.5463474112
 30
0.0
 11
-0.004080298383269538
 21
0.1252587504957381
 31
0.0
210
0.0
220
0.0
230
0.9999999999999999
 40
0.2224329296
 41
1.425381578710597
 42
2.99617790550764
  0
ELLIPSE
  5
147
330
95
100
AcDbEntity
  8
$DDT_AUDIT_GENERATED_(F4)
  6
Continuous
 62
     7
100
AcDbEllipse
 10
166.7005202938
 20
1056.5791419134
 30
0.0
 11
-0.03673560541104143
 21
-0.1206694169020861
 31
0.0
210
0.0
220
0.0
230
1.0
 40
0.8462106981
 41
0.3453420738527615
 42
1.916138400646906
  0
ELLIPSE
  5
148
330
95
100
AcDbEntity
  8
$DDT_AUDIT_GENERATED_(F4)
  6
Continuous
 62
     7
100
AcDbEllipse
 10
166.7005202938
 20
1056.5791419134
 30
0.0
 11
-0.1339551121816597
 21
0.03018132116316963
 31
0.0
210
0.0
220
0.0
230
1.0
 40
0.8993612452
 41
1.208985961282578
 42
1.770723652564164
  0
ELLIPSE
  5
149
330
95
100
AcDbEntity
  8
$DDT_AUDIT_GENERATED_(F4)
  6
Continuous
 62
     7
100
AcDbEllipse
 10
164.3223302054
 20
1056.67752542
 30
0.0
 11
-0.1339551121816635
 21
0.03018132116311412
 31
0.0
210
0.0
220
0.0
230
0.9999999999999999
 40
0.8993612452
 41
1.20898596128241
 42
1.770723652563651
  0
ELLIPSE
  5
14A
330
95
100
AcDbEntity
  8
$DDT_AUDIT_GENERATED_(F4)
  6
Continuous
 62
     7
100
AcDbEllipse
 10
161.9441401169
 20
1056.7759089267
 30
0.0
 11
-0.1339551121816692
 21
0.03018132116311412
 31
0.0
210
0.0
220
0.0
230
1.0
 40
0.8993612452
 41
1.208985961282201
 42
1.770723652563429
  0
ELLIPSE
  5
14B
330
95
100
AcDbEntity
  8
$DDT_AUDIT_GENERATED_(F4)
  6
Continuous
 62
     7
100
AcDbEllipse
 10
168.1226589504
 20
1056.6136164311
 30
0.0
 11
-0.1339551121816655
 21
0.03018132116311412
 31
0.0
210
0.0
220
0.0
230
1.0
 40
0.8993612452
 41
1.208985961282197
 42
1.770723652563233
  0
ELLIPSE
  5
14C
330
95
100
AcDbEntity
  8
$DDT_AUDIT_GENERATED_(F4)
  6
Continuous
 62
     7
100
AcDbEllipse
 10
165.1150602349
 20
1056.6447309178
 30
0.0
 11
-0.004080298383271056
 21
0.1252587504957381
 31
0.0
210
0.0
220
0.0
230
0.9999999999999997
 40
0.2224329296
 41
1.425381578710595
 42
2.99617790552081
  0
ELLIPSE
  5
14D
330
95
100
AcDbEntity
  8
$DDT_AUDIT_GENERATED_(F4)
  6
Continuous
 62
     7
100
AcDbEllipse
 10
164.3223302054
 20
1056.67752542
 30
0.0
 11
-0.03673560541102034
 21
-0.1206694169020861
 31
0.0
210
0.0
220
0.0
230
1.0
 40
0.8462106981
 41
0.3453420738522971
 42
1.916138400646719
  0
ELLIPSE
  5
14E
330
95
100
AcDbEntity
  8
$DDT_AUDIT_GENERATED_(F4)
  6
Continuous
 62
     7
100
AcDbEllipse
 10
162.7368701464
 20
1056.7431144245
 30
0.0
 11
-0.004080298383271273
 21
0.1252587504957381
 31
0.0
210
0.0
220
0.0
230
0.9999999999999998
 40
0.2224329296
 41
1.425381578708762
 42
2.996177905507583
  0
ELLIPSE
  5
14F
330
95
100
AcDbEntity
  8
$DDT_AUDIT_GENERATED_(F4)
  6
Continuous
 62
     7
100
AcDbEllipse
 10
161.9441401169
 20
1056.7759089267
 30
0.0
 11
-0.03673560541104116
 21
-0.1206694169020861
 31
0.0
210
0.0
220
0.0
230
1.0
 40
0.8462106981
 41
0.3453420738527589
 42
1.916138400646905
  0
ELLIPSE
  5
150
330
95
100
AcDbEntity
  8
$DDT_AUDIT_GENERATED_(F4)
  6
Continuous
 62
     7
100
AcDbEllipse
 10
168.9153889799
 20
1056.5808219289
 30
0.0
 11
-0.0040802983832639
 21
0.1252587504957381
 31
0.0
210
0.0
220
0.0
230
1.0
 40
0.2224329296
 41
1.425381578710607
 42
2.996177905507658
  0
ELLIPSE
  5
151
330
95
100
AcDbEntity
  8
$DDT_AUDIT_GENERATED_(F4)
  6
Continuous
 62
     7
100
AcDbEllipse
 10
168.1226589504
 20
1056.6136164311
 30
0.0
 11
-0.03673560541106458
 21
-0.1206694169020861
 31
0.0
210
0.0
220
0.0
230
1.0
 40
0.8462106981
 41
0.3453420738487393
 42
1.916138400647105
  0
ELLIPSE
  5
152
330
95
100
AcDbEntity
  8
$DDT_AUDIT_GENERATED_(F4)
  6
Continuous
 62
     7
100
AcDbEllipse
 10
166.5371988914
 20
1056.6792054355
 30
0.0
 11
0.004080298383265418
 21
-0.1252587504957381
 31
0.0
210
0.0
220
0.0
230
0.9999999999999999
 40
0.2224329296
 41
4.566974232298564
 42
6.137770559084269
  0
ELLIPSE
  5
153
330
95
100
AcDbEntity
  8
$DDT_AUDIT_GENERATED_(F4)
  6
Continuous
 62
     7
100
AcDbEllipse
 10
165.744468862
 20
1056.7119999377
 30
0.0
 11
-0.1339551121816596
 21
0.03018132116316963
 31
0.0
210
0.0
220
0.0
230
1.0
 40
0.8993612452
 41
1.208985961282146
 42
1.770723652563175
  0
ELLIPSE
  5
154
330
95
100
AcDbEntity
  8
$DDT_AUDIT_GENERATED_(F4)
  6
Continuous
 62
     7
100
AcDbEllipse
 10
163.3662787735
 20
1056.8103834444
 30
0.0
 11
-0.1339551121816635
 21
0.03018132116311412
 31
0.0
210
0.0
220
0.0
230
0.9999999999999999
 40
0.8993612452
 41
1.20898596128241
 42
1.770723652563239
  0
ELLIPSE
  5
155
330
95
100
AcDbEntity
  8
$DDT_AUDIT_GENERATED_(F4)
  6
Continuous
 62
     7
100
AcDbEllipse
 10
160.988088685
 20
1056.908766951
 30
0.0
 11
-0.1339551121816752
 21
0.03018132116305861
 31
0.0
210
0.0
220
0.0
230
1.0
 40
0.8993612452
 41
1.208985961282252
 42
1.770723652563281
  0
ELLIPSE
  5
156
330
95
100
AcDbEntity
  8
$DDT_AUDIT_GENERATED_(F4)
  6
Continuous
 62
     7
100
AcDbEllipse
 10
169.544797607
 20
1056.6480909488
 30
0.0
 11
-0.133955112181661
 21
0.03018132116311412
 31
0.0
210
0.0
220
0.0
230
0.9999999999999999
 40
0.8993612452
 41
1.208985961281975
 42
1.770723652563452
  0
ELLIPSE
  5
157
330
95
100
AcDbEntity
  8
$DDT_AUDIT_GENERATED_(F4)
  6
Continuous
 62
     7
100
AcDbEllipse
 10
167.1666075185
 20
1056.7464744554
 30
0.0
 11
-0.1339551121816754
 21
0.0301813211630586
 31
0.0
210
0.0
220
0.0
230
1.0
 40
0.8993612452
 41
1.208985961281605
 42
1.770723652563074
  0
ELLIPSE
  5
158
330
95
100
AcDbEntity
  8
$DDT_AUDIT_GENERATED_(F4)
  6
Continuous
 62
     7
100
AcDbEllipse
 10
165.744468862
 20
1056.7119999377
 30
0.0
 11
-0.03673560541104148
 21
-0.1206694169020861
 31
0.0
210
0.0
220
0.0
230
0.9999999999999999
 40
0.8462106981
 41
0.3453420738527625
 42
1.916138400646976
  0
ELLIPSE
  5
159
330
95
100
AcDbEntity
  8
$DDT_AUDIT_GENERATED_(F4)
  6
Continuous
 62
     7
100
AcDbEllipse
 10
164.159008803
 20
1056.7775889422
 30
0.0
 11
-0.004080298383263899
 21
0.1252587504957936
 31
0.0
210
0.0
220
0.0
230
1.0
 40
0.2224329296
 41
1.425381578710675
 42
2.996177905504434
  0
ELLIPSE
  5
15A
330
95
100
AcDbEntity
  8
$DDT_AUDIT_GENERATED_(F4)
  6
Continuous
 62
     7
100
AcDbEllipse
 10
163.3662787735
 20
1056.8103834444
 30
0.0
 11
-0.03673560541104116
 21
-0.1206694169020861
 31
0.0
210
0.0
220
0.0
230
1.0
 40
0.8462106981
 41
0.3453420738527589
 42
1.916138400646974
  0
ELLIPSE
  5
15B
330
95
100
AcDbEntity
  8
$DDT_AUDIT_GENERATED_(F4)
  6
Continuous
 62
     7
100
AcDbEllipse
 10
161.7808187145
 20
1056.8759724488
 30
0.0
 11
-0.004080298383263466
 21
0.1252587504957936
 31
0.0
210
0.0
220
0.0
230
0.9999999999999998
 40
0.2224329296
 41
1.425381578712509
 42
2.996177905517609
  0
ELLIPSE
  5
15C
330
95
100
AcDbEntity
  8
$DDT_AUDIT_GENERATED_(F4)
  6
Continuous
 62
     7
100
AcDbEllipse
 10
160.988088685
 20
1056.908766951
 30
0.0
 11
-0.03673560541108539
 21
-0.1206694169020306
 31
0.0
210
0.0
220
0.0
230
1.0
 40
0.8462106981
 41
0.3453420738429045
 42
1.916138400645579
  0
ELLIPSE
  5
15D
330
95
100
AcDbEntity
  8
$DDT_AUDIT_GENERATED_(F4)
  6
Continuous
 62
     7
100
AcDbEllipse
 10
171.4330234883
 20
1056.8498980085
 30
0.0
 11
-0.03673560541111922
 21
-0.1206694169020306
 31
0.0
210
0.0
220
0.0
230
1.0
 40
0.8462106981
 41
0.3453420738521164
 42
1.91613840064774
  0
ELLIPSE
  5
15E
330
95
100
AcDbEntity
  8
$DDT_AUDIT_GENERATED_(F4)
  6
Continuous
 62
     7
100
AcDbEllipse
 10
169.544797607
 20
1056.6480909488
 30
0.0
 11
-0.0367356054110199
 21
-0.1206694169020861
 31
0.0
210
0.0
220
0.0
230
0.9999999999999997
 40
0.8462106981
 41
0.3453420738522922
 42
1.916138400646716
  0
ELLIPSE
  5
15F
330
95
100
AcDbEntity
  8
$DDT_AUDIT_GENERATED_(F4)
  6
Continuous
 62
     7
100
AcDbEllipse
 10
167.959337548
 20
1056.7136799532
 30
0.0
 11
-0.004080298383258262
 21
0.1252587504957381
 31
0.0
210
0.0
220
0.0
230
0.9999999999999997
 40
0.2224329296
 41
1.425381578710617
 42
2.996177905520804
  0
ELLIPSE
  5
160
330
95
100
AcDbEntity
  8
$DDT_AUDIT_GENERATED_(F4)
  6
Continuous
 62
     7
100
AcDbEllipse
 10
167.1666075185
 20
1056.7464744554
 30
0.0
 11
-0.03673560541119371
 21
-0.1206694169019751
 31
0.0
210
0.0
220
0.0
230
0.9999999999999999
 40
0.8462106981
 41
0.3453420738516221
 42
1.916138400646375
  0
ELLIPSE
  5
161
330
95
100
AcDbEntity
  8
$DDT_AUDIT_GENERATED_(F4)
  6
Continuous
 62
     7
100
AcDbEllipse
 10
164.7884174301
 20
1056.8448579621
 30
0.0
 11
-0.1339551121816642
 21
0.03018132116311412
 31
0.0
210
0.0
220
0.0
230
0.9999999999999998
 40
0.8993612452
 41
1.208985961282411
 42
1.770723652563237
  0
ELLIPSE
  5
162
330
95
100
AcDbEntity
  8
$DDT_AUDIT_GENERATED_(F4)
  6
Continuous
 62
     7
100
AcDbEllipse
 10
162.4102273416
 20
1056.9432414687
 30
0.0
 11
-0.1339551121816648
 21
0.03018132116311412
 31
0.0
210
0.0
220
0.0
230
0.9999999999999998
 40
0.8993612452
 41
1.20898596128198
 42
1.770723652563235
  0
ELLIPSE
  5
163
330
95
100
AcDbEntity
  8
$DDT_AUDIT_GENERATED_(F4)
  6
Continuous
 62
     7
100
AcDbEllipse
 10
171.4330234883
 20
1056.8498980085
 30
0.0
 11
-0.133955112181677
 21
0.03018132116305861
 31
0.0
210
0.0
220
0.0
230
1.0
 40
0.8993612452
 41
1.208985961281218
 42
1.770723652562864
  0
ELLIPSE
  5
164
330
95
100
AcDbEntity
  8
$DDT_AUDIT_GENERATED_(F4)
  6
Continuous
 62
     7
100
AcDbEllipse
 10
170.8036148612
 20
1056.7826289886
 30
0.0
 11
0.004080298383258262
 21
-0.1252587504957936
 31
0.0
210
0.0
220
0.0
230
1.0
 40
0.2224329296
 41
4.566974232302318
 42
6.137770559094295
  0
ELLIPSE
  5
165
330
95
100
AcDbEntity
  8
$DDT_AUDIT_GENERATED_(F4)
  6
Continuous
 62
     7
100
AcDbEllipse
 10
168.5887461751
 20
1056.7809489731
 30
0.0
 11
-0.1339551121816752
 21
0.03018132116305861
 31
0.0
210
0.0
220
0.0
230
0.9999999999999999
 40
0.8993612452
 41
1.208985961281605
 42
1.770723652562869
  0
ELLIPSE
  5
166
330
95
100
AcDbEntity
  8
$DDT_AUDIT_GENERATED_(F4)
  6
Continuous
 62
     7
100
AcDbEllipse
 10
165.5811474596
 20
1056.8120634599
 30
0.0
 11
-0.004080298383267587
 21
0.1252587504957381
 31
0.0
210
0.0
220
0.0
230
1.0
 40
0.2224329296
 41
1.425381578712434
 42
2.996177905507646
  0
ELLIPSE
  5
167
330
95
100
AcDbEntity
  8
$DDT_AUDIT_GENERATED_(F4)
  6
Continuous
 62
     7
100
AcDbEllipse
 10
164.7884174301
 20
1056.8448579621
 30
0.0
 11
-0.03673560541102034
 21
-0.1206694169020861
 31
0.0
210
0.0
220
0.0
230
1.0
 40
0.8462106981
 41
0.3453420738522971
 42
1.916138400646788
  0
ELLIPSE
  5
168
330
95
100
AcDbEntity
  8
$DDT_AUDIT_GENERATED_(F4)
  6
Continuous
 62
     7
100
AcDbEllipse
 10
163.2029573711
 20
1056.9104469665
 30
0.0
 11
-0.004080298383264334
 21
0.1252587504957381
 31
0.0
210
0.0
220
0.0
230
0.9999999999999998
 40
0.2224329296
 41
1.425381578712439
 42
2.996177905507658
  0
ELLIPSE
  5
169
330
95
100
AcDbEntity
  8
$DDT_AUDIT_GENERATED_(F4)
  6
Continuous
 62
     7
100
AcDbEllipse
 10
162.4102273416
 20
1056.9432414687
 30
0.0
 11
-0.03673560541106458
 21
-0.1206694169020861
 31
0.0
210
0.0
220
0.0
230
1.0
 40
0.8462106981
 41
0.3453420738487393
 42
1.916138400647105
  0
ELLIPSE
  5
16A
330
95
100
AcDbEntity
  8
$DDT_AUDIT_GENERATED_(F4)
  6
Continuous
 62
     7
100
AcDbEllipse
 10
160.8247672826
 20
1057.0088304732
 30
0.0
 11
-0.00408029838325913
 21
0.1252587504957936
 31
0.0
210
0.0
220
0.0
230
1.0
 40
0.2224329296
 41
1.425381578712516
 42
2.996177905504499
  0
ELLIPSE
  5
16B
330
95
100
AcDbEntity
  8
$DDT_AUDIT_GENERATED_(F4)
  6
Continuous
 62
     7
100
AcDbEllipse
 10
170.0108848317
 20
1056.8154234908
 30
0.0
 11
-0.03673560541108497
 21
-0.1206694169020306
 31
0.0
210
0.0
220
0.0
230
1.0
 40
0.8462106981
 41
0.3453420738427058
 42
1.916138400643744
  0
ELLIPSE
  5
16C
330
95
100
AcDbEntity
  8
$DDT_AUDIT_GENERATED_(F4)
  6
Continuous
 62
     7
100
AcDbEllipse
 10
169.3814762046
 20
1056.7481544709
 30
0.0
 11
-0.004080298383258696
 21
0.1252587504957381
 31
0.0
210
0.0
220
0.0
230
0.9999999999999999
 40
0.2224329296
 41
1.425381578712449
 42
2.9961779054945
  0
ELLIPSE
  5
16D
330
95
100
AcDbEntity
  8
$DDT_AUDIT_GENERATED_(F4)
  6
Continuous
 62
     7
100
AcDbEllipse
 10
168.5887461751
 20
1056.7809489731
 30
0.0
 11
-0.03673560541104116
 21
-0.1206694169020861
 31
0.0
210
0.0
220
0.0
230
1.0
 40
0.8462106981
 41
0.3453420738527589
 42
1.916138400645142
  0
ELLIPSE
  5
16E
330
95
100
AcDbEntity
  8
$DDT_AUDIT_GENERATED_(F4)
  6
Continuous
 62
     7
100
AcDbEllipse
 10
167.0032861161
 20
1056.8465379776
 30
0.0
 11
-0.004080298383263792
 21
0.1252587504957381
 31
0.0
210
0.0
220
0.0
230
1.0
 40
0.2224329296
 41
1.42538157871244
 42
2.996177905507658
  0
ELLIPSE
  5
16F
330
95
100
AcDbEntity
  8
$DDT_AUDIT_GENERATED_(F4)
  6
Continuous
 62
     7
100
AcDbEllipse
 10
166.2105560866
 20
1056.8793324798
 30
0.0
 11
-0.03673560541104148
 21
-0.1206694169020861
 31
0.0
210
0.0
220
0.0
230
0.9999999999999999
 40
0.8462106981
 41
0.3453420738527625
 42
1.916138400645144
  0
ELLIPSE
  5
170
330
95
100
AcDbEntity
  8
$DDT_AUDIT_GENERATED_(F4)
  6
Continuous
 62
     7
100
AcDbEllipse
 10
166.2105560866
 20
1056.8793324798
 30
0.0
 11
-0.133955112181661
 21
0.03018132116311412
 31
0.0
210
0.0
220
0.0
230
0.9999999999999999
 40
0.8993612452
 41
1.208985961282191
 42
1.770723652563865
  0
ELLIPSE
  5
171
330
95
100
AcDbEntity
  8
$DDT_AUDIT_GENERATED_(F4)
  6
Continuous
 62
     7
100
AcDbEllipse
 10
163.8323659982
 20
1056.9777159864
 30
0.0
 11
-0.1339551121816596
 21
0.03018132116316963
 31
0.0
210
0.0
220
0.0
230
1.0
 40
0.8993612452
 41
1.208985961282578
 42
1.770723652563587
  0
ELLIPSE
  5
172
330
95
100
AcDbEntity
  8
$DDT_AUDIT_GENERATED_(F4)
  6
Continuous
 62
     7
100
AcDbEllipse
 10
161.4541759097
 20
1057.0760994931
 30
0.0
 11
-0.1339551121816588
 21
0.03018132116316963
 31
0.0
210
0.0
220
0.0
230
1.0
 40
0.8993612452
 41
1.208985961282187
 42
1.770723652563589
  0
ELLIPSE
  5
173
330
95
100
AcDbEntity
  8
$DDT_AUDIT_GENERATED_(F4)
  6
Continuous
 62
     7
100
AcDbEllipse
 10
171.899110713
 20
1057.0172305506
 30
0.0
 11
-0.03673560541121808
 21
-0.1206694169019751
 31
0.0
210
0.0
220
0.0
230
0.9999999999999999
 40
0.8462106981
 41
0.345342073851937
 42
1.916138400648413
  0
ELLIPSE
  5
174
330
95
100
AcDbEntity
  8
$DDT_AUDIT_GENERATED_(F4)
  6
Continuous
 62
     7
100
AcDbEllipse
 10
171.899110713
 20
1057.0172305506
 30
0.0
 11
-0.1339551121816752
 21
0.03018132116305861
 31
0.0
210
0.0
220
0.0
230
0.9999999999999999
 40
0.8993612452
 41
1.208985961281863
 42
1.770723652563281
  0
ELLIPSE
  5
175
330
95
100
AcDbEntity
  8
$DDT_AUDIT_GENERATED_(F4)
  6
Continuous
 62
     7
100
AcDbEllipse
 10
171.2697020859
 20
1056.9499615307
 30
0.0
 11
0.004080298383271273
 21
-0.1252587504957381
 31
0.0
210
0.0
220
0.0
230
0.9999999999999998
 40
0.2224329296
 41
4.566974232298555
 42
6.137770559084301
  0
ELLIPSE
  5
176
330
95
100
AcDbEntity
  8
$DDT_AUDIT_GENERATED_(F4)
  6
Continuous
 62
     7
100
AcDbEllipse
 10
170.0108848317
 20
1056.8154234908
 30
0.0
 11
-0.1339551121816623
 21
0.03018132116311412
 31
0.0
210
0.0
220
0.0
230
0.9999999999999998
 40
0.8993612452
 41
1.208985961281977
 42
1.770723652563449
  0
ELLIPSE
  5
177
330
95
100
AcDbEntity
  8
$DDT_AUDIT_GENERATED_(F4)
  6
Continuous
 62
     7
100
AcDbEllipse
 10
167.6326947432
 20
1056.9138069975
 30
0.0
 11
-0.1339551121816607
 21
0.03018132116311411
 31
0.0
210
0.0
220
0.0
230
0.9999999999999998
 40
0.8993612452
 41
1.208985961282234
 42
1.770723652563453
  0
ELLIPSE
  5
178
330
95
100
AcDbEntity
  8
$DDT_AUDIT_GENERATED_(F4)
  6
Continuous
 62
     7
100
AcDbEllipse
 10
164.6250960277
 20
1056.9449214842
 30
0.0
 11
-0.004080298383258262
 21
0.1252587504957381
 31
0.0
210
0.0
220
0.0
230
0.9999999999999997
 40
0.2224329296
 41
1.42538157871245
 42
2.99617790550768
  0
ELLIPSE
  5
179
330
95
100
AcDbEntity
  8
$DDT_AUDIT_GENERATED_(F4)
  6
Continuous
 62
     7
100
AcDbEllipse
 10
163.8323659982
 20
1056.9777159864
 30
0.0
 11
-0.0367356054110199
 21
-0.1206694169020861
 31
0.0
210
0.0
220
0.0
230
0.9999999999999997
 40
0.8462106981
 41
0.3453420738488029
 42
1.916138400645023
  0
ELLIPSE
  5
17A
330
95
100
AcDbEntity
  8
$DDT_AUDIT_GENERATED_(F4)
  6
Continuous
 62
     7
100
AcDbEllipse
 10
162.2469059392
 20
1057.0433049909
 30
0.0
 11
-0.004080298383269538
 21
0.1252587504957381
 31
0.0
210
0.0
220
0.0
230
0.9999999999999999
 40
0.2224329296
 41
1.425381578712438
 42
2.996177905520816
  0
ELLIPSE
  5
17B
330
95
100
AcDbEntity
  8
$DDT_AUDIT_GENERATED_(F4)
  6
Continuous
 62
     7
100
AcDbEllipse
 10
161.4541759097
 20
1057.0760994931
 30
0.0
 11
-0.03673560541104116
 21
-0.1206694169020861
 31
0.0
210
0.0
220
0.0
230
1.0
 40
0.8462106981
 41
0.3453420738527589
 42
1.916138400646974
  0
ELLIPSE
  5
17C
330
95
100
AcDbEntity
  8
$DDT_AUDIT_GENERATED_(F4)
  6
Continuous
 62
     7
100
AcDbEllipse
 10
170.4769720564
 20
1056.9827560329
 30
0.0
 11
-0.03673560541111922
 21
-0.1206694169020306
 31
0.0
210
0.0
220
0.0
230
1.0
 40
0.8462106981
 41
0.3453420738521164
 42
1.916138400647601
  0
ELLIPSE
  5
17D
330
95
100
AcDbEntity
  8
$DDT_AUDIT_GENERATED_(F4)
  6
Continuous
 62
     7
100
AcDbEllipse
 10
166.0472346842
 20
1056.9793960019
 30
0.0
 11
0.0040802983832639
 21
-0.1252587504957381
 31
0.0
210
0.0
220
0.0
230
1.0
 40
0.2224329296
 41
4.5669742323004
 42
6.137770559097451
  0
ELLIPSE
  5
17E
330
95
100
AcDbEntity
  8
$DDT_AUDIT_GENERATED_(F4)
  6
Continuous
 62
     7
100
AcDbEllipse
 10
165.2545046547
 20
1057.0121905041
 30
0.0
 11
-0.1339551121816754
 21
0.0301813211630586
 31
0.0
210
0.0
220
0.0
230
1.0
 40
0.8993612452
 41
1.208985961281216
 42
1.770723652562868
  0
ELLIPSE
  5
17F
330
95
100
AcDbEntity
  8
$DDT_AUDIT_GENERATED_(F4)
  6
Continuous
 62
     7
100
AcDbEllipse
 10
162.8763145663
 20
1057.1105740108
 30
0.0
 11
-0.1339551121816605
 21
0.03018132116311412
 31
0.0
210
0.0
220
0.0
230
0.9999999999999999
 40
0.8993612452
 41
1.20898596128137
 42
1.77072365256366
  0
ELLIPSE
  5
180
330
95
100
AcDbEntity
  8
$DDT_AUDIT_GENERATED_(F4)
  6
Continuous
 62
     7
100
AcDbEllipse
 10
171.7357893106
 20
1057.1172940727
 30
0.0
 11
0.004080298383260864
 21
-0.1252587504957936
 31
0.0
210
0.0
220
0.0
230
1.0
 40
0.2224329296
 41
4.566974232300466
 42
6.137770559094286
  0
ELLIPSE
  5
181
330
95
100
AcDbEntity
  8
$DDT_AUDIT_GENERATED_(F4)
  6
Continuous
 62
     7
100
AcDbEllipse
 10
170.4769720564
 20
1056.9827560329
 30
0.0
 11
-0.1339551121816692
 21
0.03018132116311412
 31
0.0
210
0.0
220
0.0
230
1.0
 40
0.8993612452
 41
1.208985961281596
 42
1.770723652563429
  0
ELLIPSE
  5
182
330
95
100
AcDbEntity
  8
$DDT_AUDIT_GENERATED_(F4)
  6
Continuous
 62
     7
100
AcDbEllipse
 10
169.8475634293
 20
1056.915487013
 30
0.0
 11
0.004080298383270839
 21
-0.1252587504957381
 31
0.0
210
0.0
220
0.0
230
1.0
 40
0.2224329296
 41
4.566974232300388
 42
6.137770559097376
  0
ELLIPSE
  5
183
330
95
100
AcDbEntity
  8
$DDT_AUDIT_GENERATED_(F4)
  6
Continuous
 62
     7
100
AcDbEllipse
 10
166.6766433113
 20
1057.0466650218
 30
0.0
 11
-0.1339551121816623
 21
0.03018132116311412
 31
0.0
210
0.0
220
0.0
230
0.9999999999999998
 40
0.8993612452
 41
1.208985961281803
 42
1.770723652563449
  0
ELLIPSE
  5
184
330
95
100
AcDbEntity
  8
$DDT_AUDIT_GENERATED_(F4)
  6
Continuous
 62
     7
100
AcDbEllipse
 10
165.2545046547
 20
1057.0121905041
 30
0.0
 11
-0.03673560541107519
 21
-0.1206694169020306
 31
0.0
210
0.0
220
0.0
230
1.0
 40
0.8462106981
 41
0.3453420738513571
 42
1.916138400649188
  0
ELLIPSE
  5
185
330
95
100
AcDbEntity
  8
$DDT_AUDIT_GENERATED_(F4)
  6
Continuous
 62
     7
100
AcDbEllipse
 10
161.2908545073
 20
1057.1761630152
 30
0.0
 11
-0.004080298383260864
 21
0.1252587504957381
 31
0.0
210
0.0
220
0.0
230
0.9999999999999999
 40
0.2224329296
 41
1.425381578710613
 42
2.99617790550767
  0
ELLIPSE
  5
186
330
95
100
AcDbEntity
  8
$DDT_AUDIT_GENERATED_(F4)
  6
Continuous
 62
     7
100
AcDbEllipse
 10
170.9430592811
 20
1057.1500885749
 30
0.0
 11
-0.03673560541108539
 21
-0.1206694169020306
 31
0.0
210
0.0
220
0.0
230
1.0
 40
0.8462106981
 41
0.345342073851488
 42
1.916138400647342
  0
ELLIPSE
  5
187
330
95
100
AcDbEntity
  8
$DDT_AUDIT_GENERATED_(F4)
  6
Continuous
 62
     7
100
AcDbEllipse
 10
169.0548333998
 20
1056.9482815152
 30
0.0
 11
-0.03673560541110794
 21
-0.1206694169020306
 31
0.0
210
0.0
220
0.0
230
0.9999999999999999
 40
0.8462106981
 41
0.3453420738519721
 42
1.916138400647538
  0
ELLIPSE
  5
188
330
95
100
AcDbEntity
  8
$DDT_AUDIT_GENERATED_(F4)
  6
Continuous
 62
     7
100
AcDbEllipse
 10
167.4693733408
 20
1057.0138705196
 30
0.0
 11
-0.00408029838326737
 21
0.1252587504957381
 31
0.0
210
0.0
220
0.0
230
1.0
 40
0.2224329296
 41
1.425381578710601
 42
2.996177905507595
  0
ELLIPSE
  5
189
330
95
100
AcDbEntity
  8
$DDT_AUDIT_GENERATED_(F4)
  6
Continuous
 62
     7
100
AcDbEllipse
 10
166.6766433113
 20
1057.0466650218
 30
0.0
 11
-0.03673560541104143
 21
-0.1206694169020861
 31
0.0
210
0.0
220
0.0
230
1.0
 40
0.8462106981
 41
0.3453420738439839
 42
1.916138400645143
  0
ELLIPSE
  5
18A
330
95
100
AcDbEntity
  8
$DDT_AUDIT_GENERATED_(F4)
  6
Continuous
 62
     7
100
AcDbEllipse
 10
161.9202631344
 20
1057.2434320351
 30
0.0
 11
-0.1339551121816744
 21
0.03018132116305861
 31
0.0
210
0.0
220
0.0
230
1.0
 40
0.8993612452
 41
1.208985961281819
 42
1.770723652562665
  0
ELLIPSE
  5
18B
330
95
100
AcDbEntity
  8
$DDT_AUDIT_GENERATED_(F4)
  6
Continuous
 62
     7
100
AcDbEllipse
 10
170.9430592811
 20
1057.1500885749
 30
0.0
 11
-0.1339551121816657
 21
0.03018132116311412
 31
0.0
210
0.0
220
0.0
230
1.0
 40
0.8993612452
 41
1.208985961282197
 42
1.770723652563233
  0
ELLIPSE
  5
18C
330
95
100
AcDbEntity
  8
$DDT_AUDIT_GENERATED_(F4)
  6
Continuous
 62
     7
100
AcDbEllipse
 10
170.313650654
 20
1057.082819555
 30
0.0
 11
0.004080298383260864
 21
-0.1252587504957381
 31
0.0
210
0.0
220
0.0
230
0.9999999999999999
 40
0.2224329296
 41
4.566974232300406
 42
6.137770559097463
  0
ELLIPSE
  5
18D
330
95
100
AcDbEntity
  8
$DDT_AUDIT_GENERATED_(F4)
  6
Continuous
 62
     7
100
AcDbEllipse
 10
168.0987819679
 20
1057.0811395395
 30
0.0
 11
-0.1339551121816646
 21
0.03018132116311412
 31
0.0
210
0.0
220
0.0
230
1.0
 40
0.8993612452
 41
1.208985961281591
 42
1.770723652563236
  0
ELLIPSE
  5
18E
330
95
100
AcDbEntity
  8
$DDT_AUDIT_GENERATED_(F4)
  6
Continuous
 62
     7
100
AcDbEllipse
 10
165.0911832523
 20
1057.1122540263
 30
0.0
 11
-0.0040802983832639
 21
0.1252587504957381
 31
0.0
210
0.0
220
0.0
230
1.0
 40
0.2224329296
 41
1.425381578710607
 42
2.996177905507658
  0
ELLIPSE
  5
18F
330
95
100
AcDbEntity
  8
$DDT_AUDIT_GENERATED_(F4)
  6
Continuous
 62
     7
100
AcDbEllipse
 10
164.2984532229
 20
1057.1450485285
 30
0.0
 11
-0.03673560541104116
 21
-0.1206694169020861
 31
0.0
210
0.0
220
0.0
230
1.0
 40
0.8462106981
 41
0.3453420738527589
 42
1.916138400646974
  0
ELLIPSE
  5
190
330
95
100
AcDbEntity
  8
$DDT_AUDIT_GENERATED_(F4)
  6
Continuous
 62
     7
100
AcDbEllipse
 10
162.7129931639
 20
1057.2106375329
 30
0.0
 11
-0.00408029838326737
 21
0.1252587504957381
 31
0.0
210
0.0
220
0.0
230
1.0
 40
0.2224329296
 41
1.425381578710601
 42
2.996177905507646
  0
ELLIPSE
  5
191
330
95
100
AcDbEntity
  8
$DDT_AUDIT_GENERATED_(F4)
  6
Continuous
 62
     7
100
AcDbEllipse
 10
161.9202631344
 20
1057.2434320351
 30
0.0
 11
-0.03673560541116346
 21
-0.1206694169019751
 31
0.0
210
0.0
220
0.0
230
0.9999999999999999
 40
0.8462106981
 41
0.3453420738594307
 42
1.916138400648038
  0
ELLIPSE
  5
192
330
95
100
AcDbEntity
  8
$DDT_AUDIT_GENERATED_(F4)
  6
Continuous
 62
     7
100
AcDbEllipse
 10
169.5209206245
 20
1057.1156140572
 30
0.0
 11
-0.03673560541105417
 21
-0.1206694169020306
 31
0.0
210
0.0
220
0.0
230
1.0
 40
0.8462106981
 41
0.3453420738516697
 42
1.916138400647237
  0
ELLIPSE
  5
193
330
95
100
AcDbEntity
  8
$DDT_AUDIT_GENERATED_(F4)
  6
Continuous
 62
     7
100
AcDbEllipse
 10
168.8915119974
 20
1057.0483450373
 30
0.0
 11
-0.004080298383258696
 21
0.1252587504957936
 31
0.0
210
0.0
220
0.0
230
1.0
 40
0.2224329296
 41
1.425381578710692
 42
2.996177905504553
  0
ELLIPSE
  5
194
330
95
100
AcDbEntity
  8
$DDT_AUDIT_GENERATED_(F4)
  6
Continuous
 62
     7
100
AcDbEllipse
 10
168.0987819679
 20
1057.0811395395
 30
0.0
 11
-0.03673560541104137
 21
-0.1206694169020861
 31
0.0
210
0.0
220
0.0
230
0.9999999999999997
 40
0.8462106981
 41
0.3453420738525673
 42
1.916138400646906
  0
ELLIPSE
  5
195
330
95
100
AcDbEntity
  8
$DDT_AUDIT_GENERATED_(F4)
  6
Continuous
 62
     7
100
AcDbEllipse
 10
165.7205918794
 20
1057.1795230462
 30
0.0
 11
-0.1339551121816645
 21
0.03018132116311412
 31
0.0
210
0.0
220
0.0
230
1.0
 40
0.8993612452
 41
1.20898596128198
 42
1.770723652563236
  0
ELLIPSE
  5
196
330
95
100
AcDbEntity
  8
$DDT_AUDIT_GENERATED_(F4)
  6
Continuous
 62
     7
100
AcDbEllipse
 10
163.342401791
 20
1057.2779065528
 30
0.0
 11
-0.1339551121816635
 21
0.03018132116311412
 31
0.0
210
0.0
220
0.0
230
0.9999999999999999
 40
0.8993612452
 41
1.20898596128241
 42
1.770723652563651
  0
ELLIPSE
  5
197
330
95
100
AcDbEntity
  8
$DDT_AUDIT_GENERATED_(F4)
  6
Continuous
 62
     7
100
AcDbEllipse
 10
170.7797378787
 20
1057.2501520971
 30
0.0
 11
0.004080298383267803
 21
-0.1252587504957381
 31
0.0
210
0.0
220
0.0
230
0.9999999999999999
 40
0.2224329296
 41
4.566974232300393
 42
6.137770559097439
  0
ELLIPSE
  5
198
330
95
100
AcDbEntity
  8
$DDT_AUDIT_GENERATED_(F4)
  6
Continuous
 62
     7
100
AcDbEllipse
 10
169.5209206245
 20
1057.1156140572
 30
0.0
 11
-0.1339551121816701
 21
0.03018132116311412
 31
0.0
210
0.0
220
0.0
230
0.9999999999999999
 40
0.8993612452
 41
1.208985961282202
 42
1.770723652563426
  0
ELLIPSE
  5
199
330
95
100
AcDbEntity
  8
$DDT_AUDIT_GENERATED_(F4)
  6
Continuous
 62
     7
100
AcDbEllipse
 10
164.1351318205
 20
1057.2451120506
 30
0.0
 11
-0.004080298383261732
 21
0.1252587504957381
 31
0.0
210
0.0
220
0.0
230
0.9999999999999999
 40
0.2224329296
 41
1.425381578708778
 42
2.996177905507616
  0
ELLIPSE
  5
19A
330
95
100
AcDbEntity
  8
$DDT_AUDIT_GENERATED_(F4)
  6
Continuous
 62
     7
100
AcDbEllipse
 10
163.342401791
 20
1057.2779065528
 30
0.0
 11
-0.03673560541107498
 21
-0.1206694169020306
 31
0.0
210
0.0
220
0.0
230
1.0
 40
0.8462106981
 41
0.3453420738425772
 42
1.916138400645521
  0
ELLIPSE
  5
19B
330
95
100
AcDbEntity
  8
$DDT_AUDIT_GENERATED_(F4)
  6
Continuous
 62
     7
100
AcDbEllipse
 10
161.756941732
 20
1057.3434955572
 30
0.0
 11
-0.004080298383266069
 21
0.1252587504957381
 31
0.0
210
0.0
220
0.0
230
0.9999999999999999
 40
0.2224329296
 41
2.385134525449064
 42
2.996177905494476
  0
ELLIPSE
  5
19C
330
95
100
AcDbEntity
  8
$DDT_AUDIT_GENERATED_(F4)
  6
Continuous
 62
     7
100
AcDbEllipse
 10
169.9870078492
 20
1057.2829465993
 30
0.0
 11
-0.03673560541104203
 21
-0.1206694169020861
 31
0.0
210
0.0
220
0.0
230
0.9999999999999998
 40
0.8462106981
 41
0.3453420738525759
 42
1.91613840064691
  0
ELLIPSE
  5
19D
330
95
100
AcDbEntity
  8
$DDT_AUDIT_GENERATED_(F4)
  6
Continuous
 62
     7
100
AcDbEllipse
 10
167.9354605655
 20
1057.1812030617
 30
0.0
 11
-0.004080298383258262
 21
0.1252587504957381
 31
0.0
210
0.0
220
0.0
230
0.9999999999999997
 40
0.2224329296
 41
1.425381578710617
 42
2.99617790550768
  0
ELLIPSE
  5
19E
330
95
100
AcDbEntity
  8
$DDT_AUDIT_GENERATED_(F4)
  6
Continuous
 62
     7
100
AcDbEllipse
 10
167.142730536
 20
1057.2139975639
 30
0.0
 11
-0.03673560541110871
 21
-0.1206694169020306
 31
0.0
210
0.0
220
0.0
230
1.0
 40
0.8462106981
 41
0.3453420738517881
 42
1.916138400647542
  0
ELLIPSE
  5
19F
330
95
100
AcDbEntity
  8
$DDT_AUDIT_GENERATED_(F4)
  6
Continuous
 62
     7
100
AcDbEllipse
 10
164.7645404475
 20
1057.3123810705
 30
0.0
 11
-0.1339551121816668
 21
0.03018132116311412
 31
0.0
210
0.0
220
0.0
230
1.0
 40
0.8993612452
 41
1.208985961281982
 42
1.77072365256323
  0
ELLIPSE
  5
1A0
330
95
100
AcDbEntity
  8
$DDT_AUDIT_GENERATED_(F4)
  6
Continuous
 62
     7
100
AcDbEllipse
 10
162.3863503591
 20
1057.4107645771
 30
0.0
 11
-0.1339551121816752
 21
0.03018132116305861
 31
0.0
210
0.0
220
0.0
230
1.0
 40
0.8993612452
 41
1.208985961281821
 42
1.770723652563281
  0
ELLIPSE
  5
1A1
330
95
100
AcDbEntity
  8
$DDT_AUDIT_GENERATED_(F4)
  6
Continuous
 62
     7
100
AcDbEllipse
 10
169.9870078492
 20
1057.2829465993
 30
0.0
 11
-0.1339551121816618
 21
0.03018132116311412
 31
0.0
210
0.0
220
0.0
230
0.9999999999999999
 40
0.8993612452
 41
1.208985961282192
 42
1.77072365256345
  0
ELLIPSE
  5
1A2
330
95
100
AcDbEntity
  8
$DDT_AUDIT_GENERATED_(F4)
  6
Continuous
 62
     7
100
AcDbEllipse
 10
169.3575992221
 20
1057.2156775794
 30
0.0
 11
0.004080298383258262
 21
-0.1252587504957381
 31
0.0
210
0.0
220
0.0
230
0.9999999999999997
 40
0.2224329296
 41
4.566974232300403
 42
6.137770559097473
  0
ELLIPSE
  5
1A3
330
95
100
AcDbEntity
  8
$DDT_AUDIT_GENERATED_(F4)
  6
Continuous
 62
     7
100
AcDbEllipse
 10
168.5648691926
 20
1057.2484720816
 30
0.0
 11
-0.1339551121816752
 21
0.03018132116305861
 31
0.0
210
0.0
220
0.0
230
0.9999999999999999
 40
0.8993612452
 41
1.208985961281821
 42
1.770723652563281
  0
ELLIPSE
  5
1A4
330
95
100
AcDbEntity
  8
$DDT_AUDIT_GENERATED_(F4)
  6
Continuous
 62
     7
100
AcDbEllipse
 10
165.557270477
 20
1057.2795865683
 30
0.0
 11
-0.004080298383258262
 21
0.1252587504957936
 31
0.0
210
0.0
220
0.0
230
1.0
 40
0.2224329296
 41
1.425381578710693
 42
2.996177905504502
  0
ELLIPSE
  5
1A5
330
95
100
AcDbEntity
  8
$DDT_AUDIT_GENERATED_(F4)
  6
Continuous
 62
     7
100
AcDbEllipse
 10
164.7645404475
 20
1057.3123810705
 30
0.0
 11
-0.0367356054111086
 21
-0.1206694169020306
 31
0.0
210
0.0
220
0.0
230
1.0
 40
0.8462106981
 41
0.3453420738517868
 42
1.916138400647472
  0
ELLIPSE
  5
1A6
330
95
100
AcDbEntity
  8
$DDT_AUDIT_GENERATED_(F4)
  6
Continuous
 62
     7
100
AcDbEllipse
 10
163.1790803886
 20
1057.3779700749
 30
0.0
 11
-0.004080298383258262
 21
0.1252587504957936
 31
0.0
210
0.0
220
0.0
230
1.0
 40
0.2224329296
 41
1.425381578710693
 42
2.996177905517628
  0
ELLIPSE
  5
1A7
330
95
100
AcDbEntity
  8
$DDT_AUDIT_GENERATED_(F4)
  6
Continuous
 62
     7
100
AcDbEllipse
 10
162.3863503591
 20
1057.4107645771
 30
0.0
 11
-0.03673560541101947
 21
-0.1206694169020861
 31
0.0
210
0.0
220
0.0
230
1.0
 40
0.8462106981
 41
0.3453420738522863
 42
1.071750874697187
  0
ELLIPSE
  5
1A8
330
95
100
AcDbEntity
  8
$DDT_AUDIT_GENERATED_(F4)
  6
Continuous
 62
     7
100
AcDbEllipse
 10
168.5648691926
 20
1057.2484720816
 30
0.0
 11
-0.03673560541106544
 21
-0.1206694169020861
 31
0.0
210
0.0
220
0.0
230
1.0
 40
0.8462106981
 41
0.3453420738499676
 42
1.916138400645278
  0
ELLIPSE
  5
1A9
330
95
100
AcDbEntity
  8
$DDT_AUDIT_GENERATED_(F4)
  6
Continuous
 62
     7
100
AcDbEllipse
 10
166.9794091336
 20
1057.314061086
 30
0.0
 11
0.0040802983832639
 21
-0.1252587504957381
 31
0.0
210
0.0
220
0.0
230
1.0
 40
0.2224329296
 41
4.5669742323004
 42
6.1377705590974
  0
ELLIPSE
  5
1AA
330
95
100
AcDbEntity
  8
$DDT_AUDIT_GENERATED_(F4)
  6
Continuous
 62
     7
100
AcDbEllipse
 10
166.1866791041
 20
1057.3468555882
 30
0.0
 11
-0.133955112181661
 21
0.03018132116311412
 31
0.0
210
0.0
220
0.0
230
0.9999999999999999
 40
0.8993612452
 41
1.208985961281759
 42
1.770723652563246
  0
ELLIPSE
  5
1AB
330
95
100
AcDbEntity
  8
$DDT_AUDIT_GENERATED_(F4)
  6
Continuous
 62
     7
100
AcDbEllipse
 10
163.8084890156
 20
1057.4452390948
 30
0.0
 11
-0.1339551121816705
 21
0.03018132116311412
 31
0.0
210
0.0
220
0.0
230
1.0
 40
0.8993612452
 41
1.208985961281987
 42
1.770723652563013
  0
ELLIPSE
  5
1AC
330
95
100
AcDbEntity
  8
$DDT_AUDIT_GENERATED_(F4)
  6
Continuous
 62
     7
100
AcDbEllipse
 10
169.8236864468
 20
1057.3830101214
 30
0.0
 11
0.004080298383271273
 21
-0.1252587504957381
 31
0.0
210
0.0
220
0.0
230
0.9999999999999998
 40
0.2224329296
 41
4.873573480187581
 42
6.137770559097428
  0
ELLIPSE
  5
1AD
330
95
100
AcDbEntity
  8
$DDT_AUDIT_GENERATED_(F4)
  6
Continuous
 62
     7
100
AcDbEllipse
 10
167.6088177607
 20
1057.3813301059
 30
0.0
 11
-0.1339551121816607
 21
0.03018132116311411
 31
0.0
210
0.0
220
0.0
230
0.9999999999999998
 40
0.8993612452
 41
1.208985961281975
 42
1.770723652563453
  0
ELLIPSE
  5
1AE
330
95
100
AcDbEntity
  8
$DDT_AUDIT_GENERATED_(F4)
  6
Continuous
 62
     7
100
AcDbEllipse
 10
166.1866791041
 20
1057.3468555882
 30
0.0
 11
-0.03673560541110898
 21
-0.1206694169020306
 31
0.0
210
0.0
220
0.0
230
1.0
 40
0.8462106981
 41
0.3453420738517917
 42
1.916138400647544
  0
ELLIPSE
  5
1AF
330
95
100
AcDbEntity
  8
$DDT_AUDIT_GENERATED_(F4)
  6
Continuous
 62
     7
100
AcDbEllipse
 10
164.6012190451
 20
1057.4124445926
 30
0.0
 11
-0.004080298383260214
 21
0.1252587504957936
 31
0.0
210
0.0
220
0.0
230
0.9999999999999999
 40
0.2224329296
 41
1.425381578710682
 42
2.996177905504496
  0
ELLIPSE
  5
1B0
330
95
100
AcDbEntity
  8
$DDT_AUDIT_GENERATED_(F4)
  6
Continuous
 62
     7
100
AcDbEllipse
 10
163.8084890156
 20
1057.4452390948
 30
0.0
 11
-0.03673560541106415
 21
-0.1206694169020861
 31
0.0
210
0.0
220
0.0
230
1.0
 40
0.8462106981
 41
0.3453420738485406
 42
1.648242512120707
  0
ELLIPSE
  5
1B1
330
95
100
AcDbEntity
  8
$DDT_AUDIT_GENERATED_(F4)
  6
Continuous
 62
     7
100
AcDbEllipse
 10
169.0309564173
 20
1057.4158046236
 30
0.0
 11
-0.0367356054110199
 21
-0.1206694169020861
 31
0.0
210
0.0
220
0.0
230
0.9999999999999997
 40
0.8462106981
 41
0.3453420738435148
 42
1.91613840064319
  0
ELLIPSE
  5
1B2
330
95
100
AcDbEntity
  8
$DDT_AUDIT_GENERATED_(F4)
  6
Continuous
 62
     7
100
AcDbEllipse
 10
168.4015477902
 20
1057.3485356037
 30
0.0
 11
-0.004080298383258262
 21
0.1252587504957381
 31
0.0
210
0.0
220
0.0
230
0.9999999999999997
 40
0.2224329296
 41
1.425381578710617
 42
2.99617790550768
  0
ELLIPSE
  5
1B3
330
95
100
AcDbEntity
  8
$DDT_AUDIT_GENERATED_(F4)
  6
Continuous
 62
     7
100
AcDbEllipse
 10
167.6088177607
 20
1057.3813301059
 30
0.0
 11
-0.03673560541104137
 21
-0.1206694169020861
 31
0.0
210
0.0
220
0.0
230
0.9999999999999997
 40
0.8462106981
 41
0.3453420738527615
 42
1.916138400646906
  0
ELLIPSE
  5
1B4
330
95
100
AcDbEntity
  8
$DDT_AUDIT_GENERATED_(F4)
  6
Continuous
 62
     7
100
AcDbEllipse
 10
165.2306276722
 20
1057.4797136125
 30
0.0
 11
-0.1339551121816779
 21
0.03018132116305861
 31
0.0
210
0.0
220
0.0
230
0.9999999999999999
 40
0.8993612452
 41
1.20898596128204
 42
1.770723652563273
  0
ELLIPSE
  5
1B5
330
95
100
AcDbEntity
  8
$DDT_AUDIT_GENERATED_(F4)
  6
Continuous
 62
     7
100
AcDbEllipse
 10
169.0309564173
 20
1057.4158046236
 30
0.0
 11
-0.133955112181661
 21
0.03018132116311412
 31
0.0
210
0.0
220
0.0
230
0.9999999999999999
 40
0.8993612452
 41
1.208985961282191
 42
1.770723652563452
  0
ELLIPSE
  5
1B6
330
95
100
AcDbEntity
  8
$DDT_AUDIT_GENERATED_(F4)
  6
Continuous
 62
     7
100
AcDbEllipse
 10
166.0233577017
 20
1057.4469191103
 30
0.0
 11
-0.004080298383269484
 21
0.1252587504957381
 31
0.0
210
0.0
220
0.0
230
0.9999999999999999
 40
0.2224329296
 41
1.42538157871243
 42
2.996177905507589
  0
ELLIPSE
  5
1B7
330
95
100
AcDbEntity
  8
$DDT_AUDIT_GENERATED_(F4)
  6
Continuous
 62
     7
100
AcDbEllipse
 10
165.2306276722
 20
1057.4797136125
 30
0.0
 11
-0.03673560541109537
 21
-0.1206694169020306
 31
0.0
210
0.0
220
0.0
230
1.0
 40
0.8462106981
 41
0.3453420738518104
 42
1.916138400645635
  0
ELLIPSE
  5
1B8
330
95
100
AcDbEntity
  8
$DDT_AUDIT_GENERATED_(F4)
  6
Continuous
 62
     7
100
AcDbEllipse
 10
166.6527663288
 20
1057.5141881303
 30
0.0
 11
-0.1339551121816703
 21
0.03018132116311412
 31
0.0
210
0.0
220
0.0
230
1.0
 40
0.8993612452
 41
1.208985961282202
 42
1.770723652563014
  0
ELLIPSE
  5
1B9
330
95
100
AcDbEntity
  8
$DDT_AUDIT_GENERATED_(F4)
  6
Continuous
 62
     7
100
AcDbEllipse
 10
168.8676350149
 20
1057.5158681457
 30
0.0
 11
0.004080298383262165
 21
-0.1252587504957936
 31
0.0
210
0.0
220
0.0
230
0.9999999999999999
 40
0.2224329296
 41
5.572357777509201
 42
6.137770559107408
  0
ELLIPSE
  5
1BA
330
95
100
AcDbEntity
  8
$DDT_AUDIT_GENERATED_(F4)
  6
Continuous
 62
     7
100
AcDbEllipse
 10
165.0673062698
 20
1057.5797771347
 30
0.0
 11
-0.004080298383258262
 21
0.1252587504957381
 31
0.0
210
0.0
220
0.0
230
0.9999999999999997
 40
0.2224329296
 41
-3.558825296173075
 42
-3.287007401684421
  0
ELLIPSE
  5
1BB
330
95
100
AcDbEntity
  8
$DDT_AUDIT_GENERATED_(F4)
  6
Continuous
 62
     7
100
AcDbEllipse
 10
168.0749049854
 20
1057.548662648
 30
0.0
 11
-0.03673560541121441
 21
-0.1206694169019751
 31
0.0
210
0.0
220
0.0
230
1.0
 40
0.8462106981
 41
0.3453420738520829
 42
0.9156503383216856
  0
LINE
  5
1BC
330
95
100
AcDbEntity
  8
$DDT_AUDIT_GENERATED_(F4)
  6
Continuous
 62
     7
100
AcDbLine
 10
166.0334988435
 20
1056.3883219842
 30
0.0
 11
166.1441117978
 21
1056.3205517983
 31
0.0
  0
LINE
  5
1BD
330
95
100
AcDbEntity
  8
$DDT_AUDIT_GENERATED_(F4)
  6
Continuous
 62
     7
100
AcDbLine
 10
164.4925407099
 20
1056.3349675468
 30
0.0
 11
165.282462489
 21
1056.4193916579
 31
0.0
  0
LINE
  5
1BE
330
95
100
AcDbEntity
  8
$DDT_AUDIT_GENERATED_(F4)
  6
Continuous
 62
     7
100
AcDbLine
 10
163.655308755
 20
1056.4867054908
 30
0.0
 11
163.8299211951
 21
1056.3797241919
 31
0.0
  0
LINE
  5
1BF
330
95
100
AcDbEntity
  8
$DDT_AUDIT_GENERATED_(F4)
  6
Continuous
 62
     7
100
AcDbLine
 10
162.3754165505
 20
1056.4612528781
 30
0.0
 11
162.9042724005
 21
1056.5177751645
 31
0.0
  0
LINE
  5
1C0
330
95
100
AcDbEntity
  8
$DDT_AUDIT_GENERATED_(F4)
  6
Continuous
 62
     7
100
AcDbLine
 10
167.4556375001
 20
1056.4227965019
 30
0.0
 11
167.5998569597
 21
1056.3344363306
 31
0.0
  0
LINE
  5
1C1
330
95
100
AcDbEntity
  8
$DDT_AUDIT_GENERATED_(F4)
  6
Continuous
 62
     7
100
AcDbLine
 10
161.2972527166
 20
1056.5810599507
 30
0.0
 11
161.9482209686
 21
1056.6506331889
 31
0.0
  0
LINE
  5
1C2
330
95
100
AcDbEntity
  8
$DDT_AUDIT_GENERATED_(F4)
  6
Continuous
 62
     7
100
AcDbLine
 10
168.8777761566
 20
1056.4572710196
 30
0.0
 11
168.994035421
 21
1056.3860414605
 31
0.0
  0
LINE
  5
1C3
330
95
100
AcDbEntity
  8
$DDT_AUDIT_GENERATED_(F4)
  6
Continuous
 62
     7
100
AcDbLine
 10
160.4566200182
 20
1056.7262535306
 30
0.0
 11
160.9921695367
 21
1056.7834912132
 31
0.0
  0
LINE
  5
1C4
330
95
100
AcDbEntity
  8
$DDT_AUDIT_GENERATED_(F4)
  6
Continuous
 62
     7
100
AcDbLine
 10
171.43664442
 20
1056.7246412972
 30
0.0
 11
172.1061478399
 21
1056.696944565
 31
0.0
  0
LINE
  5
1C5
330
95
100
AcDbEntity
  8
$DDT_AUDIT_GENERATED_(F4)
  6
Continuous
 62
     7
100
AcDbLine
 10
170.7660020379
 20
1056.6590780793
 30
0.0
 11
170.9570874681
 21
1056.5420041325
 31
0.0
  0
LINE
  5
1C6
330
95
100
AcDbEntity
  8
$DDT_AUDIT_GENERATED_(F4)
  6
Continuous
 62
     7
100
AcDbLine
 10
169.5484185387
 20
1056.5228342375
 30
0.0
 11
170.5482629293
 21
1056.4814716072
 31
0.0
  0
LINE
  5
1C7
330
95
100
AcDbEntity
  8
$DDT_AUDIT_GENERATED_(F4)
  6
Continuous
 62
     7
100
AcDbLine
 10
160.0498885942
 20
1056.9157795653
 30
0.0
 11
160.8108129225
 21
1056.8843008353
 31
0.0
  0
LINE
  5
1C8
330
95
100
AcDbEntity
  8
$DDT_AUDIT_GENERATED_(F4)
  6
Continuous
 62
     7
100
AcDbLine
 10
171.9027316447
 20
1056.8919738393
 30
0.0
 11
172.7250718227
 21
1056.8579543928
 31
0.0
  0
LINE
  5
1C9
330
95
100
AcDbEntity
  8
$DDT_AUDIT_GENERATED_(F4)
  6
Continuous
 62
     7
100
AcDbLine
 10
165.282002569
 20
1056.4194106844
 30
0.0
 11
166.0571573067
 21
1056.3873432556
 31
0.0
  0
LINE
  5
1CA
330
95
100
AcDbEntity
  8
$DDT_AUDIT_GENERATED_(F4)
  6
Continuous
 62
     7
100
AcDbLine
 10
162.9038124805
 20
1056.517794191
 30
0.0
 11
163.6789672182
 21
1056.4857267622
 31
0.0
  0
LINE
  5
1CB
330
95
100
AcDbEntity
  8
$DDT_AUDIT_GENERATED_(F4)
  6
Continuous
 62
     7
100
AcDbLine
 10
166.7041412256
 20
1056.4538852021
 30
0.0
 11
167.4792959632
 21
1056.4218177733
 31
0.0
  0
LINE
  5
1CC
330
95
100
AcDbEntity
  8
$DDT_AUDIT_GENERATED_(F4)
  6
Continuous
 62
     7
100
AcDbLine
 10
166.0931409388
 20
1056.3885154209
 30
0.0
 11
166.7046011456
 21
1056.4538661756
 31
0.0
  0
LINE
  5
1CD
330
95
100
AcDbEntity
  8
$DDT_AUDIT_GENERATED_(F4)
  6
Continuous
 62
     7
100
AcDbLine
 10
165.0774474116
 20
1056.5211800085
 30
0.0
 11
165.2055792709
 21
1056.4426763651
 31
0.0
  0
LINE
  5
1CE
330
95
100
AcDbEntity
  8
$DDT_AUDIT_GENERATED_(F4)
  6
Continuous
 62
     7
100
AcDbLine
 10
163.7149508503
 20
1056.4868989275
 30
0.0
 11
164.3264110571
 21
1056.5522496823
 31
0.0
  0
LINE
  5
1CF
330
95
100
AcDbEntity
  8
$DDT_AUDIT_GENERATED_(F4)
  6
Continuous
 62
     7
100
AcDbLine
 10
162.6992573231
 20
1056.6195635151
 30
0.0
 11
162.8273891824
 21
1056.5410598717
 31
0.0
  0
LINE
  5
1D0
330
95
100
AcDbEntity
  8
$DDT_AUDIT_GENERATED_(F4)
  6
Continuous
 62
     7
100
AcDbLine
 10
167.5152795953
 20
1056.4229899386
 30
0.0
 11
168.1267398022
 21
1056.4883406933
 31
0.0
  0
LINE
  5
1D1
330
95
100
AcDbEntity
  8
$DDT_AUDIT_GENERATED_(F4)
  6
Continuous
 62
     7
100
AcDbLine
 10
164.3259511371
 20
1056.5522687087
 30
0.0
 11
165.1011058748
 21
1056.5202012799
 31
0.0
  0
LINE
  5
1D2
330
95
100
AcDbEntity
  8
$DDT_AUDIT_GENERATED_(F4)
  6
Continuous
 62
     7
100
AcDbLine
 10
161.9477610486
 20
1056.6506522154
 30
0.0
 11
162.7229157863
 21
1056.6185847866
 31
0.0
  0
LINE
  5
1D3
330
95
100
AcDbEntity
  8
$DDT_AUDIT_GENERATED_(F4)
  6
Continuous
 62
     7
100
AcDbLine
 10
168.1262798821
 20
1056.4883597198
 30
0.0
 11
168.9014346198
 21
1056.456292291
 31
0.0
  0
LINE
  5
1D4
330
95
100
AcDbEntity
  8
$DDT_AUDIT_GENERATED_(F4)
  6
Continuous
 62
     7
100
AcDbLine
 10
166.4995860682
 20
1056.5556545262
 30
0.0
 11
166.6277179275
 21
1056.4771508828
 31
0.0
  0
LINE
  5
1D5
330
95
100
AcDbEntity
  8
$DDT_AUDIT_GENERATED_(F4)
  6
Continuous
 62
     7
100
AcDbLine
 10
165.1370895069
 20
1056.5213734452
 30
0.0
 11
165.7485497137
 21
1056.5867242
 31
0.0
  0
LINE
  5
1D6
330
95
100
AcDbEntity
  8
$DDT_AUDIT_GENERATED_(F4)
  6
Continuous
 62
     7
100
AcDbLine
 10
164.1213959797
 20
1056.6540380328
 30
0.0
 11
164.249527839
 21
1056.5755343894
 31
0.0
  0
LINE
  5
1D7
330
95
100
AcDbEntity
  8
$DDT_AUDIT_GENERATED_(F4)
  6
Continuous
 62
     7
100
AcDbLine
 10
162.7588994184
 20
1056.6197569518
 30
0.0
 11
163.3703596252
 21
1056.6851077066
 31
0.0
  0
LINE
  5
1D8
330
95
100
AcDbEntity
  8
$DDT_AUDIT_GENERATED_(F4)
  6
Continuous
 62
     7
100
AcDbLine
 10
161.7432058912
 20
1056.7524215395
 30
0.0
 11
161.8713377505
 21
1056.673917896
 31
0.0
  0
LINE
  5
1D9
330
95
100
AcDbEntity
  8
$DDT_AUDIT_GENERATED_(F4)
  6
Continuous
 62
     7
100
AcDbLine
 10
168.9374182519
 20
1056.4574644563
 30
0.0
 11
169.5488784588
 21
1056.522815211
 31
0.0
  0
LINE
  5
1DA
330
95
100
AcDbEntity
  8
$DDT_AUDIT_GENERATED_(F4)
  6
Continuous
 62
     7
100
AcDbLine
 10
167.9217247248
 20
1056.5901290439
 30
0.0
 11
168.0498565841
 21
1056.5116254005
 31
0.0
  0
LINE
  5
1DB
330
95
100
AcDbEntity
  8
$DDT_AUDIT_GENERATED_(F4)
  6
Continuous
 62
     7
100
AcDbLine
 10
166.5592281635
 20
1056.5558479629
 30
0.0
 11
167.1706883703
 21
1056.6211987177
 31
0.0
  0
LINE
  5
1DC
330
95
100
AcDbEntity
  8
$DDT_AUDIT_GENERATED_(F4)
  6
Continuous
 62
     7
100
AcDbLine
 10
165.7480897937
 20
1056.5867432264
 30
0.0
 11
166.5232445314
 21
1056.5546757976
 31
0.0
  0
LINE
  5
1DD
330
95
100
AcDbEntity
  8
$DDT_AUDIT_GENERATED_(F4)
  6
Continuous
 62
     7
100
AcDbLine
 10
163.3698997052
 20
1056.6851267331
 30
0.0
 11
164.1450544429
 21
1056.6530593043
 31
0.0
  0
LINE
  5
1DE
330
95
100
AcDbEntity
  8
$DDT_AUDIT_GENERATED_(F4)
  6
Continuous
 62
     7
100
AcDbLine
 10
160.9917096167
 20
1056.7835102397
 30
0.0
 11
161.7668643544
 21
1056.7514428109
 31
0.0
  0
LINE
  5
1DF
330
95
100
AcDbEntity
  8
$DDT_AUDIT_GENERATED_(F4)
  6
Continuous
 62
     7
100
AcDbLine
 10
167.1702284503
 20
1056.6212177441
 30
0.0
 11
167.9453831879
 21
1056.5891503153
 31
0.0
  0
LINE
  5
1E0
330
95
100
AcDbEntity
  8
$DDT_AUDIT_GENERATED_(F4)
  6
Continuous
 62
     7
100
AcDbLine
 10
165.5435346363
 20
1056.6885125505
 30
0.0
 11
165.6716664956
 21
1056.6100089071
 31
0.0
  0
LINE
  5
1E1
330
95
100
AcDbEntity
  8
$DDT_AUDIT_GENERATED_(F4)
  6
Continuous
 62
     7
100
AcDbLine
 10
164.181038075
 20
1056.6542314695
 30
0.0
 11
164.7924982818
 21
1056.7195822243
 31
0.0
  0
LINE
  5
1E2
330
95
100
AcDbEntity
  8
$DDT_AUDIT_GENERATED_(F4)
  6
Continuous
 62
     7
100
AcDbLine
 10
163.1653445478
 20
1056.7868960572
 30
0.0
 11
163.2934764071
 21
1056.7083924137
 31
0.0
  0
LINE
  5
1E3
330
95
100
AcDbEntity
  8
$DDT_AUDIT_GENERATED_(F4)
  6
Continuous
 62
     7
100
AcDbLine
 10
161.8028479865
 20
1056.7526149762
 30
0.0
 11
162.4143081933
 21
1056.8179657309
 31
0.0
  0
LINE
  5
1E4
330
95
100
AcDbEntity
  8
$DDT_AUDIT_GENERATED_(F4)
  6
Continuous
 62
     7
100
AcDbLine
 10
160.7871544593
 20
1056.8852795638
 30
0.0
 11
160.9152863186
 21
1056.8067759204
 31
0.0
  0
LINE
  5
1E5
330
95
100
AcDbEntity
  8
$DDT_AUDIT_GENERATED_(F4)
  6
Continuous
 62
     7
100
AcDbLine
 10
170.8256441332
 20
1056.659271516
 30
0.0
 11
171.43710434
 21
1056.7246222708
 31
0.0
  0
LINE
  5
1E6
330
95
100
AcDbEntity
  8
$DDT_AUDIT_GENERATED_(F4)
  6
Continuous
 62
     7
100
AcDbLine
 10
169.3438633813
 20
1056.6246035616
 30
0.0
 11
169.4719952407
 21
1056.5460999182
 31
0.0
  0
LINE
  5
1E7
330
95
100
AcDbEntity
  8
$DDT_AUDIT_GENERATED_(F4)
  6
Continuous
 62
     7
100
AcDbLine
 10
167.98136682
 20
1056.5903224806
 30
0.0
 11
168.5928270269
 21
1056.6556732354
 31
0.0
  0
LINE
  5
1E8
330
95
100
AcDbEntity
  8
$DDT_AUDIT_GENERATED_(F4)
  6
Continuous
 62
     7
100
AcDbLine
 10
166.9656732929
 20
1056.7229870682
 30
0.0
 11
167.0938051522
 21
1056.6444834248
 31
0.0
  0
LINE
  5
1E9
330
95
100
AcDbEntity
  8
$DDT_AUDIT_GENERATED_(F4)
  6
Continuous
 62
     7
100
AcDbLine
 10
164.7920383618
 20
1056.7196012508
 30
0.0
 11
165.5671930995
 21
1056.687533822
 31
0.0
  0
LINE
  5
1EA
330
95
100
AcDbEntity
  8
$DDT_AUDIT_GENERATED_(F4)
  6
Continuous
 62
     7
100
AcDbLine
 10
162.4138482733
 20
1056.8179847574
 30
0.0
 11
163.189003011
 21
1056.7859173286
 31
0.0
  0
LINE
  5
1EB
330
95
100
AcDbEntity
  8
$DDT_AUDIT_GENERATED_(F4)
  6
Continuous
 62
     7
100
AcDbLine
 10
171.2320892626
 20
1056.8264106213
 30
0.0
 11
171.3602211219
 21
1056.7479069779
 31
0.0
  0
LINE
  5
1EC
330
95
100
AcDbEntity
  8
$DDT_AUDIT_GENERATED_(F4)
  6
Continuous
 62
     7
100
AcDbLine
 10
170.0145057634
 20
1056.6901667795
 30
0.0
 11
170.7896605011
 21
1056.6580993507
 31
0.0
  0
LINE
  5
1ED
330
95
100
AcDbEntity
  8
$DDT_AUDIT_GENERATED_(F4)
  6
Continuous
 62
     7
100
AcDbLine
 10
168.5923671068
 20
1056.6556922618
 30
0.0
 11
169.3675218445
 21
1056.623624833
 31
0.0
  0
LINE
  5
1EE
330
95
100
AcDbEntity
  8
$DDT_AUDIT_GENERATED_(F4)
  6
Continuous
 62
     7
100
AcDbLine
 10
167.6363156749
 20
1056.7885502862
 30
0.0
 11
168.4114704126
 21
1056.7564828574
 31
0.0
  0
LINE
  5
1EF
330
95
100
AcDbEntity
  8
$DDT_AUDIT_GENERATED_(F4)
  6
Continuous
 62
     7
100
AcDbLine
 10
166.2141770184
 20
1056.7540757685
 30
0.0
 11
166.989331756
 21
1056.7220083397
 31
0.0
  0
LINE
  5
1F0
330
95
100
AcDbEntity
  8
$DDT_AUDIT_GENERATED_(F4)
  6
Continuous
 62
     7
100
AcDbLine
 10
165.6031767316
 20
1056.6887059872
 30
0.0
 11
166.2146369384
 21
1056.754056742
 31
0.0
  0
LINE
  5
1F1
330
95
100
AcDbEntity
  8
$DDT_AUDIT_GENERATED_(F4)
  6
Continuous
 62
     7
100
AcDbLine
 10
164.5874832044
 20
1056.8213705749
 30
0.0
 11
164.7156150637
 21
1056.7428669314
 31
0.0
  0
LINE
  5
1F2
330
95
100
AcDbEntity
  8
$DDT_AUDIT_GENERATED_(F4)
  6
Continuous
 62
     7
100
AcDbLine
 10
163.2249866431
 20
1056.7870894939
 30
0.0
 11
163.8364468499
 21
1056.8524402486
 31
0.0
  0
LINE
  5
1F3
330
95
100
AcDbEntity
  8
$DDT_AUDIT_GENERATED_(F4)
  6
Continuous
 62
     7
100
AcDbLine
 10
162.2092931159
 20
1056.9197540815
 30
0.0
 11
162.3374249752
 21
1056.8412504381
 31
0.0
  0
LINE
  5
1F4
330
95
100
AcDbEntity
  8
$DDT_AUDIT_GENERATED_(F4)
  6
Continuous
 62
     7
100
AcDbLine
 10
160.8467965546
 20
1056.8854730005
 30
0.0
 11
161.4582567614
 21
1056.9508237553
 31
0.0
  0
LINE
  5
1F5
330
95
100
AcDbEntity
  8
$DDT_AUDIT_GENERATED_(F4)
  6
Continuous
 62
     7
100
AcDbLine
 10
171.2917313579
 20
1056.826604058
 30
0.0
 11
171.9031915647
 21
1056.8919548128
 31
0.0
  0
LINE
  5
1F6
330
95
100
AcDbEntity
  8
$DDT_AUDIT_GENERATED_(F4)
  6
Continuous
 62
     7
100
AcDbLine
 10
169.4035054766
 20
1056.6247969983
 30
0.0
 11
170.0149656835
 21
1056.6901477531
 31
0.0
  0
LINE
  5
1F7
330
95
100
AcDbEntity
  8
$DDT_AUDIT_GENERATED_(F4)
  6
Continuous
 62
     7
100
AcDbLine
 10
168.3878119494
 20
1056.7574615859
 30
0.0
 11
168.5159438088
 21
1056.6789579425
 31
0.0
  0
LINE
  5
1F8
330
95
100
AcDbEntity
  8
$DDT_AUDIT_GENERATED_(F4)
  6
Continuous
 62
     7
100
AcDbLine
 10
167.0253153881
 20
1056.7231805049
 30
0.0
 11
167.636775595
 21
1056.7885312597
 31
0.0
  0
LINE
  5
1F9
330
95
100
AcDbEntity
  8
$DDT_AUDIT_GENERATED_(F4)
  6
Continuous
 62
     7
100
AcDbLine
 10
163.8359869299
 20
1056.8524592751
 30
0.0
 11
164.6111416676
 21
1056.8203918463
 31
0.0
  0
LINE
  5
1FA
330
95
100
AcDbEntity
  8
$DDT_AUDIT_GENERATED_(F4)
  6
Continuous
 62
     7
100
AcDbLine
 10
162.879935498
 20
1056.9853172994
 30
0.0
 11
163.6550902357
 21
1056.9532498707
 31
0.0
  0
LINE
  5
1FB
330
95
100
AcDbEntity
  8
$DDT_AUDIT_GENERATED_(F4)
  6
Continuous
 62
     7
100
AcDbLine
 10
161.4577968414
 20
1056.9508427817
 30
0.0
 11
162.2329515791
 21
1056.918775353
 31
0.0
  0
LINE
  5
1FC
330
95
100
AcDbEntity
  8
$DDT_AUDIT_GENERATED_(F4)
  6
Continuous
 62
     7
100
AcDbLine
 10
170.4805929881
 20
1056.8574993216
 30
0.0
 11
171.2557477258
 21
1056.8254318928
 31
0.0
  0
LINE
  5
1FD
330
95
100
AcDbEntity
  8
$DDT_AUDIT_GENERATED_(F4)
  6
Continuous
 62
     7
100
AcDbLine
 10
169.809950606
 20
1056.7919361036
 30
0.0
 11
169.9380824653
 21
1056.7134324602
 31
0.0
  0
LINE
  5
1FE
330
95
100
AcDbEntity
  8
$DDT_AUDIT_GENERATED_(F4)
  6
Continuous
 62
     7
100
AcDbLine
 10
166.009621861
 20
1056.8558450926
 30
0.0
 11
166.1377537203
 21
1056.7773414491
 31
0.0
  0
LINE
  5
1FF
330
95
100
AcDbEntity
  8
$DDT_AUDIT_GENERATED_(F4)
  6
Continuous
 62
     7
100
AcDbLine
 10
164.6471252997
 20
1056.8215640116
 30
0.0
 11
165.2585855065
 21
1056.8869147663
 31
0.0
  0
LINE
  5
200
330
95
100
AcDbEntity
  8
$DDT_AUDIT_GENERATED_(F4)
  6
Continuous
 62
     7
100
AcDbLine
 10
163.6314317725
 20
1056.9542285992
 30
0.0
 11
163.7595636318
 21
1056.8757249558
 31
0.0
  0
LINE
  5
201
330
95
100
AcDbEntity
  8
$DDT_AUDIT_GENERATED_(F4)
  6
Continuous
 62
     7
100
AcDbLine
 10
162.2689352112
 20
1056.9199475182
 30
0.0
 11
162.880395418
 21
1056.985298273
 31
0.0
  0
LINE
  5
202
330
95
100
AcDbEntity
  8
$DDT_AUDIT_GENERATED_(F4)
  6
Continuous
 62
     7
100
AcDbLine
 10
161.253241684
 20
1057.0526121059
 30
0.0
 11
161.3813735433
 21
1056.9741084624
 31
0.0
  0
LINE
  5
203
330
95
100
AcDbEntity
  8
$DDT_AUDIT_GENERATED_(F4)
  6
Continuous
 62
     7
100
AcDbLine
 10
171.6981764873
 20
1056.9937431634
 30
0.0
 11
171.8263083466
 21
1056.9152395199
 31
0.0
  0
LINE
  5
204
330
95
100
AcDbEntity
  8
$DDT_AUDIT_GENERATED_(F4)
  6
Continuous
 62
     7
100
AcDbLine
 10
169.8695927013
 20
1056.7921295403
 30
0.0
 11
170.4810529081
 21
1056.8574802951
 31
0.0
  0
LINE
  5
205
330
95
100
AcDbEntity
  8
$DDT_AUDIT_GENERATED_(F4)
  6
Continuous
 62
     7
100
AcDbLine
 10
168.4474540447
 20
1056.7576550226
 30
0.0
 11
169.0589142516
 21
1056.8230057774
 31
0.0
  0
LINE
  5
206
330
95
100
AcDbEntity
  8
$DDT_AUDIT_GENERATED_(F4)
  6
Continuous
 62
     7
100
AcDbLine
 10
167.4317605175
 20
1056.8903196103
 30
0.0
 11
167.5598923769
 21
1056.8118159668
 31
0.0
  0
LINE
  5
207
330
95
100
AcDbEntity
  8
$DDT_AUDIT_GENERATED_(F4)
  6
Continuous
 62
     7
100
AcDbLine
 10
166.0692639562
 20
1056.8560385293
 30
0.0
 11
166.6807241631
 21
1056.921389284
 31
0.0
  0
LINE
  5
208
330
95
100
AcDbEntity
  8
$DDT_AUDIT_GENERATED_(F4)
  6
Continuous
 62
     7
100
AcDbLine
 10
165.2581255865
 20
1056.8869337928
 30
0.0
 11
166.0332803241
 21
1056.854866364
 31
0.0
  0
LINE
  5
209
330
95
100
AcDbEntity
  8
$DDT_AUDIT_GENERATED_(F4)
  6
Continuous
 62
     7
100
AcDbLine
 10
160.6341261415
 20
1057.0782243386
 30
0.0
 11
161.2769001472
 21
1057.0516333773
 31
0.0
  0
LINE
  5
20A
330
95
100
AcDbEntity
  8
$DDT_AUDIT_GENERATED_(F4)
  6
Continuous
 62
     7
100
AcDbLine
 10
171.7578185826
 20
1056.9939366001
 30
0.0
 11
172.2212827054
 21
1057.0434700446
 31
0.0
  0
LINE
  5
20B
330
95
100
AcDbEntity
  8
$DDT_AUDIT_GENERATED_(F4)
  6
Continuous
 62
     7
100
AcDbLine
 10
170.9466802128
 20
1057.0248318636
 30
0.0
 11
171.7218349505
 21
1056.9927644348
 31
0.0
  0
LINE
  5
20C
330
95
100
AcDbEntity
  8
$DDT_AUDIT_GENERATED_(F4)
  6
Continuous
 62
     7
100
AcDbLine
 10
170.2760378307
 20
1056.9592686457
 30
0.0
 11
170.40416969
 21
1056.8807650022
 31
0.0
  0
LINE
  5
20D
330
95
100
AcDbEntity
  8
$DDT_AUDIT_GENERATED_(F4)
  6
Continuous
 62
     7
100
AcDbLine
 10
169.0584543315
 20
1056.8230248039
 30
0.0
 11
169.8336090692
 21
1056.7909573751
 31
0.0
  0
LINE
  5
20E
330
95
100
AcDbEntity
  8
$DDT_AUDIT_GENERATED_(F4)
  6
Continuous
 62
     7
100
AcDbLine
 10
166.680264243
 20
1056.9214083105
 30
0.0
 11
167.4554189807
 21
1056.8893408817
 31
0.0
  0
LINE
  5
20F
330
95
100
AcDbEntity
  8
$DDT_AUDIT_GENERATED_(F4)
  6
Continuous
 62
     7
100
AcDbLine
 10
165.0535704291
 20
1056.9887031169
 30
0.0
 11
165.1817022884
 21
1056.9101994735
 31
0.0
  0
LINE
  5
210
330
95
100
AcDbEntity
  8
$DDT_AUDIT_GENERATED_(F4)
  6
Continuous
 62
     7
100
AcDbLine
 10
163.6910738678
 20
1056.9544220359
 30
0.0
 11
164.3025340746
 21
1057.0197727907
 31
0.0
  0
LINE
  5
211
330
95
100
AcDbEntity
  8
$DDT_AUDIT_GENERATED_(F4)
  6
Continuous
 62
     7
100
AcDbLine
 10
162.6753803406
 20
1057.0870866236
 30
0.0
 11
162.8035121999
 21
1057.0085829801
 31
0.0
  0
LINE
  5
212
330
95
100
AcDbEntity
  8
$DDT_AUDIT_GENERATED_(F4)
  6
Continuous
 62
     7
100
AcDbLine
 10
161.3128837793
 20
1057.0528055426
 30
0.0
 11
161.9243439861
 21
1057.1181562973
 31
0.0
  0
LINE
  5
213
330
95
100
AcDbEntity
  8
$DDT_AUDIT_GENERATED_(F4)
  6
Continuous
 62
     7
100
AcDbLine
 10
170.335679926
 20
1056.9594620824
 30
0.0
 11
170.9471401328
 21
1057.0248128371
 31
0.0
  0
LINE
  5
214
330
95
100
AcDbEntity
  8
$DDT_AUDIT_GENERATED_(F4)
  6
Continuous
 62
     7
100
AcDbLine
 10
166.4757090857
 20
1057.0231776346
 30
0.0
 11
166.603840945
 21
1056.9446739912
 31
0.0
  0
LINE
  5
215
330
95
100
AcDbEntity
  8
$DDT_AUDIT_GENERATED_(F4)
  6
Continuous
 62
     7
100
AcDbLine
 10
165.7242128112
 20
1057.0542663348
 30
0.0
 11
166.4993675488
 21
1057.0221989061
 31
0.0
  0
LINE
  5
216
330
95
100
AcDbEntity
  8
$DDT_AUDIT_GENERATED_(F4)
  6
Continuous
 62
     7
100
AcDbLine
 10
164.3020741546
 20
1057.0197918171
 30
0.0
 11
165.0772288923
 21
1056.9877243884
 31
0.0
  0
LINE
  5
217
330
95
100
AcDbEntity
  8
$DDT_AUDIT_GENERATED_(F4)
  6
Continuous
 62
     7
100
AcDbLine
 10
161.9238840661
 20
1057.1181753238
 30
0.0
 11
162.6990388038
 21
1057.086107895
 31
0.0
  0
LINE
  5
218
330
95
100
AcDbEntity
  8
$DDT_AUDIT_GENERATED_(F4)
  6
Continuous
 62
     7
100
AcDbLine
 10
170.7421250554
 20
1057.1266011877
 30
0.0
 11
170.8702569147
 21
1057.0480975443
 31
0.0
  0
LINE
  5
219
330
95
100
AcDbEntity
  8
$DDT_AUDIT_GENERATED_(F4)
  6
Continuous
 62
     7
100
AcDbLine
 10
169.5245415562
 20
1056.9903573459
 30
0.0
 11
170.2996962939
 21
1056.9582899171
 31
0.0
  0
LINE
  5
21A
330
95
100
AcDbEntity
  8
$DDT_AUDIT_GENERATED_(F4)
  6
Continuous
 62
     7
100
AcDbLine
 10
165.1132125244
 20
1056.9888965536
 30
0.0
 11
165.7246727312
 21
1057.0542473084
 31
0.0
  0
LINE
  5
21B
330
95
100
AcDbEntity
  8
$DDT_AUDIT_GENERATED_(F4)
  6
Continuous
 62
     7
100
AcDbLine
 10
161.7193289087
 20
1057.2199446479
 30
0.0
 11
161.847460768
 21
1057.1414410045
 31
0.0
  0
LINE
  5
21C
330
95
100
AcDbEntity
  8
$DDT_AUDIT_GENERATED_(F4)
  6
Continuous
 62
     7
100
AcDbLine
 10
170.8017671507
 20
1057.1267946244
 30
0.0
 11
171.4127679694
 21
1057.1920962814
 31
0.0
  0
LINE
  5
21D
330
95
100
AcDbEntity
  8
$DDT_AUDIT_GENERATED_(F4)
  6
Continuous
 62
     7
100
AcDbLine
 10
168.9135412694
 20
1056.9249875647
 30
0.0
 11
169.5250014762
 21
1056.9903383194
 31
0.0
  0
LINE
  5
21E
330
95
100
AcDbEntity
  8
$DDT_AUDIT_GENERATED_(F4)
  6
Continuous
 62
     7
100
AcDbLine
 10
167.8978477422
 20
1057.0576521523
 30
0.0
 11
168.0259796016
 21
1056.9791485089
 31
0.0
  0
LINE
  5
21F
330
95
100
AcDbEntity
  8
$DDT_AUDIT_GENERATED_(F4)
  6
Continuous
 62
     7
100
AcDbLine
 10
166.5353511809
 20
1057.0233710713
 30
0.0
 11
167.1468113878
 21
1057.0887218261
 31
0.0
  0
LINE
  5
220
330
95
100
AcDbEntity
  8
$DDT_AUDIT_GENERATED_(F4)
  6
Continuous
 62
     7
100
AcDbLine
 10
161.5430619108
 20
1057.2272366493
 30
0.0
 11
161.7429873719
 21
1057.2189659193
 31
0.0
  0
LINE
  5
221
330
95
100
AcDbEntity
  8
$DDT_AUDIT_GENERATED_(F4)
  6
Continuous
 62
     7
100
AcDbLine
 10
169.9906287809
 20
1057.1576898879
 30
0.0
 11
170.7657835186
 21
1057.1256224592
 31
0.0
  0
LINE
  5
222
330
95
100
AcDbEntity
  8
$DDT_AUDIT_GENERATED_(F4)
  6
Continuous
 62
     7
100
AcDbLine
 10
169.3199863988
 20
1057.09212667
 30
0.0
 11
169.4481182581
 21
1057.0136230266
 31
0.0
  0
LINE
  5
223
330
95
100
AcDbEntity
  8
$DDT_AUDIT_GENERATED_(F4)
  6
Continuous
 62
     7
100
AcDbLine
 10
167.1463514677
 20
1057.0887408525
 30
0.0
 11
167.9215062054
 21
1057.0566734238
 31
0.0
  0
LINE
  5
224
330
95
100
AcDbEntity
  8
$DDT_AUDIT_GENERATED_(F4)
  6
Continuous
 62
     7
100
AcDbLine
 10
165.5196576538
 20
1057.156035659
 30
0.0
 11
165.6477895131
 21
1057.0775320155
 31
0.0
  0
LINE
  5
225
330
95
100
AcDbEntity
  8
$DDT_AUDIT_GENERATED_(F4)
  6
Continuous
 62
     7
100
AcDbLine
 10
164.1571610925
 20
1057.121754578
 30
0.0
 11
164.7686212993
 21
1057.1871053327
 31
0.0
  0
LINE
  5
226
330
95
100
AcDbEntity
  8
$DDT_AUDIT_GENERATED_(F4)
  6
Continuous
 62
     7
100
AcDbLine
 10
163.1414675653
 20
1057.2544191656
 30
0.0
 11
163.2695994246
 21
1057.1759155222
 31
0.0
  0
LINE
  5
227
330
95
100
AcDbEntity
  8
$DDT_AUDIT_GENERATED_(F4)
  6
Continuous
 62
     7
100
AcDbLine
 10
161.778971004
 20
1057.2201380846
 30
0.0
 11
162.3904312108
 21
1057.2854888394
 31
0.0
  0
LINE
  5
228
330
95
100
AcDbEntity
  8
$DDT_AUDIT_GENERATED_(F4)
  6
Continuous
 62
     7
100
AcDbLine
 10
169.3796284941
 20
1057.0923201067
 30
0.0
 11
169.9910887009
 21
1057.1576708615
 31
0.0
  0
LINE
  5
229
330
95
100
AcDbEntity
  8
$DDT_AUDIT_GENERATED_(F4)
  6
Continuous
 62
     7
100
AcDbLine
 10
167.9574898375
 20
1057.057845589
 30
0.0
 11
168.5689500444
 21
1057.1231963438
 31
0.0
  0
LINE
  5
22A
330
95
100
AcDbEntity
  8
$DDT_AUDIT_GENERATED_(F4)
  6
Continuous
 62
     7
100
AcDbLine
 10
164.7681613793
 20
1057.1871243592
 30
0.0
 11
165.5433161169
 21
1057.1550569304
 31
0.0
  0
LINE
  5
22B
330
95
100
AcDbEntity
  8
$DDT_AUDIT_GENERATED_(F4)
  6
Continuous
 62
     7
100
AcDbLine
 10
162.3899712908
 20
1057.2855078658
 30
0.0
 11
163.1651260285
 21
1057.253440437
 31
0.0
  0
LINE
  5
22C
330
95
100
AcDbEntity
  8
$DDT_AUDIT_GENERATED_(F4)
  6
Continuous
 62
     7
100
AcDbLine
 10
169.7860736235
 20
1057.2594592121
 30
0.0
 11
169.9142054828
 21
1057.1809555686
 31
0.0
  0
LINE
  5
22D
330
95
100
AcDbEntity
  8
$DDT_AUDIT_GENERATED_(F4)
  6
Continuous
 62
     7
100
AcDbLine
 10
168.5684901243
 20
1057.1232153702
 30
0.0
 11
169.343644862
 21
1057.0911479415
 31
0.0
  0
LINE
  5
22E
330
95
100
AcDbEntity
  8
$DDT_AUDIT_GENERATED_(F4)
  6
Continuous
 62
     7
100
AcDbLine
 10
164.5636062219
 20
1057.2888936833
 30
0.0
 11
164.6917380812
 21
1057.2103900399
 31
0.0
  0
LINE
  5
22F
330
95
100
AcDbEntity
  8
$DDT_AUDIT_GENERATED_(F4)
  6
Continuous
 62
     7
100
AcDbLine
 10
163.2011096606
 20
1057.2546126023
 30
0.0
 11
163.8125698674
 21
1057.3199633571
 31
0.0
  0
LINE
  5
230
330
95
100
AcDbEntity
  8
$DDT_AUDIT_GENERATED_(F4)
  6
Continuous
 62
     7
100
AcDbLine
 10
162.3083425656
 20
1057.3119628001
 30
0.0
 11
162.3135479927
 21
1057.3087735465
 31
0.0
  0
LINE
  5
231
330
95
100
AcDbEntity
  8
$DDT_AUDIT_GENERATED_(F4)
  6
Continuous
 62
     7
100
AcDbLine
 10
169.8457157188
 20
1057.2596526488
 30
0.0
 11
170.3615746135
 21
1057.3147858655
 31
0.0
  0
LINE
  5
232
330
95
100
AcDbEntity
  8
$DDT_AUDIT_GENERATED_(F4)
  6
Continuous
 62
     7
100
AcDbLine
 10
168.3639349669
 20
1057.2249846944
 30
0.0
 11
168.4920668262
 21
1057.1464810509
 31
0.0
  0
LINE
  5
233
330
95
100
AcDbEntity
  8
$DDT_AUDIT_GENERATED_(F4)
  6
Continuous
 62
     7
100
AcDbLine
 10
167.0014384056
 20
1057.1907036134
 30
0.0
 11
167.6128986125
 21
1057.2560543681
 31
0.0
  0
LINE
  5
234
330
95
100
AcDbEntity
  8
$DDT_AUDIT_GENERATED_(F4)
  6
Continuous
 62
     7
100
AcDbLine
 10
163.8121099474
 20
1057.3199823835
 30
0.0
 11
164.587264685
 21
1057.2879149547
 31
0.0
  0
LINE
  5
235
330
95
100
AcDbEntity
  8
$DDT_AUDIT_GENERATED_(F4)
  6
Continuous
 62
     7
100
AcDbLine
 10
169.034577349
 20
1057.2905479123
 30
0.0
 11
169.8097320867
 21
1057.2584804835
 31
0.0
  0
LINE
  5
236
330
95
100
AcDbEntity
  8
$DDT_AUDIT_GENERATED_(F4)
  6
Continuous
 62
     7
100
AcDbLine
 10
167.6124386924
 20
1057.2560733946
 30
0.0
 11
168.3875934301
 21
1057.2240059658
 31
0.0
  0
LINE
  5
237
330
95
100
AcDbEntity
  8
$DDT_AUDIT_GENERATED_(F4)
  6
Continuous
 62
     7
100
AcDbLine
 10
165.9857448784
 20
1057.323368201
 30
0.0
 11
166.1138767378
 21
1057.2448645576
 31
0.0
  0
LINE
  5
238
330
95
100
AcDbEntity
  8
$DDT_AUDIT_GENERATED_(F4)
  6
Continuous
 62
     7
100
AcDbLine
 10
164.6232483171
 20
1057.28908712
 30
0.0
 11
165.234708524
 21
1057.3544378748
 31
0.0
  0
LINE
  5
239
330
95
100
AcDbEntity
  8
$DDT_AUDIT_GENERATED_(F4)
  6
Continuous
 62
     7
100
AcDbLine
 10
163.6286023334
 20
1057.408856329
 30
0.0
 11
163.7356866493
 21
1057.3432480642
 31
0.0
  0
LINE
  5
23A
330
95
100
AcDbEntity
  8
$DDT_AUDIT_GENERATED_(F4)
  6
Continuous
 62
     7
100
AcDbLine
 10
168.4235770622
 20
1057.2251781311
 30
0.0
 11
169.035037269
 21
1057.2905288858
 31
0.0
  0
LINE
  5
23B
330
95
100
AcDbEntity
  8
$DDT_AUDIT_GENERATED_(F4)
  6
Continuous
 62
     7
100
AcDbLine
 10
167.407883535
 20
1057.3578427187
 30
0.0
 11
167.5360153943
 21
1057.2793390753
 31
0.0
  0
LINE
  5
23C
330
95
100
AcDbEntity
  8
$DDT_AUDIT_GENERATED_(F4)
  6
Continuous
 62
     7
100
AcDbLine
 10
166.6563872605
 20
1057.3889314189
 30
0.0
 11
167.4315419982
 21
1057.3568639901
 31
0.0
  0
LINE
  5
23D
330
95
100
AcDbEntity
  8
$DDT_AUDIT_GENERATED_(F4)
  6
Continuous
 62
     7
100
AcDbLine
 10
165.2342486039
 20
1057.3544569012
 30
0.0
 11
166.0094033416
 21
1057.3223894724
 31
0.0
  0
LINE
  5
23E
330
95
100
AcDbEntity
  8
$DDT_AUDIT_GENERATED_(F4)
  6
Continuous
 62
     7
100
AcDbLine
 10
168.8300221916
 20
1057.3923172364
 30
0.0
 11
168.9581540509
 21
1057.313813593
 31
0.0
  0
LINE
  5
23F
330
95
100
AcDbEntity
  8
$DDT_AUDIT_GENERATED_(F4)
  6
Continuous
 62
     7
100
AcDbLine
 10
166.0453869737
 20
1057.3235616377
 30
0.0
 11
166.6568471806
 21
1057.3889123925
 31
0.0
  0
LINE
  5
240
330
95
100
AcDbEntity
  8
$DDT_AUDIT_GENERATED_(F4)
  6
Continuous
 62
     7
100
AcDbLine
 10
165.0296934466
 20
1057.4562262253
 30
0.0
 11
165.1578253059
 21
1057.3777225819
 31
0.0
  0
LINE
  5
241
330
95
100
AcDbEntity
  8
$DDT_AUDIT_GENERATED_(F4)
  6
Continuous
 62
     7
100
AcDbLine
 10
168.8896642869
 20
1057.3925106731
 30
0.0
 11
169.0523786658
 21
1057.4099010239
 31
0.0
  0
LINE
  5
242
330
95
100
AcDbEntity
  8
$DDT_AUDIT_GENERATED_(F4)
  6
Continuous
 62
     7
100
AcDbLine
 10
167.4675256303
 20
1057.3580361554
 30
0.0
 11
168.0789858371
 21
1057.4233869102
 31
0.0
  0
LINE
  5
243
330
95
100
AcDbEntity
  8
$DDT_AUDIT_GENERATED_(F4)
  6
Continuous
 62
     7
100
AcDbLine
 10
164.9120430387
 20
1057.461093313
 30
0.0
 11
165.0533519097
 21
1057.4552474968
 31
0.0
  0
LINE
  5
244
330
95
100
AcDbEntity
  8
$DDT_AUDIT_GENERATED_(F4)
  6
Continuous
 62
     7
100
AcDbLine
 10
168.0785259171
 20
1057.4234059366
 30
0.0
 11
168.8536806548
 21
1057.3913385078
 31
0.0
  0
LINE
  5
245
330
95
100
AcDbEntity
  8
$DDT_AUDIT_GENERATED_(F4)
  6
Continuous
 62
     7
100
AcDbLine
 10
166.4688319307
 20
1057.4802853131
 30
0.0
 11
166.5799639625
 21
1057.4121970996
 31
0.0
  0
LINE
  5
246
330
95
100
AcDbEntity
  8
$DDT_AUDIT_GENERATED_(F4)
  6
Continuous
 62
     7
100
AcDbLine
 10
165.0893355418
 20
1057.456419662
 30
0.0
 11
165.1984109813
 21
1057.4680772682
 31
0.0
  0
SPLINE
  5
247
330
95
100
AcDbEntity
  8
$DDT_AUDIT_GENERATED_(F4)
  6
Continuous
 62
     7
100
AcDbSpline
210
0.0
220
0.0
230
1.0
 70
     8
 71
     3
 72
    11
 73
     7
 74
     0
 42
0.0000000116095685
 43
0.0000000001
 40
0.0
 40
0.0
 40
0.0
 40
0.0
 40
0.0119630397130276
 40
0.4231302142470187
 40
0.7760526544805526
 40
1.0
 40
1.0
 40
1.0
 40
1.0
 10
173.2075229325751
 20
1056.518192460248
 30
0.0
 10
173.2106846889845
 20
1056.519286548703
 30
0.0
 10
173.3072618505201
 20
1056.552818984245
 30
0.0
 10
173.4370477265225
 20
1056.650129526788
 30
0.0
 10
173.6594920411613
 20
1056.862664638921
 30
0.0
 10
173.669892670425
 20
1057.058696659539
 30
0.0
 10
173.6750790304867
 20
1057.148146787357
 30
0.0
  0
SPLINE
  5
248
330
95
100
AcDbEntity
  8
$DDT_AUDIT_GENERATED_(F4)
  6
Continuous
 62
     7
100
AcDbSpline
210
0.0
220
0.0
230
1.0
 70
     8
 71
     3
 72
    12
 73
     8
 74
     0
 42
0.0000000076704411
 43
0.0000000001
 40
0.0
 40
0.0
 40
0.0
 40
0.0
 40
0.0491523865176575
 40
0.2727365714559081
 40
0.4900607909344882
 40
0.7818438658327651
 40
1.0
 40
1.0
 40
1.0
 40
1.0
 10
159.0182600381815
 20
1057.181353577795
 30
0.0
 10
159.0116020734768
 20
1057.15278609107
 30
0.0
 10
158.9796150898638
 20
1057.017723718391
 30
0.0
 10
159.1344300018962
 20
1056.761012349537
 30
0.0
 10
159.3430460210478
 20
1056.589047248935
 30
0.0
 10
159.5658850975346
 20
1056.471244394155
 30
0.0
 10
159.7668168182281
 20
1056.4160048985
 30
0.0
 10
159.8684018750434
 20
1056.389484482321
 30
0.0
  0
LINE
  5
249
330
95
100
AcDbEntity
  8
$DDT_AUDIT_GENERATED_(B9)
  6
Continuous
 62
     7
100
AcDbLine
 10
38.85
 20
795.6100946109
 30
0.0
 11
93.85
 21
795.6100946109
 31
0.0
  0
LINE
  5
24A
330
95
100
AcDbEntity
  8
$DDT_AUDIT_GENERATED_(B9)
  6
Continuous
 62
     7
100
AcDbLine
 10
39.35
 20
801.6100946109
 30
0.0
 11
93.35
 21
801.6100946109
 31
0.0
  0
LINE
  5
24B
330
95
100
AcDbEntity
  8
$DDT_AUDIT_GENERATED_(B9)
  6
Continuous
 62
     7
100
AcDbLine
 10
44.35
 20
805.6100946109
 30
0.0
 11
88.35
 21
805.6100946109
 31
0.0
  0
LINE
  5
24C
330
95
100
AcDbEntity
  8
$DDT_AUDIT_GENERATED_(B9)
  6
Continuous
 62
     7
100
AcDbLine
 10
38.85
 20
801.1100946109
 30
0.0
 11
38.85
 21
795.6100946109
 31
0.0
  0
LINE
  5
24D
330
95
100
AcDbEntity
  8
$DDT_AUDIT_GENERATED_(B9)
  6
Continuous
 62
     7
100
AcDbLine
 10
93.85
 20
795.6100946109
 30
0.0
 11
93.85
 21
801.1100946109
 31
0.0
  0
ARC
  5
24E
330
95
100
AcDbEntity
  8
$DDT_AUDIT_GENERATED_(B9)
  6
Continuous
 62
     7
100
AcDbCircle
 10
39.35
 20
801.1100946109
 30
0.0
 40
0.5000000000000004
100
AcDbArc
 50
90.0
 51
180.0
  0
ARC
  5
24F
330
95
100
AcDbEntity
  8
$DDT_AUDIT_GENERATED_(B9)
  6
Continuous
 62
     7
100
AcDbCircle
 10
93.35
 20
801.1100946109
 30
0.0
 40
0.5000000000000004
100
AcDbArc
 50
0.0
 51
90.0
  0
ARC
  5
250
330
95
100
AcDbEntity
  8
$DDT_AUDIT_GENERATED_(B9)
  6
Continuous
 62
     7
100
AcDbCircle
 10
43.35
 20
802.1100946109
 30
0.0
 40
0.5000000000000004
100
AcDbArc
 50
270.0
 51
0.0
  0
ARC
  5
251
330
95
100
AcDbEntity
  8
$DDT_AUDIT_GENERATED_(B9)
  6
Continuous
 62
     7
100
AcDbCircle
 10
89.35
 20
802.1100946109
 30
0.0
 40
0.5000000000000004
100
AcDbArc
 50
180.0
 51
270.0
  0
LINE
  5
252
330
95
100
AcDbEntity
  8
$DDT_AUDIT_GENERATED_(B9)
  6
Continuous
 62
     7
100
AcDbLine
 10
43.85
 20
805.1100946109
 30
0.0
 11
43.85
 21
802.1100946109
 31
0.0
  0
LINE
  5
253
330
95
100
AcDbEntity
  8
$DDT_AUDIT_GENERATED_(B9)
  6
Continuous
 62
     7
100
AcDbLine
 10
88.85
 20
802.1100946109
 30
0.0
 11
88.85
 21
805.1100946109
 31
0.0
  0
ARC
  5
254
330
95
100
AcDbEntity
  8
$DDT_AUDIT_GENERATED_(B9)
  6
Continuous
 62
     7
100
AcDbCircle
 10
44.35
 20
805.1100946109
 30
0.0
 40
0.5000000000000004
100
AcDbArc
 50
90.0
 51
180.0
  0
ARC
  5
255
330
95
100
AcDbEntity
  8
$DDT_AUDIT_GENERATED_(B9)
  6
Continuous
 62
     7
100
AcDbCircle
 10
88.35
 20
805.1100946109
 30
0.0
 40
0.5000000000000004
100
AcDbArc
 50
0.0
 51
90.0
  0
LINE
  5
257
330
95
100
AcDbEntity
  8
08013038_FÜHRUNG
  6
Continuous
 62
     7
100
AcDbLine
 10
52.0
 20
844.7100946109
 30
0.0
 11
80.7
 21
844.7100946109
 31
0.0
  0
LINE
  5
258
330
95
100
AcDbEntity
  8
08013038_FÜHRUNG
  6
Continuous
 62
     7
100
AcDbLine
 10
81.2
 20
840.6100946109
 30
0.0
 11
81.2
 21
844.2100946109
 31
0.0
  0
LINE
  5
259
330
95
100
AcDbEntity
  8
08013038_FÜHRUNG
  6
Continuous
 62
     7
100
AcDbLine
 10
51.5
 20
844.2100946109
 30
0.0
 11
51.5
 21
840.6100946109
 31
0.0
  0
LINE
  5
25A
330
95
100
AcDbEntity
  8
08013038_FÜHRUNG
  6
Continuous
 62
     7
100
AcDbLine
 10
58.85
 20
845.2100946109
 30
0.0
 11
58.85
 21
844.7100946109
 31
0.0
  0
LINE
  5
25B
330
95
100
AcDbEntity
  8
08013038_FÜHRUNG
  6
Continuous
 62
     7
100
AcDbLine
 10
73.85
 20
844.7100946109
 30
0.0
 11
73.85
 21
845.2100946109
 31
0.0
  0
ARC
  5
25C
330
95
100
AcDbEntity
  8
08013038_FÜHRUNG
  6
Continuous
 62
     7
100
AcDbCircle
 10
80.7
 20
844.2100946109
 30
0.0
 40
0.5000000000000004
100
AcDbArc
 50
0.0
 51
90.0
  0
ARC
  5
25D
330
95
100
AcDbEntity
  8
08013038_FÜHRUNG
  6
Continuous
 62
     7
100
AcDbCircle
 10
52.0
 20
844.2100946109
 30
0.0
 40
0.5000000000000004
100
AcDbArc
 50
90.0
 51
180.0
  0
LINE
  5
25F
330
95
100
AcDbEntity
  8
$DDT_AUDIT_GENERATED_(25E)
  6
Continuous
 62
     7
100
AcDbLine
 10
77.35
 20
845.2100946109
 30
0.0
 11
55.35
 21
845.2100946109
 31
0.0
  0
LINE
  5
260
330
95
100
AcDbEntity
  8
$DDT_AUDIT_GENERATED_(25E)
  6
Continuous
 62
     7
100
AcDbLine
 10
82.35
 20
871.2100946109
 30
0.0
 11
82.35
 21
860.2100946109
 31
0.0
  0
ARC
  5
261
330
95
100
AcDbEntity
  8
$DDT_AUDIT_GENERATED_(25E)
  6
Continuous
 62
     7
100
AcDbCircle
 10
44.0387893675
 20
866.3777016097
 30
0.0
 40
13.13013617231058
100
AcDbArc
 50
329.4819775289
 51
354.8981916138
  0
ARC
  5
262
330
95
100
AcDbEntity
  8
$DDT_AUDIT_GENERATED_(25E)
  6
Continuous
 62
     7
100
AcDbCircle
 10
89.3657515087
 20
866.6040399413
 30
0.0
 40
13.85296966807073
100
AcDbArc
 50
185.7751213809
 51
209.8447175104
  0
LINE
  5
263
330
95
100
AcDbEntity
  8
$DDT_AUDIT_GENERATED_(25E)
  6
Continuous
 62
     7
100
AcDbLine
 10
57.7331560302
 20
865.7100946109
 30
0.0
 11
74.9668439698
 21
865.7100946109
 31
0.0
  0
SPLINE
  5
264
330
95
100
AcDbEntity
  8
$DDT_AUDIT_GENERATED_(25E)
  6
Continuous
 62
     7
100
AcDbSpline
210
0.0
220
0.0
230
1.0
 70
     8
 71
     3
 72
    10
 73
     6
 74
     0
 42
0.000000011169161
 43
0.0000000001
 40
0.0
 40
0.0
 40
0.0
 40
0.0
 40
0.5
 40
0.5
 40
1.0
 40
1.0
 40
1.0
 40
1.0
 10
57.11690734369029
 20
865.2100946109118
 30
0.0
 10
57.12483970251038
 20
865.3565750188495
 30
0.0
 10
57.20768841894626
 20
865.4912966948716
 30
0.0
 10
57.44005797848768
 20
865.6665119972062
 30
0.0
 10
57.58654484288492
 20
865.7100946109118
 30
0.0
 10
57.73315603019295
 20
865.7100946109118
 30
0.0
  0
SPLINE
  5
265
330
95
100
AcDbEntity
  8
$DDT_AUDIT_GENERATED_(25E)
  6
Continuous
 62
     7
100
AcDbSpline
210
0.0
220
0.0
230
1.0
 70
     8
 71
     3
 72
    12
 73
     8
 74
     0
 42
0.000000011240689
 43
0.0000000001
 40
0.0
 40
0.0
 40
0.0
 40
0.0
 40
0.2500000000000012
 40
0.2500000000000012
 40
0.5000000000000024
 40
0.5000000000000024
 40
1.0
 40
1.0
 40
1.0
 40
1.0
 10
74.96684396980703
 20
865.7100946109118
 30
0.0
 10
75.04031457685012
 20
865.7100946109118
 30
0.0
 10
75.11190763270103
 20
865.6995272028756
 30
0.0
 10
75.25112193969744
 20
865.6560392319675
 30
0.0
 10
75.31701883846678
 20
865.6232634082197
 30
0.0
 10
75.49108775747433
 20
865.4926347330352
 30
0.0
 10
75.57512808129344
 20
865.3571699290977
 30
0.0
 10
75.58309265630967
 20
865.2100946109118
 30
0.0
  0
LINE
  5
266
330
95
100
AcDbEntity
  8
$DDT_AUDIT_GENERATED_(25E)
  6
Continuous
 62
     7
100
AcDbLine
 10
6.35
 20
860.2100946109
 30
0.0
 11
6.35
 21
871.2100946109
 31
0.0
  0
LINE
  5
267
330
95
100
AcDbEntity
  8
$DDT_AUDIT_GENERATED_(25E)
  6
Continuous
 62
     7
100
AcDbLine
 10
55.35
 20
859.7100946109
 30
0.0
 11
55.35
 21
845.2100946109
 31
0.0
  0
LINE
  5
268
330
95
100
AcDbEntity
  8
$DDT_AUDIT_GENERATED_(25E)
  6
Continuous
 62
     7
100
AcDbLine
 10
77.35
 20
845.2100946109
 30
0.0
 11
77.35
 21
859.7519857789
 31
0.0
  0
LINE
  5
269
330
95
100
AcDbEntity
  8
$DDT_AUDIT_GENERATED_(25E)
  6
Continuous
 62
     7
100
AcDbLine
 10
77.3276551094
 20
859.7100946109
 30
0.0
 11
81.85
 21
859.7100946109
 31
0.0
  0
LINE
  5
26A
330
95
100
AcDbEntity
  8
$DDT_AUDIT_GENERATED_(25E)
  6
Continuous
 62
     7
100
AcDbLine
 10
6.85
 20
859.7100946109
 30
0.0
 11
55.35
 21
859.7100946109
 31
0.0
  0
LINE
  5
26B
330
95
100
AcDbEntity
  8
$DDT_AUDIT_GENERATED_(25E)
  6
Continuous
 62
     7
100
AcDbLine
 10
81.85
 20
871.7100946109
 30
0.0
 11
6.85
 21
871.7100946109
 31
0.0
  0
ARC
  5
26C
330
95
100
AcDbEntity
  8
$DDT_AUDIT_GENERATED_(25E)
  6
Continuous
 62
     7
100
AcDbCircle
 10
81.85
 20
871.2100946109
 30
0.0
 40
0.5000000000000004
100
AcDbArc
 50
0.0
 51
90.0
  0
ARC
  5
26D
330
95
100
AcDbEntity
  8
$DDT_AUDIT_GENERATED_(25E)
  6
Continuous
 62
     7
100
AcDbCircle
 10
81.85
 20
860.2100946109
 30
0.0
 40
0.5000000000000004
100
AcDbArc
 50
270.0
 51
0.0
  0
ARC
  5
26E
330
95
100
AcDbEntity
  8
$DDT_AUDIT_GENERATED_(25E)
  6
Continuous
 62
     7
100
AcDbCircle
 10
6.85
 20
871.2100946109
 30
0.0
 40
0.5000000000000004
100
AcDbArc
 50
90.0
 51
180.0
  0
ARC
  5
26F
330
95
100
AcDbEntity
  8
$DDT_AUDIT_GENERATED_(25E)
  6
Continuous
 62
     7
100
AcDbCircle
 10
6.85
 20
860.2100946109
 30
0.0
 40
0.5000000000000004
100
AcDbArc
 50
180.0
 51
270.0
  0
LINE
  5
270
330
95
100
AcDbEntity
  8
08013038_FÜHRUNG
  6
Continuous
 62
     7
100
AcDbLine
 10
252.0
 20
844.7100946109
 30
0.0
 11
280.7
 21
844.7100946109
 31
0.0
  0
LINE
  5
271
330
95
100
AcDbEntity
  8
08013038_FÜHRUNG
  6
Continuous
 62
     7
100
AcDbLine
 10
281.2
 20
840.6100946109
 30
0.0
 11
281.2
 21
844.2100946109
 31
0.0
  0
LINE
  5
272
330
95
100
AcDbEntity
  8
08013038_FÜHRUNG
  6
Continuous
 62
     7
100
AcDbLine
 10
251.5
 20
844.2100946109
 30
0.0
 11
251.5
 21
840.6100946109
 31
0.0
  0
LINE
  5
273
330
95
100
AcDbEntity
  8
08013038_FÜHRUNG
  6
Continuous
 62
     7
100
AcDbLine
 10
258.85
 20
845.2100946109
 30
0.0
 11
258.85
 21
844.7100946109
 31
0.0
  0
LINE
  5
274
330
95
100
AcDbEntity
  8
08013038_FÜHRUNG
  6
Continuous
 62
     7
100
AcDbLine
 10
273.85
 20
844.7100946109
 30
0.0
 11
273.85
 21
845.2100946109
 31
0.0
  0
ARC
  5
275
330
95
100
AcDbEntity
  8
08013038_FÜHRUNG
  6
Continuous
 62
     7
100
AcDbCircle
 10
280.7
 20
844.2100946109
 30
0.0
 40
0.5000000000000004
100
AcDbArc
 50
0.0
 51
90.0
  0
ARC
  5
276
330
95
100
AcDbEntity
  8
08013038_FÜHRUNG
  6
Continuous
 62
     7
100
AcDbCircle
 10
252.0
 20
844.2100946109
 30
0.0
 40
0.5000000000000004
100
AcDbArc
 50
90.0
 51
180.0
  0
LINE
  5
277
330
95
100
AcDbEntity
  8
$DDT_AUDIT_GENERATED_(25E)
  6
Continuous
 62
     7
100
AcDbLine
 10
277.35
 20
845.2100946109
 30
0.0
 11
255.35
 21
845.2100946109
 31
0.0
  0
LINE
  5
278
330
95
100
AcDbEntity
  8
$DDT_AUDIT_GENERATED_(25E)
  6
Continuous
 62
     7
100
AcDbLine
 10
250.35
 20
860.2100946109
 30
0.0
 11
250.35
 21
871.2100946109
 31
0.0
  0
ARC
  5
279
330
95
100
AcDbEntity
  8
$DDT_AUDIT_GENERATED_(25E)
  6
Continuous
 62
     7
100
AcDbCircle
 10
288.6612106325
 20
866.3777016097
 30
0.0
 40
13.13013617231056
100
AcDbArc
 50
185.1018083862
 51
210.5180224711
  0
ARC
  5
27A
330
95
100
AcDbEntity
  8
$DDT_AUDIT_GENERATED_(25E)
  6
Continuous
 62
     7
100
AcDbCircle
 10
243.3342484913
 20
866.6040399411
 30
0.0
 40
13.85296966807072
100
AcDbArc
 50
330.15528249
 51
354.2248786195
  0
LINE
  5
27B
330
95
100
AcDbEntity
  8
$DDT_AUDIT_GENERATED_(25E)
  6
Continuous
 62
     7
100
AcDbLine
 10
257.7331560302
 20
865.7100946109
 30
0.0
 11
274.9668439698
 21
865.7100946109
 31
0.0
  0
SPLINE
  5
27C
330
95
100
AcDbEntity
  8
$DDT_AUDIT_GENERATED_(25E)
  6
Continuous
 62
     7
100
AcDbSpline
210
0.0
220
0.0
230
1.0
 70
     8
 71
     3
 72
    10
 73
     6
 74
     0
 42
0.000000011169161
 43
0.0000000001
 40
0.0
 40
0.0
 40
0.0
 40
0.0
 40
0.5
 40
0.5
 40
1.0
 40
1.0
 40
1.0
 40
1.0
 10
257.1169073436902
 20
865.2100946109118
 30
0.0
 10
257.1248397025103
 20
865.3565750188495
 30
0.0
 10
257.2076884189462
 20
865.4912966948716
 30
0.0
 10
257.4400579784876
 20
865.666511997206
 30
0.0
 10
257.5865448428849
 20
865.7100946109118
 30
0.0
 10
257.7331560301929
 20
865.7100946109118
 30
0.0
  0
SPLINE
  5
27D
330
95
100
AcDbEntity
  8
$DDT_AUDIT_GENERATED_(25E)
  6
Continuous
 62
     7
100
AcDbSpline
210
0.0
220
0.0
230
1.0
 70
     8
 71
     3
 72
    12
 73
     8
 74
     0
 42
0.000000011240689
 43
0.0000000001
 40
0.0
 40
0.0
 40
0.0
 40
0.0
 40
0.2500000000000012
 40
0.2500000000000012
 40
0.5000000000000023
 40
0.5000000000000023
 40
1.0
 40
1.0
 40
1.0
 40
1.0
 10
274.966843969807
 20
865.7100946109118
 30
0.0
 10
275.0403145768501
 20
865.7100946109118
 30
0.0
 10
275.111907632701
 20
865.6995272028756
 30
0.0
 10
275.2511219396974
 20
865.6560392319676
 30
0.0
 10
275.3170188384667
 20
865.6232634082197
 30
0.0
 10
275.4910877574743
 20
865.4926347330352
 30
0.0
 10
275.5751280812934
 20
865.3571699290977
 30
0.0
 10
275.5830926563096
 20
865.2100946109118
 30
0.0
  0
LINE
  5
27E
330
95
100
AcDbEntity
  8
$DDT_AUDIT_GENERATED_(25E)
  6
Continuous
 62
     7
100
AcDbLine
 10
326.35
 20
871.2100946109
 30
0.0
 11
326.35
 21
860.2100946109
 31
0.0
  0
LINE
  5
27F
330
95
100
AcDbEntity
  8
$DDT_AUDIT_GENERATED_(25E)
  6
Continuous
 62
     7
100
AcDbLine
 10
255.35
 20
859.7519857789
 30
0.0
 11
255.35
 21
845.2100946109
 31
0.0
  0
LINE
  5
280
330
95
100
AcDbEntity
  8
$DDT_AUDIT_GENERATED_(25E)
  6
Continuous
 62
     7
100
AcDbLine
 10
277.35
 20
845.2100946109
 30
0.0
 11
277.35
 21
859.7100946109
 31
0.0
  0
LINE
  5
281
330
95
100
AcDbEntity
  8
$DDT_AUDIT_GENERATED_(25E)
  6
Continuous
 62
     7
100
AcDbLine
 10
325.85
 20
871.7100946109
 30
0.0
 11
250.85
 21
871.7100946109
 31
0.0
  0
LINE
  5
282
330
95
100
AcDbEntity
  8
$DDT_AUDIT_GENERATED_(25E)
  6
Continuous
 62
     7
100
AcDbLine
 10
277.35
 20
859.7100946109
 30
0.0
 11
325.85
 21
859.7100946109
 31
0.0
  0
LINE
  5
283
330
95
100
AcDbEntity
  8
$DDT_AUDIT_GENERATED_(25E)
  6
Continuous
 62
     7
100
AcDbLine
 10
250.85
 20
859.7100946109
 30
0.0
 11
255.3723448906
 21
859.7100946109
 31
0.0
  0
ARC
  5
284
330
95
100
AcDbEntity
  8
$DDT_AUDIT_GENERATED_(25E)
  6
Continuous
 62
     7
100
AcDbCircle
 10
250.85
 20
860.2100946109
 30
0.0
 40
0.5000000000000004
100
AcDbArc
 50
180.0
 51
270.0
  0
ARC
  5
285
330
95
100
AcDbEntity
  8
$DDT_AUDIT_GENERATED_(25E)
  6
Continuous
 62
     7
100
AcDbCircle
 10
250.85
 20
871.2100946109
 30
0.0
 40
0.5000000000000004
100
AcDbArc
 50
90.0
 51
180.0
  0
ARC
  5
286
330
95
100
AcDbEntity
  8
$DDT_AUDIT_GENERATED_(25E)
  6
Continuous
 62
     7
100
AcDbCircle
 10
325.85
 20
860.2100946109
 30
0.0
 40
0.5000000000000004
100
AcDbArc
 50
270.0
 51
0.0
  0
ARC
  5
287
330
95
100
AcDbEntity
  8
$DDT_AUDIT_GENERATED_(25E)
  6
Continuous
 62
     7
100
AcDbCircle
 10
325.85
 20
871.2100946109
 30
0.0
 40
0.5000000000000004
100
AcDbArc
 50
0.0
 51
90.0
  0
ENDBLK
  5
289
330
95
100
AcDbEntity
  8
0
100
AcDbBlockEnd
  0
BLOCK
  5
2EB
330
28A
100
AcDbEntity
  8
0
100
AcDbBlockBegin
  2
SE1
 70
     0
 10
0.0
 20
0.0
 30
0.0
  3
SE1
  1

  0
LINE
  5
28C
330
28A
100
AcDbEntity
  8
$DDT_AUDIT_GENERATED_(97)
  6
Continuous
 62
     7
100
AcDbLine
 10
434.5907796403
 20
893.6100946109
 30
0.0
 11
399.5907796403
 21
893.6100946109
 31
0.0
  0
LINE
  5
28D
330
28A
100
AcDbEntity
  8
$DDT_AUDIT_GENERATED_(97)
  6
Continuous
 62
     7
100
AcDbLine
 10
435.0907796403
 20
840.1100946109
 30
0.0
 11
435.0907796403
 21
893.1100946109
 31
0.0
  0
LINE
  5
28E
330
28A
100
AcDbEntity
  8
$DDT_AUDIT_GENERATED_(97)
  6
Continuous
 62
     7
100
AcDbLine
 10
399.0907796403
 20
893.1100946109
 30
0.0
 11
399.0907796403
 21
840.1100946109
 31
0.0
  0
ARC
  5
28F
330
28A
100
AcDbEntity
  8
$DDT_AUDIT_GENERATED_(97)
  6
Continuous
 62
     7
100
AcDbCircle
 10
434.5907796403
 20
893.1100946109
 30
0.0
 40
0.5000000000000004
100
AcDbArc
 50
0.0
 51
90.0
  0
ARC
  5
290
330
28A
100
AcDbEntity
  8
$DDT_AUDIT_GENERATED_(97)
  6
Continuous
 62
     7
100
AcDbCircle
 10
399.5907796403
 20
893.1100946109
 30
0.0
 40
0.5000000000000004
100
AcDbArc
 50
90.0
 51
180.0
  0
LINE
  5
291
330
28A
100
AcDbEntity
  8
$DDT_AUDIT_GENERATED_(AB)
  6
Continuous
 62
     7
100
AcDbLine
 10
434.5907796403
 20
840.6100946109
 30
0.0
 11
399.5907796403
 21
840.6100946109
 31
0.0
  0
LINE
  5
292
330
28A
100
AcDbEntity
  8
$DDT_AUDIT_GENERATED_(AB)
  6
Continuous
 62
     7
100
AcDbLine
 10
399.0907796403
 20
840.1100946109
 30
0.0
 11
399.0907796403
 21
805.6100946109
 31
0.0
  0
LINE
  5
293
330
28A
100
AcDbEntity
  8
$DDT_AUDIT_GENERATED_(AB)
  6
Continuous
 62
     7
100
AcDbLine
 10
435.0907796403
 20
805.6100946109
 30
0.0
 11
435.0907796403
 21
840.1100946109
 31
0.0
  0
ARC
  5
294
330
28A
100
AcDbEntity
  8
$DDT_AUDIT_GENERATED_(AB)
  6
Continuous
 62
     7
100
AcDbCircle
 10
399.5907796403
 20
840.1100946109
 30
0.0
 40
0.5000000000000004
100
AcDbArc
 50
90.0
 51
180.0
  0
ARC
  5
295
330
28A
100
AcDbEntity
  8
$DDT_AUDIT_GENERATED_(AB)
  6
Continuous
 62
     7
100
AcDbCircle
 10
434.5907796403
 20
840.1100946109
 30
0.0
 40
0.5000000000000004
100
AcDbArc
 50
0.0
 51
90.0
  0
CIRCLE
  5
297
330
28A
100
AcDbEntity
  8
$DDT_AUDIT_GENERATED_(296)
  6
Continuous
 62
     7
100
AcDbCircle
 10
393.8526423512
 20
837.274713972
 30
0.0
 40
5.0
  0
LINE
  5
298
330
28A
100
AcDbEntity
  8
$DDT_AUDIT_GENERATED_(B6)
  6
Continuous
 62
     7
100
AcDbLine
 10
431.5907796403
 20
893.6100946109
 30
0.0
 11
431.5907796403
 21
894.1100946109
 31
0.0
  0
LINE
  5
299
330
28A
100
AcDbEntity
  8
$DDT_AUDIT_GENERATED_(B6)
  6
Continuous
 62
     7
100
AcDbLine
 10
402.5907796403
 20
894.1100946109
 30
0.0
 11
402.5907796403
 21
893.6100946109
 31
0.0
  0
LINE
  5
29B
330
28A
100
AcDbEntity
  8
$DDT_AUDIT_GENERATED_(29A)
  6
Continuous
 62
     7
100
AcDbLine
 10
409.7407796403
 20
899.2600946109
 30
0.0
 11
409.7407796403
 21
899.2100946109
 31
0.0
  0
LINE
  5
29C
330
28A
100
AcDbEntity
  8
$DDT_AUDIT_GENERATED_(C7)
  6
Continuous
 62
     7
100
AcDbLine
 10
428.5907796403
 20
902.1100946109
 30
0.0
 11
405.5907796403
 21
902.1100946109
 31
0.0
  0
LINE
  5
29D
330
28A
100
AcDbEntity
  8
$DDT_AUDIT_GENERATED_(C7)
  6
Continuous
 62
     7
100
AcDbLine
 10
508.9886204454
 20
1076.9800936349
 30
0.0
 11
511.7916153437
 21
1054.1515321471
 31
0.0
  0
ARC
  5
29E
330
28A
100
AcDbEntity
  8
$DDT_AUDIT_GENERATED_(C7)
  6
Continuous
 62
     7
100
AcDbCircle
 10
457.0907796403
 20
1018.7210840287
 30
0.0
 40
28.5
100
AcDbArc
 50
97.0
 51
180.0
  0
ARC
  5
29F
330
28A
100
AcDbEntity
  8
$DDT_AUDIT_GENERATED_(C7)
  6
Continuous
 62
     7
100
AcDbCircle
 10
457.0907796403
 20
1018.7210840287
 30
0.0
 40
51.50000000000001
100
AcDbArc
 50
97.0
 51
180.0
  0
LINE
  5
2A0
330
28A
100
AcDbEntity
  8
$DDT_AUDIT_GENERATED_(C7)
  6
Continuous
 62
     7
100
AcDbLine
 10
405.5907796403
 20
1018.7210840287
 30
0.0
 11
405.5907796403
 21
902.1100946109
 31
0.0
  0
LINE
  5
2A1
330
28A
100
AcDbEntity
  8
$DDT_AUDIT_GENERATED_(C7)
  6
Continuous
 62
     7
100
AcDbLine
 10
428.5907796403
 20
902.1100946109
 30
0.0
 11
428.5907796403
 21
1018.7210840287
 31
0.0
  0
LINE
  5
2A2
330
28A
100
AcDbEntity
  8
$DDT_AUDIT_GENERATED_(C7)
  6
Continuous
 62
     7
100
AcDbLine
 10
508.9886204454
 20
1076.9800936349
 30
0.0
 11
450.8145084549
 21
1069.8372108382
 31
0.0
  0
LINE
  5
2A3
330
28A
100
AcDbEntity
  8
$DDT_AUDIT_GENERATED_(C7)
  6
Continuous
 62
     7
100
AcDbLine
 10
453.6175033533
 20
1047.0086493505
 30
0.0
 11
511.7916153437
 21
1054.1515321471
 31
0.0
  0
LINE
  5
2A4
330
28A
100
AcDbEntity
  8
$DDT_AUDIT_GENERATED_(D2)
  6
Continuous
 62
     7
100
AcDbLine
 10
508.9886204454
 20
1076.9800936349
 30
0.0
 11
511.7916153437
 21
1054.1515321471
 31
0.0
  0
LINE
  5
2A5
330
28A
100
AcDbEntity
  8
$DDT_AUDIT_GENERATED_(D2)
  6
Continuous
 62
     7
100
AcDbLine
 10
574.6185357972
 20
1084.030924148
 30
0.0
 11
577.1777920087
 21
1063.1874549635
 31
0.0
  0
SPLINE
  5
2A6
330
28A
100
AcDbEntity
  8
$DDT_AUDIT_GENERATED_(D2)
  6
Continuous
 62
     7
100
AcDbSpline
210
0.0
220
0.0
230
1.0
 70
     8
 71
     3
 72
    26
 73
    22
 74
     0
 42
0.0000000002050324
 43
0.0000000001
 40
0.0
 40
0.0
 40
0.0
 40
0.0
 40
0.0624999999999996
 40
0.0624999999999996
 40
0.1249999999999993
 40
0.1249999999999993
 40
0.1874999999999989
 40
0.1874999999999989
 40
0.2499999999999986
 40
0.2499999999999986
 40
0.2812499999999986
 40
0.2812499999999986
 40
0.3124999999999985
 40
0.3124999999999985
 40
0.3749999999999986
 40
0.3749999999999986
 40
0.4374999999999987
 40
0.4374999999999987
 40
0.4999999999999988
 40
0.4999999999999988
 40
0.5001802305501782
 40
0.5001802305501782
 40
0.5001802305501782
 40
0.5001802305501782
 10
549.3086137422454
 20
1058.758040321875
 30
0.0
 10
549.3086137422454
 20
1058.758040321875
 30
0.0
 10
549.5950490209572
 20
1059.08528066045
 30
0.0
 10
550.5780796105548
 20
1060.176506498489
 30
0.0
 10
551.2659940783694
 20
1060.931853528836
 30
0.0
 10
552.8803829294172
 20
1062.584568046683
 30
0.0
 10
553.8052800995493
 20
1063.495909635765
 30
0.0
 10
555.9555670587681
 20
1065.175302523518
 30
0.0
 10
557.2295242883015
 20
1065.968689137418
 30
0.0
 10
559.4184251512562
 20
1066.233062710422
 30
0.0
 10
560.1484177460595
 20
1066.16062042068
 30
0.0
 10
561.5346947688179
 20
1065.830148335611
 30
0.0
 10
562.1854096914032
 20
1065.582547587238
 30
0.0
 10
564.0631475734945
 20
1064.745360737764
 30
0.0
 10
565.1585276755183
 20
1064.097007393941
 30
0.0
 10
567.1358096187618
 20
1062.87721285392
 30
0.0
 10
567.9793204090914
 20
1062.314953496407
 30
0.0
 10
569.2007940552431
 20
1061.491506854066
 30
0.0
 10
569.5545523407684
 20
1061.245555168653
 30
0.0
 10
569.5565521389759
 20
1061.244177061384
 30
0.0
 10
569.5565549174405
 20
1061.244175164665
 30
0.0
 10
569.5565547266392
 20
1061.244175331799
 30
0.0
  0
LINE
  5
2A7
330
28A
100
AcDbEntity
  8
$DDT_AUDIT_GENERATED_(D2)
  6
Continuous
 62
     7
100
AcDbLine
 10
573.5041203021
 20
1084.9016009562
 30
0.0
 11
508.9886204454
 21
1076.9800936349
 31
0.0
  0
LINE
  5
2A8
330
28A
100
AcDbEntity
  8
$DDT_AUDIT_GENERATED_(D2)
  6
Continuous
 62
     7
100
AcDbLine
 10
569.5314715822
 20
1061.241095042
 30
0.0
 11
576.3071152004
 21
1062.0730394685
 31
0.0
  0
LINE
  5
2A9
330
28A
100
AcDbEntity
  8
$DDT_AUDIT_GENERATED_(D2)
  6
Continuous
 62
     7
100
AcDbLine
 10
511.7916153437
 20
1054.1515321471
 30
0.0
 11
549.3086137422
 21
1058.7580403219
 31
0.0
  0
ARC
  5
2AA
330
28A
100
AcDbEntity
  8
$DDT_AUDIT_GENERATED_(D2)
  6
Continuous
 62
     7
100
AcDbCircle
 10
576.185245857
 20
1063.0655856201
 30
0.0
 40
1.000000000000025
100
AcDbArc
 50
277.0
 51
7.0
  0
ARC
  5
2AB
330
28A
100
AcDbEntity
  8
$DDT_AUDIT_GENERATED_(D2)
  6
Continuous
 62
     7
100
AcDbCircle
 10
573.6259896455
 20
1083.9090548046
 30
0.0
 40
1.000000000000005
100
AcDbArc
 50
7.0
 51
97.0
  0
LINE
  5
2AC
330
28A
100
AcDbEntity
  8
$DDT_AUDIT_GENERATED_(DA)
  6
Continuous
 62
     7
100
AcDbLine
 10
432.0907796403
 20
894.1100946109
 30
0.0
 11
402.0907796403
 21
894.1100946109
 31
0.0
  0
LINE
  5
2AD
330
28A
100
AcDbEntity
  8
$DDT_AUDIT_GENERATED_(DA)
  6
Continuous
 62
     7
100
AcDbLine
 10
428.5907796403
 20
901.4600946109
 30
0.0
 11
405.5907796403
 21
901.4600946109
 31
0.0
  0
LINE
  5
2AE
330
28A
100
AcDbEntity
  8
$DDT_AUDIT_GENERATED_(DA)
  6
Continuous
 62
     7
100
AcDbLine
 10
414.1907796403
 20
899.2600946109
 30
0.0
 11
402.0907796403
 21
899.2600946109
 31
0.0
  0
LINE
  5
2AF
330
28A
100
AcDbEntity
  8
$DDT_AUDIT_GENERATED_(DA)
  6
Continuous
 62
     7
100
AcDbLine
 10
414.1907796403
 20
897.7100946109
 30
0.0
 11
402.0907796403
 21
897.7100946109
 31
0.0
  0
LINE
  5
2B0
330
28A
100
AcDbEntity
  8
$DDT_AUDIT_GENERATED_(DA)
  6
Continuous
 62
     7
100
AcDbLine
 10
414.1907796403
 20
897.7100946109
 30
0.0
 11
414.1907796403
 21
899.2600946109
 31
0.0
  0
LINE
  5
2B1
330
28A
100
AcDbEntity
  8
$DDT_AUDIT_GENERATED_(DA)
  6
Continuous
 62
     7
100
AcDbLine
 10
431.5907796403
 20
901.1100946109
 30
0.0
 11
402.5907796403
 21
901.1100946109
 31
0.0
  0
LINE
  5
2B2
330
28A
100
AcDbEntity
  8
$DDT_AUDIT_GENERATED_(DA)
  6
Continuous
 62
     7
100
AcDbLine
 10
402.0907796403
 20
897.7100946109
 30
0.0
 11
402.0907796403
 21
894.1100946109
 31
0.0
  0
LINE
  5
2B3
330
28A
100
AcDbEntity
  8
$DDT_AUDIT_GENERATED_(DA)
  6
Continuous
 62
     7
100
AcDbLine
 10
402.0907796403
 20
900.6100946109
 30
0.0
 11
402.0907796403
 21
899.2600946109
 31
0.0
  0
LINE
  5
2B4
330
28A
100
AcDbEntity
  8
$DDT_AUDIT_GENERATED_(DA)
  6
Continuous
 62
     7
100
AcDbLine
 10
432.0907796403
 20
894.1100946109
 30
0.0
 11
432.0907796403
 21
900.6100946109
 31
0.0
  0
LINE
  5
2B5
330
28A
100
AcDbEntity
  8
$DDT_AUDIT_GENERATED_(DA)
  6
Continuous
 62
     7
100
AcDbLine
 10
405.5907796403
 20
901.4600946109
 30
0.0
 11
405.5907796403
 21
901.1100946109
 31
0.0
  0
LINE
  5
2B6
330
28A
100
AcDbEntity
  8
$DDT_AUDIT_GENERATED_(DA)
  6
Continuous
 62
     7
100
AcDbLine
 10
428.5907796403
 20
901.1100946109
 30
0.0
 11
428.5907796403
 21
901.4600946109
 31
0.0
  0
LINE
  5
2B7
330
28A
100
AcDbEntity
  8
$DDT_AUDIT_GENERATED_(DA)
  6
Continuous
 62
     7
100
AcDbLine
 10
428.5907796403
 20
901.4600946109
 30
0.0
 11
427.9407796403
 21
902.1100946109
 31
0.0
  0
LINE
  5
2B8
330
28A
100
AcDbEntity
  8
$DDT_AUDIT_GENERATED_(DA)
  6
Continuous
 62
     7
100
AcDbLine
 10
406.2407796403
 20
902.1100946109
 30
0.0
 11
405.5907796403
 21
901.4600946109
 31
0.0
  0
ARC
  5
2B9
330
28A
100
AcDbEntity
  8
$DDT_AUDIT_GENERATED_(DA)
  6
Continuous
 62
     7
100
AcDbCircle
 10
402.5907796403
 20
900.6100946109
 30
0.0
 40
0.5000000000000004
100
AcDbArc
 50
90.0
 51
180.0
  0
ARC
  5
2BA
330
28A
100
AcDbEntity
  8
$DDT_AUDIT_GENERATED_(DA)
  6
Continuous
 62
     7
100
AcDbCircle
 10
431.5907796403
 20
900.6100946109
 30
0.0
 40
0.5000000000000004
100
AcDbArc
 50
0.0
 51
90.0
  0
LINE
  5
2BC
330
28A
100
AcDbEntity
  8
$DDT_AUDIT_GENERATED_(2BB)
  6
Continuous
 62
     7
100
AcDbLine
 10
413.5907796403
 20
899.2100946109
 30
0.0
 11
402.0907796403
 21
899.2100946109
 31
0.0
  0
LINE
  5
2BD
330
28A
100
AcDbEntity
  8
$DDT_AUDIT_GENERATED_(2BB)
  6
Continuous
 62
     7
100
AcDbLine
 10
413.5907796403
 20
899.2100946109
 30
0.0
 11
414.0907796403
 21
899.2100946109
 31
0.0
  0
LINE
  5
2BE
330
28A
100
AcDbEntity
  8
$DDT_AUDIT_GENERATED_(2BB)
  6
Continuous
 62
     7
100
AcDbLine
 10
414.0907796403
 20
899.2100946109
 30
0.0
 11
414.1907796403
 21
899.2100946109
 31
0.0
  0
LINE
  5
2BF
330
28A
100
AcDbEntity
  8
$DDT_AUDIT_GENERATED_(2BB)
  6
Continuous
 62
     7
100
AcDbLine
 10
413.5907796403
 20
897.7100946109
 30
0.0
 11
402.0907796403
 21
897.7100946109
 31
0.0
  0
LINE
  5
2C0
330
28A
100
AcDbEntity
  8
$DDT_AUDIT_GENERATED_(2BB)
  6
Continuous
 62
     7
100
AcDbLine
 10
414.0907796403
 20
899.2100946109
 30
0.0
 11
414.0907796403
 21
897.7100946109
 31
0.0
  0
LINE
  5
2C1
330
28A
100
AcDbEntity
  8
$DDT_AUDIT_GENERATED_(2BB)
  6
Continuous
 62
     7
100
AcDbLine
 10
413.5907796403
 20
899.2100946109
 30
0.0
 11
413.5907796403
 21
897.7100946109
 31
0.0
  0
LINE
  5
2C2
330
28A
100
AcDbEntity
  8
$DDT_AUDIT_GENERATED_(2BB)
  6
Continuous
 62
     7
100
AcDbLine
 10
402.0907796403
 20
899.2100946109
 30
0.0
 11
402.0907796403
 21
897.7100946109
 31
0.0
  0
ELLIPSE
  5
2C3
330
28A
100
AcDbEntity
  8
$DDT_AUDIT_GENERATED_(E6)
  6
Continuous
 62
     7
100
AcDbEllipse
 10
560.0583625519
 20
1054.9045542933
 30
0.0
 11
9.860946016556488
 21
1.210771926730081
 31
0.0
210
0.0
220
0.0
230
1.0
 40
0.5773502692
 41
1.273784882377899
 42
1.867807771211886
  0
LINE
  5
2C4
330
28A
100
AcDbEntity
  8
$DDT_AUDIT_GENERATED_(E6)
  6
Continuous
 62
     7
100
AcDbLine
 10
562.2758722995
 20
1060.7028479089
 30
0.0
 11
556.5039881381
 21
1059.9941496465
 31
0.0
  0
LINE
  5
2C5
330
28A
100
AcDbEntity
  8
$DDT_AUDIT_GENERATED_(E6)
  6
Continuous
 62
     7
100
AcDbLine
 10
562.6907783152
 20
1057.3237095823
 30
0.0
 11
562.2758722995
 21
1060.7028479089
 31
0.0
  0
LINE
  5
2C6
330
28A
100
AcDbEntity
  8
$DDT_AUDIT_GENERATED_(E6)
  6
Continuous
 62
     7
100
AcDbLine
 10
556.9188941537
 20
1056.6150113199
 30
0.0
 11
556.5039881381
 21
1059.9941496465
 31
0.0
  0
SPLINE
  5
2C7
330
28A
100
AcDbEntity
  8
$DDT_AUDIT_GENERATED_(E6)
  6
Continuous
 62
     7
100
AcDbSpline
210
0.0
220
0.0
230
1.0
 70
     8
 71
     3
 72
    12
 73
     8
 74
     0
 42
0.0000000017099823
 43
0.0000000001
 40
0.0
 40
0.0
 40
0.0
 40
0.0
 40
0.5
 40
0.5
 40
0.75
 40
0.75
 40
1.0
 40
1.0
 40
1.0
 40
1.0
 10
556.9188941537398
 20
1056.615011319939
 30
0.0
 10
557.8970723380841
 20
1056.57075242113
 30
0.0
 10
558.8681300334395
 20
1056.60158482541
 30
0.0
 10
560.3123257776466
 20
1056.778504405637
 30
0.0
 10
560.7916877365042
 20
1056.858955427469
 30
0.0
 10
561.746448437039
 20
1057.061652794876
 30
0.0
 10
562.2231961222784
 20
1057.184400335541
 30
0.0
 10
562.6907783151686
 20
1057.323709582282
 30
0.0
  0
LINE
  5
2C8
330
28A
100
AcDbEntity
  8
$DDT_AUDIT_GENERATED_(E6)
  6
Continuous
 62
     7
100
AcDbLine
 10
569.0340856264
 20
1057.7041148279
 30
0.0
 11
550.6719818211
 21
1055.4495319749
 31
0.0
  0
LINE
  5
2C9
330
28A
100
AcDbEntity
  8
$DDT_AUDIT_GENERATED_(E6)
  6
Continuous
 62
     7
100
AcDbLine
 10
549.9438902179
 20
1055.7585885244
 30
0.0
 11
556.9188941537
 21
1056.6150113199
 31
0.0
  0
LINE
  5
2CA
330
28A
100
AcDbEntity
  8
$DDT_AUDIT_GENERATED_(E6)
  6
Continuous
 62
     7
100
AcDbLine
 10
562.6907783152
 20
1057.3237095823
 30
0.0
 11
569.665782251
 21
1058.1801323778
 31
0.0
  0
LINE
  5
2CB
330
28A
100
AcDbEntity
  8
$DDT_AUDIT_GENERATED_(E6)
  6
Continuous
 62
     7
100
AcDbLine
 10
569.665782251
 20
1058.1801323778
 30
0.0
 11
569.2649934058
 21
1061.4442955779
 31
0.0
  0
LINE
  5
2CC
330
28A
100
AcDbEntity
  8
$DDT_AUDIT_GENERATED_(E6)
  6
Continuous
 62
     7
100
AcDbLine
 10
549.5430999838
 20
1059.0227630356
 30
0.0
 11
549.9438902179
 21
1055.7585885244
 31
0.0
  0
LINE
  5
2CD
330
28A
100
AcDbEntity
  8
$DDT_AUDIT_GENERATED_(E6)
  6
Continuous
 62
     7
100
AcDbLine
 10
549.9438902179
 20
1055.7585885244
 30
0.0
 11
550.6719818211
 21
1055.4495319749
 31
0.0
  0
LINE
  5
2CE
330
28A
100
AcDbEntity
  8
$DDT_AUDIT_GENERATED_(E6)
  6
Continuous
 62
     7
100
AcDbLine
 10
569.0340856264
 20
1057.7041148279
 30
0.0
 11
569.665782251
 21
1058.1801323778
 31
0.0
  0
LINE
  5
2CF
330
28A
100
AcDbEntity
  8
$DDT_AUDIT_GENERATED_(B9)
  6
Continuous
 62
     7
100
AcDbLine
 10
444.5907796403
 20
795.6100946109
 30
0.0
 11
389.5907796403
 21
795.6100946109
 31
0.0
  0
LINE
  5
2D0
330
28A
100
AcDbEntity
  8
$DDT_AUDIT_GENERATED_(B9)
  6
Continuous
 62
     7
100
AcDbLine
 10
444.0907796403
 20
801.6100946109
 30
0.0
 11
390.0907796403
 21
801.6100946109
 31
0.0
  0
LINE
  5
2D1
330
28A
100
AcDbEntity
  8
$DDT_AUDIT_GENERATED_(B9)
  6
Continuous
 62
     7
100
AcDbLine
 10
439.0907796403
 20
805.6100946109
 30
0.0
 11
395.0907796403
 21
805.6100946109
 31
0.0
  0
LINE
  5
2D2
330
28A
100
AcDbEntity
  8
$DDT_AUDIT_GENERATED_(B9)
  6
Continuous
 62
     7
100
AcDbLine
 10
389.5907796403
 20
801.1100946109
 30
0.0
 11
389.5907796403
 21
795.6100946109
 31
0.0
  0
LINE
  5
2D3
330
28A
100
AcDbEntity
  8
$DDT_AUDIT_GENERATED_(B9)
  6
Continuous
 62
     7
100
AcDbLine
 10
444.5907796403
 20
795.6100946109
 30
0.0
 11
444.5907796403
 21
801.1100946109
 31
0.0
  0
ARC
  5
2D4
330
28A
100
AcDbEntity
  8
$DDT_AUDIT_GENERATED_(B9)
  6
Continuous
 62
     7
100
AcDbCircle
 10
390.0907796403
 20
801.1100946109
 30
0.0
 40
0.5000000000000004
100
AcDbArc
 50
90.0
 51
180.0
  0
ARC
  5
2D5
330
28A
100
AcDbEntity
  8
$DDT_AUDIT_GENERATED_(B9)
  6
Continuous
 62
     7
100
AcDbCircle
 10
444.0907796403
 20
801.1100946109
 30
0.0
 40
0.5000000000000004
100
AcDbArc
 50
0.0
 51
90.0
  0
ARC
  5
2D6
330
28A
100
AcDbEntity
  8
$DDT_AUDIT_GENERATED_(B9)
  6
Continuous
 62
     7
100
AcDbCircle
 10
394.0907796403
 20
802.1100946109
 30
0.0
 40
0.5000000000000004
100
AcDbArc
 50
270.0
 51
0.0
  0
ARC
  5
2D7
330
28A
100
AcDbEntity
  8
$DDT_AUDIT_GENERATED_(B9)
  6
Continuous
 62
     7
100
AcDbCircle
 10
440.0907796403
 20
802.1100946109
 30
0.0
 40
0.5000000000000004
100
AcDbArc
 50
180.0
 51
270.0
  0
LINE
  5
2D8
330
28A
100
AcDbEntity
  8
$DDT_AUDIT_GENERATED_(B9)
  6
Continuous
 62
     7
100
AcDbLine
 10
394.5907796403
 20
805.1100946109
 30
0.0
 11
394.5907796403
 21
802.1100946109
 31
0.0
  0
LINE
  5
2D9
330
28A
100
AcDbEntity
  8
$DDT_AUDIT_GENERATED_(B9)
  6
Continuous
 62
     7
100
AcDbLine
 10
439.5907796403
 20
802.1100946109
 30
0.0
 11
439.5907796403
 21
805.1100946109
 31
0.0
  0
ARC
  5
2DA
330
28A
100
AcDbEntity
  8
$DDT_AUDIT_GENERATED_(B9)
  6
Continuous
 62
     7
100
AcDbCircle
 10
395.0907796403
 20
805.1100946109
 30
0.0
 40
0.5000000000000004
100
AcDbArc
 50
90.0
 51
180.0
  0
ARC
  5
2DB
330
28A
100
AcDbEntity
  8
$DDT_AUDIT_GENERATED_(B9)
  6
Continuous
 62
     7
100
AcDbCircle
 10
439.0907796403
 20
805.1100946109
 30
0.0
 40
0.5000000000000004
100
AcDbArc
 50
0.0
 51
90.0
  0
LINE
  5
2DC
330
28A
100
AcDbEntity
  8
08013038_FÜHRUNG
  6
Continuous
 62
     7
100
AcDbLine
 10
431.4407796403
 20
844.7100946109
 30
0.0
 11
402.7407796403
 21
844.7100946109
 31
0.0
  0
LINE
  5
2DD
330
28A
100
AcDbEntity
  8
08013038_FÜHRUNG
  6
Continuous
 62
     7
100
AcDbLine
 10
431.9407796403
 20
840.6100946109
 30
0.0
 11
431.9407796403
 21
844.2100946109
 31
0.0
  0
LINE
  5
2DE
330
28A
100
AcDbEntity
  8
08013038_FÜHRUNG
  6
Continuous
 62
     7
100
AcDbLine
 10
402.2407796403
 20
844.2100946109
 30
0.0
 11
402.2407796403
 21
840.6100946109
 31
0.0
  0
LINE
  5
2DF
330
28A
100
AcDbEntity
  8
08013038_FÜHRUNG
  6
Continuous
 62
     7
100
AcDbLine
 10
409.5907796403
 20
845.2100946109
 30
0.0
 11
409.5907796403
 21
844.7100946109
 31
0.0
  0
LINE
  5
2E0
330
28A
100
AcDbEntity
  8
08013038_FÜHRUNG
  6
Continuous
 62
     7
100
AcDbLine
 10
424.5907796403
 20
844.7100946109
 30
0.0
 11
424.5907796403
 21
845.2100946109
 31
0.0
  0
ARC
  5
2E1
330
28A
100
AcDbEntity
  8
08013038_FÜHRUNG
  6
Continuous
 62
     7
100
AcDbCircle
 10
431.4407796403
 20
844.2100946109
 30
0.0
 40
0.5000000000000022
100
AcDbArc
 50
0.0
 51
90.0
  0
ARC
  5
2E2
330
28A
100
AcDbEntity
  8
08013038_FÜHRUNG
  6
Continuous
 62
     7
100
AcDbCircle
 10
402.7407796403
 20
844.2100946109
 30
0.0
 40
0.5000000000000004
100
AcDbArc
 50
90.0
 51
180.0
  0
LINE
  5
2E3
330
28A
100
AcDbEntity
  8
$DDT_AUDIT_GENERATED_(25E)
  6
Continuous
 62
     7
100
AcDbLine
 10
406.0907796403
 20
845.2100946109
 30
0.0
 11
428.0907796403
 21
845.2100946109
 31
0.0
  0
LINE
  5
2E4
330
28A
100
AcDbEntity
  8
$DDT_AUDIT_GENERATED_(25E)
  6
Continuous
 62
     7
100
AcDbLine
 10
423.0907796403
 20
865.7100946109
 30
0.0
 11
427.5907796403
 21
865.7100946109
 31
0.0
  0
LINE
  5
2E5
330
28A
100
AcDbEntity
  8
$DDT_AUDIT_GENERATED_(25E)
  6
Continuous
 62
     7
100
AcDbLine
 10
406.5907796403
 20
865.7100946109
 30
0.0
 11
411.0907796403
 21
865.7100946109
 31
0.0
  0
CIRCLE
  5
2E6
330
28A
100
AcDbEntity
  8
$DDT_AUDIT_GENERATED_(25E)
  6
Continuous
 62
     7
100
AcDbCircle
 10
417.0907796403
 20
865.7100946109
 30
0.0
 40
6.0
  0
LINE
  5
2E7
330
28A
100
AcDbEntity
  8
$DDT_AUDIT_GENERATED_(25E)
  6
Continuous
 62
     7
100
AcDbLine
 10
406.0907796403
 20
865.2100946109
 30
0.0
 11
406.0907796403
 21
845.2100946109
 31
0.0
  0
LINE
  5
2E8
330
28A
100
AcDbEntity
  8
$DDT_AUDIT_GENERATED_(25E)
  6
Continuous
 62
     7
100
AcDbLine
 10
428.0907796403
 20
845.2100946109
 30
0.0
 11
428.0907796403
 21
865.2100946109
 31
0.0
  0
ARC
  5
2E9
330
28A
100
AcDbEntity
  8
$DDT_AUDIT_GENERATED_(25E)
  6
Continuous
 62
     7
100
AcDbCircle
 10
427.5907796403
 20
865.2100946109
 30
0.0
 40
0.5000000000000004
100
AcDbArc
 50
0.0
 51
90.0
  0
ARC
  5
2EA
330
28A
100
AcDbEntity
  8
$DDT_AUDIT_GENERATED_(25E)
  6
Continuous
 62
     7
100
AcDbCircle
 10
406.5907796403
 20
865.2100946109
 30
0.0
 40
0.5000000000000004
100
AcDbArc
 50
90.0
 51
180.0
  0
ENDBLK
  5
2EC
330
28A
100
AcDbEntity
  8
0
100
AcDbBlockEnd
  0
BLOCK
  5
344
330
2ED
100
AcDbEntity
  8
0
100
AcDbBlockBegin
  2
SE2
 70
     0
 10
0.0
 20
0.0
 30
0.0
  3
SE2
  1

  0
ARC
  5
2EF
330
2ED
100
AcDbEntity
  8
$DDT_AUDIT_GENERATED_(97)
  6
Continuous
 62
     7
100
AcDbCircle
 10
166.35
 20
266.4370123684
 30
0.0
 40
18.0
100
AcDbArc
 50
309.7090165531
 51
0.0
  0
ARC
  5
2F0
330
2ED
100
AcDbEntity
  8
$DDT_AUDIT_GENERATED_(97)
  6
Continuous
 62
     7
100
AcDbCircle
 10
166.35
 20
266.4370123684
 30
0.0
 40
18.0
100
AcDbArc
 50
0.0
 51
230.2909834469
  0
ARC
  5
2F1
330
2ED
100
AcDbEntity
  8
$DDT_AUDIT_GENERATED_(9D)
  6
Continuous
 62
     7
100
AcDbCircle
 10
166.35
 20
266.4370123684
 30
0.0
 40
27.5
100
AcDbArc
 50
294.7198511829
 51
0.0
  0
ARC
  5
2F2
330
2ED
100
AcDbEntity
  8
$DDT_AUDIT_GENERATED_(9D)
  6
Continuous
 62
     7
100
AcDbCircle
 10
166.35
 20
266.4370123684
 30
0.0
 40
27.5
100
AcDbArc
 50
109.1033244775
 51
245.2801488171
  0
ARC
  5
2F3
330
2ED
100
AcDbEntity
  8
$DDT_AUDIT_GENERATED_(9D)
  6
Continuous
 62
     7
100
AcDbCircle
 10
166.35
 20
266.4370123684
 30
0.0
 40
27.5
100
AcDbArc
 50
0.0
 51
70.8966755225
  0
ARC
  5
2F4
330
2ED
100
AcDbEntity
  8
$DDT_AUDIT_GENERATED_(9D)
  6
Continuous
 62
     7
100
AcDbCircle
 10
166.35
 20
266.4370123684
 30
0.0
 40
22.5
100
AcDbArc
 50
300.7378686721
 51
0.0
  0
ARC
  5
2F5
330
2ED
100
AcDbEntity
  8
$DDT_AUDIT_GENERATED_(9D)
  6
Continuous
 62
     7
100
AcDbCircle
 10
166.35
 20
266.4370123684
 30
0.0
 40
22.5
100
AcDbArc
 50
113.5781784782
 51
239.2621313279
  0
ARC
  5
2F6
330
2ED
100
AcDbEntity
  8
$DDT_AUDIT_GENERATED_(9D)
  6
Continuous
 62
     7
100
AcDbCircle
 10
166.35
 20
266.4370123684
 30
0.0
 40
22.5
100
AcDbArc
 50
0.0
 51
66.4218215218
  0
ARC
  5
2F7
330
2ED
100
AcDbEntity
  8
$DDT_AUDIT_GENERATED_(AB)
  6
Continuous
 62
     7
100
AcDbCircle
 10
266.35
 20
266.4370123684
 30
0.0
 40
15.0
100
AcDbArc
 50
23.5781784782
 51
156.4218215218
  0
ARC
  5
2F8
330
2ED
100
AcDbEntity
  8
$DDT_AUDIT_GENERATED_(AB)
  6
Continuous
 62
     7
100
AcDbCircle
 10
266.35
 20
266.4370123684
 30
0.0
 40
15.0
100
AcDbArc
 50
203.5781784782
 51
336.4218215218
  0
ARC
  5
2F9
330
2ED
100
AcDbEntity
  8
$DDT_AUDIT_GENERATED_(AB)
  6
Continuous
 62
     7
100
AcDbCircle
 10
266.35
 20
266.4370123684
 30
0.0
 40
18.00000000000001
100
AcDbArc
 50
19.4712206345
 51
340.5287793655
  0
ARC
  5
2FA
330
2ED
100
AcDbEntity
  8
$DDT_AUDIT_GENERATED_(AB)
  6
Continuous
 62
     7
100
AcDbCircle
 10
66.35
 20
266.4370123684
 30
0.0
 40
15.0
100
AcDbArc
 50
23.5781784782
 51
156.4218215218
  0
ARC
  5
2FB
330
2ED
100
AcDbEntity
  8
$DDT_AUDIT_GENERATED_(AB)
  6
Continuous
 62
     7
100
AcDbCircle
 10
66.35
 20
266.4370123684
 30
0.0
 40
15.0
100
AcDbArc
 50
203.5781784782
 51
336.4218215218
  0
ARC
  5
2FC
330
2ED
100
AcDbEntity
  8
$DDT_AUDIT_GENERATED_(AB)
  6
Continuous
 62
     7
100
AcDbCircle
 10
66.35
 20
266.4370123684
 30
0.0
 40
18.00000000000001
100
AcDbArc
 50
199.4712206345
 51
0.0
  0
ARC
  5
2FD
330
2ED
100
AcDbEntity
  8
$DDT_AUDIT_GENERATED_(AB)
  6
Continuous
 62
     7
100
AcDbCircle
 10
66.35
 20
266.4370123684
 30
0.0
 40
18.00000000000001
100
AcDbArc
 50
0.0
 51
160.5287793655
  0
LINE
  5
2FF
330
2ED
100
AcDbEntity
  8
$DDT_AUDIT_GENERATED_(2FE)
  6
Continuous
 62
     7
100
AcDbLine
 10
164.35
 20
284.6751496574
 30
0.0
 11
164.35
 21
284.3255561884
 31
0.0
  0
LINE
  5
300
330
2ED
100
AcDbEntity
  8
$DDT_AUDIT_GENERATED_(2FE)
  6
Continuous
 62
     7
100
AcDbLine
 10
168.35
 20
284.3255561884
 30
0.0
 11
168.35
 21
284.6751496574
 31
0.0
  0
LINE
  5
301
330
2ED
100
AcDbEntity
  8
$DDT_AUDIT_GENERATED_(296)
  6
Continuous
 62
     7
100
AcDbLine
 10
157.35
 20
294.1751496574
 30
0.0
 11
157.35
 21
285.1751496574
 31
0.0
  0
LINE
  5
302
330
2ED
100
AcDbEntity
  8
$DDT_AUDIT_GENERATED_(296)
  6
Continuous
 62
     7
100
AcDbLine
 10
175.35
 20
285.1751496574
 30
0.0
 11
175.35
 21
294.1751496574
 31
0.0
  0
LINE
  5
303
330
2ED
100
AcDbEntity
  8
$DDT_AUDIT_GENERATED_(296)
  6
Continuous
 62
     7
100
AcDbLine
 10
157.85
 20
284.6751496574
 30
0.0
 11
174.85
 21
284.6751496574
 31
0.0
  0
LINE
  5
304
330
2ED
100
AcDbEntity
  8
$DDT_AUDIT_GENERATED_(296)
  6
Continuous
 62
     7
100
AcDbLine
 10
174.85
 20
294.6751496574
 30
0.0
 11
157.85
 21
294.6751496574
 31
0.0
  0
ARC
  5
305
330
2ED
100
AcDbEntity
  8
$DDT_AUDIT_GENERATED_(296)
  6
Continuous
 62
     7
100
AcDbCircle
 10
157.85
 20
285.1751496574
 30
0.0
 40
0.5000000000000004
100
AcDbArc
 50
180.0
 51
270.0
  0
ARC
  5
306
330
2ED
100
AcDbEntity
  8
$DDT_AUDIT_GENERATED_(296)
  6
Continuous
 62
     7
100
AcDbCircle
 10
157.85
 20
294.1751496574
 30
0.0
 40
0.5000000000000004
100
AcDbArc
 50
90.0
 51
180.0
  0
ARC
  5
307
330
2ED
100
AcDbEntity
  8
$DDT_AUDIT_GENERATED_(296)
  6
Continuous
 62
     7
100
AcDbCircle
 10
174.85
 20
285.1751496574
 30
0.0
 40
0.5000000000000004
100
AcDbArc
 50
270.0
 51
0.0
  0
ARC
  5
308
330
2ED
100
AcDbEntity
  8
$DDT_AUDIT_GENERATED_(296)
  6
Continuous
 62
     7
100
AcDbCircle
 10
174.85
 20
294.1751496574
 30
0.0
 40
0.5000000000000004
100
AcDbArc
 50
0.0
 51
90.0
  0
ARC
  5
309
330
2ED
100
AcDbEntity
  8
$DDT_AUDIT_GENERATED_(B9)
  6
Continuous
 62
     7
100
AcDbCircle
 10
266.35
 20
266.4370123684
 30
0.0
 40
27.5
100
AcDbArc
 50
12.6022648415
 51
347.3977351585
  0
ARC
  5
30A
330
2ED
100
AcDbEntity
  8
$DDT_AUDIT_GENERATED_(B9)
  6
Continuous
 62
     7
100
AcDbCircle
 10
266.35
 20
266.4370123684
 30
0.0
 40
22.5
100
AcDbArc
 50
15.4660099534
 51
344.5339900466
  0
ARC
  5
30C
330
2ED
100
AcDbEntity
  8
$DDT_AUDIT_GENERATED_(30B)
  6
Continuous
 62
     7
100
AcDbCircle
 10
266.35
 20
266.4370123684
 30
0.0
 40
14.95
100
AcDbArc
 50
23.6618370306
 51
156.3381629694
  0
ARC
  5
30D
330
2ED
100
AcDbEntity
  8
$DDT_AUDIT_GENERATED_(30B)
  6
Continuous
 62
     7
100
AcDbCircle
 10
266.35
 20
266.4370123684
 30
0.0
 40
14.95
100
AcDbArc
 50
203.6618370306
 51
336.3381629694
  0
ARC
  5
30E
330
2ED
100
AcDbEntity
  8
$DDT_AUDIT_GENERATED_(30B)
  6
Continuous
 62
     7
100
AcDbCircle
 10
66.35
 20
266.4370123684
 30
0.0
 40
14.95
100
AcDbArc
 50
23.6618370306
 51
156.3381629694
  0
ARC
  5
30F
330
2ED
100
AcDbEntity
  8
$DDT_AUDIT_GENERATED_(30B)
  6
Continuous
 62
     7
100
AcDbCircle
 10
66.35
 20
266.4370123684
 30
0.0
 40
14.95
100
AcDbArc
 50
203.6618370306
 51
336.3381629694
  0
ARC
  5
310
330
2ED
100
AcDbEntity
  8
$DDT_AUDIT_GENERATED_(C7)
  6
Continuous
 62
     7
100
AcDbCircle
 10
166.35
 20
266.4370123684
 30
0.0
 40
11.5
100
AcDbArc
 50
0.0
 51
180.0
  0
ELLIPSE
  5
311
330
2ED
100
AcDbEntity
  8
$DDT_AUDIT_GENERATED_(C7)
  6
Continuous
 62
     7
100
AcDbEllipse
 10
166.35
 20
173.1376741141
 30
0.0
 11
11.5
 21
1.387778780781446E-14
 31
0.0
210
0.0
220
0.0
230
1.0
 40
0.1218693434
 41
0.0
 42
3.141592653589793
  0
LINE
  5
312
330
2ED
100
AcDbEntity
  8
$DDT_AUDIT_GENERATED_(C7)
  6
Continuous
 62
     7
100
AcDbLine
 10
154.85
 20
266.4370123684
 30
0.0
 11
154.85
 21
231.3117861046
 31
0.0
  0
LINE
  5
313
330
2ED
100
AcDbEntity
  8
$DDT_AUDIT_GENERATED_(C7)
  6
Continuous
 62
     7
100
AcDbLine
 10
177.85
 20
231.3117861046
 30
0.0
 11
177.85
 21
266.4370123684
 31
0.0
  0
LINE
  5
314
330
2ED
100
AcDbEntity
  8
$DDT_AUDIT_GENERATED_(C7)
  6
Continuous
 62
     7
100
AcDbLine
 10
177.85
 20
173.1376741141
 30
0.0
 11
177.85
 21
231.3117861046
 31
0.0
  0
LINE
  5
315
330
2ED
100
AcDbEntity
  8
$DDT_AUDIT_GENERATED_(C7)
  6
Continuous
 62
     7
100
AcDbLine
 10
154.85
 20
231.3117861046
 30
0.0
 11
154.85
 21
173.1376741141
 31
0.0
  0
ELLIPSE
  5
316
330
2ED
100
AcDbEntity
  8
$DDT_AUDIT_GENERATED_(D2)
  6
Continuous
 62
     7
100
AcDbEllipse
 10
166.35
 20
173.1376741141
 30
0.0
 11
11.5
 21
1.387778780781446E-14
 31
0.0
210
0.0
220
0.0
230
1.0
 40
0.1218693434
 41
0.0
 42
3.141592653589783
  0
ELLIPSE
  5
317
330
2ED
100
AcDbEntity
  8
$DDT_AUDIT_GENERATED_(D2)
  6
Continuous
 62
     7
100
AcDbEllipse
 10
166.35
 20
107.6296281058
 30
0.0
 11
10.5
 21
2.775557561562891E-14
 31
0.0
210
0.0
220
0.0
230
1.0
 40
0.1218693434
 41
0.6708898440847495
 42
2.475314654988409
  0
ELLIPSE
  5
318
330
2ED
100
AcDbEntity
  8
$DDT_AUDIT_GENERATED_(D2)
  6
Continuous
 62
     7
100
AcDbEllipse
 10
166.35
 20
107.6296281058
 30
0.0
 11
10.5
 21
2.775557561562891E-14
 31
0.0
210
0.0
220
0.0
230
1.0
 40
0.1218693434
 41
4.446442098094548
 42
5.442594099470918
  0
LINE
  5
319
330
2ED
100
AcDbEntity
  8
$DDT_AUDIT_GENERATED_(D2)
  6
Continuous
 62
     7
100
AcDbLine
 10
177.85
 20
108.6221742574
 30
0.0
 11
177.85
 21
173.1376741141
 31
0.0
  0
LINE
  5
31A
330
2ED
100
AcDbEntity
  8
$DDT_AUDIT_GENERATED_(D2)
  6
Continuous
 62
     7
100
AcDbLine
 10
154.85
 20
173.1376741141
 30
0.0
 11
154.85
 21
108.6221742574
 31
0.0
  0
SPLINE
  5
31B
330
2ED
100
AcDbEntity
  8
$DDT_AUDIT_GENERATED_(D2)
  6
Continuous
 62
     7
100
AcDbSpline
210
0.0
220
0.0
230
1.0
 70
     8
 71
     3
 72
    18
 73
    14
 74
     0
 42
0.0000000019533675
 43
0.0000000001
 40
0.0
 40
0.0
 40
0.0
 40
0.0
 40
0.0218753602825263
 40
0.1549680554679458
 40
0.2893210761010996
 40
0.4259540186032318
 40
0.567251054573405
 40
0.7201617980732822
 40
0.8035766783771597
 40
0.8706381178589493
 40
0.9332304591036307
 40
0.9943706224546384
 40
1.0
 40
1.0
 40
1.0
 40
1.0
 10
173.5468409199979
 20
106.6856712036413
 30
0.0
 10
173.6046932260706
 20
106.6915464687542
 30
0.0
 10
173.9560793585628
 20
106.7273438164103
 30
0.0
 10
174.5854966994449
 20
106.8136378896035
 30
0.0
 10
175.3527497082579
 20
106.9386544067444
 30
0.0
 10
176.0266396733559
 20
107.0825247557347
 30
0.0
 10
176.6148675795398
 20
107.2521220941276
 30
0.0
 10
177.0451648277644
 20
107.4316215049767
 30
0.0
 10
177.3786867024882
 20
107.6535480079172
 30
0.0
 10
177.618391307105
 20
107.8953955235737
 30
0.0
 10
177.7864815840671
 20
108.2041110243025
 30
0.0
 10
177.8671851282582
 20
108.4855368139337
 30
0.0
 10
177.8465693067585
 20
108.6135937646762
 30
0.0
 10
177.8445346280844
 20
108.6261548070214
 30
0.0
  0
ARC
  5
31C
330
2ED
100
AcDbEntity
  8
$DDT_AUDIT_GENERATED_(D2)
  6
Continuous
 62
     7
100
AcDbCircle
 10
165.34961807
 20
165.2905910213
 30
0.0
 40
58.92919948192569
100
AcDbArc
 50
266.2681046498
 51
268.2463832897
  0
SPLINE
  5
31D
330
2ED
100
AcDbEntity
  8
$DDT_AUDIT_GENERATED_(D2)
  6
Continuous
 62
     7
100
AcDbSpline
210
0.0
220
0.0
230
1.0
 70
     8
 71
     3
 72
    20
 73
    16
 74
     0
 42
0.0000000013389673
 43
0.0000000001
 40
0.0
 40
0.0
 40
0.0
 40
0.0
 40
0.0375832710941691
 40
0.0843894561284056
 40
0.1316498316205002
 40
0.1849729634854679
 40
0.2526901763679065
 40
0.3503490883293839
 40
0.4566126084025408
 40
0.5575560250895172
 40
0.663938981239422
 40
0.7676011254255427
 40
0.8698935335718951
 40
0.9714375157913204
 40
1.0
 40
1.0
 40
1.0
 40
1.0
 10
154.8637438131057
 20
108.6114963352439
 30
0.0
 10
154.8673584678821
 20
108.4977745988729
 30
0.0
 10
154.8757218619293
 20
108.2830935917806
 30
0.0
 10
155.0317574820747
 20
107.9710558371067
 30
0.0
 10
155.2369760914766
 20
107.7289802077999
 30
0.0
 10
155.4822545805406
 20
107.539378175312
 30
0.0
 10
155.7975138340925
 20
107.3687991109028
 30
0.0
 10
156.2208520166168
 20
107.2089274862544
 30
0.0
 10
156.7832597613308
 20
107.0566067111596
 30
0.0
 10
157.4699529024439
 20
106.9165095355249
 30
0.0
 10
158.259617838342
 20
106.7913805544533
 30
0.0
 10
159.1602944325127
 20
106.6789818428164
 30
0.0
 10
160.1334624583787
 20
106.5841586196642
 30
0.0
 10
160.9488140711987
 20
106.518517856141
 30
0.0
 10
161.3984980937375
 20
106.4928892661807
 30
0.0
 10
161.5140451316592
 20
106.4863485568727
 30
0.0
  0
ARC
  5
31E
330
2ED
100
AcDbEntity
  8
$DDT_AUDIT_GENERATED_(DA)
  6
Continuous
 62
     7
100
AcDbCircle
 10
166.35
 20
266.4370123684
 30
0.0
 40
14.99999999999999
100
AcDbArc
 50
320.0554948102
 51
0.0
  0
ARC
  5
31F
330
2ED
100
AcDbEntity
  8
$DDT_AUDIT_GENERATED_(DA)
  6
Continuous
 62
     7
100
AcDbCircle
 10
166.35
 20
266.4370123684
 30
0.0
 40
14.99999999999999
100
AcDbArc
 50
0.0
 51
219.9445051898
  0
ARC
  5
320
330
2ED
100
AcDbEntity
  8
$DDT_AUDIT_GENERATED_(B9)
  6
Continuous
 62
     7
100
AcDbCircle
 10
66.35
 20
266.4370123684
 30
0.0
 40
27.5
100
AcDbArc
 50
0.0
 51
167.3977351585
  0
ARC
  5
321
330
2ED
100
AcDbEntity
  8
$DDT_AUDIT_GENERATED_(B9)
  6
Continuous
 62
     7
100
AcDbCircle
 10
66.35
 20
266.4370123684
 30
0.0
 40
27.5
100
AcDbArc
 50
192.6022648415
 51
0.0
  0
ARC
  5
322
330
2ED
100
AcDbEntity
  8
$DDT_AUDIT_GENERATED_(B9)
  6
Continuous
 62
     7
100
AcDbCircle
 10
66.35
 20
266.4370123684
 30
0.0
 40
22.5
100
AcDbArc
 50
0.0
 51
164.5339900466
  0
ARC
  5
323
330
2ED
100
AcDbEntity
  8
$DDT_AUDIT_GENERATED_(B9)
  6
Continuous
 62
     7
100
AcDbCircle
 10
66.35
 20
266.4370123684
 30
0.0
 40
22.5
100
AcDbArc
 50
195.4660099534
 51
0.0
  0
ARC
  5
324
330
2ED
100
AcDbEntity
  8
08013038_FÜHRUNG
  6
Continuous
 62
     7
100
AcDbCircle
 10
66.35
 20
266.4370123684
 30
0.0
 40
14.85
100
AcDbArc
 50
203.8310078895
 51
336.1689921105
  0
ARC
  5
325
330
2ED
100
AcDbEntity
  8
08013038_FÜHRUNG
  6
Continuous
 62
     7
100
AcDbCircle
 10
66.35
 20
266.4370123684
 30
0.0
 40
14.85
100
AcDbArc
 50
23.8310078895
 51
156.1689921105
  0
LINE
  5
326
330
2ED
100
AcDbEntity
  8
$DDT_AUDIT_GENERATED_(25E)
  6
Continuous
 62
     7
100
AcDbLine
 10
82.35
 20
260.9370123684
 30
0.0
 11
82.35
 21
271.9370123684
 31
0.0
  0
ARC
  5
327
330
2ED
100
AcDbEntity
  8
$DDT_AUDIT_GENERATED_(25E)
  6
Continuous
 62
     7
100
AcDbCircle
 10
66.35
 20
266.4370123684
 30
0.0
 40
10.99999999999999
100
AcDbArc
 50
212.9261300415
 51
327.0738699585
  0
LINE
  5
328
330
2ED
100
AcDbEntity
  8
$DDT_AUDIT_GENERATED_(25E)
  6
Continuous
 62
     7
100
AcDbLine
 10
57.7331560302
 20
260.4370123684
 30
0.0
 11
74.9668439698
 21
260.4370123684
 31
0.0
  0
ARC
  5
329
330
2ED
100
AcDbEntity
  8
$DDT_AUDIT_GENERATED_(25E)
  6
Continuous
 62
     7
100
AcDbCircle
 10
66.35
 20
266.4370123684
 30
0.0
 40
11.00000000000001
100
AcDbArc
 50
32.9261300415
 51
147.0738699585
  0
LINE
  5
32A
330
2ED
100
AcDbEntity
  8
$DDT_AUDIT_GENERATED_(25E)
  6
Continuous
 62
     7
100
AcDbLine
 10
74.9668439698
 20
272.4370123684
 30
0.0
 11
57.7331560302
 21
272.4370123684
 31
0.0
  0
LINE
  5
32B
330
2ED
100
AcDbEntity
  8
$DDT_AUDIT_GENERATED_(25E)
  6
Continuous
 62
     7
100
AcDbLine
 10
6.35
 20
271.9370123684
 30
0.0
 11
6.35
 21
260.9370123684
 31
0.0
  0
LINE
  5
32C
330
2ED
100
AcDbEntity
  8
$DDT_AUDIT_GENERATED_(25E)
  6
Continuous
 62
     7
100
AcDbLine
 10
74.9668439698
 20
260.4370123684
 30
0.0
 11
81.85
 21
260.4370123684
 31
0.0
  0
LINE
  5
32D
330
2ED
100
AcDbEntity
  8
$DDT_AUDIT_GENERATED_(25E)
  6
Continuous
 62
     7
100
AcDbLine
 10
6.85
 20
260.4370123684
 30
0.0
 11
57.7331560302
 21
260.4370123684
 31
0.0
  0
LINE
  5
32E
330
2ED
100
AcDbEntity
  8
$DDT_AUDIT_GENERATED_(25E)
  6
Continuous
 62
     7
100
AcDbLine
 10
57.7331560302
 20
272.4370123684
 30
0.0
 11
6.85
 21
272.4370123684
 31
0.0
  0
LINE
  5
32F
330
2ED
100
AcDbEntity
  8
$DDT_AUDIT_GENERATED_(25E)
  6
Continuous
 62
     7
100
AcDbLine
 10
81.85
 20
272.4370123684
 30
0.0
 11
74.9668439698
 21
272.4370123684
 31
0.0
  0
ARC
  5
330
330
2ED
100
AcDbEntity
  8
$DDT_AUDIT_GENERATED_(25E)
  6
Continuous
 62
     7
100
AcDbCircle
 10
81.85
 20
271.9370123684
 30
0.0
 40
0.5000000000000004
100
AcDbArc
 50
0.0
 51
90.0
  0
ARC
  5
331
330
2ED
100
AcDbEntity
  8
$DDT_AUDIT_GENERATED_(25E)
  6
Continuous
 62
     7
100
AcDbCircle
 10
81.85
 20
260.9370123684
 30
0.0
 40
0.5000000000000004
100
AcDbArc
 50
270.0
 51
0.0
  0
ARC
  5
332
330
2ED
100
AcDbEntity
  8
$DDT_AUDIT_GENERATED_(25E)
  6
Continuous
 62
     7
100
AcDbCircle
 10
6.85
 20
271.9370123684
 30
0.0
 40
0.5000000000000004
100
AcDbArc
 50
90.0
 51
180.0
  0
ARC
  5
333
330
2ED
100
AcDbEntity
  8
$DDT_AUDIT_GENERATED_(25E)
  6
Continuous
 62
     7
100
AcDbCircle
 10
6.85
 20
260.9370123684
 30
0.0
 40
0.5000000000000004
100
AcDbArc
 50
180.0
 51
270.0
  0
ARC
  5
334
330
2ED
100
AcDbEntity
  8
08013038_FÜHRUNG
  6
Continuous
 62
     7
100
AcDbCircle
 10
266.35
 20
266.4370123684
 30
0.0
 40
14.85
100
AcDbArc
 50
203.8310078895
 51
336.1689921105
  0
ARC
  5
335
330
2ED
100
AcDbEntity
  8
08013038_FÜHRUNG
  6
Continuous
 62
     7
100
AcDbCircle
 10
266.35
 20
266.4370123684
 30
0.0
 40
14.85
100
AcDbArc
 50
23.8310078895
 51
156.1689921105
  0
LINE
  5
336
330
2ED
100
AcDbEntity
  8
$DDT_AUDIT_GENERATED_(25E)
  6
Continuous
 62
     7
100
AcDbLine
 10
250.35
 20
271.9370123684
 30
0.0
 11
250.35
 21
260.9370123684
 31
0.0
  0
ARC
  5
337
330
2ED
100
AcDbEntity
  8
$DDT_AUDIT_GENERATED_(25E)
  6
Continuous
 62
     7
100
AcDbCircle
 10
266.35
 20
266.4370123684
 30
0.0
 40
10.99999999999999
100
AcDbArc
 50
32.9261300415
 51
147.0738699585
  0
LINE
  5
338
330
2ED
100
AcDbEntity
  8
$DDT_AUDIT_GENERATED_(25E)
  6
Continuous
 62
     7
100
AcDbLine
 10
274.9668439698
 20
272.4370123684
 30
0.0
 11
257.7331560302
 21
272.4370123684
 31
0.0
  0
ARC
  5
339
330
2ED
100
AcDbEntity
  8
$DDT_AUDIT_GENERATED_(25E)
  6
Continuous
 62
     7
100
AcDbCircle
 10
266.35
 20
266.4370123684
 30
0.0
 40
11.0
100
AcDbArc
 50
212.9261300415
 51
327.0738699585
  0
LINE
  5
33A
330
2ED
100
AcDbEntity
  8
$DDT_AUDIT_GENERATED_(25E)
  6
Continuous
 62
     7
100
AcDbLine
 10
257.7331560302
 20
260.4370123684
 30
0.0
 11
274.9668439698
 21
260.4370123684
 31
0.0
  0
LINE
  5
33B
330
2ED
100
AcDbEntity
  8
$DDT_AUDIT_GENERATED_(25E)
  6
Continuous
 62
     7
100
AcDbLine
 10
326.35
 20
260.9370123684
 30
0.0
 11
326.35
 21
271.9370123684
 31
0.0
  0
LINE
  5
33C
330
2ED
100
AcDbEntity
  8
$DDT_AUDIT_GENERATED_(25E)
  6
Continuous
 62
     7
100
AcDbLine
 10
257.7331560302
 20
272.4370123684
 30
0.0
 11
250.85
 21
272.4370123684
 31
0.0
  0
LINE
  5
33D
330
2ED
100
AcDbEntity
  8
$DDT_AUDIT_GENERATED_(25E)
  6
Continuous
 62
     7
100
AcDbLine
 10
325.85
 20
272.4370123684
 30
0.0
 11
274.9668439698
 21
272.4370123684
 31
0.0
  0
LINE
  5
33E
330
2ED
100
AcDbEntity
  8
$DDT_AUDIT_GENERATED_(25E)
  6
Continuous
 62
     7
100
AcDbLine
 10
274.9668439698
 20
260.4370123684
 30
0.0
 11
325.85
 21
260.4370123684
 31
0.0
  0
LINE
  5
33F
330
2ED
100
AcDbEntity
  8
$DDT_AUDIT_GENERATED_(25E)
  6
Continuous
 62
     7
100
AcDbLine
 10
250.85
 20
260.4370123684
 30
0.0
 11
257.7331560302
 21
260.4370123684
 31
0.0
  0
ARC
  5
340
330
2ED
100
AcDbEntity
  8
$DDT_AUDIT_GENERATED_(25E)
  6
Continuous
 62
     7
100
AcDbCircle
 10
250.85
 20
260.9370123684
 30
0.0
 40
0.5000000000000004
100
AcDbArc
 50
180.0
 51
270.0
  0
ARC
  5
341
330
2ED
100
AcDbEntity
  8
$DDT_AUDIT_GENERATED_(25E)
  6
Continuous
 62
     7
100
AcDbCircle
 10
250.85
 20
271.9370123684
 30
0.0
 40
0.5000000000000004
100
AcDbArc
 50
90.0
 51
180.0
  0
ARC
  5
342
330
2ED
100
AcDbEntity
  8
$DDT_AUDIT_GENERATED_(25E)
  6
Continuous
 62
     7
100
AcDbCircle
 10
325.85
 20
260.9370123684
 30
0.0
 40
0.5000000000000004
100
AcDbArc
 50
270.0
 51
0.0
  0
ARC
  5
343
330
2ED
100
AcDbEntity
  8
$DDT_AUDIT_GENERATED_(25E)
  6
Continuous
 62
     7
100
AcDbCircle
 10
325.85
 20
271.9370123684
 30
0.0
 40
0.5000000000000004
100
AcDbArc
 50
0.0
 51
90.0
  0
ENDBLK
  5
345
330
2ED
100
AcDbEntity
  8
0
100
AcDbBlockEnd
  0
ENDSEC
  0
SECTION
  2
ENTITIES
  0
INSERT
  5
5F
330
1F
100
AcDbEntity
  8
Default
100
AcDbBlockReference
  2
SEANNOT_GROUP
 10
0.0
 20
0.0
 30
0.0
  0
INSERT
  5
6A
330
1F
100
AcDbEntity
  8
Default
100
AcDbBlockReference
  2
SEANNOT_GROUP1
 10
0.0
 20
0.0
 30
0.0
  0
INSERT
  5
74
330
1F
100
AcDbEntity
  8
Default
100
AcDbBlockReference
  2
SEANNOT_GROUP2
 10
0.0
 20
0.0
 30
0.0
  0
INSERT
  5
7E
330
1F
100
AcDbEntity
  8
Default
100
AcDbBlockReference
  2
SEANNOT_GROUP3
 10
0.0
 20
0.0
 30
0.0
  0
INSERT
  5
84
330
1F
100
AcDbEntity
  8
Default
100
AcDbBlockReference
  2
SEANNOT_GROUP4
 10
0.0
 20
0.0
 30
0.0
  0
INSERT
  5
8A
330
1F
100
AcDbEntity
  8
Default
100
AcDbBlockReference
  2
SEANNOT_GROUP5
 10
0.0
 20
0.0
 30
0.0
  0
INSERT
  5
90
330
1F
100
AcDbEntity
  8
Default
100
AcDbBlockReference
  2
SEANNOT_GROUP6
 10
0.0
 20
0.0
 30
0.0
  0
INSERT
  5
96
330
1F
100
AcDbEntity
  8
Default
100
AcDbBlockReference
  2
SE
 10
0.0
 20
0.0
 30
0.0
  0
INSERT
  5
28B
330
1F
100
AcDbEntity
  8
Default
100
AcDbBlockReference
  2
SE1
 10
0.0
 20
0.0
 30
0.0
  0
INSERT
  5
2EE
330
1F
100
AcDbEntity
  8
Default
100
AcDbBlockReference
  2
SE2
 10
0.0
 20
0.0
 30
0.0
  0
TEXT
  5
347
330
1F
100
AcDbEntity
  8
Default
  6
Continuous
 62
     7
100
AcDbText
 10
5.9362635081
 20
53.4225120485
 30
0.0
 40
10.0
  1
Grohe AG^J
  7
SEACAD_seiso_ttf
 11
5.9362635081
 21
63.4225120485
 31
0.0
100
AcDbText
 73
     3
  0
TEXT
  5
348
330
1F
100
AcDbEntity
  8
Default
  6
Continuous
 62
     7
100
AcDbText
 10
5.9362635081
 20
37.0588756849
 30
0.0
 40
10.0
  1
 
  7
SEACAD_seiso_ttf
 11
5.9362635081
 21
47.0588756849
 31
0.0
100
AcDbText
 73
     3
  0
TEXT
  5
349
330
1F
100
AcDbEntity
  8
Default
  6
Continuous
 62
     7
100
AcDbText
 10
5.9362635081
 20
20.6952393213
 30
0.0
 40
10.0
  1
ecn:
  7
SEACAD_seiso_ttf
 11
5.9362635081
 21
30.6952393213
 31
0.0
100
AcDbText
 73
     3
  0
TEXT
  5
34A
330
1F
100
AcDbEntity
  8
Default
  6
Continuous
 62
     7
100
AcDbText
 10
5.9362635081
 20
4.3316029576
 30
0.0
 40
10.0
  1
unit: mm
  7
SEACAD_seiso_ttf
 11
5.9362635081
 21
14.3316029576
 31
0.0
100
AcDbText
 73
     3
  0
LINE
  5
34B
330
1F
100
AcDbEntity
  8
Default
  6
Continuous
 62
     7
100
AcDbLine
 10
0.0
 20
0.0
 30
0.0
 11
100.0
 21
0.0
 31
0.0
  0
LINE
  5
34C
330
1F
100
AcDbEntity
  8
Default
  6
Continuous
 62
     7
100
AcDbLine
 10
0.0
 20
0.0
 30
0.0
 11
0.0
 21
100.0
 31
0.0
  0
TEXT
  5
34D
330
1F
100
AcDbEntity
  8
Default
  6
Continuous
 62
     7
100
AcDbText
 10
24.3923665681
 20
-18.2375342018
 30
0.0
 40
10.0
  1
100 mm
  7
SEACAD_seiso_ttf
 11
24.3923665681
 21
-8.2375342018
 31
0.0
100
AcDbText
 73
     3
  0
TEXT
  5
34E
330
1F
100
AcDbEntity
  8
Default
  6
Continuous
 62
     7
100
AcDbText
 10
-7.6150308803
 20
24.6231930421
 30
0.0
 40
10.0
  1
100 mm
 50
90.0
  7
SEACAD_seiso_ttf
 11
-17.6150308803
 21
24.6231930421
 31
0.0
100
AcDbText
 73
     3
  0
TEXT
  5
34F
330
1F
100
AcDbEntity
  8
Default
  6
Continuous
 62
     7
100
AcDbText
 10
28.4878128572
 20
20.0907663715
 30
0.0
 40
10.0
  1
221779
  7
SEACAD_seiso_ttf
 11
28.4878128572
 21
30.0907663715
 31
0.0
100
AcDbText
 73
     3
  0
TEXT
  5
350
330
1F
100
AcDbEntity
  8
Default
  6
Continuous
 62
     7
100
AcDbText
 10
5.9012241913
 20
36.7242780188
 30
0.0
 40
10.0
  1
20382001
  7
SEACAD_seiso_ttf
 11
5.9012241913
 21
46.7242780188
 31
0.0
100
AcDbText
 73
     3
  0
ENDSEC
  0
SECTION
  2
OBJECTS
  0
DICTIONARY
  5
C
330
0
100
AcDbDictionary
281
     1
  3
ACAD_GROUP
350
D
  3
ACAD_LAYOUT
350
1A
  3
ACAD_MLEADERSTYLE
350
354
  3
ACAD_MLINESTYLE
350
17
  3
ACAD_PLOTSETTINGS
350
19
  3
ACAD_PLOTSTYLENAME
350
E
  3
ACAD_SCALELIST
350
3B
  3
ACAD_TABLESTYLE
350
353
  3
ACAD_VISUALSTYLE
350
2A
  3
AcDbVariableDictionary
350
351
  0
DICTIONARY
  5
D
102
{ACAD_REACTORS
330
C
102
}
330
C
100
AcDbDictionary
281
     1
  0
DICTIONARY
  5
1A
102
{ACAD_REACTORS
330
C
102
}
330
C
100
AcDbDictionary
281
     1
  3
Layout1
350
1E
  3
Model
350
22
  0
DICTIONARY
  5
354
102
{ACAD_REACTORS
330
C
102
}
330
C
100
AcDbDictionary
281
     1
  0
DICTIONARY
  5
17
102
{ACAD_REACTORS
330
C
102
}
330
C
100
AcDbDictionary
281
     1
  3
Standard
350
18
  0
DICTIONARY
  5
19
102
{ACAD_REACTORS
330
C
102
}
330
C
100
AcDbDictionary
281
     1
  0
ACDBDICTIONARYWDFLT
  5
E
102
{ACAD_REACTORS
330
C
102
}
330
C
100
AcDbDictionary
281
     1
  3
Normal
350
F
100
AcDbDictionaryWithDefault
340
F
  0
DICTIONARY
  5
3B
102
{ACAD_REACTORS
330
C
102
}
330
C
100
AcDbDictionary
281
     1
  3
A0
350
3C
  3
A1
350
3D
  3
A2
350
3E
  3
A3
350
3F
  3
A4
350
40
  3
A5
350
41
  3
A6
350
42
  3
A7
350
43
  3
A8
350
44
  3
A9
350
45
  3
B0
350
46
  3
B1
350
47
  3
B2
350
48
  3
B3
350
49
  3
B4
350
4A
  3
B5
350
4B
  3
B6
350
4C
  3
B7
350
4D
  3
B8
350
4E
  3
B9
350
4F
  3
C0
350
50
  3
C1
350
51
  3
C2
350
52
  3
C3
350
53
  3
C4
350
54
  3
C5
350
55
  3
C6
350
56
  3
C7
350
57
  3
C8
350
58
  3
C9
350
59
  3
D0
350
5A
  3
D1
350
5B
  3
D2
350
5C
  0
DICTIONARY
  5
353
102
{ACAD_REACTORS
330
C
102
}
330
C
100
AcDbDictionary
281
     1
  0
DICTIONARY
  5
2A
102
{ACAD_REACTORS
330
C
102
}
330
C
100
AcDbDictionary
281
     1
  3
2dWireframe
350
2F
  3
3D Hidden
350
31
  3
3dWireframe
350
30
  3
Basic
350
32
  3
Brighten
350
36
  3
ColorChange
350
3A
  3
Conceptual
350
34
  3
Dim
350
35
  3
Facepattern
350
39
  3
Flat
350
2B
  3
FlatWithEdges
350
2C
  3
Gouraud
350
2D
  3
GouraudWithEdges
350
2E
  3
Linepattern
350
38
  3
Realistic
350
33
  3
Thicken
350
37
  0
DICTIONARY
  5
351
102
{ACAD_REACTORS
330
C
102
}
330
C
100
AcDbDictionary
281
     1
  3
CANNOSCALE
350
352
  3
PSOLHEIGHT
350
356
  3
PSOLWIDTH
350
355
  0
LAYOUT
  5
1E
102
{ACAD_REACTORS
330
1A
102
}
330
1A
100
AcDbPlotSettings
  1

  2
none_device
  4

  6

 40
0.0
 41
0.0
 42
0.0
 43
0.0
 44
0.0
 45
0.0
 46
0.0
 47
0.0
 48
0.0
 49
0.0
140
0.0
141
0.0
142
1.0
143
1.0
 70
   688
 72
     0
 73
     0
 74
     5
  7

 75
    16
147
1.0
148
0.0
149
0.0
100
AcDbLayout
  1
Layout1
 70
     1
 71
     1
 10
0.0
 20
0.0
 11
3000.0
 21
4500.0
 12
0.0
 22
0.0
 32
0.0
 14
0.0
 24
0.0
 34
0.0
 15
3000.0
 25
4500.0
 35
0.0
146
0.0
 13
0.0
 23
0.0
 33
0.0
 16
1.0
 26
0.0
 36
0.0
 17
0.0
 27
1.0
 37
0.0
 76
     0
330
1B
  0
LAYOUT
  5
22
102
{ACAD_REACTORS
330
1A
102
}
330
1A
100
AcDbPlotSettings
  1

  2
none_device
  4

  6

 40
0.0
 41
0.0
 42
0.0
 43
0.0
 44
0.0
 45
0.0
 46
0.0
 47
0.0
 48
0.0
 49
0.0
140
0.0
141
0.0
142
1.0
143
1.0
 70
  1712
 72
     0
 73
     0
 74
     0
  7

 75
     0
147
1.0
148
0.0
149
0.0
100
AcDbLayout
  1
Model
 70
     1
 71
     0
 10
0.0
 20
0.0
 11
3000.0
 21
4500.0
 12
0.0
 22
0.0
 32
0.0
 14
0.0
 24
0.0
 34
0.0
 15
3000.0
 25
4500.0
 35
0.0
146
0.0
 13
0.0
 23
0.0
 33
0.0
 16
1.0
 26
0.0
 36
0.0
 17
0.0
 27
1.0
 37
0.0
 76
     0
330
1F
331
29
  0
MLINESTYLE
  5
18
102
{ACAD_REACTORS
330
17
102
}
330
17
100
AcDbMlineStyle
  2
Standard
 70
     0
  3

 62
   256
 51
90.0
 52
90.0
 71
     2
 49
0.5
 62
   256
  6
BYLAYER
 49
-0.5
 62
   256
  6
BYLAYER
  0
ACDBPLACEHOLDER
  5
F
102
{ACAD_REACTORS
330
E
102
}
330
E
  0
SCALE
  5
3C
102
{ACAD_REACTORS
330
3B
102
}
330
3B
100
AcDbScale
 70
     0
300
1:1
140
1.0
141
1.0
290
     1
  0
SCALE
  5
3D
102
{ACAD_REACTORS
330
3B
102
}
330
3B
100
AcDbScale
 70
     0
300
1:2
140
1.0
141
2.0
290
     0
  0
SCALE
  5
3E
102
{ACAD_REACTORS
330
3B
102
}
330
3B
100
AcDbScale
 70
     0
300
1:4
140
1.0
141
4.0
290
     0
  0
SCALE
  5
3F
102
{ACAD_REACTORS
330
3B
102
}
330
3B
100
AcDbScale
 70
     0
300
1:5
140
1.0
141
5.0
290
     0
  0
SCALE
  5
40
102
{ACAD_REACTORS
330
3B
102
}
330
3B
100
AcDbScale
 70
     0
300
1:8
140
1.0
141
8.0
290
     0
  0
SCALE
  5
41
102
{ACAD_REACTORS
330
3B
102
}
330
3B
100
AcDbScale
 70
     0
300
1:10
140
1.0
141
10.0
290
     0
  0
SCALE
  5
42
102
{ACAD_REACTORS
330
3B
102
}
330
3B
100
AcDbScale
 70
     0
300
1:16
140
1.0
141
16.0
290
     0
  0
SCALE
  5
43
102
{ACAD_REACTORS
330
3B
102
}
330
3B
100
AcDbScale
 70
     0
300
1:20
140
1.0
141
20.0
290
     0
  0
SCALE
  5
44
102
{ACAD_REACTORS
330
3B
102
}
330
3B
100
AcDbScale
 70
     0
300
1:30
140
1.0
141
30.0
290
     0
  0
SCALE
  5
45
102
{ACAD_REACTORS
330
3B
102
}
330
3B
100
AcDbScale
 70
     0
300
1:40
140
1.0
141
40.0
290
     0
  0
SCALE
  5
46
102
{ACAD_REACTORS
330
3B
102
}
330
3B
100
AcDbScale
 70
     0
300
1:50
140
1.0
141
50.0
290
     0
  0
SCALE
  5
47
102
{ACAD_REACTORS
330
3B
102
}
330
3B
100
AcDbScale
 70
     0
300
1:100
140
1.0
141
100.0
290
     0
  0
SCALE
  5
48
102
{ACAD_REACTORS
330
3B
102
}
330
3B
100
AcDbScale
 70
     0
300
2:1
140
2.0
141
1.0
290
     0
  0
SCALE
  5
49
102
{ACAD_REACTORS
330
3B
102
}
330
3B
100
AcDbScale
 70
     0
300
4:1
140
4.0
141
1.0
290
     0
  0
SCALE
  5
4A
102
{ACAD_REACTORS
330
3B
102
}
330
3B
100
AcDbScale
 70
     0
300
8:1
140
8.0
141
1.0
290
     0
  0
SCALE
  5
4B
102
{ACAD_REACTORS
330
3B
102
}
330
3B
100
AcDbScale
 70
     0
300
10:1
140
10.0
141
1.0
290
     0
  0
SCALE
  5
4C
102
{ACAD_REACTORS
330
3B
102
}
330
3B
100
AcDbScale
 70
     0
300
100:1
140
100.0
141
1.0
290
     0
  0
SCALE
  5
4D
102
{ACAD_REACTORS
330
3B
102
}
330
3B
100
AcDbScale
 70
     0
300
1/128" = 1'-0"
140
0.0078125
141
12.0
290
     0
  0
SCALE
  5
4E
102
{ACAD_REACTORS
330
3B
102
}
330
3B
100
AcDbScale
 70
     0
300
1/64" = 1'-0"
140
0.015625
141
12.0
290
     0
  0
SCALE
  5
4F
102
{ACAD_REACTORS
330
3B
102
}
330
3B
100
AcDbScale
 70
     0
300
1/32" = 1'-0"
140
0.03125
141
12.0
290
     0
  0
SCALE
  5
50
102
{ACAD_REACTORS
330
3B
102
}
330
3B
100
AcDbScale
 70
     0
300
1/16" = 1'-0"
140
0.0625
141
12.0
290
     0
  0
SCALE
  5
51
102
{ACAD_REACTORS
330
3B
102
}
330
3B
100
AcDbScale
 70
     0
300
3/32" = 1'-0"
140
0.09375
141
12.0
290
     0
  0
SCALE
  5
52
102
{ACAD_REACTORS
330
3B
102
}
330
3B
100
AcDbScale
 70
     0
300
1/8" = 1'-0"
140
0.125
141
12.0
290
     0
  0
SCALE
  5
53
102
{ACAD_REACTORS
330
3B
102
}
330
3B
100
AcDbScale
 70
     0
300
3/16" = 1'-0"
140
0.1875
141
12.0
290
     0
  0
SCALE
  5
54
102
{ACAD_REACTORS
330
3B
102
}
330
3B
100
AcDbScale
 70
     0
300
1/4" = 1'-0"
140
0.25
141
12.0
290
     0
  0
SCALE
  5
55
102
{ACAD_REACTORS
330
3B
102
}
330
3B
100
AcDbScale
 70
     0
300
3/8" = 1'-0"
140
0.375
141
12.0
290
     0
  0
SCALE
  5
56
102
{ACAD_REACTORS
330
3B
102
}
330
3B
100
AcDbScale
 70
     0
300
1/2" = 1'-0"
140
0.5
141
12.0
290
     0
  0
SCALE
  5
57
102
{ACAD_REACTORS
330
3B
102
}
330
3B
100
AcDbScale
 70
     0
300
3/4" = 1'-0"
140
0.75
141
12.0
290
     0
  0
SCALE
  5
58
102
{ACAD_REACTORS
330
3B
102
}
330
3B
100
AcDbScale
 70
     0
300
1" = 1'-0"
140
1.0
141
12.0
290
     0
  0
SCALE
  5
59
102
{ACAD_REACTORS
330
3B
102
}
330
3B
100
AcDbScale
 70
     0
300
1-1/2" = 1'-0"
140
1.5
141
12.0
290
     0
  0
SCALE
  5
5A
102
{ACAD_REACTORS
330
3B
102
}
330
3B
100
AcDbScale
 70
     0
300
3" = 1'-0"
140
3.0
141
12.0
290
     0
  0
SCALE
  5
5B
102
{ACAD_REACTORS
330
3B
102
}
330
3B
100
AcDbScale
 70
     0
300
6" = 1'-0"
140
6.0
141
12.0
290
     0
  0
SCALE
  5
5C
102
{ACAD_REACTORS
330
3B
102
}
330
3B
100
AcDbScale
 70
     0
300
1'-0" = 1'-0"
140
12.0
141
12.0
290
     0
  0
VISUALSTYLE
  5
2F
102
{ACAD_REACTORS
330
2A
102
}
330
2A
100
AcDbVisualStyle
  2
2dWireframe
 70
     4
 71
     0
 72
     2
 73
     0
 90
        0
 40
-0.6
 41
-30.0
 62
     5
 63
     7
 74
     1
 91
        4
 64
     7
 65
   257
 75
     1
175
     1
 42
1.0
 92
        0
 66
   257
 43
1.0
 76
     1
 77
     6
 78
     2
 67
     7
 79
     5
170
     0
171
     0
290
     0
174
     0
 93
        1
 44
0.0
173
     0
291
     0
 45
0.0
1001
ACAD
1000
AcDbSavedByObjectVersion
1070
     0
  0
VISUALSTYLE
  5
31
102
{ACAD_REACTORS
330
2A
102
}
330
2A
100
AcDbVisualStyle
  2
3D Hidden
 70
     6
 71
     1
 72
     2
 73
     2
 90
        0
 40
-0.6
 41
-30.0
 62
     5
 63
     7
 74
     2
 91
        2
 64
     7
 65
   257
 75
     2
175
     1
 42
40.0
 92
        0
 66
   257
 43
1.0
 76
     1
 77
     6
 78
     2
 67
     7
 79
     3
170
     0
171
     0
290
     0
174
     0
 93
        1
 44
0.0
173
     0
291
     0
 45
0.0
1001
ACAD
1000
AcDbSavedByObjectVersion
1070
     0
  0
VISUALSTYLE
  5
30
102
{ACAD_REACTORS
330
2A
102
}
330
2A
100
AcDbVisualStyle
  2
3dWireframe
 70
     5
 71
     0
 72
     2
 73
     0
 90
        0
 40
-0.6
 41
-30.0
 62
     5
 63
     7
 74
     1
 91
        4
 64
     7
 65
   257
 75
     1
175
     1
 42
1.0
 92
        0
 66
   257
 43
1.0
 76
     1
 77
     6
 78
     2
 67
     7
 79
     5
170
     0
171
     0
290
     0
174
     0
 93
        1
 44
0.0
173
     0
291
     0
 45
0.0
1001
ACAD
1000
AcDbSavedByObjectVersion
1070
     0
  0
VISUALSTYLE
  5
32
102
{ACAD_REACTORS
330
2A
102
}
330
2A
100
AcDbVisualStyle
  2
Basic
 70
     7
 71
     1
 72
     0
 73
     1
 90
        0
 40
-0.6
 41
-30.0
 62
     5
 63
     7
 74
     0
 91
        4
 64
     7
 65
   257
 75
     1
175
     1
 42
1.0
 92
        8
 66
     7
 43
1.0
 76
     1
 77
     6
 78
     2
 67
     7
 79
     5
170
     0
171
     0
290
     0
174
     0
 93
        1
 44
0.0
173
     0
291
     1
 45
0.0
1001
ACAD
1000
AcDbSavedByObjectVersion
1070
     0
  0
VISUALSTYLE
  5
36
102
{ACAD_REACTORS
330
2A
102
}
330
2A
100
AcDbVisualStyle
  2
Brighten
 70
    12
 71
     2
 72
     2
 73
     0
 90
        0
 40
-0.6
 41
-30.0
 62
     5
 63
     7
 74
     1
 91
        4
 64
     7
 65
   257
 75
     1
175
     1
 42
1.0
 92
        8
 66
     7
 43
1.0
 76
     1
 77
     6
 78
     2
 67
     7
 79
     5
170
     0
171
     0
290
     0
174
     0
 93
        1
 44
50.0
173
     0
291
     1
 45
0.0
1001
ACAD
1000
AcDbSavedByObjectVersion
1070
     0
  0
VISUALSTYLE
  5
3A
102
{ACAD_REACTORS
330
2A
102
}
330
2A
100
AcDbVisualStyle
  2
ColorChange
 70
    16
 71
     2
 72
     2
 73
     3
 90
        0
 40
-0.6
 41
-30.0
 62
     5
 63
     8
 74
     1
 91
        4
 64
     7
 65
   257
 75
     1
175
     1
 42
1.0
 92
        8
 66
     8
 43
1.0
 76
     1
 77
     6
 78
     2
 67
     7
 79
     5
170
     0
171
     0
290
     0
174
     0
 93
        1
 44
0.0
173
     0
291
     1
 45
0.0
1001
ACAD
1000
AcDbSavedByObjectVersion
1070
     0
  0
VISUALSTYLE
  5
34
102
{ACAD_REACTORS
330
2A
102
}
330
2A
100
AcDbVisualStyle
  2
Conceptual
 70
     9
 71
     3
 72
     2
 73
     0
 90
        0
 40
-0.6
 41
-30.0
 62
     5
 63
     7
 74
     2
 91
        2
 64
     7
 65
   257
 75
     1
175
     1
 42
40.0
 92
        8
 66
     7
 43
1.0
 76
     1
 77
     6
 78
     2
 67
     7
 79
     3
170
     0
171
     0
290
     0
174
     0
 93
        1
 44
0.0
173
     0
291
     0
 45
0.0
1001
ACAD
1000
AcDbSavedByObjectVersion
1070
     0
  0
VISUALSTYLE
  5
35
102
{ACAD_REACTORS
330
2A
102
}
330
2A
100
AcDbVisualStyle
  2
Dim
 70
    11
 71
     2
 72
     2
 73
     0
 90
        0
 40
-0.6
 41
-30.0
 62
     5
 63
     7
 74
     1
 91
        4
 64
     7
 65
   257
 75
     1
175
     1
 42
1.0
 92
        8
 66
     7
 43
1.0
 76
     1
 77
     6
 78
     2
 67
     7
 79
     5
170
     0
171
     0
290
     0
174
     0
 93
        1
 44
-50.0
173
     0
291
     1
 45
0.0
1001
ACAD
1000
AcDbSavedByObjectVersion
1070
     0
  0
VISUALSTYLE
  5
39
102
{ACAD_REACTORS
330
2A
102
}
330
2A
100
AcDbVisualStyle
  2
Facepattern
 70
    15
 71
     2
 72
     2
 73
     0
 90
        0
 40
-0.6
 41
-30.0
 62
     5
 63
     7
 74
     1
 91
        4
 64
     7
 65
   257
 75
     1
175
     1
 42
1.0
 92
        8
 66
     7
 43
1.0
 76
     1
 77
     6
 78
     2
 67
     7
 79
     5
170
     0
171
     0
290
     0
174
     0
 93
        1
 44
0.0
173
     0
291
     1
 45
0.0
1001
ACAD
1000
AcDbSavedByObjectVersion
1070
     0
  0
VISUALSTYLE
  5
2B
102
{ACAD_REACTORS
330
2A
102
}
330
2A
100
AcDbVisualStyle
  2
Flat
 70
     0
 71
     2
 72
     1
 73
     1
 90
        2
 40
-0.6
 41
30.0
 62
     5
 63
     7
 74
     0
 91
        4
 64
     7
 65
   257
 75
     1
175
     1
 42
1.0
 92
        8
 66
     7
 43
1.0
 76
     1
 77
     6
 78
     2
 67
     7
 79
     5
170
     0
171
     0
290
     0
174
     0
 93
       13
 44
0.0
173
     0
291
     1
 45
0.0
1001
ACAD
1000
AcDbSavedByObjectVersion
1070
     0
  0
VISUALSTYLE
  5
2C
102
{ACAD_REACTORS
330
2A
102
}
330
2A
100
AcDbVisualStyle
  2
FlatWithEdges
 70
     1
 71
     2
 72
     1
 73
     1
 90
        2
 40
-0.6
 41
30.0
 62
     5
 63
     7
 74
     1
 91
        4
 64
     7
 65
   257
 75
     1
175
     1
 42
1.0
 92
        0
 66
   257
 43
1.0
 76
     1
 77
     6
 78
     2
 67
     7
 79
     5
170
     0
171
     0
290
     0
174
     0
 93
       13
 44
0.0
173
     0
291
     1
 45
0.0
1001
ACAD
1000
AcDbSavedByObjectVersion
1070
     0
  0
VISUALSTYLE
  5
2D
102
{ACAD_REACTORS
330
2A
102
}
330
2A
100
AcDbVisualStyle
  2
Gouraud
 70
     2
 71
     2
 72
     2
 73
     1
 90
        2
 40
-0.6
 41
30.0
 62
     5
 63
     7
 74
     0
 91
        4
 64
     7
 65
   257
 75
     1
175
     1
 42
1.0
 92
        0
 66
     7
 43
1.0
 76
     1
 77
     6
 78
     2
 67
     7
 79
     5
170
     0
171
     0
290
     0
174
     0
 93
       13
 44
0.0
173
     0
291
     1
 45
0.0
1001
ACAD
1000
AcDbSavedByObjectVersion
1070
     0
  0
VISUALSTYLE
  5
2E
102
{ACAD_REACTORS
330
2A
102
}
330
2A
100
AcDbVisualStyle
  2
GouraudWithEdges
 70
     3
 71
     2
 72
     2
 73
     1
 90
        2
 40
-0.6
 41
30.0
 62
     5
 63
     7
 74
     1
 91
        4
 64
     7
 65
   257
 75
     1
175
     1
 42
1.0
 92
        0
 66
   257
 43
1.0
 76
     1
 77
     6
 78
     2
 67
     7
 79
     5
170
     0
171
     0
290
     0
174
     0
 93
       13
 44
0.0
173
     0
291
     1
 45
0.0
1001
ACAD
1000
AcDbSavedByObjectVersion
1070
     0
  0
VISUALSTYLE
  5
38
102
{ACAD_REACTORS
330
2A
102
}
330
2A
100
AcDbVisualStyle
  2
Linepattern
 70
    14
 71
     2
 72
     2
 73
     0
 90
        0
 40
-0.6
 41
-30.0
 62
     5
 63
     7
 74
     1
 91
        4
 64
     7
 65
   257
 75
     7
175
     7
 42
1.0
 92
        8
 66
     7
 43
1.0
 76
     1
 77
     6
 78
     2
 67
     7
 79
     5
170
     0
171
     0
290
     0
174
     0
 93
        1
 44
0.0
173
     0
291
     1
 45
0.0
1001
ACAD
1000
AcDbSavedByObjectVersion
1070
     0
  0
VISUALSTYLE
  5
33
102
{ACAD_REACTORS
330
2A
102
}
330
2A
100
AcDbVisualStyle
  2
Realistic
 70
     8
 71
     2
 72
     2
 73
     0
 90
        0
 40
-0.6
 41
-30.0
 62
     5
 63
     7
 74
     1
 91
        0
 64
     7
 65
   257
 75
     1
175
     1
 42
1.0
 92
        8
 66
     8
 43
1.0
 76
     1
 77
     6
 78
     2
 67
     7
 79
     5
170
     0
171
     0
290
     0
174
     0
 93
       13
 44
0.0
173
     0
291
     0
 45
0.0
1001
ACAD
1000
AcDbSavedByObjectVersion
1070
     0
  0
VISUALSTYLE
  5
37
102
{ACAD_REACTORS
330
2A
102
}
330
2A
100
AcDbVisualStyle
  2
Thicken
 70
    13
 71
     2
 72
     2
 73
     0
 90
        0
 40
-0.6
 41
-30.0
 62
     5
 63
     7
 74
     1
 91
        4
 64
     7
 65
   257
 75
     1
175
     1
 42
1.0
 92
       12
 66
     7
 43
1.0
 76
     1
 77
     6
 78
     2
 67
     7
 79
     5
170
     0
171
     0
290
     0
174
     0
 93
        1
 44
0.0
173
     0
291
     1
 45
0.0
1001
ACAD
1000
AcDbSavedByObjectVersion
1070
     0
  0
DICTIONARYVAR
  5
352
102
{ACAD_REACTORS
330
351
102
}
330
351
100
DictionaryVariables
280
     0
  1
1:1
  0
DICTIONARYVAR
  5
356
102
{ACAD_REACTORS
330
351
102
}
330
351
100
DictionaryVariables
280
     0
  1
80.000000
  0
DICTIONARYVAR
  5
355
102
{ACAD_REACTORS
330
351
102
}
330
351
100
DictionaryVariables
280
     0
  1
5.000000
  0
ENDSEC
  0
EOF
