  0
SECTION
  2
HEADER
  9
$ACADVER
  1
AC1015
  9
$ACADMAINTVER
 70
     6
  9
$DWGCODEPAGE
  3
ANSI_1252
  9
$INSBASE
 10
0.0
 20
0.0
 30
0.0
  9
$EXTMIN
 10
0.0
 20
0.0
 30
0.0
  9
$EXTMAX
 10
3000.0
 20
4500.0
 30
0.0
  9
$LIMMIN
 10
0.0
 20
0.0
  9
$LIMMAX
 10
3000.0
 20
4500.0
  9
$ORTHOMODE
 70
     0
  9
$REGENMODE
 70
     1
  9
$FILLMODE
 70
     1
  9
$QTEXTMODE
 70
     0
  9
$MIRRTEXT
 70
     1
  9
$LTSCALE
 40
1.0
  9
$ATTMODE
 70
     1
  9
$TEXTSIZE
 40
2.5
  9
$TRACEWID
 40
1.0
  9
$TEXTSTYLE
  7
Standard
  9
$CLAYER
  8
0
  9
$CELTYPE
  6
ByLayer
  9
$CECOLOR
 62
   256
  9
$CELTSCALE
 40
1.0
  9
$DISPSILH
 70
     0
  9
$DIMSCALE
 40
1.0
  9
$DIMASZ
 40
2.5
  9
$DIMEXO
 40
0.625
  9
$DIMDLI
 40
3.75
  9
$DIMRND
 40
0.0
  9
$DIMDLE
 40
0.0
  9
$DIMEXE
 40
1.25
  9
$DIMTP
 40
0.0
  9
$DIMTM
 40
0.0
  9
$DIMTXT
 40
2.5
  9
$DIMCEN
 40
2.5
  9
$DIMTSZ
 40
0.0
  9
$DIMTOL
 70
     0
  9
$DIMLIM
 70
     0
  9
$DIMTIH
 70
     0
  9
$DIMTOH
 70
     0
  9
$DIMSE1
 70
     0
  9
$DIMSE2
 70
     0
  9
$DIMTAD
 70
     1
  9
$DIMZIN
 70
     8
  9
$DIMBLK
  1

  9
$DIMASO
 70
     1
  9
$DIMSHO
 70
     1
  9
$DIMPOST
  1

  9
$DIMAPOST
  1

  9
$DIMALT
 70
     0
  9
$DIMALTD
 70
     3
  9
$DIMALTF
 40
0.0393700787
  9
$DIMLFAC
 40
1.0
  9
$DIMTOFL
 70
     1
  9
$DIMTVP
 40
0.0
  9
$DIMTIX
 70
     0
  9
$DIMSOXD
 70
     0
  9
$DIMSAH
 70
     0
  9
$DIMBLK1
  1

  9
$DIMBLK2
  1

  9
$DIMSTYLE
  2
ISO-25
  9
$DIMCLRD
 70
     0
  9
$DIMCLRE
 70
     0
  9
$DIMCLRT
 70
     0
  9
$DIMTFAC
 40
1.0
  9
$DIMGAP
 40
0.625
  9
$DIMJUST
 70
     0
  9
$DIMSD1
 70
     0
  9
$DIMSD2
 70
     0
  9
$DIMTOLJ
 70
     0
  9
$DIMTZIN
 70
     8
  9
$DIMALTZ
 70
     0
  9
$DIMALTTZ
 70
     0
  9
$DIMUPT
 70
     0
  9
$DIMDEC
 70
     2
  9
$DIMTDEC
 70
     2
  9
$DIMALTU
 70
     2
  9
$DIMALTTD
 70
     3
  9
$DIMTXSTY
  7
Standard
  9
$DIMAUNIT
 70
     0
  9
$DIMADEC
 70
     0
  9
$DIMALTRND
 40
0.0
  9
$DIMAZIN
 70
     0
  9
$DIMDSEP
 70
    44
  9
$DIMATFIT
 70
     3
  9
$DIMFRAC
 70
     0
  9
$DIMLDRBLK
  1

  9
$DIMLUNIT
 70
     2
  9
$DIMLWD
 70
    -2
  9
$DIMLWE
 70
    -2
  9
$DIMTMOVE
 70
     0
  9
$LUNITS
 70
     2
  9
$LUPREC
 70
     4
  9
$SKETCHINC
 40
1.0
  9
$FILLETRAD
 40
10.0
  9
$AUNITS
 70
     0
  9
$AUPREC
 70
     0
  9
$MENU
  1
.
  9
$ELEVATION
 40
0.0
  9
$PELEVATION
 40
0.0
  9
$THICKNESS
 40
0.0
  9
$LIMCHECK
 70
     0
  9
$CHAMFERA
 40
10.0
  9
$CHAMFERB
 40
10.0
  9
$CHAMFERC
 40
20.0
  9
$CHAMFERD
 40
0.0
  9
$SKPOLY
 70
     0
  9
$TDCREATE
 40
2455985.42759118
  9
$TDUCREATE
 40
2455985.385924514
  9
$TDUPDATE
 40
2455985.427591192
  9
$TDUUPDATE
 40
2455985.385924526
  9
$TDINDWG
 40
0.0000000116
  9
$TDUSRTIMER
 40
0.0000000116
  9
$USRTIMER
 70
     1
  9
$ANGBASE
 50
0.0
  9
$ANGDIR
 70
     0
  9
$PDMODE
 70
     0
  9
$PDSIZE
 40
0.0
  9
$PLINEWID
 40
0.0
  9
$SPLFRAME
 70
     0
  9
$SPLINETYPE
 70
     6
  9
$SPLINESEGS
 70
     8
  9
$HANDSEED
  5
1F4
  9
$SURFTAB1
 70
     6
  9
$SURFTAB2
 70
     6
  9
$SURFTYPE
 70
     6
  9
$SURFU
 70
     6
  9
$SURFV
 70
     6
  9
$UCSBASE
  2

  9
$UCSNAME
  2

  9
$UCSORG
 10
0.0
 20
0.0
 30
0.0
  9
$UCSXDIR
 10
1.0
 20
0.0
 30
0.0
  9
$UCSYDIR
 10
0.0
 20
1.0
 30
0.0
  9
$UCSORTHOREF
  2

  9
$UCSORTHOVIEW
 70
     0
  9
$UCSORGTOP
 10
0.0
 20
0.0
 30
0.0
  9
$UCSORGBOTTOM
 10
0.0
 20
0.0
 30
0.0
  9
$UCSORGLEFT
 10
0.0
 20
0.0
 30
0.0
  9
$UCSORGRIGHT
 10
0.0
 20
0.0
 30
0.0
  9
$UCSORGFRONT
 10
0.0
 20
0.0
 30
0.0
  9
$UCSORGBACK
 10
0.0
 20
0.0
 30
0.0
  9
$PUCSBASE
  2

  9
$PUCSNAME
  2

  9
$PUCSORG
 10
0.0
 20
0.0
 30
0.0
  9
$PUCSXDIR
 10
1.0
 20
0.0
 30
0.0
  9
$PUCSYDIR
 10
0.0
 20
1.0
 30
0.0
  9
$PUCSORTHOREF
  2

  9
$PUCSORTHOVIEW
 70
     0
  9
$PUCSORGTOP
 10
0.0
 20
0.0
 30
0.0
  9
$PUCSORGBOTTOM
 10
0.0
 20
0.0
 30
0.0
  9
$PUCSORGLEFT
 10
0.0
 20
0.0
 30
0.0
  9
$PUCSORGRIGHT
 10
0.0
 20
0.0
 30
0.0
  9
$PUCSORGFRONT
 10
0.0
 20
0.0
 30
0.0
  9
$PUCSORGBACK
 10
0.0
 20
0.0
 30
0.0
  9
$USERI1
 70
     0
  9
$USERI2
 70
     0
  9
$USERI3
 70
     0
  9
$USERI4
 70
     0
  9
$USERI5
 70
     0
  9
$USERR1
 40
0.0
  9
$USERR2
 40
0.0
  9
$USERR3
 40
0.0
  9
$USERR4
 40
0.0
  9
$USERR5
 40
0.0
  9
$WORLDVIEW
 70
     1
  9
$SHADEDGE
 70
     3
  9
$SHADEDIF
 70
    70
  9
$TILEMODE
 70
     1
  9
$MAXACTVP
 70
    64
  9
$PINSBASE
 10
0.0
 20
0.0
 30
0.0
  9
$PLIMCHECK
 70
     0
  9
$PEXTMIN
 10
0.0
 20
0.0
 30
0.0
  9
$PEXTMAX
 10
3000.0
 20
4500.0
 30
0.0
  9
$PLIMMIN
 10
0.0
 20
0.0
  9
$PLIMMAX
 10
3000.0
 20
4500.0
  9
$UNITMODE
 70
     0
  9
$VISRETAIN
 70
     1
  9
$PLINEGEN
 70
     0
  9
$PSLTSCALE
 70
     1
  9
$TREEDEPTH
 70
  3020
  9
$CMLSTYLE
  2
Standard
  9
$CMLJUST
 70
     0
  9
$CMLSCALE
 40
20.0
  9
$PROXYGRAPHICS
 70
     1
  9
$MEASUREMENT
 70
     1
  9
$CELWEIGHT
370
    -1
  9
$ENDCAPS
280
     0
  9
$JOINSTYLE
280
     0
  9
$LWDISPLAY
290
     0
  9
$INSUNITS
 70
     4
  9
$HYPERLINKBASE
  1

  9
$STYLESHEET
  1

  9
$XEDIT
290
     1
  9
$CEPSNTYPE
380
     0
  9
$PSTYLEMODE
290
     1
  9
$FINGERPRINTGUID
  2
{E016DC6A-F5D0-42D1-8006-4CB7C0DC582C}
  9
$VERSIONGUID
  2
{FAEB1C32-E019-11D5-929B-00C0DF256EC4}
  9
$EXTNAMES
290
     1
  9
$PSVPSCALE
 40
0.0
  9
$OLESTARTUP
290
     0
  0
ENDSEC
  0
SECTION
  2
CLASSES
  0
CLASS
  1
ACDBDICTIONARYWDFLT
  2
AcDbDictionaryWithDefault
  3
ObjectDBX Classes
 90
        0
280
     0
281
     0
  0
CLASS
  1
VISUALSTYLE
  2
AcDbVisualStyle
  3
ObjectDBX Classes
 90
     4095
280
     0
281
     0
  0
CLASS
  1
SCALE
  2
AcDbScale
  3
ObjectDBX Classes
 90
     1153
280
     0
281
     0
  0
CLASS
  1
DICTIONARYVAR
  2
AcDbDictionaryVar
  3
ObjectDBX Classes
 90
        0
280
     0
281
     0
  0
CLASS
  1
ACDBPLACEHOLDER
  2
AcDbPlaceHolder
  3
ObjectDBX Classes
 90
        0
280
     0
281
     0
  0
CLASS
  1
LAYOUT
  2
AcDbLayout
  3
ObjectDBX Classes
 90
        0
280
     0
281
     0
  0
ENDSEC
  0
SECTION
  2
TABLES
  0
TABLE
  2
VPORT
  5
8
330
0
100
AcDbSymbolTable
 70
     1
  0
VPORT
  5
29
330
8
100
AcDbSymbolTableRecord
100
AcDbViewportTableRecord
  2
*Active
 70
     0
 10
0.0
 20
0.0
 11
1.0
 21
1.0
 12
344.1869158879
 22
148.5
 13
0.0
 23
0.0
 14
10.0
 24
10.0
 15
10.0
 25
10.0
 16
0.0
 26
0.0
 36
1.0
 17
0.0
 27
0.0
 37
0.0
 40
297.0
 41
1.9729729729
 42
50.0
 43
0.0
 44
0.0
 50
0.0
 51
0.0
 71
     0
 72
   100
 73
     1
 74
     3
 75
     0
 76
     0
 77
     0
 78
     0
281
     0
 65
     1
110
0.0
120
0.0
130
0.0
111
1.0
121
0.0
131
0.0
112
0.0
122
1.0
132
0.0
 79
     0
146
0.0
  0
ENDTAB
  0
TABLE
  2
LTYPE
  5
5
330
0
100
AcDbSymbolTable
 70
     2
  0
LTYPE
  5
14
330
5
100
AcDbSymbolTableRecord
100
AcDbLinetypeTableRecord
  2
ByBlock
 70
     0
  3

 72
    65
 73
     0
 40
0.0
  0
LTYPE
  5
15
330
5
100
AcDbSymbolTableRecord
100
AcDbLinetypeTableRecord
  2
ByLayer
 70
     0
  3

 72
    65
 73
     0
 40
0.0
  0
LTYPE
  5
16
330
5
100
AcDbSymbolTableRecord
100
AcDbLinetypeTableRecord
  2
Continuous
 70
     0
  3
Solid line
 72
    65
 73
     0
 40
0.0
  0
LTYPE
  5
62
330
5
100
AcDbSymbolTableRecord
100
AcDbLinetypeTableRecord
  2
CENTER2
 70
     0
  3
Center (.5x) ___ _ ___ _ ___ _ ___ _ ___ _ ___
 72
    65
 73
     4
 40
28.575
 49
19.05
 74
     4
 75
     0
340
0
 46
0.0
 50
0.0
 44
0.0
 45
0.0
 49
-3.175
 74
     4
 75
     0
340
0
 46
0.0
 50
0.0
 44
0.0
 45
0.0
 49
3.175
 74
     4
 75
     0
340
0
 46
0.0
 50
0.0
 44
0.0
 45
0.0
 49
-3.175
 74
     4
 75
     0
340
0
 46
0.0
 50
0.0
 44
0.0
 45
0.0
  0
ENDTAB
  0
TABLE
  2
LAYER
  5
2
330
0
100
AcDbSymbolTable
 70
    11
  0
LAYER
  5
10
330
2
100
AcDbSymbolTableRecord
100
AcDbLayerTableRecord
  2
0
 70
     0
 62
     7
  6
Continuous
370
    -3
390
F
  0
LAYER
  5
5D
330
2
100
AcDbSymbolTableRecord
100
AcDbLayerTableRecord
  2
Default
 70
     0
 62
     7
  6
Continuous
370
    -3
390
F
  0
LAYER
  5
91
330
2
100
AcDbSymbolTableRecord
100
AcDbLayerTableRecord
  2
$DDT_AUDIT_GENERATED_(91)
 70
     0
 62
     7
  6
Continuous
370
    -3
390
F
  0
LAYER
  5
AE
330
2
100
AcDbSymbolTableRecord
100
AcDbLayerTableRecord
  2
$DDT_AUDIT_GENERATED_(AE)
 70
     0
 62
     7
  6
Continuous
370
    -3
390
F
  0
LAYER
  5
CE
330
2
100
AcDbSymbolTableRecord
100
AcDbLayerTableRecord
  2
$DDT_AUDIT_GENERATED_(CE)
 70
     0
 62
     7
  6
Continuous
370
    -3
390
F
  0
LAYER
  5
D9
330
2
100
AcDbSymbolTableRecord
100
AcDbLayerTableRecord
  2
$DDT_AUDIT_GENERATED_(D9)
 70
     0
 62
     7
  6
Continuous
370
    -3
390
F
  0
LAYER
  5
EC
330
2
100
AcDbSymbolTableRecord
100
AcDbLayerTableRecord
  2
$DDT_AUDIT_GENERATED_(EC)
 70
     0
 62
     7
  6
Continuous
370
    -3
390
F
  0
LAYER
  5
113
330
2
100
AcDbSymbolTableRecord
100
AcDbLayerTableRecord
  2
$DDT_AUDIT_GENERATED_(113)
 70
     0
 62
     7
  6
Continuous
370
    -3
390
F
  0
LAYER
  5
165
330
2
100
AcDbSymbolTableRecord
100
AcDbLayerTableRecord
  2
$DDT_AUDIT_GENERATED_(165)
 70
     0
 62
     7
  6
Continuous
370
    -3
390
F
  0
LAYER
  5
168
330
2
100
AcDbSymbolTableRecord
100
AcDbLayerTableRecord
  2
$DDT_AUDIT_GENERATED_(168)
 70
     0
 62
     7
  6
Continuous
370
    -3
390
F
  0
LAYER
  5
1BC
330
2
100
AcDbSymbolTableRecord
100
AcDbLayerTableRecord
  2
$DDT_AUDIT_GENERATED_(1BC)
 70
     0
 62
     7
  6
Continuous
370
    -3
390
F
  0
ENDTAB
  0
TABLE
  2
STYLE
  5
3
330
0
100
AcDbSymbolTable
 70
     2
  0
STYLE
  5
11
330
3
100
AcDbSymbolTableRecord
100
AcDbTextStyleTableRecord
  2
Standard
 70
     0
 40
0.0
 41
1.0
 50
0.0
 71
     0
 42
2.5
  3
txt
  4

  0
STYLE
  5
1E3
330
3
100
AcDbSymbolTableRecord
100
AcDbTextStyleTableRecord
  2
SEACAD_seiso_ttf
 70
     0
 40
0.0
 41
1.0
 50
0.0
 71
     0
 42
0.2
  3
seiso.ttf
  4

  0
ENDTAB
  0
TABLE
  2
VIEW
  5
6
330
0
100
AcDbSymbolTable
 70
     0
  0
ENDTAB
  0
TABLE
  2
UCS
  5
7
330
0
100
AcDbSymbolTable
 70
     0
  0
ENDTAB
  0
TABLE
  2
APPID
  5
9
330
0
100
AcDbSymbolTable
 70
     1
  0
APPID
  5
12
330
9
100
AcDbSymbolTableRecord
100
AcDbRegAppTableRecord
  2
ACAD
 70
     0
  0
ENDTAB
  0
TABLE
  2
DIMSTYLE
  5
A
330
0
100
AcDbSymbolTable
 70
     1
100
AcDbDimStyleTable
  0
DIMSTYLE
105
27
330
A
100
AcDbSymbolTableRecord
100
AcDbDimStyleTableRecord
  2
ISO-25
 70
     0
 41
2.5
 42
0.625
 43
3.75
 44
1.25
 73
     0
 74
     0
 77
     1
 78
     8
140
2.5
141
2.5
143
0.0393700787
147
0.625
171
     3
172
     1
271
     2
272
     2
274
     3
278
    44
283
     0
284
     8
340
11
  0
ENDTAB
  0
TABLE
  2
BLOCK_RECORD
  5
1
330
0
100
AcDbSymbolTable
 70
    11
  0
BLOCK_RECORD
  5
1F
330
1
100
AcDbSymbolTableRecord
100
AcDbBlockTableRecord
  2
*Model_Space
340
22
  0
BLOCK_RECORD
  5
1B
330
1
100
AcDbSymbolTableRecord
100
AcDbBlockTableRecord
  2
*Paper_Space
340
1E
  0
BLOCK_RECORD
  5
60
330
1
100
AcDbSymbolTableRecord
100
AcDbBlockTableRecord
  2
SEANNOT_GROUP
340
0
102
{BLKREFS
331
61
102
}
  0
BLOCK_RECORD
  5
67
330
1
100
AcDbSymbolTableRecord
100
AcDbBlockTableRecord
  2
SEANNOT_GROUP1
340
0
102
{BLKREFS
331
68
102
}
  0
BLOCK_RECORD
  5
6D
330
1
100
AcDbSymbolTableRecord
100
AcDbBlockTableRecord
  2
SEANNOT_GROUP2
340
0
102
{BLKREFS
331
6E
102
}
  0
BLOCK_RECORD
  5
73
330
1
100
AcDbSymbolTableRecord
100
AcDbBlockTableRecord
  2
SEANNOT_GROUP3
340
0
102
{BLKREFS
331
74
102
}
  0
BLOCK_RECORD
  5
7A
330
1
100
AcDbSymbolTableRecord
100
AcDbBlockTableRecord
  2
SEANNOT_GROUP4
340
0
102
{BLKREFS
331
7B
102
}
  0
BLOCK_RECORD
  5
81
330
1
100
AcDbSymbolTableRecord
100
AcDbBlockTableRecord
  2
SEANNOT_GROUP5
340
0
102
{BLKREFS
331
82
102
}
  0
BLOCK_RECORD
  5
89
330
1
100
AcDbSymbolTableRecord
100
AcDbBlockTableRecord
  2
SEANNOT_GROUP6
340
0
102
{BLKREFS
331
8A
102
}
  0
BLOCK_RECORD
  5
8F
330
1
100
AcDbSymbolTableRecord
100
AcDbBlockTableRecord
  2
SE
340
0
102
{BLKREFS
331
90
102
}
  0
BLOCK_RECORD
  5
135
330
1
100
AcDbSymbolTableRecord
100
AcDbBlockTableRecord
  2
SE1
340
0
102
{BLKREFS
331
136
102
}
  0
BLOCK_RECORD
  5
181
330
1
100
AcDbSymbolTableRecord
100
AcDbBlockTableRecord
  2
SE2
340
0
102
{BLKREFS
331
182
102
}
  0
ENDTAB
  0
ENDSEC
  0
SECTION
  2
BLOCKS
  0
BLOCK
  5
20
330
1F
100
AcDbEntity
  8
0
100
AcDbBlockBegin
  2
*Model_Space
 70
     0
 10
0.0
 20
0.0
 30
0.0
  3
*Model_Space
  1

  0
ENDBLK
  5
21
330
1F
100
AcDbEntity
  8
0
100
AcDbBlockEnd
  0
BLOCK
  5
1C
330
1B
100
AcDbEntity
 67
     1
  8
0
100
AcDbBlockBegin
  2
*Paper_Space
 70
     0
 10
0.0
 20
0.0
 30
0.0
  3
*Paper_Space
  1

  0
ENDBLK
  5
1D
330
1B
100
AcDbEntity
 67
     1
  8
0
100
AcDbBlockEnd
  0
BLOCK
  5
65
330
60
100
AcDbEntity
  8
0
100
AcDbBlockBegin
  2
SEANNOT_GROUP
 70
     0
 10
0.0
 20
0.0
 30
0.0
  3
SEANNOT_GROUP
  1

  0
LINE
  5
63
330
60
100
AcDbEntity
  8
Default
  6
CENTER2
 62
     7
100
AcDbLine
 10
51.3464780744
 20
635.5953782788
 30
0.0
 11
11.3464789684
 21
635.5953782788
 31
0.0
  0
LINE
  5
64
330
60
100
AcDbEntity
  8
Default
  6
CENTER2
 62
     7
100
AcDbLine
 10
31.3464785214
 20
655.5953778318
 30
0.0
 11
31.3464785214
 21
615.5953787259
 31
0.0
  0
ENDBLK
  5
66
330
60
100
AcDbEntity
  8
0
100
AcDbBlockEnd
  0
BLOCK
  5
6B
330
67
100
AcDbEntity
  8
0
100
AcDbBlockBegin
  2
SEANNOT_GROUP1
 70
     0
 10
0.0
 20
0.0
 30
0.0
  3
SEANNOT_GROUP1
  1

  0
LINE
  5
69
330
67
100
AcDbEntity
  8
Default
  6
CENTER2
 62
     7
100
AcDbLine
 10
151.3464780744
 20
635.5953782788
 30
0.0
 11
111.3464789684
 21
635.5953782788
 31
0.0
  0
LINE
  5
6A
330
67
100
AcDbEntity
  8
Default
  6
CENTER2
 62
     7
100
AcDbLine
 10
131.3464785214
 20
655.5953778318
 30
0.0
 11
131.3464785214
 21
615.5953787259
 31
0.0
  0
ENDBLK
  5
6C
330
67
100
AcDbEntity
  8
0
100
AcDbBlockEnd
  0
BLOCK
  5
71
330
6D
100
AcDbEntity
  8
0
100
AcDbBlockBegin
  2
SEANNOT_GROUP2
 70
     0
 10
0.0
 20
0.0
 30
0.0
  3
SEANNOT_GROUP2
  1

  0
LINE
  5
6F
330
6D
100
AcDbEntity
  8
Default
  6
CENTER2
 62
     7
100
AcDbLine
 10
251.3464780744
 20
635.5953782788
 30
0.0
 11
211.3464789684
 21
635.5953782788
 31
0.0
  0
LINE
  5
70
330
6D
100
AcDbEntity
  8
Default
  6
CENTER2
 62
     7
100
AcDbLine
 10
231.3464785214
 20
655.5953778318
 30
0.0
 11
231.3464785214
 21
615.5953787259
 31
0.0
  0
ENDBLK
  5
72
330
6D
100
AcDbEntity
  8
0
100
AcDbBlockEnd
  0
BLOCK
  5
77
330
73
100
AcDbEntity
  8
0
100
AcDbBlockBegin
  2
SEANNOT_GROUP3
 70
     0
 10
0.0
 20
0.0
 30
0.0
  3
SEANNOT_GROUP3
  1

  0
LINE
  5
75
330
73
100
AcDbEntity
  8
Default
  6
CENTER2
 62
     7
100
AcDbLine
 10
381.8246335001
 20
635.5953782788
 30
0.0
 11
341.8246343942
 21
635.5953782788
 31
0.0
  0
LINE
  5
76
330
73
100
AcDbEntity
  8
Default
  6
CENTER2
 62
     7
100
AcDbLine
 10
361.8246339471
 20
655.5953778318
 30
0.0
 11
361.8246339471
 21
615.5953787259
 31
0.0
  0
ENDBLK
  5
78
330
73
100
AcDbEntity
  8
0
100
AcDbBlockEnd
  0
BLOCK
  5
7E
330
7A
100
AcDbEntity
  8
0
100
AcDbBlockBegin
  2
SEANNOT_GROUP4
 70
     0
 10
0.0
 20
0.0
 30
0.0
  3
SEANNOT_GROUP4
  1

  0
LINE
  5
7C
330
7A
100
AcDbEntity
  8
Default
  6
CENTER2
 62
     7
100
AcDbLine
 10
251.3464780744
 20
244.9783992125
 30
0.0
 11
211.3464789684
 21
244.9783992125
 31
0.0
  0
LINE
  5
7D
330
7A
100
AcDbEntity
  8
Default
  6
CENTER2
 62
     7
100
AcDbLine
 10
231.3464785214
 20
264.9783987655
 30
0.0
 11
231.3464785214
 21
224.9783996595
 31
0.0
  0
ENDBLK
  5
7F
330
7A
100
AcDbEntity
  8
0
100
AcDbBlockEnd
  0
BLOCK
  5
85
330
81
100
AcDbEntity
  8
0
100
AcDbBlockBegin
  2
SEANNOT_GROUP5
 70
     0
 10
0.0
 20
0.0
 30
0.0
  3
SEANNOT_GROUP5
  1

  0
LINE
  5
83
330
81
100
AcDbEntity
  8
Default
  6
CENTER2
 62
     7
100
AcDbLine
 10
51.3464780744
 20
244.9783992125
 30
0.0
 11
11.3464789684
 21
244.9783992125
 31
0.0
  0
LINE
  5
84
330
81
100
AcDbEntity
  8
Default
  6
CENTER2
 62
     7
100
AcDbLine
 10
31.3464785214
 20
264.9783987655
 30
0.0
 11
31.3464785214
 21
224.9783996595
 31
0.0
  0
ENDBLK
  5
86
330
81
100
AcDbEntity
  8
0
100
AcDbBlockEnd
  0
BLOCK
  5
8D
330
89
100
AcDbEntity
  8
0
100
AcDbBlockBegin
  2
SEANNOT_GROUP6
 70
     0
 10
0.0
 20
0.0
 30
0.0
  3
SEANNOT_GROUP6
  1

  0
LINE
  5
8B
330
89
100
AcDbEntity
  8
Default
  6
CENTER2
 62
     7
100
AcDbLine
 10
151.3464780744
 20
244.9783992125
 30
0.0
 11
111.3464789684
 21
244.9783992125
 31
0.0
  0
LINE
  5
8C
330
89
100
AcDbEntity
  8
Default
  6
CENTER2
 62
     7
100
AcDbLine
 10
131.3464785214
 20
264.9783987655
 30
0.0
 11
131.3464785214
 21
224.9783996595
 31
0.0
  0
ENDBLK
  5
8E
330
89
100
AcDbEntity
  8
0
100
AcDbBlockEnd
  0
BLOCK
  5
133
330
8F
100
AcDbEntity
  8
0
100
AcDbBlockBegin
  2
SE
 70
     0
 10
0.0
 20
0.0
 30
0.0
  3
SE
  1

  0
LINE
  5
92
330
8F
100
AcDbEntity
  8
$DDT_AUDIT_GENERATED_(91)
  6
Continuous
 62
     7
100
AcDbLine
 10
106.3464785214
 20
635.5953782788
 30
0.0
 11
156.3464785214
 21
635.5953782788
 31
0.0
  0
LINE
  5
93
330
8F
100
AcDbEntity
  8
$DDT_AUDIT_GENERATED_(91)
  6
Continuous
 62
     7
100
AcDbLine
 10
106.3464785214
 20
635.5953782788
 30
0.0
 11
108.0471714305
 21
744.2268921598
 31
0.0
  0
LINE
  5
94
330
8F
100
AcDbEntity
  8
$DDT_AUDIT_GENERATED_(91)
  6
Continuous
 62
     7
100
AcDbLine
 10
154.6457856124
 20
744.2268921598
 30
0.0
 11
156.3464785214
 21
635.5953782788
 31
0.0
  0
LINE
  5
95
330
8F
100
AcDbEntity
  8
$DDT_AUDIT_GENERATED_(91)
  6
Continuous
 62
     7
100
AcDbLine
 10
106.3464785214
 20
635.5953782788
 30
0.0
 11
116.8898720465
 21
738.9659991716
 31
0.0
  0
LINE
  5
96
330
8F
100
AcDbEntity
  8
$DDT_AUDIT_GENERATED_(91)
  6
Continuous
 62
     7
100
AcDbLine
 10
145.8030849963
 20
738.9659991716
 30
0.0
 11
156.3464785214
 21
635.5953782788
 31
0.0
  0
LINE
  5
97
330
8F
100
AcDbEntity
  8
$DDT_AUDIT_GENERATED_(91)
  6
Continuous
 62
     7
100
AcDbLine
 10
116.8898720465
 20
738.9659991716
 30
0.0
 11
145.8030849963
 21
738.9659991716
 31
0.0
  0
LINE
  5
98
330
8F
100
AcDbEntity
  8
$DDT_AUDIT_GENERATED_(91)
  6
Continuous
 62
     7
100
AcDbLine
 10
108.3068145857
 20
768.2697828282
 30
0.0
 11
108.0471714305
 21
744.2268921598
 31
0.0
  0
LINE
  5
99
330
8F
100
AcDbEntity
  8
$DDT_AUDIT_GENERATED_(91)
  6
Continuous
 62
     7
100
AcDbLine
 10
109.6354961704
 20
776.2101485072
 30
0.0
 11
108.3068145857
 21
768.2697828282
 31
0.0
  0
LINE
  5
9A
330
8F
100
AcDbEntity
  8
$DDT_AUDIT_GENERATED_(91)
  6
Continuous
 62
     7
100
AcDbLine
 10
108.0471714305
 20
744.2268921598
 30
0.0
 11
116.8898720465
 21
738.9659991716
 31
0.0
  0
LINE
  5
9B
330
8F
100
AcDbEntity
  8
$DDT_AUDIT_GENERATED_(91)
  6
Continuous
 62
     7
100
AcDbLine
 10
109.6354961704
 20
776.2101485072
 30
0.0
 11
153.0574608724
 21
776.2101485072
 31
0.0
  0
LINE
  5
9C
330
8F
100
AcDbEntity
  8
$DDT_AUDIT_GENERATED_(91)
  6
Continuous
 62
     7
100
AcDbLine
 10
154.6457856124
 20
744.2268921598
 30
0.0
 11
145.8030849963
 21
738.9659991716
 31
0.0
  0
LINE
  5
9D
330
8F
100
AcDbEntity
  8
$DDT_AUDIT_GENERATED_(91)
  6
Continuous
 62
     7
100
AcDbLine
 10
154.3861424571
 20
768.2697828282
 30
0.0
 11
153.0574608724
 21
776.2101485072
 31
0.0
  0
LINE
  5
9E
330
8F
100
AcDbEntity
  8
$DDT_AUDIT_GENERATED_(91)
  6
Continuous
 62
     7
100
AcDbLine
 10
154.6457856124
 20
744.2268921598
 30
0.0
 11
154.3861424571
 21
768.2697828282
 31
0.0
  0
LINE
  5
9F
330
8F
100
AcDbEntity
  8
$DDT_AUDIT_GENERATED_(91)
  6
Continuous
 62
     7
100
AcDbLine
 10
108.3068145857
 20
768.2697828282
 30
0.0
 11
116.8898720465
 21
738.9659991716
 31
0.0
  0
LINE
  5
A0
330
8F
100
AcDbEntity
  8
$DDT_AUDIT_GENERATED_(91)
  6
Continuous
 62
     7
100
AcDbLine
 10
154.3861424571
 20
768.2697828282
 30
0.0
 11
108.3068145857
 21
768.2697828282
 31
0.0
  0
LINE
  5
A1
330
8F
100
AcDbEntity
  8
$DDT_AUDIT_GENERATED_(91)
  6
Continuous
 62
     7
100
AcDbLine
 10
145.8030849963
 20
738.9659991716
 30
0.0
 11
154.3861424571
 21
768.2697828282
 31
0.0
  0
LINE
  5
A2
330
8F
100
AcDbEntity
  8
$DDT_AUDIT_GENERATED_(91)
  6
Continuous
 62
     7
100
AcDbLine
 10
116.6459617741
 20
765.9617570592
 30
0.0
 11
146.0469952687
 21
765.9617570592
 31
0.0
  0
ELLIPSE
  5
A3
330
8F
100
AcDbEntity
  8
$DDT_AUDIT_GENERATED_(91)
  6
Continuous
 62
     7
100
AcDbEllipse
 10
116.6459617741
 20
765.7156379965
 30
0.0
 11
-1.000000000000001
 21
0.0
 31
0.0
210
0.0
220
0.0
230
1.0
 40
0.2461190627
 41
4.71238898038469
 42
6.283185307179586
  0
LINE
  5
A4
330
8F
100
AcDbEntity
  8
$DDT_AUDIT_GENERATED_(91)
  6
Continuous
 62
     7
100
AcDbLine
 10
147.0469952687
 20
765.7156379965
 30
0.0
 11
147.0469952687
 21
747.4337441249
 31
0.0
  0
ELLIPSE
  5
A5
330
8F
100
AcDbEntity
  8
$DDT_AUDIT_GENERATED_(91)
  6
Continuous
 62
     7
100
AcDbEllipse
 10
146.0469952687
 20
765.7156379965
 30
0.0
 11
-1.000000000000001
 21
0.0
 31
0.0
210
0.0
220
0.0
230
1.0
 40
0.2461190627
 41
3.141592653589793
 42
4.71238898038469
  0
LINE
  5
A6
330
8F
100
AcDbEntity
  8
$DDT_AUDIT_GENERATED_(91)
  6
Continuous
 62
     7
100
AcDbLine
 10
115.6459617741
 20
747.4337441249
 30
0.0
 11
115.6459617741
 21
765.7156379965
 31
0.0
  0
ELLIPSE
  5
A7
330
8F
100
AcDbEntity
  8
$DDT_AUDIT_GENERATED_(91)
  6
Continuous
 62
     7
100
AcDbEllipse
 10
118.6459617741
 20
755.462488279
 30
0.0
 11
0.0
 21
3.0
 31
0.0
210
0.0
220
0.0
230
1.0
 40
1.0
 41
1.570796326794897
 42
1.820367657518578
  0
ELLIPSE
  5
A8
330
8F
100
AcDbEntity
  8
$DDT_AUDIT_GENERATED_(91)
  6
Continuous
 62
     7
100
AcDbEllipse
 10
118.6459617741
 20
747.4337441249
 30
0.0
 11
2.999999999999999
 21
0.0
 31
0.0
210
0.0
220
0.0
230
1.0
 40
0.2461190627
 41
3.141592653589793
 42
4.71238898038469
  0
LINE
  5
A9
330
8F
100
AcDbEntity
  8
$DDT_AUDIT_GENERATED_(91)
  6
Continuous
 62
     7
100
AcDbLine
 10
144.0469952687
 20
746.6953869367
 30
0.0
 11
118.6459617741
 21
746.6953869367
 31
0.0
  0
ELLIPSE
  5
AA
330
8F
100
AcDbEntity
  8
$DDT_AUDIT_GENERATED_(91)
  6
Continuous
 62
     7
100
AcDbEllipse
 10
144.0469952687
 20
755.462488279
 30
0.0
 11
-8.673617379884035E-15
 21
-3.343246485138812
 31
0.0
210
0.0
220
0.0
230
1.0
 40
0.8973313853
 41
1.345947173735117
 42
1.570796326794899
  0
ELLIPSE
  5
AB
330
8F
100
AcDbEntity
  8
$DDT_AUDIT_GENERATED_(91)
  6
Continuous
 62
     7
100
AcDbEllipse
 10
144.0469952687
 20
747.4337441249
 30
0.0
 11
3.000000000000003
 21
0.0
 31
0.0
210
0.0
220
0.0
230
1.0
 40
0.2461190627
 41
4.71238898038469
 42
6.283185307179586
  0
LINE
  5
AC
330
8F
100
AcDbEntity
  8
$DDT_AUDIT_GENERATED_(91)
  6
Continuous
 62
     7
100
AcDbLine
 10
147.0469952687
 20
763.2731264101
 30
0.0
 11
146.9714785214
 21
763.3572834434
 31
0.0
  0
LINE
  5
AD
330
8F
100
AcDbEntity
  8
$DDT_AUDIT_GENERATED_(91)
  6
Continuous
 62
     7
100
AcDbLine
 10
115.7214785214
 20
763.3572834434
 30
0.0
 11
115.6459617741
 21
763.2731264101
 31
0.0
  0
ELLIPSE
  5
AF
330
8F
100
AcDbEntity
  8
$DDT_AUDIT_GENERATED_(AE)
  6
Continuous
 62
     7
100
AcDbEllipse
 10
115.5214785214
 20
758.4003758394
 30
0.0
 11
-0.1999999999999953
 21
6.661338147750939E-13
 31
0.0
210
0.0
220
0.0
230
1.0
 40
0.9739840432
 41
3.141592653589793
 42
3.926990816990615
  0
ELLIPSE
  5
B0
330
8F
100
AcDbEntity
  8
$DDT_AUDIT_GENERATED_(AE)
  6
Continuous
 62
     7
100
AcDbEllipse
 10
115.5214785214
 20
759.5172805822
 30
0.0
 11
0.2000000000000057
 21
-4.718447854656915E-13
 31
0.0
210
0.0
220
0.0
230
1.0
 40
0.9654591848
 41
0.0
 42
0.7853981633998068
  0
ELLIPSE
  5
B1
330
8F
100
AcDbEntity
  8
$DDT_AUDIT_GENERATED_(AE)
  6
Continuous
 62
     7
100
AcDbEllipse
 10
115.8043212339
 20
758.6752573296
 30
0.0
 11
0.1393884398637711
 21
0.1434254608929098
 31
0.0
210
0.0
220
0.0
230
0.9999999999999998
 40
0.1666975127
 41
2.965549617802837
 42
3.141592653589793
  0
ELLIPSE
  5
B2
330
8F
100
AcDbEntity
  8
$DDT_AUDIT_GENERATED_(AE)
  6
Continuous
 62
     7
100
AcDbEllipse
 10
147.1714785214
 20
758.4003758394
 30
0.0
 11
-0.2000000000000057
 21
8.326672684688673E-13
 31
0.0
210
0.0
220
0.0
230
1.0
 40
0.9739840432
 41
5.497787143786213
 42
6.283185307179192
  0
ELLIPSE
  5
B3
330
8F
100
AcDbEntity
  8
$DDT_AUDIT_GENERATED_(AE)
  6
Continuous
 62
     7
100
AcDbEllipse
 10
147.1714785214
 20
759.5172805822
 30
0.0
 11
0.2000000000000161
 21
3.608224830031759E-13
 31
0.0
210
0.0
220
0.0
230
1.0
 40
0.9654591848
 41
2.356194490190772
 42
3.141592653589691
  0
ELLIPSE
  5
B4
330
8F
100
AcDbEntity
  8
$DDT_AUDIT_GENERATED_(AE)
  6
Continuous
 62
     7
100
AcDbEllipse
 10
146.8886358089
 20
758.6752573296
 30
0.0
 11
-0.1393884398637746
 21
0.1434254608929098
 31
0.0
210
0.0
220
0.0
230
0.9999999999999999
 40
0.1666975127
 41
3.141592653589793
 42
3.317635689376817
  0
LINE
  5
B5
330
8F
100
AcDbEntity
  8
$DDT_AUDIT_GENERATED_(AE)
  6
Continuous
 62
     7
100
AcDbLine
 10
115.7214785214
 20
747.6557830577
 30
0.0
 11
115.7214785214
 21
757.6805582589
 31
0.0
  0
LINE
  5
B6
330
8F
100
AcDbEntity
  8
$DDT_AUDIT_GENERATED_(AE)
  6
Continuous
 62
     7
100
AcDbLine
 10
115.7214785214
 20
757.6805582589
 30
0.0
 11
115.7214785214
 21
757.9072461937
 31
0.0
  0
LINE
  5
B7
330
8F
100
AcDbEntity
  8
$DDT_AUDIT_GENERATED_(AE)
  6
Continuous
 62
     7
100
AcDbLine
 10
115.7214785214
 20
757.9072461937
 30
0.0
 11
115.7214785214
 21
765.8094641599
 31
0.0
  0
LINE
  5
B8
330
8F
100
AcDbEntity
  8
$DDT_AUDIT_GENERATED_(AE)
  6
Continuous
 62
     7
100
AcDbLine
 10
118.7614785214
 20
746.7507443617
 30
0.0
 11
143.9314785214
 21
746.7507443617
 31
0.0
  0
LINE
  5
B9
330
8F
100
AcDbEntity
  8
$DDT_AUDIT_GENERATED_(AE)
  6
Continuous
 62
     7
100
AcDbLine
 10
146.9714785214
 20
765.8094641599
 30
0.0
 11
146.9714785214
 21
757.9072461937
 31
0.0
  0
LINE
  5
BA
330
8F
100
AcDbEntity
  8
$DDT_AUDIT_GENERATED_(AE)
  6
Continuous
 62
     7
100
AcDbLine
 10
146.9714785214
 20
757.9072461937
 30
0.0
 11
146.9714785214
 21
757.6805582589
 31
0.0
  0
LINE
  5
BB
330
8F
100
AcDbEntity
  8
$DDT_AUDIT_GENERATED_(AE)
  6
Continuous
 62
     7
100
AcDbLine
 10
146.9714785214
 20
757.6805582589
 30
0.0
 11
146.9714785214
 21
747.6557830577
 31
0.0
  0
ARC
  5
BC
330
8F
100
AcDbEntity
  8
$DDT_AUDIT_GENERATED_(AE)
  6
Continuous
 62
     7
100
AcDbCircle
 10
120.7174261955
 20
757.5279565349
 30
0.0
 40
3.125986361449719
100
AcDbArc
 50
173.2378899308
 51
177.3758424043
  0
ARC
  5
BD
330
8F
100
AcDbEntity
  8
$DDT_AUDIT_GENERATED_(AE)
  6
Continuous
 62
     7
100
AcDbCircle
 10
141.9759210321
 20
757.5279885669
 30
0.0
 40
3.125595119318823
100
AcDbArc
 50
2.6238985017
 51
6.7623691632
  0
ELLIPSE
  5
BE
330
8F
100
AcDbEntity
  8
$DDT_AUDIT_GENERATED_(AE)
  6
Continuous
 62
     7
100
AcDbEllipse
 10
140.7367411782
 20
757.5230710591
 30
0.0
 11
4.35869687038189
 21
0.1297033890016175
 31
0.0
210
0.0
220
0.0
230
1.0
 40
0.8992248099
 41
0.0621684434180815
 42
0.3786637658271491
  0
ELLIPSE
  5
BF
330
8F
100
AcDbEntity
  8
$DDT_AUDIT_GENERATED_(AE)
  6
Continuous
 62
     7
100
AcDbEllipse
 10
121.9548991696
 20
757.6485491951
 30
0.0
 11
4.360181211821488
 21
0.003917043453177671
 31
0.0
210
0.0
220
0.0
230
1.0
 40
0.2582076158
 41
3.141173607674282
 42
3.482843514267608
  0
ELLIPSE
  5
C0
330
8F
100
AcDbEntity
  8
$DDT_AUDIT_GENERATED_(AE)
  6
Continuous
 62
     7
100
AcDbEllipse
 10
140.7380578732
 20
757.6485491951
 30
0.0
 11
-4.36018121182149
 21
0.003917043453177671
 31
0.0
210
0.0
220
0.0
230
1.0
 40
0.2582076158
 41
2.800341792911929
 42
3.142011699510074
  0
LINE
  5
C1
330
8F
100
AcDbEntity
  8
$DDT_AUDIT_GENERATED_(AE)
  6
Continuous
 62
     7
100
AcDbLine
 10
115.6459617741
 20
758.5502689081
 30
0.0
 11
115.664932794
 21
758.5318318687
 31
0.0
  0
LINE
  5
C2
330
8F
100
AcDbEntity
  8
$DDT_AUDIT_GENERATED_(AE)
  6
Continuous
 62
     7
100
AcDbLine
 10
115.7214785214
 20
761.7013341091
 30
0.0
 11
115.6459617741
 21
761.5969803629
 31
0.0
  0
LINE
  5
C3
330
8F
100
AcDbEntity
  8
$DDT_AUDIT_GENERATED_(AE)
  6
Continuous
 62
     7
100
AcDbLine
 10
147.0280242488
 20
758.5318318687
 30
0.0
 11
147.0469952687
 21
758.5502689081
 31
0.0
  0
LINE
  5
C4
330
8F
100
AcDbEntity
  8
$DDT_AUDIT_GENERATED_(AE)
  6
Continuous
 62
     7
100
AcDbLine
 10
147.0469952687
 20
761.5969803629
 30
0.0
 11
146.9714785214
 21
761.7013341091
 31
0.0
  0
SPLINE
  5
C5
330
8F
100
AcDbEntity
  8
$DDT_AUDIT_GENERATED_(AE)
  6
Continuous
 62
     7
100
AcDbSpline
210
0.0
220
0.0
230
1.0
 70
     8
 71
     3
 72
    12
 73
     8
 74
     0
 42
0.0000000029804964
 43
0.0000000001
 40
0.0
 40
0.0
 40
0.0
 40
0.0
 40
0.16960725457818
 40
0.404947845330994
 40
0.6326211009901798
 40
0.7989602347529507
 40
1.0
 40
1.0
 40
1.0
 40
1.0
 10
115.7250199875662
 20
747.6183516167667
 30
0.0
 10
115.7615904748625
 20
747.5079511856314
 30
0.0
 10
115.8465686240333
 20
747.2830857257227
 30
0.0
 10
116.3461909015802
 20
747.0369673553855
 30
0.0
 10
117.0419935921737
 20
746.8708759109973
 30
0.0
 10
117.8937514335222
 20
746.7661826760566
 30
0.0
 10
118.4220366660728
 20
746.7522050904048
 30
0.0
 10
118.7614785214056
 20
746.7450716108067
 30
0.0
  0
SPLINE
  5
C6
330
8F
100
AcDbEntity
  8
$DDT_AUDIT_GENERATED_(AE)
  6
Continuous
 62
     7
100
AcDbSpline
210
0.0
220
0.0
230
1.0
 70
     8
 71
     3
 72
    13
 73
     9
 74
     0
 42
0.0000000029929137
 43
0.0000000001
 40
0.0
 40
0.0
 40
0.0
 40
0.0
 40
0.180884992414711
 40
0.3266075832655549
 40
0.5245682810932064
 40
0.6926913987644602
 40
0.8204557374269137
 40
1.0
 40
1.0
 40
1.0
 40
1.0
 10
143.9314785214056
 20
746.7450716108067
 30
0.0
 10
144.2374122597247
 20
746.7508472051101
 30
0.0
 10
144.7073904916894
 20
746.7621196077363
 30
0.0
 10
145.4689370653595
 20
746.8442139274279
 30
0.0
 10
146.0936275187122
 20
746.9691623143717
 30
0.0
 10
146.5352301876129
 20
747.1270182189189
 30
0.0
 10
146.8763818513196
 20
747.3450895742103
 30
0.0
 10
146.9331449478828
 20
747.5064781617449
 30
0.0
 10
146.967937055245
 20
747.6183516167667
 30
0.0
  0
LINE
  5
C7
330
8F
100
AcDbEntity
  8
$DDT_AUDIT_GENERATED_(AE)
  6
Continuous
 62
     7
100
AcDbLine
 10
145.0982315106
 20
757.668793563
 30
0.0
 11
145.0982315106
 21
757.6434114653
 31
0.0
  0
ARC
  5
C8
330
8F
100
AcDbEntity
  8
$DDT_AUDIT_GENERATED_(AE)
  6
Continuous
 62
     7
100
AcDbCircle
 10
141.3065099826
 20
757.3479212047
 30
0.0
 40
3.808452860463463
100
AcDbArc
 50
25.9495701103
 51
67.4486127469
  0
ARC
  5
C9
330
8F
100
AcDbEntity
  8
$DDT_AUDIT_GENERATED_(AE)
  6
Continuous
 62
     7
100
AcDbCircle
 10
140.7756815062
 20
756.4503673739
 30
0.0
 40
4.843156743754633
100
AcDbArc
 50
65.7209371437
 51
90.1565212078
  0
LINE
  5
CA
330
8F
100
AcDbEntity
  8
$DDT_AUDIT_GENERATED_(AE)
  6
Continuous
 62
     7
100
AcDbLine
 10
121.9305061062
 20
761.2935060459
 30
0.0
 11
140.7624509366
 21
761.2935060459
 31
0.0
  0
ARC
  5
CB
330
8F
100
AcDbEntity
  8
$DDT_AUDIT_GENERATED_(AE)
  6
Continuous
 62
     7
100
AcDbCircle
 10
121.8316984643
 20
756.8104530737
 30
0.0
 40
4.484141712963214
100
AcDbArc
 50
88.7373906864
 51
137.1409090772
  0
LINE
  5
CC
330
8F
100
AcDbEntity
  8
$DDT_AUDIT_GENERATED_(AE)
  6
Continuous
 62
     7
100
AcDbLine
 10
118.5168734442
 20
759.8318713474
 30
0.0
 11
118.5446936902
 21
759.8605557796
 31
0.0
  0
ARC
  5
CD
330
8F
100
AcDbEntity
  8
$DDT_AUDIT_GENERATED_(AE)
  6
Continuous
 62
     7
100
AcDbCircle
 10
120.896336823
 20
757.5450952786
 30
0.0
 40
3.300180413258914
100
AcDbArc
 50
136.1379384761
 51
174.2012220309
  0
LINE
  5
CF
330
8F
100
AcDbEntity
  8
$DDT_AUDIT_GENERATED_(CE)
  6
Continuous
 62
     7
100
AcDbLine
 10
15.7485451939
 20
684.165888379
 30
0.0
 11
46.9444118489
 21
684.165888379
 31
0.0
  0
ARC
  5
D0
330
8F
100
AcDbEntity
  8
$DDT_AUDIT_GENERATED_(CE)
  6
Continuous
 62
     7
100
AcDbCircle
 10
15.7485451939
 20
683.165888379
 30
0.0
 40
1.000000000000003
100
AcDbArc
 50
90.0
 51
179.5
  0
LINE
  5
D1
330
8F
100
AcDbEntity
  8
$DDT_AUDIT_GENERATED_(CE)
  6
Continuous
 62
     7
100
AcDbLine
 10
47.9443737719
 20
683.1746149145
 30
0.0
 11
48.2723075707
 21
645.5971235859
 31
0.0
  0
ARC
  5
D2
330
8F
100
AcDbEntity
  8
$DDT_AUDIT_GENERATED_(CE)
  6
Continuous
 62
     7
100
AcDbCircle
 10
46.9444118489
 20
683.165888379
 30
0.0
 40
1.000000000000001
100
AcDbArc
 50
0.5
 51
90.0
  0
LINE
  5
D3
330
8F
100
AcDbEntity
  8
$DDT_AUDIT_GENERATED_(CE)
  6
Continuous
 62
     7
100
AcDbLine
 10
47.2727339711
 20
645.3953782788
 30
0.0
 11
15.4202230718
 21
645.3953782788
 31
0.0
  0
LINE
  5
D4
330
8F
100
AcDbEntity
  8
$DDT_AUDIT_GENERATED_(CE)
  6
Continuous
 62
     7
100
AcDbLine
 10
15.4202230718
 20
645.3953782788
 30
0.0
 11
14.6206418567
 21
645.3953782788
 31
0.0
  0
LINE
  5
D5
330
8F
100
AcDbEntity
  8
$DDT_AUDIT_GENERATED_(CE)
  6
Continuous
 62
     7
100
AcDbLine
 10
48.0723151861
 20
645.3953782788
 30
0.0
 11
47.2727339711
 21
645.3953782788
 31
0.0
  0
LINE
  5
D6
330
8F
100
AcDbEntity
  8
$DDT_AUDIT_GENERATED_(CE)
  6
Continuous
 62
     7
100
AcDbLine
 10
14.4206494721
 20
645.5971235859
 30
0.0
 11
14.7485832709
 21
683.1746149145
 31
0.0
  0
ARC
  5
D7
330
8F
100
AcDbEntity
  8
$DDT_AUDIT_GENERATED_(CE)
  6
Continuous
 62
     7
100
AcDbCircle
 10
48.0723151861
 20
645.5953782788
 30
0.0
 40
0.2000000000000034
100
AcDbArc
 50
270.0
 51
0.5
  0
ARC
  5
D8
330
8F
100
AcDbEntity
  8
$DDT_AUDIT_GENERATED_(CE)
  6
Continuous
 62
     7
100
AcDbCircle
 10
14.6206418567
 20
645.5953782788
 30
0.0
 40
0.2000000000000005
100
AcDbArc
 50
179.5
 51
270.0
  0
LINE
  5
DA
330
8F
100
AcDbEntity
  8
$DDT_AUDIT_GENERATED_(D9)
  6
Continuous
 62
     7
100
AcDbLine
 10
6.6818766305
 20
641.627899989
 30
0.0
 11
6.7946599475
 21
641.6784458187
 31
0.0
  0
ARC
  5
DB
330
8F
100
AcDbEntity
  8
$DDT_AUDIT_GENERATED_(D9)
  6
Continuous
 62
     7
100
AcDbCircle
 10
6.8454660895
 20
641.2628815115
 30
0.0
 40
0.3999999999999879
100
AcDbArc
 50
114.1403772338
 51
179.0
  0
LINE
  5
DC
330
8F
100
AcDbEntity
  8
$DDT_AUDIT_GENERATED_(D9)
  6
Continuous
 62
     7
100
AcDbLine
 10
6.8143442677
 20
641.6872676934
 30
0.0
 11
14.379861591
 21
645.0778875176
 31
0.0
  0
LINE
  5
DD
330
8F
100
AcDbEntity
  8
$DDT_AUDIT_GENERATED_(D9)
  6
Continuous
 62
     7
100
AcDbLine
 10
6.7946599475
 20
641.6784458187
 30
0.0
 11
6.8143442677
 21
641.6872676934
 31
0.0
  0
ARC
  5
DE
330
8F
100
AcDbEntity
  8
$DDT_AUDIT_GENERATED_(D9)
  6
Continuous
 62
     7
100
AcDbCircle
 10
55.8474909533
 20
641.2628815115
 30
0.0
 40
0.3999999999999879
100
AcDbArc
 50
1.0
 51
65.8596227662
  0
LINE
  5
DF
330
8F
100
AcDbEntity
  8
$DDT_AUDIT_GENERATED_(D9)
  6
Continuous
 62
     7
100
AcDbLine
 10
56.0110804123
 20
641.627899989
 30
0.0
 11
55.8982970953
 21
641.6784458187
 31
0.0
  0
LINE
  5
E0
330
8F
100
AcDbEntity
  8
$DDT_AUDIT_GENERATED_(D9)
  6
Continuous
 62
     7
100
AcDbLine
 10
55.8786127751
 20
641.6872676934
 30
0.0
 11
48.3130954518
 21
645.0778875176
 31
0.0
  0
LINE
  5
E1
330
8F
100
AcDbEntity
  8
$DDT_AUDIT_GENERATED_(D9)
  6
Continuous
 62
     7
100
AcDbLine
 10
55.8982970953
 20
641.6784458187
 30
0.0
 11
55.8786127751
 21
641.6872676934
 31
0.0
  0
LINE
  5
E2
330
8F
100
AcDbEntity
  8
$DDT_AUDIT_GENERATED_(D9)
  6
Continuous
 62
     7
100
AcDbLine
 10
14.4616563205
 20
645.0953782788
 30
0.0
 11
48.2313007223
 21
645.0953782788
 31
0.0
  0
ARC
  5
E3
330
8F
100
AcDbEntity
  8
$DDT_AUDIT_GENERATED_(D9)
  6
Continuous
 62
     7
100
AcDbCircle
 10
14.4616563205
 20
644.8953782788
 30
0.0
 40
0.2000000000000005
100
AcDbArc
 50
90.0
 51
114.1403772338
  0
ARC
  5
E4
330
8F
100
AcDbEntity
  8
$DDT_AUDIT_GENERATED_(D9)
  6
Continuous
 62
     7
100
AcDbCircle
 10
48.2313007223
 20
644.8953782788
 30
0.0
 40
0.2000000000000005
100
AcDbArc
 50
65.8596227662
 51
90.0
  0
LINE
  5
E5
330
8F
100
AcDbEntity
  8
$DDT_AUDIT_GENERATED_(D9)
  6
Continuous
 62
     7
100
AcDbLine
 10
56.3429265818
 20
635.7988687601
 30
0.0
 11
56.2474300313
 21
641.269862474
 31
0.0
  0
LINE
  5
E6
330
8F
100
AcDbEntity
  8
$DDT_AUDIT_GENERATED_(D9)
  6
Continuous
 62
     7
100
AcDbLine
 10
7.0499238476
 20
635.5953782788
 30
0.0
 11
6.55
 21
635.5953782788
 31
0.0
  0
LINE
  5
E7
330
8F
100
AcDbEntity
  8
$DDT_AUDIT_GENERATED_(D9)
  6
Continuous
 62
     7
100
AcDbLine
 10
55.6430331952
 20
635.5953782788
 30
0.0
 11
7.0499238476
 21
635.5953782788
 31
0.0
  0
LINE
  5
E8
330
8F
100
AcDbEntity
  8
$DDT_AUDIT_GENERATED_(D9)
  6
Continuous
 62
     7
100
AcDbLine
 10
56.1429570428
 20
635.5953782788
 30
0.0
 11
55.6430331952
 21
635.5953782788
 31
0.0
  0
LINE
  5
E9
330
8F
100
AcDbEntity
  8
$DDT_AUDIT_GENERATED_(D9)
  6
Continuous
 62
     7
100
AcDbLine
 10
6.350030461
 20
635.7988687601
 30
0.0
 11
6.4455270115
 21
641.269862474
 31
0.0
  0
ARC
  5
EA
330
8F
100
AcDbEntity
  8
$DDT_AUDIT_GENERATED_(D9)
  6
Continuous
 62
     7
100
AcDbCircle
 10
6.55
 20
635.7953782788
 30
0.0
 40
0.199999999999994
100
AcDbArc
 50
179.0
 51
270.0
  0
ARC
  5
EB
330
8F
100
AcDbEntity
  8
$DDT_AUDIT_GENERATED_(D9)
  6
Continuous
 62
     7
100
AcDbCircle
 10
56.1429570428
 20
635.7953782788
 30
0.0
 40
0.1999999999999662
100
AcDbArc
 50
270.0
 51
1.0
  0
LINE
  5
ED
330
8F
100
AcDbEntity
  8
$DDT_AUDIT_GENERATED_(EC)
  6
Continuous
 62
     7
100
AcDbLine
 10
25.7464785214
 20
645.2953782788
 30
0.0
 11
36.9464785214
 21
645.2953782788
 31
0.0
  0
LINE
  5
EE
330
8F
100
AcDbEntity
  8
$DDT_AUDIT_GENERATED_(EC)
  6
Continuous
 62
     7
100
AcDbLine
 10
36.9464785214
 20
645.2953782788
 30
0.0
 11
36.9464785214
 21
645.3953782788
 31
0.0
  0
LINE
  5
EF
330
8F
100
AcDbEntity
  8
$DDT_AUDIT_GENERATED_(EC)
  6
Continuous
 62
     7
100
AcDbLine
 10
25.7464785214
 20
645.3953782788
 30
0.0
 11
25.7464785214
 21
645.2953782788
 31
0.0
  0
LINE
  5
F0
330
8F
100
AcDbEntity
  8
$DDT_AUDIT_GENERATED_(EC)
  6
Continuous
 62
     7
100
AcDbLine
 10
25.7464785214
 20
645.2953782788
 30
0.0
 11
25.9464785214
 21
645.0953782788
 31
0.0
  0
LINE
  5
F1
330
8F
100
AcDbEntity
  8
$DDT_AUDIT_GENERATED_(EC)
  6
Continuous
 62
     7
100
AcDbLine
 10
36.7464785214
 20
645.0953782788
 30
0.0
 11
36.9464785214
 21
645.2953782788
 31
0.0
  0
LINE
  5
F2
330
8F
100
AcDbEntity
  8
$DDT_AUDIT_GENERATED_(D9)
  6
Continuous
 62
     7
100
AcDbLine
 10
206.6818766305
 20
641.627899989
 30
0.0
 11
206.7946599475
 21
641.6784458187
 31
0.0
  0
ARC
  5
F3
330
8F
100
AcDbEntity
  8
$DDT_AUDIT_GENERATED_(D9)
  6
Continuous
 62
     7
100
AcDbCircle
 10
206.8454660895
 20
641.2628815115
 30
0.0
 40
0.3999999999999879
100
AcDbArc
 50
114.1403772338
 51
179.0
  0
LINE
  5
F4
330
8F
100
AcDbEntity
  8
$DDT_AUDIT_GENERATED_(D9)
  6
Continuous
 62
     7
100
AcDbLine
 10
206.8143442677
 20
641.6872676934
 30
0.0
 11
214.379861591
 21
645.0778875176
 31
0.0
  0
LINE
  5
F5
330
8F
100
AcDbEntity
  8
$DDT_AUDIT_GENERATED_(D9)
  6
Continuous
 62
     7
100
AcDbLine
 10
206.7946599475
 20
641.6784458187
 30
0.0
 11
206.8143442677
 21
641.6872676934
 31
0.0
  0
ARC
  5
F6
330
8F
100
AcDbEntity
  8
$DDT_AUDIT_GENERATED_(D9)
  6
Continuous
 62
     7
100
AcDbCircle
 10
255.8474909533
 20
641.2628815115
 30
0.0
 40
0.3999999999999879
100
AcDbArc
 50
1.0
 51
65.8596227662
  0
LINE
  5
F7
330
8F
100
AcDbEntity
  8
$DDT_AUDIT_GENERATED_(D9)
  6
Continuous
 62
     7
100
AcDbLine
 10
256.0110804123
 20
641.627899989
 30
0.0
 11
255.8982970953
 21
641.6784458187
 31
0.0
  0
LINE
  5
F8
330
8F
100
AcDbEntity
  8
$DDT_AUDIT_GENERATED_(D9)
  6
Continuous
 62
     7
100
AcDbLine
 10
255.8786127751
 20
641.6872676934
 30
0.0
 11
248.3130954518
 21
645.0778875176
 31
0.0
  0
LINE
  5
F9
330
8F
100
AcDbEntity
  8
$DDT_AUDIT_GENERATED_(D9)
  6
Continuous
 62
     7
100
AcDbLine
 10
255.8982970953
 20
641.6784458187
 30
0.0
 11
255.8786127751
 21
641.6872676934
 31
0.0
  0
LINE
  5
FA
330
8F
100
AcDbEntity
  8
$DDT_AUDIT_GENERATED_(D9)
  6
Continuous
 62
     7
100
AcDbLine
 10
214.4616563205
 20
645.0953782788
 30
0.0
 11
248.2313007223
 21
645.0953782788
 31
0.0
  0
ARC
  5
FB
330
8F
100
AcDbEntity
  8
$DDT_AUDIT_GENERATED_(D9)
  6
Continuous
 62
     7
100
AcDbCircle
 10
214.4616563205
 20
644.8953782788
 30
0.0
 40
0.2000000000000005
100
AcDbArc
 50
90.0
 51
114.1403772338
  0
ARC
  5
FC
330
8F
100
AcDbEntity
  8
$DDT_AUDIT_GENERATED_(D9)
  6
Continuous
 62
     7
100
AcDbCircle
 10
248.2313007223
 20
644.8953782788
 30
0.0
 40
0.2000000000000005
100
AcDbArc
 50
65.8596227662
 51
90.0
  0
LINE
  5
FD
330
8F
100
AcDbEntity
  8
$DDT_AUDIT_GENERATED_(D9)
  6
Continuous
 62
     7
100
AcDbLine
 10
256.3429265818
 20
635.7988687601
 30
0.0
 11
256.2474300313
 21
641.269862474
 31
0.0
  0
LINE
  5
FE
330
8F
100
AcDbEntity
  8
$DDT_AUDIT_GENERATED_(D9)
  6
Continuous
 62
     7
100
AcDbLine
 10
207.0499238476
 20
635.5953782788
 30
0.0
 11
206.55
 21
635.5953782788
 31
0.0
  0
LINE
  5
FF
330
8F
100
AcDbEntity
  8
$DDT_AUDIT_GENERATED_(D9)
  6
Continuous
 62
     7
100
AcDbLine
 10
255.6430331952
 20
635.5953782788
 30
0.0
 11
207.0499238476
 21
635.5953782788
 31
0.0
  0
LINE
  5
100
330
8F
100
AcDbEntity
  8
$DDT_AUDIT_GENERATED_(D9)
  6
Continuous
 62
     7
100
AcDbLine
 10
256.1429570428
 20
635.5953782788
 30
0.0
 11
255.6430331952
 21
635.5953782788
 31
0.0
  0
LINE
  5
101
330
8F
100
AcDbEntity
  8
$DDT_AUDIT_GENERATED_(D9)
  6
Continuous
 62
     7
100
AcDbLine
 10
206.350030461
 20
635.7988687601
 30
0.0
 11
206.4455270115
 21
641.269862474
 31
0.0
  0
ARC
  5
102
330
8F
100
AcDbEntity
  8
$DDT_AUDIT_GENERATED_(D9)
  6
Continuous
 62
     7
100
AcDbCircle
 10
206.55
 20
635.7953782788
 30
0.0
 40
0.199999999999994
100
AcDbArc
 50
179.0
 51
270.0
  0
ARC
  5
103
330
8F
100
AcDbEntity
  8
$DDT_AUDIT_GENERATED_(D9)
  6
Continuous
 62
     7
100
AcDbCircle
 10
256.1429570428
 20
635.7953782788
 30
0.0
 40
0.1999999999999662
100
AcDbArc
 50
270.0
 51
1.0
  0
LINE
  5
104
330
8F
100
AcDbEntity
  8
$DDT_AUDIT_GENERATED_(CE)
  6
Continuous
 62
     7
100
AcDbLine
 10
215.7485451939
 20
684.165888379
 30
0.0
 11
246.9444118489
 21
684.165888379
 31
0.0
  0
ARC
  5
105
330
8F
100
AcDbEntity
  8
$DDT_AUDIT_GENERATED_(CE)
  6
Continuous
 62
     7
100
AcDbCircle
 10
215.7485451939
 20
683.165888379
 30
0.0
 40
1.000000000000003
100
AcDbArc
 50
90.0
 51
179.5
  0
LINE
  5
106
330
8F
100
AcDbEntity
  8
$DDT_AUDIT_GENERATED_(CE)
  6
Continuous
 62
     7
100
AcDbLine
 10
247.9443737719
 20
683.1746149145
 30
0.0
 11
248.2723075707
 21
645.5971235859
 31
0.0
  0
ARC
  5
107
330
8F
100
AcDbEntity
  8
$DDT_AUDIT_GENERATED_(CE)
  6
Continuous
 62
     7
100
AcDbCircle
 10
246.9444118489
 20
683.165888379
 30
0.0
 40
1.000000000000001
100
AcDbArc
 50
0.5
 51
90.0
  0
LINE
  5
108
330
8F
100
AcDbEntity
  8
$DDT_AUDIT_GENERATED_(CE)
  6
Continuous
 62
     7
100
AcDbLine
 10
247.2727339711
 20
645.3953782788
 30
0.0
 11
215.4202230718
 21
645.3953782788
 31
0.0
  0
LINE
  5
109
330
8F
100
AcDbEntity
  8
$DDT_AUDIT_GENERATED_(CE)
  6
Continuous
 62
     7
100
AcDbLine
 10
215.4202230718
 20
645.3953782788
 30
0.0
 11
214.6206418567
 21
645.3953782788
 31
0.0
  0
LINE
  5
10A
330
8F
100
AcDbEntity
  8
$DDT_AUDIT_GENERATED_(CE)
  6
Continuous
 62
     7
100
AcDbLine
 10
248.0723151861
 20
645.3953782788
 30
0.0
 11
247.2727339711
 21
645.3953782788
 31
0.0
  0
LINE
  5
10B
330
8F
100
AcDbEntity
  8
$DDT_AUDIT_GENERATED_(CE)
  6
Continuous
 62
     7
100
AcDbLine
 10
214.4206494721
 20
645.5971235859
 30
0.0
 11
214.7485832709
 21
683.1746149145
 31
0.0
  0
ARC
  5
10C
330
8F
100
AcDbEntity
  8
$DDT_AUDIT_GENERATED_(CE)
  6
Continuous
 62
     7
100
AcDbCircle
 10
248.0723151861
 20
645.5953782788
 30
0.0
 40
0.2000000000000034
100
AcDbArc
 50
270.0
 51
0.5
  0
ARC
  5
10D
330
8F
100
AcDbEntity
  8
$DDT_AUDIT_GENERATED_(CE)
  6
Continuous
 62
     7
100
AcDbCircle
 10
214.6206418567
 20
645.5953782788
 30
0.0
 40
0.2000000000000005
100
AcDbArc
 50
179.5
 51
270.0
  0
LINE
  5
10E
330
8F
100
AcDbEntity
  8
$DDT_AUDIT_GENERATED_(EC)
  6
Continuous
 62
     7
100
AcDbLine
 10
225.7464785214
 20
645.2953782788
 30
0.0
 11
236.9464785214
 21
645.2953782788
 31
0.0
  0
LINE
  5
10F
330
8F
100
AcDbEntity
  8
$DDT_AUDIT_GENERATED_(EC)
  6
Continuous
 62
     7
100
AcDbLine
 10
236.9464785214
 20
645.2953782788
 30
0.0
 11
236.9464785214
 21
645.3953782788
 31
0.0
  0
LINE
  5
110
330
8F
100
AcDbEntity
  8
$DDT_AUDIT_GENERATED_(EC)
  6
Continuous
 62
     7
100
AcDbLine
 10
225.7464785214
 20
645.3953782788
 30
0.0
 11
225.7464785214
 21
645.2953782788
 31
0.0
  0
LINE
  5
111
330
8F
100
AcDbEntity
  8
$DDT_AUDIT_GENERATED_(EC)
  6
Continuous
 62
     7
100
AcDbLine
 10
225.7464785214
 20
645.2953782788
 30
0.0
 11
225.9464785214
 21
645.0953782788
 31
0.0
  0
LINE
  5
112
330
8F
100
AcDbEntity
  8
$DDT_AUDIT_GENERATED_(EC)
  6
Continuous
 62
     7
100
AcDbLine
 10
236.7464785214
 20
645.0953782788
 30
0.0
 11
236.9464785214
 21
645.2953782788
 31
0.0
  0
SPLINE
  5
114
330
8F
100
AcDbEntity
  8
$DDT_AUDIT_GENERATED_(113)
  6
Continuous
 62
     7
100
AcDbSpline
210
0.0
220
0.0
230
1.0
 70
     8
 71
     3
 72
    20
 73
    16
 74
     0
 42
0.0000000026150487
 43
0.0000000001
 40
0.0
 40
0.0
 40
0.0
 40
0.0
 40
0.1249999999999999
 40
0.1249999999999999
 40
0.2499999999999998
 40
0.2499999999999998
 40
0.3749999999999997
 40
0.3749999999999997
 40
0.4999999999999996
 40
0.4999999999999996
 40
0.6249999999999994
 40
0.6249999999999994
 40
0.7499999999999993
 40
0.7499999999999993
 40
0.8638369562619397
 40
0.8638369562619397
 40
0.8638369562619397
 40
0.8638369562619397
 10
140.2464785214056
 20
756.1448202044298
 30
0.0
 10
140.4664116699772
 20
756.1448202044328
 30
0.0
 10
140.6865036854371
 20
756.1529308254115
 30
0.0
 10
141.1111289415731
 20
756.1842209163102
 30
0.0
 10
141.3164224798228
 20
756.2072600402039
 30
0.0
 10
141.7128757747049
 20
756.2682276022235
 30
0.0
 10
141.9006735602074
 20
756.3058019921535
 30
0.0
 10
142.245636245052
 20
756.3924725696802
 30
0.0
 10
142.4061509411641
 20
756.4425022396288
 30
0.0
 10
142.68960301424
 20
756.5516973623913
 30
0.0
 10
142.8125959705324
 20
756.6105523860246
 30
0.0
 10
143.0216595655121
 20
756.7366544240066
 30
0.0
 10
143.1068483786946
 20
756.8038005601067
 30
0.0
 10
143.2269927430237
 20
756.9344617530686
 30
0.0
 10
143.2667156897366
 20
756.9987094298393
 30
0.0
 10
143.2882968886185
 20
757.0638087927126
 30
0.0
  0
SPLINE
  5
115
330
8F
100
AcDbEntity
  8
$DDT_AUDIT_GENERATED_(113)
  6
Continuous
 62
     7
100
AcDbSpline
210
0.0
220
0.0
230
1.0
 70
     8
 71
     3
 72
     8
 73
     4
 74
     0
 42
0.0000000056383759
 43
0.0000000001
 40
0.932693426932468
 40
0.932693426932468
 40
0.932693426932468
 40
0.932693426932468
 40
1.0
 40
1.0
 40
1.0
 40
1.0
 10
143.3074130758294
 20
757.1826257930103
 30
0.0
 10
143.3070670871932
 20
757.2214832019062
 30
0.0
 10
143.3002521588837
 20
757.2604017534096
 30
0.0
 10
143.2868442270215
 20
757.2991501819002
 30
0.0
  0
ARC
  5
116
330
8F
100
AcDbEntity
  8
$DDT_AUDIT_GENERATED_(113)
  6
Continuous
 62
     7
100
AcDbCircle
 10
150.8076399586
 20
759.8331270657
 30
0.0
 40
7.936208621514774
100
AcDbArc
 50
197.1482619496
 51
198.6201817221
  0
SPLINE
  5
117
330
8F
100
AcDbEntity
  8
$DDT_AUDIT_GENERATED_(113)
  6
Continuous
 62
     7
100
AcDbSpline
210
0.0
220
0.0
230
1.0
 70
     8
 71
     3
 72
    12
 73
     8
 74
     0
 42
0.0000000028483302
 43
0.0000000001
 40
0.0
 40
0.0
 40
0.0
 40
0.0
 40
0.25
 40
0.25
 40
0.5
 40
0.5
 40
0.615279124275563
 40
0.615279124275563
 40
0.615279124275563
 40
0.615279124275563
 10
143.2242355168949
 20
757.4931731436574
 30
0.0
 10
143.1452733491247
 20
757.7454119881346
 30
0.0
 10
143.0124232136184
 20
757.9866104359936
 30
0.0
 10
142.6540574410009
 20
758.4226753547633
 30
0.0
 10
142.4236949098532
 20
758.6217964728827
 30
0.0
 10
142.037542380725
 20
758.8601330649146
 30
0.0
 10
141.9067303587984
 20
758.9287119463661
 30
0.0
 10
141.7694873412493
 20
758.9894042311456
 30
0.0
  0
SPLINE
  5
118
330
8F
100
AcDbEntity
  8
$DDT_AUDIT_GENERATED_(113)
  6
Continuous
 62
     7
100
AcDbSpline
210
0.0
220
0.0
230
1.0
 70
     8
 71
     3
 72
    22
 73
    18
 74
     0
 42
0.0000000028191522
 43
0.0000000001
 40
0.0
 40
0.0
 40
0.0
 40
0.0
 40
0.125
 40
0.125
 40
0.25
 40
0.25
 40
0.375
 40
0.375
 40
0.5
 40
0.5
 40
0.625
 40
0.625
 40
0.75
 40
0.75
 40
0.875
 40
0.875
 40
1.0
 40
1.0
 40
1.0
 40
1.0
 10
119.4061128157897
 20
757.2991501819002
 30
0.0
 10
119.3811996708375
 20
757.2271521119833
 30
0.0
 10
119.3789280923007
 20
757.1542278221206
 30
0.0
 10
119.4184344420407
 20
757.0113853340985
 30
0.0
 10
119.4597734043061
 20
756.9412579397481
 30
0.0
 10
119.5862112581321
 20
756.8036258503969
 30
0.0
 10
119.6715733278503
 20
756.7365262936465
 30
0.0
 10
119.8793083248953
 20
756.6111492642895
 30
0.0
 10
120.0030078605569
 20
756.5517993173568
 30
0.0
 10
120.2882985326065
 20
756.4419588326653
 30
0.0
 10
120.4460002236389
 20
756.3928522381499
 30
0.0
 10
120.7910167488599
 20
756.3060727326957
 30
0.0
 10
120.9807707536826
 20
756.2681376800191
 30
0.0
 10
121.3747295617817
 20
756.2075215546893
 30
0.0
 10
121.5799094657397
 20
756.1843773793325
 30
0.0
 10
122.0071806316802
 20
756.1528621942601
 30
0.0
 10
122.2264248878163
 20
756.1448202044328
 30
0.0
 10
122.4464785214056
 20
756.1448202044386
 30
0.0
  0
ARC
  5
119
330
8F
100
AcDbEntity
  8
$DDT_AUDIT_GENERATED_(113)
  6
Continuous
 62
     7
100
AcDbCircle
 10
111.8833072055
 20
759.8337756277
 30
0.0
 40
7.938320376548215
100
AcDbArc
 50
341.380014069
 51
342.8515422593
  0
SPLINE
  5
11A
330
8F
100
AcDbEntity
  8
$DDT_AUDIT_GENERATED_(113)
  6
Continuous
 62
     7
100
AcDbSpline
210
0.0
220
0.0
230
1.0
 70
     8
 71
     3
 72
    18
 73
    14
 74
     0
 42
0.0000000027942313
 43
0.0000000001
 40
0.2634671659616717
 40
0.2634671659616717
 40
0.2634671659616717
 40
0.2634671659616717
 40
0.375
 40
0.375
 40
0.5
 40
0.5
 40
0.625
 40
0.625
 40
0.75
 40
0.75
 40
0.8750000000000001
 40
0.8750000000000001
 40
1.0
 40
1.0
 40
1.0
 40
1.0
 10
121.376318400734
 20
759.1536873789049
 30
0.0
 10
121.2327301762677
 20
759.1123303415561
 30
0.0
 10
121.0920393889779
 20
759.062263447773
 30
0.0
 10
120.8083382028717
 20
758.9405299137112
 30
0.0
 10
120.6672344418012
 20
758.8673494905873
 30
0.0
 10
120.4021026647623
 20
758.7038649456704
 30
0.0
 10
120.2771123414244
 20
758.6126156298465
 30
0.0
 10
120.0514004877322
 20
758.4180119072881
 30
0.0
 10
119.9502292824211
 20
758.3146778335395
 30
0.0
 10
119.7705877555277
 20
758.0962907673347
 30
0.0
 10
119.6917085841827
 20
757.9803368508922
 30
0.0
 10
119.5606771309403
 20
757.7418360977082
 30
0.0
 10
119.5081741183306
 20
757.6192015519857
 30
0.0
 10
119.4687215259163
 20
757.4931731436574
 30
0.0
  0
LINE
  5
11B
330
8F
100
AcDbEntity
  8
$DDT_AUDIT_GENERATED_(113)
  6
Continuous
 62
     7
100
AcDbLine
 10
122.4464785214
 20
756.1448202044
 30
0.0
 11
140.2464785214
 21
756.1448202044
 31
0.0
  0
LINE
  5
11C
330
8F
100
AcDbEntity
  8
$DDT_AUDIT_GENERATED_(113)
  6
Continuous
 62
     7
100
AcDbLine
 10
122.4464785214
 20
759.2101590525
 30
0.0
 11
122.4464785214
 21
759.2737593805
 31
0.0
  0
LINE
  5
11D
330
8F
100
AcDbEntity
  8
$DDT_AUDIT_GENERATED_(113)
  6
Continuous
 62
     7
100
AcDbLine
 10
140.2464785214
 20
759.2737593805
 30
0.0
 11
140.2464785214
 21
759.2101590525
 31
0.0
  0
ELLIPSE
  5
11E
330
8F
100
AcDbEntity
  8
$DDT_AUDIT_GENERATED_(113)
  6
Continuous
 62
     7
100
AcDbEllipse
 10
140.3464785214
 20
756.9905373246
 30
0.0
 11
-4.299999999999998
 21
0.0
 31
0.0
210
0.0
220
0.0
230
1.0
 40
0.3496610768
 41
1.570796326794897
 42
3.231280082248707
  0
LINE
  5
11F
330
8F
100
AcDbEntity
  8
$DDT_AUDIT_GENERATED_(113)
  6
Continuous
 62
     7
100
AcDbLine
 10
122.3464785214
 20
755.4869946944
 30
0.0
 11
140.3464785214
 21
755.4869946944
 31
0.0
  0
ELLIPSE
  5
120
330
8F
100
AcDbEntity
  8
$DDT_AUDIT_GENERATED_(113)
  6
Continuous
 62
     7
100
AcDbEllipse
 10
122.3464785214
 20
756.9905373246
 30
0.0
 11
4.300000000000002
 21
-1.387778780781446E-14
 31
0.0
210
0.0
220
0.0
230
1.0
 40
0.3496610768
 41
3.051905224930836
 42
4.712388980384691
  0
ELLIPSE
  5
121
330
8F
100
AcDbEntity
  8
$DDT_AUDIT_GENERATED_(113)
  6
Continuous
 62
     7
100
AcDbEllipse
 10
122.3464785214
 20
756.9449808622
 30
0.0
 11
-4.499999999999996
 21
0.0
 31
0.0
210
0.0
220
0.0
230
1.0
 40
0.7470537866
 41
4.71238898038469
 42
6.105856538414432
  0
ARC
  5
122
330
8F
100
AcDbEntity
  8
$DDT_AUDIT_GENERATED_(113)
  6
Continuous
 62
     7
100
AcDbCircle
 10
95.8137195002
 20
762.8102775435
 30
0.0
 40
22.72342382466374
100
AcDbArc
 50
346.0250830006
 51
346.5839895506
  0
ELLIPSE
  5
123
330
8F
100
AcDbEntity
  8
$DDT_AUDIT_GENERATED_(113)
  6
Continuous
 62
     7
100
AcDbEllipse
 10
122.3464785214
 20
757.1784758488
 30
0.0
 11
4.499999999999998
 21
0.0
 31
0.0
210
0.0
220
0.0
230
1.0
 40
0.3576725518
 41
3.051905224930812
 42
3.141592653589793
  0
ARC
  5
124
330
8F
100
AcDbEntity
  8
$DDT_AUDIT_GENERATED_(113)
  6
Continuous
 62
     7
100
AcDbCircle
 10
99.6490432851
 20
760.8424985311
 30
0.0
 40
18.78616785333746
100
AcDbArc
 50
348.587339724
 51
349.3880295188
  0
ELLIPSE
  5
125
330
8F
100
AcDbEntity
  8
$DDT_AUDIT_GENERATED_(113)
  6
Continuous
 62
     7
100
AcDbEllipse
 10
140.3464785214
 20
756.8085811902
 30
0.0
 11
4.299999999999996
 21
2.775557561562891E-14
 31
0.0
210
0.0
220
0.0
230
1.0
 40
0.7571530667
 41
0.1773287687651555
 42
1.570796326794898
  0
LINE
  5
126
330
8F
100
AcDbEntity
  8
$DDT_AUDIT_GENERATED_(113)
  6
Continuous
 62
     7
100
AcDbLine
 10
140.3464785214
 20
760.0643393771
 30
0.0
 11
122.3464785214
 21
760.0643393771
 31
0.0
  0
ELLIPSE
  5
127
330
8F
100
AcDbEntity
  8
$DDT_AUDIT_GENERATED_(113)
  6
Continuous
 62
     7
100
AcDbEllipse
 10
122.3464785214
 20
756.8085811902
 30
0.0
 11
4.300000000000006
 21
2.775557561562891E-14
 31
0.0
210
0.0
220
0.0
230
1.0
 40
0.7571530667
 41
1.570796326794892
 42
2.964263884824616
  0
ELLIPSE
  5
128
330
8F
100
AcDbEntity
  8
$DDT_AUDIT_GENERATED_(113)
  6
Continuous
 62
     7
100
AcDbEllipse
 10
140.3464785214
 20
756.9449808622
 30
0.0
 11
4.500000000000009
 21
1.387778780781446E-14
 31
0.0
210
0.0
220
0.0
230
1.0
 40
0.7470537866
 41
0.1773287687651146
 42
1.570796326794894
  0
ARC
  5
129
330
8F
100
AcDbEntity
  8
$DDT_AUDIT_GENERATED_(113)
  6
Continuous
 62
     7
100
AcDbCircle
 10
166.8821191501
 20
762.810979762
 30
0.0
 40
22.72638972472421
100
AcDbArc
 50
193.4160469197
 51
193.9748805291
  0
ELLIPSE
  5
12A
330
8F
100
AcDbEntity
  8
$DDT_AUDIT_GENERATED_(113)
  6
Continuous
 62
     7
100
AcDbEllipse
 10
140.3464785214
 20
757.1784758488
 30
0.0
 11
-4.499999999999999
 21
0.0
 31
0.0
210
0.0
220
0.0
230
1.0
 40
0.3576725518
 41
3.141592653589793
 42
3.231280082248776
  0
LINE
  5
12B
330
8F
100
AcDbEntity
  8
$DDT_AUDIT_GENERATED_(113)
  6
Continuous
 62
     7
100
AcDbLine
 10
122.3464785214
 20
760.306722902
 30
0.0
 11
140.3464785214
 21
760.306722902
 31
0.0
  0
ARC
  5
12C
330
8F
100
AcDbEntity
  8
$DDT_AUDIT_GENERATED_(113)
  6
Continuous
 62
     7
100
AcDbCircle
 10
163.0421817906
 20
760.8421614844
 30
0.0
 40
18.78440343882972
100
AcDbArc
 50
190.6119328762
 51
191.4126978809
  0
LINE
  5
12D
330
8F
100
AcDbEntity
  8
$DDT_AUDIT_GENERATED_(113)
  6
Continuous
 62
     7
100
AcDbLine
 10
140.3464785214
 20
755.4869946944
 30
0.0
 11
140.3464785214
 21
755.4749332186
 31
0.0
  0
LINE
  5
12E
330
8F
100
AcDbEntity
  8
$DDT_AUDIT_GENERATED_(113)
  6
Continuous
 62
     7
100
AcDbLine
 10
122.3464785214
 20
755.4869946944
 30
0.0
 11
122.3464785214
 21
755.4749332186
 31
0.0
  0
LINE
  5
12F
330
8F
100
AcDbEntity
  8
$DDT_AUDIT_GENERATED_(113)
  6
Continuous
 62
     7
100
AcDbLine
 10
117.8464785214
 20
758.7505599414
 30
0.0
 11
117.8464785214
 21
757.1784758488
 31
0.0
  0
LINE
  5
130
330
8F
100
AcDbEntity
  8
$DDT_AUDIT_GENERATED_(113)
  6
Continuous
 62
     7
100
AcDbLine
 10
144.8464785214
 20
757.1784758488
 30
0.0
 11
144.8464785214
 21
758.8565605979
 31
0.0
  0
LINE
  5
131
330
8F
100
AcDbEntity
  8
$DDT_AUDIT_GENERATED_(113)
  6
Continuous
 62
     7
100
AcDbLine
 10
122.4464785214
 20
759.2101590525
 30
0.0
 11
140.2464785214
 21
759.2101590525
 31
0.0
  0
LINE
  5
132
330
8F
100
AcDbEntity
  8
$DDT_AUDIT_GENERATED_(113)
  6
Continuous
 62
     7
100
AcDbLine
 10
122.3464785214
 20
755.4749332186
 30
0.0
 11
140.3464785214
 21
755.4749332186
 31
0.0
  0
ENDBLK
  5
134
330
8F
100
AcDbEntity
  8
0
100
AcDbBlockEnd
  0
BLOCK
  5
17F
330
135
100
AcDbEntity
  8
0
100
AcDbBlockBegin
  2
SE1
 70
     0
 10
0.0
 20
0.0
 30
0.0
  3
SE1
  1

  0
LINE
  5
137
330
135
100
AcDbEntity
  8
$DDT_AUDIT_GENERATED_(91)
  6
Continuous
 62
     7
100
AcDbLine
 10
336.8246339471
 20
635.5953782788
 30
0.0
 11
337.0281554257
 21
635.5953782788
 31
0.0
  0
LINE
  5
138
330
135
100
AcDbEntity
  8
$DDT_AUDIT_GENERATED_(91)
  6
Continuous
 62
     7
100
AcDbLine
 10
386.6211124685
 20
635.5953782788
 30
0.0
 11
386.8246339471
 21
635.5953782788
 31
0.0
  0
LINE
  5
139
330
135
100
AcDbEntity
  8
$DDT_AUDIT_GENERATED_(91)
  6
Continuous
 62
     7
100
AcDbLine
 10
340.4298514645
 20
756.6814817457
 30
0.0
 11
337.0009960013
 21
641.5187362563
 31
0.0
  0
LINE
  5
13A
330
135
100
AcDbEntity
  8
$DDT_AUDIT_GENERATED_(91)
  6
Continuous
 62
     7
100
AcDbLine
 10
336.8298216827
 20
635.769615391
 30
0.0
 11
336.8246339471
 21
635.5953782788
 31
0.0
  0
LINE
  5
13B
330
135
100
AcDbEntity
  8
$DDT_AUDIT_GENERATED_(91)
  6
Continuous
 62
     7
100
AcDbLine
 10
370.3892163975
 20
744.2268921598
 30
0.0
 11
340.4298514645
 21
756.6814817457
 31
0.0
  0
LINE
  5
13C
330
135
100
AcDbEntity
  8
$DDT_AUDIT_GENERATED_(91)
  6
Continuous
 62
     7
100
AcDbLine
 10
386.8246339471
 20
635.5953782788
 30
0.0
 11
386.8059368346
 21
635.7189586889
 31
0.0
  0
LINE
  5
13D
330
135
100
AcDbEntity
  8
$DDT_AUDIT_GENERATED_(91)
  6
Continuous
 62
     7
100
AcDbLine
 10
385.8901141126
 20
641.7721793286
 30
0.0
 11
370.3892163975
 21
744.2268921598
 31
0.0
  0
LINE
  5
13E
330
135
100
AcDbEntity
  8
$DDT_AUDIT_GENERATED_(91)
  6
Continuous
 62
     7
100
AcDbLine
 10
386.8246339471
 20
635.5953782788
 30
0.0
 11
386.8199247927
 21
635.7736145535
 31
0.0
  0
LINE
  5
13F
330
135
100
AcDbEntity
  8
$DDT_AUDIT_GENERATED_(91)
  6
Continuous
 62
     7
100
AcDbLine
 10
386.6689606778
 20
641.4874390097
 30
0.0
 11
384.0934939885
 21
738.9659991716
 31
0.0
  0
LINE
  5
140
330
135
100
AcDbEntity
  8
$DDT_AUDIT_GENERATED_(91)
  6
Continuous
 62
     7
100
AcDbLine
 10
500.4530331596
 20
768.2697828282
 30
0.0
 11
370.3892163975
 21
744.2268921598
 31
0.0
  0
LINE
  5
141
330
135
100
AcDbEntity
  8
$DDT_AUDIT_GENERATED_(91)
  6
Continuous
 62
     7
100
AcDbLine
 10
499.4780788463
 20
776.2101485072
 30
0.0
 11
500.4530331596
 21
768.2697828282
 31
0.0
  0
LINE
  5
142
330
135
100
AcDbEntity
  8
$DDT_AUDIT_GENERATED_(91)
  6
Continuous
 62
     7
100
AcDbLine
 10
340.4298514645
 20
756.6814817457
 30
0.0
 11
499.4780788463
 21
776.2101485072
 31
0.0
  0
LINE
  5
143
330
135
100
AcDbEntity
  8
$DDT_AUDIT_GENERATED_(91)
  6
Continuous
 62
     7
100
AcDbLine
 10
370.3892163975
 20
744.2268921598
 30
0.0
 11
384.0934939885
 21
738.9659991716
 31
0.0
  0
LINE
  5
144
330
135
100
AcDbEntity
  8
$DDT_AUDIT_GENERATED_(91)
  6
Continuous
 62
     7
100
AcDbLine
 10
500.4530331596
 20
768.2697828282
 30
0.0
 11
384.0934939885
 21
738.9659991716
 31
0.0
  0
LINE
  5
145
330
135
100
AcDbEntity
  8
$DDT_AUDIT_GENERATED_(AE)
  6
Continuous
 62
     7
100
AcDbLine
 10
417.782080171
 20
747.450074039
 30
0.0
 11
415.0051801193
 21
746.7507443617
 31
0.0
  0
ARC
  5
146
330
135
100
AcDbEntity
  8
$DDT_AUDIT_GENERATED_(CE)
  6
Continuous
 62
     7
100
AcDbCircle
 10
358.7622287555
 20
683.165888379
 30
0.0
 40
0.9999999999999993
100
AcDbArc
 50
90.0
 51
176.3105614093
  0
LINE
  5
147
330
135
100
AcDbEntity
  8
$DDT_AUDIT_GENERATED_(CE)
  6
Continuous
 62
     7
100
AcDbLine
 10
358.7622287555
 20
684.165888379
 30
0.0
 11
364.8870391387
 21
684.165888379
 31
0.0
  0
ARC
  5
148
330
135
100
AcDbEntity
  8
$DDT_AUDIT_GENERATED_(CE)
  6
Continuous
 62
     7
100
AcDbCircle
 10
364.8870391387
 20
683.165888379
 30
0.0
 40
1.000000000000001
100
AcDbArc
 50
3.6894385907
 51
90.0
  0
LINE
  5
149
330
135
100
AcDbEntity
  8
$DDT_AUDIT_GENERATED_(CE)
  6
Continuous
 62
     7
100
AcDbLine
 10
365.8849666354
 20
683.230236739
 30
0.0
 11
368.3109076851
 21
645.6082479508
 31
0.0
  0
LINE
  5
14A
330
135
100
AcDbEntity
  8
$DDT_AUDIT_GENERATED_(CE)
  6
Continuous
 62
     7
100
AcDbLine
 10
355.3383602091
 20
645.6082479508
 30
0.0
 11
357.7643012588
 21
683.230236739
 31
0.0
  0
LINE
  5
14B
330
135
100
AcDbEntity
  8
$DDT_AUDIT_GENERATED_(CE)
  6
Continuous
 62
     7
100
AcDbLine
 10
368.1113221858
 20
645.3953782788
 30
0.0
 11
367.3101109033
 21
645.3953782788
 31
0.0
  0
LINE
  5
14C
330
135
100
AcDbEntity
  8
$DDT_AUDIT_GENERATED_(CE)
  6
Continuous
 62
     7
100
AcDbLine
 10
367.3101109033
 20
645.3953782788
 30
0.0
 11
356.3391569909
 21
645.3953782788
 31
0.0
  0
LINE
  5
14D
330
135
100
AcDbEntity
  8
$DDT_AUDIT_GENERATED_(CE)
  6
Continuous
 62
     7
100
AcDbLine
 10
356.3391569909
 20
645.3953782788
 30
0.0
 11
355.5379457085
 21
645.3953782788
 31
0.0
  0
ARC
  5
14E
330
135
100
AcDbEntity
  8
$DDT_AUDIT_GENERATED_(CE)
  6
Continuous
 62
     7
100
AcDbCircle
 10
368.1113221858
 20
645.5953782788
 30
0.0
 40
0.2000000000000005
100
AcDbArc
 50
270.0
 51
3.6894385906
  0
ARC
  5
14F
330
135
100
AcDbEntity
  8
$DDT_AUDIT_GENERATED_(CE)
  6
Continuous
 62
     7
100
AcDbCircle
 10
355.5379457085
 20
645.5953782788
 30
0.0
 40
0.2000000000000005
100
AcDbArc
 50
176.3105614094
 51
270.0
  0
LINE
  5
150
330
135
100
AcDbEntity
  8
$DDT_AUDIT_GENERATED_(D9)
  6
Continuous
 62
     7
100
AcDbLine
 10
337.2496116777
 20
641.6757794711
 30
0.0
 11
337.384360565
 21
641.7012725038
 31
0.0
  0
LINE
  5
151
330
135
100
AcDbEntity
  8
$DDT_AUDIT_GENERATED_(D9)
  6
Continuous
 62
     7
100
AcDbLine
 10
386.7252386273
 20
641.2897323354
 30
0.0
 11
386.8210820076
 21
635.7988687601
 31
0.0
  0
ARC
  5
152
330
135
100
AcDbEntity
  8
$DDT_AUDIT_GENERATED_(D9)
  6
Continuous
 62
     7
100
AcDbCircle
 10
386.3252995493
 20
641.2827513728
 30
0.0
 40
0.3999999999999957
100
AcDbArc
 50
1.0
 51
79.2868769772
  0
ARC
  5
153
330
135
100
AcDbEntity
  8
$DDT_AUDIT_GENERATED_(D9)
  6
Continuous
 62
     7
100
AcDbCircle
 10
337.323968345
 20
641.2827513728
 30
0.0
 40
0.4000000000000469
100
AcDbArc
 50
100.7131230228
 51
179.0
  0
LINE
  5
154
330
135
100
AcDbEntity
  8
$DDT_AUDIT_GENERATED_(D9)
  6
Continuous
 62
     7
100
AcDbLine
 10
386.2649073292
 20
641.7012725038
 30
0.0
 11
386.3996562165
 21
641.6757794711
 31
0.0
  0
LINE
  5
155
330
135
100
AcDbEntity
  8
$DDT_AUDIT_GENERATED_(D9)
  6
Continuous
 62
     7
100
AcDbLine
 10
337.384360565
 20
641.7012725038
 30
0.0
 11
355.3062082069
 21
645.091892328
 31
0.0
  0
LINE
  5
156
330
135
100
AcDbEntity
  8
$DDT_AUDIT_GENERATED_(D9)
  6
Continuous
 62
     7
100
AcDbLine
 10
355.3433865405
 20
645.0953782788
 30
0.0
 11
368.3058813538
 21
645.0953782788
 31
0.0
  0
LINE
  5
157
330
135
100
AcDbEntity
  8
$DDT_AUDIT_GENERATED_(D9)
  6
Continuous
 62
     7
100
AcDbLine
 10
368.3430596874
 20
645.091892328
 30
0.0
 11
386.2649073292
 21
641.7012725038
 31
0.0
  0
ARC
  5
158
330
135
100
AcDbEntity
  8
$DDT_AUDIT_GENERATED_(D9)
  6
Continuous
 62
     7
100
AcDbCircle
 10
368.3058813538
 20
644.8953782788
 30
0.0
 40
0.2000000000000005
100
AcDbArc
 50
79.2868769772
 51
90.0
  0
ARC
  5
159
330
135
100
AcDbEntity
  8
$DDT_AUDIT_GENERATED_(D9)
  6
Continuous
 62
     7
100
AcDbCircle
 10
355.3433865405
 20
644.8953782788
 30
0.0
 40
0.2000000000000066
100
AcDbArc
 50
90.0
 51
100.7131230228
  0
LINE
  5
15A
330
135
100
AcDbEntity
  8
$DDT_AUDIT_GENERATED_(D9)
  6
Continuous
 62
     7
100
AcDbLine
 10
386.1211886209
 20
635.5953782788
 30
0.0
 11
337.5280792733
 21
635.5953782788
 31
0.0
  0
LINE
  5
15B
330
135
100
AcDbEntity
  8
$DDT_AUDIT_GENERATED_(D9)
  6
Continuous
 62
     7
100
AcDbLine
 10
386.6211124685
 20
635.5953782788
 30
0.0
 11
386.1211886209
 21
635.5953782788
 31
0.0
  0
LINE
  5
15C
330
135
100
AcDbEntity
  8
$DDT_AUDIT_GENERATED_(D9)
  6
Continuous
 62
     7
100
AcDbLine
 10
337.5280792733
 20
635.5953782788
 30
0.0
 11
337.0281554257
 21
635.5953782788
 31
0.0
  0
LINE
  5
15D
330
135
100
AcDbEntity
  8
$DDT_AUDIT_GENERATED_(D9)
  6
Continuous
 62
     7
100
AcDbLine
 10
336.8281858867
 20
635.7988687601
 30
0.0
 11
336.9240292669
 21
641.2897323354
 31
0.0
  0
ARC
  5
15E
330
135
100
AcDbEntity
  8
$DDT_AUDIT_GENERATED_(D9)
  6
Continuous
 62
     7
100
AcDbCircle
 10
386.6211124685
 20
635.7953782788
 30
0.0
 40
0.1999999999999766
100
AcDbArc
 50
270.0
 51
1.0
  0
ARC
  5
15F
330
135
100
AcDbEntity
  8
$DDT_AUDIT_GENERATED_(D9)
  6
Continuous
 62
     7
100
AcDbCircle
 10
337.0281554257
 20
635.7953782788
 30
0.0
 40
0.2
100
AcDbArc
 50
179.0
 51
270.0
  0
LINE
  5
160
330
135
100
AcDbEntity
  8
$DDT_AUDIT_GENERATED_(EC)
  6
Continuous
 62
     7
100
AcDbLine
 10
367.4246339471
 20
645.2953782788
 30
0.0
 11
356.2246339471
 21
645.2953782788
 31
0.0
  0
LINE
  5
161
330
135
100
AcDbEntity
  8
$DDT_AUDIT_GENERATED_(EC)
  6
Continuous
 62
     7
100
AcDbLine
 10
367.4246339471
 20
645.2953782788
 30
0.0
 11
367.4246339471
 21
645.3953782788
 31
0.0
  0
LINE
  5
162
330
135
100
AcDbEntity
  8
$DDT_AUDIT_GENERATED_(EC)
  6
Continuous
 62
     7
100
AcDbLine
 10
356.2246339471
 20
645.3953782788
 30
0.0
 11
356.2246339471
 21
645.2953782788
 31
0.0
  0
LINE
  5
163
330
135
100
AcDbEntity
  8
$DDT_AUDIT_GENERATED_(EC)
  6
Continuous
 62
     7
100
AcDbLine
 10
356.2246339471
 20
645.2953782788
 30
0.0
 11
356.4246339471
 21
645.0953782788
 31
0.0
  0
LINE
  5
164
330
135
100
AcDbEntity
  8
$DDT_AUDIT_GENERATED_(EC)
  6
Continuous
 62
     7
100
AcDbLine
 10
367.2246339471
 20
645.0953782788
 30
0.0
 11
367.4246339471
 21
645.2953782788
 31
0.0
  0
LINE
  5
166
330
135
100
AcDbEntity
  8
$DDT_AUDIT_GENERATED_(165)
  6
Continuous
 62
     7
100
AcDbLine
 10
338.0130223262
 20
675.5090083248
 30
0.0
 11
331.2305129832
 21
696.3834256705
 31
0.0
  0
LINE
  5
167
330
135
100
AcDbEntity
  8
$DDT_AUDIT_GENERATED_(165)
  6
Continuous
 62
     7
100
AcDbLine
 10
327.9493680019
 20
695.3173170399
 30
0.0
 11
337.7085158949
 21
665.2817482328
 31
0.0
  0
LINE
  5
169
330
135
100
AcDbEntity
  8
$DDT_AUDIT_GENERATED_(168)
  6
Continuous
 62
     7
100
AcDbLine
 10
329.5899404925
 20
695.8503713552
 30
0.0
 11
327.0220878986
 21
695.0160254704
 31
0.0
  0
LINE
  5
16A
330
135
100
AcDbEntity
  8
$DDT_AUDIT_GENERATED_(168)
  6
Continuous
 62
     7
100
AcDbLine
 10
334.0427395849
 20
704.2035831476
 30
0.0
 11
334.0427395849
 21
699.203628894
 31
0.0
  0
LINE
  5
16B
330
135
100
AcDbEntity
  8
$DDT_AUDIT_GENERATED_(168)
  6
Continuous
 62
     7
100
AcDbLine
 10
334.0427395849
 20
699.203628894
 30
0.0
 11
334.0427395849
 21
698.403628894
 31
0.0
  0
LINE
  5
16C
330
135
100
AcDbEntity
  8
$DDT_AUDIT_GENERATED_(168)
  6
Continuous
 62
     7
100
AcDbLine
 10
334.0427395849
 20
698.403628894
 30
0.0
 11
334.0427395849
 21
697.6604447477
 31
0.0
  0
LINE
  5
16D
330
135
100
AcDbEntity
  8
$DDT_AUDIT_GENERATED_(168)
  6
Continuous
 62
     7
100
AcDbLine
 10
333.6354446833
 20
697.164835348
 30
0.0
 11
329.5899404925
 21
695.8503713552
 31
0.0
  0
LINE
  5
16E
330
135
100
AcDbEntity
  8
$DDT_AUDIT_GENERATED_(168)
  6
Continuous
 62
     7
100
AcDbLine
 10
333.6972480821
 20
697.1849164896
 30
0.0
 11
333.6354446833
 21
697.164835348
 31
0.0
  0
LINE
  5
16F
330
135
100
AcDbEntity
  8
$DDT_AUDIT_GENERATED_(168)
  6
Continuous
 62
     7
100
AcDbLine
 10
319.0429570428
 20
699.203628894
 30
0.0
 11
319.0429570428
 21
704.2035831476
 31
0.0
  0
LINE
  5
170
330
135
100
AcDbEntity
  8
$DDT_AUDIT_GENERATED_(168)
  6
Continuous
 62
     7
100
AcDbLine
 10
333.5427395849
 20
698.703628894
 30
0.0
 11
319.5429570428
 21
698.703628894
 31
0.0
  0
LINE
  5
171
330
135
100
AcDbEntity
  8
$DDT_AUDIT_GENERATED_(168)
  6
Continuous
 62
     7
100
AcDbLine
 10
319.5429570428
 20
704.7035831476
 30
0.0
 11
333.5427395849
 21
704.7035831476
 31
0.0
  0
ARC
  5
172
330
135
100
AcDbEntity
  8
$DDT_AUDIT_GENERATED_(168)
  6
Continuous
 62
     7
100
AcDbCircle
 10
319.5429570428
 20
704.2035831476
 30
0.0
 40
0.4999999999999866
100
AcDbArc
 50
90.0
 51
180.0
  0
ARC
  5
173
330
135
100
AcDbEntity
  8
$DDT_AUDIT_GENERATED_(168)
  6
Continuous
 62
     7
100
AcDbCircle
 10
319.5429570428
 20
699.203628894
 30
0.0
 40
0.5000000000000004
100
AcDbArc
 50
180.0
 51
270.0
  0
ARC
  5
174
330
135
100
AcDbEntity
  8
$DDT_AUDIT_GENERATED_(168)
  6
Continuous
 62
     7
100
AcDbCircle
 10
333.5427395849
 20
704.2035831476
 30
0.0
 40
0.5000000000000004
100
AcDbArc
 50
0.0
 51
90.0
  0
ARC
  5
175
330
135
100
AcDbEntity
  8
$DDT_AUDIT_GENERATED_(168)
  6
Continuous
 62
     7
100
AcDbCircle
 10
333.5427395849
 20
699.203628894
 30
0.0
 40
0.5000000000000004
100
AcDbArc
 50
270.0
 51
0.0
  0
ARC
  5
176
330
135
100
AcDbEntity
  8
$DDT_AUDIT_GENERATED_(168)
  6
Continuous
 62
     7
100
AcDbCircle
 10
333.5427395849
 20
697.6604447477
 30
0.0
 40
0.5000000000000004
100
AcDbArc
 50
288.0
 51
0.0
  0
LINE
  5
177
330
135
100
AcDbEntity
  8
$DDT_AUDIT_GENERATED_(168)
  6
Continuous
 62
     7
100
AcDbLine
 10
325.5758284436
 20
698.4963339923
 30
0.0
 11
326.6440658454
 21
695.208637327
 31
0.0
  0
ARC
  5
178
330
135
100
AcDbEntity
  8
$DDT_AUDIT_GENERATED_(168)
  6
Continuous
 62
     7
100
AcDbCircle
 10
326.9293828002
 20
695.3013424253
 30
0.0
 40
0.2999999999999992
100
AcDbArc
 50
198.0
 51
288.0
  0
ARC
  5
179
330
135
100
AcDbEntity
  8
$DDT_AUDIT_GENERATED_(168)
  6
Continuous
 62
     7
100
AcDbCircle
 10
325.2905114887
 20
698.403628894
 30
0.0
 40
0.2999999999999956
100
AcDbArc
 50
14.8648252518
 51
90.0
  0
LINE
  5
17A
330
135
100
AcDbEntity
  8
$DDT_AUDIT_GENERATED_(113)
  6
Continuous
 62
     7
100
AcDbLine
 10
458.3992069583
 20
757.125205486
 30
0.0
 11
453.8982598001
 21
755.4869946944
 31
0.0
  0
LINE
  5
17B
330
135
100
AcDbEntity
  8
$DDT_AUDIT_GENERATED_(113)
  6
Continuous
 62
     7
100
AcDbLine
 10
453.6602461522
 20
755.5689493657
 30
0.0
 11
453.1653573533
 21
756.3609369988
 31
0.0
  0
ARC
  5
17C
330
135
100
AcDbEntity
  8
$DDT_AUDIT_GENERATED_(113)
  6
Continuous
 62
     7
100
AcDbCircle
 10
458.0583050665
 20
758.0632086129
 30
0.0
 40
0.9980300425849555
100
AcDbArc
 50
289.972847219
 51
317.027152781
  0
LINE
  5
17D
330
135
100
AcDbEntity
  8
$DDT_AUDIT_GENERATED_(113)
  6
Continuous
 62
     7
100
AcDbLine
 10
459.2689246745
 20
757.8980486865
 30
0.0
 11
458.7885405166
 21
757.3828997467
 31
0.0
  0
ARC
  5
17E
330
135
100
AcDbEntity
  8
$DDT_AUDIT_GENERATED_(113)
  6
Continuous
 62
     7
100
AcDbCircle
 10
453.8298557715
 20
755.6749332186
 30
0.0
 40
0.2000000000000005
100
AcDbArc
 50
212.0
 51
290.0
  0
ENDBLK
  5
180
330
135
100
AcDbEntity
  8
0
100
AcDbBlockEnd
  0
BLOCK
  5
1E1
330
181
100
AcDbEntity
  8
0
100
AcDbBlockBegin
  2
SE2
 70
     0
 10
0.0
 20
0.0
 30
0.0
  3
SE2
  1

  0
LINE
  5
183
330
181
100
AcDbEntity
  8
$DDT_AUDIT_GENERATED_(91)
  6
Continuous
 62
     7
100
AcDbLine
 10
106.3464785214
 20
219.9783992125
 30
0.0
 11
108.0799810448
 21
219.9783992125
 31
0.0
  0
LINE
  5
184
330
181
100
AcDbEntity
  8
$DDT_AUDIT_GENERATED_(91)
  6
Continuous
 62
     7
100
AcDbLine
 10
154.612975998
 20
219.9783992125
 30
0.0
 11
156.3464785214
 21
219.9783992125
 31
0.0
  0
LINE
  5
185
330
181
100
AcDbEntity
  8
$DDT_AUDIT_GENERATED_(91)
  6
Continuous
 62
     7
100
AcDbLine
 10
156.3464785214
 20
219.9783992125
 30
0.0
 11
151.549570783
 21
269.9783992125
 31
0.0
  0
LINE
  5
186
330
181
100
AcDbEntity
  8
$DDT_AUDIT_GENERATED_(91)
  6
Continuous
 62
     7
100
AcDbLine
 10
151.549570783
 20
269.9783992125
 30
0.0
 11
133.0714785214
 21
269.9783992125
 31
0.0
  0
LINE
  5
187
330
181
100
AcDbEntity
  8
$DDT_AUDIT_GENERATED_(91)
  6
Continuous
 62
     7
100
AcDbLine
 10
129.6214785214
 20
269.9783992125
 30
0.0
 11
111.1433862598
 21
269.9783992125
 31
0.0
  0
LINE
  5
188
330
181
100
AcDbEntity
  8
$DDT_AUDIT_GENERATED_(91)
  6
Continuous
 62
     7
100
AcDbLine
 10
111.1433862598
 20
269.9783992125
 30
0.0
 11
106.3464785214
 21
219.9783992125
 31
0.0
  0
LINE
  5
189
330
181
100
AcDbEntity
  8
$DDT_AUDIT_GENERATED_(91)
  6
Continuous
 62
     7
100
AcDbLine
 10
110.9356238033
 20
266.3731816951
 30
0.0
 11
111.1433862598
 21
269.9783992125
 31
0.0
  0
LINE
  5
18A
330
181
100
AcDbEntity
  8
$DDT_AUDIT_GENERATED_(91)
  6
Continuous
 62
     7
100
AcDbLine
 10
108.0471714305
 20
236.4138167621
 30
0.0
 11
110.9356238033
 21
266.3731816951
 31
0.0
  0
LINE
  5
18B
330
181
100
AcDbEntity
  8
$DDT_AUDIT_GENERATED_(91)
  6
Continuous
 62
     7
100
AcDbLine
 10
106.3464785214
 20
219.9783992125
 30
0.0
 11
108.0471714305
 21
236.4138167621
 31
0.0
  0
LINE
  5
18C
330
181
100
AcDbEntity
  8
$DDT_AUDIT_GENERATED_(91)
  6
Continuous
 62
     7
100
AcDbLine
 10
151.7573332395
 20
266.3731816951
 30
0.0
 11
110.9356238033
 21
266.3731816951
 31
0.0
  0
LINE
  5
18D
330
181
100
AcDbEntity
  8
$DDT_AUDIT_GENERATED_(91)
  6
Continuous
 62
     7
100
AcDbLine
 10
151.549570783
 20
269.9783992125
 30
0.0
 11
151.7573332395
 21
266.3731816951
 31
0.0
  0
LINE
  5
18E
330
181
100
AcDbEntity
  8
$DDT_AUDIT_GENERATED_(91)
  6
Continuous
 62
     7
100
AcDbLine
 10
154.6457856124
 20
236.4138167621
 30
0.0
 11
156.3464785214
 21
219.9783992125
 31
0.0
  0
LINE
  5
18F
330
181
100
AcDbEntity
  8
$DDT_AUDIT_GENERATED_(91)
  6
Continuous
 62
     7
100
AcDbLine
 10
151.7573332395
 20
266.3731816951
 30
0.0
 11
154.6457856124
 21
236.4138167621
 31
0.0
  0
LINE
  5
190
330
181
100
AcDbEntity
  8
$DDT_AUDIT_GENERATED_(91)
  6
Continuous
 62
     7
100
AcDbLine
 10
106.3464785214
 20
219.9783992125
 30
0.0
 11
108.0790850946
 21
220.4272102175
 31
0.0
  0
LINE
  5
191
330
181
100
AcDbEntity
  8
$DDT_AUDIT_GENERATED_(91)
  6
Continuous
 62
     7
100
AcDbLine
 10
108.3068145857
 20
106.35
 30
0.0
 11
108.0471714305
 21
236.4138167621
 31
0.0
  0
LINE
  5
192
330
181
100
AcDbEntity
  8
$DDT_AUDIT_GENERATED_(91)
  6
Continuous
 62
     7
100
AcDbLine
 10
109.6354961704
 20
107.3249543133
 30
0.0
 11
108.3068145857
 21
106.35
 31
0.0
  0
LINE
  5
193
330
181
100
AcDbEntity
  8
$DDT_AUDIT_GENERATED_(91)
  6
Continuous
 62
     7
100
AcDbLine
 10
110.9356238033
 20
266.3731816951
 30
0.0
 11
109.6354961704
 21
107.3249543133
 31
0.0
  0
LINE
  5
194
330
181
100
AcDbEntity
  8
$DDT_AUDIT_GENERATED_(91)
  6
Continuous
 62
     7
100
AcDbLine
 10
153.0574608724
 20
107.3249543133
 30
0.0
 11
151.7573332395
 21
266.3731816951
 31
0.0
  0
LINE
  5
195
330
181
100
AcDbEntity
  8
$DDT_AUDIT_GENERATED_(91)
  6
Continuous
 62
     7
100
AcDbLine
 10
109.6354961704
 20
107.3249543133
 30
0.0
 11
153.0574608724
 21
107.3249543133
 31
0.0
  0
LINE
  5
196
330
181
100
AcDbEntity
  8
$DDT_AUDIT_GENERATED_(91)
  6
Continuous
 62
     7
100
AcDbLine
 10
154.3861424571
 20
106.35
 30
0.0
 11
153.0574608724
 21
107.3249543133
 31
0.0
  0
LINE
  5
197
330
181
100
AcDbEntity
  8
$DDT_AUDIT_GENERATED_(91)
  6
Continuous
 62
     7
100
AcDbLine
 10
154.6457856124
 20
236.4138167621
 30
0.0
 11
154.3861424571
 21
106.35
 31
0.0
  0
LINE
  5
198
330
181
100
AcDbEntity
  8
$DDT_AUDIT_GENERATED_(91)
  6
Continuous
 62
     7
100
AcDbLine
 10
154.3861424571
 20
106.35
 30
0.0
 11
108.3068145857
 21
106.35
 31
0.0
  0
ELLIPSE
  5
199
330
181
100
AcDbEntity
  8
$DDT_AUDIT_GENERATED_(91)
  6
Continuous
 62
     7
100
AcDbEllipse
 10
131.3464785214
 20
268.9422640491
 30
0.0
 11
-2.650000000000027
 21
0.0
 31
0.0
210
0.0
220
0.0
230
1.0
 40
0.0882627337
 41
0.0
 42
4.003562465258203
  0
ELLIPSE
  5
19A
330
181
100
AcDbEntity
  8
$DDT_AUDIT_GENERATED_(91)
  6
Continuous
 62
     7
100
AcDbEllipse
 10
131.3464785214
 20
268.9422640491
 30
0.0
 11
-2.650000000000027
 21
0.0
 31
0.0
210
0.0
220
0.0
230
1.0
 40
0.0882627337
 41
5.421215495511176
 42
6.283185307179586
  0
LINE
  5
19B
330
181
100
AcDbEntity
  8
$DDT_AUDIT_GENERATED_(91)
  6
Continuous
 62
     7
100
AcDbLine
 10
115.6459617741
 20
117.6252804864
 30
0.0
 11
115.6459617741
 21
135.9874429788
 31
0.0
  0
ELLIPSE
  5
19C
330
181
100
AcDbEntity
  8
$DDT_AUDIT_GENERATED_(91)
  6
Continuous
 62
     7
100
AcDbEllipse
 10
116.6459617741
 20
117.6252804864
 30
0.0
 11
1.000000000000056
 21
2.775557561562891E-14
 31
0.0
210
0.0
220
0.0
230
1.0
 40
0.9925461516
 41
3.141592653589765
 42
4.712388980384662
  0
LINE
  5
19D
330
181
100
AcDbEntity
  8
$DDT_AUDIT_GENERATED_(91)
  6
Continuous
 62
     7
100
AcDbLine
 10
146.0469952687
 20
116.6327343348
 30
0.0
 11
116.6459617741
 21
116.6327343348
 31
0.0
  0
ELLIPSE
  5
19E
330
181
100
AcDbEntity
  8
$DDT_AUDIT_GENERATED_(91)
  6
Continuous
 62
     7
100
AcDbEllipse
 10
146.0469952687
 20
117.6252804864
 30
0.0
 11
0.999999999999994
 21
2.775557561562891E-14
 31
0.0
210
0.0
220
0.0
230
1.0
 40
0.9925461516
 41
4.712388980384662
 42
6.283185307179586
  0
LINE
  5
19F
330
181
100
AcDbEntity
  8
$DDT_AUDIT_GENERATED_(91)
  6
Continuous
 62
     7
100
AcDbLine
 10
147.0469952687
 20
135.9874429788
 30
0.0
 11
147.0469952687
 21
117.6252804864
 31
0.0
  0
LINE
  5
1A0
330
181
100
AcDbEntity
  8
$DDT_AUDIT_GENERATED_(91)
  6
Continuous
 62
     7
100
AcDbLine
 10
146.0469952687
 20
136.7362504437
 30
0.0
 11
116.6459617741
 21
136.7362504437
 31
0.0
  0
ELLIPSE
  5
1A1
330
181
100
AcDbEntity
  8
$DDT_AUDIT_GENERATED_(91)
  6
Continuous
 62
     7
100
AcDbEllipse
 10
146.0469952687
 20
135.8459648131
 30
0.0
 11
0.9999999999999991
 21
0.0
 31
0.0
210
0.0
220
0.0
230
1.0
 40
0.8902856305
 41
0.0
 42
1.570796326794897
  0
ELLIPSE
  5
1A2
330
181
100
AcDbEntity
  8
$DDT_AUDIT_GENERATED_(91)
  6
Continuous
 62
     7
100
AcDbEllipse
 10
146.0469952687
 20
135.9874429788
 30
0.0
 11
-1.000000000000037
 21
-9.159339953157541E-13
 31
0.0
210
0.0
220
0.0
230
1.0
 40
0.9925461516
 41
3.141592653589793
 42
4.71238898038378
  0
LINE
  5
1A3
330
181
100
AcDbEntity
  8
$DDT_AUDIT_GENERATED_(91)
  6
Continuous
 62
     7
100
AcDbLine
 10
116.6459617741
 20
136.9799891305
 30
0.0
 11
146.0469952687
 21
136.9799891305
 31
0.0
  0
ELLIPSE
  5
1A4
330
181
100
AcDbEntity
  8
$DDT_AUDIT_GENERATED_(91)
  6
Continuous
 62
     7
100
AcDbEllipse
 10
116.6459617741
 20
135.9874429788
 30
0.0
 11
-1.000000000000001
 21
-2.775557561562891E-14
 31
0.0
210
0.0
220
0.0
230
1.0
 40
0.9925461516
 41
4.712388980384662
 42
6.283185307179586
  0
ELLIPSE
  5
1A5
330
181
100
AcDbEntity
  8
$DDT_AUDIT_GENERATED_(91)
  6
Continuous
 62
     7
100
AcDbEllipse
 10
116.6459617741
 20
135.8459648131
 30
0.0
 11
1.000000000000001
 21
-6.938893903907228E-14
 31
0.0
210
0.0
220
0.0
230
1.0
 40
0.8902856305
 41
1.570796326794958
 42
3.141592653589793
  0
ELLIPSE
  5
1A6
330
181
100
AcDbEntity
  8
$DDT_AUDIT_GENERATED_(CE)
  6
Continuous
 62
     7
100
AcDbEllipse
 10
47.2722847234
 20
250.4634260051
 30
0.0
 11
-0.1342856618241351
 21
-0.9922240306339294
 31
0.0
210
0.0
220
0.0
230
1.0
 40
0.9987318335
 41
1.70559809060309
 42
3.27583287912037
  0
ELLIPSE
  5
1A7
330
181
100
AcDbEntity
  8
$DDT_AUDIT_GENERATED_(CE)
  6
Continuous
 62
     7
100
AcDbEllipse
 10
15.4206723195
 20
250.4634260051
 30
0.0
 11
0.1342856618210264
 21
-0.9922240306343457
 31
0.0
210
0.0
220
0.0
230
1.0
 40
0.9987318335
 41
3.007352428061977
 42
4.577587216579625
  0
LINE
  5
1A8
330
181
100
AcDbEntity
  8
$DDT_AUDIT_GENERATED_(CE)
  6
Continuous
 62
     7
100
AcDbLine
 10
48.2723075707
 20
239.4929222563
 30
0.0
 11
48.2723075707
 21
250.4638761687
 31
0.0
  0
LINE
  5
1A9
330
181
100
AcDbEntity
  8
$DDT_AUDIT_GENERATED_(CE)
  6
Continuous
 62
     7
100
AcDbLine
 10
14.4206494721
 20
250.4638761687
 30
0.0
 11
14.4206494721
 21
239.4929222563
 31
0.0
  0
ELLIPSE
  5
1AA
330
181
100
AcDbEntity
  8
$DDT_AUDIT_GENERATED_(CE)
  6
Continuous
 62
     7
100
AcDbEllipse
 10
47.2722847234
 20
239.4933724199
 30
0.0
 11
-0.1342856618253563
 21
0.9922240306337654
 31
0.0
210
0.0
220
0.0
230
0.9999999999999998
 40
0.9987318335
 41
3.007352428057746
 42
4.577587216575239
  0
ELLIPSE
  5
1AB
330
181
100
AcDbEntity
  8
$DDT_AUDIT_GENERATED_(CE)
  6
Continuous
 62
     7
100
AcDbEllipse
 10
15.4206723195
 20
239.4933724199
 30
0.0
 11
0.134285661819486
 21
0.9922240306345529
 31
0.0
210
0.0
220
0.0
230
1.0
 40
0.9987318335
 41
1.705598090598439
 42
3.27583287911606
  0
LINE
  5
1AC
330
181
100
AcDbEntity
  8
$DDT_AUDIT_GENERATED_(CE)
  6
Continuous
 62
     7
100
AcDbLine
 10
47.2727339711
 20
238.4917109738
 30
0.0
 11
47.2727339711
 21
238.4921254745
 31
0.0
  0
LINE
  5
1AD
330
181
100
AcDbEntity
  8
$DDT_AUDIT_GENERATED_(CE)
  6
Continuous
 62
     7
100
AcDbLine
 10
15.4202230718
 20
238.4921254745
 30
0.0
 11
15.4202230718
 21
238.4917109738
 31
0.0
  0
LINE
  5
1AE
330
181
100
AcDbEntity
  8
$DDT_AUDIT_GENERATED_(CE)
  6
Continuous
 62
     7
100
AcDbLine
 10
47.2727339711
 20
251.4650874512
 30
0.0
 11
47.2727339711
 21
251.4646729505
 31
0.0
  0
LINE
  5
1AF
330
181
100
AcDbEntity
  8
$DDT_AUDIT_GENERATED_(CE)
  6
Continuous
 62
     7
100
AcDbLine
 10
15.4202230718
 20
251.4646729505
 30
0.0
 11
15.4202230718
 21
251.4650874512
 31
0.0
  0
LINE
  5
1B0
330
181
100
AcDbEntity
  8
$DDT_AUDIT_GENERATED_(CE)
  6
Continuous
 62
     7
100
AcDbLine
 10
15.4202230718
 20
238.4917109738
 30
0.0
 11
47.2727339711
 21
238.4917109738
 31
0.0
  0
LINE
  5
1B1
330
181
100
AcDbEntity
  8
$DDT_AUDIT_GENERATED_(CE)
  6
Continuous
 62
     7
100
AcDbLine
 10
47.2727339711
 20
251.4650874512
 30
0.0
 11
15.4202230718
 21
251.4650874512
 31
0.0
  0
LINE
  5
1B2
330
181
100
AcDbEntity
  8
$DDT_AUDIT_GENERATED_(D9)
  6
Continuous
 62
     7
100
AcDbLine
 10
56.2474300313
 20
220.7773410892
 30
0.0
 11
56.2474300313
 21
269.1794573358
 31
0.0
  0
LINE
  5
1B3
330
181
100
AcDbEntity
  8
$DDT_AUDIT_GENERATED_(D9)
  6
Continuous
 62
     7
100
AcDbLine
 10
56.0110804123
 20
269.1794573358
 30
0.0
 11
56.0110804123
 21
220.7773410892
 31
0.0
  0
LINE
  5
1B4
330
181
100
AcDbEntity
  8
$DDT_AUDIT_GENERATED_(D9)
  6
Continuous
 62
     7
100
AcDbLine
 10
56.3429265818
 20
220.6818445387
 30
0.0
 11
56.3429265818
 21
269.2749538863
 31
0.0
  0
ARC
  5
1B5
330
181
100
AcDbEntity
  8
$DDT_AUDIT_GENERATED_(D9)
  6
Continuous
 62
     7
100
AcDbCircle
 10
55.6429722952
 20
269.2748929863
 30
0.0
 40
0.6999542893291782
100
AcDbArc
 50
0.0049850641
 51
89.9950149359
  0
ARC
  5
1B6
330
181
100
AcDbEntity
  8
$DDT_AUDIT_GENERATED_(D9)
  6
Continuous
 62
     7
100
AcDbCircle
 10
55.6429722952
 20
220.6819054387
 30
0.0
 40
0.6999542893291852
100
AcDbArc
 50
270.0049850641
 51
359.9950149359
  0
LINE
  5
1B7
330
181
100
AcDbEntity
  8
$DDT_AUDIT_GENERATED_(D9)
  6
Continuous
 62
     7
100
AcDbLine
 10
55.6430331952
 20
269.9748472729
 30
0.0
 11
7.0499238476
 21
269.9748472729
 31
0.0
  0
LINE
  5
1B8
330
181
100
AcDbEntity
  8
$DDT_AUDIT_GENERATED_(D9)
  6
Continuous
 62
     7
100
AcDbLine
 10
7.0499238476
 20
219.9819511521
 30
0.0
 11
55.6430331952
 21
219.9819511521
 31
0.0
  0
ARC
  5
1B9
330
181
100
AcDbEntity
  8
$DDT_AUDIT_GENERATED_(D9)
  6
Continuous
 62
     7
100
AcDbCircle
 10
7.0499847476
 20
269.2748929863
 30
0.0
 40
0.6999542893291678
100
AcDbArc
 50
90.0049850641
 51
179.9950149359
  0
ARC
  5
1BA
330
181
100
AcDbEntity
  8
$DDT_AUDIT_GENERATED_(D9)
  6
Continuous
 62
     7
100
AcDbCircle
 10
7.0499847476
 20
220.6819054387
 30
0.0
 40
0.6999542893291922
100
AcDbArc
 50
180.0049850641
 51
269.9950149359
  0
LINE
  5
1BB
330
181
100
AcDbEntity
  8
$DDT_AUDIT_GENERATED_(D9)
  6
Continuous
 62
     7
100
AcDbLine
 10
6.350030461
 20
269.2749538863
 30
0.0
 11
6.350030461
 21
220.6818445387
 31
0.0
  0
LINE
  5
1BD
330
181
100
AcDbEntity
  8
$DDT_AUDIT_GENERATED_(1BC)
  6
Continuous
 62
     7
100
AcDbLine
 10
59.2464785214
 20
237.6483992125
 30
0.0
 11
59.2464785214
 21
252.3083992125
 31
0.0
  0
LINE
  5
1BE
330
181
100
AcDbEntity
  8
$DDT_AUDIT_GENERATED_(1BC)
  6
Continuous
 62
     7
100
AcDbLine
 10
58.2464785214
 20
236.6483992125
 30
0.0
 11
58.2464785214
 21
253.3083992125
 31
0.0
  0
LINE
  5
1BF
330
181
100
AcDbEntity
  8
$DDT_AUDIT_GENERATED_(1BC)
  6
Continuous
 62
     7
100
AcDbLine
 10
58.2464785214
 20
253.3083992125
 30
0.0
 11
56.3429265818
 21
253.3083992125
 31
0.0
  0
LINE
  5
1C0
330
181
100
AcDbEntity
  8
$DDT_AUDIT_GENERATED_(1BC)
  6
Continuous
 62
     7
100
AcDbLine
 10
56.3429265818
 20
236.6483992125
 30
0.0
 11
58.2464785214
 21
236.6483992125
 31
0.0
  0
LINE
  5
1C1
330
181
100
AcDbEntity
  8
$DDT_AUDIT_GENERATED_(1BC)
  6
Continuous
 62
     7
100
AcDbLine
 10
58.2464785214
 20
236.6483992125
 30
0.0
 11
59.2464785214
 21
237.6483992125
 31
0.0
  0
LINE
  5
1C2
330
181
100
AcDbEntity
  8
$DDT_AUDIT_GENERATED_(1BC)
  6
Continuous
 62
     7
100
AcDbLine
 10
59.2464785214
 20
252.3083992125
 30
0.0
 11
58.2464785214
 21
253.3083992125
 31
0.0
  0
LINE
  5
1C3
330
181
100
AcDbEntity
  8
$DDT_AUDIT_GENERATED_(D9)
  6
Continuous
 62
     7
100
AcDbLine
 10
256.3429265818
 20
220.6818445387
 30
0.0
 11
256.3429265818
 21
269.2749538863
 31
0.0
  0
ARC
  5
1C4
330
181
100
AcDbEntity
  8
$DDT_AUDIT_GENERATED_(D9)
  6
Continuous
 62
     7
100
AcDbCircle
 10
255.6429722952
 20
269.2748929863
 30
0.0
 40
0.6999542893291782
100
AcDbArc
 50
0.0049850641
 51
89.9950149359
  0
ARC
  5
1C5
330
181
100
AcDbEntity
  8
$DDT_AUDIT_GENERATED_(D9)
  6
Continuous
 62
     7
100
AcDbCircle
 10
255.6429722952
 20
220.6819054387
 30
0.0
 40
0.6999542893291887
100
AcDbArc
 50
270.0049850641
 51
359.9950149359
  0
LINE
  5
1C6
330
181
100
AcDbEntity
  8
$DDT_AUDIT_GENERATED_(D9)
  6
Continuous
 62
     7
100
AcDbLine
 10
255.6430331952
 20
269.9748472729
 30
0.0
 11
207.0499238476
 21
269.9748472729
 31
0.0
  0
LINE
  5
1C7
330
181
100
AcDbEntity
  8
$DDT_AUDIT_GENERATED_(D9)
  6
Continuous
 62
     7
100
AcDbLine
 10
207.0499238476
 20
219.9819511521
 30
0.0
 11
255.6430331952
 21
219.9819511521
 31
0.0
  0
ARC
  5
1C8
330
181
100
AcDbEntity
  8
$DDT_AUDIT_GENERATED_(D9)
  6
Continuous
 62
     7
100
AcDbCircle
 10
207.0499847476
 20
269.2748929863
 30
0.0
 40
0.6999542893291817
100
AcDbArc
 50
90.0049850641
 51
179.9950149359
  0
ARC
  5
1C9
330
181
100
AcDbEntity
  8
$DDT_AUDIT_GENERATED_(D9)
  6
Continuous
 62
     7
100
AcDbCircle
 10
207.0499847476
 20
220.6819054387
 30
0.0
 40
0.6999542893291922
100
AcDbArc
 50
180.0049850641
 51
269.9950149359
  0
LINE
  5
1CA
330
181
100
AcDbEntity
  8
$DDT_AUDIT_GENERATED_(D9)
  6
Continuous
 62
     7
100
AcDbLine
 10
206.350030461
 20
269.2749538863
 30
0.0
 11
206.350030461
 21
220.6818445387
 31
0.0
  0
ELLIPSE
  5
1CB
330
181
100
AcDbEntity
  8
$DDT_AUDIT_GENERATED_(CE)
  6
Continuous
 62
     7
100
AcDbEllipse
 10
247.2722847234
 20
250.4634260051
 30
0.0
 11
-0.1342856618205824
 21
-0.9922240306344047
 31
0.0
210
0.0
220
0.0
230
0.9999999999999999
 40
0.9987318335
 41
1.705598090599517
 42
3.275832879117537
  0
ELLIPSE
  5
1CC
330
181
100
AcDbEntity
  8
$DDT_AUDIT_GENERATED_(CE)
  6
Continuous
 62
     7
100
AcDbEllipse
 10
215.4206723195
 20
250.4634260051
 30
0.0
 11
0.1342856618329474
 21
-0.9922240306326569
 31
0.0
210
0.0
220
0.0
230
1.0
 40
0.9987318335
 41
3.00735242805025
 42
4.577587216567596
  0
LINE
  5
1CD
330
181
100
AcDbEntity
  8
$DDT_AUDIT_GENERATED_(CE)
  6
Continuous
 62
     7
100
AcDbLine
 10
248.2723075707
 20
239.4929222563
 30
0.0
 11
248.2723075707
 21
250.4638761687
 31
0.0
  0
LINE
  5
1CE
330
181
100
AcDbEntity
  8
$DDT_AUDIT_GENERATED_(CE)
  6
Continuous
 62
     7
100
AcDbLine
 10
214.4206494721
 20
250.4638761687
 30
0.0
 11
214.4206494721
 21
239.4929222563
 31
0.0
  0
ELLIPSE
  5
1CF
330
181
100
AcDbEntity
  8
$DDT_AUDIT_GENERATED_(CE)
  6
Continuous
 62
     7
100
AcDbEllipse
 10
247.2722847234
 20
239.4933724199
 30
0.0
 11
-0.1342856618288396
 21
0.9922240306331617
 31
0.0
210
0.0
220
0.0
230
1.0
 40
0.9987318335
 41
3.007352428054263
 42
4.577587216571656
  0
ELLIPSE
  5
1D0
330
181
100
AcDbEntity
  8
$DDT_AUDIT_GENERATED_(CE)
  6
Continuous
 62
     7
100
AcDbEllipse
 10
215.4206723195
 20
239.4933724199
 30
0.0
 11
0.1342856618370136
 21
0.9922240306320662
 31
0.0
210
0.0
220
0.0
230
1.0
 40
0.9987318335
 41
1.705598090616158
 42
3.275832879133685
  0
LINE
  5
1D1
330
181
100
AcDbEntity
  8
$DDT_AUDIT_GENERATED_(CE)
  6
Continuous
 62
     7
100
AcDbLine
 10
247.2727339711
 20
238.4917109738
 30
0.0
 11
247.2727339711
 21
238.4921254745
 31
0.0
  0
LINE
  5
1D2
330
181
100
AcDbEntity
  8
$DDT_AUDIT_GENERATED_(CE)
  6
Continuous
 62
     7
100
AcDbLine
 10
215.4202230718
 20
238.4921254745
 30
0.0
 11
215.4202230718
 21
238.4917109738
 31
0.0
  0
LINE
  5
1D3
330
181
100
AcDbEntity
  8
$DDT_AUDIT_GENERATED_(CE)
  6
Continuous
 62
     7
100
AcDbLine
 10
247.2727339711
 20
251.4650874512
 30
0.0
 11
247.2727339711
 21
251.4646729505
 31
0.0
  0
LINE
  5
1D4
330
181
100
AcDbEntity
  8
$DDT_AUDIT_GENERATED_(CE)
  6
Continuous
 62
     7
100
AcDbLine
 10
215.4202230718
 20
251.4646729505
 30
0.0
 11
215.4202230718
 21
251.4650874512
 31
0.0
  0
LINE
  5
1D5
330
181
100
AcDbEntity
  8
$DDT_AUDIT_GENERATED_(CE)
  6
Continuous
 62
     7
100
AcDbLine
 10
215.4202230718
 20
238.4917109738
 30
0.0
 11
247.2727339711
 21
238.4917109738
 31
0.0
  0
LINE
  5
1D6
330
181
100
AcDbEntity
  8
$DDT_AUDIT_GENERATED_(CE)
  6
Continuous
 62
     7
100
AcDbLine
 10
247.2727339711
 20
251.4650874512
 30
0.0
 11
215.4202230718
 21
251.4650874512
 31
0.0
  0
LINE
  5
1D7
330
181
100
AcDbEntity
  8
$DDT_AUDIT_GENERATED_(165)
  6
Continuous
 62
     7
100
AcDbLine
 10
133.0714785214
 20
268.7647072654
 30
0.0
 11
133.0714785214
 21
272.7602935747
 31
0.0
  0
LINE
  5
1D8
330
181
100
AcDbEntity
  8
$DDT_AUDIT_GENERATED_(165)
  6
Continuous
 62
     7
100
AcDbLine
 10
129.6214785214
 20
272.7602935747
 30
0.0
 11
129.6214785214
 21
268.7647072654
 31
0.0
  0
LINE
  5
1D9
330
181
100
AcDbEntity
  8
$DDT_AUDIT_GENERATED_(168)
  6
Continuous
 62
     7
100
AcDbLine
 10
140.8464785214
 20
272.7602935747
 30
0.0
 11
121.8464785214
 21
272.7602935747
 31
0.0
  0
LINE
  5
1DA
330
181
100
AcDbEntity
  8
$DDT_AUDIT_GENERATED_(168)
  6
Continuous
 62
     7
100
AcDbLine
 10
121.8464785214
 20
287.7600761168
 30
0.0
 11
140.8464785214
 21
287.7600761168
 31
0.0
  0
LINE
  5
1DB
330
181
100
AcDbEntity
  8
$DDT_AUDIT_GENERATED_(168)
  6
Continuous
 62
     7
100
AcDbLine
 10
121.3464785214
 20
273.2602935747
 30
0.0
 11
121.3464785214
 21
287.2600761168
 31
0.0
  0
LINE
  5
1DC
330
181
100
AcDbEntity
  8
$DDT_AUDIT_GENERATED_(168)
  6
Continuous
 62
     7
100
AcDbLine
 10
141.3464785214
 20
287.2600761168
 30
0.0
 11
141.3464785214
 21
273.2602935747
 31
0.0
  0
ARC
  5
1DD
330
181
100
AcDbEntity
  8
$DDT_AUDIT_GENERATED_(168)
  6
Continuous
 62
     7
100
AcDbCircle
 10
121.8464785214
 20
287.2600761168
 30
0.0
 40
0.5000000000000004
100
AcDbArc
 50
90.0
 51
180.0
  0
ARC
  5
1DE
330
181
100
AcDbEntity
  8
$DDT_AUDIT_GENERATED_(168)
  6
Continuous
 62
     7
100
AcDbCircle
 10
140.8464785214
 20
287.2600761168
 30
0.0
 40
0.5000000000000004
100
AcDbArc
 50
0.0
 51
90.0
  0
ARC
  5
1DF
330
181
100
AcDbEntity
  8
$DDT_AUDIT_GENERATED_(168)
  6
Continuous
 62
     7
100
AcDbCircle
 10
121.8464785214
 20
273.2602935747
 30
0.0
 40
0.5000000000000004
100
AcDbArc
 50
180.0
 51
270.0
  0
ARC
  5
1E0
330
181
100
AcDbEntity
  8
$DDT_AUDIT_GENERATED_(168)
  6
Continuous
 62
     7
100
AcDbCircle
 10
140.8464785214
 20
273.2602935747
 30
0.0
 40
0.5000000000000004
100
AcDbArc
 50
270.0
 51
0.0
  0
ENDBLK
  5
1E2
330
181
100
AcDbEntity
  8
0
100
AcDbBlockEnd
  0
ENDSEC
  0
SECTION
  2
ENTITIES
  0
ARC
  5
5E
330
1F
100
AcDbEntity
  8
Default
  6
Continuous
 62
     7
100
AcDbCircle
 10
122.4464785214
 20
749.712541952
 30
0.0
 40
9.497617100546751
100
AcDbArc
 50
90.0
 51
96.6073391288
  0
ARC
  5
5F
330
1F
100
AcDbEntity
  8
Default
  6
Continuous
 62
     7
100
AcDbCircle
 10
140.2464785214
 20
753.8312667247
 30
0.0
 40
5.378892327842809
100
AcDbArc
 50
73.6000157122
 51
90.0
  0
INSERT
  5
61
330
1F
100
AcDbEntity
  8
Default
100
AcDbBlockReference
  2
SEANNOT_GROUP
 10
0.0
 20
0.0
 30
0.0
  0
INSERT
  5
68
330
1F
100
AcDbEntity
  8
Default
100
AcDbBlockReference
  2
SEANNOT_GROUP1
 10
0.0
 20
0.0
 30
0.0
  0
INSERT
  5
6E
330
1F
100
AcDbEntity
  8
Default
100
AcDbBlockReference
  2
SEANNOT_GROUP2
 10
0.0
 20
0.0
 30
0.0
  0
INSERT
  5
74
330
1F
100
AcDbEntity
  8
Default
100
AcDbBlockReference
  2
SEANNOT_GROUP3
 10
0.0
 20
0.0
 30
0.0
  0
LINE
  5
79
330
1F
100
AcDbEntity
  8
Default
  6
Continuous
 62
     7
100
AcDbLine
 10
231.3464785214
 20
244.9783992125
 30
0.0
 11
231.4167532426
 21
244.9783992125
 31
0.0
  0
INSERT
  5
7B
330
1F
100
AcDbEntity
  8
Default
100
AcDbBlockReference
  2
SEANNOT_GROUP4
 10
0.0
 20
0.0
 30
0.0
  0
LINE
  5
80
330
1F
100
AcDbEntity
  8
Default
  6
Continuous
 62
     7
100
AcDbLine
 10
31.3464785214
 20
244.9783992125
 30
0.0
 11
31.2762038002
 21
244.9783992125
 31
0.0
  0
INSERT
  5
82
330
1F
100
AcDbEntity
  8
Default
100
AcDbBlockReference
  2
SEANNOT_GROUP5
 10
0.0
 20
0.0
 30
0.0
  0
LINE
  5
87
330
1F
100
AcDbEntity
  8
Default
  6
Continuous
 62
     7
100
AcDbLine
 10
131.3464785214
 20
269.9783992125
 30
0.0
 11
131.3464785214
 21
266.3731816951
 31
0.0
  0
LINE
  5
88
330
1F
100
AcDbEntity
  8
Default
  6
Continuous
 62
     7
100
AcDbLine
 10
131.3464785214
 20
247.2975958304
 30
0.0
 11
131.3464785214
 21
244.9783992125
 31
0.0
  0
INSERT
  5
8A
330
1F
100
AcDbEntity
  8
Default
100
AcDbBlockReference
  2
SEANNOT_GROUP6
 10
0.0
 20
0.0
 30
0.0
  0
INSERT
  5
90
330
1F
100
AcDbEntity
  8
Default
100
AcDbBlockReference
  2
SE
 10
0.0
 20
0.0
 30
0.0
  0
INSERT
  5
136
330
1F
100
AcDbEntity
  8
Default
100
AcDbBlockReference
  2
SE1
 10
0.0
 20
0.0
 30
0.0
  0
INSERT
  5
182
330
1F
100
AcDbEntity
  8
Default
100
AcDbBlockReference
  2
SE2
 10
0.0
 20
0.0
 30
0.0
  0
TEXT
  5
1E4
330
1F
100
AcDbEntity
  8
Default
  6
Continuous
 62
     7
100
AcDbText
 10
5.9362635081
 20
53.4225120485
 30
0.0
 40
10.0
  1
Grohe AG^J
  7
SEACAD_seiso_ttf
 11
5.9362635081
 21
63.4225120485
 31
0.0
100
AcDbText
 73
     3
  0
TEXT
  5
1E5
330
1F
100
AcDbEntity
  8
Default
  6
Continuous
 62
     7
100
AcDbText
 10
5.9362635081
 20
37.0588756849
 30
0.0
 40
10.0
  1
 
  7
SEACAD_seiso_ttf
 11
5.9362635081
 21
47.0588756849
 31
0.0
100
AcDbText
 73
     3
  0
TEXT
  5
1E6
330
1F
100
AcDbEntity
  8
Default
  6
Continuous
 62
     7
100
AcDbText
 10
5.9362635081
 20
20.6952393213
 30
0.0
 40
10.0
  1
ecn:
  7
SEACAD_seiso_ttf
 11
5.9362635081
 21
30.6952393213
 31
0.0
100
AcDbText
 73
     3
  0
TEXT
  5
1E7
330
1F
100
AcDbEntity
  8
Default
  6
Continuous
 62
     7
100
AcDbText
 10
5.9362635081
 20
4.3316029576
 30
0.0
 40
10.0
  1
unit: mm
  7
SEACAD_seiso_ttf
 11
5.9362635081
 21
14.3316029576
 31
0.0
100
AcDbText
 73
     3
  0
LINE
  5
1E8
330
1F
100
AcDbEntity
  8
Default
  6
Continuous
 62
     7
100
AcDbLine
 10
0.0
 20
0.0
 30
0.0
 11
100.0
 21
0.0
 31
0.0
  0
LINE
  5
1E9
330
1F
100
AcDbEntity
  8
Default
  6
Continuous
 62
     7
100
AcDbLine
 10
0.0
 20
0.0
 30
0.0
 11
0.0
 21
100.0
 31
0.0
  0
TEXT
  5
1EA
330
1F
100
AcDbEntity
  8
Default
  6
Continuous
 62
     7
100
AcDbText
 10
24.3923665681
 20
-18.2375342018
 30
0.0
 40
10.0
  1
100 mm
  7
SEACAD_seiso_ttf
 11
24.3923665681
 21
-8.2375342018
 31
0.0
100
AcDbText
 73
     3
  0
TEXT
  5
1EB
330
1F
100
AcDbEntity
  8
Default
  6
Continuous
 62
     7
100
AcDbText
 10
-7.6150308803
 20
24.6231930421
 30
0.0
 40
10.0
  1
100 mm
 50
90.0
  7
SEACAD_seiso_ttf
 11
-17.6150308803
 21
24.6231930421
 31
0.0
100
AcDbText
 73
     3
  0
TEXT
  5
1EC
330
1F
100
AcDbEntity
  8
Default
  6
Continuous
 62
     7
100
AcDbText
 10
28.4878128572
 20
20.0907663715
 30
0.0
 40
10.0
  1
220463
  7
SEACAD_seiso_ttf
 11
28.4878128572
 21
30.0907663715
 31
0.0
100
AcDbText
 73
     3
  0
TEXT
  5
1ED
330
1F
100
AcDbEntity
  8
Default
  6
Continuous
 62
     7
100
AcDbText
 10
5.9012241913
 20
36.7242780188
 30
0.0
 40
10.0
  1
20342000
  7
SEACAD_seiso_ttf
 11
5.9012241913
 21
46.7242780188
 31
0.0
100
AcDbText
 73
     3
  0
ENDSEC
  0
SECTION
  2
OBJECTS
  0
DICTIONARY
  5
C
330
0
100
AcDbDictionary
281
     1
  3
ACAD_GROUP
350
D
  3
ACAD_LAYOUT
350
1A
  3
ACAD_MLEADERSTYLE
350
1F1
  3
ACAD_MLINESTYLE
350
17
  3
ACAD_PLOTSETTINGS
350
19
  3
ACAD_PLOTSTYLENAME
350
E
  3
ACAD_SCALELIST
350
3B
  3
ACAD_TABLESTYLE
350
1F0
  3
ACAD_VISUALSTYLE
350
2A
  3
AcDbVariableDictionary
350
1EE
  0
DICTIONARY
  5
D
102
{ACAD_REACTORS
330
C
102
}
330
C
100
AcDbDictionary
281
     1
  0
DICTIONARY
  5
1A
102
{ACAD_REACTORS
330
C
102
}
330
C
100
AcDbDictionary
281
     1
  3
Layout1
350
1E
  3
Model
350
22
  0
DICTIONARY
  5
1F1
102
{ACAD_REACTORS
330
C
102
}
330
C
100
AcDbDictionary
281
     1
  0
DICTIONARY
  5
17
102
{ACAD_REACTORS
330
C
102
}
330
C
100
AcDbDictionary
281
     1
  3
Standard
350
18
  0
DICTIONARY
  5
19
102
{ACAD_REACTORS
330
C
102
}
330
C
100
AcDbDictionary
281
     1
  0
ACDBDICTIONARYWDFLT
  5
E
102
{ACAD_REACTORS
330
C
102
}
330
C
100
AcDbDictionary
281
     1
  3
Normal
350
F
100
AcDbDictionaryWithDefault
340
F
  0
DICTIONARY
  5
3B
102
{ACAD_REACTORS
330
C
102
}
330
C
100
AcDbDictionary
281
     1
  3
A0
350
3C
  3
A1
350
3D
  3
A2
350
3E
  3
A3
350
3F
  3
A4
350
40
  3
A5
350
41
  3
A6
350
42
  3
A7
350
43
  3
A8
350
44
  3
A9
350
45
  3
B0
350
46
  3
B1
350
47
  3
B2
350
48
  3
B3
350
49
  3
B4
350
4A
  3
B5
350
4B
  3
B6
350
4C
  3
B7
350
4D
  3
B8
350
4E
  3
B9
350
4F
  3
C0
350
50
  3
C1
350
51
  3
C2
350
52
  3
C3
350
53
  3
C4
350
54
  3
C5
350
55
  3
C6
350
56
  3
C7
350
57
  3
C8
350
58
  3
C9
350
59
  3
D0
350
5A
  3
D1
350
5B
  3
D2
350
5C
  0
DICTIONARY
  5
1F0
102
{ACAD_REACTORS
330
C
102
}
330
C
100
AcDbDictionary
281
     1
  0
DICTIONARY
  5
2A
102
{ACAD_REACTORS
330
C
102
}
330
C
100
AcDbDictionary
281
     1
  3
2dWireframe
350
2F
  3
3D Hidden
350
31
  3
3dWireframe
350
30
  3
Basic
350
32
  3
Brighten
350
36
  3
ColorChange
350
3A
  3
Conceptual
350
34
  3
Dim
350
35
  3
Facepattern
350
39
  3
Flat
350
2B
  3
FlatWithEdges
350
2C
  3
Gouraud
350
2D
  3
GouraudWithEdges
350
2E
  3
Linepattern
350
38
  3
Realistic
350
33
  3
Thicken
350
37
  0
DICTIONARY
  5
1EE
102
{ACAD_REACTORS
330
C
102
}
330
C
100
AcDbDictionary
281
     1
  3
CANNOSCALE
350
1EF
  3
PSOLHEIGHT
350
1F3
  3
PSOLWIDTH
350
1F2
  0
LAYOUT
  5
1E
102
{ACAD_REACTORS
330
1A
102
}
330
1A
100
AcDbPlotSettings
  1

  2
none_device
  4

  6

 40
0.0
 41
0.0
 42
0.0
 43
0.0
 44
0.0
 45
0.0
 46
0.0
 47
0.0
 48
0.0
 49
0.0
140
0.0
141
0.0
142
1.0
143
1.0
 70
   688
 72
     0
 73
     0
 74
     5
  7

 75
    16
147
1.0
148
0.0
149
0.0
100
AcDbLayout
  1
Layout1
 70
     1
 71
     1
 10
0.0
 20
0.0
 11
3000.0
 21
4500.0
 12
0.0
 22
0.0
 32
0.0
 14
0.0
 24
0.0
 34
0.0
 15
3000.0
 25
4500.0
 35
0.0
146
0.0
 13
0.0
 23
0.0
 33
0.0
 16
1.0
 26
0.0
 36
0.0
 17
0.0
 27
1.0
 37
0.0
 76
     0
330
1B
  0
LAYOUT
  5
22
102
{ACAD_REACTORS
330
1A
102
}
330
1A
100
AcDbPlotSettings
  1

  2
none_device
  4

  6

 40
0.0
 41
0.0
 42
0.0
 43
0.0
 44
0.0
 45
0.0
 46
0.0
 47
0.0
 48
0.0
 49
0.0
140
0.0
141
0.0
142
1.0
143
1.0
 70
  1712
 72
     0
 73
     0
 74
     0
  7

 75
     0
147
1.0
148
0.0
149
0.0
100
AcDbLayout
  1
Model
 70
     1
 71
     0
 10
0.0
 20
0.0
 11
3000.0
 21
4500.0
 12
0.0
 22
0.0
 32
0.0
 14
0.0
 24
0.0
 34
0.0
 15
3000.0
 25
4500.0
 35
0.0
146
0.0
 13
0.0
 23
0.0
 33
0.0
 16
1.0
 26
0.0
 36
0.0
 17
0.0
 27
1.0
 37
0.0
 76
     0
330
1F
331
29
  0
MLINESTYLE
  5
18
102
{ACAD_REACTORS
330
17
102
}
330
17
100
AcDbMlineStyle
  2
Standard
 70
     0
  3

 62
   256
 51
90.0
 52
90.0
 71
     2
 49
0.5
 62
   256
  6
BYLAYER
 49
-0.5
 62
   256
  6
BYLAYER
  0
ACDBPLACEHOLDER
  5
F
102
{ACAD_REACTORS
330
E
102
}
330
E
  0
SCALE
  5
3C
102
{ACAD_REACTORS
330
3B
102
}
330
3B
100
AcDbScale
 70
     0
300
1:1
140
1.0
141
1.0
290
     1
  0
SCALE
  5
3D
102
{ACAD_REACTORS
330
3B
102
}
330
3B
100
AcDbScale
 70
     0
300
1:2
140
1.0
141
2.0
290
     0
  0
SCALE
  5
3E
102
{ACAD_REACTORS
330
3B
102
}
330
3B
100
AcDbScale
 70
     0
300
1:4
140
1.0
141
4.0
290
     0
  0
SCALE
  5
3F
102
{ACAD_REACTORS
330
3B
102
}
330
3B
100
AcDbScale
 70
     0
300
1:5
140
1.0
141
5.0
290
     0
  0
SCALE
  5
40
102
{ACAD_REACTORS
330
3B
102
}
330
3B
100
AcDbScale
 70
     0
300
1:8
140
1.0
141
8.0
290
     0
  0
SCALE
  5
41
102
{ACAD_REACTORS
330
3B
102
}
330
3B
100
AcDbScale
 70
     0
300
1:10
140
1.0
141
10.0
290
     0
  0
SCALE
  5
42
102
{ACAD_REACTORS
330
3B
102
}
330
3B
100
AcDbScale
 70
     0
300
1:16
140
1.0
141
16.0
290
     0
  0
SCALE
  5
43
102
{ACAD_REACTORS
330
3B
102
}
330
3B
100
AcDbScale
 70
     0
300
1:20
140
1.0
141
20.0
290
     0
  0
SCALE
  5
44
102
{ACAD_REACTORS
330
3B
102
}
330
3B
100
AcDbScale
 70
     0
300
1:30
140
1.0
141
30.0
290
     0
  0
SCALE
  5
45
102
{ACAD_REACTORS
330
3B
102
}
330
3B
100
AcDbScale
 70
     0
300
1:40
140
1.0
141
40.0
290
     0
  0
SCALE
  5
46
102
{ACAD_REACTORS
330
3B
102
}
330
3B
100
AcDbScale
 70
     0
300
1:50
140
1.0
141
50.0
290
     0
  0
SCALE
  5
47
102
{ACAD_REACTORS
330
3B
102
}
330
3B
100
AcDbScale
 70
     0
300
1:100
140
1.0
141
100.0
290
     0
  0
SCALE
  5
48
102
{ACAD_REACTORS
330
3B
102
}
330
3B
100
AcDbScale
 70
     0
300
2:1
140
2.0
141
1.0
290
     0
  0
SCALE
  5
49
102
{ACAD_REACTORS
330
3B
102
}
330
3B
100
AcDbScale
 70
     0
300
4:1
140
4.0
141
1.0
290
     0
  0
SCALE
  5
4A
102
{ACAD_REACTORS
330
3B
102
}
330
3B
100
AcDbScale
 70
     0
300
8:1
140
8.0
141
1.0
290
     0
  0
SCALE
  5
4B
102
{ACAD_REACTORS
330
3B
102
}
330
3B
100
AcDbScale
 70
     0
300
10:1
140
10.0
141
1.0
290
     0
  0
SCALE
  5
4C
102
{ACAD_REACTORS
330
3B
102
}
330
3B
100
AcDbScale
 70
     0
300
100:1
140
100.0
141
1.0
290
     0
  0
SCALE
  5
4D
102
{ACAD_REACTORS
330
3B
102
}
330
3B
100
AcDbScale
 70
     0
300
1/128" = 1'-0"
140
0.0078125
141
12.0
290
     0
  0
SCALE
  5
4E
102
{ACAD_REACTORS
330
3B
102
}
330
3B
100
AcDbScale
 70
     0
300
1/64" = 1'-0"
140
0.015625
141
12.0
290
     0
  0
SCALE
  5
4F
102
{ACAD_REACTORS
330
3B
102
}
330
3B
100
AcDbScale
 70
     0
300
1/32" = 1'-0"
140
0.03125
141
12.0
290
     0
  0
SCALE
  5
50
102
{ACAD_REACTORS
330
3B
102
}
330
3B
100
AcDbScale
 70
     0
300
1/16" = 1'-0"
140
0.0625
141
12.0
290
     0
  0
SCALE
  5
51
102
{ACAD_REACTORS
330
3B
102
}
330
3B
100
AcDbScale
 70
     0
300
3/32" = 1'-0"
140
0.09375
141
12.0
290
     0
  0
SCALE
  5
52
102
{ACAD_REACTORS
330
3B
102
}
330
3B
100
AcDbScale
 70
     0
300
1/8" = 1'-0"
140
0.125
141
12.0
290
     0
  0
SCALE
  5
53
102
{ACAD_REACTORS
330
3B
102
}
330
3B
100
AcDbScale
 70
     0
300
3/16" = 1'-0"
140
0.1875
141
12.0
290
     0
  0
SCALE
  5
54
102
{ACAD_REACTORS
330
3B
102
}
330
3B
100
AcDbScale
 70
     0
300
1/4" = 1'-0"
140
0.25
141
12.0
290
     0
  0
SCALE
  5
55
102
{ACAD_REACTORS
330
3B
102
}
330
3B
100
AcDbScale
 70
     0
300
3/8" = 1'-0"
140
0.375
141
12.0
290
     0
  0
SCALE
  5
56
102
{ACAD_REACTORS
330
3B
102
}
330
3B
100
AcDbScale
 70
     0
300
1/2" = 1'-0"
140
0.5
141
12.0
290
     0
  0
SCALE
  5
57
102
{ACAD_REACTORS
330
3B
102
}
330
3B
100
AcDbScale
 70
     0
300
3/4" = 1'-0"
140
0.75
141
12.0
290
     0
  0
SCALE
  5
58
102
{ACAD_REACTORS
330
3B
102
}
330
3B
100
AcDbScale
 70
     0
300
1" = 1'-0"
140
1.0
141
12.0
290
     0
  0
SCALE
  5
59
102
{ACAD_REACTORS
330
3B
102
}
330
3B
100
AcDbScale
 70
     0
300
1-1/2" = 1'-0"
140
1.5
141
12.0
290
     0
  0
SCALE
  5
5A
102
{ACAD_REACTORS
330
3B
102
}
330
3B
100
AcDbScale
 70
     0
300
3" = 1'-0"
140
3.0
141
12.0
290
     0
  0
SCALE
  5
5B
102
{ACAD_REACTORS
330
3B
102
}
330
3B
100
AcDbScale
 70
     0
300
6" = 1'-0"
140
6.0
141
12.0
290
     0
  0
SCALE
  5
5C
102
{ACAD_REACTORS
330
3B
102
}
330
3B
100
AcDbScale
 70
     0
300
1'-0" = 1'-0"
140
12.0
141
12.0
290
     0
  0
VISUALSTYLE
  5
2F
102
{ACAD_REACTORS
330
2A
102
}
330
2A
100
AcDbVisualStyle
  2
2dWireframe
 70
     4
 71
     0
 72
     2
 73
     0
 90
        0
 40
-0.6
 41
-30.0
 62
     5
 63
     7
 74
     1
 91
        4
 64
     7
 65
   257
 75
     1
175
     1
 42
1.0
 92
        0
 66
   257
 43
1.0
 76
     1
 77
     6
 78
     2
 67
     7
 79
     5
170
     0
171
     0
290
     0
174
     0
 93
        1
 44
0.0
173
     0
291
     0
 45
0.0
1001
ACAD
1000
AcDbSavedByObjectVersion
1070
     0
  0
VISUALSTYLE
  5
31
102
{ACAD_REACTORS
330
2A
102
}
330
2A
100
AcDbVisualStyle
  2
3D Hidden
 70
     6
 71
     1
 72
     2
 73
     2
 90
        0
 40
-0.6
 41
-30.0
 62
     5
 63
     7
 74
     2
 91
        2
 64
     7
 65
   257
 75
     2
175
     1
 42
40.0
 92
        0
 66
   257
 43
1.0
 76
     1
 77
     6
 78
     2
 67
     7
 79
     3
170
     0
171
     0
290
     0
174
     0
 93
        1
 44
0.0
173
     0
291
     0
 45
0.0
1001
ACAD
1000
AcDbSavedByObjectVersion
1070
     0
  0
VISUALSTYLE
  5
30
102
{ACAD_REACTORS
330
2A
102
}
330
2A
100
AcDbVisualStyle
  2
3dWireframe
 70
     5
 71
     0
 72
     2
 73
     0
 90
        0
 40
-0.6
 41
-30.0
 62
     5
 63
     7
 74
     1
 91
        4
 64
     7
 65
   257
 75
     1
175
     1
 42
1.0
 92
        0
 66
   257
 43
1.0
 76
     1
 77
     6
 78
     2
 67
     7
 79
     5
170
     0
171
     0
290
     0
174
     0
 93
        1
 44
0.0
173
     0
291
     0
 45
0.0
1001
ACAD
1000
AcDbSavedByObjectVersion
1070
     0
  0
VISUALSTYLE
  5
32
102
{ACAD_REACTORS
330
2A
102
}
330
2A
100
AcDbVisualStyle
  2
Basic
 70
     7
 71
     1
 72
     0
 73
     1
 90
        0
 40
-0.6
 41
-30.0
 62
     5
 63
     7
 74
     0
 91
        4
 64
     7
 65
   257
 75
     1
175
     1
 42
1.0
 92
        8
 66
     7
 43
1.0
 76
     1
 77
     6
 78
     2
 67
     7
 79
     5
170
     0
171
     0
290
     0
174
     0
 93
        1
 44
0.0
173
     0
291
     1
 45
0.0
1001
ACAD
1000
AcDbSavedByObjectVersion
1070
     0
  0
VISUALSTYLE
  5
36
102
{ACAD_REACTORS
330
2A
102
}
330
2A
100
AcDbVisualStyle
  2
Brighten
 70
    12
 71
     2
 72
     2
 73
     0
 90
        0
 40
-0.6
 41
-30.0
 62
     5
 63
     7
 74
     1
 91
        4
 64
     7
 65
   257
 75
     1
175
     1
 42
1.0
 92
        8
 66
     7
 43
1.0
 76
     1
 77
     6
 78
     2
 67
     7
 79
     5
170
     0
171
     0
290
     0
174
     0
 93
        1
 44
50.0
173
     0
291
     1
 45
0.0
1001
ACAD
1000
AcDbSavedByObjectVersion
1070
     0
  0
VISUALSTYLE
  5
3A
102
{ACAD_REACTORS
330
2A
102
}
330
2A
100
AcDbVisualStyle
  2
ColorChange
 70
    16
 71
     2
 72
     2
 73
     3
 90
        0
 40
-0.6
 41
-30.0
 62
     5
 63
     8
 74
     1
 91
        4
 64
     7
 65
   257
 75
     1
175
     1
 42
1.0
 92
        8
 66
     8
 43
1.0
 76
     1
 77
     6
 78
     2
 67
     7
 79
     5
170
     0
171
     0
290
     0
174
     0
 93
        1
 44
0.0
173
     0
291
     1
 45
0.0
1001
ACAD
1000
AcDbSavedByObjectVersion
1070
     0
  0
VISUALSTYLE
  5
34
102
{ACAD_REACTORS
330
2A
102
}
330
2A
100
AcDbVisualStyle
  2
Conceptual
 70
     9
 71
     3
 72
     2
 73
     0
 90
        0
 40
-0.6
 41
-30.0
 62
     5
 63
     7
 74
     2
 91
        2
 64
     7
 65
   257
 75
     1
175
     1
 42
40.0
 92
        8
 66
     7
 43
1.0
 76
     1
 77
     6
 78
     2
 67
     7
 79
     3
170
     0
171
     0
290
     0
174
     0
 93
        1
 44
0.0
173
     0
291
     0
 45
0.0
1001
ACAD
1000
AcDbSavedByObjectVersion
1070
     0
  0
VISUALSTYLE
  5
35
102
{ACAD_REACTORS
330
2A
102
}
330
2A
100
AcDbVisualStyle
  2
Dim
 70
    11
 71
     2
 72
     2
 73
     0
 90
        0
 40
-0.6
 41
-30.0
 62
     5
 63
     7
 74
     1
 91
        4
 64
     7
 65
   257
 75
     1
175
     1
 42
1.0
 92
        8
 66
     7
 43
1.0
 76
     1
 77
     6
 78
     2
 67
     7
 79
     5
170
     0
171
     0
290
     0
174
     0
 93
        1
 44
-50.0
173
     0
291
     1
 45
0.0
1001
ACAD
1000
AcDbSavedByObjectVersion
1070
     0
  0
VISUALSTYLE
  5
39
102
{ACAD_REACTORS
330
2A
102
}
330
2A
100
AcDbVisualStyle
  2
Facepattern
 70
    15
 71
     2
 72
     2
 73
     0
 90
        0
 40
-0.6
 41
-30.0
 62
     5
 63
     7
 74
     1
 91
        4
 64
     7
 65
   257
 75
     1
175
     1
 42
1.0
 92
        8
 66
     7
 43
1.0
 76
     1
 77
     6
 78
     2
 67
     7
 79
     5
170
     0
171
     0
290
     0
174
     0
 93
        1
 44
0.0
173
     0
291
     1
 45
0.0
1001
ACAD
1000
AcDbSavedByObjectVersion
1070
     0
  0
VISUALSTYLE
  5
2B
102
{ACAD_REACTORS
330
2A
102
}
330
2A
100
AcDbVisualStyle
  2
Flat
 70
     0
 71
     2
 72
     1
 73
     1
 90
        2
 40
-0.6
 41
30.0
 62
     5
 63
     7
 74
     0
 91
        4
 64
     7
 65
   257
 75
     1
175
     1
 42
1.0
 92
        8
 66
     7
 43
1.0
 76
     1
 77
     6
 78
     2
 67
     7
 79
     5
170
     0
171
     0
290
     0
174
     0
 93
       13
 44
0.0
173
     0
291
     1
 45
0.0
1001
ACAD
1000
AcDbSavedByObjectVersion
1070
     0
  0
VISUALSTYLE
  5
2C
102
{ACAD_REACTORS
330
2A
102
}
330
2A
100
AcDbVisualStyle
  2
FlatWithEdges
 70
     1
 71
     2
 72
     1
 73
     1
 90
        2
 40
-0.6
 41
30.0
 62
     5
 63
     7
 74
     1
 91
        4
 64
     7
 65
   257
 75
     1
175
     1
 42
1.0
 92
        0
 66
   257
 43
1.0
 76
     1
 77
     6
 78
     2
 67
     7
 79
     5
170
     0
171
     0
290
     0
174
     0
 93
       13
 44
0.0
173
     0
291
     1
 45
0.0
1001
ACAD
1000
AcDbSavedByObjectVersion
1070
     0
  0
VISUALSTYLE
  5
2D
102
{ACAD_REACTORS
330
2A
102
}
330
2A
100
AcDbVisualStyle
  2
Gouraud
 70
     2
 71
     2
 72
     2
 73
     1
 90
        2
 40
-0.6
 41
30.0
 62
     5
 63
     7
 74
     0
 91
        4
 64
     7
 65
   257
 75
     1
175
     1
 42
1.0
 92
        0
 66
     7
 43
1.0
 76
     1
 77
     6
 78
     2
 67
     7
 79
     5
170
     0
171
     0
290
     0
174
     0
 93
       13
 44
0.0
173
     0
291
     1
 45
0.0
1001
ACAD
1000
AcDbSavedByObjectVersion
1070
     0
  0
VISUALSTYLE
  5
2E
102
{ACAD_REACTORS
330
2A
102
}
330
2A
100
AcDbVisualStyle
  2
GouraudWithEdges
 70
     3
 71
     2
 72
     2
 73
     1
 90
        2
 40
-0.6
 41
30.0
 62
     5
 63
     7
 74
     1
 91
        4
 64
     7
 65
   257
 75
     1
175
     1
 42
1.0
 92
        0
 66
   257
 43
1.0
 76
     1
 77
     6
 78
     2
 67
     7
 79
     5
170
     0
171
     0
290
     0
174
     0
 93
       13
 44
0.0
173
     0
291
     1
 45
0.0
1001
ACAD
1000
AcDbSavedByObjectVersion
1070
     0
  0
VISUALSTYLE
  5
38
102
{ACAD_REACTORS
330
2A
102
}
330
2A
100
AcDbVisualStyle
  2
Linepattern
 70
    14
 71
     2
 72
     2
 73
     0
 90
        0
 40
-0.6
 41
-30.0
 62
     5
 63
     7
 74
     1
 91
        4
 64
     7
 65
   257
 75
     7
175
     7
 42
1.0
 92
        8
 66
     7
 43
1.0
 76
     1
 77
     6
 78
     2
 67
     7
 79
     5
170
     0
171
     0
290
     0
174
     0
 93
        1
 44
0.0
173
     0
291
     1
 45
0.0
1001
ACAD
1000
AcDbSavedByObjectVersion
1070
     0
  0
VISUALSTYLE
  5
33
102
{ACAD_REACTORS
330
2A
102
}
330
2A
100
AcDbVisualStyle
  2
Realistic
 70
     8
 71
     2
 72
     2
 73
     0
 90
        0
 40
-0.6
 41
-30.0
 62
     5
 63
     7
 74
     1
 91
        0
 64
     7
 65
   257
 75
     1
175
     1
 42
1.0
 92
        8
 66
     8
 43
1.0
 76
     1
 77
     6
 78
     2
 67
     7
 79
     5
170
     0
171
     0
290
     0
174
     0
 93
       13
 44
0.0
173
     0
291
     0
 45
0.0
1001
ACAD
1000
AcDbSavedByObjectVersion
1070
     0
  0
VISUALSTYLE
  5
37
102
{ACAD_REACTORS
330
2A
102
}
330
2A
100
AcDbVisualStyle
  2
Thicken
 70
    13
 71
     2
 72
     2
 73
     0
 90
        0
 40
-0.6
 41
-30.0
 62
     5
 63
     7
 74
     1
 91
        4
 64
     7
 65
   257
 75
     1
175
     1
 42
1.0
 92
       12
 66
     7
 43
1.0
 76
     1
 77
     6
 78
     2
 67
     7
 79
     5
170
     0
171
     0
290
     0
174
     0
 93
        1
 44
0.0
173
     0
291
     1
 45
0.0
1001
ACAD
1000
AcDbSavedByObjectVersion
1070
     0
  0
DICTIONARYVAR
  5
1EF
102
{ACAD_REACTORS
330
1EE
102
}
330
1EE
100
DictionaryVariables
280
     0
  1
1:1
  0
DICTIONARYVAR
  5
1F3
102
{ACAD_REACTORS
330
1EE
102
}
330
1EE
100
DictionaryVariables
280
     0
  1
80.000000
  0
DICTIONARYVAR
  5
1F2
102
{ACAD_REACTORS
330
1EE
102
}
330
1EE
100
DictionaryVariables
280
     0
  1
5.000000
  0
ENDSEC
  0
EOF
